  0
SECTION
  2
HEADER
  9
$ACADVER
  1
AC1032
  9
$ACADMAINTVER
 90
      251
  9
$DWGCODEPAGE
  3
ANSI_1252
  9
$REQUIREDVERSIONS
160
                 0
  9
$INSBASE
 10
0.0
 20
0.0
 30
0.0
  9
$EXTMIN
 10
1.000000000000000E+20
 20
1.000000000000000E+20
 30
1.000000000000000E+20
  9
$EXTMAX
 10
-1.000000000000000E+20
 20
-1.000000000000000E+20
 30
-1.000000000000000E+20
  9
$LIMMIN
 10
0.0
 20
0.0
  9
$LIMMAX
 10
12.0
 20
9.0
  9
$ORTHOMODE
 70
     0
  9
$REGENMODE
 70
     1
  9
$FILLMODE
 70
     1
  9
$QTEXTMODE
 70
     0
  9
$MIRRTEXT
 70
     0
  9
$LTSCALE
 40
1.0
  9
$ATTMODE
 70
     1
  9
$TEXTSIZE
 40
0.2
  9
$TRACEWID
 40
0.05
  9
$TEXTSTYLE
  7
Standard
  9
$CLAYER
  8
0
  9
$CELTYPE
  6
ByLayer
  9
$CECOLOR
 62
   256
  9
$CELTSCALE
 40
1.0
  9
$DISPSILH
 70
     0
  9
$DIMSCALE
 40
1.0
  9
$DIMASZ
 40
0.18
  9
$DIMEXO
 40
0.0625
  9
$DIMDLI
 40
0.38
  9
$DIMRND
 40
0.0
  9
$DIMDLE
 40
0.0
  9
$DIMEXE
 40
0.18
  9
$DIMTP
 40
0.0
  9
$DIMTM
 40
0.0
  9
$DIMTXT
 40
0.18
  9
$DIMCEN
 40
0.09
  9
$DIMTSZ
 40
0.0
  9
$DIMTOL
 70
     0
  9
$DIMLIM
 70
     0
  9
$DIMTIH
 70
     1
  9
$DIMTOH
 70
     1
  9
$DIMSE1
 70
     0
  9
$DIMSE2
 70
     0
  9
$DIMTAD
 70
     0
  9
$DIMZIN
 70
     0
  9
$DIMBLK
  1

  9
$DIMASO
 70
     1
  9
$DIMSHO
 70
     1
  9
$DIMPOST
  1

  9
$DIMAPOST
  1

  9
$DIMALT
 70
     0
  9
$DIMALTD
 70
     2
  9
$DIMALTF
 40
25.4
  9
$DIMLFAC
 40
1.0
  9
$DIMTOFL
 70
     0
  9
$DIMTVP
 40
0.0
  9
$DIMTIX
 70
     0
  9
$DIMSOXD
 70
     0
  9
$DIMSAH
 70
     0
  9
$DIMBLK1
  1

  9
$DIMBLK2
  1

  9
$DIMSTYLE
  2
Standard
  9
$DIMCLRD
 70
     0
  9
$DIMCLRE
 70
     0
  9
$DIMCLRT
 70
     0
  9
$DIMTFAC
 40
1.0
  9
$DIMGAP
 40
0.09
  9
$DIMJUST
 70
     0
  9
$DIMSD1
 70
     0
  9
$DIMSD2
 70
     0
  9
$DIMTOLJ
 70
     1
  9
$DIMTZIN
 70
     0
  9
$DIMALTZ
 70
     0
  9
$DIMALTTZ
 70
     0
  9
$DIMUPT
 70
     0
  9
$DIMDEC
 70
     4
  9
$DIMTDEC
 70
     4
  9
$DIMALTU
 70
     2
  9
$DIMALTTD
 70
     2
  9
$DIMTXSTY
  7
Standard
  9
$DIMAUNIT
 70
     0
  9
$DIMADEC
 70
     0
  9
$DIMALTRND
 40
0.0
  9
$DIMAZIN
 70
     0
  9
$DIMDSEP
 70
    46
  9
$DIMATFIT
 70
     3
  9
$DIMFRAC
 70
     0
  9
$DIMLDRBLK
  1

  9
$DIMLUNIT
 70
     2
  9
$DIMLWD
 70
    -2
  9
$DIMLWE
 70
    -2
  9
$DIMTMOVE
 70
     0
  9
$DIMFXL
 40
1.0
  9
$DIMFXLON
 70
     0
  9
$DIMJOGANG
 40
0.7853981633974483
  9
$DIMTFILL
 70
     0
  9
$DIMTFILLCLR
 70
     0
  9
$DIMARCSYM
 70
     0
  9
$DIMLTYPE
  6

  9
$DIMLTEX1
  6

  9
$DIMLTEX2
  6

  9
$DIMTXTDIRECTION
 70
     0
  9
$LUNITS
 70
     2
  9
$LUPREC
 70
     4
  9
$SKETCHINC
 40
0.1
  9
$FILLETRAD
 40
0.0
  9
$AUNITS
 70
     0
  9
$AUPREC
 70
     0
  9
$MENU
  1
.
  9
$ELEVATION
 40
0.0
  9
$PELEVATION
 40
0.0
  9
$THICKNESS
 40
0.0
  9
$LIMCHECK
 70
     0
  9
$CHAMFERA
 40
0.0
  9
$CHAMFERB
 40
0.0
  9
$CHAMFERC
 40
0.0
  9
$CHAMFERD
 40
0.0
  9
$SKPOLY
 70
     0
  9
$TDCREATE
 40
2460028.605451389
  9
$TDUCREATE
 40
2460028.563784722
  9
$TDUPDATE
 40
2460028.605451389
  9
$TDUUPDATE
 40
2460028.563784722
  9
$TDINDWG
 40
0.0000000000
  9
$TDUSRTIMER
 40
0.0000000000
  9
$USRTIMER
 70
     1
  9
$ANGBASE
 50
0.0
  9
$ANGDIR
 70
     0
  9
$PDMODE
 70
     0
  9
$PDSIZE
 40
0.0
  9
$PLINEWID
 40
0.0
  9
$SPLFRAME
 70
     0
  9
$SPLINETYPE
 70
     6
  9
$SPLINESEGS
 70
     8
  9
$HANDSEED
  5
186
  9
$SURFTAB1
 70
     6
  9
$SURFTAB2
 70
     6
  9
$SURFTYPE
 70
     6
  9
$SURFU
 70
     6
  9
$SURFV
 70
     6
  9
$UCSBASE
  2

  9
$UCSNAME
  2

  9
$UCSORG
 10
0.0
 20
0.0
 30
0.0
  9
$UCSXDIR
 10
1.0
 20
0.0
 30
0.0
  9
$UCSYDIR
 10
0.0
 20
1.0
 30
0.0
  9
$UCSORTHOREF
  2

  9
$UCSORTHOVIEW
 70
     0
  9
$UCSORGTOP
 10
0.0
 20
0.0
 30
0.0
  9
$UCSORGBOTTOM
 10
0.0
 20
0.0
 30
0.0
  9
$UCSORGLEFT
 10
0.0
 20
0.0
 30
0.0
  9
$UCSORGRIGHT
 10
0.0
 20
0.0
 30
0.0
  9
$UCSORGFRONT
 10
0.0
 20
0.0
 30
0.0
  9
$UCSORGBACK
 10
0.0
 20
0.0
 30
0.0
  9
$PUCSBASE
  2

  9
$PUCSNAME
  2

  9
$PUCSORG
 10
0.0
 20
0.0
 30
0.0
  9
$PUCSXDIR
 10
1.0
 20
0.0
 30
0.0
  9
$PUCSYDIR
 10
0.0
 20
1.0
 30
0.0
  9
$PUCSORTHOREF
  2

  9
$PUCSORTHOVIEW
 70
     0
  9
$PUCSORGTOP
 10
0.0
 20
0.0
 30
0.0
  9
$PUCSORGBOTTOM
 10
0.0
 20
0.0
 30
0.0
  9
$PUCSORGLEFT
 10
0.0
 20
0.0
 30
0.0
  9
$PUCSORGRIGHT
 10
0.0
 20
0.0
 30
0.0
  9
$PUCSORGFRONT
 10
0.0
 20
0.0
 30
0.0
  9
$PUCSORGBACK
 10
0.0
 20
0.0
 30
0.0
  9
$USERI1
 70
     0
  9
$USERI2
 70
     0
  9
$USERI3
 70
     0
  9
$USERI4
 70
     0
  9
$USERI5
 70
     0
  9
$USERR1
 40
0.0
  9
$USERR2
 40
0.0
  9
$USERR3
 40
0.0
  9
$USERR4
 40
0.0
  9
$USERR5
 40
0.0
  9
$WORLDVIEW
 70
     1
  9
$SHADEDGE
 70
     3
  9
$SHADEDIF
 70
    70
  9
$TILEMODE
 70
     1
  9
$MAXACTVP
 70
    64
  9
$PINSBASE
 10
0.0
 20
0.0
 30
0.0
  9
$PLIMCHECK
 70
     0
  9
$PEXTMIN
 10
1.000000000000000E+20
 20
1.000000000000000E+20
 30
1.000000000000000E+20
  9
$PEXTMAX
 10
-1.000000000000000E+20
 20
-1.000000000000000E+20
 30
-1.000000000000000E+20
  9
$PLIMMIN
 10
0.0
 20
0.0
  9
$PLIMMAX
 10
12.0
 20
9.0
  9
$UNITMODE
 70
     0
  9
$VISRETAIN
 70
     1
  9
$PLINEGEN
 70
     0
  9
$PSLTSCALE
 70
     1
  9
$TREEDEPTH
 70
  3020
  9
$CMLSTYLE
  2
Standard
  9
$CMLJUST
 70
     0
  9
$CMLSCALE
 40
1.0
  9
$PROXYGRAPHICS
 70
     1
  9
$MEASUREMENT
 70
     0
  9
$CELWEIGHT
370
    -1
  9
$ENDCAPS
280
     0
  9
$JOINSTYLE
280
     0
  9
$LWDISPLAY
290
     1
  9
$INSUNITS
 70
     4
  9
$HYPERLINKBASE
  1

  9
$STYLESHEET
  1

  9
$XEDIT
290
     1
  9
$CEPSNTYPE
380
     0
  9
$PSTYLEMODE
290
     1
  9
$FINGERPRINTGUID
  2
{8D40B666-815F-DA48-8B40-BB622D5DF808}
  9
$VERSIONGUID
  2
{860635D0-4DB7-E342-AF67-8BBC7E9668C1}
  9
$EXTNAMES
290
     1
  9
$PSVPSCALE
 40
0.0
  9
$OLESTARTUP
290
     0
  9
$SORTENTS
280
   127
  9
$INDEXCTL
280
     0
  9
$HIDETEXT
280
     1
  9
$XCLIPFRAME
280
     2
  9
$HALOGAP
280
     0
  9
$OBSCOLOR
 70
   257
  9
$OBSLTYPE
280
     0
  9
$INTERSECTIONDISPLAY
280
     0
  9
$INTERSECTIONCOLOR
 70
   257
  9
$DIMASSOC
280
     2
  9
$PROJECTNAME
  1

  9
$CAMERADISPLAY
290
     0
  9
$LENSLENGTH
 40
50.0
  9
$CAMERAHEIGHT
 40
0.0
  9
$STEPSPERSEC
 40
2.0
  9
$STEPSIZE
 40
6.0
  9
$3DDWFPREC
 40
2.0
  9
$PSOLWIDTH
 40
0.25
  9
$PSOLHEIGHT
 40
4.0
  9
$LOFTANG1
 40
1.570796326794896
  9
$LOFTANG2
 40
1.570796326794896
  9
$LOFTMAG1
 40
0.0
  9
$LOFTMAG2
 40
0.0
  9
$LOFTPARAM
 70
     7
  9
$LOFTNORMALS
280
     1
  9
$LATITUDE
 40
37.795
  9
$LONGITUDE
 40
-122.394
  9
$NORTHDIRECTION
 40
0.0
  9
$TIMEZONE
 70
 -8000
  9
$LIGHTGLYPHDISPLAY
280
     1
  9
$TILEMODELIGHTSYNCH
280
     1
  9
$CMATERIAL
347
11
  9
$SOLIDHIST
280
     0
  9
$SHOWHIST
280
     1
  9
$DWFFRAME
280
     2
  9
$DGNFRAME
280
     0
  9
$REALWORLDSCALE
290
     1
  9
$INTERFERECOLOR
 62
     1
  9
$INTERFEREOBJVS
345
33
  9
$INTERFEREVPVS
346
30
  9
$CSHADOW
280
     0
  9
$SHADOWPLANELOCATION
 40
0.0
  0
ENDSEC
  0
SECTION
  2
CLASSES
  0
CLASS
  1
ACDBDICTIONARYWDFLT
  2
AcDbDictionaryWithDefault
  3
ObjectDBX Classes
 90
        0
 91
        1
280
     0
281
     0
  0
CLASS
  1
MATERIAL
  2
AcDbMaterial
  3
ObjectDBX Classes
 90
     1153
 91
        3
280
     0
281
     0
  0
CLASS
  1
VISUALSTYLE
  2
AcDbVisualStyle
  3
ObjectDBX Classes
 90
     4095
 91
       24
280
     0
281
     0
  0
CLASS
  1
SCALE
  2
AcDbScale
  3
ObjectDBX Classes
 90
     1153
 91
       17
280
     0
281
     0
  0
CLASS
  1
TABLESTYLE
  2
AcDbTableStyle
  3
ObjectDBX Classes
 90
     4095
 91
        1
280
     0
281
     0
  0
CLASS
  1
MLEADERSTYLE
  2
AcDbMLeaderStyle
  3
ACDB_MLEADERSTYLE_CLASS
 90
     4095
 91
        1
280
     0
281
     0
  0
CLASS
  1
ACDBSECTIONVIEWSTYLE
  2
AcDbSectionViewStyle
  3
ObjectDBX Classes
 90
     1025
 91
        1
280
     0
281
     0
  0
CLASS
  1
ACDBDETAILVIEWSTYLE
  2
AcDbDetailViewStyle
  3
ObjectDBX Classes
 90
     1025
 91
        1
280
     0
281
     0
  0
CLASS
  1
DICTIONARYVAR
  2
AcDbDictionaryVar
  3
ObjectDBX Classes
 90
        0
 91
        5
280
     0
281
     0
  0
CLASS
  1
CELLSTYLEMAP
  2
AcDbCellStyleMap
  3
ObjectDBX Classes
 90
     1152
 91
        1
280
     0
281
     0
  0
ENDSEC
  0
SECTION
  2
TABLES
  0
TABLE
  2
VPORT
  5
8
330
0
100
AcDbSymbolTable
 70
     1
  0
VPORT
  5
57
330
8
100
AcDbSymbolTableRecord
100
AcDbViewportTableRecord
  2
*Active
 70
     0
 10
0.0
 20
0.0
 11
1.0
 21
1.0
 12
0.0
 22
0.0
 13
0.0
 23
0.0
 14
1.0
 24
1.0
 15
0.0
 25
0.0
 16
0.0
 26
0.0
 36
1.0
 17
112.7611110829207
 27
19.29444443962414
 37
0.0
 40
302.9399999242652
 41
0.7070707070707058
 42
50.0
 43
0.0
 44
0.0
 50
0.0
 51
0.0
 71
     0
 72
   100
 73
     1
 74
     1
 75
     0
 76
     0
 77
     0
 78
     0
281
     0
 65
     1
110
0.0
120
0.0
130
0.0
111
1.0
121
0.0
131
0.0
112
0.0
122
1.0
132
0.0
 79
     0
146
0.0
 60
     3
 61
     5
292
     1
282
     1
141
0.0
142
0.0
 63
   250
421
  3355443
  0
ENDTAB
  0
TABLE
  2
LTYPE
  5
5
330
0
100
AcDbSymbolTable
 70
     1
  0
LTYPE
  5
5B
330
5
100
AcDbSymbolTableRecord
100
AcDbLinetypeTableRecord
  2
ByBlock
 70
     0
  3

 72
    65
 73
     0
 40
0.0
  0
LTYPE
  5
5C
330
5
100
AcDbSymbolTableRecord
100
AcDbLinetypeTableRecord
  2
ByLayer
 70
     0
  3

 72
    65
 73
     0
 40
0.0
  0
LTYPE
  5
5D
330
5
100
AcDbSymbolTableRecord
100
AcDbLinetypeTableRecord
  2
Continuous
 70
     0
  3
Solid line
 72
    65
 73
     0
 40
0.0
  0
ENDTAB
  0
TABLE
  2
LAYER
  5
2
330
0
100
AcDbSymbolTable
 70
     2
  0
LAYER
  5
54
330
2
100
AcDbSymbolTableRecord
100
AcDbLayerTableRecord
  2
0
 70
     0
 62
     7
  6
Continuous
370
     0
390
F
347
21
348
0
  0
LAYER
  5
157
330
2
100
AcDbSymbolTableRecord
100
AcDbLayerTableRecord
  2
CAPA_BASE
 70
     0
 62
     7
  6
Continuous
370
     0
390
F
347
21
348
0
  0
ENDTAB
  0
TABLE
  2
STYLE
  5
3
330
0
100
AcDbSymbolTable
 70
     2
  0
STYLE
  5
55
330
3
100
AcDbSymbolTableRecord
100
AcDbTextStyleTableRecord
  2
Standard
 70
     0
 40
0.0
 41
1.0
 50
0.0
 71
     0
 42
0.2
  3
txt
  4

  0
STYLE
  5
5A
330
3
100
AcDbSymbolTableRecord
100
AcDbTextStyleTableRecord
  2
Annotative
 70
     0
 40
0.0
 41
1.0
 50
0.0
 71
     0
 42
0.2
  3
txt
  4

1001
AcadAnnotative
1000
AnnotativeData
1002
{
1070
     1
1070
     1
1002
}
  0
ENDTAB
  0
TABLE
  2
VIEW
  5
6
330
0
100
AcDbSymbolTable
 70
     0
  0
ENDTAB
  0
TABLE
  2
UCS
  5
7
330
0
100
AcDbSymbolTable
 70
     0
  0
ENDTAB
  0
TABLE
  2
APPID
  5
9
330
0
100
AcDbSymbolTable
 70
     2
  0
APPID
  5
56
330
9
100
AcDbSymbolTableRecord
100
AcDbRegAppTableRecord
  2
ACAD
 70
     0
  0
APPID
  5
5E
330
9
100
AcDbSymbolTableRecord
100
AcDbRegAppTableRecord
  2
AcadAnnotative
 70
     0
  0
ENDTAB
  0
TABLE
  2
DIMSTYLE
  5
A
330
0
100
AcDbSymbolTable
 70
     2
100
AcDbDimStyleTable
 71
     0
  0
DIMSTYLE
105
58
330
A
100
AcDbSymbolTableRecord
100
AcDbDimStyleTableRecord
  2
Standard
 70
     0
340
55
  0
DIMSTYLE
105
59
330
A
100
AcDbSymbolTableRecord
100
AcDbDimStyleTableRecord
  2
Annotative
 70
     0
340
55
1001
AcadAnnotative
1000
AnnotativeData
1002
{
1070
     1
1070
     1
1002
}
  0
ENDTAB
  0
TABLE
  2
BLOCK_RECORD
  5
1
330
0
100
AcDbSymbolTable
 70
     4
  0
BLOCK_RECORD
  5
70
330
1
100
AcDbSymbolTableRecord
100
AcDbBlockTableRecord
  2
*Model_Space
340
73
 70
     0
280
     1
281
     0
  0
BLOCK_RECORD
  5
6C
330
1
100
AcDbSymbolTableRecord
100
AcDbBlockTableRecord
  2
*Paper_Space
340
6F
 70
     0
280
     1
281
     0
  0
BLOCK_RECORD
  5
74
330
1
100
AcDbSymbolTableRecord
100
AcDbBlockTableRecord
  2
*Paper_Space0
340
77
 70
     0
280
     1
281
     0
  0
BLOCK_RECORD
  5
158
330
1
100
AcDbSymbolTableRecord
100
AcDbBlockTableRecord
  2
Block_0
340
0
102
{BLKREFS
331
159
102
}
 70
     0
280
     1
281
     0
  0
BLOCK_RECORD
  5
165
330
1
100
AcDbSymbolTableRecord
100
AcDbBlockTableRecord
  2
Block_1
340
0
102
{BLKREFS
331
166
102
}
 70
     0
280
     1
281
     0
  0
BLOCK_RECORD
  5
171
330
1
100
AcDbSymbolTableRecord
100
AcDbBlockTableRecord
  2
Block_2
340
0
102
{BLKREFS
331
172
102
}
 70
     0
280
     1
281
     0
  0
ENDTAB
  0
ENDSEC
  0
SECTION
  2
BLOCKS
  0
BLOCK
  5
71
330
70
100
AcDbEntity
  8
0
100
AcDbBlockBegin
  2
*Model_Space
 70
     0
 10
0.0
 20
0.0
 30
0.0
  3
*Model_Space
  1

  0
ENDBLK
  5
72
330
70
100
AcDbEntity
  8
0
100
AcDbBlockEnd
  0
BLOCK
  5
6D
330
6C
100
AcDbEntity
 67
     1
  8
0
100
AcDbBlockBegin
  2
*Paper_Space
 70
     0
 10
0.0
 20
0.0
 30
0.0
  3
*Paper_Space
  1

  0
ENDBLK
  5
6E
330
6C
100
AcDbEntity
 67
     1
  8
0
100
AcDbBlockEnd
  0
BLOCK
  5
75
330
74
100
AcDbEntity
 67
     1
  8
0
100
AcDbBlockBegin
  2
*Paper_Space0
 70
     0
 10
0.0
 20
0.0
 30
0.0
  3
*Paper_Space0
  1

  0
ENDBLK
  5
76
330
74
100
AcDbEntity
 67
     1
  8
0
100
AcDbBlockEnd
  0
BLOCK
  5
15A
330
158
100
AcDbEntity
  8
0
100
AcDbBlockBegin
  2
Block_0
 70
     0
 10
0.0
 20
0.0
 30
0.0
  3
Block_0
  1

  0
LWPOLYLINE
  5
15C
330
158
100
AcDbEntity
  8
CAPA_BASE
100
AcDbPolyline
 90
        4
 70
     1
 43
0.0
 10
42.7053757432398
 20
-13.50103138208415
 10
45.20537574323988
 20
-13.81103138208388
 10
45.20537574323988
 20
-13.19103138208379
 10
45.20537574323988
 20
-13.19103138208379
  0
HATCH
  5
15D
330
158
100
AcDbEntity
  8
CAPA_BASE
 62
    18
420
        0
440
 33554687
100
AcDbHatch
 10
0.0
 20
0.0
 30
0.0
210
0.0
220
0.0
230
1.0
  2
SOLID
 70
     1
 71
     1
 91
        1
 92
        1
 93
        3
 72
     1
 10
42.7053757432398
 20
-13.50103138208415
 11
45.20537574323988
 21
-13.81103138208388
 72
     1
 10
45.20537574323988
 20
-13.81103138208388
 11
45.20537574323988
 21
-13.19103138208379
 72
     1
 10
45.20537574323988
 20
-13.19103138208379
 11
42.7053757432398
 21
-13.50103138208415
 97
        1
330
15C
 75
     2
 76
     1
 98
        1
 10
0.0
 20
0.0
450
        0
451
        0
460
0.0
461
0.0
452
        0
462
0.0
453
        0
470

  0
LWPOLYLINE
  5
15E
330
158
100
AcDbEntity
  8
CAPA_BASE
100
AcDbPolyline
 90
        4
 70
     1
 43
0.0
 10
68.03870907653969
 20
-13.50103138208415
 10
65.53870907653993
 20
-13.19103138208379
 10
65.53870907653993
 20
-13.81103138208388
 10
65.53870907653993
 20
-13.81103138208388
  0
HATCH
  5
15F
330
158
100
AcDbEntity
  8
CAPA_BASE
 62
    18
420
        0
440
 33554687
100
AcDbHatch
 10
0.0
 20
0.0
 30
0.0
210
0.0
220
0.0
230
1.0
  2
SOLID
 70
     1
 71
     1
 91
        1
 92
        1
 93
        3
 72
     1
 10
68.03870907653969
 20
-13.50103138208415
 11
65.53870907653993
 21
-13.19103138208379
 72
     1
 10
65.53870907653993
 20
-13.19103138208379
 11
65.53870907653993
 21
-13.81103138208388
 72
     1
 10
65.53870907653993
 20
-13.81103138208388
 11
68.03870907653969
 21
-13.50103138208415
 97
        1
330
15E
 75
     2
 76
     1
 98
        1
 10
0.0
 20
0.0
450
        0
451
        0
460
0.0
461
0.0
452
        0
462
0.0
453
        0
470

  0
LINE
  5
160
330
158
100
AcDbEntity
  8
CAPA_BASE
 62
    18
420
        0
370
    18
100
AcDbLine
 10
42.7053757432398
 20
26.70730195131629
 30
0.0
 11
42.7053757432398
 21
-14.50103138208419
 31
0.0
  0
LINE
  5
161
330
158
100
AcDbEntity
  8
CAPA_BASE
 62
    18
420
        0
370
    18
100
AcDbLine
 10
68.03870907653969
 20
26.70730195131629
 30
0.0
 11
68.03870907653969
 21
-14.50103138208419
 31
0.0
  0
LINE
  5
162
330
158
100
AcDbEntity
  8
CAPA_BASE
 62
    18
420
        0
370
    18
100
AcDbLine
 10
42.7053757432398
 20
-13.50103138208415
 30
0.0
 11
68.03870907653969
 21
-13.50103138208415
 31
0.0
  0
MTEXT
  5
163
330
158
100
AcDbEntity
  8
CAPA_BASE
100
AcDbMText
 10
51.92198684242043
 20
-12.79607240568906
 30
0.0
 40
0.2
 41
0.0
 46
0.0
 71
     7
 72
     1
  1
\C18;\c0;\FArial Bold|b1|i0|c1;\H2.997200;\W0.700000;Ø
 73
     1
 44
1.0
  0
MTEXT
  5
164
330
158
100
AcDbEntity
  8
CAPA_BASE
100
AcDbMText
 10
55.29432083442946
 20
-12.79607240568906
 30
0.0
 40
0.2
 41
0.0
 46
0.0
 71
     7
 72
     1
  1
\C18;\c0;\FArial Bold|b1|i0|c1;\H2.997200;\W0.700000;76
 73
     1
 44
1.0
  0
ENDBLK
  5
15B
330
158
100
AcDbEntity
  8
0
100
AcDbBlockEnd
  0
BLOCK
  5
167
330
165
100
AcDbEntity
  8
0
100
AcDbBlockBegin
  2
Block_1
 70
     0
 10
0.0
 20
0.0
 30
0.0
  3
Block_1
  1

  0
LWPOLYLINE
  5
169
330
165
100
AcDbEntity
  8
CAPA_BASE
100
AcDbPolyline
 90
        4
 70
     1
 43
0.0
 10
78.05942904113987
 20
-29.97153219558371
 10
77.74942904113982
 20
-32.47153219558413
 10
78.36942904113991
 20
-32.47153219558413
 10
78.36942904113991
 20
-32.47153219558413
  0
HATCH
  5
16A
330
165
100
AcDbEntity
  8
CAPA_BASE
 62
    18
420
        0
440
 33554687
100
AcDbHatch
 10
0.0
 20
0.0
 30
0.0
210
0.0
220
0.0
230
1.0
  2
SOLID
 70
     1
 71
     1
 91
        1
 92
        1
 93
        3
 72
     1
 10
78.05942904113987
 20
-29.97153219558371
 11
77.74942904113982
 21
-32.47153219558413
 72
     1
 10
77.74942904113982
 20
-32.47153219558413
 11
78.36942904113991
 21
-32.47153219558413
 72
     1
 10
78.36942904113991
 20
-32.47153219558413
 11
78.05942904113987
 21
-29.97153219558371
 97
        1
330
169
 75
     2
 76
     1
 98
        1
 10
0.0
 20
0.0
450
        0
451
        0
460
0.0
461
0.0
452
        0
462
0.0
453
        0
470

  0
LWPOLYLINE
  5
16B
330
165
100
AcDbEntity
  8
CAPA_BASE
100
AcDbPolyline
 90
        4
 70
     1
 43
0.0
 10
78.05942904113987
 20
-66.32557914738384
 10
78.36942904113991
 20
-63.82557914738407
 10
77.74942904113982
 20
-63.82557914738407
 10
77.74942904113982
 20
-63.82557914738407
  0
HATCH
  5
16C
330
165
100
AcDbEntity
  8
CAPA_BASE
 62
    18
420
        0
440
 33554687
100
AcDbHatch
 10
0.0
 20
0.0
 30
0.0
210
0.0
220
0.0
230
1.0
  2
SOLID
 70
     1
 71
     1
 91
        1
 92
        1
 93
        3
 72
     1
 10
78.05942904113987
 20
-66.32557914738384
 11
78.36942904113991
 21
-63.82557914738407
 72
     1
 10
78.36942904113991
 20
-63.82557914738407
 11
77.74942904113982
 21
-63.82557914738407
 72
     1
 10
77.74942904113982
 20
-63.82557914738407
 11
78.05942904113987
 21
-66.32557914738384
 97
        1
330
16B
 75
     2
 76
     1
 98
        1
 10
0.0
 20
0.0
450
        0
451
        0
460
0.0
461
0.0
452
        0
462
0.0
453
        0
470

  0
LINE
  5
16D
330
165
100
AcDbEntity
  8
CAPA_BASE
 62
    18
420
        0
370
    18
100
AcDbLine
 10
65.53870907653993
 20
-29.97153219558371
 30
0.0
 11
79.05942904113991
 21
-29.97153219558371
 31
0.0
  0
LINE
  5
16E
330
165
100
AcDbEntity
  8
CAPA_BASE
 62
    18
420
        0
370
    18
100
AcDbLine
 10
56.37204240993999
 20
-66.32557914738384
 30
0.0
 11
79.05942904113991
 21
-66.32557914738384
 31
0.0
  0
LINE
  5
16F
330
165
100
AcDbEntity
  8
CAPA_BASE
 62
    18
420
        0
370
    18
100
AcDbLine
 10
78.05942904113987
 20
-29.97153219558371
 30
0.0
 11
78.05942904113987
 21
-66.32557914738384
 31
0.0
  0
MTEXT
  5
170
330
165
100
AcDbEntity
  8
CAPA_BASE
100
AcDbMText
 10
77.35448377582804
 20
-50.79448783452424
 30
0.0
 40
0.2
 41
0.0
 46
0.0
 71
     7
 72
     1
  1
\C18;\c0;\FArial Bold|b1|i0|c1;\H2.997200;\W0.700000;109
 11
0.0000000000000003
 21
1.0
 31
0.0
 73
     1
 44
1.0
  0
ENDBLK
  5
168
330
165
100
AcDbEntity
  8
0
100
AcDbBlockEnd
  0
BLOCK
  5
173
330
171
100
AcDbEntity
  8
0
100
AcDbBlockBegin
  2
Block_2
 70
     0
 10
0.0
 20
0.0
 30
0.0
  3
Block_2
  1

  0
LWPOLYLINE
  5
175
330
171
100
AcDbEntity
  8
CAPA_BASE
100
AcDbPolyline
 90
        4
 70
     1
 43
0.0
 10
98.12745427233974
 20
119.8323019513161
 10
97.81745427233971
 20
117.332301951316
 10
98.43745427233978
 20
117.332301951316
 10
98.43745427233978
 20
117.332301951316
  0
HATCH
  5
176
330
171
100
AcDbEntity
  8
CAPA_BASE
 62
    18
420
        0
440
 33554687
100
AcDbHatch
 10
0.0
 20
0.0
 30
0.0
210
0.0
220
0.0
230
1.0
  2
SOLID
 70
     1
 71
     1
 91
        1
 92
        1
 93
        3
 72
     1
 10
98.12745427233974
 20
119.8323019513161
 11
97.81745427233971
 21
117.332301951316
 72
     1
 10
97.81745427233971
 20
117.332301951316
 11
98.43745427233978
 21
117.332301951316
 72
     1
 10
98.43745427233978
 20
117.332301951316
 11
98.12745427233974
 21
119.8323019513161
 97
        1
330
175
 75
     2
 76
     1
 98
        1
 10
0.0
 20
0.0
450
        0
451
        0
460
0.0
461
0.0
452
        0
462
0.0
453
        0
470

  0
LWPOLYLINE
  5
177
330
171
100
AcDbEntity
  8
CAPA_BASE
100
AcDbPolyline
 90
        4
 70
     1
 43
0.0
 10
98.12745427233974
 20
-3.501031382083803
 10
98.43745427233978
 20
-1.001031382084036
 10
97.81745427233971
 20
-1.001031382084036
 10
97.81745427233971
 20
-1.001031382084036
  0
HATCH
  5
178
330
171
100
AcDbEntity
  8
CAPA_BASE
 62
    18
420
        0
440
 33554687
100
AcDbHatch
 10
0.0
 20
0.0
 30
0.0
210
0.0
220
0.0
230
1.0
  2
SOLID
 70
     1
 71
     1
 91
        1
 92
        1
 93
        3
 72
     1
 10
98.12745427233974
 20
-3.501031382083803
 11
98.43745427233978
 21
-1.001031382084036
 72
     1
 10
98.43745427233978
 20
-1.001031382084036
 11
97.81745427233971
 21
-1.001031382084036
 72
     1
 10
97.81745427233971
 20
-1.001031382084036
 11
98.12745427233974
 21
-3.501031382083803
 97
        1
330
177
 75
     2
 76
     1
 98
        1
 10
0.0
 20
0.0
450
        0
451
        0
460
0.0
461
0.0
452
        0
462
0.0
453
        0
470

  0
LINE
  5
179
330
171
100
AcDbEntity
  8
CAPA_BASE
 62
    18
420
        0
370
    18
100
AcDbLine
 10
130.7941209389398
 20
119.8323019513161
 30
0.0
 11
97.1274542723397
 21
119.8323019513161
 31
0.0
  0
LINE
  5
17A
330
171
100
AcDbEntity
  8
CAPA_BASE
 62
    18
420
        0
370
    18
100
AcDbLine
 10
120.9559096735397
 20
-3.501031382083803
 30
0.0
 11
97.1274542723397
 21
-3.501031382083803
 31
0.0
  0
LINE
  5
17B
330
171
100
AcDbEntity
  8
CAPA_BASE
 62
    18
420
        0
370
    18
100
AcDbLine
 10
98.12745427233974
 20
119.8323019513161
 30
0.0
 11
98.12745427233974
 21
-3.501031382083803
 31
0.0
  0
MTEXT
  5
17C
330
171
100
AcDbEntity
  8
CAPA_BASE
100
AcDbMText
 10
97.42250410399517
 20
55.51978080209163
 30
0.0
 40
0.2
 41
0.0
 46
0.0
 71
     7
 72
     1
  1
\C18;\c0;\FArial Bold|b1|i0|c1;\H2.997200;\W0.700000;370
 11
0.0000000000000003
 21
1.0
 31
0.0
 73
     1
 44
1.0
  0
ENDBLK
  5
174
330
171
100
AcDbEntity
  8
0
100
AcDbBlockEnd
  0
ENDSEC
  0
SECTION
  2
ENTITIES
  0
LINE
  5
78
330
70
100
AcDbEntity
  8
0
 62
    18
420
        0
370
    18
100
AcDbLine
 10
53.81204240994002
 20
123.3862698811491
 30
0.0
 11
53.81204240994002
 21
123.1656352845491
 31
0.0
  0
LINE
  5
79
330
70
100
AcDbEntity
  8
0
 62
    18
420
        0
370
    18
100
AcDbLine
 10
57.14537574324012
 20
123.1656352845491
 30
0.0
 11
57.14537574324012
 21
123.3862698811491
 31
0.0
  0
SPLINE
  5
7A
330
70
100
AcDbEntity
  8
0
 62
    18
420
        0
370
    18
100
AcDbSpline
210
0.0
220
0.0
230
1.0
 70
     8
 71
     3
 72
     8
 73
     4
 74
     0
 42
0.0000000001
 43
0.0000000001
 40
0.0
 40
0.0
 40
0.0
 40
0.0
 40
1.0
 40
1.0
 40
1.0
 40
1.0
 10
57.14537574330685
 20
123.3862698811491
 30
0.0
 10
57.14537574330685
 20
123.4551652098724
 30
0.0
 10
57.10298513225065
 20
123.5169596133379
 30
0.0
 10
57.03870907664005
 20
123.5417619316782
 30
0.0
  0
SPLINE
  5
7B
330
70
100
AcDbEntity
  8
0
 62
    18
420
        0
370
    18
100
AcDbSpline
210
0.0
220
0.0
230
1.0
 70
     8
 71
     3
 72
     8
 73
     4
 74
     0
 42
0.0000000001
 43
0.0000000001
 40
0.0
 40
0.0
 40
0.0
 40
0.0
 40
1.0
 40
1.0
 40
1.0
 40
1.0
 10
53.91870907663988
 20
123.5417619316782
 30
0.0
 10
53.85443302102959
 20
123.5169596133379
 30
0.0
 10
53.8120424099734
 20
123.4551652098724
 30
0.0
 10
53.8120424099734
 20
123.3862698811491
 30
0.0
  0
SPLINE
  5
7C
330
70
100
AcDbEntity
  8
0
 62
    18
420
        0
370
    18
100
AcDbSpline
210
0.0
220
0.0
230
1.0
 70
     8
 71
     3
 72
     8
 73
     4
 74
     0
 42
0.0000000001
 43
0.0000000001
 40
0.0
 40
0.0
 40
0.0
 40
0.0
 40
1.0
 40
1.0
 40
1.0
 40
1.0
 10
57.03870907664037
 20
123.5417619317083
 30
0.0
 10
56.03478322321031
 20
123.929148624474
 30
0.0
 10
54.92263493006962
 20
123.929148624474
 30
0.0
 10
53.91870907663956
 20
123.5417619317083
 30
0.0
  0
SPLINE
  5
7D
330
70
100
AcDbEntity
  8
0
 62
    18
420
        0
370
    18
100
AcDbSpline
210
0.0
220
0.0
230
1.0
 70
     8
 71
     3
 72
    11
 73
     7
 74
     0
 42
0.0000000001
 43
0.0000000001
 40
0.0
 40
0.0
 40
0.0
 40
0.0
 40
1.0
 40
1.0
 40
1.0
 40
2.0
 40
2.0
 40
2.0
 40
2.0
 10
42.68466212482914
 20
25.3337563738989
 30
0.0
 10
42.68385886941703
 20
25.24171242047892
 30
0.0
 10
42.75782406933713
 20
25.16644488621757
 30
0.0
 10
42.84986802275711
 20
25.16564163080577
 30
0.0
 10
42.8503528187471
 20
25.16563740005449
 30
0.0
 10
42.85083763088961
 20
25.16563528464933
 30
0.0
 10
42.85132244533969
 20
25.16563528464933
 30
0.0
  0
SPLINE
  5
7E
330
70
100
AcDbEntity
  8
0
 62
    18
420
        0
370
    18
100
AcDbSpline
210
0.0
220
0.0
230
1.0
 70
     8
 71
     3
 72
    11
 73
     7
 74
     0
 42
0.0000000001
 43
0.0000000001
 40
0.0
 40
0.0
 40
0.0
 40
0.0
 40
1.0
 40
1.0
 40
1.0
 40
2.0
 40
2.0
 40
2.0
 40
2.0
 10
67.89276237453989
 20
25.16563528464933
 30
0.0
 10
67.98480983284496
 20
25.16563528464933
 30
0.0
 10
68.05942904120657
 20
25.24025449301127
 30
0.0
 10
68.05942904120657
 20
25.33230195131632
 30
0.0
 10
68.05942904120657
 20
25.33278676576607
 30
0.0
 10
68.05942692580109
 20
25.33327157790891
 30
0.0
 10
68.05942269505044
 20
25.3337563738989
 30
0.0
  0
LINE
  5
7F
330
70
100
AcDbEntity
  8
0
 62
    18
420
        0
370
    18
100
AcDbLine
 10
68.05942269503986
 20
25.33375637391623
 30
0.0
 11
68.03870907653969
 21
27.70730195131569
 31
0.0
  0
LINE
  5
80
330
70
100
AcDbEntity
  8
0
 62
    18
420
        0
370
    18
100
AcDbLine
 10
42.7053757432398
 20
27.70730195131569
 30
0.0
 11
42.68466212483973
 21
25.33375637391623
 31
0.0
  0
SPLINE
  5
81
330
70
100
AcDbEntity
  8
0
 62
    18
420
        0
370
    18
100
AcDbSpline
210
0.0
220
0.0
230
1.0
 70
     8
 71
     3
 72
     8
 73
     4
 74
     0
 42
0.0000000001
 43
0.0000000001
 40
0.0
 40
0.0
 40
0.0
 40
0.0
 40
1.0
 40
1.0
 40
1.0
 40
1.0
 10
68.0387090765429
 20
27.70730195131569
 30
0.0
 10
68.0387090765429
 20
28.58568570410837
 30
0.0
 10
68.01556233672515
 20
29.46391694253595
 30
0.0
 10
67.96929295844282
 20
30.34108121552171
 30
0.0
  0
SPLINE
  5
82
330
70
100
AcDbEntity
  8
0
 62
    18
420
        0
370
    18
100
AcDbSpline
210
0.0
220
0.0
230
1.0
 70
     8
 71
     3
 72
     8
 73
     4
 74
     0
 42
0.0000000001
 43
0.0000000001
 40
0.0
 40
0.0
 40
0.0
 40
0.0
 40
1.0
 40
1.0
 40
1.0
 40
1.0
 10
42.77479186133699
 20
30.34108121552171
 30
0.0
 10
42.72852248305465
 20
29.46391694253595
 30
0.0
 10
42.7053757432369
 20
28.58568570410837
 30
0.0
 10
42.7053757432369
 20
27.70730195131569
 30
0.0
  0
SPLINE
  5
83
330
70
100
AcDbEntity
  8
0
 62
    18
420
        0
370
    18
100
AcDbSpline
210
0.0
220
0.0
230
1.0
 70
     8
 71
     3
 72
     8
 73
     4
 74
     0
 42
0.0000000001
 43
0.0000000001
 40
0.0
 40
0.0
 40
0.0
 40
0.0
 40
1.0
 40
1.0
 40
1.0
 40
1.0
 10
67.96929295844603
 20
30.34108121553006
 30
0.0
 10
67.9646240170737
 20
30.4295939363957
 30
0.0
 10
67.89149345473467
 20
30.49896861798285
 30
0.0
 10
67.80285767883967
 20
30.49896861798285
 30
0.0
  0
SPLINE
  5
84
330
70
100
AcDbEntity
  8
0
 62
    18
420
        0
370
    18
100
AcDbSpline
210
0.0
220
0.0
230
1.0
 70
     8
 71
     3
 72
     8
 73
     4
 74
     0
 42
0.0000000001
 43
0.0000000001
 40
0.0
 40
0.0
 40
0.0
 40
0.0
 40
1.0
 40
1.0
 40
1.0
 40
1.0
 10
42.94122714093981
 20
30.49896861798285
 30
0.0
 10
42.85259136504481
 20
30.49896861798285
 30
0.0
 10
42.77946080270578
 20
30.4295939363957
 30
0.0
 10
42.77479186133346
 20
30.34108121553006
 30
0.0
  0
LINE
  5
85
330
70
100
AcDbEntity
  8
0
 62
    18
420
        0
370
    18
100
AcDbLine
 10
57.03870907653994
 20
33.83230195131566
 30
0.0
 11
57.03870907653994
 21
123.4989686179162
 31
0.0
  0
LINE
  5
86
330
70
100
AcDbEntity
  8
0
 62
    18
420
        0
370
    18
100
AcDbLine
 10
53.70537574323986
 20
123.4989686179162
 30
0.0
 11
53.70537574323986
 21
33.83230195131566
 31
0.0
  0
SPLINE
  5
87
330
70
100
AcDbEntity
  8
0
 62
    18
420
        0
370
    18
100
AcDbSpline
210
0.0
220
0.0
230
1.0
 70
     8
 71
     3
 72
    11
 73
     7
 74
     0
 42
0.0000000001
 43
0.0000000001
 40
0.0
 40
0.0
 40
0.0
 40
0.0
 40
1.0
 40
1.0
 40
1.0
 40
2.0
 40
2.0
 40
2.0
 40
2.0
 10
67.8163314653506
 20
33.66418086203336
 30
0.0
 10
67.81713472076304
 20
33.7562248154527
 30
0.0
 10
67.74316952084292
 20
33.83149234971405
 30
0.0
 10
67.65112556742295
 20
33.83229560512649
 30
0.0
 10
67.65064077143296
 20
33.83229983587777
 30
0.0
 10
67.65015595929011
 20
33.83230195128293
 30
0.0
 10
67.64967114483972
 20
33.83230195128293
 30
0.0
  0
SPLINE
  5
88
330
70
100
AcDbEntity
  8
0
 62
    18
420
        0
370
    18
100
AcDbSpline
210
0.0
220
0.0
230
1.0
 70
     8
 71
     3
 72
    11
 73
     7
 74
     0
 42
0.0000000001
 43
0.0000000001
 40
0.0
 40
0.0
 40
0.0
 40
0.0
 40
1.0
 40
1.0
 40
1.0
 40
2.0
 40
2.0
 40
2.0
 40
2.0
 10
43.09441367493975
 20
33.83230195128293
 30
0.0
 10
43.00236621663469
 20
33.83230195128293
 30
0.0
 10
42.92774700827307
 20
33.75768274292099
 30
0.0
 10
42.92774700827307
 20
33.66563528461594
 30
0.0
 10
42.92774700827307
 20
33.66515047016619
 30
0.0
 10
42.92774912367856
 20
33.66466565802272
 30
0.0
 10
42.92775335442921
 20
33.66418086203336
 30
0.0
  0
LINE
  5
89
330
70
100
AcDbEntity
  8
0
 62
    18
420
        0
370
    18
100
AcDbLine
 10
42.92775335443979
 20
33.66418086201603
 30
0.0
 11
42.95393395783999
 21
30.66418086201593
 31
0.0
  0
LINE
  5
8A
330
70
100
AcDbEntity
  8
0
 62
    18
420
        0
370
    18
100
AcDbLine
 10
67.79015086203992
 20
30.66418086201593
 30
0.0
 11
67.8163314653397
 21
33.66418086201603
 31
0.0
  0
SPLINE
  5
8B
330
70
100
AcDbEntity
  8
0
 62
    18
420
        0
370
    18
100
AcDbSpline
210
0.0
220
0.0
230
1.0
 70
     8
 71
     3
 72
     8
 73
     4
 74
     0
 42
0.0000000001
 43
0.0000000001
 40
0.0
 40
0.0
 40
0.0
 40
0.0
 40
1.0
 40
1.0
 40
1.0
 40
1.0
 10
67.62349054143986
 20
30.49896861794949
 30
0.0
 10
67.71497051710541
 20
30.49896861794949
 30
0.0
 10
67.78935255869566
 20
30.57270436964484
 30
0.0
 10
67.79015086195041
 20
30.66418086203261
 30
0.0
  0
SPLINE
  5
8C
330
70
100
AcDbEntity
  8
0
 62
    18
420
        0
370
    18
100
AcDbSpline
210
0.0
220
0.0
230
1.0
 70
     8
 71
     3
 72
     8
 73
     4
 74
     0
 42
0.0000000001
 43
0.0000000001
 40
0.0
 40
0.0
 40
0.0
 40
0.0
 40
1.0
 40
1.0
 40
1.0
 40
1.0
 10
42.95393395782908
 20
30.66418086203261
 30
0.0
 10
42.95473226108414
 20
30.57270436964484
 30
0.0
 10
43.02911430267406
 20
30.49896861794949
 30
0.0
 10
43.12059427833995
 20
30.49896861794949
 30
0.0
  0
LINE
  5
8D
330
70
100
AcDbEntity
  8
0
 62
    18
420
        0
370
    18
100
AcDbLine
 10
44.75766332493967
 20
25.16563528461596
 30
0.0
 11
45.0338551719397
 21
-3.005933107284122
 31
0.0
  0
LINE
  5
8E
330
70
100
AcDbEntity
  8
0
 62
    18
420
        0
370
    18
100
AcDbLine
 10
65.71022964793988
 20
-3.005933107284122
 30
0.0
 11
65.9864214948398
 21
25.16563528461596
 31
0.0
  0
SPLINE
  5
8F
330
70
100
AcDbEntity
  8
0
 62
    18
420
        0
370
    18
100
AcDbSpline
210
0.0
220
0.0
230
1.0
 70
     8
 71
     3
 72
     8
 73
     4
 74
     0
 42
0.0000000001
 43
0.0000000001
 40
0.0
 40
0.0
 40
0.0
 40
0.0
 40
1.0
 40
1.0
 40
1.0
 40
1.0
 10
65.21025367533977
 20
-3.501031382083803
 30
0.0
 10
65.48448371438952
 20
-3.501031382083803
 30
0.0
 10
65.70754124725479
 20
-3.280149968237162
 30
0.0
 10
65.71022964785228
 20
-3.005933107304657
 30
0.0
  0
SPLINE
  5
90
330
70
100
AcDbEntity
  8
0
 62
    18
420
        0
370
    18
100
AcDbSpline
210
0.0
220
0.0
230
1.0
 70
     8
 71
     3
 72
     8
 73
     4
 74
     0
 42
0.0000000001
 43
0.0000000001
 40
0.0
 40
0.0
 40
0.0
 40
0.0
 40
1.0
 40
1.0
 40
1.0
 40
1.0
 10
45.03385517192719
 20
-3.005933107304657
 30
0.0
 10
45.03654357252468
 20
-3.280149968237162
 30
0.0
 10
45.25960110539028
 20
-3.501031382083803
 30
0.0
 10
45.5338311444397
 20
-3.501031382083803
 30
0.0
  0
LINE
  5
91
330
70
100
AcDbEntity
  8
0
 62
    18
420
        0
370
    18
100
AcDbLine
 10
55.57899381584006
 20
123.1656352845491
 30
0.0
 11
57.14537574324012
 21
123.1656352845491
 31
0.0
  0
LINE
  5
92
330
70
100
AcDbEntity
  8
0
 62
    18
420
        0
370
    18
100
AcDbLine
 10
53.81204240994002
 20
123.1656352845491
 30
0.0
 11
55.57899381584006
 21
123.1656352845491
 31
0.0
  0
SPLINE
  5
93
330
70
100
AcDbEntity
  8
0
 62
    18
420
        0
370
    18
100
AcDbSpline
210
0.0
220
0.0
230
1.0
 70
     8
 71
     3
 72
     8
 73
     4
 74
     0
 42
0.0000000001
 43
0.0000000001
 40
0.0
 40
0.0
 40
0.0
 40
0.0
 40
1.0
 40
1.0
 40
1.0
 40
1.0
 10
53.70537574327162
 20
36.85451347327538
 30
0.0
 10
51.65598111712485
 20
36.47558027285344
 30
0.0
 10
49.79689360232709
 20
35.40959176849197
 30
0.0
 10
48.43462874681002
 20
33.83230195127909
 30
0.0
  0
SPLINE
  5
94
330
70
100
AcDbEntity
  8
0
 62
    18
420
        0
370
    18
100
AcDbSpline
210
0.0
220
0.0
230
1.0
 70
     8
 71
     3
 72
     8
 73
     4
 74
     0
 42
0.0000000001
 43
0.0000000001
 40
0.0
 40
0.0
 40
0.0
 40
0.0
 40
1.0
 40
1.0
 40
1.0
 40
1.0
 10
62.30945607306957
 20
33.83230195127909
 30
0.0
 10
60.94719121755281
 20
35.40959176849197
 30
0.0
 10
59.08810370275474
 20
36.47558027285344
 30
0.0
 10
57.03870907660796
 20
36.85451347327538
 30
0.0
  0
LINE
  5
95
330
70
100
AcDbEntity
  8
0
 62
    18
420
        0
370
    18
100
AcDbLine
 10
67.89276237453989
 20
25.16563528461596
 30
0.0
 11
42.85132244533969
 21
25.16563528461596
 31
0.0
  0
LINE
  5
96
330
70
100
AcDbEntity
  8
0
 62
    18
420
        0
370
    18
100
AcDbLine
 10
42.94122714093981
 20
30.49896861791611
 30
0.0
 11
67.80285767883967
 21
30.49896861791611
 31
0.0
  0
LINE
  5
97
330
70
100
AcDbEntity
  8
0
 62
    18
420
        0
370
    18
100
AcDbLine
 10
67.64967114483972
 20
33.83230195131566
 30
0.0
 11
43.09441367493975
 21
33.83230195131566
 31
0.0
  0
LINE
  5
98
330
70
100
AcDbEntity
  8
0
 62
    18
420
        0
370
    18
100
AcDbLine
 10
65.21025367533977
 20
-3.501031382083803
 30
0.0
 11
45.5338311444397
 21
-3.501031382083803
 31
0.0
  0
LINE
  5
99
330
70
100
AcDbEntity
  8
0
 62
     8
420
  8421504
370
    18
100
AcDbLine
 10
57.14537574324012
 20
123.3862698811491
 30
0.0
 11
53.81204240994002
 21
123.3862698811491
 31
0.0
  0
LINE
  5
9A
330
70
100
AcDbEntity
  8
0
 62
     8
420
  8421504
370
    18
100
AcDbLine
 10
53.91870907663988
 20
123.541761931649
 30
0.0
 11
57.03870907664005
 21
123.541761931649
 31
0.0
  0
SPLINE
  5
9B
330
70
100
AcDbEntity
  8
0
 62
     8
420
  8421504
370
    18
100
AcDbSpline
210
0.0
220
0.0
230
1.0
 70
     8
 71
     3
 72
     8
 73
     4
 74
     0
 42
0.0000000001
 43
0.0000000001
 40
0.0
 40
0.0
 40
0.0
 40
0.0
 40
1.0
 40
1.0
 40
1.0
 40
1.0
 10
61.88669959822854
 20
33.83230195128293
 30
0.0
 10
60.60204877217798
 20
35.22908521777007
 30
0.0
 10
58.90247855641523
 20
36.17599248028797
 30
0.0
 10
57.03870907661374
 20
36.53333624275123
 30
0.0
  0
SPLINE
  5
9C
330
70
100
AcDbEntity
  8
0
 62
     8
420
  8421504
370
    18
100
AcDbSpline
210
0.0
220
0.0
230
1.0
 70
     8
 71
     3
 72
     8
 73
     4
 74
     0
 42
0.0000000001
 43
0.0000000001
 40
0.0
 40
0.0
 40
0.0
 40
0.0
 40
1.0
 40
1.0
 40
1.0
 40
1.0
 10
53.70537574326585
 20
36.53333624275123
 30
0.0
 10
51.84160626346436
 20
36.17599248028797
 30
0.0
 10
50.14203604770161
 20
35.22908521777007
 30
0.0
 10
48.85738522165104
 20
33.83230195128293
 30
0.0
  0
LINE
  5
9D
330
70
100
AcDbEntity
  8
0
 62
     8
420
  8421504
370
    18
100
AcDbLine
 10
42.68466212483973
 20
25.33375637391623
 30
0.0
 11
68.05942269503986
 21
25.33375637391623
 31
0.0
  0
LINE
  5
9E
330
70
100
AcDbEntity
  8
0
 62
     8
420
  8421504
370
    18
100
AcDbLine
 10
42.7053757432398
 20
27.70730195131569
 30
0.0
 11
68.03870907653969
 21
27.70730195131569
 31
0.0
  0
LINE
  5
9F
330
70
100
AcDbEntity
  8
0
 62
     8
420
  8421504
370
    18
100
AcDbLine
 10
67.96929295843994
 20
30.34108121551658
 30
0.0
 11
42.77479186133987
 21
30.34108121551658
 31
0.0
  0
LINE
  5
A0
330
70
100
AcDbEntity
  8
0
 62
     8
420
  8421504
370
    18
100
AcDbLine
 10
67.8163314653397
 20
33.66418086201603
 30
0.0
 11
42.92775335443979
 21
33.66418086201603
 31
0.0
  0
LINE
  5
A1
330
70
100
AcDbEntity
  8
0
 62
     8
420
  8421504
370
    18
100
AcDbLine
 10
67.79015086203992
 20
30.66418086201593
 30
0.0
 11
42.95393395783999
 21
30.66418086201593
 31
0.0
  0
LINE
  5
A2
330
70
100
AcDbEntity
  8
0
 62
     8
420
  8421504
370
    18
100
AcDbLine
 10
65.71022964793988
 20
-3.005933107284122
 30
0.0
 11
45.0338551719397
 21
-3.005933107284122
 31
0.0
  0
LINE
  5
A3
330
70
100
AcDbEntity
  8
0
 62
    18
420
        0
370
    18
100
AcDbLine
 10
64.53870907653989
 20
-31.42481551398378
 30
0.0
 11
64.53870907653989
 21
-29.97153219558371
 31
0.0
  0
LINE
  5
A4
330
70
100
AcDbEntity
  8
0
 62
    18
420
        0
370
    18
100
AcDbLine
 10
46.20537574323992
 20
-29.97153219558371
 30
0.0
 11
46.20537574323992
 21
-31.42481551398378
 31
0.0
  0
SPLINE
  5
A5
330
70
100
AcDbEntity
  8
0
 62
    18
420
        0
370
    18
100
AcDbSpline
210
0.0
220
0.0
230
1.0
 70
     8
 71
     3
 72
     8
 73
     4
 74
     0
 42
0.0000000001
 43
0.0000000001
 40
0.0
 40
0.0
 40
0.0
 40
0.0
 40
1.0
 40
1.0
 40
1.0
 40
1.0
 10
46.20537574320655
 20
-31.42481551398378
 30
0.0
 10
46.20537574320655
 20
-31.60203153090899
 30
0.0
 10
46.3440410637414
 20
-31.74826719902938
 30
0.0
 10
46.52100700573178
 20
-31.75767847046947
 30
0.0
  0
SPLINE
  5
A6
330
70
100
AcDbEntity
  8
0
 62
    18
420
        0
370
    18
100
AcDbSpline
210
0.0
220
0.0
230
1.0
 70
     8
 71
     3
 72
     8
 73
     4
 74
     0
 42
0.0000000001
 43
0.0000000001
 40
0.0
 40
0.0
 40
0.0
 40
0.0
 40
1.0
 40
1.0
 40
1.0
 40
1.0
 10
64.2230778140477
 20
-31.75767847046947
 30
0.0
 10
64.40004375603841
 20
-31.74826719902938
 30
0.0
 10
64.53870907657325
 20
-31.60203153090899
 30
0.0
 10
64.53870907657325
 20
-31.42481551398378
 30
0.0
  0
SPLINE
  5
A7
330
70
100
AcDbEntity
  8
0
 62
    18
420
        0
370
    18
100
AcDbSpline
210
0.0
220
0.0
230
1.0
 70
     8
 71
     3
 72
     8
 73
     4
 74
     0
 42
0.0000000001
 43
0.0000000001
 40
0.0
 40
0.0
 40
0.0
 40
0.0
 40
1.0
 40
1.0
 40
1.0
 40
1.0
 10
46.52100700594226
 20
-31.7576784704977
 30
0.0
 10
48.58096215674416
 20
-31.86722947709144
 30
0.0
 10
50.64277368294174
 20
-31.93852633762493
 30
0.0
 10
52.70537574337426
 20
-31.97153219561073
 30
0.0
  0
SPLINE
  5
A8
330
70
100
AcDbEntity
  8
0
 62
    18
420
        0
370
    18
100
AcDbSpline
210
0.0
220
0.0
230
1.0
 70
     8
 71
     3
 72
     8
 73
     4
 74
     0
 42
0.0000000001
 43
0.0000000001
 40
0.0
 40
0.0
 40
0.0
 40
0.0
 40
1.0
 40
1.0
 40
1.0
 40
1.0
 10
58.03870907650565
 20
-31.97153219561073
 30
0.0
 10
60.10131113703476
 20
-31.938526337623
 30
0.0
 10
62.16312266332922
 20
-31.86722947708503
 30
0.0
 10
64.22307781422802
 20
-31.7576784704823
 30
0.0
  0
LINE
  5
A9
330
70
100
AcDbEntity
  8
0
 62
    18
420
        0
370
    18
100
AcDbLine
 10
52.70537574323983
 20
-31.97153219558379
 30
0.0
 11
52.70537574323983
 21
-41.12087174718371
 31
0.0
  0
LINE
  5
AA
330
70
100
AcDbEntity
  8
0
 62
    18
420
        0
370
    18
100
AcDbLine
 10
58.03870907653998
 20
-41.12087174718371
 30
0.0
 11
58.03870907653998
 21
-31.97153219558379
 31
0.0
  0
SPLINE
  5
AB
330
70
100
AcDbEntity
  8
0
 62
    18
420
        0
370
    18
100
AcDbSpline
210
0.0
220
0.0
230
1.0
 70
     8
 71
     3
 72
     8
 73
     4
 74
     0
 42
0.0000000001
 43
0.0000000001
 40
0.0
 40
0.0
 40
0.0
 40
0.0
 40
1.0
 40
1.0
 40
1.0
 40
1.0
 10
58.04080879050967
 20
-41.12141630038927
 30
0.0
 10
58.03850514995499
 20
-41.1969026722653
 30
0.0
 10
58.08893095595328
 20
-41.26386423863406
 30
0.0
 10
58.16211625203209
 20
-41.28250321759268
 30
0.0
  0
SPLINE
  5
AC
330
70
100
AcDbEntity
  8
0
 62
    18
420
        0
370
    18
100
AcDbSpline
210
0.0
220
0.0
230
1.0
 70
     8
 71
     3
 72
     8
 73
     4
 74
     0
 42
0.0000000001
 43
0.0000000001
 40
0.0
 40
0.0
 40
0.0
 40
0.0
 40
1.0
 40
1.0
 40
1.0
 40
1.0
 10
52.57953094899418
 20
-41.28316602127802
 30
0.0
 10
52.65421957984777
 20
-41.26488355040212
 30
0.0
 10
52.70610866256278
 20
-41.19707166437341
 30
0.0
 10
52.70423047566115
 20
-41.12020091093502
 30
0.0
  0
SPLINE
  5
AD
330
70
100
AcDbEntity
  8
0
 62
    18
420
        0
370
    18
100
AcDbSpline
210
0.0
220
0.0
230
1.0
 70
     8
 71
     3
 72
    17
 73
    13
 74
     0
 42
0.0000000001
 43
0.0000000001
 40
0.0
 40
0.0
 40
0.0
 40
0.0
 40
1.0
 40
1.0
 40
1.0
 40
2.0
 40
2.0
 40
2.0
 40
3.0
 40
3.0
 40
3.0
 40
4.0
 40
4.0
 40
4.0
 40
4.0
 10
52.60418637470537
 20
-41.25640769542954
 30
0.0
 10
45.76591193766211
 20
-42.78505237341656
 30
0.0
 10
41.46160656509822
 20
-49.56778046047463
 30
0.0
 10
42.99025124308523
 20
-56.40605489751821
 30
0.0
 10
44.51889592107225
 20
-63.24432933456179
 30
0.0
 10
51.30162400813096
 20
-67.54863470712535
 30
0.0
 10
58.13989844517422
 20
-66.01999002913834
 30
0.0
 10
64.97817288221781
 20
-64.49134535115132
 30
0.0
 10
69.2824782547817
 20
-57.70861726409261
 30
0.0
 10
67.75383357679435
 20
-50.87034282704967
 30
0.0
 10
66.68362501507094
 20
-46.08284710922434
 30
0.0
 10
62.94935079481037
 20
-42.34131261935262
 30
0.0
 10
58.16394281143889
 20
-41.26180715551043
 30
0.0
  0
CIRCLE
  5
AE
330
70
100
AcDbEntity
  8
0
 62
    18
420
        0
370
    18
100
AcDbCircle
 10
55.37204240993988
 20
-53.63819886228395
 30
0.0
 40
4.833333333333303
  0
CIRCLE
  5
AF
330
70
100
AcDbEntity
  8
0
 62
    18
420
        0
370
    18
100
AcDbCircle
 10
55.37204240993988
 20
-53.63819886228395
 30
0.0
 40
12.44429540160651
  0
CIRCLE
  5
B0
330
70
100
AcDbEntity
  8
0
 62
    18
420
        0
370
    18
100
AcDbCircle
 10
55.37204240993988
 20
-53.63819886228395
 30
0.0
 40
1.560000000000047
  0
CIRCLE
  5
B1
330
70
100
AcDbEntity
  8
0
 62
    18
420
        0
370
    18
100
AcDbCircle
 10
55.37204240993988
 20
-53.63819886228395
 30
0.0
 40
1.666666666666685
  0
LINE
  5
B2
330
70
100
AcDbEntity
  8
0
 62
    18
420
        0
370
    18
100
AcDbLine
 10
64.53870907653989
 20
-29.97153219558371
 30
0.0
 11
46.20537574323992
 21
-29.97153219558371
 31
0.0
  0
LINE
  5
B3
330
70
100
AcDbEntity
  8
0
 62
    18
420
        0
370
    18
100
AcDbLine
 10
58.03870907653998
 20
-31.97153219558379
 30
0.0
 11
52.70537574323983
 21
-31.97153219558379
 31
0.0
  0
SPLINE
  5
B4
330
70
100
AcDbEntity
  8
0
 62
    18
420
        0
370
    18
100
AcDbSpline
210
0.0
220
0.0
230
1.0
 70
     8
 71
     3
 72
     8
 73
     4
 74
     0
 42
0.0000000001
 43
0.0000000001
 40
0.0
 40
0.0
 40
0.0
 40
0.0
 40
1.0
 40
1.0
 40
1.0
 40
1.0
 10
55.372042409896
 20
-41.20738359334283
 30
0.0
 10
54.9807132674833
 20
-41.05502095584844
 30
0.0
 10
54.56787530384085
 20
-40.9650886425195
 30
0.0
 10
54.14862998699594
 20
-40.9408763458596
 30
0.0
  0
SPLINE
  5
B5
330
70
100
AcDbEntity
  8
0
 62
    18
420
        0
370
    18
100
AcDbSpline
210
0.0
220
0.0
230
1.0
 70
     8
 71
     3
 72
     8
 73
     4
 74
     0
 42
0.0000000001
 43
0.0000000001
 40
0.0
 40
0.0
 40
0.0
 40
0.0
 40
1.0
 40
1.0
 40
1.0
 40
1.0
 10
55.37204240996691
 20
-41.20738359328957
 30
0.0
 10
54.94905162366336
 20
-41.12938764769927
 30
0.0
 10
54.51910056316165
 20
-41.09556019105998
 30
0.0
 10
54.08911676552102
 20
-41.10644626437956
 30
0.0
  0
LWPOLYLINE
  5
B6
330
70
100
AcDbEntity
  8
0
 62
    18
420
        0
370
    18
100
AcDbPolyline
 90
        9
 70
     0
 43
0.0
 10
54.1486299870399
 20
-40.94087634578388
 10
54.14913803063969
 20
-40.97140897908402
 10
54.14702914873989
 20
-41.00090354218422
 10
54.14237504064
 20
-41.02835725818411
 10
54.13533394004001
 20
-41.05283673608401
 10
54.12614523513989
 20
-41.07350970528389
 10
54.11512133003969
 20
-41.08967331158417
 10
54.10263702343971
 20
-41.1007780130839
 10
54.08911676543984
 20
-41.10644626438405
  0
SPLINE
  5
B7
330
70
100
AcDbEntity
  8
0
 62
    18
420
        0
370
    18
100
AcDbSpline
210
0.0
220
0.0
230
1.0
 70
     8
 71
     3
 72
     8
 73
     4
 74
     0
 42
0.0000000001
 43
0.0000000001
 40
0.0
 40
0.0
 40
0.0
 40
0.0
 40
1.0
 40
1.0
 40
1.0
 40
1.0
 10
56.65496805435889
 20
-41.10644626437956
 30
0.0
 10
56.22498425671794
 20
-41.09556019105998
 30
0.0
 10
55.79503319621624
 20
-41.12938764769927
 30
0.0
 10
55.372042409913
 20
-41.20738359328957
 30
0.0
  0
SPLINE
  5
B8
330
70
100
AcDbEntity
  8
0
 62
    18
420
        0
370
    18
100
AcDbSpline
210
0.0
220
0.0
230
1.0
 70
     8
 71
     3
 72
    17
 73
    13
 74
     0
 42
0.0000000001
 43
0.0000000001
 40
0.0
 40
0.0
 40
0.0
 40
0.0
 40
1.0
 40
1.0
 40
1.0
 40
2.0
 40
2.0
 40
2.0
 40
3.0
 40
3.0
 40
3.0
 40
4.0
 40
4.0
 40
4.0
 40
4.0
 10
54.08911676550176
 20
-41.10644626441485
 30
0.0
 10
47.16802091704631
 20
-41.81498653300517
 30
0.0
 10
42.13174954348088
 20
-48.00002865826668
 30
0.0
 10
42.84028981207087
 20
-54.92112450672212
 30
0.0
 10
43.54883008066086
 20
-61.84222035517759
 30
0.0
 10
49.73387220592269
 20
-66.8784917287427
 30
0.0
 10
56.65496805437783
 20
-66.16995146015303
 30
0.0
 10
63.57606390283327
 20
-65.46141119156271
 30
0.0
 10
68.61233527639871
 20
-59.2763690663012
 30
0.0
 10
67.90379500780872
 20
-52.35527321784575
 30
0.0
 10
67.29545006326983
 20
-46.41289583052401
 30
0.0
 10
62.59734544169956
 20
-41.71479120895376
 30
0.0
 10
56.65496805437783
 20
-41.10644626441485
 30
0.0
  0
LWPOLYLINE
  5
B9
330
70
100
AcDbEntity
  8
0
 62
    18
420
        0
370
    18
100
AcDbPolyline
 90
        9
 70
     0
 43
0.0
 10
56.59545483283969
 20
-40.94087634578388
 10
56.59494678913979
 20
-40.97140897908402
 10
56.59705567103991
 20
-41.00090354218422
 10
56.60170977913981
 20
-41.02835725818411
 10
56.60875087983991
 20
-41.05283673608401
 10
56.61793958473971
 20
-41.07350970528389
 10
56.6289634897398
 20
-41.08967331158417
 10
56.64144779643989
 20
-41.1007780130839
 10
56.65496805433996
 20
-41.10644626438405
  0
SPLINE
  5
BA
330
70
100
AcDbEntity
  8
0
 62
    18
420
        0
370
    18
100
AcDbSpline
210
0.0
220
0.0
230
1.0
 70
     8
 71
     3
 72
     8
 73
     4
 74
     0
 42
0.0000000001
 43
0.0000000001
 40
0.0
 40
0.0
 40
0.0
 40
0.0
 40
1.0
 40
1.0
 40
1.0
 40
1.0
 10
56.59545483278386
 20
-40.9408763458596
 30
0.0
 10
56.17620951593895
 20
-40.9650886425195
 30
0.0
 10
55.76337155229651
 20
-41.05502095584844
 30
0.0
 10
55.37204240988348
 20
-41.20738359334283
 30
0.0
  0
SPLINE
  5
BB
330
70
100
AcDbEntity
  8
0
 62
    18
420
        0
370
    18
100
AcDbSpline
210
0.0
220
0.0
230
1.0
 70
     8
 71
     3
 72
     8
 73
     4
 74
     0
 42
0.0000000001
 43
0.0000000001
 40
0.0
 40
0.0
 40
0.0
 40
0.0
 40
1.0
 40
1.0
 40
1.0
 40
1.0
 10
58.16585633766756
 20
-41.28348121349557
 30
0.0
 10
57.66426717161991
 20
-41.20819655827968
 30
0.0
 10
57.1603743426412
 20
-41.14915404514163
 30
0.0
 10
56.65496805432168
 20
-41.10644626441614
 30
0.0
  0
SPLINE
  5
BC
330
70
100
AcDbEntity
  8
0
 62
    18
420
        0
370
    18
100
AcDbSpline
210
0.0
220
0.0
230
1.0
 70
     8
 71
     3
 72
     8
 73
     4
 74
     0
 42
0.0000000001
 43
0.0000000001
 40
0.0
 40
0.0
 40
0.0
 40
0.0
 40
1.0
 40
1.0
 40
1.0
 40
1.0
 10
54.08911676552262
 20
-41.10644626443346
 30
0.0
 10
53.58200563900093
 20
-41.13052373709379
 30
0.0
 10
53.0771695082042
 20
-41.189676779509
 30
0.0
 10
52.57822848213759
 20
-41.2834812135174
 30
0.0
  0
LINE
  5
BD
330
70
100
AcDbEntity
  8
0
 62
    18
420
        0
370
    18
100
AcDbLine
 10
52.62363317043972
 20
-41.2647506245836
 30
0.0
 11
52.57822841583982
 21
-41.28348122848374
 31
0.0
  0
LINE
  5
BE
330
70
100
AcDbEntity
  8
0
 62
    18
420
        0
370
    18
100
AcDbLine
 10
58.16592074393974
 20
-41.28349577808413
 30
0.0
 11
58.16585633773975
 21
-41.28348121348403
 31
0.0
  0
SPLINE
  5
BF
330
70
100
AcDbEntity
  8
0
 62
    18
420
        0
370
    18
100
AcDbSpline
210
0.0
220
0.0
230
1.0
 70
     8
 71
     3
 72
    17
 73
    13
 74
     0
 42
0.0000000001
 43
0.0000000001
 40
0.0
 40
0.0
 40
0.0
 40
0.0
 40
1.0
 40
1.0
 40
1.0
 40
2.0
 40
2.0
 40
2.0
 40
3.0
 40
3.0
 40
3.0
 40
4.0
 40
4.0
 40
4.0
 40
4.0
 10
52.57816407596391
 20
-41.28349577805782
 30
0.0
 10
45.7548499738584
 20
-42.8265121747957
 30
0.0
 10
41.47432292897629
 20
-49.60876309415414
 30
0.0
 10
43.01733932571384
 20
-56.43207719625998
 30
0.0
 10
44.56035572245139
 20
-63.25539129836517
 30
0.0
 10
51.34260664181017
 20
-67.53591834324729
 30
0.0
 10
58.16592074391568
 20
-65.99290194651006
 30
0.0
 10
64.98923484602119
 20
-64.44988554977219
 30
0.0
 10
69.26976189090331
 20
-57.66763463041374
 30
0.0
 10
67.72674549416575
 20
-50.8443205283079
 30
0.0
 10
66.64950399116468
 20
-46.08069186283057
 30
0.0
 10
62.92954940939331
 20
-42.36073728105922
 30
0.0
 10
58.16592074391568
 20
-41.28349577805782
 30
0.0
  0
LINE
  5
C0
330
70
100
AcDbEntity
  8
0
 62
    18
420
        0
370
    18
100
AcDbLine
 10
52.57822848213984
 20
-41.28348121348403
 30
0.0
 11
52.57816407593985
 21
-41.28349577808413
 31
0.0
  0
CIRCLE
  5
C1
330
70
100
AcDbEntity
  8
0
 62
    18
420
        0
370
    18
100
AcDbCircle
 10
55.37204240993988
 20
-53.63819886228395
 30
0.0
 40
8.891290302487067
  0
SPLINE
  5
C2
330
70
100
AcDbEntity
  8
0
 62
    18
420
        0
370
    18
100
AcDbSpline
210
0.0
220
0.0
230
1.0
 70
     8
 71
     3
 72
    14
 73
    10
 74
     0
 42
0.0000000001
 43
0.0000000001
 40
0.0
 40
0.0
 40
0.0
 40
0.0
 40
1.0
 40
1.0
 40
1.0
 40
2.0
 40
2.0
 40
2.0
 40
3.0
 40
3.0
 40
3.0
 40
3.0
 10
55.37204240993996
 20
-55.30486552895066
 30
0.0
 10
56.29251699299111
 20
-55.30486552895066
 30
0.0
 10
57.03870907660636
 20
-54.5586734453351
 30
0.0
 10
57.03870907660636
 20
-53.63819886228395
 30
0.0
 10
57.03870907660636
 20
-52.71772427923277
 30
0.0
 10
56.29251699299111
 20
-51.97153219561721
 30
0.0
 10
55.37204240993996
 20
-51.97153219561721
 30
0.0
 10
55.33859143305447
 20
-51.97153219561721
 30
0.0
 10
55.30514803757522
 20
-51.97253926663472
 30
0.0
 10
55.27175767073906
 20
-51.97455204013038
 30
0.0
  0
CIRCLE
  5
C3
330
70
100
AcDbEntity
  8
0
 62
    18
420
        0
370
    18
100
AcDbCircle
 10
55.37204240993988
 20
-53.63819886228395
 30
0.0
 40
4.499999999999958
  0
CIRCLE
  5
C4
330
70
100
AcDbEntity
  8
0
 62
    18
420
        0
370
    18
100
AcDbCircle
 10
58.28342434863987
 20
-53.46270056868413
 30
0.0
 40
0.3333333333333451
  0
CIRCLE
  5
C5
330
70
100
AcDbEntity
  8
0
 62
    18
420
        0
370
    18
100
AcDbCircle
 10
55.37204240993988
 20
-53.63819886228395
 30
0.0
 40
12.27762873493968
  0
CIRCLE
  5
C6
330
70
100
AcDbEntity
  8
0
 62
    18
420
        0
370
    18
100
AcDbCircle
 10
55.37204240993988
 20
-53.63819886228395
 30
0.0
 40
9.844191818266576
  0
CIRCLE
  5
C7
330
70
100
AcDbEntity
  8
0
 62
    18
420
        0
370
    18
100
AcDbCircle
 10
55.37204240993988
 20
-53.63819886228395
 30
0.0
 40
9.489644955319738
  0
LINE
  5
C8
330
70
100
AcDbEntity
  8
0
 62
     8
420
  8421504
370
    18
100
AcDbLine
 10
46.20537574323992
 20
-31.42481551398378
 30
0.0
 11
64.53870907653989
 21
-31.42481551398378
 31
0.0
  0
LINE
  5
C9
330
70
100
AcDbEntity
  8
0
 62
     8
420
  8421504
370
    18
100
AcDbLine
 10
64.22307781403969
 20
-31.75767847048359
 30
0.0
 11
46.5210070057398
 21
-31.75767847048359
 31
0.0
  0
SPLINE
  5
CA
330
70
100
AcDbEntity
  8
0
 62
     8
420
  8421504
370
    18
100
AcDbSpline
210
0.0
220
0.0
230
1.0
 70
     8
 71
     3
 72
     8
 73
     4
 74
     0
 42
0.0000000001
 43
0.0000000001
 40
0.0
 40
0.0
 40
0.0
 40
0.0
 40
1.0
 40
1.0
 40
1.0
 40
1.0
 10
58.03406077566303
 20
-41.12087174712402
 30
0.0
 10
57.55980627487038
 20
-41.02434155924721
 30
0.0
 10
57.07887276837198
 20
-40.96416815321719
 30
0.0
 10
56.59545483283327
 20
-40.94087634579479
 30
0.0
  0
SPLINE
  5
CB
330
70
100
AcDbEntity
  8
0
 62
     8
420
  8421504
370
    18
100
AcDbSpline
210
0.0
220
0.0
230
1.0
 70
     8
 71
     3
 72
     8
 73
     4
 74
     0
 42
0.0000000001
 43
0.0000000001
 40
0.0
 40
0.0
 40
0.0
 40
0.0
 40
1.0
 40
1.0
 40
1.0
 40
1.0
 10
54.14862998698055
 20
-40.94087634578132
 30
0.0
 10
53.66705015217227
 20
-40.98321766403951
 30
0.0
 10
53.18719050434397
 20
-41.04325671109257
 30
0.0
 10
52.71002404417485
 20
-41.12087174710798
 30
0.0
  0
SPLINE
  5
CC
330
70
100
AcDbEntity
  8
0
 62
     8
420
  8421504
370
    18
100
AcDbSpline
210
0.0
220
0.0
230
1.0
 70
     8
 71
     3
 72
    17
 73
    13
 74
     0
 42
0.0000000001
 43
0.0000000001
 40
0.0
 40
0.0
 40
0.0
 40
0.0
 40
1.0
 40
1.0
 40
1.0
 40
2.0
 40
2.0
 40
2.0
 40
3.0
 40
3.0
 40
3.0
 40
4.0
 40
4.0
 40
4.0
 40
4.0
 10
52.60425257473972
 20
-41.25639939987483
 30
0.0
 10
45.76597355618799
 20
-42.78500751659257
 30
0.0
 10
41.4616348308128
 20
-49.56770967893244
 30
0.0
 10
42.99024294753053
 20
-56.40598869748385
 30
0.0
 10
44.51885106424827
 20
-63.2442677160359
 30
0.0
 10
51.30155322658813
 20
-67.54860644141079
 30
0.0
 10
58.13983224513986
 20
-66.01999832469305
 30
0.0
 10
64.9781112636916
 20
-64.49139020797531
 30
0.0
 10
69.28244998906679
 20
-57.70868804563544
 30
0.0
 10
67.75384187234905
 20
-50.87040902708404
 30
0.0
 10
66.68367188773825
 20
-46.08296817025927
 30
0.0
 10
62.94949470893404
 20
-42.34144318159464
 30
0.0
 10
58.1641668237499
 20
-41.26186419660199
 30
0.0
  0
SPLINE
  5
CD
330
70
100
AcDbEntity
  8
0
 62
    18
420
        0
370
    18
100
AcDbSpline
210
0.0
220
0.0
230
1.0
 70
     8
 71
     3
 72
     8
 73
     4
 74
     0
 42
0.0000000001
 43
0.0000000001
 40
0.0
 40
0.0
 40
0.0
 40
0.0
 40
1.0
 40
1.0
 40
1.0
 40
1.0
 10
171.3422511148532
 20
26.8990347527133
 30
0.0
 10
171.3199493285337
 20
27.25585407773237
 30
0.0
 10
171.0872260754549
 20
27.56508330838743
 30
0.0
 10
170.7505239587881
 20
27.68528765527926
 30
0.0
  0
LWPOLYLINE
  5
CE
330
70
100
AcDbEntity
  8
0
 62
    18
420
        0
370
    18
100
AcDbPolyline
 90
       11
 70
     0
 43
0.0
 10
170.7505239588401
 20
27.68528765531648
 10
170.5703894329399
 20
27.76538525751604
 10
170.1901686580398
 20
27.87313560901612
 10
169.7785709627396
 20
27.91970307761642
 10
169.3611106195396
 20
27.90294079271655
 10
168.9628096327396
 20
27.82356254471626
 10
168.6074558126399
 20
27.68456879891588
 10
168.3164635582399
 20
27.48992584171616
 10
168.1118377801397
 20
27.24518738071647
 10
168.02263599214
 20
27.00186392011629
 10
168.0270322447399
 20
26.87141269701621
  0
LINE
  5
CF
330
70
100
AcDbEntity
  8
0
 62
    18
420
        0
370
    18
100
AcDbLine
 10
168.01302491374
 20
26.8888744748165
 30
0.0
 11
168.01302491374
 21
26.70871732221615
 31
0.0
  0
LINE
  5
D0
330
70
100
AcDbEntity
  8
0
 62
    18
420
        0
370
    18
100
AcDbLine
 10
171.3463582470401
 20
26.70871732221615
 30
0.0
 11
171.3463582470401
 21
26.8888744748165
 31
0.0
  0
LWPOLYLINE
  5
D1
330
70
100
AcDbEntity
  8
0
 62
    18
420
        0
370
    18
100
AcDbPolyline
 90
       12
 70
     0
 43
0.0
 10
179.7171761278397
 20
-35.40107582768412
 10
179.6848039505398
 20
-35.44074596318371
 10
179.3657469362398
 20
-35.9902697658837
 10
179.11556072754
 20
-36.61354940828374
 10
178.9377061755399
 20
-37.30421970808388
 10
178.8348563476398
 20
-38.05404792368387
 10
178.80748234524
 20
-38.72682016928386
 10
178.8181463138395
 20
-39.16239734298366
 10
178.8964764156398
 20
-40.01382884918402
 10
179.0496555779401
 20
-40.89112087108387
 10
179.2754999717399
 20
-41.78421005948407
 10
179.4207377696397
 20
-42.22582558398404
  0
LWPOLYLINE
  5
D2
330
70
100
AcDbEntity
  8
0
 62
    18
420
        0
370
    18
100
AcDbPolyline
 90
       11
 70
     0
 43
0.0
 10
182.2266551364398
 20
-47.24293049288404
 10
182.56521109614
 20
-47.64158539718414
 10
183.2150800406401
 20
-48.30824641138388
 10
183.8904602923397
 20
-48.90696754148384
 10
184.5841465098399
 20
-49.43073773448359
 10
185.28880074644
 20
-49.87322600728396
 10
185.99696651014
 20
-50.2287822061841
 10
186.7009509433401
 20
-50.49242453318387
 10
187.3923968794397
 20
-50.65990299008383
 10
188.0624534398399
 20
-50.7281975128841
 10
188.5463768591395
 20
-50.70384680888414
  0
LINE
  5
D3
330
70
100
AcDbEntity
  8
0
 62
    18
420
        0
370
    18
100
AcDbLine
 10
189.96988643694
 20
-50.27140390168401
 30
0.0
 11
190.99751292644
 21
-49.67816775668405
 31
0.0
  0
LINE
  5
D4
330
70
100
AcDbEntity
  8
0
 62
    18
420
        0
370
    18
100
AcDbLine
 10
181.83159121054
 20
-33.80060527968371
 30
0.0
 11
180.8039647211395
 21
-34.39384142468368
 31
0.0
  0
LWPOLYLINE
  5
D5
330
70
100
AcDbEntity
  8
0
 62
    18
420
        0
370
    18
100
AcDbPolyline
 90
        3
 70
     0
 43
0.0
 10
182.3346155647398
 20
-51.50882654168375
 10
182.3229447193401
 20
-50.18316449118387
 10
182.2551316532397
 20
-49.08579007988421
  0
LWPOLYLINE
  5
D6
330
70
100
AcDbEntity
  8
0
 62
    18
420
        0
370
    18
100
AcDbPolyline
 90
        3
 70
     0
 43
0.0
 10
157.0968132484399
 20
-49.08735964298424
 10
157.0189114039396
 20
-50.84415918468379
 10
157.0247644025397
 20
-51.50898661128373
  0
LINE
  5
D7
330
70
100
AcDbEntity
  8
0
 62
    18
420
        0
370
    18
100
AcDbLine
 10
182.3668303796397
 20
-53.40199532948411
 30
0.0
 11
182.3461171554398
 21
-51.46397227368387
 31
0.0
  0
LINE
  5
D8
330
70
100
AcDbEntity
  8
0
 62
    18
420
        0
370
    18
100
AcDbLine
 10
157.0132660053397
 20
-51.46397227368387
 30
0.0
 11
156.9925527811398
 21
-53.40199532948411
 31
0.0
  0
LWPOLYLINE
  5
D9
330
70
100
AcDbEntity
  8
0
 62
    18
420
        0
370
    18
100
AcDbPolyline
 90
        3
 70
     0
 43
0.0
 10
160.3799105058398
 20
-58.47998580498364
 10
160.4838403927401
 20
-58.54973914268411
 10
160.7428790270398
 20
-58.70372252748414
  0
SPLINE
  5
DA
330
70
100
AcDbEntity
  8
0
 62
    18
420
        0
370
    18
100
AcDbSpline
210
0.0
220
0.0
230
1.0
 70
     8
 71
     3
 72
     8
 73
     4
 74
     0
 42
0.0000000001
 43
0.0000000001
 40
0.0
 40
0.0
 40
0.0
 40
0.0
 40
1.0
 40
1.0
 40
1.0
 40
1.0
 10
177.0816424259014
 20
-59.45499494729163
 30
0.0
 10
177.7569001797671
 20
-59.19469643789042
 30
0.0
 10
178.4021836122357
 20
-58.86248227209318
 30
0.0
 10
179.0063464233065
 20
-58.46409094955773
 30
0.0
  0
LINE
  5
DB
330
70
100
AcDbEntity
  8
0
 62
    18
420
        0
370
    18
100
AcDbLine
 10
160.7428790270398
 20
-58.70372252748414
 30
0.0
 11
161.13837951884
 21
-58.92129197908364
 31
0.0
  0
LINE
  5
DC
330
70
100
AcDbEntity
  8
0
 62
    18
420
        0
370
    18
100
AcDbLine
 10
183.6671135292398
 20
-40.25313550378363
 30
0.0
 11
179.8151263628396
 21
-42.47684036208375
 31
0.0
  0
LINE
  5
DD
330
70
100
AcDbEntity
  8
0
 62
    18
420
        0
370
    18
100
AcDbLine
 10
182.11715187114
 20
-47.30614538248395
 30
0.0
 11
186.3335634829401
 21
-44.87206276978404
 31
0.0
  0
LINE
  5
DE
330
70
100
AcDbEntity
  8
0
 62
    18
420
        0
370
    18
100
AcDbLine
 10
171.3463582470401
 20
-52.10866640148407
 30
0.0
 11
171.3463582470401
 21
26.70871732221615
 31
0.0
  0
LINE
  5
DF
330
70
100
AcDbEntity
  8
0
 62
    18
420
        0
370
    18
100
AcDbLine
 10
168.01302491374
 20
26.70871732221615
 30
0.0
 11
168.01302491374
 21
-52.10866640148407
 31
0.0
  0
LINE
  5
E0
330
70
100
AcDbEntity
  8
0
 62
    18
420
        0
370
    18
100
AcDbLine
 10
171.7950261894398
 20
-52.03743386328373
 30
0.0
 11
171.3463582470401
 21
-51.92269754048404
 31
0.0
  0
LWPOLYLINE
  5
E1
330
70
100
AcDbEntity
  8
0
 62
    18
420
        0
370
    18
100
AcDbPolyline
 90
        3
 70
     0
 43
0.0
 10
168.01302491374
 20
-51.92632885008414
 10
167.7647595991396
 20
-51.97756139498377
 10
167.5719370624401
 20
-52.03770695908367
  0
LINE
  5
E2
330
70
100
AcDbEntity
  8
0
 62
    18
420
        0
370
    18
100
AcDbLine
 10
178.8364752807397
 20
-41.72809318398381
 30
0.0
 11
178.4446126768396
 21
-41.487746288584
 31
0.0
  0
SPLINE
  5
E3
330
70
100
AcDbEntity
  8
0
 62
    18
420
        0
370
    18
100
AcDbSpline
210
0.0
220
0.0
230
1.0
 70
     8
 71
     3
 72
     8
 73
     4
 74
     0
 42
0.0000000001
 43
0.0000000001
 40
0.0
 40
0.0
 40
0.0
 40
0.0
 40
1.0
 40
1.0
 40
1.0
 40
1.0
 10
162.3818272592427
 20
-40.7697195150517
 30
0.0
 10
161.5975641546811
 20
-41.07512909739753
 30
0.0
 10
160.8547985855577
 20
-41.47790385439814
 30
0.0
 10
160.1709951928812
 20
-41.96857334634667
 30
0.0
  0
LINE
  5
E4
330
70
100
AcDbEntity
  8
0
 62
    18
420
        0
370
    18
100
AcDbLine
 10
178.3739501141396
 20
-41.44889240828368
 30
0.0
 11
178.14348867354
 21
-41.32217295618409
 31
0.0
  0
LINE
  5
E5
330
70
100
AcDbEntity
  8
0
 62
    18
420
        0
370
    18
100
AcDbLine
 10
178.4446126768396
 20
-41.487746288584
 30
0.0
 11
178.3739501141396
 21
-41.44889240828368
 31
0.0
  0
LINE
  5
E6
330
70
100
AcDbEntity
  8
0
 62
    18
420
        0
370
    18
100
AcDbLine
 10
157.2356393839399
 20
-46.68937682708393
 30
0.0
 11
157.26181948904
 21
-49.13890601358406
 31
0.0
  0
LINE
  5
E7
330
70
100
AcDbEntity
  8
0
 62
    18
420
        0
370
    18
100
AcDbLine
 10
182.0975636718396
 20
-49.13890601358406
 30
0.0
 11
182.1237437768395
 21
-46.68937682708393
 31
0.0
  0
LINE
  5
E8
330
70
100
AcDbEntity
  8
0
 62
    18
420
        0
370
    18
100
AcDbLine
 10
159.1120753320396
 20
-57.50034912048382
 30
0.0
 11
159.3417526832395
 21
-76.62906454728378
 31
0.0
  0
LINE
  5
E9
330
70
100
AcDbEntity
  8
0
 62
    18
420
        0
370
    18
100
AcDbLine
 10
180.01763047754
 20
-76.62906454728378
 30
0.0
 11
180.2473078287399
 21
-57.50034912048382
 31
0.0
  0
LWPOLYLINE
  5
EA
330
70
100
AcDbEntity
  8
0
 62
    18
420
        0
370
    18
100
AcDbPolyline
 90
       33
 70
     0
 43
0.0
 10
159.3545835483398
 20
-76.65399217998398
 10
159.3540965290397
 20
-76.8923676068842
 10
159.4577780808399
 20
-77.51816168568414
 10
159.6640399188398
 20
-78.1310419472839
 10
159.9711342793397
 20
-78.72716129578363
 10
160.3774576265398
 20
-79.30205362188363
 10
160.88032121814
 20
-79.85013460238409
 10
161.4751185201398
 20
-80.36515041498397
 10
162.1553429420399
 20
-80.84100553568367
 10
162.9131512396398
 20
-81.27235454488412
 10
163.7397905581399
 20
-81.65470825318395
 10
164.6261630476397
 20
-81.98448146428397
 10
165.5630388831396
 20
-82.25882379408403
 10
166.5408827098398
 20
-82.47541774208388
 10
167.5498753486396
 20
-82.63244835408372
 10
168.5799582342397
 20
-82.7286018956839
 10
169.6209006610397
 20
-82.76307533668399
 10
170.6623838667396
 20
-82.73558528368415
 10
171.6940498165398
 20
-82.64637544108394
 10
172.7056376467395
 20
-82.49621628548366
 10
173.6871501056401
 20
-82.28637283158411
 10
174.6288824064398
 20
-82.01857426378408
 10
175.52149245004
 20
-81.69497575188415
 10
176.3560449208399
 20
-81.31811953128401
 10
177.12401828374
 20
-80.8909114841837
 10
177.8172675554398
 20
-80.4166450527839
 10
178.4278372286396
 20
-79.89923698218395
 10
178.9479672158395
 20
-79.34361691778391
 10
179.3706024802401
 20
-78.75592000128385
 10
179.68988066014
 20
-78.14385177418365
 10
179.9020573136395
 20
-77.51635479328413
 10
180.00608472974
 20
-76.88245150738378
 10
180.0055254636396
 20
-76.76212158188423
  0
LWPOLYLINE
  5
EB
330
70
100
AcDbEntity
  8
0
 62
    18
420
        0
370
    18
100
AcDbPolyline
 90
       23
 70
     0
 43
0.0
 10
170.7144058191395
 20
27.68980128051586
 10
170.3435806979396
 20
27.83078780911572
 10
169.9189712286396
 20
27.90575211941643
 10
169.47497674534
 20
27.90862104881581
 10
169.0475670405401
 20
27.83916217361634
 10
168.6713683064397
 20
27.70300263891597
 10
168.37685792734
 20
27.51117328041638
 10
168.1878953826396
 20
27.27921497181578
 10
168.11978929374
 20
27.02591959591583
 10
168.1780572110397
 20
26.77180763751609
 10
168.3579786143398
 20
26.53746573631593
 10
168.6449773416399
 20
26.34187887941627
 10
169.01580246294
 20
26.20089235081641
 10
169.4404119321399
 20
26.1259280405157
 10
169.8844064154395
 20
26.12305911111632
 10
170.3118161203401
 20
26.19251798631579
 10
170.6880148543398
 20
26.32867752101616
 10
170.9825252334401
 20
26.52050687951574
 10
171.17148777824
 20
26.75246518811635
 10
171.2395938671395
 20
27.0057605640163
 10
171.1813259498399
 20
27.25987252241603
 10
171.0014045464396
 20
27.4942144236162
 10
170.7144058191395
 20
27.68980128051586
  0
LWPOLYLINE
  5
EC
330
70
100
AcDbEntity
  8
0
 62
    18
420
        0
370
    18
100
AcDbPolyline
 90
       10
 70
     0
 43
0.0
 10
168.5742276501398
 20
25.98867330451591
 10
168.9517355180395
 20
25.84319808391616
 10
169.3832325568398
 20
25.76191446581642
 10
169.8367166053397
 20
25.75085088421596
 10
170.2785548260401
 20
25.81082787441649
 10
170.6759780993395
 20
25.93739721731598
 10
170.9995113593397
 20
26.12117184381585
 10
171.2251596240398
 20
26.34852203071599
 10
171.3361875940397
 20
26.60258625451604
 10
171.3463582470401
 20
26.70871732221615
  0
SPLINE
  5
ED
330
70
100
AcDbEntity
  8
0
 62
    18
420
        0
370
    18
100
AcDbSpline
210
0.0
220
0.0
230
1.0
 70
     8
 71
     3
 72
     8
 73
     4
 74
     0
 42
0.0000000001
 43
0.0000000001
 40
0.0
 40
0.0
 40
0.0
 40
0.0
 40
1.0
 40
1.0
 40
1.0
 40
1.0
 10
168.0130249137721
 20
26.70871732221294
 30
0.0
 10
168.0411586748132
 20
26.37880923029346
 30
0.0
 10
168.2611772517496
 20
26.09651719955293
 30
0.0
 10
168.5742276501333
 20
25.98867330451847
 30
0.0
  0
SPLINE
  5
EE
330
70
100
AcDbEntity
  8
0
 62
    18
420
        0
370
    18
100
AcDbSpline
210
0.0
220
0.0
230
1.0
 70
     8
 71
     3
 72
     8
 73
     4
 74
     0
 42
0.0000000001
 43
0.0000000001
 40
0.0
 40
0.0
 40
0.0
 40
0.0
 40
1.0
 40
1.0
 40
1.0
 40
1.0
 10
182.092983305531
 20
-33.98465423980559
 30
0.0
 10
181.1625364841372
 20
-34.07652838307181
 30
0.0
 10
180.3186659248859
 20
-34.57031870097577
 30
0.0
 10
179.7827732299364
 20
-35.33647218764933
 30
0.0
  0
SPLINE
  5
EF
330
70
100
AcDbEntity
  8
0
 62
    18
420
        0
370
    18
100
AcDbSpline
210
0.0
220
0.0
230
1.0
 70
     8
 71
     3
 72
     8
 73
     4
 74
     0
 42
0.0000000001
 43
0.0000000001
 40
0.0
 40
0.0
 40
0.0
 40
0.0
 40
1.0
 40
1.0
 40
1.0
 40
1.0
 10
188.6371738960361
 20
-50.68487389291347
 30
0.0
 10
189.6013635911529
 20
-50.60491814056845
 30
0.0
 10
190.4771944852959
 20
-50.09178722131371
 30
0.0
 10
191.0183551516505
 20
-49.28978982500034
 30
0.0
  0
LWPOLYLINE
  5
F0
330
70
100
AcDbEntity
  8
0
 62
    18
420
        0
370
    18
100
AcDbPolyline
 90
       22
 70
     0
 43
0.0
 10
192.8963642293397
 20
-45.48125703078397
 10
192.8541140622399
 20
-44.60364567658414
 10
192.7279143565399
 20
-43.68869432408374
 10
192.51941031834
 20
-42.74833076318393
 10
192.23132011674
 20
-41.79481407108397
 10
191.86739944794
 20
-40.84057479608373
 10
191.4323925745397
 20
-39.89805290638368
 10
190.9319704763399
 20
-38.97953561628386
 10
190.3726569207396
 20
-38.09699720338368
 10
189.7617434151397
 20
-37.26194290548414
 10
189.10719415154
 20
-36.48525893248405
 10
188.4175421805398
 20
-35.77707054768399
 10
187.7017781702396
 20
-35.14661006968367
 10
186.9692331991398
 20
-34.60209651518366
 10
186.2294571111399
 20
-34.15062845088402
 10
185.4920940191398
 20
-33.7980914534838
 10
184.7667565784396
 20
-33.54908138188412
 10
184.0629006718396
 20
-33.4068444631837
 10
183.3897021377396
 20
-33.37323497318418
 10
182.7559371483399
 20
-33.44869106298413
 10
182.16986779954
 20
-33.63222904698363
 10
181.83159121054
 20
-33.80060527968371
  0
LWPOLYLINE
  5
F1
330
70
100
AcDbEntity
  8
0
 62
    18
420
        0
370
    18
100
AcDbPolyline
 90
        8
 70
     0
 43
0.0
 10
190.99751292644
 20
-49.67816775668405
 10
191.4323925745397
 20
-49.37419546078366
 10
191.86739944794
 20
-48.93392181648362
 10
192.23132011674
 20
-48.3998564019838
 10
192.51941031834
 20
-47.77896157658422
 10
192.7279143565399
 20
-47.0793316540839
 10
192.8541140622399
 20
-46.31008738028403
 10
192.8963642293397
 20
-45.48125703078397
  0
LWPOLYLINE
  5
F2
330
70
100
AcDbEntity
  8
0
 62
    18
420
        0
370
    18
100
AcDbPolyline
 90
       38
 70
     0
 43
0.0
 10
182.1079066796398
 20
-48.17116736178386
 10
182.2083362987397
 20
-48.60056183658419
 10
182.2765471736401
 20
-49.30091384428366
 10
182.2275575405398
 20
-50.00180162768401
 10
182.0618231964397
 20
-50.69670416238383
 10
181.7808861253401
 20
-51.37915611028361
 10
181.3873601515395
 20
-52.04280797298373
 10
180.8849066208396
 20
-52.68148516698373
 10
180.2782003354396
 20
-53.28924547198383
 10
179.5728860601396
 20
-53.8604343168841
 10
178.7755260031396
 20
-54.38973738948403
 10
177.8935387622401
 20
-54.87223008068401
 10
176.9351303020397
 20
-55.30342330288377
 10
175.9092176066399
 20
-55.67930525608408
 10
174.8253457157398
 20
-55.99637875368407
 10
173.6935989187399
 20
-56.25169375988417
 10
172.5245069306395
 20
-56.44287483668393
 10
171.3289469242398
 20
-56.56814324498382
 10
170.1180423295396
 20
-56.62633349398421
 10
168.90305934154
 20
-56.61690418438412
 10
167.6953021006399
 20
-56.53994304618388
 10
166.5060075191401
 20
-56.39616612168415
 10
165.3462407339397
 20
-56.18691110428422
 10
164.22679215644
 20
-55.91412489218421
 10
163.1580770796396
 20
-55.58034547428396
 10
162.1500387747399
 20
-55.18867831758406
 10
161.21205597914
 20
-54.74276747348401
 10
160.3528556374396
 20
-54.24676167398385
 10
159.58043170604
 20
-53.70527573198398
 10
158.9019707783396
 20
-53.12334760518384
 10
158.3237852204398
 20
-52.50639152368385
 10
157.85125444164
 20
-51.86014761558404
 10
157.4887748444395
 20
-51.1906285015841
 10
157.2397189206399
 20
-50.50406335368375
 10
157.1064038739395
 20
-49.80683993928369
 10
157.0900700609399
 20
-49.10544518998404
 10
157.19086945044
 20
-48.40640484688396
 10
157.2514764811397
 20
-48.17116736178386
  0
LWPOLYLINE
  5
F3
330
70
100
AcDbEntity
  8
0
 62
    18
420
        0
370
    18
100
AcDbPolyline
 90
       24
 70
     0
 43
0.0
 10
158.4992025483397
 20
-52.36621311558389
 10
158.7166912615399
 20
-52.61239513158416
 10
159.3438464281398
 20
-53.21643734758396
 10
160.0705414336397
 20
-53.78208393048367
 10
160.8897778080398
 20
-54.30388739428416
 10
161.7936658571401
 20
-54.7768224864842
 10
162.7735006448401
 20
-55.19633458358391
 10
163.81984582654
 20
-55.55838355488397
 10
164.9226245261399
 20
-55.85948267068391
 10
166.0712163820398
 20
-56.09673218208403
 10
167.2545598266398
 20
-56.26784724648408
 10
168.4612586157399
 20
-56.37117993218385
 10
169.6796915804401
 20
-56.40573508918406
 10
170.8981245450395
 20
-56.37117993218385
 10
172.1048233341397
 20
-56.26784724648408
 10
173.2881667787397
 20
-56.09673218208403
 10
174.4367586346396
 20
-55.85948267068391
 10
175.5395373342401
 20
-55.55838355488397
 10
176.5858825160395
 20
-55.19633458358391
 10
177.5657173037395
 20
-54.7768224864842
 10
178.4696053527397
 20
-54.30388739428416
 10
179.2888417271398
 20
-53.78208393048367
 10
180.0155367327398
 20
-53.21643734758396
 10
180.4020520522397
 20
-52.8603532448841
  0
LINE
  5
F4
330
70
100
AcDbEntity
  8
0
 62
    18
420
        0
370
    18
100
AcDbLine
 10
157.0132660053397
 20
-51.46397227368387
 30
0.0
 11
157.0130249154395
 21
-51.50920639748422
 31
0.0
  0
LINE
  5
F5
330
70
100
AcDbEntity
  8
0
 62
    18
420
        0
370
    18
100
AcDbLine
 10
182.3463582469397
 20
-51.50912159568367
 30
0.0
 11
182.3461171554398
 21
-51.46397227368387
 31
0.0
  0
LWPOLYLINE
  5
F6
330
70
100
AcDbEntity
  8
0
 62
    18
420
        0
370
    18
100
AcDbPolyline
 90
       10
 70
     0
 43
0.0
 10
156.9925527811398
 20
-53.40199532948411
 10
157.0168800648401
 20
-53.90277526328411
 10
157.1516737432396
 20
-54.60441089348383
 10
157.4028495435396
 20
-55.29529618528421
 10
157.7680741061395
 20
-55.96901298888393
 10
158.2439545869399
 20
-56.6193026452839
 10
158.8260701765396
 20
-57.24012412778417
 10
159.5090131681396
 20
-57.82571016158415
 10
160.28643919374
 20
-58.37062080038407
 10
160.3407756761397
 20
-58.40494927338371
  0
LWPOLYLINE
  5
F7
330
70
100
AcDbEntity
  8
0
 62
    18
420
        0
370
    18
100
AcDbPolyline
 90
       10
 70
     0
 43
0.0
 10
179.0452495720398
 20
-58.38817213318382
 10
179.63352634554
 20
-57.98874768178386
 10
180.3446654901398
 20
-57.41445571958404
 10
180.95672972044
 20
-56.80330881228396
 10
181.4640331143397
 20
-56.16098436028416
 10
181.8618629511397
 20
-55.49344939558398
 10
182.1465234924399
 20
-54.80690514928377
 10
182.3153703135398
 20
-54.10772944418366
 10
182.3668348700397
 20
-53.4024174459842
 10
182.3668303796397
 20
-53.40199532948411
  0
SPLINE
  5
F8
330
70
100
AcDbEntity
  8
0
 62
    18
420
        0
370
    18
100
AcDbSpline
210
0.0
220
0.0
230
1.0
 70
     8
 71
     3
 72
     8
 73
     4
 74
     0
 42
0.0000000001
 43
0.0000000001
 40
0.0
 40
0.0
 40
0.0
 40
0.0
 40
1.0
 40
1.0
 40
1.0
 40
1.0
 10
161.2933014026905
 20
-58.95158955358315
 30
0.0
 10
166.2282132376715
 20
-61.28656853262365
 30
0.0
 10
171.9108589797575
 20
-61.4687308212254
 30
0.0
 10
176.9851851951158
 20
-59.45460691448137
 30
0.0
  0
LWPOLYLINE
  5
F9
330
70
100
AcDbEntity
  8
0
 62
    18
420
        0
370
    18
100
AcDbPolyline
 90
       12
 70
     0
 43
0.0
 10
186.8859565892399
 20
-43.65114328588411
 10
186.8418718863401
 20
-43.15760802788402
 10
186.7116791292401
 20
-42.63625081538372
 10
186.5014659866395
 20
-42.11144973228421
 10
186.2210617915401
 20
-41.60774389388421
 10
185.8835779322395
 20
-41.14868602538417
 10
185.5047947790398
 20
-40.75574116258369
 10
185.1024238111399
 20
-40.44728297048401
 10
184.6952794478399
 20
-40.23773461128413
 10
184.3023993071395
 20
-40.13689433338412
 10
183.9421540276397
 20
-40.14947731618386
 10
183.6671135292398
 20
-40.25313550378363
  0
SPLINE
  5
FA
330
70
100
AcDbEntity
  8
0
 62
    18
420
        0
370
    18
100
AcDbSpline
210
0.0
220
0.0
230
1.0
 70
     8
 71
     3
 72
     8
 73
     4
 74
     0
 42
0.0000000001
 43
0.0000000001
 40
0.0
 40
0.0
 40
0.0
 40
0.0
 40
1.0
 40
1.0
 40
1.0
 40
1.0
 10
186.3335634829119
 20
-44.87206276978852
 30
0.0
 10
186.7261111702777
 20
-44.59590051748263
 30
0.0
 10
186.9376693628584
 20
-44.12830684849684
 30
0.0
 10
186.8859565892277
 20
-43.65114328587128
 30
0.0
  0
LWPOLYLINE
  5
FB
330
70
100
AcDbEntity
  8
0
 62
    18
420
        0
370
    18
100
AcDbPolyline
 90
        3
 70
     0
 43
0.0
 10
166.9438122438396
 20
-51.96682605088416
 10
167.8640474730399
 20
-51.82595119658419
 10
168.01302491374
 20
-51.80877633958409
  0
LWPOLYLINE
  5
FC
330
70
100
AcDbEntity
  8
0
 62
    18
420
        0
370
    18
100
AcDbPolyline
 90
        3
 70
     0
 43
0.0
 10
171.3463582470401
 20
-51.80877633958409
 10
171.9634915125396
 20
-51.89000413658407
 10
172.41557091704
 20
-51.96682605088416
  0
LWPOLYLINE
  5
FD
330
70
100
AcDbEntity
  8
0
 62
    18
420
        0
370
    18
100
AcDbPolyline
 90
       10
 70
     0
 43
0.0
 10
168.5742276501398
 20
25.98867330451591
 10
168.9517355180395
 20
25.84319808391616
 10
169.3832325568398
 20
25.76191446581642
 10
169.8367166053397
 20
25.75085088421596
 10
170.2785548260401
 20
25.81082787441649
 10
170.6759780993395
 20
25.93739721731598
 10
170.9995113593397
 20
26.12117184381585
 10
171.2251596240398
 20
26.34852203071599
 10
171.3361875940397
 20
26.60258625451604
 10
171.3463582470401
 20
26.70871732221615
  0
LWPOLYLINE
  5
FE
330
70
100
AcDbEntity
  8
0
 62
    18
420
        0
370
    18
100
AcDbPolyline
 90
       24
 70
     0
 43
0.0
 10
180.6236582969398
 20
-49.72040933648384
 10
180.5075934375398
 20
-49.84890553738408
 10
179.8881667846397
 20
-50.44550406348363
 10
179.1704269350398
 20
-51.00418011078388
 10
178.3612861157401
 20
-51.51955332348398
 10
177.46853679534
 20
-51.98666037578391
 10
176.5007766376401
 20
-52.4010027714837
 10
175.4673257020396
 20
-52.75859016668416
 10
174.3781366860396
 20
-53.05597879938401
 10
173.2436990751399
 20
-53.29030465458398
 10
172.0749381239396
 20
-53.45931104598358
 10
170.8831096390401
 20
-53.56137034978406
 10
169.6796915804401
 20
-53.59549967908389
 10
168.47627352174
 20
-53.56137034978406
 10
167.2844450369399
 20
-53.45931104598422
 10
166.1156840856395
 20
-53.29030465458398
 10
164.9812464748399
 20
-53.05597879938401
 10
163.89205745884
 20
-52.75859016668416
 10
162.8586065232401
 20
-52.4010027714837
 10
161.8908463655396
 20
-51.98666037578391
 10
160.99809704504
 20
-51.51955332348398
 10
160.1889562257397
 20
-51.00418011078388
 10
159.4712163761397
 20
-50.44550406348363
 10
158.9167138786397
 20
-49.91809882948409
  0
SPLINE
  5
FF
330
70
100
AcDbEntity
  8
0
 62
    18
420
        0
370
    18
100
AcDbSpline
210
0.0
220
0.0
230
1.0
 70
     8
 71
     3
 72
     8
 73
     4
 74
     0
 42
0.0000000001
 43
0.0000000001
 40
0.0
 40
0.0
 40
0.0
 40
0.0
 40
1.0
 40
1.0
 40
1.0
 40
1.0
 10
168.0130249137432
 20
-39.48565976425897
 30
0.0
 10
166.1039570029475
 20
-39.61923742552637
 30
0.0
 10
164.2281966472743
 20
-40.05502554802062
 30
0.0
 10
162.4557717190837
 20
-40.77675482797716
 30
0.0
  0
SPLINE
  5
100
330
70
100
AcDbEntity
  8
0
 62
    18
420
        0
370
    18
100
AcDbSpline
210
0.0
220
0.0
230
1.0
 70
     8
 71
     3
 72
     8
 73
     4
 74
     0
 42
0.0000000001
 43
0.0000000001
 40
0.0
 40
0.0
 40
0.0
 40
0.0
 40
1.0
 40
1.0
 40
1.0
 40
1.0
 10
177.9892589332597
 20
-41.29006346606579
 30
0.0
 10
175.921599929989
 20
-40.24078490530867
 30
0.0
 10
173.6607298953777
 20
-39.62666730028991
 30
0.0
 10
171.3463582470363
 20
-39.48565976423843
 30
0.0
  0
LWPOLYLINE
  5
101
330
70
100
AcDbEntity
  8
0
 62
    18
420
        0
370
    18
100
AcDbPolyline
 90
       49
 70
     0
 43
0.0
 10
178.87477402164
 20
-41.80440748008406
 10
179.2992571049401
 20
-42.08761298988382
 10
180.02673977674
 20
-42.65387267828358
 10
180.6545747181398
 20
-43.25856961688395
 10
181.1767155353401
 20
-43.89588024368391
 10
181.5881337270399
 20
-44.55966690908369
 10
181.8848671110396
 20
-45.24353698438368
 10
182.0640579826397
 20
-45.94090442718407
 10
182.1239806358395
 20
-46.64505320758393
 10
182.0640579826397
 20
-47.3492019880839
 10
181.8848671110396
 20
-48.04656943078417
 10
181.5881337270399
 20
-48.73043950618363
 10
181.1767155353401
 20
-49.39422617148395
 10
180.6545747181398
 20
-50.03153679838401
 10
180.02673977674
 20
-50.63623373698375
 10
179.2992571049401
 20
-51.20249342528405
 10
178.4791327585395
 20
-51.72486247298406
 10
177.5742649833399
 20
-52.19831018048367
 10
176.5933681507399
 20
-52.61827698768395
 10
175.5458888332397
 20
-52.9807183845842
 10
174.44191482944
 20
-53.28214386238414
 10
173.2920780125401
 20
-53.51965052898372
 10
172.1074519395401
 20
-53.69095106528385
 10
170.8994452070398
 20
-53.7943957535838
 10
169.6796915804401
 20
-53.82898836498414
 10
168.4599379537397
 20
-53.7943957535838
 10
167.2519312213395
 20
-53.69095106528385
 10
166.06730514824
 20
-53.51965052898372
 10
164.9174683313401
 20
-53.28214386238414
 10
163.8134943275397
 20
-52.9807183845842
 10
162.7660150101396
 20
-52.61827698768395
 10
161.7851181774395
 20
-52.19831018048367
 10
160.88025040224
 20
-51.72486247298406
 10
160.06012605584
 20
-51.20249342528405
 10
159.3326433840401
 20
-50.63623373698375
 10
158.7048084427397
 20
-50.03153679838401
 10
158.18266762544
 20
-49.39422617148395
 10
157.7712494337396
 20
-48.73043950618363
 10
157.4745160497398
 20
-48.04656943078417
 10
157.2953251781398
 20
-47.3492019880839
 10
157.2354025249399
 20
-46.64505320758393
 10
157.2953251781398
 20
-45.94090442718407
 10
157.4745160497398
 20
-45.24353698438368
 10
157.7712494337396
 20
-44.55966690908369
 10
158.18266762544
 20
-43.89588024368391
 10
158.7048084427397
 20
-43.25856961688395
 10
159.3326433840401
 20
-42.65387267828358
 10
160.06012605584
 20
-42.08761298988382
 10
160.1258904824397
 20
-42.04174149248379
  0
LWPOLYLINE
  5
102
330
70
100
AcDbEntity
  8
0
 62
    18
420
        0
370
    18
100
AcDbPolyline
 90
       33
 70
     0
 43
0.0
 10
182.0975636718396
 20
-49.13890601358406
 10
182.03800344604
 20
-49.79734301808398
 10
181.8591895606399
 20
-50.49324332198421
 10
181.5630804517398
 20
-51.17567465448417
 10
181.1525278117396
 20
-51.83806482908405
 10
180.6314854872395
 20
-52.474034665984
 10
180.0049714005396
 20
-53.07745942828421
 10
179.2790192248397
 20
-53.64252780538386
 10
178.4606202763399
 20
-54.16379788018359
 10
177.5576561844396
 20
-54.63624953668395
 10
176.5788229867399
 20
-55.05533280728375
 10
175.5335473822398
 20
-55.4170116909841
 10
174.4318959463401
 20
-55.71780302238383
 10
173.28447818454
 20
-55.95481001658404
 10
172.1023443571399
 20
-56.12575016668368
 10
170.8968790591399
 20
-56.22897722548419
 10
169.6796915804401
 20
-56.26349705998367
 10
168.4625041016395
 20
-56.22897722548419
 10
167.2570388036395
 20
-56.12575016668368
 10
166.0749049762395
 20
-55.95481001658404
 10
164.92748721444
 20
-55.71780302238383
 10
163.8258357785397
 20
-55.4170116909841
 10
162.7805601740396
 20
-55.05533280728375
 10
161.80172697644
 20
-54.63624953668395
 10
160.8987628844396
 20
-54.16379788018359
 10
160.0803639359398
 20
-53.64252780538386
 10
159.3544117602399
 20
-53.07745942828421
 10
158.7278976735399
 20
-52.474034665984
 10
158.2068553490399
 20
-51.83806482908405
 10
157.7963027091398
 20
-51.17567465448417
 10
157.5001936001395
 20
-50.49324332198421
 10
157.3213797147402
 20
-49.79734301808398
 10
157.26181948904
 20
-49.13890601358406
  0
LWPOLYLINE
  5
103
330
70
100
AcDbEntity
  8
0
 62
    18
420
        0
370
    18
100
AcDbPolyline
 90
       50
 70
     0
 43
0.0
 10
176.6405863704397
 20
-42.489336449484
 10
177.3640941061401
 20
-42.95578698118371
 10
177.9943236047399
 20
-43.46535384158367
 10
178.5236247339396
 20
-44.01185157928376
 10
178.9455724949395
 20
-44.58864645198369
 10
179.2550450135398
 20
-45.18873695138383
 10
179.4482857125399
 20
-45.80483879168361
 10
179.5229489117401
 20
-46.42947333098368
 10
179.4781283008401
 20
-47.05505835238421
 10
179.3143679415398
 20
-47.67400010098379
 10
179.0336556627396
 20
-48.27878546248404
 10
178.6393989311395
 20
-48.86207316188383
 10
178.1363834894399
 20
-49.41678287648411
 10
177.5307152637397
 20
-49.93618118198416
 10
176.8297462457399
 20
-50.41396328648392
 10
176.0419852499399
 20
-50.84432956238376
 10
175.17699462744
 20
-51.22205594618367
 10
174.2452741929396
 20
-51.54255735118367
 10
173.2581337701402
 20
-51.80194332448378
 10
172.2275559066396
 20
-51.99706527188411
 10
171.1660504216399
 20
-52.12555467708372
 10
170.08650255384
 20
-52.18585185288416
 10
169.0020165518397
 20
-52.17722487318361
 10
167.9257566066399
 20
-52.09977845788401
 10
166.8707870562396
 20
-51.95445270148378
 10
165.8499138015398
 20
-51.74301166188371
 10
164.87552886124
 20
-51.46802194678412
 10
163.9594599484401
 20
-51.13282155888398
 10
163.1128268988397
 20
-50.74147937678391
 10
162.3459066907398
 20
-50.2987457644841
 10
161.6680086965396
 20
-49.80999490828419
 10
161.0873616796395
 20
-49.28115958148371
 10
160.6110139083399
 20
-48.71865912868397
 10
160.2447475991398
 20
-48.12932154318398
 10
159.9930087290401
 20
-47.52030058498375
 10
159.8588530668395
 20
-46.89898894368371
 10
159.84390908044
 20
-46.27292850078398
 10
159.9483581697401
 20
-45.6497187820836
 10
160.1709324642397
 20
-45.03692470928412
 10
160.5089302134396
 20
-44.44198477238415
 10
160.9582485826396
 20
-43.87212073618376
 10
161.5134334554397
 20
-43.33424997818358
 10
162.1677456395401
 20
-42.8349015207839
 10
162.9132426715396
 20
-42.38013677788409
 10
163.7408752270398
 20
-41.97547597718374
 10
164.6405969682401
 20
-41.6258311528838
 10
165.60148649194
 20
-41.33544651948416
 10
166.6118799008394
 20
-41.1078469528839
 10
167.6595123877395
 20
-40.9457952036841
 10
168.01302491374
 20
-40.90688455238398
  0
SPLINE
  5
104
330
70
100
AcDbEntity
  8
0
 62
    18
420
        0
370
    18
100
AcDbSpline
210
0.0
220
0.0
230
1.0
 70
     8
 71
     3
 72
     8
 73
     4
 74
     0
 42
0.0000000001
 43
0.0000000001
 40
0.0
 40
0.0
 40
0.0
 40
0.0
 40
1.0
 40
1.0
 40
1.0
 40
1.0
 10
176.64058637038
 20
-42.4893364494763
 30
0.0
 10
175.0047453748239
 20
-41.60025660046687
 30
0.0
 10
173.2017773589842
 20
-41.06134703881759
 30
0.0
 10
171.3463582470536
 20
-40.90688455230185
 30
0.0
  0
LWPOLYLINE
  5
105
330
70
100
AcDbEntity
  8
0
 62
    18
420
        0
370
    18
100
AcDbPolyline
 90
       17
 70
     0
 43
0.0
 10
178.3256401523396
 20
-54.24054042618377
 10
177.4519279963396
 20
-54.69678000258407
 10
176.4862314736401
 20
-55.11023886168405
 10
175.4549842510396
 20
-55.46706374378407
 10
174.3681178028396
 20
-55.76381823008368
 10
173.2360992471398
 20
-55.99764441278419
 10
172.0698305415395
 20
-56.16629041798393
 10
170.8805434911396
 20
-56.2681320922837
 10
169.6796915804401
 20
-56.30218864478406
 10
168.4788396696399
 20
-56.2681320922837
 10
167.2895526192399
 20
-56.16629041798393
 10
166.1232839136397
 20
-55.99764441278419
 10
164.9912653579398
 20
-55.76381823008368
 10
163.9043989098399
 20
-55.46706374378407
 10
162.87315168714
 20
-55.11023886168405
 10
161.9074551644399
 20
-54.69678000258407
 10
161.1709128661396
 20
-54.31818733828389
  0
SPLINE
  5
106
330
70
100
AcDbEntity
  8
0
 62
    18
420
        0
370
    18
100
AcDbSpline
210
0.0
220
0.0
230
1.0
 70
     8
 71
     3
 72
     8
 73
     4
 74
     0
 42
0.0000000001
 43
0.0000000001
 40
0.0
 40
0.0
 40
0.0
 40
0.0
 40
1.0
 40
1.0
 40
1.0
 40
1.0
 10
176.3898838794083
 20
-42.90611282309484
 30
0.0
 10
174.8307241798375
 20
-42.05906351648684
 30
0.0
 10
173.1139550167192
 20
-41.54187690481967
 30
0.0
 10
171.3463582471216
 20
-41.38672163838784
 30
0.0
  0
LWPOLYLINE
  5
107
330
70
100
AcDbEntity
  8
0
 62
    18
420
        0
370
    18
100
AcDbPolyline
 90
       22
 70
     0
 43
0.0
 10
168.01302491374
 20
-41.38672163838399
 10
167.5680469220398
 20
-41.43892025938365
 10
166.5454605462397
 20
-41.60899040848386
 10
165.5622889443398
 20
-41.8440867948837
 10
164.6308960694397
 20
-42.141252945384
 10
163.7629947275399
 20
-42.49675182298378
 10
162.9694992814398
 20
-42.90611282318404
 10
162.2603883969399
 20
-43.36418799378409
 10
161.6445795546395
 20
-43.86521677378397
 10
161.1298169082396
 20
-44.40289843548383
 10
160.7225738965398
 20
-44.97047132018395
 10
160.4279718367395
 20
-45.56079786948372
 10
160.2497155207395
 20
-46.16645438448386
 10
160.1900466250396
 20
-46.77982438308371
 10
160.2497155207395
 20
-47.3931943816842
 10
160.4279718367395
 20
-47.99885089658423
 10
160.7225738965398
 20
-48.58917744588399
 10
161.1298169082396
 20
-49.15675033058412
 10
161.6445795546395
 20
-49.69443199238408
 10
162.2603883969399
 20
-50.19546077238396
 10
162.9694992814398
 20
-50.65353594298402
 10
163.3133515219396
 20
-50.84235004918374
  0
LWPOLYLINE
  5
108
330
70
100
AcDbEntity
  8
0
 62
    18
420
        0
370
    18
100
AcDbPolyline
 90
       16
 70
     0
 43
0.0
 10
176.0460316388399
 20
-50.84235004918374
 10
176.3898838793396
 20
-50.65353594298402
 10
177.0989947639396
 20
-50.19546077238396
 10
177.7148036061399
 20
-49.69443199238408
 10
178.22956625264
 20
-49.15675033058412
 10
178.6368092642396
 20
-48.58917744588399
 10
178.9314113240399
 20
-47.99885089658423
 10
179.1096676400399
 20
-47.3931943816842
 10
179.1693365357398
 20
-46.77982438308371
 10
179.1096676400399
 20
-46.16645438448386
 10
178.9314113240399
 20
-45.56079786948372
 10
178.6368092642396
 20
-44.97047132018395
 10
178.22956625264
 20
-44.40289843548383
 10
177.7148036061399
 20
-43.86521677378397
 10
177.0989947639396
 20
-43.36418799378409
 10
176.3898838793396
 20
-42.90611282318404
  0
LINE
  5
109
330
70
100
AcDbEntity
  8
0
 62
    18
420
        0
370
    18
100
AcDbLine
 10
180.01763047754
 20
-76.62906454728378
 30
0.0
 11
180.0140243376401
 21
-76.75065444428412
 31
0.0
  0
LWPOLYLINE
  5
10A
330
70
100
AcDbEntity
  8
0
 62
     8
420
  8421504
370
    18
100
AcDbPolyline
 90
       13
 70
     0
 43
0.0
 10
171.3462955170395
 20
26.89722214331646
 10
171.29572543564
 20
26.65351918331611
 10
171.1258046670399
 20
26.41054894001646
 10
170.8486323063401
 20
26.20305391351606
 10
170.4847649595396
 20
26.04642306051591
 10
170.06118900324
 20
25.95227297501576
 10
169.6093191282395
 20
25.92758633801622
 10
169.1626684561397
 20
25.97419404461595
 10
168.75436302394
 20
26.08863941431599
 10
168.4146849776397
 20
26.26243455761601
 10
168.16882668404
 20
26.48268988371596
 10
168.0350223281397
 20
26.73307006291623
 10
168.0132485292397
 20
26.87311404581589
  0
SPLINE
  5
10B
330
70
100
AcDbEntity
  8
0
 62
     8
420
  8421504
370
    18
100
AcDbSpline
210
0.0
220
0.0
230
1.0
 70
     8
 71
     3
 72
     8
 73
     4
 74
     0
 42
0.0000000001
 43
0.0000000001
 40
0.0
 40
0.0
 40
0.0
 40
0.0
 40
1.0
 40
1.0
 40
1.0
 40
1.0
 10
178.8929287705738
 20
-38.85547012106412
 30
0.0
 10
178.9102451687416
 20
-39.99565626519127
 30
0.0
 10
179.1035514281908
 20
-41.12632859410424
 30
0.0
 10
179.4660122936399
 20
-42.20750685041693
 30
0.0
  0
LWPOLYLINE
  5
10C
330
70
100
AcDbEntity
  8
0
 62
     8
420
  8421504
370
    18
100
AcDbPolyline
 90
       47
 70
     0
 43
0.0
 10
182.2684315021398
 20
-47.21881351038391
 10
182.6726403461399
 20
-47.67361166428366
 10
183.35656142504
 20
-48.35588251308372
 10
184.06475672524
 20
-48.9585365951841
 10
184.7876491202396
 20
-49.47342404798396
 10
185.51546273044
 20
-49.89358190188386
 10
186.2383551254396
 20
-50.21332824268363
 10
186.9465504256396
 20
-50.42833904968414
 10
187.6304715045397
 20
-50.53570667058361
 10
188.2808695027398
 20
-50.53397914248384
 10
188.8889489030399
 20
-50.42317982718401
 10
189.4464864748398
 20
-50.20480709538388
 10
189.9459424788397
 20
-49.88181406368395
 10
190.3805626293396
 20
-49.45856865868377
 10
190.7444694344398
 20
-48.94079454848398
 10
191.0327416789396
 20
-48.33549373978414
 10
191.2414809751395
 20
-47.65085188738388
 10
191.3678644822398
 20
-46.89612759808379
 10
191.4101830801399
 20
-46.0815272230838
 10
191.3678644822398
 20
-45.2180668349836
 10
191.2414809751395
 20
-44.31742325428396
 10
191.0327416789396
 20
-43.39177614048366
 10
190.7444694344398
 20
-42.45364328278371
 10
190.3805626293396
 20
-41.51571131868402
 10
189.9459424788397
 20
-40.59066416908368
 10
189.4464864748398
 20
-39.69101150978364
 10
188.8889489030399
 20
-38.82891959958408
 10
188.2808695027398
 20
-38.01604675268387
 10
187.6304715045397
 20
-37.26338567988416
 10
186.9465504256396
 20
-36.5811148310841
 10
186.2383551254396
 20
-35.97846074888361
 10
185.51546273044
 20
-35.46357329618385
 10
184.7876491202396
 20
-35.04341544228396
 10
184.06475672524
 20
-34.7236691014842
 10
183.35656142504
 20
-34.50865829448367
 10
182.6726403461399
 20
-34.4012906735842
 10
182.0222423479398
 20
-34.40301820168398
 10
181.4141629475396
 20
-34.51381751698381
 10
180.8566253758399
 20
-34.73219024878394
 10
180.3571693718399
 20
-35.05518328048387
 10
179.92254922134
 20
-35.47842868548405
 10
179.5586424162398
 20
-35.99620279558374
 10
179.2703701717401
 20
-36.60150360438367
 10
179.0616308754399
 20
-37.28614545678393
 10
178.9352473683397
 20
-38.04086974608403
 10
178.8929287705397
 20
-38.85547012108401
 10
178.8929287705397
 20
-38.85547012108401
  0
LWPOLYLINE
  5
10D
330
70
100
AcDbEntity
  8
0
 62
     8
420
  8421504
370
    18
100
AcDbPolyline
 90
       25
 70
     0
 43
0.0
 10
182.09298330554
 20
-33.98465423988387
 10
182.6942834959401
 20
-33.96963670218362
 10
183.3839354670397
 20
-34.0577035343841
 10
184.0996994773399
 20
-34.25364659228397
 10
184.8322444484397
 20
-34.55491145838366
 10
185.5720205363401
 20
-34.95757068458417
 10
186.3093836284397
 20
-35.4563749920842
 10
187.0347210691399
 20
-36.04482170378407
 10
187.7385769756397
 20
-36.7152395168838
 10
188.4117755098398
 20
-37.45888851008384
 10
189.0455404992395
 20
-38.2660740812838
 10
189.6316098480401
 20
-39.12627333228362
 10
190.1623432459401
 20
-40.02827225028391
 10
190.6308217715398
 20
-40.96031189998387
 10
191.0309380907397
 20
-41.91024171908405
 10
191.3574760755397
 20
-42.86567791978385
 10
191.6061788037398
 20
-43.81416493008381
 10
191.7738040550395
 20
-44.74333777108422
 10
191.8581665779398
 20
-45.64108325398416
 10
191.8581665779398
 20
-46.4956978934842
 10
191.7738040550395
 20
-47.29604048078414
 10
191.6061788037398
 20
-48.03167732618383
 10
191.3574760755397
 20
-48.69301827848396
 10
191.0309380907397
 20
-49.27144174698406
 10
191.0183551516396
 20
-49.28978982508375
  0
LWPOLYLINE
  5
10E
330
70
100
AcDbEntity
  8
0
 62
     8
420
  8421504
370
    18
100
AcDbPolyline
 90
       13
 70
     0
 43
0.0
 10
186.8859565892399
 20
-43.64433877918382
 10
186.8418718863401
 20
-43.15080352108362
 10
186.7116791292401
 20
-42.62944630858396
 10
186.5014659866395
 20
-42.10464522548381
 10
186.2210617915401
 20
-41.60093938708381
 10
185.8835779322395
 20
-41.14188151868387
 10
185.5047947790398
 20
-40.74893665588404
 10
185.1024238111399
 20
-40.44047846368361
 10
184.6952794478399
 20
-40.23093010448373
 10
184.3023993071395
 20
-40.13008982658372
 10
183.9421540276397
 20
-40.1426728093841
 10
183.6313882782395
 20
-40.26809068648385
 10
183.5814597277395
 20
-40.30258239088414
  0
SPLINE
  5
10F
330
70
100
AcDbEntity
  8
0
 62
     8
420
  8421504
370
    18
100
AcDbSpline
210
0.0
220
0.0
230
1.0
 70
     8
 71
     3
 72
     8
 73
     4
 74
     0
 42
0.0000000001
 43
0.0000000001
 40
0.0
 40
0.0
 40
0.0
 40
0.0
 40
1.0
 40
1.0
 40
1.0
 40
1.0
 10
157.2596030188865
 20
-48.93152303584447
 30
0.0
 10
157.2046912324152
 20
-50.1949389299893
 30
0.0
 10
157.6500939062091
 20
-51.42906342651317
 30
0.0
 10
158.4992025483352
 20
-52.3662131155903
 30
0.0
  0
SPLINE
  5
110
330
70
100
AcDbEntity
  8
0
 62
     8
420
  8421504
370
    18
100
AcDbSpline
210
0.0
220
0.0
230
1.0
 70
     8
 71
     3
 72
     8
 73
     4
 74
     0
 42
0.0000000001
 43
0.0000000001
 40
0.0
 40
0.0
 40
0.0
 40
0.0
 40
1.0
 40
1.0
 40
1.0
 40
1.0
 10
180.4020520521755
 20
-52.86035324480196
 30
0.0
 10
181.5310257584888
 20
-51.87344206926159
 30
0.0
 10
182.1547493018591
 20
-50.43004019936205
 30
0.0
 10
182.0997801418666
 20
-48.93152303582906
 30
0.0
  0
LWPOLYLINE
  5
111
330
70
100
AcDbEntity
  8
0
 62
     8
420
  8421504
370
    18
100
AcDbPolyline
 90
       35
 70
     0
 43
0.0
 10
157.0130249154395
 20
-51.50920639748422
 10
157.01333050234
 20
-51.55988101708407
 10
157.0817973239396
 20
-52.27003653398375
 10
157.2694538681397
 20
-52.97299265308411
 10
157.5745247008398
 20
-53.662098648384
 10
157.9941235216395
 20
-54.33083483088402
 10
158.5242804711401
 20
-54.9728742320838
 10
159.1599796905395
 20
-55.58214246388363
 10
159.8952067767396
 20
-56.15287518908421
 10
160.7230056853401
 20
-56.67967265788396
 10
161.6355445422396
 20
-57.15755079598373
 10
162.6241897415399
 20
-57.58198835838411
 10
163.6795876290399
 20
-57.94896970638383
 10
164.7917529977398
 20
-58.25502279878366
 10
165.9501635589398
 20
-58.49725204198359
 10
167.1438594940399
 20
-58.67336568508382
 10
168.3615471468399
 20
-58.78169750208417
 10
169.5917058735397
 20
-58.82122255688365
 10
170.8226970402399
 20
-58.79156689958391
 10
172.0428741375395
 20
-58.6930111048839
 10
173.2406929685401
 20
-58.52648761718417
 10
174.4048208701396
 20
-58.29357192918419
 10
175.5242439314395
 20
-57.99646767538375
 10
176.5883711981398
 20
-57.63798578388364
 10
177.5871348739397
 20
-57.22151788158361
 10
178.5110855727397
 20
-56.75100420578372
 10
179.3514817203401
 20
-56.23089632538398
 10
180.1003722591397
 20
-55.66611502438405
 10
180.7506718736396
 20
-55.06200374528384
 10
181.29622802514
 20
-54.4242780350842
 10
181.7318791616397
 20
-53.75897146978359
 10
182.0535035517396
 20
-53.07237856978392
 10
182.2580582803395
 20
-52.37099524758419
 10
182.3436080381397
 20
-51.66145734888366
 10
182.3463582469397
 20
-51.50912159568367
  0
LWPOLYLINE
  5
112
330
70
100
AcDbEntity
  8
0
 62
     8
420
  8421504
370
    18
100
AcDbPolyline
 90
       19
 70
     0
 43
0.0
 10
160.3407756761397
 20
-58.40494927338371
 10
161.1511261618398
 20
-58.86979396188416
 10
162.0950413489399
 20
-59.31859245348404
 10
163.1094160214398
 20
-59.7128470505839
 10
164.18482689454
 20
-60.04889522748383
 10
165.3112836729401
 20
-60.3236151814842
 10
166.4783218577395
 20
-60.53445483358363
 10
167.6750999587399
 20
-60.67945553678421
 10
168.89050020974
 20
-60.75727027098388
 10
170.1132318491399
 20
-60.76717615698422
 10
171.3319360090398
 20
-60.7090811716836
 10
172.5352912354396
 20
-60.58352500288374
 10
173.7121186621395
 20
-60.39167403548407
 10
174.8514858596398
 20
-60.13531051668412
 10
175.9428083942401
 20
-59.81681599878402
 10
176.9759481553399
 20
-59.43914921538384
 10
177.9413075353395
 20
-59.00581859558364
 10
178.8299185895397
 20
-58.52084967148412
 10
179.0452495720398
 20
-58.38817213318382
  0
LWPOLYLINE
  5
113
330
70
100
AcDbEntity
  8
0
 62
     8
420
  8421504
370
    18
100
AcDbPolyline
 90
        3
 70
     0
 43
0.0
 10
167.6838734464397
 20
-52.072685971084
 10
167.7946238071397
 20
-52.04212636908422
 10
168.01302491374
 20
-51.98795296488408
  0
LWPOLYLINE
  5
114
330
70
100
AcDbEntity
  8
0
 62
     8
420
  8421504
370
    18
100
AcDbPolyline
 90
        3
 70
     0
 43
0.0
 10
171.3463582470401
 20
-51.98795296488408
 10
171.40923896124
 20
-52.00274520478394
 10
171.6755097144399
 20
-52.072685971084
  0
LWPOLYLINE
  5
115
330
70
100
AcDbEntity
  8
0
 62
     8
420
  8421504
370
    18
100
AcDbPolyline
 90
       14
 70
     0
 43
0.0
 10
178.3612861157395
 20
-41.49599763028397
 10
179.1704269350398
 20
-42.01137084298407
 10
179.8881667846397
 20
-42.57004689028367
 10
180.5075934375398
 20
-43.16664541648397
 10
181.02274147634
 20
-43.79542085158383
 10
181.4286497440401
 20
-44.45031774438406
 10
181.7214091218399
 20
-45.12502907988378
 10
181.8982001771396
 20
-45.8130570191842
 10
181.9573203153399
 20
-46.50777547688365
 10
181.8982001771396
 20
-47.20249393468384
 10
181.7214091218399
 20
-47.89052187388416
 10
181.4286497440401
 20
-48.56523320938388
 10
181.02274147634
 20
-49.22013010228422
 10
180.6236582969398
 20
-49.72040933648384
  0
LWPOLYLINE
  5
116
330
70
100
AcDbEntity
  8
0
 62
     8
420
  8421504
370
    18
100
AcDbPolyline
 90
       17
 70
     0
 43
0.0
 10
158.9167138786397
 20
-49.91809882948409
 10
158.8517897232397
 20
-49.84890553738408
 10
158.3366416844401
 20
-49.22013010228422
 10
157.9307334168395
 20
-48.56523320938388
 10
157.6379740389396
 20
-47.89052187388416
 10
157.4611829836399
 20
-47.20249393468384
 10
157.4020628454396
 20
-46.50777547688365
 10
157.4611829836399
 20
-45.8130570191842
 10
157.6379740389396
 20
-45.12502907988378
 10
157.9307334168395
 20
-44.45031774438406
 10
158.3366416844401
 20
-43.79542085158383
 10
158.8517897232397
 20
-43.16664541648397
 10
159.4712163761397
 20
-42.57004689028367
 10
160.1889562257397
 20
-42.01137084298407
 10
160.99809704504
 20
-41.49599763028397
 10
161.8908463655396
 20
-41.02889057798404
 10
162.4557717191396
 20
-40.77675482798422
  0
LINE
  5
117
330
70
100
AcDbEntity
  8
0
 62
     8
420
  8421504
370
    18
100
AcDbLine
 10
177.9892589332398
 20
-41.29006346608377
 30
0.0
 11
178.3612861157395
 21
-41.49599763028397
 31
0.0
  0
LWPOLYLINE
  5
118
330
70
100
AcDbEntity
  8
0
 62
     8
420
  8421504
370
    18
100
AcDbPolyline
 90
       31
 70
     0
 43
0.0
 10
180.0140243376401
 20
-76.75065444428412
 10
179.9949875525401
 20
-76.98463693088417
 10
179.8634626647398
 20
-77.61535459028387
 10
179.6165515812401
 20
-78.23442848798368
 10
179.25705190344
 20
-78.83484426948391
 10
178.7890369061396
 20
-79.40979898398373
 10
178.2178093865401
 20
-79.95277816488396
 10
177.5498415804396
 20
-80.45762964118393
 10
176.7927018301396
 20
-80.91863324368423
 10
175.9549688314394
 20
-81.33056561758365
 10
175.04613443404
 20
-81.68875940438415
 10
174.0764960947395
 20
-81.989156125484
 10
173.0570402035396
 20
-82.2283521657839
 10
171.9993176028401
 20
-82.40363733868376
 10
170.9153127124396
 20
-82.51302559318368
 10
169.8173077408395
 20
-82.55527751658419
 10
168.7177435232398
 20
-82.52991437768404
 10
167.6290785614396
 20
-82.43722355108401
 10
166.5636478645401
 20
-82.27825526078373
 10
165.5335231880398
 20
-82.05481068108388
 10
164.5503762561402
 20
-81.76942152828393
 10
163.6253465164399
 20
-81.42532137568379
 10
162.7689149255397
 20
-81.02640901538396
 10
161.9907851955398
 20
-80.57720428388398
 10
161.2997738472398
 20
-80.08279685018376
 10
160.7037103152395
 20
-79.54878854818375
 10
160.2093482376398
 20
-78.98122990518399
 10
159.8222889342401
 20
-78.38655158758413
 10
159.5469179416397
 20
-77.77149153818367
 10
159.3863553232395
 20
-77.14301863318361
 10
159.3417526832395
 20
-76.62906454728378
  0
SPLINE
  5
119
330
70
100
AcDbEntity
  8
0
 62
    18
420
        0
370
    18
100
AcDbSpline
210
0.0
220
0.0
230
1.0
 70
     8
 71
     3
 72
     8
 73
     4
 74
     0
 42
0.0000000001
 43
0.0000000001
 40
0.0
 40
0.0
 40
0.0
 40
0.0
 40
1.0
 40
1.0
 40
1.0
 40
1.0
 10
133.5674542723068
 20
123.3862698811491
 30
0.0
 10
133.5674542723068
 20
123.4551652098724
 30
0.0
 10
133.5250636612502
 20
123.5169596133379
 30
0.0
 10
133.4607876056399
 20
123.5417619316782
 30
0.0
  0
SPLINE
  5
11A
330
70
100
AcDbEntity
  8
0
 62
    18
420
        0
370
    18
100
AcDbSpline
210
0.0
220
0.0
230
1.0
 70
     8
 71
     3
 72
     8
 73
     4
 74
     0
 42
0.0000000001
 43
0.0000000001
 40
0.0
 40
0.0
 40
0.0
 40
0.0
 40
1.0
 40
1.0
 40
1.0
 40
1.0
 10
130.3407876056401
 20
123.5417619316782
 30
0.0
 10
130.2765115500292
 20
123.5169596133379
 30
0.0
 10
130.2341209389733
 20
123.4551652098724
 30
0.0
 10
130.2341209389733
 20
123.3862698811491
 30
0.0
  0
LINE
  5
11B
330
70
100
AcDbEntity
  8
0
 62
    18
420
        0
370
    18
100
AcDbLine
 10
130.23412093904
 20
123.3862698811491
 30
0.0
 11
130.23412093904
 21
123.1656352845491
 31
0.0
  0
LINE
  5
11C
330
70
100
AcDbEntity
  8
0
 62
    18
420
        0
370
    18
100
AcDbLine
 10
133.5674542723401
 20
123.1656352845491
 30
0.0
 11
133.5674542723401
 21
123.3862698811491
 31
0.0
  0
SPLINE
  5
11D
330
70
100
AcDbEntity
  8
0
 62
    18
420
        0
370
    18
100
AcDbSpline
210
0.0
220
0.0
230
1.0
 70
     8
 71
     3
 72
     8
 73
     4
 74
     0
 42
0.0000000001
 43
0.0000000001
 40
0.0
 40
0.0
 40
0.0
 40
0.0
 40
1.0
 40
1.0
 40
1.0
 40
1.0
 10
133.4607876056406
 20
123.5417619317083
 30
0.0
 10
132.4568617522105
 20
123.929148624474
 30
0.0
 10
131.3447134590695
 20
123.929148624474
 30
0.0
 10
130.3407876056395
 20
123.5417619317083
 30
0.0
  0
LINE
  5
11E
330
70
100
AcDbEntity
  8
0
 62
    18
420
        0
370
    18
100
AcDbLine
 10
109.5807375907398
 20
37.00730195131634
 30
0.0
 11
108.1274542723398
 21
37.00730195131634
 31
0.0
  0
LINE
  5
11F
330
70
100
AcDbEntity
  8
0
 62
    18
420
        0
370
    18
100
AcDbLine
 10
108.1274542723398
 20
18.67396861791626
 30
0.0
 11
109.5807375907398
 21
18.67396861791626
 31
0.0
  0
SPLINE
  5
120
330
70
100
AcDbEntity
  8
0
 62
    18
420
        0
370
    18
100
AcDbSpline
210
0.0
220
0.0
230
1.0
 70
     8
 71
     3
 72
     8
 73
     4
 74
     0
 42
0.0000000001
 43
0.0000000001
 40
0.0
 40
0.0
 40
0.0
 40
0.0
 40
1.0
 40
1.0
 40
1.0
 40
1.0
 10
109.5807375907398
 20
18.67396861798299
 30
0.0
 10
109.7579536076647
 20
18.67396861798299
 30
0.0
 10
109.9041892757854
 20
18.81263393851752
 30
0.0
 10
109.9136005472252
 20
18.98959988050791
 30
0.0
  0
SPLINE
  5
121
330
70
100
AcDbEntity
  8
0
 62
    18
420
        0
370
    18
100
AcDbSpline
210
0.0
220
0.0
230
1.0
 70
     8
 71
     3
 72
     8
 73
     4
 74
     0
 42
0.0000000001
 43
0.0000000001
 40
0.0
 40
0.0
 40
0.0
 40
0.0
 40
1.0
 40
1.0
 40
1.0
 40
1.0
 10
109.9136005472252
 20
36.69167068872404
 30
0.0
 10
109.9041892757854
 20
36.86863663071443
 30
0.0
 10
109.7579536076647
 20
37.0073019512496
 30
0.0
 10
109.5807375907398
 20
37.0073019512496
 30
0.0
  0
SPLINE
  5
122
330
70
100
AcDbEntity
  8
0
 62
    18
420
        0
370
    18
100
AcDbSpline
210
0.0
220
0.0
230
1.0
 70
     8
 71
     3
 72
     8
 73
     4
 74
     0
 42
0.0000000001
 43
0.0000000001
 40
0.0
 40
0.0
 40
0.0
 40
0.0
 40
1.0
 40
1.0
 40
1.0
 40
1.0
 10
109.9136005472537
 20
18.98959988061828
 30
0.0
 10
110.0231515538475
 20
21.04955503142051
 30
0.0
 10
110.0944484143806
 20
23.11136655761807
 30
0.0
 10
110.1274542723664
 20
25.17396861805028
 30
0.0
  0
SPLINE
  5
123
330
70
100
AcDbEntity
  8
0
 62
    18
420
        0
370
    18
100
AcDbSpline
210
0.0
220
0.0
230
1.0
 70
     8
 71
     3
 72
     8
 73
     4
 74
     0
 42
0.0000000001
 43
0.0000000001
 40
0.0
 40
0.0
 40
0.0
 40
0.0
 40
1.0
 40
1.0
 40
1.0
 40
1.0
 10
110.1274542723664
 20
30.50730195118167
 30
0.0
 10
110.0944484143806
 20
32.56990401161452
 30
0.0
 10
110.0231515538475
 20
34.63171553781208
 30
0.0
 10
109.9136005472537
 20
36.69167068861431
 30
0.0
  0
SPLINE
  5
124
330
70
100
AcDbEntity
  8
0
 62
    18
420
        0
370
    18
100
AcDbSpline
210
0.0
220
0.0
230
1.0
 70
     8
 71
     3
 72
    11
 73
     7
 74
     0
 42
0.0000000001
 43
0.0000000001
 40
0.0
 40
0.0
 40
0.0
 40
0.0
 40
1.0
 40
1.0
 40
1.0
 40
2.0
 40
2.0
 40
2.0
 40
2.0
 10
144.3148409036396
 20
25.16563528464933
 30
0.0
 10
144.4068883619447
 20
25.16563528464933
 30
0.0
 10
144.4815075703066
 20
25.24025449301127
 30
0.0
 10
144.4815075703066
 20
25.33230195131632
 30
0.0
 10
144.4815075703066
 20
25.33278676576607
 30
0.0
 10
144.4815054549008
 20
25.33327157790891
 30
0.0
 10
144.4815012241508
 20
25.3337563738989
 30
0.0
  0
LINE
  5
125
330
70
100
AcDbEntity
  8
0
 62
    18
420
        0
370
    18
100
AcDbLine
 10
144.4815012241399
 20
25.33375637391623
 30
0.0
 11
144.4607876056397
 21
27.70730195131569
 31
0.0
  0
SPLINE
  5
126
330
70
100
AcDbEntity
  8
0
 62
    18
420
        0
370
    18
100
AcDbSpline
210
0.0
220
0.0
230
1.0
 70
     8
 71
     3
 72
     8
 73
     4
 74
     0
 42
0.0000000001
 43
0.0000000001
 40
0.0
 40
0.0
 40
0.0
 40
0.0
 40
1.0
 40
1.0
 40
1.0
 40
1.0
 10
144.4607876056429
 20
27.70730195131569
 30
0.0
 10
144.4607876056429
 20
28.58568570410837
 30
0.0
 10
144.4376408658248
 20
29.46391694253595
 30
0.0
 10
144.3913714875428
 20
30.34108121552171
 30
0.0
  0
SPLINE
  5
127
330
70
100
AcDbEntity
  8
0
 62
    18
420
        0
370
    18
100
AcDbSpline
210
0.0
220
0.0
230
1.0
 70
     8
 71
     3
 72
     8
 73
     4
 74
     0
 42
0.0000000001
 43
0.0000000001
 40
0.0
 40
0.0
 40
0.0
 40
0.0
 40
1.0
 40
1.0
 40
1.0
 40
1.0
 10
144.3913714875461
 20
30.34108121553006
 30
0.0
 10
144.386702546174
 20
30.4295939363957
 30
0.0
 10
144.313571983835
 20
30.49896861798285
 30
0.0
 10
144.22493620794
 20
30.49896861798285
 30
0.0
  0
LINE
  5
128
330
70
100
AcDbEntity
  8
0
 62
    18
420
        0
370
    18
100
AcDbLine
 10
110.1274542723398
 20
25.16563528461596
 30
0.0
 11
119.2734009743396
 21
25.16563528461596
 31
0.0
  0
LINE
  5
129
330
70
100
AcDbEntity
  8
0
 62
    18
420
        0
370
    18
100
AcDbLine
 10
119.3633056700398
 20
30.49896861791611
 30
0.0
 11
110.1274542723398
 21
30.49896861791611
 31
0.0
  0
LINE
  5
12A
330
70
100
AcDbEntity
  8
0
 62
    18
420
        0
370
    18
100
AcDbLine
 10
133.4607876056399
 20
33.83230195131566
 30
0.0
 11
133.4607876056399
 21
123.4989686179162
 31
0.0
  0
LINE
  5
12B
330
70
100
AcDbEntity
  8
0
 62
    18
420
        0
370
    18
100
AcDbLine
 10
130.1274542723399
 20
123.4989686179162
 30
0.0
 11
130.1274542723399
 21
33.83230195131566
 31
0.0
  0
SPLINE
  5
12C
330
70
100
AcDbEntity
  8
0
 62
    18
420
        0
370
    18
100
AcDbSpline
210
0.0
220
0.0
230
1.0
 70
     8
 71
     3
 72
    11
 73
     7
 74
     0
 42
0.0000000001
 43
0.0000000001
 40
0.0
 40
0.0
 40
0.0
 40
0.0
 40
1.0
 40
1.0
 40
1.0
 40
2.0
 40
2.0
 40
2.0
 40
2.0
 10
144.2384099944503
 20
33.66418086203336
 30
0.0
 10
144.2392132498627
 20
33.7562248154527
 30
0.0
 10
144.165248049943
 20
33.83149234971405
 30
0.0
 10
144.073204096523
 20
33.83229560512649
 30
0.0
 10
144.072719300533
 20
33.83229983587777
 30
0.0
 10
144.0722344883901
 20
33.83230195128293
 30
0.0
 10
144.0717496739397
 20
33.83230195128293
 30
0.0
  0
SPLINE
  5
12D
330
70
100
AcDbEntity
  8
0
 62
    18
420
        0
370
    18
100
AcDbSpline
210
0.0
220
0.0
230
1.0
 70
     8
 71
     3
 72
    11
 73
     7
 74
     0
 42
0.0000000001
 43
0.0000000001
 40
0.0
 40
0.0
 40
0.0
 40
0.0
 40
1.0
 40
1.0
 40
1.0
 40
2.0
 40
2.0
 40
2.0
 40
2.0
 10
119.5164922040401
 20
33.83230195128293
 30
0.0
 10
119.4244447457344
 20
33.83230195128293
 30
0.0
 10
119.3498255373731
 20
33.75768274292099
 30
0.0
 10
119.3498255373731
 20
33.66563528461594
 30
0.0
 10
119.3498255373731
 20
33.66515047016619
 30
0.0
 10
119.3498276527789
 20
33.66466565802272
 30
0.0
 10
119.3498318835289
 20
33.66418086203336
 30
0.0
  0
LINE
  5
12E
330
70
100
AcDbEntity
  8
0
 62
    18
420
        0
370
    18
100
AcDbLine
 10
119.3498318835398
 20
33.66418086201603
 30
0.0
 11
119.3760124869397
 21
30.66418086201593
 31
0.0
  0
LINE
  5
12F
330
70
100
AcDbEntity
  8
0
 62
    18
420
        0
370
    18
100
AcDbLine
 10
144.2122293910395
 20
30.66418086201593
 30
0.0
 11
144.23840999444
 21
33.66418086201603
 31
0.0
  0
SPLINE
  5
130
330
70
100
AcDbEntity
  8
0
 62
    18
420
        0
370
    18
100
AcDbSpline
210
0.0
220
0.0
230
1.0
 70
     8
 71
     3
 72
     8
 73
     4
 74
     0
 42
0.0000000001
 43
0.0000000001
 40
0.0
 40
0.0
 40
0.0
 40
0.0
 40
1.0
 40
1.0
 40
1.0
 40
1.0
 10
144.0455690705399
 20
30.49896861794949
 30
0.0
 10
144.1370490462055
 20
30.49896861794949
 30
0.0
 10
144.2114310877957
 20
30.57270436964484
 30
0.0
 10
144.2122293910504
 20
30.66418086203261
 30
0.0
  0
SPLINE
  5
131
330
70
100
AcDbEntity
  8
0
 62
    18
420
        0
370
    18
100
AcDbSpline
210
0.0
220
0.0
230
1.0
 70
     8
 71
     3
 72
     8
 73
     4
 74
     0
 42
0.0000000001
 43
0.0000000001
 40
0.0
 40
0.0
 40
0.0
 40
0.0
 40
1.0
 40
1.0
 40
1.0
 40
1.0
 10
119.3760124869294
 20
30.66418086203261
 30
0.0
 10
119.3768107901842
 20
30.57270436964484
 30
0.0
 10
119.4511928317744
 20
30.49896861794949
 30
0.0
 10
119.54267280744
 20
30.49896861794949
 30
0.0
  0
LINE
  5
132
330
70
100
AcDbEntity
  8
0
 62
    18
420
        0
370
    18
100
AcDbLine
 10
121.17974185404
 20
25.16563528461596
 30
0.0
 11
121.4559337010397
 21
-3.005933107284122
 31
0.0
  0
LINE
  5
133
330
70
100
AcDbEntity
  8
0
 62
    18
420
        0
370
    18
100
AcDbLine
 10
142.1323081769401
 20
-3.005933107284122
 30
0.0
 11
142.4085000239398
 21
25.16563528461596
 31
0.0
  0
SPLINE
  5
134
330
70
100
AcDbEntity
  8
0
 62
    18
420
        0
370
    18
100
AcDbSpline
210
0.0
220
0.0
230
1.0
 70
     8
 71
     3
 72
     8
 73
     4
 74
     0
 42
0.0000000001
 43
0.0000000001
 40
0.0
 40
0.0
 40
0.0
 40
0.0
 40
1.0
 40
1.0
 40
1.0
 40
1.0
 10
141.6323322044401
 20
-3.501031382083803
 30
0.0
 10
141.9065622434895
 20
-3.501031382083803
 30
0.0
 10
142.1296197763548
 20
-3.280149968237162
 30
0.0
 10
142.1323081769523
 20
-3.005933107304657
 30
0.0
  0
SPLINE
  5
135
330
70
100
AcDbEntity
  8
0
 62
    18
420
        0
370
    18
100
AcDbSpline
210
0.0
220
0.0
230
1.0
 70
     8
 71
     3
 72
     8
 73
     4
 74
     0
 42
0.0000000001
 43
0.0000000001
 40
0.0
 40
0.0
 40
0.0
 40
0.0
 40
1.0
 40
1.0
 40
1.0
 40
1.0
 10
121.4559337010275
 20
-3.005933107304657
 30
0.0
 10
121.458622101625
 20
-3.280149968237162
 30
0.0
 10
121.6816796344903
 20
-3.501031382083803
 30
0.0
 10
121.9559096735397
 20
-3.501031382083803
 30
0.0
  0
LINE
  5
136
330
70
100
AcDbEntity
  8
0
 62
    18
420
        0
370
    18
100
AcDbLine
 10
130.23412093904
 20
123.1656352845491
 30
0.0
 11
133.5674542723401
 21
123.1656352845491
 31
0.0
  0
LINE
  5
137
330
70
100
AcDbEntity
  8
0
 62
    18
420
        0
370
    18
100
AcDbLine
 10
108.1274542723398
 20
37.00730195131634
 30
0.0
 11
108.1274542723398
 21
18.67396861791626
 31
0.0
  0
LINE
  5
138
330
70
100
AcDbEntity
  8
0
 62
    18
420
        0
370
    18
100
AcDbLine
 10
110.1274542723398
 20
30.50730195131578
 30
0.0
 11
110.1274542723398
 21
27.83646861791614
 31
0.0
  0
LINE
  5
139
330
70
100
AcDbEntity
  8
0
 62
    18
420
        0
370
    18
100
AcDbLine
 10
144.3148408847396
 20
25.16563528461596
 30
0.0
 11
119.2734009743396
 21
25.16563528461596
 31
0.0
  0
LWPOLYLINE
  5
13A
330
70
100
AcDbEntity
  8
0
 62
    18
420
        0
370
    18
100
AcDbPolyline
 90
        6
 70
     0
 43
0.0
 10
119.1757422598399
 20
25.33375637391623
 10
119.1680542862398
 20
25.23412024741635
 10
119.2016271682396
 20
25.1866671025157
 10
119.2563080987399
 20
25.16655746451611
 10
119.2723609703398
 20
25.16563853871607
 10
119.2734009743396
 20
25.16563528461596
  0
SPLINE
  5
13B
330
70
100
AcDbEntity
  8
0
 62
    18
420
        0
370
    18
100
AcDbSpline
210
0.0
220
0.0
230
1.0
 70
     8
 71
     3
 72
     8
 73
     4
 74
     0
 42
0.0000000001
 43
0.0000000001
 40
0.0
 40
0.0
 40
0.0
 40
0.0
 40
1.0
 40
1.0
 40
1.0
 40
1.0
 10
119.1757422598989
 20
25.33375637391173
 30
0.0
 10
119.3352545635665
 20
26.11533283074922
 30
0.0
 10
119.4235083646745
 20
26.90977275373055
 30
0.0
 10
119.4394178548068
 20
27.70730195133237
 30
0.0
  0
LINE
  5
13C
330
70
100
AcDbEntity
  8
0
 62
    18
420
        0
370
    18
100
AcDbLine
 10
119.4394032902401
 20
27.70730195131569
 30
0.0
 11
119.4394178547401
 21
27.70730195131569
 31
0.0
  0
SPLINE
  5
13D
330
70
100
AcDbEntity
  8
0
 62
    18
420
        0
370
    18
100
AcDbSpline
210
0.0
220
0.0
230
1.0
 70
     8
 71
     3
 72
     8
 73
     4
 74
     0
 42
0.0000000001
 43
0.0000000001
 40
0.0
 40
0.0
 40
0.0
 40
0.0
 40
1.0
 40
1.0
 40
1.0
 40
1.0
 10
119.4394032901547
 20
27.7073019512836
 30
0.0
 10
119.4475422879309
 20
28.5884554956065
 30
0.0
 10
119.3883584602366
 20
29.46894343861592
 30
0.0
 10
119.262368341074
 20
30.34108121547936
 30
0.0
  0
LWPOLYLINE
  5
13E
330
70
100
AcDbEntity
  8
0
 62
    18
420
        0
370
    18
100
AcDbPolyline
 90
        5
 70
     0
 43
0.0
 10
119.3633056700398
 20
30.49896861791611
 10
119.3622656760396
 20
30.49896536391611
 10
119.33075552104
 20
30.49543311651603
 10
119.2618153739395
 20
30.44033719581637
 10
119.2623683411401
 20
30.34108121551658
  0
LINE
  5
13F
330
70
100
AcDbEntity
  8
0
 62
    18
420
        0
370
    18
100
AcDbLine
 10
119.3633056700398
 20
30.49896861791611
 30
0.0
 11
144.2249361867396
 21
30.49896861791611
 31
0.0
  0
SPLINE
  5
140
330
70
100
AcDbEntity
  8
0
 62
    18
420
        0
370
    18
100
AcDbSpline
210
0.0
220
0.0
230
1.0
 70
     8
 71
     3
 72
     8
 73
     4
 74
     0
 42
0.0000000001
 43
0.0000000001
 40
0.0
 40
0.0
 40
0.0
 40
0.0
 40
1.0
 40
1.0
 40
1.0
 40
1.0
 10
119.1757422598578
 20
25.3337563739143
 30
0.0
 10
119.1662199346883
 20
25.4181427772831
 30
0.0
 10
119.0949101909577
 20
25.48196171877901
 30
0.0
 10
119.0099883384236
 20
25.48209851148749
 30
0.0
  0
SPLINE
  5
141
330
70
100
AcDbEntity
  8
0
 62
    18
420
        0
370
    18
100
AcDbSpline
210
0.0
220
0.0
230
1.0
 70
     8
 71
     3
 72
     8
 73
     4
 74
     0
 42
0.0000000001
 43
0.0000000001
 40
0.0
 40
0.0
 40
0.0
 40
0.0
 40
1.0
 40
1.0
 40
1.0
 40
1.0
 10
119.0099883383768
 20
25.48209851144386
 30
0.0
 10
119.1707938739691
 20
26.21615757334266
 30
0.0
 10
119.2601640227797
 20
26.96405916533016
 30
0.0
 10
119.2768484683374
 20
27.71533990906636
 30
0.0
  0
SPLINE
  5
142
330
70
100
AcDbEntity
  8
0
 62
    18
420
        0
370
    18
100
AcDbSpline
210
0.0
220
0.0
230
1.0
 70
     8
 71
     3
 72
     8
 73
     4
 74
     0
 42
0.0000000001
 43
0.0000000001
 40
0.0
 40
0.0
 40
0.0
 40
0.0
 40
1.0
 40
1.0
 40
1.0
 40
1.0
 10
119.4394033052218
 20
27.70730346682015
 30
0.0
 10
119.3853929969507
 20
27.7127809908328
 30
0.0
 10
119.3311356807498
 20
27.71546338280048
 30
0.0
 10
119.2768484684157
 20
27.71533990907599
 30
0.0
  0
SPLINE
  5
143
330
70
100
AcDbEntity
  8
0
 62
    18
420
        0
370
    18
100
AcDbSpline
210
0.0
220
0.0
230
1.0
 70
     8
 71
     3
 72
     8
 73
     4
 74
     0
 42
0.0000000001
 43
0.0000000001
 40
0.0
 40
0.0
 40
0.0
 40
0.0
 40
1.0
 40
1.0
 40
1.0
 40
1.0
 10
119.2768484684291
 20
27.71533990907727
 30
0.0
 10
119.2847666909387
 20
28.54767365322693
 30
0.0
 10
119.224548992203
 20
29.37925925644805
 30
0.0
 10
119.0967984225906
 20
30.20176880159719
 30
0.0
  0
SPLINE
  5
144
330
70
100
AcDbEntity
  8
0
 62
    18
420
        0
370
    18
100
AcDbSpline
210
0.0
220
0.0
230
1.0
 70
     8
 71
     3
 72
     8
 73
     4
 74
     0
 42
0.0000000001
 43
0.0000000001
 40
0.0
 40
0.0
 40
0.0
 40
0.0
 40
1.0
 40
1.0
 40
1.0
 40
1.0
 10
119.0967984225393
 20
30.20176880157344
 30
0.0
 10
119.1788148967604
 20
30.20095752942261
 30
0.0
 10
119.2491446034353
 20
30.26013374507887
 30
0.0
 10
119.2623683411138
 20
30.34108121550246
 30
0.0
  0
LWPOLYLINE
  5
145
330
70
100
AcDbEntity
  8
0
 62
    18
420
        0
370
    18
100
AcDbPolyline
 90
        5
 70
     0
 43
0.0
 10
119.0967984225399
 20
30.2017688016158
 10
119.1351622080397
 20
30.38860358801589
 10
119.3243624617398
 20
30.49676082201604
 10
119.3612651346397
 20
30.49896273141639
 10
119.3633056700398
 20
30.49896861791611
  0
LWPOLYLINE
  5
146
330
70
100
AcDbEntity
  8
0
 62
    18
420
        0
370
    18
100
AcDbPolyline
 90
        5
 70
     0
 43
0.0
 10
119.2734009743396
 20
25.16563528461596
 10
119.2713604299397
 20
25.16564117121579
 10
119.2388003130398
 20
25.1673711526157
 10
119.0336885487397
 20
25.2945481558158
 10
119.0099883384396
 20
25.48209851141626
  0
LINE
  5
147
330
70
100
AcDbEntity
  8
0
 62
    18
420
        0
370
    18
100
AcDbLine
 10
110.1274542723398
 20
27.83646861791614
 30
0.0
 11
110.1274542723398
 21
25.16563528461596
 31
0.0
  0
LINE
  5
148
330
70
100
AcDbEntity
  8
0
 62
    18
420
        0
370
    18
100
AcDbLine
 10
119.5164922040401
 20
33.83230195131566
 30
0.0
 11
144.0717496739397
 21
33.83230195131566
 31
0.0
  0
LINE
  5
149
330
70
100
AcDbEntity
  8
0
 62
    18
420
        0
370
    18
100
AcDbLine
 10
141.6323321985397
 20
-3.501031382083803
 30
0.0
 11
121.9559096735397
 21
-3.501031382083803
 31
0.0
  0
LINE
  5
14A
330
70
100
AcDbEntity
  8
0
 62
     8
420
  8421504
370
    18
100
AcDbLine
 10
130.3407876056401
 20
123.541761931649
 30
0.0
 11
133.4607876056399
 21
123.541761931649
 31
0.0
  0
LINE
  5
14B
330
70
100
AcDbEntity
  8
0
 62
     8
420
  8421504
370
    18
100
AcDbLine
 10
130.2371407835397
 20
123.3862698811491
 30
0.0
 11
130.23412093904
 21
123.3862698811491
 31
0.0
  0
LINE
  5
14C
330
70
100
AcDbEntity
  8
0
 62
     8
420
  8421504
370
    18
100
AcDbLine
 10
133.5674542723401
 20
123.3862698811491
 30
0.0
 11
130.2371407835397
 21
123.3862698811491
 31
0.0
  0
LINE
  5
14D
330
70
100
AcDbEntity
  8
0
 62
     8
420
  8421504
370
    18
100
AcDbLine
 10
109.5807375907398
 20
27.84063528461566
 30
0.0
 11
109.5807375907398
 21
37.00730195131634
 31
0.0
  0
LINE
  5
14E
330
70
100
AcDbEntity
  8
0
 62
     8
420
  8421504
370
    18
100
AcDbLine
 10
109.5807375907398
 20
18.67396861791626
 30
0.0
 11
109.5807375907398
 21
27.84063528461566
 31
0.0
  0
LINE
  5
14F
330
70
100
AcDbEntity
  8
0
 62
     8
420
  8421504
370
    18
100
AcDbLine
 10
109.9136005472399
 20
27.84063528461566
 30
0.0
 11
109.9136005472399
 21
18.98959988051625
 31
0.0
  0
LINE
  5
150
330
70
100
AcDbEntity
  8
0
 62
     8
420
  8421504
370
    18
100
AcDbLine
 10
109.9136005472399
 20
36.6916706887157
 30
0.0
 11
109.9136005472399
 21
27.84063528461566
 31
0.0
  0
LINE
  5
151
330
70
100
AcDbEntity
  8
0
 62
     8
420
  8421504
370
    18
100
AcDbLine
 10
119.1757422598399
 20
25.33375637391623
 30
0.0
 11
144.4815012241399
 21
25.33375637391623
 31
0.0
  0
LINE
  5
152
330
70
100
AcDbEntity
  8
0
 62
     8
420
  8421504
370
    18
100
AcDbLine
 10
119.4394178547401
 20
27.70730195131569
 30
0.0
 11
144.4607876056397
 21
27.70730195131569
 31
0.0
  0
LINE
  5
153
330
70
100
AcDbEntity
  8
0
 62
     8
420
  8421504
370
    18
100
AcDbLine
 10
144.3913714875396
 20
30.34108121551658
 30
0.0
 11
119.2623683411401
 21
30.34108121551658
 31
0.0
  0
LINE
  5
154
330
70
100
AcDbEntity
  8
0
 62
     8
420
  8421504
370
    18
100
AcDbLine
 10
144.23840999444
 20
33.66418086201603
 30
0.0
 11
119.3498318835398
 21
33.66418086201603
 31
0.0
  0
LINE
  5
155
330
70
100
AcDbEntity
  8
0
 62
     8
420
  8421504
370
    18
100
AcDbLine
 10
144.2122293910395
 20
30.66418086201593
 30
0.0
 11
119.3760124869397
 21
30.66418086201593
 31
0.0
  0
LINE
  5
156
330
70
100
AcDbEntity
  8
0
 62
     8
420
  8421504
370
    18
100
AcDbLine
 10
142.1323081769401
 20
-3.005933107284122
 30
0.0
 11
121.4559337010397
 21
-3.005933107284122
 31
0.0
  0
INSERT
  5
159
330
70
100
AcDbEntity
  8
CAPA_BASE
100
AcDbBlockReference
  2
Block_0
 10
0.0
 20
0.0
 30
0.0
  0
INSERT
  5
166
330
70
100
AcDbEntity
  8
CAPA_BASE
100
AcDbBlockReference
  2
Block_1
 10
0.0
 20
0.0
 30
0.0
  0
INSERT
  5
172
330
70
100
AcDbEntity
  8
CAPA_BASE
100
AcDbBlockReference
  2
Block_2
 10
0.0
 20
0.0
 30
0.0
  0
ENDSEC
  0
SECTION
  2
OBJECTS
  0
DICTIONARY
  5
C
330
0
100
AcDbDictionary
281
     1
  3
ACAD_COLOR
350
63
  3
ACAD_DETAILVIEWSTYLE
350
6A
  3
ACAD_GROUP
350
D
  3
ACAD_LAYOUT
350
62
  3
ACAD_MATERIAL
350
10
  3
ACAD_MLEADERSTYLE
350
66
  3
ACAD_MLINESTYLE
350
5F
  3
ACAD_PLOTSETTINGS
350
61
  3
ACAD_PLOTSTYLENAME
350
E
  3
ACAD_SCALELIST
350
42
  3
ACAD_SECTIONVIEWSTYLE
350
68
  3
ACAD_TABLESTYLE
350
64
  3
ACAD_VISUALSTYLE
350
29
  3
ACDB_RECOMPOSE_DATA
350
185
  3
AcDbVariableDictionary
350
17D
  0
DICTIONARY
  5
63
102
{ACAD_REACTORS
330
C
102
}
330
C
100
AcDbDictionary
281
     1
  0
DICTIONARY
  5
6A
102
{ACAD_REACTORS
330
C
102
}
330
C
100
AcDbDictionary
281
     1
  3
Imperial24
350
6B
  0
DICTIONARY
  5
D
102
{ACAD_REACTORS
330
C
102
}
330
C
100
AcDbDictionary
281
     1
  0
DICTIONARY
  5
62
102
{ACAD_REACTORS
330
C
102
}
330
C
100
AcDbDictionary
281
     1
  3
Layout1
350
6F
  3
Layout2
350
77
  3
Model
350
73
  0
DICTIONARY
  5
10
102
{ACAD_REACTORS
330
C
102
}
330
C
100
AcDbDictionary
281
     1
  3
ByBlock
350
19
  3
ByLayer
350
11
  3
Global
350
21
  0
DICTIONARY
  5
66
102
{ACAD_REACTORS
330
C
102
}
330
C
100
AcDbDictionary
281
     1
  3
Standard
350
67
  0
DICTIONARY
  5
5F
102
{ACAD_REACTORS
330
C
102
}
330
C
100
AcDbDictionary
281
     1
  3
Standard
350
60
  0
DICTIONARY
  5
61
102
{ACAD_REACTORS
330
C
102
}
330
C
100
AcDbDictionary
281
     1
  0
ACDBDICTIONARYWDFLT
  5
E
102
{ACAD_REACTORS
330
C
102
}
330
C
100
AcDbDictionary
281
     1
  3
Normal
350
F
100
AcDbDictionaryWithDefault
340
F
  0
DICTIONARY
  5
42
102
{ACAD_REACTORS
330
C
102
}
330
C
100
AcDbDictionary
281
     1
  3
A0
350
43
  3
A1
350
44
  3
A2
350
45
  3
A3
350
46
  3
A4
350
47
  3
A5
350
48
  3
A6
350
49
  3
A7
350
4A
  3
A8
350
4B
  3
A9
350
4C
  3
B0
350
4D
  3
B1
350
4E
  3
B2
350
4F
  3
B3
350
50
  3
B4
350
51
  3
B5
350
52
  3
B6
350
53
  0
DICTIONARY
  5
68
102
{ACAD_REACTORS
330
C
102
}
330
C
100
AcDbDictionary
281
     1
  3
Imperial24
350
69
  0
DICTIONARY
  5
64
102
{ACAD_REACTORS
330
C
102
}
330
C
100
AcDbDictionary
281
     1
  3
Standard
350
65
  0
DICTIONARY
  5
29
102
{ACAD_REACTORS
330
C
102
}
330
C
100
AcDbDictionary
281
     1
  3
2dWireframe
350
2F
  3
Basic
350
2E
  3
Brighten
350
35
  3
ColorChange
350
39
  3
Conceptual
350
32
  3
Dim
350
34
  3
EdgeColorOff
350
41
  3
Facepattern
350
38
  3
Flat
350
2A
  3
FlatWithEdges
350
2B
  3
Gouraud
350
2C
  3
GouraudWithEdges
350
2D
  3
Hidden
350
31
  3
JitterOff
350
3F
  3
Linepattern
350
37
  3
OverhangOff
350
40
  3
Realistic
350
33
  3
Shaded
350
3E
  3
Shaded with edges
350
3D
  3
Shades of Gray
350
3A
  3
Sketchy
350
3B
  3
Thicken
350
36
  3
Wireframe
350
30
  3
X-Ray
350
3C
  0
XRECORD
  5
185
102
{ACAD_REACTORS
330
C
102
}
330
C
100
AcDbXrecord
280
     1
 90
        1
330
65
  0
DICTIONARY
  5
17D
102
{ACAD_REACTORS
330
C
102
}
330
C
100
AcDbDictionary
281
     1
  3
CANNOSCALE
350
182
  3
CMLEADERSTYLE
350
17F
  3
CTABLESTYLE
350
17E
  3
CVIEWDETAILSTYLE
350
180
  3
CVIEWSECTIONSTYLE
350
181
  0
ACDBDETAILVIEWSTYLE
  5
6B
102
{ACAD_REACTORS
330
6A
102
}
330
6A
100
AcDbModelDocViewStyle
 70
     0
  3
Imperial24
290
     1
300
Imperial24
 90
        0
100
AcDbDetailViewStyle
 70
     0
 71
     0
 90
        3
 71
     1
340
55
 62
   256
 40
0.24
340
0
 62
   256
 40
0.24
300

 40
0.36
280
     3
 71
     2
340
5D
 90
       25
 62
   256
 71
     3
340
55
 62
   256
 40
0.24
 90
        1
 40
0.75
 90
        1
300
%<\AcVar ViewType \f "%tc1">% %<\AcVar ViewDetailId>%\PSCALE %<\AcVar ViewScale \f "%sn">%
 71
     4
340
5D
 90
       25
 62
   256
340
5D
 90
       25
 62
   256
280
     0
  0
LAYOUT
  5
6F
102
{ACAD_REACTORS
330
62
102
}
330
62
100
AcDbPlotSettings
  1

  2

  4

  6

 40
0.0
 41
0.0
 42
0.0
 43
0.0
 44
0.0
 45
0.0
 46
0.0
 47
0.0
 48
0.0
 49
0.0
140
0.0
141
0.0
142
1.0
143
1.0
 70
   688
 72
     0
 73
     0
 74
     5
  7

 75
    16
147
1.0
 76
     0
 77
     2
 78
   300
148
0.0
149
0.0
100
AcDbLayout
  1
Layout1
 70
     1
 71
     1
 10
0.0
 20
0.0
 11
12.0
 21
9.0
 12
0.0
 22
0.0
 32
0.0
 14
0.0
 24
0.0
 34
0.0
 15
0.0
 25
0.0
 35
0.0
146
0.0
 13
0.0
 23
0.0
 33
0.0
 16
1.0
 26
0.0
 36
0.0
 17
0.0
 27
1.0
 37
0.0
 76
     0
330
6C
  0
LAYOUT
  5
77
102
{ACAD_REACTORS
330
62
102
}
330
62
100
AcDbPlotSettings
  1

  2

  4

  6

 40
0.0
 41
0.0
 42
0.0
 43
0.0
 44
0.0
 45
0.0
 46
0.0
 47
0.0
 48
0.0
 49
0.0
140
0.0
141
0.0
142
1.0
143
1.0
 70
   688
 72
     0
 73
     0
 74
     5
  7

 75
    16
147
1.0
 76
     0
 77
     2
 78
   300
148
0.0
149
0.0
100
AcDbLayout
  1
Layout2
 70
     1
 71
     2
 10
0.0
 20
0.0
 11
12.0
 21
9.0
 12
0.0
 22
0.0
 32
0.0
 14
0.0
 24
0.0
 34
0.0
 15
0.0
 25
0.0
 35
0.0
146
0.0
 13
0.0
 23
0.0
 33
0.0
 16
1.0
 26
0.0
 36
0.0
 17
0.0
 27
1.0
 37
0.0
 76
     0
330
74
  0
LAYOUT
  5
73
102
{ACAD_REACTORS
330
62
102
}
330
62
100
AcDbPlotSettings
  1

  2

  4

  6

 40
0.0
 41
0.0
 42
0.0
 43
0.0
 44
0.0
 45
0.0
 46
0.0
 47
0.0
 48
0.0
 49
0.0
140
0.0
141
0.0
142
1.0
143
1.0
 70
  1712
 72
     0
 73
     0
 74
     0
  7

 75
     0
147
1.0
 76
     0
 77
     2
 78
   300
148
0.0
149
0.0
100
AcDbLayout
  1
Model
 70
     1
 71
     0
 10
0.0
 20
0.0
 11
12.0
 21
9.0
 12
0.0
 22
0.0
 32
0.0
 14
0.0
 24
0.0
 34
0.0
 15
0.0
 25
0.0
 35
0.0
146
0.0
 13
0.0
 23
0.0
 33
0.0
 16
1.0
 26
0.0
 36
0.0
 17
0.0
 27
1.0
 37
0.0
 76
     0
330
70
  0
MATERIAL
  5
19
102
{ACAD_XDICTIONARY
360
1A
102
}
102
{ACAD_REACTORS
330
10
102
}
330
10
100
AcDbMaterial
  1
ByBlock
 72
     0
 43
0.0208333333333333
 43
0.0
 43
0.0
 43
0.0
 43
0.0
 43
0.0208333333333333
 43
0.0
 43
0.0
 43
0.0
 43
0.0
 43
1.0
 43
0.0
 43
0.0
 43
0.0
 43
0.0
 43
1.0
 77
     0
 47
0.0208333333333333
 47
0.0
 47
0.0
 47
0.0
 47
0.0
 47
0.0208333333333333
 47
0.0
 47
0.0
 47
0.0
 47
0.0
 47
1.0
 47
0.0
 47
0.0
 47
0.0
 47
0.0
 47
1.0
171
     0
 49
0.0208333333333333
 49
0.0
 49
0.0
 49
0.0
 49
0.0
 49
0.0208333333333333
 49
0.0
 49
0.0
 49
0.0
 49
0.0
 49
1.0
 49
0.0
 49
0.0
 49
0.0
 49
0.0
 49
1.0
175
     0
142
0.0208333333333333
142
0.0
142
0.0
142
0.0
142
0.0
142
0.0208333333333333
142
0.0
142
0.0
142
0.0
142
0.0
142
1.0
142
0.0
142
0.0
142
0.0
142
0.0
142
1.0
179
     0
144
0.0208333333333333
144
0.0
144
0.0
144
0.0
144
0.0
144
0.0208333333333333
144
0.0
144
0.0
144
0.0
144
0.0
144
1.0
144
0.0
144
0.0
144
0.0
144
0.0
144
1.0
147
0.0208333333333333
147
0.0
147
0.0
147
0.0
147
0.0
147
0.0208333333333333
147
0.0
147
0.0
147
0.0
147
0.0
147
1.0
147
0.0
147
0.0
147
0.0
147
0.0
147
1.0
  0
MATERIAL
  5
11
102
{ACAD_XDICTIONARY
360
12
102
}
102
{ACAD_REACTORS
330
10
102
}
330
10
100
AcDbMaterial
  1
ByLayer
 72
     0
 43
0.0208333333333333
 43
0.0
 43
0.0
 43
0.0
 43
0.0
 43
0.0208333333333333
 43
0.0
 43
0.0
 43
0.0
 43
0.0
 43
1.0
 43
0.0
 43
0.0
 43
0.0
 43
0.0
 43
1.0
 77
     0
 47
0.0208333333333333
 47
0.0
 47
0.0
 47
0.0
 47
0.0
 47
0.0208333333333333
 47
0.0
 47
0.0
 47
0.0
 47
0.0
 47
1.0
 47
0.0
 47
0.0
 47
0.0
 47
0.0
 47
1.0
171
     0
 49
0.0208333333333333
 49
0.0
 49
0.0
 49
0.0
 49
0.0
 49
0.0208333333333333
 49
0.0
 49
0.0
 49
0.0
 49
0.0
 49
1.0
 49
0.0
 49
0.0
 49
0.0
 49
0.0
 49
1.0
175
     0
142
0.0208333333333333
142
0.0
142
0.0
142
0.0
142
0.0
142
0.0208333333333333
142
0.0
142
0.0
142
0.0
142
0.0
142
1.0
142
0.0
142
0.0
142
0.0
142
0.0
142
1.0
179
     0
144
0.0208333333333333
144
0.0
144
0.0
144
0.0
144
0.0
144
0.0208333333333333
144
0.0
144
0.0
144
0.0
144
0.0
144
1.0
144
0.0
144
0.0
144
0.0
144
0.0
144
1.0
147
0.0208333333333333
147
0.0
147
0.0
147
0.0
147
0.0
147
0.0208333333333333
147
0.0
147
0.0
147
0.0
147
0.0
147
1.0
147
0.0
147
0.0
147
0.0
147
0.0
147
1.0
  0
MATERIAL
  5
21
102
{ACAD_XDICTIONARY
360
22
102
}
102
{ACAD_REACTORS
330
10
102
}
330
10
100
AcDbMaterial
  1
Global
 72
     0
 43
0.0208333333333333
 43
0.0
 43
0.0
 43
0.0
 43
0.0
 43
0.0208333333333333
 43
0.0
 43
0.0
 43
0.0
 43
0.0
 43
1.0
 43
0.0
 43
0.0
 43
0.0
 43
0.0
 43
1.0
 77
     0
 47
0.0208333333333333
 47
0.0
 47
0.0
 47
0.0
 47
0.0
 47
0.0208333333333333
 47
0.0
 47
0.0
 47
0.0
 47
0.0
 47
1.0
 47
0.0
 47
0.0
 47
0.0
 47
0.0
 47
1.0
171
     0
 49
0.0208333333333333
 49
0.0
 49
0.0
 49
0.0
 49
0.0
 49
0.0208333333333333
 49
0.0
 49
0.0
 49
0.0
 49
0.0
 49
1.0
 49
0.0
 49
0.0
 49
0.0
 49
0.0
 49
1.0
175
     0
142
0.0208333333333333
142
0.0
142
0.0
142
0.0
142
0.0
142
0.0208333333333333
142
0.0
142
0.0
142
0.0
142
0.0
142
1.0
142
0.0
142
0.0
142
0.0
142
0.0
142
1.0
179
     0
144
0.0208333333333333
144
0.0
144
0.0
144
0.0
144
0.0
144
0.0208333333333333
144
0.0
144
0.0
144
0.0
144
0.0
144
1.0
144
0.0
144
0.0
144
0.0
144
0.0
144
1.0
147
0.0208333333333333
147
0.0
147
0.0
147
0.0
147
0.0
147
0.0208333333333333
147
0.0
147
0.0
147
0.0
147
0.0
147
1.0
147
0.0
147
0.0
147
0.0
147
0.0
147
1.0
  0
MLEADERSTYLE
  5
67
102
{ACAD_REACTORS
330
66
102
}
330
66
100
AcDbMLeaderStyle
179
     2
170
     2
171
     1
172
     0
 90
        2
 40
0.0
 41
0.0
173
     1
 91
-1056964608
340
5B
 92
       -2
290
     1
 42
0.09
291
     1
 43
0.36
  3
Standard
 44
0.18
300

342
55
174
     1
178
     6
175
     1
176
     0
 93
-1056964608
 45
0.18
292
     0
297
     0
 46
0.18
 94
-1056964608
 47
1.0
 49
1.0
140
1.0
293
     1
141
0.0
294
     1
177
     0
142
1.0
295
     1
296
     0
143
0.125
271
     0
272
     9
273
     9
298
     1
  0
MLINESTYLE
  5
60
102
{ACAD_REACTORS
330
5F
102
}
330
5F
100
AcDbMlineStyle
  2
STANDARD
 70
     0
  3

 62
   256
 51
90.0
 52
90.0
 71
     2
 49
0.5
 62
   256
  6
BYLAYER
 49
-0.5
 62
   256
  6
BYLAYER
  0
ACDBPLACEHOLDER
  5
F
102
{ACAD_REACTORS
330
E
102
}
330
E
  0
SCALE
  5
43
102
{ACAD_REACTORS
330
42
102
}
330
42
100
AcDbScale
 70
     0
300
1:1
140
1.0
141
1.0
290
     1
  0
SCALE
  5
44
102
{ACAD_REACTORS
330
42
102
}
330
42
100
AcDbScale
 70
     0
300
1/128" = 1'-0"
140
0.0078125
141
12.0
290
     0
  0
SCALE
  5
45
102
{ACAD_REACTORS
330
42
102
}
330
42
100
AcDbScale
 70
     0
300
1/64" = 1'-0"
140
0.015625
141
12.0
290
     0
  0
SCALE
  5
46
102
{ACAD_REACTORS
330
42
102
}
330
42
100
AcDbScale
 70
     0
300
1/32" = 1'-0"
140
0.03125
141
12.0
290
     0
  0
SCALE
  5
47
102
{ACAD_REACTORS
330
42
102
}
330
42
100
AcDbScale
 70
     0
300
1/16" = 1'-0"
140
0.0625
141
12.0
290
     0
  0
SCALE
  5
48
102
{ACAD_REACTORS
330
42
102
}
330
42
100
AcDbScale
 70
     0
300
3/32" = 1'-0"
140
0.09375
141
12.0
290
     0
  0
SCALE
  5
49
102
{ACAD_REACTORS
330
42
102
}
330
42
100
AcDbScale
 70
     0
300
1/8" = 1'-0"
140
0.125
141
12.0
290
     0
  0
SCALE
  5
4A
102
{ACAD_REACTORS
330
42
102
}
330
42
100
AcDbScale
 70
     0
300
3/16" = 1'-0"
140
0.1875
141
12.0
290
     0
  0
SCALE
  5
4B
102
{ACAD_REACTORS
330
42
102
}
330
42
100
AcDbScale
 70
     0
300
1/4" = 1'-0"
140
0.25
141
12.0
290
     0
  0
SCALE
  5
4C
102
{ACAD_REACTORS
330
42
102
}
330
42
100
AcDbScale
 70
     0
300
3/8" = 1'-0"
140
0.375
141
12.0
290
     0
  0
SCALE
  5
4D
102
{ACAD_REACTORS
330
42
102
}
330
42
100
AcDbScale
 70
     0
300
1/2" = 1'-0"
140
0.5
141
12.0
290
     0
  0
SCALE
  5
4E
102
{ACAD_REACTORS
330
42
102
}
330
42
100
AcDbScale
 70
     0
300
3/4" = 1'-0"
140
0.75
141
12.0
290
     0
  0
SCALE
  5
4F
102
{ACAD_REACTORS
330
42
102
}
330
42
100
AcDbScale
 70
     0
300
1" = 1'-0"
140
1.0
141
12.0
290
     0
  0
SCALE
  5
50
102
{ACAD_REACTORS
330
42
102
}
330
42
100
AcDbScale
 70
     0
300
1-1/2" = 1'-0"
140
1.5
141
12.0
290
     0
  0
SCALE
  5
51
102
{ACAD_REACTORS
330
42
102
}
330
42
100
AcDbScale
 70
     0
300
3" = 1'-0"
140
3.0
141
12.0
290
     0
  0
SCALE
  5
52
102
{ACAD_REACTORS
330
42
102
}
330
42
100
AcDbScale
 70
     0
300
6" = 1'-0"
140
6.0
141
12.0
290
     0
  0
SCALE
  5
53
102
{ACAD_REACTORS
330
42
102
}
330
42
100
AcDbScale
 70
     0
300
1'-0" = 1'-0"
140
12.0
141
12.0
290
     0
  0
ACDBSECTIONVIEWSTYLE
  5
69
102
{ACAD_REACTORS
330
68
102
}
330
68
100
AcDbModelDocViewStyle
 70
     0
  3
Imperial24
290
     1
300
Imperial24
 90
        0
100
AcDbSectionViewStyle
 70
     0
 71
     0
 90
       78
 71
     1
340
55
 62
   256
 40
0.24
340
0
340
0
 62
   256
 40
0.24
300
I, O, Q, S, X, Z
 40
0.48
 90
        3
 40
0.18
 90
        1
 71
     2
340
5D
 90
       25
 62
   256
340
5D
 90
       50
 62
   256
 40
0.24
 40
0.0
 40
0.24
 71
     3
340
55
 62
   256
 40
0.24
 90
        1
 40
0.75
 90
        1
300
%<\AcVar ViewType \f "%tc1">% %<\AcVar ViewSectionStartId>%-%<\AcVar ViewSectionEndId>%\PSCALE %<\AcVar ViewScale \f "%sn">%
 71
     4
 62
   256
 62
   257
300
ANSI31
 40
1.0
 90
        0
290
     0
290
     0
 90
        6
 40
0.0
 40
1.570796326794896
 40
0.2617993877991494
 40
1.308996938995747
 40
-0.2617993877991494
 40
1.832595714594046
  0
TABLESTYLE
  5
65
102
{ACAD_XDICTIONARY
360
183
102
}
102
{ACAD_REACTORS
330
64
102
}
330
64
100
AcDbTableStyle
280
     0
  3
Standard
 70
     0
 71
     0
 40
0.06
 41
0.06
280
     0
281
     0
  7
Standard
140
0.18
170
     2
 62
     0
 63
     7
283
     0
 90
      512
 91
        0
  1

274
    -2
284
     1
 64
     0
275
    -2
285
     1
 65
     0
276
    -2
286
     1
 66
     0
277
    -2
287
     1
 67
     0
278
    -2
288
     1
 68
     0
279
    -2
289
     1
 69
     0
  7
Standard
140
0.25
170
     5
 62
     0
 63
     7
283
     0
 90
      512
 91
        0
  1

274
    -2
284
     1
 64
     0
275
    -2
285
     1
 65
     0
276
    -2
286
     1
 66
     0
277
    -2
287
     1
 67
     0
278
    -2
288
     1
 68
     0
279
    -2
289
     1
 69
     0
  7
Standard
140
0.18
170
     5
 62
     0
 63
     7
283
     0
 90
      512
 91
        0
  1

274
    -2
284
     1
 64
     0
275
    -2
285
     1
 65
     0
276
    -2
286
     1
 66
     0
277
    -2
287
     1
 67
     0
278
    -2
288
     1
 68
     0
279
    -2
289
     1
 69
     0
  0
VISUALSTYLE
  5
2F
102
{ACAD_REACTORS
330
29
102
}
330
29
100
AcDbVisualStyle
  2
2dWireframe
 70
     4
177
     3
291
     0
 70
    58
 90
        0
176
     1
 90
        2
176
     1
 90
        0
176
     1
 90
        0
176
     1
 40
0.6
176
     1
 40
30.0
176
     1
 62
     7
420
 16777215
176
     1
 90
        1
176
     1
 90
        4
176
     1
 62
     7
176
     1
 62
   257
176
     1
 90
        1
176
     1
 90
        1
176
     1
 40
1.0
176
     1
 90
        0
176
     1
 62
   257
176
     1
 40
1.0
176
     1
 90
        1
176
     1
 90
        6
176
     1
 90
        2
176
     1
 62
     7
176
     1
 90
        5
176
     1
 90
        0
176
     1
 90
        0
176
     1
290
     0
176
     1
 90
        1
176
     1
 40
0.0
176
     1
 90
        0
176
     1
290
     1
176
     1
290
     1
176
     1
290
     0
176
     1
290
     0
176
     1
290
     0
176
     1
290
     0
176
     1
290
     0
176
     1
290
     0
176
     1
290
     0
176
     1
 90
       50
176
     1
 40
0.0
176
     1
 40
1.0
176
     1
 90
        0
176
     1
 62
    18
420
        0
176
     1
 90
       50
176
     1
 90
        3
176
     1
 62
     5
420
      255
176
     1
290
     0
176
     1
 90
       50
176
     1
 90
       50
176
     1
 90
       50
176
     1
290
     0
176
     1
 90
       50
176
     1
 62
   256
176
     0
 40
1.0
176
     0
 90
        2
176
     1
  1
strokes_ogs.tif
176
     1
290
     0
176
     1
 40
1.0
176
     1
 40
1.0
176
     1
  0
VISUALSTYLE
  5
2E
102
{ACAD_REACTORS
330
29
102
}
330
29
100
AcDbVisualStyle
  2
Basic
 70
     7
177
     3
291
     1
 70
    58
 90
        1
176
     1
 90
        0
176
     1
 90
        1
176
     1
 90
        0
176
     1
 40
0.6
176
     1
 40
30.0
176
     1
 62
     7
420
 16777215
176
     1
 90
        0
176
     1
 90
        4
176
     1
 62
     7
176
     1
 62
   257
176
     1
 90
        1
176
     1
 90
        1
176
     1
 40
1.0
176
     1
 90
        8
176
     1
 62
     7
176
     1
 40
1.0
176
     1
 90
        1
176
     1
 90
        6
176
     1
 90
        2
176
     1
 62
     7
176
     1
 90
        5
176
     1
 90
        0
176
     1
 90
        0
176
     1
290
     0
176
     1
 90
        1
176
     1
 40
0.0
176
     1
 90
        0
176
     1
290
     0
176
     1
290
     1
176
     1
290
     1
176
     1
290
     0
176
     1
290
     0
176
     1
290
     0
176
     1
290
     0
176
     1
290
     0
176
     1
290
     0
176
     1
 90
       50
176
     1
 40
0.0
176
     1
 40
1.0
176
     1
 90
        0
176
     1
 62
    18
420
        0
176
     1
 90
       50
176
     1
 90
        3
176
     1
 62
     5
420
      255
176
     1
290
     0
176
     1
 90
       50
176
     1
 90
       50
176
     1
 90
       50
176
     1
290
     0
176
     1
 90
       50
176
     1
 62
   256
176
     0
 40
1.0
176
     0
 90
        2
176
     1
  1
strokes_ogs.tif
176
     1
290
     0
176
     1
 40
1.0
176
     1
 40
1.0
176
     1
  0
VISUALSTYLE
  5
35
102
{ACAD_REACTORS
330
29
102
}
330
29
100
AcDbVisualStyle
  2
Brighten
 70
    12
177
     3
291
     1
 70
    58
 90
        2
176
     1
 90
        2
176
     1
 90
        0
176
     1
 90
        0
176
     1
 40
0.6
176
     1
 40
30.0
176
     1
 62
     7
420
 16777215
176
     1
 90
        1
176
     1
 90
        4
176
     1
 62
     7
176
     1
 62
   257
176
     1
 90
        1
176
     1
 90
        1
176
     1
 40
1.0
176
     1
 90
        8
176
     1
 62
     7
176
     1
 40
1.0
176
     1
 90
        1
176
     1
 90
        6
176
     1
 90
        2
176
     1
 62
     7
176
     1
 90
        5
176
     1
 90
        0
176
     1
 90
        0
176
     1
290
     0
176
     1
 90
        1
176
     1
 40
50.0
176
     1
 90
        0
176
     1
290
     0
176
     1
290
     1
176
     1
290
     1
176
     1
290
     0
176
     1
290
     0
176
     1
290
     0
176
     1
290
     0
176
     1
290
     0
176
     1
290
     0
176
     1
 90
       50
176
     1
 40
0.0
176
     1
 40
1.0
176
     1
 90
        0
176
     1
 62
    18
420
        0
176
     1
 90
       50
176
     1
 90
        3
176
     1
 62
     5
420
      255
176
     1
290
     0
176
     1
 90
       50
176
     1
 90
       50
176
     1
 90
       50
176
     1
290
     0
176
     1
 90
       50
176
     1
 62
   256
176
     0
 40
1.0
176
     0
 90
        2
176
     1
  1
strokes_ogs.tif
176
     1
290
     0
176
     1
 40
1.0
176
     1
 40
1.0
176
     1
  0
VISUALSTYLE
  5
39
102
{ACAD_REACTORS
330
29
102
}
330
29
100
AcDbVisualStyle
  2
ColorChange
 70
    16
177
     3
291
     1
 70
    58
 90
        2
176
     1
 90
        2
176
     1
 90
        3
176
     1
 90
        0
176
     1
 40
0.6
176
     1
 40
30.0
176
     1
 62
     8
420
  8421504
176
     1
 90
        1
176
     1
 90
        4
176
     1
 62
     7
176
     1
 62
   257
176
     1
 90
        1
176
     1
 90
        1
176
     1
 40
1.0
176
     1
 90
        8
176
     1
 62
     8
420
  8421504
176
     1
 40
1.0
176
     1
 90
        1
176
     1
 90
        6
176
     1
 90
        2
176
     1
 62
     7
176
     1
 90
        5
176
     1
 90
        0
176
     1
 90
        0
176
     1
290
     0
176
     1
 90
        1
176
     1
 40
0.0
176
     1
 90
        0
176
     1
290
     0
176
     1
290
     1
176
     1
290
     1
176
     1
290
     0
176
     1
290
     0
176
     1
290
     0
176
     1
290
     0
176
     1
290
     0
176
     1
290
     0
176
     1
 90
       50
176
     1
 40
0.0
176
     1
 40
1.0
176
     1
 90
        0
176
     1
 62
    18
420
        0
176
     1
 90
       50
176
     1
 90
        3
176
     1
 62
     5
420
      255
176
     1
290
     0
176
     1
 90
       50
176
     1
 90
       50
176
     1
 90
       50
176
     1
290
     0
176
     1
 90
       50
176
     1
 62
   256
176
     0
 40
1.0
176
     0
 90
        2
176
     1
  1
strokes_ogs.tif
176
     1
290
     0
176
     1
 40
1.0
176
     1
 40
1.0
176
     1
  0
VISUALSTYLE
  5
32
102
{ACAD_REACTORS
330
29
102
}
330
29
100
AcDbVisualStyle
  2
Conceptual
 70
     9
177
     3
291
     0
 70
    58
 90
        3
176
     1
 90
        2
176
     1
 90
        0
176
     1
 90
        0
176
     1
 40
0.6
176
     1
 40
30.0
176
     1
 62
     7
420
 16777215
176
     1
 90
        2
176
     1
 90
        2
176
     1
 62
     7
176
     1
 62
   257
176
     1
 90
        1
176
     1
 90
        1
176
     1
 40
179.0
176
     1
 90
        8
176
     1
 62
     7
176
     1
 40
1.0
176
     1
 90
        1
176
     1
 90
        6
176
     1
 90
        2
176
     1
 62
     7
176
     1
 90
        3
176
     1
 90
        0
176
     1
 90
        0
176
     1
290
     0
176
     1
 90
        1
176
     1
 40
0.0
176
     1
 90
        0
176
     1
290
     0
176
     1
290
     1
176
     1
290
     1
176
     1
290
     0
176
     1
290
     0
176
     1
290
     0
176
     1
290
     0
176
     1
290
     0
176
     1
290
     0
176
     1
 90
       50
176
     1
 40
0.0
176
     1
 40
1.0
176
     1
 90
        0
176
     1
 62
    18
420
        0
176
     1
 90
       50
176
     1
 90
        3
176
     1
 62
     5
420
      255
176
     1
290
     0
176
     1
 90
       50
176
     1
 90
       50
176
     1
 90
       50
176
     1
290
     0
176
     1
 90
       50
176
     1
 62
   256
176
     0
 40
1.0
176
     0
 90
        2
176
     1
  1
strokes_ogs.tif
176
     1
290
     0
176
     1
 40
1.0
176
     1
 40
1.0
176
     1
  0
VISUALSTYLE
  5
34
102
{ACAD_REACTORS
330
29
102
}
330
29
100
AcDbVisualStyle
  2
Dim
 70
    11
177
     3
291
     1
 70
    58
 90
        2
176
     1
 90
        2
176
     1
 90
        0
176
     1
 90
        0
176
     1
 40
0.6
176
     1
 40
30.0
176
     1
 62
     7
420
 16777215
176
     1
 90
        1
176
     1
 90
        4
176
     1
 62
     7
176
     1
 62
   257
176
     1
 90
        1
176
     1
 90
        1
176
     1
 40
1.0
176
     1
 90
        8
176
     1
 62
     7
176
     1
 40
1.0
176
     1
 90
        1
176
     1
 90
        6
176
     1
 90
        2
176
     1
 62
     7
176
     1
 90
        5
176
     1
 90
        0
176
     1
 90
        0
176
     1
290
     0
176
     1
 90
        1
176
     1
 40
-50.0
176
     1
 90
        0
176
     1
290
     0
176
     1
290
     1
176
     1
290
     1
176
     1
290
     0
176
     1
290
     0
176
     1
290
     0
176
     1
290
     0
176
     1
290
     0
176
     1
290
     0
176
     1
 90
       50
176
     1
 40
0.0
176
     1
 40
1.0
176
     1
 90
        0
176
     1
 62
    18
420
        0
176
     1
 90
       50
176
     1
 90
        3
176
     1
 62
     5
420
      255
176
     1
290
     0
176
     1
 90
       50
176
     1
 90
       50
176
     1
 90
       50
176
     1
290
     0
176
     1
 90
       50
176
     1
 62
   256
176
     0
 40
1.0
176
     0
 90
        2
176
     1
  1
strokes_ogs.tif
176
     1
290
     0
176
     1
 40
1.0
176
     1
 40
1.0
176
     1
  0
VISUALSTYLE
  5
41
102
{ACAD_REACTORS
330
29
102
}
330
29
100
AcDbVisualStyle
  2
EdgeColorOff
 70
    22
177
     3
291
     1
 70
    58
 90
        2
176
     0
 90
        2
176
     0
 90
        0
176
     0
 90
        0
176
     0
 40
0.6
176
     0
 40
30.0
176
     0
 62
     7
420
 16777215
176
     0
 90
        1
176
     0
 90
        4
176
     0
 62
     7
176
     0
 62
   257
176
     0
 90
        1
176
     0
 90
        1
176
     0
 40
1.0
176
     0
 90
        8
176
     2
 62
     7
176
     0
 40
1.0
176
     0
 90
        1
176
     0
 90
        6
176
     0
 90
        2
176
     0
 62
     7
176
     0
 90
        5
176
     0
 90
        0
176
     0
 90
        0
176
     0
290
     0
176
     0
 90
        1
176
     0
 40
0.0
176
     0
 90
        0
176
     0
290
     0
176
     0
290
     1
176
     0
290
     1
176
     0
290
     0
176
     0
290
     0
176
     0
290
     0
176
     0
290
     0
176
     0
290
     0
176
     0
290
     0
176
     0
 90
       50
176
     0
 40
0.0
176
     0
 40
1.0
176
     0
 90
        0
176
     0
 62
    18
420
        0
176
     0
 90
       50
176
     0
 90
        3
176
     0
 62
     5
420
      255
176
     0
290
     0
176
     0
 90
       50
176
     0
 90
       50
176
     0
 90
       50
176
     0
290
     0
176
     0
 90
       50
176
     0
 62
   256
176
     0
 40
1.0
176
     0
 90
        2
176
     0
  1
strokes_ogs.tif
176
     0
290
     0
176
     0
 40
1.0
176
     0
 40
1.0
176
     0
  0
VISUALSTYLE
  5
38
102
{ACAD_REACTORS
330
29
102
}
330
29
100
AcDbVisualStyle
  2
Facepattern
 70
    15
177
     3
291
     1
 70
    58
 90
        2
176
     1
 90
        2
176
     1
 90
        0
176
     1
 90
        0
176
     1
 40
0.6
176
     1
 40
30.0
176
     1
 62
     7
420
 16777215
176
     1
 90
        1
176
     1
 90
        4
176
     1
 62
     7
176
     1
 62
   257
176
     1
 90
        1
176
     1
 90
        1
176
     1
 40
1.0
176
     1
 90
        8
176
     1
 62
     7
176
     1
 40
1.0
176
     1
 90
        1
176
     1
 90
        6
176
     1
 90
        2
176
     1
 62
     7
176
     1
 90
        5
176
     1
 90
        0
176
     1
 90
        0
176
     1
290
     0
176
     1
 90
        1
176
     1
 40
0.0
176
     1
 90
        0
176
     1
290
     0
176
     1
290
     1
176
     1
290
     1
176
     1
290
     0
176
     1
290
     0
176
     1
290
     0
176
     1
290
     0
176
     1
290
     0
176
     1
290
     0
176
     1
 90
       50
176
     1
 40
0.0
176
     1
 40
1.0
176
     1
 90
        0
176
     1
 62
    18
420
        0
176
     1
 90
       50
176
     1
 90
        3
176
     1
 62
     5
420
      255
176
     1
290
     0
176
     1
 90
       50
176
     1
 90
       50
176
     1
 90
       50
176
     1
290
     0
176
     1
 90
       50
176
     1
 62
   256
176
     0
 40
1.0
176
     0
 90
        2
176
     1
  1
strokes_ogs.tif
176
     1
290
     0
176
     1
 40
1.0
176
     1
 40
1.0
176
     1
  0
VISUALSTYLE
  5
2A
102
{ACAD_REACTORS
330
29
102
}
330
29
100
AcDbVisualStyle
  2
Flat
 70
     0
177
     3
291
     1
 70
    58
 90
        2
176
     1
 90
        1
176
     1
 90
        1
176
     1
 90
        2
176
     1
 40
0.6
176
     1
 40
30.0
176
     1
 62
     7
420
 16777215
176
     1
 90
        0
176
     1
 90
        0
176
     1
 62
     7
176
     1
 62
   257
176
     1
 90
        1
176
     1
 90
        1
176
     1
 40
1.0
176
     1
 90
        8
176
     1
 62
     7
176
     1
 40
1.0
176
     1
 90
        1
176
     1
 90
        6
176
     1
 90
        2
176
     1
 62
     7
176
     1
 90
        5
176
     1
 90
        0
176
     1
 90
        0
176
     1
290
     0
176
     1
 90
       13
176
     1
 40
0.0
176
     1
 90
        0
176
     1
290
     0
176
     1
290
     1
176
     1
290
     1
176
     1
290
     0
176
     1
290
     0
176
     1
290
     0
176
     1
290
     0
176
     1
290
     0
176
     1
290
     0
176
     1
 90
       50
176
     1
 40
0.0
176
     1
 40
1.0
176
     1
 90
        0
176
     1
 62
    18
420
        0
176
     1
 90
       50
176
     1
 90
        3
176
     1
 62
     5
420
      255
176
     1
290
     0
176
     1
 90
       50
176
     1
 90
       50
176
     1
 90
       50
176
     1
290
     0
176
     1
 90
       50
176
     1
 62
   256
176
     0
 40
1.0
176
     0
 90
        2
176
     1
  1
strokes_ogs.tif
176
     1
290
     0
176
     1
 40
1.0
176
     1
 40
1.0
176
     1
  0
VISUALSTYLE
  5
2B
102
{ACAD_REACTORS
330
29
102
}
330
29
100
AcDbVisualStyle
  2
FlatWithEdges
 70
     1
177
     3
291
     1
 70
    58
 90
        2
176
     1
 90
        1
176
     1
 90
        1
176
     1
 90
        2
176
     1
 40
0.6
176
     1
 40
30.0
176
     1
 62
     7
420
 16777215
176
     1
 90
        1
176
     1
 90
        0
176
     1
 62
     7
176
     1
 62
   257
176
     1
 90
        1
176
     1
 90
        1
176
     1
 40
1.0
176
     1
 90
        0
176
     1
 62
   257
176
     1
 40
1.0
176
     1
 90
        1
176
     1
 90
        6
176
     1
 90
        2
176
     1
 62
     7
176
     1
 90
        5
176
     1
 90
        0
176
     1
 90
        0
176
     1
290
     0
176
     1
 90
       13
176
     1
 40
0.0
176
     1
 90
        0
176
     1
290
     0
176
     1
290
     1
176
     1
290
     1
176
     1
290
     0
176
     1
290
     0
176
     1
290
     0
176
     1
290
     0
176
     1
290
     0
176
     1
290
     0
176
     1
 90
       50
176
     1
 40
0.0
176
     1
 40
1.0
176
     1
 90
        0
176
     1
 62
    18
420
        0
176
     1
 90
       50
176
     1
 90
        3
176
     1
 62
     5
420
      255
176
     1
290
     0
176
     1
 90
       50
176
     1
 90
       50
176
     1
 90
       50
176
     1
290
     0
176
     1
 90
       50
176
     1
 62
   256
176
     0
 40
1.0
176
     0
 90
        2
176
     1
  1
strokes_ogs.tif
176
     1
290
     0
176
     1
 40
1.0
176
     1
 40
1.0
176
     1
  0
VISUALSTYLE
  5
2C
102
{ACAD_REACTORS
330
29
102
}
330
29
100
AcDbVisualStyle
  2
Gouraud
 70
     2
177
     3
291
     1
 70
    58
 90
        2
176
     1
 90
        2
176
     1
 90
        1
176
     1
 90
        2
176
     1
 40
0.6
176
     1
 40
30.0
176
     1
 62
     7
420
 16777215
176
     1
 90
        0
176
     1
 90
        0
176
     1
 62
     7
176
     1
 62
   257
176
     1
 90
        1
176
     1
 90
        1
176
     1
 40
1.0
176
     1
 90
        0
176
     1
 62
     7
176
     1
 40
1.0
176
     1
 90
        1
176
     1
 90
        6
176
     1
 90
        2
176
     1
 62
     7
176
     1
 90
        5
176
     1
 90
        0
176
     1
 90
        0
176
     1
290
     0
176
     1
 90
       13
176
     1
 40
0.0
176
     1
 90
        0
176
     1
290
     0
176
     1
290
     1
176
     1
290
     1
176
     1
290
     0
176
     1
290
     0
176
     1
290
     0
176
     1
290
     0
176
     1
290
     0
176
     1
290
     0
176
     1
 90
       50
176
     1
 40
0.0
176
     1
 40
1.0
176
     1
 90
        0
176
     1
 62
    18
420
        0
176
     1
 90
       50
176
     1
 90
        3
176
     1
 62
     5
420
      255
176
     1
290
     0
176
     1
 90
       50
176
     1
 90
       50
176
     1
 90
       50
176
     1
290
     0
176
     1
 90
       50
176
     1
 62
   256
176
     0
 40
1.0
176
     0
 90
        2
176
     1
  1
strokes_ogs.tif
176
     1
290
     0
176
     1
 40
1.0
176
     1
 40
1.0
176
     1
  0
VISUALSTYLE
  5
2D
102
{ACAD_REACTORS
330
29
102
}
330
29
100
AcDbVisualStyle
  2
GouraudWithEdges
 70
     3
177
     3
291
     1
 70
    58
 90
        2
176
     1
 90
        2
176
     1
 90
        1
176
     1
 90
        2
176
     1
 40
0.6
176
     1
 40
30.0
176
     1
 62
     7
420
 16777215
176
     1
 90
        1
176
     1
 90
        0
176
     1
 62
     7
176
     1
 62
   257
176
     1
 90
        1
176
     1
 90
        1
176
     1
 40
1.0
176
     1
 90
        0
176
     1
 62
   257
176
     1
 40
1.0
176
     1
 90
        1
176
     1
 90
        6
176
     1
 90
        2
176
     1
 62
     7
176
     1
 90
        5
176
     1
 90
        0
176
     1
 90
        0
176
     1
290
     0
176
     1
 90
       13
176
     1
 40
0.0
176
     1
 90
        0
176
     1
290
     0
176
     1
290
     1
176
     1
290
     1
176
     1
290
     0
176
     1
290
     0
176
     1
290
     0
176
     1
290
     0
176
     1
290
     0
176
     1
290
     0
176
     1
 90
       50
176
     1
 40
0.0
176
     1
 40
1.0
176
     1
 90
        0
176
     1
 62
    18
420
        0
176
     1
 90
       50
176
     1
 90
        3
176
     1
 62
     5
420
      255
176
     1
290
     0
176
     1
 90
       50
176
     1
 90
       50
176
     1
 90
       50
176
     1
290
     0
176
     1
 90
       50
176
     1
 62
   256
176
     0
 40
1.0
176
     0
 90
        2
176
     1
  1
strokes_ogs.tif
176
     1
290
     0
176
     1
 40
1.0
176
     1
 40
1.0
176
     1
  0
VISUALSTYLE
  5
31
102
{ACAD_REACTORS
330
29
102
}
330
29
100
AcDbVisualStyle
  2
Hidden
 70
     6
177
     3
291
     0
 70
    58
 90
        1
176
     1
 90
        2
176
     1
 90
        2
176
     1
 90
        0
176
     1
 40
0.6
176
     1
 40
30.0
176
     1
 62
     7
420
 16777215
176
     1
 90
        2
176
     1
 90
        2
176
     1
 62
     7
176
     1
 62
   257
176
     1
 90
        2
176
     1
 90
        1
176
     1
 40
40.0
176
     1
 90
        0
176
     1
 62
   257
176
     1
 40
1.0
176
     1
 90
        1
176
     1
 90
        6
176
     1
 90
        2
176
     1
 62
     7
176
     1
 90
        3
176
     1
 90
        0
176
     1
 90
        0
176
     1
290
     0
176
     1
 90
        1
176
     1
 40
0.0
176
     1
 90
        0
176
     1
290
     0
176
     1
290
     1
176
     1
290
     1
176
     1
290
     0
176
     1
290
     0
176
     1
290
     0
176
     1
290
     0
176
     1
290
     0
176
     1
290
     0
176
     1
 90
       50
176
     1
 40
0.0
176
     1
 40
1.0
176
     1
 90
        0
176
     1
 62
    18
420
        0
176
     1
 90
       50
176
     1
 90
        3
176
     1
 62
     5
420
      255
176
     1
290
     0
176
     1
 90
       50
176
     1
 90
       50
176
     1
 90
       50
176
     1
290
     0
176
     1
 90
       50
176
     1
 62
   256
176
     0
 40
1.0
176
     0
 90
        2
176
     1
  1
strokes_ogs.tif
176
     1
290
     0
176
     1
 40
1.0
176
     1
 40
1.0
176
     1
  0
VISUALSTYLE
  5
3F
102
{ACAD_REACTORS
330
29
102
}
330
29
100
AcDbVisualStyle
  2
JitterOff
 70
    20
177
     3
291
     1
 70
    58
 90
        2
176
     0
 90
        2
176
     0
 90
        0
176
     0
 90
        0
176
     0
 40
0.6
176
     0
 40
30.0
176
     0
 62
     7
420
 16777215
176
     0
 90
        1
176
     0
 90
        4
176
     0
 62
     7
176
     0
 62
   257
176
     0
 90
        1
176
     0
 90
        1
176
     0
 40
1.0
176
     0
 90
       10
176
     2
 62
     7
176
     0
 40
1.0
176
     0
 90
        1
176
     0
 90
        6
176
     0
 90
        2
176
     0
 62
     7
176
     0
 90
        5
176
     0
 90
        0
176
     0
 90
        0
176
     0
290
     0
176
     0
 90
        1
176
     0
 40
0.0
176
     0
 90
        0
176
     0
290
     0
176
     0
290
     1
176
     0
290
     1
176
     0
290
     0
176
     0
290
     0
176
     0
290
     0
176
     0
290
     0
176
     0
290
     0
176
     0
290
     0
176
     0
 90
       50
176
     0
 40
0.0
176
     0
 40
1.0
176
     0
 90
        0
176
     0
 62
    18
420
        0
176
     0
 90
       50
176
     0
 90
        3
176
     0
 62
     5
420
      255
176
     0
290
     0
176
     0
 90
       50
176
     0
 90
       50
176
     0
 90
       50
176
     0
290
     0
176
     0
 90
       50
176
     0
 62
   256
176
     0
 40
1.0
176
     0
 90
        2
176
     0
  1
strokes_ogs.tif
176
     0
290
     0
176
     0
 40
1.0
176
     0
 40
1.0
176
     0
  0
VISUALSTYLE
  5
37
102
{ACAD_REACTORS
330
29
102
}
330
29
100
AcDbVisualStyle
  2
Linepattern
 70
    14
177
     3
291
     1
 70
    58
 90
        2
176
     1
 90
        2
176
     1
 90
        0
176
     1
 90
        0
176
     1
 40
0.6
176
     1
 40
30.0
176
     1
 62
     7
420
 16777215
176
     1
 90
        1
176
     1
 90
        4
176
     1
 62
     7
176
     1
 62
   257
176
     1
 90
        7
176
     1
 90
        7
176
     1
 40
1.0
176
     1
 90
        8
176
     1
 62
     7
176
     1
 40
1.0
176
     1
 90
        1
176
     1
 90
        6
176
     1
 90
        2
176
     1
 62
     7
176
     1
 90
        5
176
     1
 90
        0
176
     1
 90
        0
176
     1
290
     0
176
     1
 90
        1
176
     1
 40
0.0
176
     1
 90
        0
176
     1
290
     0
176
     1
290
     1
176
     1
290
     1
176
     1
290
     0
176
     1
290
     0
176
     1
290
     0
176
     1
290
     0
176
     1
290
     0
176
     1
290
     0
176
     1
 90
       50
176
     1
 40
0.0
176
     1
 40
1.0
176
     1
 90
        0
176
     1
 62
    18
420
        0
176
     1
 90
       50
176
     1
 90
        3
176
     1
 62
     5
420
      255
176
     1
290
     0
176
     1
 90
       50
176
     1
 90
       50
176
     1
 90
       50
176
     1
290
     0
176
     1
 90
       50
176
     1
 62
   256
176
     0
 40
1.0
176
     0
 90
        2
176
     1
  1
strokes_ogs.tif
176
     1
290
     0
176
     1
 40
1.0
176
     1
 40
1.0
176
     1
  0
VISUALSTYLE
  5
40
102
{ACAD_REACTORS
330
29
102
}
330
29
100
AcDbVisualStyle
  2
OverhangOff
 70
    21
177
     3
291
     1
 70
    58
 90
        2
176
     0
 90
        2
176
     0
 90
        0
176
     0
 90
        0
176
     0
 40
0.6
176
     0
 40
30.0
176
     0
 62
     7
420
 16777215
176
     0
 90
        1
176
     0
 90
        4
176
     0
 62
     7
176
     0
 62
   257
176
     0
 90
        1
176
     0
 90
        1
176
     0
 40
1.0
176
     0
 90
        9
176
     2
 62
     7
176
     0
 40
1.0
176
     0
 90
        1
176
     0
 90
        6
176
     0
 90
        2
176
     0
 62
     7
176
     0
 90
        5
176
     0
 90
        0
176
     0
 90
        0
176
     0
290
     0
176
     0
 90
        1
176
     0
 40
0.0
176
     0
 90
        0
176
     0
290
     0
176
     0
290
     1
176
     0
290
     1
176
     0
290
     0
176
     0
290
     0
176
     0
290
     0
176
     0
290
     0
176
     0
290
     0
176
     0
290
     0
176
     0
 90
       50
176
     0
 40
0.0
176
     0
 40
1.0
176
     0
 90
        0
176
     0
 62
    18
420
        0
176
     0
 90
       50
176
     0
 90
        3
176
     0
 62
     5
420
      255
176
     0
290
     0
176
     0
 90
       50
176
     0
 90
       50
176
     0
 90
       50
176
     0
290
     0
176
     0
 90
       50
176
     0
 62
   256
176
     0
 40
1.0
176
     0
 90
        2
176
     0
  1
strokes_ogs.tif
176
     0
290
     0
176
     0
 40
1.0
176
     0
 40
1.0
176
     0
  0
VISUALSTYLE
  5
33
102
{ACAD_REACTORS
330
29
102
}
330
29
100
AcDbVisualStyle
  2
Realistic
 70
     8
177
     3
291
     0
 70
    58
 90
        2
176
     1
 90
        3
176
     1
 90
        0
176
     1
 90
        2
176
     1
 40
0.6
176
     1
 40
30.0
176
     1
 62
     7
420
 16777215
176
     1
 90
        0
176
     1
 90
        0
176
     1
 62
     7
176
     1
 62
   257
176
     1
 90
        1
176
     1
 90
        1
176
     1
 40
1.0
176
     1
 90
        8
176
     1
 62
   257
176
     1
 40
1.0
176
     1
 90
        1
176
     1
 90
        6
176
     1
 90
        2
176
     1
 62
     7
176
     1
 90
        3
176
     1
 90
        0
176
     1
 90
        0
176
     1
290
     0
176
     1
 90
       13
176
     1
 40
0.0
176
     1
 90
        0
176
     1
290
     0
176
     1
290
     1
176
     1
290
     1
176
     1
290
     0
176
     1
290
     0
176
     1
290
     0
176
     1
290
     0
176
     1
290
     0
176
     1
290
     0
176
     1
 90
       50
176
     1
 40
0.0
176
     1
 40
1.0
176
     1
 90
        0
176
     1
 62
    18
420
        0
176
     1
 90
       50
176
     1
 90
        3
176
     1
 62
     5
420
      255
176
     1
290
     0
176
     1
 90
       50
176
     1
 90
       50
176
     1
 90
       50
176
     1
290
     0
176
     1
 90
       50
176
     1
 62
   256
176
     0
 40
1.0
176
     0
 90
        2
176
     1
  1
strokes_ogs.tif
176
     1
290
     0
176
     1
 40
1.0
176
     1
 40
1.0
176
     1
  0
VISUALSTYLE
  5
3E
102
{ACAD_REACTORS
330
29
102
}
330
29
100
AcDbVisualStyle
  2
Shaded
 70
    27
177
     3
291
     0
 70
    58
 90
        2
176
     1
 90
        2
176
     1
 90
        1
176
     1
 90
        2
176
     1
 40
0.6
176
     1
 40
30.0
176
     1
 62
     7
420
 16777215
176
     1
 90
        0
176
     1
 90
        4
176
     1
 62
     7
176
     1
 62
   257
176
     1
 90
        1
176
     1
 90
        1
176
     1
 40
1.0
176
     1
 90
        8
176
     1
 62
   257
176
     1
 40
1.0
176
     1
 90
        1
176
     1
 90
        6
176
     1
 90
        2
176
     1
 62
     8
420
  7895160
176
     1
 90
        3
176
     1
 90
        0
176
     1
 90
        0
176
     1
290
     0
176
     1
 90
        5
176
     1
 40
0.0
176
     1
 90
        0
176
     1
290
     0
176
     1
290
     1
176
     1
290
     1
176
     1
290
     0
176
     1
290
     0
176
     1
290
     0
176
     1
290
     0
176
     1
290
     0
176
     1
290
     0
176
     1
 90
       50
176
     1
 40
0.0
176
     1
 40
1.0
176
     1
 90
        0
176
     1
 62
    18
420
        0
176
     1
 90
       50
176
     1
 90
        3
176
     1
 62
     5
420
      255
176
     1
290
     0
176
     1
 90
       50
176
     1
 90
       50
176
     1
 90
       50
176
     1
290
     0
176
     1
 90
       50
176
     1
 62
   256
176
     0
 40
1.0
176
     0
 90
        2
176
     1
  1
strokes_ogs.tif
176
     1
290
     0
176
     1
 40
1.0
176
     1
 40
1.0
176
     1
  0
VISUALSTYLE
  5
3D
102
{ACAD_REACTORS
330
29
102
}
330
29
100
AcDbVisualStyle
  2
Shaded with edges
 70
    26
177
     3
291
     0
 70
    58
 90
        2
176
     1
 90
        2
176
     1
 90
        1
176
     1
 90
        2
176
     1
 40
0.6
176
     1
 40
30.0
176
     1
 62
     7
420
 16777215
176
     1
 90
        1
176
     1
 90
        2
176
     1
 62
     7
176
     1
 62
   257
176
     1
 90
        2
176
     1
 90
        1
176
     1
 40
1.0
176
     1
 90
        8
176
     1
 62
   257
176
     1
 40
1.0
176
     1
 90
        1
176
     1
 90
        6
176
     1
 90
        2
176
     1
 62
     7
176
     1
 90
        3
176
     1
 90
        0
176
     1
 90
        0
176
     1
290
     0
176
     1
 90
        5
176
     1
 40
0.0
176
     1
 90
        0
176
     1
290
     0
176
     1
290
     1
176
     1
290
     1
176
     1
290
     0
176
     1
290
     0
176
     1
290
     0
176
     1
290
     0
176
     1
290
     0
176
     1
290
     0
176
     1
 90
       50
176
     1
 40
0.0
176
     1
 40
1.0
176
     1
 90
        0
176
     1
 62
    18
420
        0
176
     1
 90
       50
176
     1
 90
        3
176
     1
 62
     5
420
      255
176
     1
290
     0
176
     1
 90
       50
176
     1
 90
       50
176
     1
 90
       50
176
     1
290
     0
176
     1
 90
       50
176
     1
 62
   256
176
     0
 40
1.0
176
     0
 90
        2
176
     1
  1
strokes_ogs.tif
176
     1
290
     0
176
     1
 40
1.0
176
     1
 40
1.0
176
     1
  0
VISUALSTYLE
  5
3A
102
{ACAD_REACTORS
330
29
102
}
330
29
100
AcDbVisualStyle
  2
Shades of Gray
 70
    23
177
     3
291
     0
 70
    58
 90
        2
176
     1
 90
        2
176
     1
 90
        3
176
     1
 90
        0
176
     1
 40
0.6
176
     1
 40
30.0
176
     1
 62
     7
420
 16777215
176
     1
 90
        2
176
     1
 90
        2
176
     1
 62
     7
176
     1
 62
     7
176
     1
 90
        1
176
     1
 90
        1
176
     1
 40
40.0
176
     1
 90
        8
176
     1
 62
     7
176
     1
 40
1.0
176
     1
 90
        1
176
     1
 90
        6
176
     1
 90
        2
176
     1
 62
     7
176
     1
 90
        3
176
     1
 90
        0
176
     1
 90
        0
176
     1
290
     0
176
     1
 90
        1
176
     1
 40
0.0
176
     1
 90
        0
176
     1
290
     0
176
     1
290
     1
176
     1
290
     1
176
     1
290
     0
176
     1
290
     0
176
     1
290
     0
176
     1
290
     0
176
     1
290
     0
176
     1
290
     0
176
     1
 90
       50
176
     1
 40
0.0
176
     1
 40
1.0
176
     1
 90
        0
176
     1
 62
    18
420
        0
176
     1
 90
       50
176
     1
 90
        3
176
     1
 62
     5
420
      255
176
     1
290
     0
176
     1
 90
       50
176
     1
 90
       50
176
     1
 90
       50
176
     1
290
     0
176
     1
 90
       50
176
     1
 62
   256
176
     0
 40
1.0
176
     0
 90
        2
176
     1
  1
strokes_ogs.tif
176
     1
290
     0
176
     1
 40
1.0
176
     1
 40
1.0
176
     1
  0
VISUALSTYLE
  5
3B
102
{ACAD_REACTORS
330
29
102
}
330
29
100
AcDbVisualStyle
  2
Sketchy
 70
    24
177
     3
291
     0
 70
    58
 90
        1
176
     1
 90
        2
176
     1
 90
        2
176
     1
 90
        0
176
     1
 40
0.6
176
     1
 40
30.0
176
     1
 62
     7
420
 16777215
176
     1
 90
        2
176
     1
 90
        2
176
     1
 62
     7
176
     1
 62
     7
176
     1
 90
        1
176
     1
 90
        1
176
     1
 40
40.0
176
     1
 90
       11
176
     1
 62
     7
176
     1
 40
1.0
176
     1
 90
        1
176
     1
 90
        6
176
     1
 90
        2
176
     1
 62
     7
176
     1
 90
        6
176
     1
 90
        0
176
     1
 90
        0
176
     1
290
     0
176
     1
 90
        1
176
     1
 40
0.0
176
     1
 90
        0
176
     1
290
     0
176
     1
290
     1
176
     1
290
     1
176
     1
290
     0
176
     1
290
     0
176
     1
290
     0
176
     1
290
     0
176
     1
290
     0
176
     1
290
     0
176
     1
 90
       50
176
     1
 40
0.0
176
     1
 40
1.0
176
     1
 90
        0
176
     1
 62
    18
420
        0
176
     1
 90
       50
176
     1
 90
        3
176
     1
 62
     5
420
      255
176
     1
290
     0
176
     1
 90
       50
176
     1
 90
       50
176
     1
 90
       50
176
     1
290
     0
176
     1
 90
       50
176
     1
 62
   256
176
     0
 40
1.0
176
     0
 90
        2
176
     1
  1
strokes_ogs.tif
176
     1
290
     0
176
     1
 40
1.0
176
     1
 40
1.0
176
     1
  0
VISUALSTYLE
  5
36
102
{ACAD_REACTORS
330
29
102
}
330
29
100
AcDbVisualStyle
  2
Thicken
 70
    13
177
     3
291
     1
 70
    58
 90
        2
176
     1
 90
        2
176
     1
 90
        0
176
     1
 90
        0
176
     1
 40
0.6
176
     1
 40
30.0
176
     1
 62
     7
420
 16777215
176
     1
 90
        1
176
     1
 90
        4
176
     1
 62
     7
176
     1
 62
   257
176
     1
 90
        1
176
     1
 90
        1
176
     1
 40
1.0
176
     1
 90
       12
176
     1
 62
     7
176
     1
 40
1.0
176
     1
 90
        1
176
     1
 90
        6
176
     1
 90
        2
176
     1
 62
     7
176
     1
 90
        5
176
     1
 90
        0
176
     1
 90
        0
176
     1
290
     0
176
     1
 90
        1
176
     1
 40
0.0
176
     1
 90
        0
176
     1
290
     0
176
     1
290
     1
176
     1
290
     1
176
     1
290
     0
176
     1
290
     0
176
     1
290
     0
176
     1
290
     0
176
     1
290
     0
176
     1
290
     0
176
     1
 90
       50
176
     1
 40
0.0
176
     1
 40
1.0
176
     1
 90
        0
176
     1
 62
    18
420
        0
176
     1
 90
       50
176
     1
 90
        3
176
     1
 62
     5
420
      255
176
     1
290
     0
176
     1
 90
       50
176
     1
 90
       50
176
     1
 90
       50
176
     1
290
     0
176
     1
 90
       50
176
     1
 62
   256
176
     0
 40
1.0
176
     0
 90
        2
176
     1
  1
strokes_ogs.tif
176
     1
290
     0
176
     1
 40
1.0
176
     1
 40
1.0
176
     1
  0
VISUALSTYLE
  5
30
102
{ACAD_REACTORS
330
29
102
}
330
29
100
AcDbVisualStyle
  2
Wireframe
 70
     5
177
     3
291
     0
 70
    58
 90
        0
176
     1
 90
        2
176
     1
 90
        0
176
     1
 90
        0
176
     1
 40
0.6
176
     1
 40
30.0
176
     1
 62
     7
420
 16777215
176
     1
 90
        1
176
     1
 90
        4
176
     1
 62
     7
176
     1
 62
   257
176
     1
 90
        1
176
     1
 90
        1
176
     1
 40
1.0
176
     1
 90
        0
176
     1
 62
   257
176
     1
 40
1.0
176
     1
 90
        1
176
     1
 90
        6
176
     1
 90
        2
176
     1
 62
     7
176
     1
 90
        3
176
     1
 90
        0
176
     1
 90
        0
176
     1
290
     0
176
     1
 90
        1
176
     1
 40
0.0
176
     1
 90
        0
176
     1
290
     0
176
     1
290
     1
176
     1
290
     1
176
     1
290
     0
176
     1
290
     0
176
     1
290
     0
176
     1
290
     0
176
     1
290
     0
176
     1
290
     0
176
     1
 90
       50
176
     1
 40
0.0
176
     1
 40
1.0
176
     1
 90
        0
176
     1
 62
    18
420
        0
176
     1
 90
       50
176
     1
 90
        3
176
     1
 62
     5
420
      255
176
     1
290
     0
176
     1
 90
       50
176
     1
 90
       50
176
     1
 90
       50
176
     1
290
     0
176
     1
 90
       50
176
     1
 62
   256
176
     0
 40
1.0
176
     0
 90
        2
176
     1
  1
strokes_ogs.tif
176
     1
290
     0
176
     1
 40
1.0
176
     1
 40
1.0
176
     1
  0
VISUALSTYLE
  5
3C
102
{ACAD_REACTORS
330
29
102
}
330
29
100
AcDbVisualStyle
  2
X-Ray
 70
    25
177
     3
291
     0
 70
    58
 90
        2
176
     1
 90
        2
176
     1
 90
        1
176
     1
 90
        1
176
     1
 40
0.5
176
     1
 40
30.0
176
     1
 62
     7
420
 16777215
176
     1
 90
        1
176
     1
 90
        0
176
     1
 62
     7
176
     1
 62
   257
176
     1
 90
        1
176
     1
 90
        1
176
     1
 40
1.0
176
     1
 90
        8
176
     1
 62
     7
176
     1
 40
1.0
176
     1
 90
        1
176
     1
 90
        6
176
     1
 90
        2
176
     1
 62
     7
176
     1
 90
        3
176
     1
 90
        0
176
     1
 90
        0
176
     1
290
     0
176
     1
 90
       13
176
     1
 40
0.0
176
     1
 90
        0
176
     1
290
     0
176
     1
290
     1
176
     1
290
     1
176
     1
290
     0
176
     1
290
     0
176
     1
290
     0
176
     1
290
     0
176
     1
290
     0
176
     1
290
     0
176
     1
 90
       50
176
     1
 40
0.0
176
     1
 40
1.0
176
     1
 90
        0
176
     1
 62
    18
420
        0
176
     1
 90
       50
176
     1
 90
        3
176
     1
 62
     5
420
      255
176
     1
290
     0
176
     1
 90
       50
176
     1
 90
       50
176
     1
 90
       50
176
     1
290
     0
176
     1
 90
       50
176
     1
 62
   256
176
     0
 40
1.0
176
     0
 90
        2
176
     1
  1
strokes_ogs.tif
176
     1
290
     0
176
     1
 40
1.0
176
     1
 40
1.0
176
     1
  0
DICTIONARYVAR
  5
182
102
{ACAD_REACTORS
330
17D
102
}
330
17D
100
DictionaryVariables
280
     0
  1
1:1
  0
DICTIONARYVAR
  5
17F
102
{ACAD_REACTORS
330
17D
102
}
330
17D
100
DictionaryVariables
280
     0
  1
STANDARD
  0
DICTIONARYVAR
  5
17E
102
{ACAD_REACTORS
330
17D
102
}
330
17D
100
DictionaryVariables
280
     0
  1
STANDARD
  0
DICTIONARYVAR
  5
180
102
{ACAD_REACTORS
330
17D
102
}
330
17D
100
DictionaryVariables
280
     0
  1
Imperial24
  0
DICTIONARYVAR
  5
181
102
{ACAD_REACTORS
330
17D
102
}
330
17D
100
DictionaryVariables
280
     0
  1
Imperial24
  0
DICTIONARY
  5
1A
330
19
100
AcDbDictionary
280
     1
281
     1
  3
BUMPTILE
360
1C
  3
DIFFUSETILE
360
1B
  3
OPACITYTILE
360
1F
  3
REFLECTIONTILE
360
1E
  3
REFRACTIONTILE
360
20
  3
SPECULARTILE
360
1D
  0
DICTIONARY
  5
12
330
11
100
AcDbDictionary
280
     1
281
     1
  3
BUMPTILE
360
14
  3
DIFFUSETILE
360
13
  3
OPACITYTILE
360
17
  3
REFLECTIONTILE
360
16
  3
REFRACTIONTILE
360
18
  3
SPECULARTILE
360
15
  0
DICTIONARY
  5
22
330
21
100
AcDbDictionary
280
     1
281
     1
  3
BUMPTILE
360
24
  3
DIFFUSETILE
360
23
  3
OPACITYTILE
360
27
  3
REFLECTIONTILE
360
26
  3
REFRACTIONTILE
360
28
  3
SPECULARTILE
360
25
  0
DICTIONARY
  5
183
330
65
100
AcDbDictionary
280
     1
281
     1
  3
ACAD_ROUNDTRIP_2008_TABLESTYLE_CELLSTYLEMAP
360
184
  0
XRECORD
  5
1C
102
{ACAD_REACTORS
330
1A
102
}
330
1A
100
AcDbXrecord
280
     1
270
     1
271
     1
  0
XRECORD
  5
1B
102
{ACAD_REACTORS
330
1A
102
}
330
1A
100
AcDbXrecord
280
     1
270
     1
271
     1
  0
XRECORD
  5
1F
102
{ACAD_REACTORS
330
1A
102
}
330
1A
100
AcDbXrecord
280
     1
270
     1
271
     1
  0
XRECORD
  5
1E
102
{ACAD_REACTORS
330
1A
102
}
330
1A
100
AcDbXrecord
280
     1
270
     1
271
     1
  0
XRECORD
  5
20
102
{ACAD_REACTORS
330
1A
102
}
330
1A
100
AcDbXrecord
280
     1
270
     1
271
     1
  0
XRECORD
  5
1D
102
{ACAD_REACTORS
330
1A
102
}
330
1A
100
AcDbXrecord
280
     1
270
     1
271
     1
  0
XRECORD
  5
14
102
{ACAD_REACTORS
330
12
102
}
330
12
100
AcDbXrecord
280
     1
270
     1
271
     1
  0
XRECORD
  5
13
102
{ACAD_REACTORS
330
12
102
}
330
12
100
AcDbXrecord
280
     1
270
     1
271
     1
  0
XRECORD
  5
17
102
{ACAD_REACTORS
330
12
102
}
330
12
100
AcDbXrecord
280
     1
270
     1
271
     1
  0
XRECORD
  5
16
102
{ACAD_REACTORS
330
12
102
}
330
12
100
AcDbXrecord
280
     1
270
     1
271
     1
  0
XRECORD
  5
18
102
{ACAD_REACTORS
330
12
102
}
330
12
100
AcDbXrecord
280
     1
270
     1
271
     1
  0
XRECORD
  5
15
102
{ACAD_REACTORS
330
12
102
}
330
12
100
AcDbXrecord
280
     1
270
     1
271
     1
  0
XRECORD
  5
24
102
{ACAD_REACTORS
330
22
102
}
330
22
100
AcDbXrecord
280
     1
270
     1
271
     1
  0
XRECORD
  5
23
102
{ACAD_REACTORS
330
22
102
}
330
22
100
AcDbXrecord
280
     1
270
     1
271
     1
  0
XRECORD
  5
27
102
{ACAD_REACTORS
330
22
102
}
330
22
100
AcDbXrecord
280
     1
270
     1
271
     1
  0
XRECORD
  5
26
102
{ACAD_REACTORS
330
22
102
}
330
22
100
AcDbXrecord
280
     1
270
     1
271
     1
  0
XRECORD
  5
28
102
{ACAD_REACTORS
330
22
102
}
330
22
100
AcDbXrecord
280
     1
270
     1
271
     1
  0
XRECORD
  5
25
102
{ACAD_REACTORS
330
22
102
}
330
22
100
AcDbXrecord
280
     1
270
     1
271
     1
  0
CELLSTYLEMAP
  5
184
102
{ACAD_REACTORS
330
183
102
}
330
183
100
AcDbCellStyleMap
 90
        3
300
CELLSTYLE
  1
TABLEFORMAT_BEGIN
 90
        5
170
     1
 91
        0
 92
    32768
 62
   257
 93
        1
300
CONTENTFORMAT
  1
CONTENTFORMAT_BEGIN
 90
        0
 91
        0
 92
      512
 93
        0
300

 40
0.0
140
1.0
 94
        5
 62
     0
340
55
144
0.25
309
CONTENTFORMAT_END
171
     0
 94
        0
309
TABLEFORMAT_END
  1
CELLSTYLE_BEGIN
 90
        1
 91
        1
300
_TITLE
309
CELLSTYLE_END
300
CELLSTYLE
  1
TABLEFORMAT_BEGIN
 90
        5
170
     1
 91
        0
 92
        0
 62
   257
 93
        1
300
CONTENTFORMAT
  1
CONTENTFORMAT_BEGIN
 90
        0
 91
        0
 92
      512
 93
        0
300

 40
0.0
140
1.0
 94
        5
 62
     0
340
55
144
0.18
309
CONTENTFORMAT_END
171
     0
 94
        0
309
TABLEFORMAT_END
  1
CELLSTYLE_BEGIN
 90
        2
 91
        1
300
_HEADER
309
CELLSTYLE_END
300
CELLSTYLE
  1
TABLEFORMAT_BEGIN
 90
        5
170
     1
 91
        0
 92
        0
 62
   257
 93
        1
300
CONTENTFORMAT
  1
CONTENTFORMAT_BEGIN
 90
        0
 91
        0
 92
      512
 93
        0
300

 40
0.0
140
1.0
 94
        2
 62
     0
340
55
144
0.18
309
CONTENTFORMAT_END
171
     0
 94
        0
309
TABLEFORMAT_END
  1
CELLSTYLE_BEGIN
 90
        3
 91
        2
300
_DATA
309
CELLSTYLE_END
  0
ENDSEC
  0
EOF
