  0
SECTION
  2
HEADER
  9
$ACADVER
  1
AC1032
  9
$ACADMAINTVER
 90
      251
  9
$DWGCODEPAGE
  3
ANSI_1252
  9
$REQUIREDVERSIONS
160
                 0
  9
$INSBASE
 10
0.0
 20
0.0
 30
0.0
  9
$EXTMIN
 10
1.000000000000000E+20
 20
1.000000000000000E+20
 30
1.000000000000000E+20
  9
$EXTMAX
 10
-1.000000000000000E+20
 20
-1.000000000000000E+20
 30
-1.000000000000000E+20
  9
$LIMMIN
 10
0.0
 20
0.0
  9
$LIMMAX
 10
12.0
 20
9.0
  9
$ORTHOMODE
 70
     0
  9
$REGENMODE
 70
     1
  9
$FILLMODE
 70
     1
  9
$QTEXTMODE
 70
     0
  9
$MIRRTEXT
 70
     0
  9
$LTSCALE
 40
1.0
  9
$ATTMODE
 70
     1
  9
$TEXTSIZE
 40
0.2
  9
$TRACEWID
 40
0.05
  9
$TEXTSTYLE
  7
Standard
  9
$CLAYER
  8
0
  9
$CELTYPE
  6
ByLayer
  9
$CECOLOR
 62
   256
  9
$CELTSCALE
 40
1.0
  9
$DISPSILH
 70
     0
  9
$DIMSCALE
 40
1.0
  9
$DIMASZ
 40
0.18
  9
$DIMEXO
 40
0.0625
  9
$DIMDLI
 40
0.38
  9
$DIMRND
 40
0.0
  9
$DIMDLE
 40
0.0
  9
$DIMEXE
 40
0.18
  9
$DIMTP
 40
0.0
  9
$DIMTM
 40
0.0
  9
$DIMTXT
 40
0.18
  9
$DIMCEN
 40
0.09
  9
$DIMTSZ
 40
0.0
  9
$DIMTOL
 70
     0
  9
$DIMLIM
 70
     0
  9
$DIMTIH
 70
     1
  9
$DIMTOH
 70
     1
  9
$DIMSE1
 70
     0
  9
$DIMSE2
 70
     0
  9
$DIMTAD
 70
     0
  9
$DIMZIN
 70
     0
  9
$DIMBLK
  1

  9
$DIMASO
 70
     1
  9
$DIMSHO
 70
     1
  9
$DIMPOST
  1

  9
$DIMAPOST
  1

  9
$DIMALT
 70
     0
  9
$DIMALTD
 70
     2
  9
$DIMALTF
 40
25.4
  9
$DIMLFAC
 40
1.0
  9
$DIMTOFL
 70
     0
  9
$DIMTVP
 40
0.0
  9
$DIMTIX
 70
     0
  9
$DIMSOXD
 70
     0
  9
$DIMSAH
 70
     0
  9
$DIMBLK1
  1

  9
$DIMBLK2
  1

  9
$DIMSTYLE
  2
Standard
  9
$DIMCLRD
 70
     0
  9
$DIMCLRE
 70
     0
  9
$DIMCLRT
 70
     0
  9
$DIMTFAC
 40
1.0
  9
$DIMGAP
 40
0.09
  9
$DIMJUST
 70
     0
  9
$DIMSD1
 70
     0
  9
$DIMSD2
 70
     0
  9
$DIMTOLJ
 70
     1
  9
$DIMTZIN
 70
     0
  9
$DIMALTZ
 70
     0
  9
$DIMALTTZ
 70
     0
  9
$DIMUPT
 70
     0
  9
$DIMDEC
 70
     4
  9
$DIMTDEC
 70
     4
  9
$DIMALTU
 70
     2
  9
$DIMALTTD
 70
     2
  9
$DIMTXSTY
  7
Standard
  9
$DIMAUNIT
 70
     0
  9
$DIMADEC
 70
     0
  9
$DIMALTRND
 40
0.0
  9
$DIMAZIN
 70
     0
  9
$DIMDSEP
 70
    46
  9
$DIMATFIT
 70
     3
  9
$DIMFRAC
 70
     0
  9
$DIMLDRBLK
  1

  9
$DIMLUNIT
 70
     2
  9
$DIMLWD
 70
    -2
  9
$DIMLWE
 70
    -2
  9
$DIMTMOVE
 70
     0
  9
$DIMFXL
 40
1.0
  9
$DIMFXLON
 70
     0
  9
$DIMJOGANG
 40
0.7853981633974483
  9
$DIMTFILL
 70
     0
  9
$DIMTFILLCLR
 70
     0
  9
$DIMARCSYM
 70
     0
  9
$DIMLTYPE
  6

  9
$DIMLTEX1
  6

  9
$DIMLTEX2
  6

  9
$DIMTXTDIRECTION
 70
     0
  9
$LUNITS
 70
     2
  9
$LUPREC
 70
     4
  9
$SKETCHINC
 40
0.1
  9
$FILLETRAD
 40
0.0
  9
$AUNITS
 70
     0
  9
$AUPREC
 70
     0
  9
$MENU
  1
.
  9
$ELEVATION
 40
0.0
  9
$PELEVATION
 40
0.0
  9
$THICKNESS
 40
0.0
  9
$LIMCHECK
 70
     0
  9
$CHAMFERA
 40
0.0
  9
$CHAMFERB
 40
0.0
  9
$CHAMFERC
 40
0.0
  9
$CHAMFERD
 40
0.0
  9
$SKPOLY
 70
     0
  9
$TDCREATE
 40
2460031.510567130
  9
$TDUCREATE
 40
2460031.427233796
  9
$TDUPDATE
 40
2460031.510567130
  9
$TDUUPDATE
 40
2460031.427233796
  9
$TDINDWG
 40
0.0000000000
  9
$TDUSRTIMER
 40
0.0000000000
  9
$USRTIMER
 70
     1
  9
$ANGBASE
 50
0.0
  9
$ANGDIR
 70
     0
  9
$PDMODE
 70
     0
  9
$PDSIZE
 40
0.0
  9
$PLINEWID
 40
0.0
  9
$SPLFRAME
 70
     0
  9
$SPLINETYPE
 70
     6
  9
$SPLINESEGS
 70
     8
  9
$HANDSEED
  5
17F
  9
$SURFTAB1
 70
     6
  9
$SURFTAB2
 70
     6
  9
$SURFTYPE
 70
     6
  9
$SURFU
 70
     6
  9
$SURFV
 70
     6
  9
$UCSBASE
  2

  9
$UCSNAME
  2

  9
$UCSORG
 10
0.0
 20
0.0
 30
0.0
  9
$UCSXDIR
 10
1.0
 20
0.0
 30
0.0
  9
$UCSYDIR
 10
0.0
 20
1.0
 30
0.0
  9
$UCSORTHOREF
  2

  9
$UCSORTHOVIEW
 70
     0
  9
$UCSORGTOP
 10
0.0
 20
0.0
 30
0.0
  9
$UCSORGBOTTOM
 10
0.0
 20
0.0
 30
0.0
  9
$UCSORGLEFT
 10
0.0
 20
0.0
 30
0.0
  9
$UCSORGRIGHT
 10
0.0
 20
0.0
 30
0.0
  9
$UCSORGFRONT
 10
0.0
 20
0.0
 30
0.0
  9
$UCSORGBACK
 10
0.0
 20
0.0
 30
0.0
  9
$PUCSBASE
  2

  9
$PUCSNAME
  2

  9
$PUCSORG
 10
0.0
 20
0.0
 30
0.0
  9
$PUCSXDIR
 10
1.0
 20
0.0
 30
0.0
  9
$PUCSYDIR
 10
0.0
 20
1.0
 30
0.0
  9
$PUCSORTHOREF
  2

  9
$PUCSORTHOVIEW
 70
     0
  9
$PUCSORGTOP
 10
0.0
 20
0.0
 30
0.0
  9
$PUCSORGBOTTOM
 10
0.0
 20
0.0
 30
0.0
  9
$PUCSORGLEFT
 10
0.0
 20
0.0
 30
0.0
  9
$PUCSORGRIGHT
 10
0.0
 20
0.0
 30
0.0
  9
$PUCSORGFRONT
 10
0.0
 20
0.0
 30
0.0
  9
$PUCSORGBACK
 10
0.0
 20
0.0
 30
0.0
  9
$USERI1
 70
     0
  9
$USERI2
 70
     0
  9
$USERI3
 70
     0
  9
$USERI4
 70
     0
  9
$USERI5
 70
     0
  9
$USERR1
 40
0.0
  9
$USERR2
 40
0.0
  9
$USERR3
 40
0.0
  9
$USERR4
 40
0.0
  9
$USERR5
 40
0.0
  9
$WORLDVIEW
 70
     1
  9
$SHADEDGE
 70
     3
  9
$SHADEDIF
 70
    70
  9
$TILEMODE
 70
     1
  9
$MAXACTVP
 70
    64
  9
$PINSBASE
 10
0.0
 20
0.0
 30
0.0
  9
$PLIMCHECK
 70
     0
  9
$PEXTMIN
 10
1.000000000000000E+20
 20
1.000000000000000E+20
 30
1.000000000000000E+20
  9
$PEXTMAX
 10
-1.000000000000000E+20
 20
-1.000000000000000E+20
 30
-1.000000000000000E+20
  9
$PLIMMIN
 10
0.0
 20
0.0
  9
$PLIMMAX
 10
12.0
 20
9.0
  9
$UNITMODE
 70
     0
  9
$VISRETAIN
 70
     1
  9
$PLINEGEN
 70
     0
  9
$PSLTSCALE
 70
     1
  9
$TREEDEPTH
 70
  3020
  9
$CMLSTYLE
  2
Standard
  9
$CMLJUST
 70
     0
  9
$CMLSCALE
 40
1.0
  9
$PROXYGRAPHICS
 70
     1
  9
$MEASUREMENT
 70
     0
  9
$CELWEIGHT
370
    -1
  9
$ENDCAPS
280
     0
  9
$JOINSTYLE
280
     0
  9
$LWDISPLAY
290
     1
  9
$INSUNITS
 70
     4
  9
$HYPERLINKBASE
  1

  9
$STYLESHEET
  1

  9
$XEDIT
290
     1
  9
$CEPSNTYPE
380
     0
  9
$PSTYLEMODE
290
     1
  9
$FINGERPRINTGUID
  2
{E0508CAC-1F51-5B4F-B52E-351B09072201}
  9
$VERSIONGUID
  2
{4A3F4AEB-5B20-2C42-A602-03066CA955F3}
  9
$EXTNAMES
290
     1
  9
$PSVPSCALE
 40
0.0
  9
$OLESTARTUP
290
     0
  9
$SORTENTS
280
   127
  9
$INDEXCTL
280
     0
  9
$HIDETEXT
280
     1
  9
$XCLIPFRAME
280
     2
  9
$HALOGAP
280
     0
  9
$OBSCOLOR
 70
   257
  9
$OBSLTYPE
280
     0
  9
$INTERSECTIONDISPLAY
280
     0
  9
$INTERSECTIONCOLOR
 70
   257
  9
$DIMASSOC
280
     2
  9
$PROJECTNAME
  1

  9
$CAMERADISPLAY
290
     0
  9
$LENSLENGTH
 40
50.0
  9
$CAMERAHEIGHT
 40
0.0
  9
$STEPSPERSEC
 40
2.0
  9
$STEPSIZE
 40
6.0
  9
$3DDWFPREC
 40
2.0
  9
$PSOLWIDTH
 40
0.25
  9
$PSOLHEIGHT
 40
4.0
  9
$LOFTANG1
 40
1.570796326794896
  9
$LOFTANG2
 40
1.570796326794896
  9
$LOFTMAG1
 40
0.0
  9
$LOFTMAG2
 40
0.0
  9
$LOFTPARAM
 70
     7
  9
$LOFTNORMALS
280
     1
  9
$LATITUDE
 40
37.795
  9
$LONGITUDE
 40
-122.394
  9
$NORTHDIRECTION
 40
0.0
  9
$TIMEZONE
 70
 -8000
  9
$LIGHTGLYPHDISPLAY
280
     1
  9
$TILEMODELIGHTSYNCH
280
     1
  9
$CMATERIAL
347
11
  9
$SOLIDHIST
280
     0
  9
$SHOWHIST
280
     1
  9
$DWFFRAME
280
     2
  9
$DGNFRAME
280
     0
  9
$REALWORLDSCALE
290
     1
  9
$INTERFERECOLOR
 62
     1
  9
$INTERFEREOBJVS
345
33
  9
$INTERFEREVPVS
346
30
  9
$CSHADOW
280
     0
  9
$SHADOWPLANELOCATION
 40
0.0
  0
ENDSEC
  0
SECTION
  2
CLASSES
  0
CLASS
  1
ACDBDICTIONARYWDFLT
  2
AcDbDictionaryWithDefault
  3
ObjectDBX Classes
 90
        0
 91
        1
280
     0
281
     0
  0
CLASS
  1
MATERIAL
  2
AcDbMaterial
  3
ObjectDBX Classes
 90
     1153
 91
        3
280
     0
281
     0
  0
CLASS
  1
VISUALSTYLE
  2
AcDbVisualStyle
  3
ObjectDBX Classes
 90
     4095
 91
       24
280
     0
281
     0
  0
CLASS
  1
SCALE
  2
AcDbScale
  3
ObjectDBX Classes
 90
     1153
 91
       17
280
     0
281
     0
  0
CLASS
  1
TABLESTYLE
  2
AcDbTableStyle
  3
ObjectDBX Classes
 90
     4095
 91
        1
280
     0
281
     0
  0
CLASS
  1
MLEADERSTYLE
  2
AcDbMLeaderStyle
  3
ACDB_MLEADERSTYLE_CLASS
 90
     4095
 91
        1
280
     0
281
     0
  0
CLASS
  1
ACDBSECTIONVIEWSTYLE
  2
AcDbSectionViewStyle
  3
ObjectDBX Classes
 90
     1025
 91
        1
280
     0
281
     0
  0
CLASS
  1
ACDBDETAILVIEWSTYLE
  2
AcDbDetailViewStyle
  3
ObjectDBX Classes
 90
     1025
 91
        1
280
     0
281
     0
  0
CLASS
  1
DICTIONARYVAR
  2
AcDbDictionaryVar
  3
ObjectDBX Classes
 90
        0
 91
        5
280
     0
281
     0
  0
CLASS
  1
CELLSTYLEMAP
  2
AcDbCellStyleMap
  3
ObjectDBX Classes
 90
     1152
 91
        1
280
     0
281
     0
  0
ENDSEC
  0
SECTION
  2
TABLES
  0
TABLE
  2
VPORT
  5
8
330
0
100
AcDbSymbolTable
 70
     1
  0
VPORT
  5
57
330
8
100
AcDbSymbolTableRecord
100
AcDbViewportTableRecord
  2
*Active
 70
     0
 10
0.0
 20
0.0
 11
1.0
 21
1.0
 12
0.0
 22
0.0
 13
0.0
 23
0.0
 14
1.0
 24
1.0
 15
0.0
 25
0.0
 16
0.0
 26
0.0
 36
1.0
 17
104.9999999737499
 27
-43.49999998912136
 37
0.0
 40
302.9399999242646
 41
0.7070707070707073
 42
50.0
 43
0.0
 44
0.0
 50
0.0
 51
0.0
 71
     0
 72
   100
 73
     1
 74
     1
 75
     0
 76
     0
 77
     0
 78
     0
281
     0
 65
     1
110
0.0
120
0.0
130
0.0
111
1.0
121
0.0
131
0.0
112
0.0
122
1.0
132
0.0
 79
     0
146
0.0
 60
     3
 61
     5
292
     1
282
     1
141
0.0
142
0.0
 63
   250
421
  3355443
  0
ENDTAB
  0
TABLE
  2
LTYPE
  5
5
330
0
100
AcDbSymbolTable
 70
     1
  0
LTYPE
  5
5B
330
5
100
AcDbSymbolTableRecord
100
AcDbLinetypeTableRecord
  2
ByBlock
 70
     0
  3

 72
    65
 73
     0
 40
0.0
  0
LTYPE
  5
5C
330
5
100
AcDbSymbolTableRecord
100
AcDbLinetypeTableRecord
  2
ByLayer
 70
     0
  3

 72
    65
 73
     0
 40
0.0
  0
LTYPE
  5
5D
330
5
100
AcDbSymbolTableRecord
100
AcDbLinetypeTableRecord
  2
Continuous
 70
     0
  3
Solid line
 72
    65
 73
     0
 40
0.0
  0
ENDTAB
  0
TABLE
  2
LAYER
  5
2
330
0
100
AcDbSymbolTable
 70
     1
  0
LAYER
  5
54
330
2
100
AcDbSymbolTableRecord
100
AcDbLayerTableRecord
  2
0
 70
     0
 62
     7
  6
Continuous
370
     0
390
F
347
21
348
0
  0
ENDTAB
  0
TABLE
  2
STYLE
  5
3
330
0
100
AcDbSymbolTable
 70
     2
  0
STYLE
  5
55
330
3
100
AcDbSymbolTableRecord
100
AcDbTextStyleTableRecord
  2
Standard
 70
     0
 40
0.0
 41
1.0
 50
0.0
 71
     0
 42
0.2
  3
txt
  4

  0
STYLE
  5
5A
330
3
100
AcDbSymbolTableRecord
100
AcDbTextStyleTableRecord
  2
Annotative
 70
     0
 40
0.0
 41
1.0
 50
0.0
 71
     0
 42
0.2
  3
txt
  4

1001
AcadAnnotative
1000
AnnotativeData
1002
{
1070
     1
1070
     1
1002
}
  0
ENDTAB
  0
TABLE
  2
VIEW
  5
6
330
0
100
AcDbSymbolTable
 70
     0
  0
ENDTAB
  0
TABLE
  2
UCS
  5
7
330
0
100
AcDbSymbolTable
 70
     0
  0
ENDTAB
  0
TABLE
  2
APPID
  5
9
330
0
100
AcDbSymbolTable
 70
     2
  0
APPID
  5
56
330
9
100
AcDbSymbolTableRecord
100
AcDbRegAppTableRecord
  2
ACAD
 70
     0
  0
APPID
  5
5E
330
9
100
AcDbSymbolTableRecord
100
AcDbRegAppTableRecord
  2
AcadAnnotative
 70
     0
  0
ENDTAB
  0
TABLE
  2
DIMSTYLE
  5
A
330
0
100
AcDbSymbolTable
 70
     2
100
AcDbDimStyleTable
 71
     0
  0
DIMSTYLE
105
58
330
A
100
AcDbSymbolTableRecord
100
AcDbDimStyleTableRecord
  2
Standard
 70
     0
340
55
  0
DIMSTYLE
105
59
330
A
100
AcDbSymbolTableRecord
100
AcDbDimStyleTableRecord
  2
Annotative
 70
     0
340
55
1001
AcadAnnotative
1000
AnnotativeData
1002
{
1070
     1
1070
     1
1002
}
  0
ENDTAB
  0
TABLE
  2
BLOCK_RECORD
  5
1
330
0
100
AcDbSymbolTable
 70
     6
  0
BLOCK_RECORD
  5
70
330
1
100
AcDbSymbolTableRecord
100
AcDbBlockTableRecord
  2
*Model_Space
340
73
 70
     0
280
     1
281
     0
  0
BLOCK_RECORD
  5
6C
330
1
100
AcDbSymbolTableRecord
100
AcDbBlockTableRecord
  2
*Paper_Space
340
6F
 70
     0
280
     1
281
     0
  0
BLOCK_RECORD
  5
74
330
1
100
AcDbSymbolTableRecord
100
AcDbBlockTableRecord
  2
*Paper_Space0
340
77
 70
     0
280
     1
281
     0
  0
BLOCK_RECORD
  5
A3
330
1
100
AcDbSymbolTableRecord
100
AcDbBlockTableRecord
  2
Block_0
340
0
102
{BLKREFS
331
A4
102
}
 70
     0
280
     1
281
     0
  0
BLOCK_RECORD
  5
AF
330
1
100
AcDbSymbolTableRecord
100
AcDbBlockTableRecord
  2
Block_1
340
0
102
{BLKREFS
331
B0
102
}
 70
     0
280
     1
281
     0
  0
BLOCK_RECORD
  5
106
330
1
100
AcDbSymbolTableRecord
100
AcDbBlockTableRecord
  2
Block_2
340
0
102
{BLKREFS
331
107
102
}
 70
     0
280
     1
281
     0
  0
BLOCK_RECORD
  5
112
330
1
100
AcDbSymbolTableRecord
100
AcDbBlockTableRecord
  2
Block_3
340
0
102
{BLKREFS
331
113
102
}
 70
     0
280
     1
281
     0
  0
BLOCK_RECORD
  5
13A
330
1
100
AcDbSymbolTableRecord
100
AcDbBlockTableRecord
  2
Block_4
340
0
102
{BLKREFS
331
13B
102
}
 70
     0
280
     1
281
     0
  0
ENDTAB
  0
ENDSEC
  0
SECTION
  2
BLOCKS
  0
BLOCK
  5
71
330
70
100
AcDbEntity
  8
0
100
AcDbBlockBegin
  2
*Model_Space
 70
     0
 10
0.0
 20
0.0
 30
0.0
  3
*Model_Space
  1

  0
ENDBLK
  5
72
330
70
100
AcDbEntity
  8
0
100
AcDbBlockEnd
  0
BLOCK
  5
6D
330
6C
100
AcDbEntity
 67
     1
  8
0
100
AcDbBlockBegin
  2
*Paper_Space
 70
     0
 10
0.0
 20
0.0
 30
0.0
  3
*Paper_Space
  1

  0
ENDBLK
  5
6E
330
6C
100
AcDbEntity
 67
     1
  8
0
100
AcDbBlockEnd
  0
BLOCK
  5
75
330
74
100
AcDbEntity
 67
     1
  8
0
100
AcDbBlockBegin
  2
*Paper_Space0
 70
     0
 10
0.0
 20
0.0
 30
0.0
  3
*Paper_Space0
  1

  0
ENDBLK
  5
76
330
74
100
AcDbEntity
 67
     1
  8
0
100
AcDbBlockEnd
  0
BLOCK
  5
A5
330
A3
100
AcDbEntity
  8
0
100
AcDbBlockBegin
  2
Block_0
 70
     0
 10
0.0
 20
0.0
 30
0.0
  3
Block_0
  1

  0
LWPOLYLINE
  5
A7
330
A3
100
AcDbEntity
  8
0
100
AcDbPolyline
 90
        4
 70
     1
 43
0.0
 10
83.88201270830514
 20
15.07199218719829
 10
83.57201270830509
 20
12.57199218719789
 10
84.19201270830518
 20
12.57199218719789
 10
84.19201270830518
 20
12.57199218719789
  0
HATCH
  5
A8
330
A3
100
AcDbEntity
  8
0
 62
     8
420
  8421504
440
 33554687
100
AcDbHatch
 10
0.0
 20
0.0
 30
0.0
210
0.0
220
0.0
230
1.0
  2
SOLID
 70
     1
 71
     1
 91
        1
 92
        1
 93
        3
 72
     1
 10
83.88201270830514
 20
15.07199218719829
 11
83.57201270830509
 21
12.57199218719789
 72
     1
 10
83.57201270830509
 20
12.57199218719789
 11
84.19201270830518
 21
12.57199218719789
 72
     1
 10
84.19201270830518
 20
12.57199218719789
 11
83.88201270830514
 21
15.07199218719829
 97
        1
330
A7
 75
     2
 76
     1
 98
        1
 10
0.0
 20
0.0
450
        0
451
        0
460
0.0
461
0.0
452
        0
462
0.0
453
        0
470

  0
LWPOLYLINE
  5
A9
330
A3
100
AcDbEntity
  8
0
100
AcDbPolyline
 90
        4
 70
     1
 43
0.0
 10
83.88201270830514
 20
-47.74458935800172
 10
84.19201270830518
 20
-45.24458935800196
 10
83.57201270830509
 20
-45.24458935800196
 10
83.57201270830509
 20
-45.24458935800196
  0
HATCH
  5
AA
330
A3
100
AcDbEntity
  8
0
 62
     8
420
  8421504
440
 33554687
100
AcDbHatch
 10
0.0
 20
0.0
 30
0.0
210
0.0
220
0.0
230
1.0
  2
SOLID
 70
     1
 71
     1
 91
        1
 92
        1
 93
        3
 72
     1
 10
83.88201270830514
 20
-47.74458935800172
 11
84.19201270830518
 21
-45.24458935800196
 72
     1
 10
84.19201270830518
 20
-45.24458935800196
 11
83.57201270830509
 21
-45.24458935800196
 72
     1
 10
83.57201270830509
 20
-45.24458935800196
 11
83.88201270830514
 21
-47.74458935800172
 97
        1
330
A9
 75
     2
 76
     1
 98
        1
 10
0.0
 20
0.0
450
        0
451
        0
460
0.0
461
0.0
452
        0
462
0.0
453
        0
470

  0
LINE
  5
AB
330
A3
100
AcDbEntity
  8
0
 62
     8
420
  8421504
370
    18
100
AcDbLine
 10
62.74528960370517
 20
15.07199218719829
 30
0.0
 11
84.88201270830517
 21
15.07199218719829
 31
0.0
  0
LINE
  5
AC
330
A3
100
AcDbEntity
  8
0
 62
     8
420
  8421504
370
    18
100
AcDbLine
 10
71.14528960370515
 20
-47.74458935800172
 30
0.0
 11
84.88201270830517
 21
-47.74458935800172
 31
0.0
  0
LINE
  5
AD
330
A3
100
AcDbEntity
  8
0
 62
     8
420
  8421504
370
    18
100
AcDbLine
 10
83.88201270830514
 20
15.07199218719829
 30
0.0
 11
83.88201270830514
 21
-47.74458935800172
 31
0.0
  0
MTEXT
  5
AE
330
A3
100
AcDbEntity
  8
0
100
AcDbMText
 10
83.19367300706863
 20
-18.98213161415754
 30
0.0
 40
0.2
 41
0.0
 46
0.0
 71
     7
 72
     1
  1
\C8;\c8421504;\FArial Bold|b1|i0|c1;\H2.997200;\W0.605000;314
 11
-0.000000000000007
 21
1.0
 31
0.0
 73
     1
 44
1.0
  0
ENDBLK
  5
A6
330
A3
100
AcDbEntity
  8
0
100
AcDbBlockEnd
  0
BLOCK
  5
B1
330
AF
100
AcDbEntity
  8
0
100
AcDbBlockBegin
  2
Block_1
 70
     0
 10
0.0
 20
0.0
 30
0.0
  3
Block_1
  1

  0
LWPOLYLINE
  5
B3
330
AF
100
AcDbEntity
  8
0
100
AcDbPolyline
 90
        4
 70
     1
 43
0.0
 10
70.74528960370513
 20
-59.9542596659018
 10
68.24528960370504
 20
-59.64425966590208
 10
68.24528960370504
 20
-60.26425966590216
 10
68.24528960370504
 20
-60.26425966590216
  0
HATCH
  5
B4
330
AF
100
AcDbEntity
  8
0
 62
     8
420
  8421504
440
 33554687
100
AcDbHatch
 10
0.0
 20
0.0
 30
0.0
210
0.0
220
0.0
230
1.0
  2
SOLID
 70
     1
 71
     1
 91
        1
 92
        1
 93
        3
 72
     1
 10
70.74528960370513
 20
-59.9542596659018
 11
68.24528960370504
 21
-59.64425966590208
 72
     1
 10
68.24528960370504
 20
-59.64425966590208
 11
68.24528960370504
 21
-60.26425966590216
 72
     1
 10
68.24528960370504
 20
-60.26425966590216
 11
70.74528960370513
 21
-59.9542596659018
 97
        1
330
B3
 75
     2
 76
     1
 98
        1
 10
0.0
 20
0.0
450
        0
451
        0
460
0.0
461
0.0
452
        0
462
0.0
453
        0
470

  0
LWPOLYLINE
  5
B5
330
AF
100
AcDbEntity
  8
0
100
AcDbPolyline
 90
        4
 70
     1
 43
0.0
 10
52.74528960370514
 20
-59.9542596659018
 10
55.24528960370523
 20
-60.26425966590216
 10
55.24528960370523
 20
-59.64425966590208
 10
55.24528960370523
 20
-59.64425966590208
  0
HATCH
  5
B6
330
AF
100
AcDbEntity
  8
0
 62
     8
420
  8421504
440
 33554687
100
AcDbHatch
 10
0.0
 20
0.0
 30
0.0
210
0.0
220
0.0
230
1.0
  2
SOLID
 70
     1
 71
     1
 91
        1
 92
        1
 93
        3
 72
     1
 10
52.74528960370514
 20
-59.9542596659018
 11
55.24528960370523
 21
-60.26425966590216
 72
     1
 10
55.24528960370523
 20
-60.26425966590216
 11
55.24528960370523
 21
-59.64425966590208
 72
     1
 10
55.24528960370523
 20
-59.64425966590208
 11
52.74528960370514
 21
-59.9542596659018
 97
        1
330
B5
 75
     2
 76
     1
 98
        1
 10
0.0
 20
0.0
450
        0
451
        0
460
0.0
461
0.0
452
        0
462
0.0
453
        0
470

  0
LINE
  5
B7
330
AF
100
AcDbEntity
  8
0
 62
     8
420
  8421504
370
    18
100
AcDbLine
 10
70.74528960370513
 20
-46.74458935800169
 30
0.0
 11
70.74528960370513
 21
-60.95425966590184
 31
0.0
  0
LINE
  5
B8
330
AF
100
AcDbEntity
  8
0
 62
     8
420
  8421504
370
    18
100
AcDbLine
 10
52.74528960370514
 20
-46.74458935800169
 30
0.0
 11
52.74528960370514
 21
-60.95425966590184
 31
0.0
  0
LINE
  5
B9
330
AF
100
AcDbEntity
  8
0
 62
     8
420
  8421504
370
    18
100
AcDbLine
 10
70.74528960370513
 20
-59.9542596659018
 30
0.0
 11
52.74528960370514
 21
-59.9542596659018
 31
0.0
  0
MTEXT
  5
BA
330
AF
100
AcDbEntity
  8
0
100
AcDbMText
 10
58.29523046943498
 20
-59.2659184201743
 30
0.0
 40
0.2
 41
0.0
 46
0.0
 71
     7
 72
     1
  1
\C8;\c8421504;\FMyriad Pro|b0|i0|c1;\H2.997200;\W0.605000;∅
 73
     1
 44
1.0
  0
MTEXT
  5
BB
330
AF
100
AcDbEntity
  8
0
100
AcDbMText
 10
61.667564461444
 20
-59.2659184201743
 30
0.0
 40
0.2
 41
0.0
 46
0.0
 71
     7
 72
     1
  1
\C8;\c8421504;\FArial Bold|b1|i0|c1;\H2.997200;\W0.605000;90
 73
     1
 44
1.0
  0
ENDBLK
  5
B2
330
AF
100
AcDbEntity
  8
0
100
AcDbBlockEnd
  0
BLOCK
  5
108
330
106
100
AcDbEntity
  8
0
100
AcDbBlockBegin
  2
Block_2
 70
     0
 10
0.0
 20
0.0
 30
0.0
  3
Block_2
  1

  0
LWPOLYLINE
  5
10A
330
106
100
AcDbEntity
  8
0
100
AcDbPolyline
 90
        4
 70
     1
 43
0.0
 10
138.9839268611051
 20
-47.74458935800172
 10
139.2939268611048
 20
-45.24458935800196
 10
138.6739268611054
 20
-45.24458935800196
 10
138.6739268611054
 20
-45.24458935800196
  0
HATCH
  5
10B
330
106
100
AcDbEntity
  8
0
 62
     8
420
  8421504
440
 33554687
100
AcDbHatch
 10
0.0
 20
0.0
 30
0.0
210
0.0
220
0.0
230
1.0
  2
SOLID
 70
     1
 71
     1
 91
        1
 92
        1
 93
        3
 72
     1
 10
138.9839268611051
 20
-47.74458935800172
 11
139.2939268611048
 21
-45.24458935800196
 72
     1
 10
139.2939268611048
 20
-45.24458935800196
 11
138.6739268611054
 21
-45.24458935800196
 72
     1
 10
138.6739268611054
 20
-45.24458935800196
 11
138.9839268611051
 21
-47.74458935800172
 97
        1
330
10A
 75
     2
 76
     1
 98
        1
 10
0.0
 20
0.0
450
        0
451
        0
460
0.0
461
0.0
452
        0
462
0.0
453
        0
470

  0
LWPOLYLINE
  5
10C
330
106
100
AcDbEntity
  8
0
100
AcDbPolyline
 90
        4
 70
     1
 43
0.0
 10
138.9839268611051
 20
35.27199218719837
 10
138.6739268611054
 20
32.77199218719796
 10
139.2939268611048
 20
32.77199218719796
 10
139.2939268611048
 20
32.77199218719796
  0
HATCH
  5
10D
330
106
100
AcDbEntity
  8
0
 62
     8
420
  8421504
440
 33554687
100
AcDbHatch
 10
0.0
 20
0.0
 30
0.0
210
0.0
220
0.0
230
1.0
  2
SOLID
 70
     1
 71
     1
 91
        1
 92
        1
 93
        3
 72
     1
 10
138.9839268611051
 20
35.27199218719837
 11
138.6739268611054
 21
32.77199218719796
 72
     1
 10
138.6739268611054
 20
32.77199218719796
 11
139.2939268611048
 21
32.77199218719796
 72
     1
 10
139.2939268611048
 20
32.77199218719796
 11
138.9839268611051
 21
35.27199218719837
 97
        1
330
10C
 75
     2
 76
     1
 98
        1
 10
0.0
 20
0.0
450
        0
451
        0
460
0.0
461
0.0
452
        0
462
0.0
453
        0
470

  0
LINE
  5
10E
330
106
100
AcDbEntity
  8
0
 62
     8
420
  8421504
370
    18
100
AcDbLine
 10
155.924268709505
 20
-47.74458935800172
 30
0.0
 11
137.9839268611051
 21
-47.74458935800172
 31
0.0
  0
LINE
  5
10F
330
106
100
AcDbEntity
  8
0
 62
     8
420
  8421504
370
    18
100
AcDbLine
 10
162.2142687095049
 20
35.27199218719837
 30
0.0
 11
137.9839268611051
 21
35.27199218719837
 31
0.0
  0
LINE
  5
110
330
106
100
AcDbEntity
  8
0
 62
     8
420
  8421504
370
    18
100
AcDbLine
 10
138.9839268611051
 20
-47.74458935800172
 30
0.0
 11
138.9839268611051
 21
35.27199218719837
 31
0.0
  0
MTEXT
  5
111
330
106
100
AcDbEntity
  8
0
100
AcDbMText
 10
138.2955852586661
 20
-8.88214518007113
 30
0.0
 40
0.2
 41
0.0
 46
0.0
 71
     7
 72
     1
  1
\C8;\c8421504;\FArial Bold|b1|i0|c1;\H2.997200;\W0.605000;415
 11
0.0000000000000001
 21
1.0
 31
0.0
 73
     1
 44
1.0
  0
ENDBLK
  5
109
330
106
100
AcDbEntity
  8
0
100
AcDbBlockEnd
  0
BLOCK
  5
114
330
112
100
AcDbEntity
  8
0
100
AcDbBlockBegin
  2
Block_3
 70
     0
 10
0.0
 20
0.0
 30
0.0
  3
Block_3
  1

  0
LWPOLYLINE
  5
116
330
112
100
AcDbEntity
  8
0
100
AcDbPolyline
 90
        4
 70
     1
 43
0.0
 10
146.1672554414049
 20
2.685410641998225
 10
146.4772554414053
 20
5.185410641997993
 10
145.8572554414052
 20
5.185410641997993
 10
145.8572554414052
 20
5.185410641997993
  0
HATCH
  5
117
330
112
100
AcDbEntity
  8
0
 62
     8
420
  8421504
440
 33554687
100
AcDbHatch
 10
0.0
 20
0.0
 30
0.0
210
0.0
220
0.0
230
1.0
  2
SOLID
 70
     1
 71
     1
 91
        1
 92
        1
 93
        3
 72
     1
 10
146.1672554414049
 20
2.685410641998225
 11
146.4772554414053
 21
5.185410641997993
 72
     1
 10
146.4772554414053
 20
5.185410641997993
 11
145.8572554414052
 21
5.185410641997993
 72
     1
 10
145.8572554414052
 20
5.185410641997993
 11
146.1672554414049
 21
2.685410641998225
 97
        1
330
116
 75
     2
 76
     1
 98
        1
 10
0.0
 20
0.0
450
        0
451
        0
460
0.0
461
0.0
452
        0
462
0.0
453
        0
470

  0
LWPOLYLINE
  5
118
330
112
100
AcDbEntity
  8
0
100
AcDbPolyline
 90
        4
 70
     1
 43
0.0
 10
146.1672554414049
 20
-8.314589358001521
 10
145.8572554414052
 20
-10.81458935800193
 10
146.4772554414053
 20
-10.81458935800193
 10
146.4772554414053
 20
-10.81458935800193
  0
HATCH
  5
119
330
112
100
AcDbEntity
  8
0
 62
     8
420
  8421504
440
 33554687
100
AcDbHatch
 10
0.0
 20
0.0
 30
0.0
210
0.0
220
0.0
230
1.0
  2
SOLID
 70
     1
 71
     1
 91
        1
 92
        1
 93
        3
 72
     1
 10
146.1672554414049
 20
-8.314589358001521
 11
145.8572554414052
 21
-10.81458935800193
 72
     1
 10
145.8572554414052
 20
-10.81458935800193
 11
146.4772554414053
 21
-10.81458935800193
 72
     1
 10
146.4772554414053
 20
-10.81458935800193
 11
146.1672554414049
 21
-8.314589358001521
 97
        1
330
118
 75
     2
 76
     1
 98
        1
 10
0.0
 20
0.0
450
        0
451
        0
460
0.0
461
0.0
452
        0
462
0.0
453
        0
470

  0
LINE
  5
11A
330
112
100
AcDbEntity
  8
0
 62
     8
420
  8421504
370
    18
100
AcDbLine
 10
151.5502687095053
 20
2.685410641998225
 30
0.0
 11
145.1672554414049
 21
2.685410641998225
 31
0.0
  0
LINE
  5
11B
330
112
100
AcDbEntity
  8
0
 62
     8
420
  8421504
370
    18
100
AcDbLine
 10
151.5502687095053
 20
-8.314589358001521
 30
0.0
 11
145.1672554414049
 21
-8.314589358001521
 31
0.0
  0
LINE
  5
11C
330
112
100
AcDbEntity
  8
0
 62
     8
420
  8421504
370
    18
100
AcDbLine
 10
146.1672554414049
 20
2.685410641998225
 30
0.0
 11
146.1672554414049
 21
5.685410641997689
 31
0.0
  0
LINE
  5
11D
330
112
100
AcDbEntity
  8
0
 62
     8
420
  8421504
370
    18
100
AcDbLine
 10
146.1672554414049
 20
2.685410641998225
 30
0.0
 11
146.1672554414049
 21
-8.314589358001521
 31
0.0
  0
LINE
  5
11E
330
112
100
AcDbEntity
  8
0
 62
     8
420
  8421504
370
    18
100
AcDbLine
 10
146.1672554414049
 20
-8.314589358001521
 30
0.0
 11
146.1672554414049
 21
-11.31458935800226
 31
0.0
  0
MTEXT
  5
11F
330
112
100
AcDbEntity
  8
0
100
AcDbMText
 10
145.4789134827286
 20
-6.26456163035777
 30
0.0
 40
0.2
 41
0.0
 46
0.0
 71
     7
 72
     1
  1
\C8;\c8421504;\FMyriad Pro|b0|i0|c1;\H2.997200;\W0.605000;∅
 11
-0.000000000000007
 21
1.0
 31
0.0
 73
     1
 44
1.0
  0
MTEXT
  5
120
330
112
100
AcDbEntity
  8
0
100
AcDbMText
 10
145.4789134827286
 20
-2.892502169395229
 30
0.0
 40
0.2
 41
0.0
 46
0.0
 71
     7
 72
     1
  1
\C8;\c8421504;\FArial Bold|b1|i0|c1;\H2.997200;\W0.605000;55
 11
-0.000000000000007
 21
1.0
 31
0.0
 73
     1
 44
1.0
  0
ENDBLK
  5
115
330
112
100
AcDbEntity
  8
0
100
AcDbBlockEnd
  0
BLOCK
  5
13C
330
13A
100
AcDbEntity
  8
0
100
AcDbBlockBegin
  2
Block_4
 70
     0
 10
0.0
 20
0.0
 30
0.0
  3
Block_4
  1

  0
LWPOLYLINE
  5
13E
330
13A
100
AcDbEntity
  8
0
100
AcDbPolyline
 90
        4
 70
     1
 43
0.0
 10
82.02236479420498
 20
-91.33772237920185
 10
81.71236479420526
 20
-93.83772237920162
 10
82.33236479420503
 20
-93.83772237920162
 10
82.33236479420503
 20
-93.83772237920162
  0
HATCH
  5
13F
330
13A
100
AcDbEntity
  8
0
 62
     8
420
  8421504
440
 33554687
100
AcDbHatch
 10
0.0
 20
0.0
 30
0.0
210
0.0
220
0.0
230
1.0
  2
SOLID
 70
     1
 71
     1
 91
        1
 92
        1
 93
        3
 72
     1
 10
82.02236479420498
 20
-91.33772237920185
 11
81.71236479420526
 21
-93.83772237920162
 72
     1
 10
81.71236479420526
 20
-93.83772237920162
 11
82.33236479420503
 21
-93.83772237920162
 72
     1
 10
82.33236479420503
 20
-93.83772237920162
 11
82.02236479420498
 21
-91.33772237920185
 97
        1
330
13E
 75
     2
 76
     1
 98
        1
 10
0.0
 20
0.0
450
        0
451
        0
460
0.0
461
0.0
452
        0
462
0.0
453
        0
470

  0
LWPOLYLINE
  5
140
330
13A
100
AcDbEntity
  8
0
100
AcDbPolyline
 90
        4
 70
     1
 43
0.0
 10
82.02236479420498
 20
-113.1266325090021
 10
82.33236479420503
 20
-110.6266325090017
 10
81.71236479420526
 20
-110.6266325090017
 10
81.71236479420526
 20
-110.6266325090017
  0
HATCH
  5
141
330
13A
100
AcDbEntity
  8
0
 62
     8
420
  8421504
440
 33554687
100
AcDbHatch
 10
0.0
 20
0.0
 30
0.0
210
0.0
220
0.0
230
1.0
  2
SOLID
 70
     1
 71
     1
 91
        1
 92
        1
 93
        3
 72
     1
 10
82.02236479420498
 20
-113.1266325090021
 11
82.33236479420503
 21
-110.6266325090017
 72
     1
 10
82.33236479420503
 20
-110.6266325090017
 11
81.71236479420526
 21
-110.6266325090017
 72
     1
 10
81.71236479420526
 20
-110.6266325090017
 11
82.02236479420498
 21
-113.1266325090021
 97
        1
330
140
 75
     2
 76
     1
 98
        1
 10
0.0
 20
0.0
450
        0
451
        0
460
0.0
461
0.0
452
        0
462
0.0
453
        0
470

  0
LINE
  5
142
330
13A
100
AcDbEntity
  8
0
 62
     8
420
  8421504
370
    18
100
AcDbLine
 10
68.24528960370504
 20
-91.33772237920185
 30
0.0
 11
83.02236479420502
 21
-91.33772237920185
 31
0.0
  0
LINE
  5
143
330
13A
100
AcDbEntity
  8
0
 62
     8
420
  8421504
370
    18
100
AcDbLine
 10
61.75281274740528
 20
-113.1266325090021
 30
0.0
 11
83.02236479420502
 21
-113.1266325090021
 31
0.0
  0
LINE
  5
144
330
13A
100
AcDbEntity
  8
0
 62
     8
420
  8421504
370
    18
100
AcDbLine
 10
82.02236479420498
 20
-91.33772237920185
 30
0.0
 11
82.02236479420498
 21
-113.1266325090021
 31
0.0
  0
MTEXT
  5
145
330
13A
100
AcDbEntity
  8
0
100
AcDbMText
 10
81.33402123005158
 20
-104.8776638192436
 30
0.0
 40
0.2
 41
0.0
 46
0.0
 71
     7
 72
     1
  1
\C8;\c8421504;\FArial Bold|b1|i0|c1;\H2.997200;\W0.605000;109
 11
-0.0000000000000079
 21
1.0
 31
0.0
 73
     1
 44
1.0
  0
ENDBLK
  5
13D
330
13A
100
AcDbEntity
  8
0
100
AcDbBlockEnd
  0
ENDSEC
  0
SECTION
  2
ENTITIES
  0
LINE
  5
78
330
70
100
AcDbEntity
  8
0
 62
    18
420
        0
370
    18
100
AcDbLine
 10
59.54528961570515
 20
35.07199159319809
 30
0.0
 11
59.54528961570515
 21
15.07199222649851
 31
0.0
  0
LINE
  5
79
330
70
100
AcDbEntity
  8
0
 62
    18
420
        0
370
    18
100
AcDbLine
 10
63.94528959180522
 20
15.07199222649851
 30
0.0
 11
63.94528959180522
 21
35.07199159319809
 31
0.0
  0
LINE
  5
7A
330
70
100
AcDbEntity
  8
0
 62
    18
420
        0
370
    18
100
AcDbLine
 10
70.78812781960502
 20
-47.34458902420207
 30
0.0
 11
70.76020006330503
 21
-45.7445917422017
 31
0.0
  0
LINE
  5
7B
330
70
100
AcDbEntity
  8
0
 62
    18
420
        0
370
    18
100
AcDbLine
 10
52.73037914420503
 20
-45.7445917422017
 30
0.0
 11
52.70245138790504
 21
-47.34458902420207
 31
0.0
  0
LINE
  5
7C
330
70
100
AcDbEntity
  8
0
 62
    18
420
        0
370
    18
100
AcDbLine
 10
53.3383077779052
 20
-47.34458902420207
 30
0.0
 11
53.34528971700515
 21
-47.74458983480143
 31
0.0
  0
LINE
  5
7D
330
70
100
AcDbEntity
  8
0
 62
    18
420
        0
370
    18
100
AcDbLine
 10
70.14528949050523
 20
-47.74458983480143
 30
0.0
 11
70.15227142960518
 21
-47.34458902420207
 31
0.0
  0
LINE
  5
7E
330
70
100
AcDbEntity
  8
0
 62
    18
420
        0
370
    18
100
AcDbLine
 10
70.76528955490527
 20
14.3754106476985
 30
0.0
 11
70.76173115760517
 21
14.78313219229846
 31
0.0
  0
LINE
  5
7F
330
70
100
AcDbEntity
  8
0
 62
    18
420
        0
370
    18
100
AcDbLine
 10
52.72884804990521
 20
14.78313219229846
 30
0.0
 11
52.72528965260511
 21
14.3754106476985
 31
0.0
  0
SPLINE
  5
80
330
70
100
AcDbEntity
  8
0
 62
    18
420
        0
370
    18
100
AcDbSpline
210
0.0
220
0.0
230
1.0
 70
     8
 71
     3
 72
     8
 73
     4
 74
     0
 42
0.0000000001
 43
0.0000000001
 40
0.0
 40
0.0
 40
0.0
 40
0.0
 40
1.0
 40
1.0
 40
1.0
 40
1.0
 10
70.76173147161803
 20
14.78313220469737
 30
0.0
 10
70.76079393506191
 20
14.89056325310761
 30
0.0
 10
70.67514797849186
 20
14.97806107604796
 30
0.0
 10
70.56776155896065
 20
14.98129620161212
 30
0.0
  0
SPLINE
  5
81
330
70
100
AcDbEntity
  8
0
 62
    18
420
        0
370
    18
100
AcDbSpline
210
0.0
220
0.0
230
1.0
 70
     8
 71
     3
 72
     8
 73
     4
 74
     0
 42
0.0000000001
 43
0.0000000001
 40
0.0
 40
0.0
 40
0.0
 40
0.0
 40
1.0
 40
1.0
 40
1.0
 40
1.0
 10
52.92281764854973
 20
14.98129620161276
 30
0.0
 10
52.81543122901851
 20
14.97806107604796
 30
0.0
 10
52.72978527244847
 20
14.89056325310761
 30
0.0
 10
52.72884773589235
 20
14.78313220469737
 30
0.0
  0
SPLINE
  5
82
330
70
100
AcDbEntity
  8
0
 62
    18
420
        0
370
    18
100
AcDbSpline
210
0.0
220
0.0
230
1.0
 70
     8
 71
     3
 72
     8
 73
     4
 74
     0
 42
0.0000000001
 43
0.0000000001
 40
0.0
 40
0.0
 40
0.0
 40
0.0
 40
1.0
 40
1.0
 40
1.0
 40
1.0
 10
58.94528960370504
 20
15.07199218719829
 30
0.0
 10
56.93745750374249
 20
15.07199218719829
 30
0.0
 10
54.92973923708106
 20
15.04175676423273
 30
0.0
 10
52.92281764867422
 20
14.98129620167116
 30
0.0
  0
SPLINE
  5
83
330
70
100
AcDbEntity
  8
0
 62
    18
420
        0
370
    18
100
AcDbSpline
210
0.0
220
0.0
230
1.0
 70
     8
 71
     3
 72
     8
 73
     4
 74
     0
 42
0.0000000001
 43
0.0000000001
 40
0.0
 40
0.0
 40
0.0
 40
0.0
 40
1.0
 40
1.0
 40
1.0
 40
1.0
 10
70.56776155873638
 20
14.98129620167116
 30
0.0
 10
68.56083997032922
 20
15.04175676423273
 30
0.0
 10
66.55312170366778
 20
15.07199218719829
 30
0.0
 10
64.54528960370524
 20
15.07199218719829
 30
0.0
  0
SPLINE
  5
84
330
70
100
AcDbEntity
  8
0
 62
    18
420
        0
370
    18
100
AcDbSpline
210
0.0
220
0.0
230
1.0
 70
     8
 71
     3
 72
     8
 73
     4
 74
     0
 42
0.0000000001
 43
0.0000000001
 40
0.0
 40
0.0
 40
0.0
 40
0.0
 40
1.0
 40
1.0
 40
1.0
 40
1.0
 10
70.16528960370518
 20
14.37541064199764
 30
0.0
 10
70.14319821371194
 20
14.37541064199764
 30
0.0
 10
70.12528960370506
 20
14.35750203199139
 30
0.0
 10
70.12528960370506
 20
14.33541064199815
 30
0.0
  0
SPLINE
  5
85
330
70
100
AcDbEntity
  8
0
 62
    18
420
        0
370
    18
100
AcDbSpline
210
0.0
220
0.0
230
1.0
 70
     8
 71
     3
 72
     8
 73
     4
 74
     0
 42
0.0000000001
 43
0.0000000001
 40
0.0
 40
0.0
 40
0.0
 40
0.0
 40
1.0
 40
1.0
 40
1.0
 40
1.0
 10
53.36528960370523
 20
14.33541064199815
 30
0.0
 10
53.36528960370523
 20
14.35750203199139
 30
0.0
 10
53.34738099369833
 20
14.37541064199764
 30
0.0
 10
53.3252896037051
 20
14.37541064199764
 30
0.0
  0
LWPOLYLINE
  5
86
330
70
100
AcDbEntity
  8
0
 62
    18
420
        0
370
    18
100
AcDbPolyline
 90
        3
 70
     0
 43
0.0
 10
70.1248272159052
 20
14.25541064199854
 10
70.12486148860523
 20
14.25591985459783
 10
70.12528989700514
 20
14.26900048059827
  0
LWPOLYLINE
  5
87
330
70
100
AcDbEntity
  8
0
 62
    18
420
        0
370
    18
100
AcDbPolyline
 90
        3
 70
     0
 43
0.0
 10
53.36528931050524
 20
14.26900048059827
 10
53.36571771890515
 20
14.25591985459783
 10
53.36575199150509
 20
14.25541064199854
  0
LINE
  5
88
330
70
100
AcDbEntity
  8
0
 62
    18
420
        0
370
    18
100
AcDbLine
 10
53.36528931050524
 20
14.33541063999798
 30
0.0
 11
53.36528931050524
 21
14.26900048059827
 31
0.0
  0
LINE
  5
89
330
70
100
AcDbEntity
  8
0
 62
    18
420
        0
370
    18
100
AcDbLine
 10
70.12528989700514
 20
14.26900048059827
 30
0.0
 11
70.12528989700514
 21
14.33541063999798
 31
0.0
  0
LINE
  5
8A
330
70
100
AcDbEntity
  8
0
 62
    18
420
        0
370
    18
100
AcDbLine
 10
52.74528924610519
 20
14.25541064199854
 30
0.0
 11
52.74528924610519
 21
-45.7445917422017
 31
0.0
  0
LINE
  5
8B
330
70
100
AcDbEntity
  8
0
 62
    18
420
        0
370
    18
100
AcDbLine
 10
70.74528996140519
 20
-45.7445917422017
 30
0.0
 11
70.74528996140519
 21
14.25541064199854
 31
0.0
  0
LINE
  5
8C
330
70
100
AcDbEntity
  8
0
 62
    18
420
        0
370
    18
100
AcDbLine
 10
63.95528957480505
 20
35.07199159319809
 30
0.0
 11
63.95528957480505
 21
35.17199179589767
 31
0.0
  0
LINE
  5
8D
330
70
100
AcDbEntity
  8
0
 62
    18
420
        0
370
    18
100
AcDbLine
 10
59.53528963260523
 20
35.17199179589767
 30
0.0
 11
59.53528963260523
 21
35.07199159319809
 31
0.0
  0
SPLINE
  5
8E
330
70
100
AcDbEntity
  8
0
 62
    18
420
        0
370
    18
100
AcDbSpline
210
0.0
220
0.0
230
1.0
 70
     8
 71
     3
 72
     8
 73
     4
 74
     0
 42
0.0000000001
 43
0.0000000001
 40
0.0
 40
0.0
 40
0.0
 40
0.0
 40
1.0
 40
1.0
 40
1.0
 40
1.0
 10
59.63528960370503
 20
35.27199218719837
 30
0.0
 10
59.58006112872194
 20
35.27199218719837
 30
0.0
 10
59.53528960370503
 20
35.22722066218082
 30
0.0
 10
59.53528960370503
 20
35.17199218719805
 30
0.0
  0
SPLINE
  5
8F
330
70
100
AcDbEntity
  8
0
 62
    18
420
        0
370
    18
100
AcDbSpline
210
0.0
220
0.0
230
1.0
 70
     8
 71
     3
 72
     8
 73
     4
 74
     0
 42
0.0000000001
 43
0.0000000001
 40
0.0
 40
0.0
 40
0.0
 40
0.0
 40
1.0
 40
1.0
 40
1.0
 40
1.0
 10
63.95528960370524
 20
35.17199218719805
 30
0.0
 10
63.95528960370524
 20
35.22722066218082
 30
0.0
 10
63.91051807868834
 20
35.27199218719837
 30
0.0
 10
63.85528960370525
 20
35.27199218719837
 30
0.0
  0
LINE
  5
90
330
70
100
AcDbEntity
  8
0
 62
    18
420
        0
370
    18
100
AcDbLine
 10
70.76020006330503
 20
-45.7445917422017
 30
0.0
 11
52.73037914420503
 21
-45.7445917422017
 31
0.0
  0
LINE
  5
91
330
70
100
AcDbEntity
  8
0
 62
    18
420
        0
370
    18
100
AcDbLine
 10
70.78812781960502
 20
-47.34458902420207
 30
0.0
 11
52.70245138790504
 21
-47.34458902420207
 31
0.0
  0
LINE
  5
92
330
70
100
AcDbEntity
  8
0
 62
    18
420
        0
370
    18
100
AcDbLine
 10
53.365278879705
 20
-47.74458983480143
 30
0.0
 11
53.34528971700515
 21
-47.74458983480143
 31
0.0
  0
LINE
  5
93
330
70
100
AcDbEntity
  8
0
 62
    18
420
        0
370
    18
100
AcDbLine
 10
70.14528949050523
 20
-47.74458983480143
 30
0.0
 11
53.365278879705
 21
-47.74458983480143
 31
0.0
  0
LINE
  5
94
330
70
100
AcDbEntity
  8
0
 62
    18
420
        0
370
    18
100
AcDbLine
 10
52.72528965260511
 20
14.3754106476985
 30
0.0
 11
70.76528955490527
 21
14.3754106476985
 31
0.0
  0
LINE
  5
95
330
70
100
AcDbEntity
  8
0
 62
    18
420
        0
370
    18
100
AcDbLine
 10
58.94528951730507
 20
15.07199222649851
 30
0.0
 11
64.54528969020498
 21
15.07199222649851
 31
0.0
  0
LINE
  5
96
330
70
100
AcDbEntity
  8
0
 62
    18
420
        0
370
    18
100
AcDbLine
 10
52.74528924610519
 20
14.25541064199854
 30
0.0
 11
70.74528996140519
 21
14.25541064199854
 31
0.0
  0
LINE
  5
97
330
70
100
AcDbEntity
  8
0
 62
    18
420
        0
370
    18
100
AcDbLine
 10
63.22778908770499
 20
35.07199159319809
 30
0.0
 11
59.53528963260523
 21
35.07199159319809
 31
0.0
  0
LINE
  5
98
330
70
100
AcDbEntity
  8
0
 62
    18
420
        0
370
    18
100
AcDbLine
 10
63.95528957480505
 20
35.07199159319809
 30
0.0
 11
63.22778908770499
 21
35.07199159319809
 31
0.0
  0
LINE
  5
99
330
70
100
AcDbEntity
  8
0
 62
    18
420
        0
370
    18
100
AcDbLine
 10
59.63528964900514
 20
35.27199199849778
 30
0.0
 11
63.85528955840515
 21
35.27199199849778
 31
0.0
  0
LINE
  5
9A
330
70
100
AcDbEntity
  8
0
 62
     8
420
  8421504
370
    18
100
AcDbLine
 10
70.76173115760517
 20
14.78313219229846
 30
0.0
 11
52.72884804990521
 21
14.78313219229846
 31
0.0
  0
LINE
  5
9B
330
70
100
AcDbEntity
  8
0
 62
     8
420
  8421504
370
    18
100
AcDbLine
 10
61.36687130900526
 20
14.98129621579816
 30
0.0
 11
70.56776125220508
 21
14.98129621579816
 31
0.0
  0
LINE
  5
9C
330
70
100
AcDbEntity
  8
0
 62
     8
420
  8421504
370
    18
100
AcDbLine
 10
52.92281795530498
 20
14.98129621579816
 30
0.0
 11
61.36687130900526
 21
14.98129621579816
 31
0.0
  0
LINE
  5
9D
330
70
100
AcDbEntity
  8
0
 62
     8
420
  8421504
370
    18
100
AcDbLine
 10
61.38585005660524
 20
14.33541063999798
 30
0.0
 11
53.36528931050524
 21
14.33541063999798
 31
0.0
  0
LINE
  5
9E
330
70
100
AcDbEntity
  8
0
 62
     8
420
  8421504
370
    18
100
AcDbLine
 10
70.12528989700514
 20
14.33541063999798
 30
0.0
 11
61.38585005660524
 21
14.33541063999798
 31
0.0
  0
LINE
  5
9F
330
70
100
AcDbEntity
  8
0
 62
     8
420
  8421504
370
    18
100
AcDbLine
 10
61.38585005660524
 20
14.26900048059827
 30
0.0
 11
70.12528989700514
 21
14.26900048059827
 31
0.0
  0
LINE
  5
A0
330
70
100
AcDbEntity
  8
0
 62
     8
420
  8421504
370
    18
100
AcDbLine
 10
53.36528931050524
 20
14.26900048059827
 30
0.0
 11
61.38585005660524
 21
14.26900048059827
 31
0.0
  0
LINE
  5
A1
330
70
100
AcDbEntity
  8
0
 62
     8
420
  8421504
370
    18
100
AcDbLine
 10
63.95528957480505
 20
35.17199179589767
 30
0.0
 11
59.53528963260523
 21
35.17199179589767
 31
0.0
  0
LINE
  5
A2
330
70
100
AcDbEntity
  8
0
 62
     8
420
  8421504
370
    18
100
AcDbLine
 10
61.74528960370514
 20
15.07199218719829
 30
0.0
 11
61.74528960370514
 21
15.07199218719829
 31
0.0
  0
INSERT
  5
A4
330
70
100
AcDbEntity
  8
0
100
AcDbBlockReference
  2
Block_0
 10
0.0
 20
0.0
 30
0.0
  0
INSERT
  5
B0
330
70
100
AcDbEntity
  8
0
100
AcDbBlockReference
  2
Block_1
 10
0.0
 20
0.0
 30
0.0
  0
LINE
  5
BC
330
70
100
AcDbEntity
  8
0
 62
    18
420
        0
370
    18
100
AcDbLine
 10
163.1242687214049
 20
35.07199159319809
 30
0.0
 11
163.1242687214049
 21
15.07199222649851
 31
0.0
  0
LINE
  5
BD
330
70
100
AcDbEntity
  8
0
 62
    18
420
        0
370
    18
100
AcDbLine
 10
167.5242686976051
 20
15.07199222649851
 30
0.0
 11
167.5242686976051
 21
35.07199159319809
 31
0.0
  0
LINE
  5
BE
330
70
100
AcDbEntity
  8
0
 62
    18
420
        0
370
    18
100
AcDbLine
 10
153.4222388971053
 20
2.68541073849821
 30
0.0
 11
152.5502691377054
 21
2.68541073849821
 31
0.0
  0
LINE
  5
BF
330
70
100
AcDbEntity
  8
0
 62
    18
420
        0
370
    18
100
AcDbLine
 10
152.5502691377054
 20
-8.314589946901563
 30
0.0
 11
153.4222388971053
 21
-8.314589946901563
 31
0.0
  0
SPLINE
  5
C0
330
70
100
AcDbEntity
  8
0
 62
    18
420
        0
370
    18
100
AcDbSpline
210
0.0
220
0.0
230
1.0
 70
     8
 71
     3
 72
     8
 73
     4
 74
     0
 42
0.0000000001
 43
0.0000000001
 40
0.0
 40
0.0
 40
0.0
 40
0.0
 40
1.0
 40
1.0
 40
1.0
 40
1.0
 10
153.4222387005054
 20
-8.314589358001521
 30
0.0
 10
153.5285683106602
 20
-8.314589358001521
 30
0.0
 10
153.6163097115322
 20
-8.231390165680675
 30
0.0
 10
153.6219564743965
 20
-8.125210600486701
 30
0.0
  0
SPLINE
  5
C1
330
70
100
AcDbEntity
  8
0
 62
    18
420
        0
370
    18
100
AcDbSpline
210
0.0
220
0.0
230
1.0
 70
     8
 71
     3
 72
     8
 73
     4
 74
     0
 42
0.0000000001
 43
0.0000000001
 40
0.0
 40
0.0
 40
0.0
 40
0.0
 40
1.0
 40
1.0
 40
1.0
 40
1.0
 10
153.6219564743965
 20
2.496031884483405
 30
0.0
 10
153.6163097115322
 20
2.602211449677379
 30
0.0
 10
153.5285683106596
 20
2.685410641998225
 30
0.0
 10
153.4222387005054
 20
2.685410641998225
 30
0.0
  0
SPLINE
  5
C2
330
70
100
AcDbEntity
  8
0
 62
    18
420
        0
370
    18
100
AcDbSpline
210
0.0
220
0.0
230
1.0
 70
     8
 71
     3
 72
     8
 73
     4
 74
     0
 42
0.0000000001
 43
0.0000000001
 40
0.0
 40
0.0
 40
0.0
 40
0.0
 40
1.0
 40
1.0
 40
1.0
 40
1.0
 10
153.6219564744331
 20
-8.125210600400071
 30
0.0
 10
153.68768707839
 20
-6.889237509919122
 30
0.0
 10
153.7304651947096
 20
-5.652150594201222
 30
0.0
 10
153.7502687095009
 20
-4.414589357941384
 30
0.0
  0
SPLINE
  5
C3
330
70
100
AcDbEntity
  8
0
 62
    18
420
        0
370
    18
100
AcDbSpline
210
0.0
220
0.0
230
1.0
 70
     8
 71
     3
 72
     8
 73
     4
 74
     0
 42
0.0000000001
 43
0.0000000001
 40
0.0
 40
0.0
 40
0.0
 40
0.0
 40
1.0
 40
1.0
 40
1.0
 40
1.0
 10
153.7502687095009
 20
-1.214589358062552
 30
0.0
 10
153.7304651947096
 20
0.0229718781966434
 30
0.0
 10
153.68768707839
 20
1.260058793915185
 30
0.0
 10
153.6219564744331
 20
2.496031884396776
 30
0.0
  0
LINE
  5
C4
330
70
100
AcDbEntity
  8
0
 62
    18
420
        0
370
    18
100
AcDbLine
 10
156.0069049109051
 20
-4.394845455301839
 30
0.0
 11
156.0069049109051
 21
-5.31458982770201
 31
0.0
  0
LINE
  5
C5
330
70
100
AcDbEntity
  8
0
 62
    18
420
        0
370
    18
100
AcDbLine
 10
156.0069049109051
 20
-0.3145886356021279
 30
0.0
 11
156.0069049109051
 21
-1.218190580001506
 31
0.0
  0
LINE
  5
C6
330
70
100
AcDbEntity
  8
0
 62
    18
420
        0
370
    18
100
AcDbLine
 10
156.3123459328051
 20
-0.3145886356021279
 30
0.0
 11
156.0121903527052
 21
-0.3145886356021279
 31
0.0
  0
LINE
  5
C7
330
70
100
AcDbEntity
  8
0
 62
    18
420
        0
370
    18
100
AcDbLine
 10
156.0121903527052
 20
-5.31458982770201
 30
0.0
 11
156.3123459328051
 21
-5.31458982770201
 31
0.0
  0
LINE
  5
C8
330
70
100
AcDbEntity
  8
0
 62
    18
420
        0
370
    18
100
AcDbLine
 10
153.7502685893049
 20
-4.41458949390201
 30
0.0
 11
156.0103694308051
 21
-4.41458949390201
 31
0.0
  0
LINE
  5
C9
330
70
100
AcDbEntity
  8
0
 62
    18
420
        0
370
    18
100
AcDbLine
 10
156.0075158585054
 20
-1.214588969401486
 30
0.0
 11
153.7502685893049
 21
-1.214588969401486
 31
0.0
  0
LINE
  5
CA
330
70
100
AcDbEntity
  8
0
 62
    18
420
        0
370
    18
100
AcDbLine
 10
174.3671069253051
 20
-47.34458902420207
 30
0.0
 11
174.3391791690048
 21
-45.7445917422017
 31
0.0
  0
LINE
  5
CB
330
70
100
AcDbEntity
  8
0
 62
    18
420
        0
370
    18
100
AcDbLine
 10
156.3093582500053
 20
-45.7445917422017
 30
0.0
 11
156.2814304936048
 21
-47.34458902420207
 31
0.0
  0
LINE
  5
CC
330
70
100
AcDbEntity
  8
0
 62
    18
420
        0
370
    18
100
AcDbLine
 10
156.917286883605
 20
-47.34458902420207
 30
0.0
 11
156.9242688227053
 21
-47.74458983480143
 31
0.0
  0
LINE
  5
CD
330
70
100
AcDbEntity
  8
0
 62
    18
420
        0
370
    18
100
AcDbLine
 10
173.7242685962054
 20
-47.74458983480143
 30
0.0
 11
173.731250535305
 21
-47.34458902420207
 31
0.0
  0
LINE
  5
CE
330
70
100
AcDbEntity
  8
0
 62
    18
420
        0
370
    18
100
AcDbLine
 10
174.3442686606051
 20
14.3754106476985
 30
0.0
 11
174.340710263305
 21
14.78313219229846
 31
0.0
  0
LINE
  5
CF
330
70
100
AcDbEntity
  8
0
 62
    18
420
        0
370
    18
100
AcDbLine
 10
156.307827155605
 20
14.78313219229846
 30
0.0
 11
156.304268758405
 21
14.3754106476985
 31
0.0
  0
SPLINE
  5
D0
330
70
100
AcDbEntity
  8
0
 62
    18
420
        0
370
    18
100
AcDbSpline
210
0.0
220
0.0
230
1.0
 70
     8
 71
     3
 72
     8
 73
     4
 74
     0
 42
0.0000000001
 43
0.0000000001
 40
0.0
 40
0.0
 40
0.0
 40
0.0
 40
1.0
 40
1.0
 40
1.0
 40
1.0
 10
174.3407105773178
 20
14.78313220469737
 30
0.0
 10
174.339773040762
 20
14.89056325310761
 30
0.0
 10
174.2541270841917
 20
14.97806107604796
 30
0.0
 10
174.1467406646604
 20
14.98129620161276
 30
0.0
  0
SPLINE
  5
D1
330
70
100
AcDbEntity
  8
0
 62
    18
420
        0
370
    18
100
AcDbSpline
210
0.0
220
0.0
230
1.0
 70
     8
 71
     3
 72
     8
 73
     4
 74
     0
 42
0.0000000001
 43
0.0000000001
 40
0.0
 40
0.0
 40
0.0
 40
0.0
 40
1.0
 40
1.0
 40
1.0
 40
1.0
 10
156.5017967543496
 20
14.98129620161276
 30
0.0
 10
156.3944103348184
 20
14.97806107604796
 30
0.0
 10
156.3087643782487
 20
14.89056325310761
 30
0.0
 10
156.3078268416923
 20
14.78313220469737
 30
0.0
  0
SPLINE
  5
D2
330
70
100
AcDbEntity
  8
0
 62
    18
420
        0
370
    18
100
AcDbSpline
210
0.0
220
0.0
230
1.0
 70
     8
 71
     3
 72
     8
 73
     4
 74
     0
 42
0.0000000001
 43
0.0000000001
 40
0.0
 40
0.0
 40
0.0
 40
0.0
 40
1.0
 40
1.0
 40
1.0
 40
1.0
 10
162.5242687095053
 20
15.07199218719829
 30
0.0
 10
160.5164366095424
 20
15.07199218719829
 30
0.0
 10
158.5087183428809
 20
15.04175676423273
 30
0.0
 10
156.5017967544741
 20
14.98129620167116
 30
0.0
  0
SPLINE
  5
D3
330
70
100
AcDbEntity
  8
0
 62
    18
420
        0
370
    18
100
AcDbSpline
210
0.0
220
0.0
230
1.0
 70
     8
 71
     3
 72
     8
 73
     4
 74
     0
 42
0.0000000001
 43
0.0000000001
 40
0.0
 40
0.0
 40
0.0
 40
0.0
 40
1.0
 40
1.0
 40
1.0
 40
1.0
 10
174.1467406645359
 20
14.98129620167116
 30
0.0
 10
172.1398190761291
 20
15.04175676423273
 30
0.0
 10
170.1321008094677
 20
15.07199218719829
 30
0.0
 10
168.1242687095048
 20
15.07199218719829
 30
0.0
  0
SPLINE
  5
D4
330
70
100
AcDbEntity
  8
0
 62
    18
420
        0
370
    18
100
AcDbSpline
210
0.0
220
0.0
230
1.0
 70
     8
 71
     3
 72
     8
 73
     4
 74
     0
 42
0.0000000001
 43
0.0000000001
 40
0.0
 40
0.0
 40
0.0
 40
0.0
 40
1.0
 40
1.0
 40
1.0
 40
1.0
 10
173.7442687095051
 20
14.37541064199828
 30
0.0
 10
173.7221773195118
 20
14.37541064199828
 30
0.0
 10
173.7042687095049
 20
14.35750203199139
 30
0.0
 10
173.7042687095049
 20
14.33541064199815
 30
0.0
  0
SPLINE
  5
D5
330
70
100
AcDbEntity
  8
0
 62
    18
420
        0
370
    18
100
AcDbSpline
210
0.0
220
0.0
230
1.0
 70
     8
 71
     3
 72
     8
 73
     4
 74
     0
 42
0.0000000001
 43
0.0000000001
 40
0.0
 40
0.0
 40
0.0
 40
0.0
 40
1.0
 40
1.0
 40
1.0
 40
1.0
 10
156.9442687095051
 20
14.33541064199815
 30
0.0
 10
156.9442687095051
 20
14.35750203199139
 30
0.0
 10
156.9263600994982
 20
14.37541064199764
 30
0.0
 10
156.904268709505
 20
14.37541064199764
 30
0.0
  0
LWPOLYLINE
  5
D6
330
70
100
AcDbEntity
  8
0
 62
    18
420
        0
370
    18
100
AcDbPolyline
 90
        3
 70
     0
 43
0.0
 10
173.7038063217051
 20
14.25541064199854
 10
173.7038405943053
 20
14.25591985459783
 10
173.7042690027049
 20
14.26900048059827
  0
LWPOLYLINE
  5
D7
330
70
100
AcDbEntity
  8
0
 62
    18
420
        0
370
    18
100
AcDbPolyline
 90
        3
 70
     0
 43
0.0
 10
156.944268416205
 20
14.26900048059827
 10
156.9446968246053
 20
14.25591985459783
 10
156.944731097305
 20
14.25541064199854
  0
LINE
  5
D8
330
70
100
AcDbEntity
  8
0
 62
    18
420
        0
370
    18
100
AcDbLine
 10
156.944268416205
 20
14.33541063999798
 30
0.0
 11
156.944268416205
 21
14.26900048059827
 31
0.0
  0
LINE
  5
D9
330
70
100
AcDbEntity
  8
0
 62
    18
420
        0
370
    18
100
AcDbLine
 10
173.7042690027049
 20
14.26900048059827
 30
0.0
 11
173.7042690027049
 21
14.33541063999798
 31
0.0
  0
LINE
  5
DA
330
70
100
AcDbEntity
  8
0
 62
    18
420
        0
370
    18
100
AcDbLine
 10
156.3242683518053
 20
-5.235878914001736
 30
0.0
 11
156.3242683518053
 21
-45.7445917422017
 31
0.0
  0
LINE
  5
DB
330
70
100
AcDbEntity
  8
0
 62
    18
420
        0
370
    18
100
AcDbLine
 10
156.3242683518053
 20
14.25541064199854
 30
0.0
 11
156.3242683518053
 21
-0.3930089766019526
 31
0.0
  0
LINE
  5
DC
330
70
100
AcDbEntity
  8
0
 62
    18
420
        0
370
    18
100
AcDbLine
 10
174.3242690671053
 20
-45.7445917422017
 30
0.0
 11
174.3242690671053
 21
14.25541064199854
 31
0.0
  0
LINE
  5
DD
330
70
100
AcDbEntity
  8
0
 62
    18
420
        0
370
    18
100
AcDbLine
 10
167.5342686806053
 20
35.07199159319809
 30
0.0
 11
167.5342686806053
 21
35.17199179589767
 31
0.0
  0
LINE
  5
DE
330
70
100
AcDbEntity
  8
0
 62
    18
420
        0
370
    18
100
AcDbLine
 10
163.1142687384055
 20
35.17199179589767
 30
0.0
 11
163.1142687384055
 21
35.07199159319809
 31
0.0
  0
SPLINE
  5
DF
330
70
100
AcDbEntity
  8
0
 62
    18
420
        0
370
    18
100
AcDbSpline
210
0.0
220
0.0
230
1.0
 70
     8
 71
     3
 72
     8
 73
     4
 74
     0
 42
0.0000000001
 43
0.0000000001
 40
0.0
 40
0.0
 40
0.0
 40
0.0
 40
1.0
 40
1.0
 40
1.0
 40
1.0
 10
163.2142687095049
 20
35.27199218719837
 30
0.0
 10
163.1590402345222
 20
35.27199218719837
 30
0.0
 10
163.1142687095052
 20
35.22722066218082
 30
0.0
 10
163.1142687095052
 20
35.17199218719805
 30
0.0
  0
SPLINE
  5
E0
330
70
100
AcDbEntity
  8
0
 62
    18
420
        0
370
    18
100
AcDbSpline
210
0.0
220
0.0
230
1.0
 70
     8
 71
     3
 72
     8
 73
     4
 74
     0
 42
0.0000000001
 43
0.0000000001
 40
0.0
 40
0.0
 40
0.0
 40
0.0
 40
1.0
 40
1.0
 40
1.0
 40
1.0
 10
167.5342687095048
 20
35.17199218719805
 30
0.0
 10
167.5342687095048
 20
35.22722066218082
 30
0.0
 10
167.4894971844879
 20
35.27199218719837
 30
0.0
 10
167.4342687095052
 20
35.27199218719837
 30
0.0
  0
LINE
  5
E1
330
70
100
AcDbEntity
  8
0
 62
    18
420
        0
370
    18
100
AcDbLine
 10
152.5502691377054
 20
2.68541073849821
 30
0.0
 11
152.5502691377054
 21
-8.314589946901563
 31
0.0
  0
LINE
  5
E2
330
70
100
AcDbEntity
  8
0
 62
    18
420
        0
370
    18
100
AcDbLine
 10
153.7502685893049
 20
-1.214588969401486
 30
0.0
 11
153.7502685893049
 21
-4.41458949390201
 31
0.0
  0
LINE
  5
E3
330
70
100
AcDbEntity
  8
0
 62
    18
420
        0
370
    18
100
AcDbLine
 10
156.231940012005
 20
-2.314589708501816
 30
0.0
 11
156.231940012005
 21
-3.314588754802322
 31
0.0
  0
SPLINE
  5
E4
330
70
100
AcDbEntity
  8
0
 62
    18
420
        0
370
    18
100
AcDbSpline
210
0.0
220
0.0
230
1.0
 70
     8
 71
     3
 72
    20
 73
    16
 74
     0
 42
0.0000000001
 43
0.0000000001
 40
0.0
 40
0.0
 40
0.0
 40
0.0
 40
1.0
 40
1.0
 40
1.0
 40
2.0
 40
2.0
 40
2.0
 40
3.0
 40
3.0
 40
3.0
 40
4.0
 40
4.0
 40
4.0
 40
5.0
 40
5.0
 40
5.0
 40
5.0
 10
156.2319400120377
 20
-3.314588754813872
 30
0.0
 10
156.2269096256374
 20
-3.536255271704638
 30
0.0
 10
156.2218792392365
 20
-3.757921788595404
 30
0.0
 10
156.2077002931234
 20
-3.967276006382038
 30
0.0
 10
156.1935299667783
 20
-4.176502952031199
 30
0.0
 10
156.1702222006575
 20
-4.373432563989895
 30
0.0
 10
156.1459275293948
 20
-4.546221881549723
 30
0.0
 10
156.1212524833749
 20
-4.721716512301255
 30
0.0
 10
156.0955593869048
 20
-4.872309015633183
 30
0.0
 10
156.0722017992141
 20
-4.996529012363597
 30
0.0
 10
156.0485954575114
 20
-5.122071929204937
 30
0.0
 10
156.0273746349563
 20
-5.22067762362608
 30
0.0
 10
156.01860604769
 20
-5.261255591552927
 30
0.0
 10
156.0126709193954
 20
-5.288721298199898
 30
0.0
 10
156.0124406943507
 20
-5.289602013659092
 30
0.0
 10
156.0122104693053
 20
-5.290482729118287
 30
0.0
  0
SPLINE
  5
E5
330
70
100
AcDbEntity
  8
0
 62
    18
420
        0
370
    18
100
AcDbSpline
210
0.0
220
0.0
230
1.0
 70
     8
 71
     3
 72
    23
 73
    19
 74
     0
 42
0.0000000001
 43
0.0000000001
 40
0.0
 40
0.0
 40
0.0
 40
0.0
 40
1.0
 40
1.0
 40
1.0
 40
2.0
 40
2.0
 40
2.0
 40
3.0
 40
3.0
 40
3.0
 40
4.0
 40
4.0
 40
4.0
 40
5.0
 40
5.0
 40
5.0
 40
6.0
 40
6.0
 40
6.0
 40
6.0
 10
156.0122104693053
 20
-0.3386957341839257
 30
0.0
 10
156.01069868359
 20
-0.331818368468391
 30
0.0
 10
156.0091868978747
 20
-0.3249410027528563
 30
0.0
 10
156.009310703337
 20
-0.3254456216507586
 30
0.0
 10
156.009700687676
 20
-0.3270351594859825
 30
0.0
 10
156.0263195867479
 20
-0.4018713621609206
 30
0.0
 10
156.0462074685695
 20
-0.4996252948453403
 30
0.0
 10
156.0662484812839
 20
-0.5981319043220872
 30
0.0
 10
156.0896090109805
 20
-0.7199105221813133
 30
0.0
 10
156.1139377165433
 20
-0.8706850701982059
 30
0.0
 10
156.1387875593872
 20
-1.024689310713056
 30
0.0
 10
156.1646475003002
 20
-1.208945010787004
 30
0.0
 10
156.1855057585833
 20
-1.410664408843589
 30
0.0
 10
156.2064242709592
 20
-1.612966521866765
 30
0.0
 10
156.2223121618419
 20
-1.832833374781507
 30
0.0
 10
156.2281648028494
 20
-2.057160227935743
 30
0.0
 10
156.2303923262893
 20
-2.142539345320566
 30
0.0
 10
156.2311661691632
 20
-2.228564526904453
 30
0.0
 10
156.2319400120377
 20
-2.31458970848834
 30
0.0
  0
SPLINE
  5
E6
330
70
100
AcDbEntity
  8
0
 62
    18
420
        0
370
    18
100
AcDbSpline
210
0.0
220
0.0
230
1.0
 70
     8
 71
     3
 72
    20
 73
    16
 74
     0
 42
0.0000000001
 43
0.0000000001
 40
0.0
 40
0.0
 40
0.0
 40
0.0
 40
1.0
 40
1.0
 40
1.0
 40
2.0
 40
2.0
 40
2.0
 40
3.0
 40
3.0
 40
3.0
 40
4.0
 40
4.0
 40
4.0
 40
5.0
 40
5.0
 40
5.0
 40
5.0
 10
156.1502689827082
 20
-2.814589231651106
 30
0.0
 10
156.1470500144521
 20
-2.992820533865148
 30
0.0
 10
156.1438310461953
 20
-3.171051836079189
 30
0.0
 10
156.1347307968736
 20
-3.339436441104929
 30
0.0
 10
156.1256340627016
 20
-3.507756004271955
 30
0.0
 10
156.1106605901073
 20
-3.666236475742131
 30
0.0
 10
156.0950594354273
 20
-3.805039613883744
 30
0.0
 10
156.0793024568591
 20
-3.94522911380807
 30
0.0
 10
156.0629051950462
 20
-4.065346244114641
 30
0.0
 10
156.0480261552932
 20
-4.164220183532484
 30
0.0
 10
156.0330476047599
 20
-4.263755390274051
 30
0.0
 10
156.0196076518854
 20
-4.341762307696773
 30
0.0
 10
156.0141602862478
 20
-4.373259633224197
 30
0.0
 10
156.0105164438587
 20
-4.39432876967253
 30
0.0
 10
156.0104488978137
 20
-4.394587112501623
 30
0.0
 10
156.0103813517688
 20
-4.394845455329432
 30
0.0
  0
SPLINE
  5
E7
330
70
100
AcDbEntity
  8
0
 62
    18
420
        0
370
    18
100
AcDbSpline
210
0.0
220
0.0
230
1.0
 70
     8
 71
     3
 72
    20
 73
    16
 74
     0
 42
0.0000000001
 43
0.0000000001
 40
0.0
 40
0.0
 40
0.0
 40
0.0
 40
1.0
 40
1.0
 40
1.0
 40
2.0
 40
2.0
 40
2.0
 40
3.0
 40
3.0
 40
3.0
 40
4.0
 40
4.0
 40
4.0
 40
5.0
 40
5.0
 40
5.0
 40
5.0
 10
156.0075300145742
 20
-1.218190580051559
 30
0.0
 10
156.0101601955864
 20
-1.232596864717523
 30
0.0
 10
156.0127903765979
 20
-1.247003149383488
 30
0.0
 10
156.0209246683716
 20
-1.295432239215514
 30
0.0
 10
156.0294105538663
 20
-1.345954610720071
 30
0.0
 10
156.0438866487943
 20
-1.433504530774043
 30
0.0
 10
156.0593227255937
 20
-1.542103081386331
 30
0.0
 10
156.0749604045331
 20
-1.652119978152113
 30
0.0
 10
156.0915833046884
 20
-1.783738905113296
 30
0.0
 10
156.1065065074565
 20
-1.933060377281385
 30
0.0
 10
156.1215443229343
 20
-2.083528663495877
 30
0.0
 10
156.1348562328445
 20
-2.251972456157429
 30
0.0
 10
156.141817044079
 20
-2.427573292892194
 30
0.0
 10
156.1468326137081
 20
-2.554101393401061
 30
0.0
 10
156.1485507982085
 20
-2.684345312525763
 30
0.0
 10
156.1502689827082
 20
-2.814589231651106
 30
0.0
  0
SPLINE
  5
E8
330
70
100
AcDbEntity
  8
0
 62
    18
420
        0
370
    18
100
AcDbSpline
210
0.0
220
0.0
230
1.0
 70
     8
 71
     3
 72
    20
 73
    16
 74
     0
 42
0.0000000001
 43
0.0000000001
 40
0.0
 40
0.0
 40
0.0
 40
0.0
 40
1.0
 40
1.0
 40
1.0
 40
2.0
 40
2.0
 40
2.0
 40
3.0
 40
3.0
 40
3.0
 40
4.0
 40
4.0
 40
4.0
 40
5.0
 40
5.0
 40
5.0
 40
5.0
 10
156.5399097610118
 20
-2.31458970848834
 30
0.0
 10
156.5347054239467
 20
-2.093142481026115
 30
0.0
 10
156.5295010868815
 20
-1.871695253563889
 30
0.0
 10
156.5148415375354
 20
-1.662562578361281
 30
0.0
 10
156.5001915168173
 20
-1.453565838282588
 30
0.0
 10
156.4760985714989
 20
-1.25686764687898
 30
0.0
 10
156.4509818661809
 20
-1.084215729873839
 30
0.0
 10
156.4254440248187
 20
-0.9086689289871925
 30
0.0
 10
156.3988478045259
 20
-0.7579815387156112
 30
0.0
 10
156.3746655691264
 20
-0.6336522990874636
 30
0.0
 10
156.3502067657569
 20
-0.5079011278259161
 30
0.0
 10
156.3282174796736
 20
-0.4091144619402754
 30
0.0
 10
156.3190842378732
 20
-0.3682536775286257
 30
0.0
 10
156.3128685285916
 20
-0.3404455057419931
 30
0.0
 10
156.3126072306865
 20
-0.3394663118351162
 30
0.0
 10
156.3123459327814
 20
-0.3384871179275975
 30
0.0
  0
LINE
  5
E9
330
70
100
AcDbEntity
  8
0
 62
    18
420
        0
370
    18
100
AcDbLine
 10
156.231940012005
 20
-2.314589708501816
 30
0.0
 11
156.5399097610054
 21
-2.314589708501816
 31
0.0
  0
SPLINE
  5
EA
330
70
100
AcDbEntity
  8
0
 62
    18
420
        0
370
    18
100
AcDbSpline
210
0.0
220
0.0
230
1.0
 70
     8
 71
     3
 72
    23
 73
    19
 74
     0
 42
0.0000000001
 43
0.0000000001
 40
0.0
 40
0.0
 40
0.0
 40
0.0
 40
1.0
 40
1.0
 40
1.0
 40
2.0
 40
2.0
 40
2.0
 40
3.0
 40
3.0
 40
3.0
 40
4.0
 40
4.0
 40
4.0
 40
5.0
 40
5.0
 40
5.0
 40
6.0
 40
6.0
 40
6.0
 40
6.0
 10
156.3123675394657
 20
-5.290597468059203
 30
0.0
 10
156.3108068018592
 20
-5.297461047715994
 30
0.0
 10
156.3092460642526
 20
-5.304324627372142
 30
0.0
 10
156.3093552697303
 20
-5.303902714889355
 30
0.0
 10
156.3097014354553
 20
-5.302565312738683
 30
0.0
 10
156.3268271761268
 20
-5.228023342989206
 30
0.0
 10
156.3473308790328
 20
-5.130690127055851
 30
0.0
 10
156.3680013745554
 20
-5.032565129174663
 30
0.0
 10
156.3921050136414
 20
-4.911276574469966
 30
0.0
 10
156.41724861747
 20
-4.761032550972209
 30
0.0
 10
156.4429680717718
 20
-4.6073475691859
 30
0.0
 10
156.4697756718113
 20
-4.42336562765867
 30
0.0
 10
156.4914437342284
 20
-4.221823602359333
 30
0.0
 10
156.5131830317047
 20
-4.019618995528941
 30
0.0
 10
156.5297489429327
 20
-3.799738655471701
 30
0.0
 10
156.535896878302
 20
-3.575295000713274
 30
0.0
 10
156.5382649270822
 20
-3.488844267100981
 30
0.0
 10
156.539087344047
 20
-3.401716510957106
 30
0.0
 10
156.5399097610118
 20
-3.314588754813872
 30
0.0
  0
LINE
  5
EB
330
70
100
AcDbEntity
  8
0
 62
    18
420
        0
370
    18
100
AcDbLine
 10
156.5399097610054
 20
-2.314589708501816
 30
0.0
 11
156.5399097610054
 21
-3.314588754802322
 31
0.0
  0
LINE
  5
EC
330
70
100
AcDbEntity
  8
0
 62
    18
420
        0
370
    18
100
AcDbLine
 10
156.231940012005
 20
-3.314588754802322
 30
0.0
 11
156.5399097610054
 21
-3.314588754802322
 31
0.0
  0
LINE
  5
ED
330
70
100
AcDbEntity
  8
0
 62
    18
420
        0
370
    18
100
AcDbLine
 10
153.7502685893049
 20
-2.814589231602337
 30
0.0
 11
153.7502685893049
 21
-1.214588969401486
 31
0.0
  0
LINE
  5
EE
330
70
100
AcDbEntity
  8
0
 62
    18
420
        0
370
    18
100
AcDbLine
 10
153.7502685893049
 20
-4.41458949390201
 30
0.0
 11
153.7502685893049
 21
-2.814589231602337
 31
0.0
  0
LINE
  5
EF
330
70
100
AcDbEntity
  8
0
 62
    18
420
        0
370
    18
100
AcDbLine
 10
174.3391791690048
 20
-45.7445917422017
 30
0.0
 11
156.3093582500053
 21
-45.7445917422017
 31
0.0
  0
LINE
  5
F0
330
70
100
AcDbEntity
  8
0
 62
    18
420
        0
370
    18
100
AcDbLine
 10
174.3671069253051
 20
-47.34458902420207
 30
0.0
 11
156.2814304936048
 21
-47.34458902420207
 31
0.0
  0
LINE
  5
F1
330
70
100
AcDbEntity
  8
0
 62
    18
420
        0
370
    18
100
AcDbLine
 10
165.9034250635051
 20
-47.74458983480143
 30
0.0
 11
156.9242688227053
 21
-47.74458983480143
 31
0.0
  0
LINE
  5
F2
330
70
100
AcDbEntity
  8
0
 62
    18
420
        0
370
    18
100
AcDbLine
 10
173.7242685962054
 20
-47.74458983480143
 30
0.0
 11
165.9034250635051
 21
-47.74458983480143
 31
0.0
  0
LINE
  5
F3
330
70
100
AcDbEntity
  8
0
 62
    18
420
        0
370
    18
100
AcDbLine
 10
156.304268758405
 20
14.3754106476985
 30
0.0
 11
174.3442686606051
 21
14.3754106476985
 31
0.0
  0
LINE
  5
F4
330
70
100
AcDbEntity
  8
0
 62
    18
420
        0
370
    18
100
AcDbLine
 10
162.5242686230049
 20
15.07199222649851
 30
0.0
 11
168.1242687959051
 21
15.07199222649851
 31
0.0
  0
LINE
  5
F5
330
70
100
AcDbEntity
  8
0
 62
    18
420
        0
370
    18
100
AcDbLine
 10
165.3242687095054
 20
14.25541064199854
 30
0.0
 11
174.3242690671053
 21
14.25541064199854
 31
0.0
  0
LINE
  5
F6
330
70
100
AcDbEntity
  8
0
 62
    18
420
        0
370
    18
100
AcDbLine
 10
156.3242683518053
 20
14.25541064199854
 30
0.0
 11
165.3242687095054
 21
14.25541064199854
 31
0.0
  0
LINE
  5
F7
330
70
100
AcDbEntity
  8
0
 62
    18
420
        0
370
    18
100
AcDbLine
 10
167.5342686806053
 20
35.07199159319809
 30
0.0
 11
163.1142687384055
 21
35.07199159319809
 31
0.0
  0
LINE
  5
F8
330
70
100
AcDbEntity
  8
0
 62
    18
420
        0
370
    18
100
AcDbLine
 10
163.7594390992052
 20
35.27199199849778
 30
0.0
 11
167.434268664205
 21
35.27199199849778
 31
0.0
  0
LINE
  5
F9
330
70
100
AcDbEntity
  8
0
 62
    18
420
        0
370
    18
100
AcDbLine
 10
163.214268754805
 20
35.27199199849778
 30
0.0
 11
163.7594390992052
 21
35.27199199849778
 31
0.0
  0
LINE
  5
FA
330
70
100
AcDbEntity
  8
0
 62
     8
420
  8421504
370
    18
100
AcDbLine
 10
153.4222388971053
 20
-2.814589231602337
 30
0.0
 11
153.4222388971053
 21
2.68541073849821
 31
0.0
  0
LINE
  5
FB
330
70
100
AcDbEntity
  8
0
 62
     8
420
  8421504
370
    18
100
AcDbLine
 10
153.4222388971053
 20
-8.314589946901563
 30
0.0
 11
153.4222388971053
 21
-2.814589231602337
 31
0.0
  0
LINE
  5
FC
330
70
100
AcDbEntity
  8
0
 62
     8
420
  8421504
370
    18
100
AcDbLine
 10
153.6219561804053
 20
-2.814589231602337
 30
0.0
 11
153.6219561804053
 21
-8.125211089301584
 31
0.0
  0
LINE
  5
FD
330
70
100
AcDbEntity
  8
0
 62
     8
420
  8421504
370
    18
100
AcDbLine
 10
153.6219561804053
 20
2.496031880898232
 30
0.0
 11
153.6219561804053
 21
-2.814589231602337
 31
0.0
  0
LINE
  5
FE
330
70
100
AcDbEntity
  8
0
 62
     8
420
  8421504
370
    18
100
AcDbLine
 10
174.340710263305
 20
14.78313219229846
 30
0.0
 11
156.307827155605
 21
14.78313219229846
 31
0.0
  0
LINE
  5
FF
330
70
100
AcDbEntity
  8
0
 62
     8
420
  8421504
370
    18
100
AcDbLine
 10
174.1386214603054
 20
14.98129621579816
 30
0.0
 11
174.1467403579052
 21
14.98129621579816
 31
0.0
  0
LINE
  5
100
330
70
100
AcDbEntity
  8
0
 62
     8
420
  8421504
370
    18
100
AcDbLine
 10
156.5017970610054
 20
14.98129621579816
 30
0.0
 11
174.1386214603054
 21
14.98129621579816
 31
0.0
  0
LINE
  5
101
330
70
100
AcDbEntity
  8
0
 62
     8
420
  8421504
370
    18
100
AcDbLine
 10
173.7042690027049
 20
14.33541063999798
 30
0.0
 11
156.944268416205
 21
14.33541063999798
 31
0.0
  0
LINE
  5
102
330
70
100
AcDbEntity
  8
0
 62
     8
420
  8421504
370
    18
100
AcDbLine
 10
173.6965561617052
 20
14.26900048059827
 30
0.0
 11
173.7042690027049
 21
14.26900048059827
 31
0.0
  0
LINE
  5
103
330
70
100
AcDbEntity
  8
0
 62
     8
420
  8421504
370
    18
100
AcDbLine
 10
156.944268416205
 20
14.26900048059827
 30
0.0
 11
173.6965561617052
 21
14.26900048059827
 31
0.0
  0
LINE
  5
104
330
70
100
AcDbEntity
  8
0
 62
     8
420
  8421504
370
    18
100
AcDbLine
 10
163.6852765787052
 20
35.17199179589767
 30
0.0
 11
163.1142687384055
 21
35.17199179589767
 31
0.0
  0
LINE
  5
105
330
70
100
AcDbEntity
  8
0
 62
     8
420
  8421504
370
    18
100
AcDbLine
 10
167.5342686806053
 20
35.17199179589767
 30
0.0
 11
163.6852765787052
 21
35.17199179589767
 31
0.0
  0
INSERT
  5
107
330
70
100
AcDbEntity
  8
0
100
AcDbBlockReference
  2
Block_2
 10
0.0
 20
0.0
 30
0.0
  0
INSERT
  5
113
330
70
100
AcDbEntity
  8
0
100
AcDbBlockReference
  2
Block_3
 10
0.0
 20
0.0
 30
0.0
  0
LINE
  5
121
330
70
100
AcDbEntity
  8
0
 62
    18
420
        0
370
    18
100
AcDbLine
 10
67.24528957390515
 20
-92.20969256680175
 30
0.0
 11
67.24528957390515
 21
-91.33772280740185
 31
0.0
  0
LINE
  5
122
330
70
100
AcDbEntity
  8
0
 62
    18
420
        0
370
    18
100
AcDbLine
 10
56.24528963350513
 20
-91.33772280740185
 30
0.0
 11
56.24528963350513
 21
-92.20969256680175
 31
0.0
  0
SPLINE
  5
123
330
70
100
AcDbEntity
  8
0
 62
    18
420
        0
370
    18
100
AcDbSpline
210
0.0
220
0.0
230
1.0
 70
     8
 71
     3
 72
     8
 73
     4
 74
     0
 42
0.0000000001
 43
0.0000000001
 40
0.0
 40
0.0
 40
0.0
 40
0.0
 40
1.0
 40
1.0
 40
1.0
 40
1.0
 10
56.24528960370526
 20
-92.20969237020185
 30
0.0
 10
56.24528960370526
 20
-92.31602198035671
 30
0.0
 10
56.32848879602612
 20
-92.40376338122933
 30
0.0
 10
56.43466836122041
 20
-92.40941014409299
 30
0.0
  0
SPLINE
  5
124
330
70
100
AcDbEntity
  8
0
 62
    18
420
        0
370
    18
100
AcDbSpline
210
0.0
220
0.0
230
1.0
 70
     8
 71
     3
 72
     8
 73
     4
 74
     0
 42
0.0000000001
 43
0.0000000001
 40
0.0
 40
0.0
 40
0.0
 40
0.0
 40
1.0
 40
1.0
 40
1.0
 40
1.0
 10
67.05591084618987
 20
-92.40941014409299
 30
0.0
 10
67.16209041138417
 20
-92.40376338122933
 30
0.0
 10
67.24528960370502
 20
-92.31602198035671
 30
0.0
 10
67.24528960370502
 20
-92.20969237020185
 30
0.0
  0
SPLINE
  5
125
330
70
100
AcDbEntity
  8
0
 62
    18
420
        0
370
    18
100
AcDbSpline
210
0.0
220
0.0
230
1.0
 70
     8
 71
     3
 72
     8
 73
     4
 74
     0
 42
0.0000000001
 43
0.0000000001
 40
0.0
 40
0.0
 40
0.0
 40
0.0
 40
1.0
 40
1.0
 40
1.0
 40
1.0
 10
56.43466836130639
 20
-92.40941014413023
 30
0.0
 10
57.67064145178767
 20
-92.47514074808647
 30
0.0
 10
58.9077283675062
 20
-92.51791886440669
 30
0.0
 10
60.14528960376573
 20
-92.53772237919804
 30
0.0
  0
SPLINE
  5
126
330
70
100
AcDbEntity
  8
0
 62
    18
420
        0
370
    18
100
AcDbSpline
210
0.0
220
0.0
230
1.0
 70
     8
 71
     3
 72
     8
 73
     4
 74
     0
 42
0.0000000001
 43
0.0000000001
 40
0.0
 40
0.0
 40
0.0
 40
0.0
 40
1.0
 40
1.0
 40
1.0
 40
1.0
 10
63.34528960364455
 20
-92.53772237919804
 30
0.0
 10
64.58285083996215
 20
-92.51791886440541
 30
0.0
 10
65.81993775573876
 20
-92.47514074808263
 30
0.0
 10
67.05591084627811
 20
-92.40941014412124
 30
0.0
  0
LINE
  5
127
330
70
100
AcDbEntity
  8
0
 62
    18
420
        0
370
    18
100
AcDbLine
 10
60.14528952770514
 20
-92.53772225900204
 30
0.0
 11
60.14528952770514
 21
-94.93772265240213
 31
0.0
  0
LINE
  5
128
330
70
100
AcDbEntity
  8
0
 62
    18
420
        0
370
    18
100
AcDbLine
 10
63.34528967970514
 20
-94.93403908530217
 30
0.0
 11
63.34528967970514
 21
-92.53772225900204
 31
0.0
  0
LINE
  5
129
330
70
100
AcDbEntity
  8
0
 62
    18
420
        0
370
    18
100
AcDbLine
 10
67.24528957390515
 20
-91.33772280740185
 30
0.0
 11
56.24528963350513
 21
-91.33772280740185
 31
0.0
  0
LINE
  5
12A
330
70
100
AcDbEntity
  8
0
 62
    18
420
        0
370
    18
100
AcDbLine
 10
63.34528967970514
 20
-92.53772225900204
 30
0.0
 11
60.14528952770514
 21
-92.53772225900204
 31
0.0
  0
LINE
  5
12B
330
70
100
AcDbEntity
  8
0
 62
    18
420
        0
370
    18
100
AcDbLine
 10
63.74528955900509
 20
-95.01939368170212
 30
0.0
 11
63.74528955900509
 21
-95.31624641940219
 31
0.0
  0
LINE
  5
12C
330
70
100
AcDbEntity
  8
0
 62
    18
420
        0
370
    18
100
AcDbLine
 10
59.74528964840518
 20
-95.01939368170212
 30
0.0
 11
59.74528964840518
 21
-95.31624641940219
 31
0.0
  0
SPLINE
  5
12D
330
70
100
AcDbEntity
  8
0
 62
    18
420
        0
370
    18
100
AcDbSpline
210
0.0
220
0.0
230
1.0
 70
     8
 71
     3
 72
    77
 73
    73
 74
     0
 42
0.0000000001
 43
0.0000000001
 40
0.0
 40
0.0
 40
0.0
 40
0.0
 40
1.0
 40
1.0
 40
1.0
 40
2.0
 40
2.0
 40
2.0
 40
3.0
 40
3.0
 40
3.0
 40
4.0
 40
4.0
 40
4.0
 40
5.0
 40
5.0
 40
5.0
 40
6.0
 40
6.0
 40
6.0
 40
7.0
 40
7.0
 40
7.0
 40
8.0
 40
8.0
 40
8.0
 40
9.0
 40
9.0
 40
9.0
 40
10.0
 40
10.0
 40
10.0
 40
11.0
 40
11.0
 40
11.0
 40
12.0
 40
12.0
 40
12.0
 40
13.0
 40
13.0
 40
13.0
 40
14.0
 40
14.0
 40
14.0
 40
15.0
 40
15.0
 40
15.0
 40
16.0
 40
16.0
 40
16.0
 40
17.0
 40
17.0
 40
17.0
 40
18.0
 40
18.0
 40
18.0
 40
19.0
 40
19.0
 40
19.0
 40
20.0
 40
20.0
 40
20.0
 40
21.0
 40
21.0
 40
21.0
 40
22.0
 40
22.0
 40
22.0
 40
23.0
 40
23.0
 40
23.0
 40
24.0
 40
24.0
 40
24.0
 40
24.0
 10
63.74528960373762
 20
-95.01939392196581
 30
0.0
 10
63.74528960373377
 20
-95.01939392196581
 30
0.0
 10
63.73224270024863
 20
-95.01639151007141
 30
0.0
 10
63.70672286511736
 20
-95.01069281247607
 30
0.0
 10
63.69396294755173
 20
-95.0078434636784
 30
0.0
 10
63.6780612501991
 20
-95.00431983888393
 30
0.0
 10
63.65894962141975
 20
-95.00016105567594
 30
0.0
 10
63.63983799264007
 20
-94.99600227246792
 30
0.0
 10
63.6174396614013
 20
-94.99119336292563
 30
0.0
 10
63.59231674573607
 20
-94.98592537627374
 30
0.0
 10
63.54207091440527
 20
-94.97538940296932
 30
0.0
 10
63.48063764341801
 20
-94.96293631407178
 30
0.0
 10
63.40810258903719
 20
-94.9493001989884
 30
0.0
 10
63.37183506184677
 20
-94.9424821414467
 30
0.0
 10
63.33255368930667
 20
-94.93533020568479
 30
0.0
 10
63.29091791852822
 20
-94.92807198912137
 30
0.0
 10
63.24928214774978
 20
-94.92081377255862
 30
0.0
 10
63.20545948708084
 20
-94.91347606895722
 30
0.0
 10
63.15950311489567
 20
-94.90616388389971
 30
0.0
 10
63.06759037052501
 20
-94.89153951378405
 30
0.0
 10
62.96720714818368
 20
-94.8770140195222
 30
0.0
 10
62.85799846378441
 20
-94.86340768847364
 30
0.0
 10
62.8033941215846
 20
-94.85660452294936
 30
0.0
 10
62.74688081016613
 20
-94.85007724034151
 30
0.0
 10
62.68933134518019
 20
-94.84400718829457
 30
0.0
 10
62.63178188019424
 20
-94.83793713624699
 30
0.0
 10
62.57295131080727
 20
-94.83229296083768
 30
0.0
 10
62.51284521047061
 20
-94.82714813057345
 30
0.0
 10
62.45273911013363
 20
-94.82200330030918
 30
0.0
 10
62.39135755619511
 20
-94.8173575514337
 30
0.0
 10
62.32866923427518
 20
-94.81328553342446
 30
0.0
 10
62.26598091235556
 20
-94.80921351541523
 30
0.0
 10
62.20160249835837
 20
-94.80570119140542
 30
0.0
 10
62.13702443555021
 20
-94.80288769429716
 30
0.0
 10
62.00786830993421
 20
-94.79726070007997
 30
0.0
 10
61.87784798232669
 20
-94.79438301398298
 30
0.0
 10
61.74697766291322
 20
-94.79435846766575
 30
0.0
 10
61.61610734349942
 20
-94.79433392134856
 30
0.0
 10
61.48312802884284
 20
-94.79725931898064
 30
0.0
 10
61.3547231032961
 20
-94.80283686920236
 30
0.0
 10
61.22631817774935
 20
-94.80841441942409
 30
0.0
 10
61.10144820245927
 20
-94.81659156405724
 30
0.0
 10
60.98012092960101
 20
-94.82694413914092
 30
0.0
 10
60.91945729317173
 20
-94.83212042668307
 30
0.0
 10
60.85956195567799
 20
-94.83786040914374
 30
0.0
 10
60.80184634342828
 20
-94.84394408348718
 30
0.0
 10
60.7441307311789
 20
-94.85002775783064
 30
0.0
 10
60.68826604569938
 20
-94.8564799942479
 30
0.0
 10
60.63420728476669
 20
-94.86320518780745
 30
0.0
 10
60.58014852383401
 20
-94.86993038136764
 30
0.0
 10
60.52789579842325
 20
-94.87692886953704
 30
0.0
 10
60.47745786336918
 20
-94.8841056373949
 30
0.0
 10
60.42701992831542
 20
-94.89128240525216
 30
0.0
 10
60.3781787764723
 20
-94.89867296341394
 30
0.0
 10
60.33175380930583
 20
-94.90605607788678
 30
0.0
 10
60.23890387497258
 20
-94.92082230683243
 30
0.0
 10
60.15642929508405
 20
-94.93541063645478
 30
0.0
 10
60.08400067585355
 20
-94.94901382210384
 30
0.0
 10
60.04778636623846
 20
-94.95581541492837
 30
0.0
 10
60.01410250485425
 20
-94.96237124014717
 30
0.0
 10
59.98302430952996
 20
-94.96857669904571
 30
0.0
 10
59.95194611420599
 20
-94.97478215794359
 30
0.0
 10
59.92362285341972
 20
-94.98060837791786
 30
0.0
 10
59.8985247575558
 20
-94.98587037992344
 30
0.0
 10
59.84832856582863
 20
-94.99639438393462
 30
0.0
 10
59.81027111634183
 20
-95.00479611927291
 30
0.0
 10
59.78444844278334
 20
-95.01056061465035
 30
0.0
 10
59.7715371060041
 20
-95.01344286233877
 30
0.0
 10
59.76168635990469
 20
-95.01567028949049
 30
0.0
 10
59.75513121591265
 20
-95.01715661454701
 30
0.0
 10
59.74857607192092
 20
-95.01864293960288
 30
0.0
 10
59.74528960373587
 20
-95.01939392196581
 30
0.0
 10
59.74528960373779
 20
-95.01939392196581
 30
0.0
  0
SPLINE
  5
12E
330
70
100
AcDbEntity
  8
0
 62
    18
420
        0
370
    18
100
AcDbSpline
210
0.0
220
0.0
230
1.0
 70
     8
 71
     3
 72
    14
 73
    10
 74
     0
 42
0.0000000001
 43
0.0000000001
 40
0.0
 40
0.0
 40
0.0
 40
0.0
 40
1.0
 40
1.0
 40
1.0
 40
2.0
 40
2.0
 40
2.0
 40
3.0
 40
3.0
 40
3.0
 40
3.0
 10
59.74528960369063
 20
-95.29282656841226
 30
0.0
 10
54.87474793704491
 20
-96.39739606808188
 30
0.0
 10
51.82182429324597
 20
-101.2411807125706
 30
0.0
 10
52.92639379291557
 20
-106.111722379216
 30
0.0
 10
54.03096329258518
 20
-110.982264045862
 30
0.0
 10
58.87474793707393
 20
-114.035187689661
 30
0.0
 10
63.74528960371964
 20
-112.9306181899914
 30
0.0
 10
68.09348887205428
 20
-111.9445085087666
 30
0.0
 10
71.07401767034144
 20
-107.9362491683515
 30
0.0
 10
70.76660869698807
 20
-103.4882441207313
 30
0.0
  0
SPLINE
  5
12F
330
70
100
AcDbEntity
  8
0
 62
    18
420
        0
370
    18
100
AcDbSpline
210
0.0
220
0.0
230
1.0
 70
     8
 71
     3
 72
     8
 73
     4
 74
     0
 42
0.0000000001
 43
0.0000000001
 40
0.0
 40
0.0
 40
0.0
 40
0.0
 40
1.0
 40
1.0
 40
1.0
 40
1.0
 10
70.76660869698807
 20
-103.4882441207313
 30
0.0
 10
70.49140440258608
 20
-99.50621953220421
 30
0.0
 10
67.63796423355724
 20
-96.17562974771129
 30
0.0
 10
63.74528960370425
 20
-95.29282656840905
 30
0.0
  0
CIRCLE
  5
130
330
70
100
AcDbEntity
  8
0
 62
    18
420
        0
370
    18
100
AcDbCircle
 10
61.74528960370514
 20
-104.1117223792018
 30
0.0
 40
2.800000000000098
  0
CIRCLE
  5
131
330
70
100
AcDbEntity
  8
0
 62
    18
420
        0
370
    18
100
AcDbCircle
 10
61.74528960370514
 20
-104.1117223792018
 30
0.0
 40
8.82247195516904
  0
CIRCLE
  5
132
330
70
100
AcDbEntity
  8
0
 62
    18
420
        0
370
    18
100
AcDbCircle
 10
61.74528960370514
 20
-104.1117223792018
 30
0.0
 40
2.220000000000142
  0
CIRCLE
  5
133
330
70
100
AcDbEntity
  8
0
 62
    18
420
        0
370
    18
100
AcDbCircle
 10
61.74528960370514
 20
-104.1117223792018
 30
0.0
 40
2.216509252883752
  0
CIRCLE
  5
134
330
70
100
AcDbEntity
  8
0
 62
    18
420
        0
370
    18
100
AcDbCircle
 10
61.74528960370514
 20
-104.1117223792018
 30
0.0
 40
9.016441867826584
  0
CIRCLE
  5
135
330
70
100
AcDbEntity
  8
0
 62
    18
420
        0
370
    18
100
AcDbCircle
 10
61.74528960370514
 20
-104.111722379202
 30
0.0
 40
9.019999999999981
  0
CIRCLE
  5
136
330
70
100
AcDbEntity
  8
0
 62
    18
420
        0
370
    18
100
AcDbCircle
 10
61.74528960370514
 20
-104.1117223792018
 30
0.0
 40
2.21000000000011
  0
CIRCLE
  5
137
330
70
100
AcDbEntity
  8
0
 62
    18
420
        0
370
    18
100
AcDbCircle
 10
61.74528960370514
 20
-104.1117223792018
 30
0.0
 40
2.109999999999946
  0
LINE
  5
138
330
70
100
AcDbEntity
  8
0
 62
     8
420
  8421504
370
    18
100
AcDbLine
 10
56.24528963350513
 20
-92.20969256680175
 30
0.0
 11
67.24528957390515
 21
-92.20969256680175
 31
0.0
  0
LINE
  5
139
330
70
100
AcDbEntity
  8
0
 62
     8
420
  8421504
370
    18
100
AcDbLine
 10
67.05591071630518
 20
-92.4094098501018
 30
0.0
 11
56.43466849120521
 21
-92.4094098501018
 31
0.0
  0
INSERT
  5
13B
330
70
100
AcDbEntity
  8
0
100
AcDbBlockReference
  2
Block_4
 10
0.0
 20
0.0
 30
0.0
  0
LINE
  5
146
330
70
100
AcDbEntity
  8
0
 62
    18
420
        0
370
    18
100
AcDbLine
 10
159.9395229001052
 20
-69.39900433140191
 30
0.0
 11
159.9395229001052
 21
-85.78023011040176
 31
0.0
  0
LINE
  5
147
330
70
100
AcDbEntity
  8
0
 62
    18
420
        0
370
    18
100
AcDbLine
 10
164.3395229660052
 20
-85.78023011040176
 30
0.0
 11
164.3395229660052
 21
-69.39900433140191
 31
0.0
  0
SPLINE
  5
148
330
70
100
AcDbEntity
  8
0
 62
    18
420
        0
370
    18
100
AcDbSpline
210
0.0
220
0.0
230
1.0
 70
     8
 71
     3
 72
    17
 73
    13
 74
     0
 42
0.0000000001
 43
0.0000000001
 40
0.0
 40
0.0
 40
0.0
 40
0.0
 40
1.0
 40
1.0
 40
1.0
 40
2.0
 40
2.0
 40
2.0
 40
3.0
 40
3.0
 40
3.0
 40
4.0
 40
4.0
 40
4.0
 40
4.0
 10
171.1395229001826
 20
-100.1745825468349
 30
0.0
 10
171.2078148161851
 20
-100.2014400671837
 30
0.0
 10
171.276106732187
 20
-100.2282975875332
 30
0.0
 10
171.3439441375199
 20
-100.2511388204404
 30
0.0
 10
171.4839673031721
 20
-100.298285401643
 30
0.0
 10
171.6220540227419
 20
-100.3283205603624
 30
0.0
 10
171.7588118334623
 20
-100.3516256328301
 30
0.0
 10
171.8950958442673
 20
-100.3748499644518
 30
0.0
 10
172.03006013833
 20
-100.3913907620538
 30
0.0
 10
172.1608456164694
 20
-100.3926014448407
 30
0.0
 10
172.259206105222
 20
-100.3935119690998
 30
0.0
 10
172.3552029854475
 20
-100.3857515227373
 30
0.0
 10
172.4511998656724
 20
-100.3779910763748
 30
0.0
  0
LINE
  5
149
330
70
100
AcDbEntity
  8
0
 62
    18
420
        0
370
    18
100
AcDbLine
 10
173.305305487305
 20
-100.118525300802
 30
0.0
 11
173.9218812172048
 21
-99.76258370830162
 31
0.0
  0
LINE
  5
14A
330
70
100
AcDbEntity
  8
0
 62
    18
420
        0
370
    18
100
AcDbLine
 10
171.1816725146054
 20
-136.5098543048018
 30
0.0
 11
171.1537465396051
 21
-135.2035898258019
 31
0.0
  0
LINE
  5
14B
330
70
100
AcDbEntity
  8
0
 62
    18
420
        0
370
    18
100
AcDbLine
 10
153.1252993265053
 20
-135.2035898258019
 30
0.0
 11
153.0973733515051
 21
-136.5098543048018
 31
0.0
  0
SPLINE
  5
14C
330
70
100
AcDbEntity
  8
0
 62
    18
420
        0
370
    18
100
AcDbSpline
210
0.0
220
0.0
230
1.0
 70
     8
 71
     3
 72
    44
 73
    40
 74
     0
 42
0.0000000001
 43
0.0000000001
 40
0.0
 40
0.0
 40
0.0
 40
0.0
 40
1.0
 40
1.0
 40
1.0
 40
2.0
 40
2.0
 40
2.0
 40
3.0
 40
3.0
 40
3.0
 40
4.0
 40
4.0
 40
4.0
 40
5.0
 40
5.0
 40
5.0
 40
6.0
 40
6.0
 40
6.0
 40
7.0
 40
7.0
 40
7.0
 40
8.0
 40
8.0
 40
8.0
 40
9.0
 40
9.0
 40
9.0
 40
10.0
 40
10.0
 40
10.0
 40
11.0
 40
11.0
 40
11.0
 40
12.0
 40
12.0
 40
12.0
 40
13.0
 40
13.0
 40
13.0
 40
13.0
 10
170.806568460429
 20
-84.39384805365341
 30
0.0
 10
170.755693287384
 20
-84.29010379138787
 30
0.0
 10
170.7048181143383
 20
-84.18635952912234
 30
0.0
 10
170.6461994384278
 20
-84.08438694090829
 30
0.0
 10
170.5654463053641
 20
-83.94390942487857
 30
0.0
 10
170.4699976773798
 20
-83.80679416330659
 30
0.0
 10
170.3664054772458
 20
-83.67221853884869
 30
0.0
 10
170.2623457836893
 20
-83.53703559821154
 30
0.0
 10
170.1500688511107
 20
-83.4044152682828
 30
0.0
 10
170.0283566688876
 20
-83.27509509828448
 30
0.0
 10
169.9062107545563
 20
-83.1453140844418
 30
0.0
 10
169.7745622240709
 20
-83.01885679326131
 30
0.0
 10
169.6343410603917
 20
-82.89600890744724
 30
0.0
 10
169.493782042416
 20
-82.7728650271835
 30
0.0
 10
169.3446090310104
 20
-82.65334796652217
 30
0.0
 10
169.1872310253387
 20
-82.53784142574554
 30
0.0
 10
169.029636732041
 20
-82.42217614210415
 30
0.0
 10
168.8638148764174
 20
-82.31053240939203
 30
0.0
 10
168.6903740442446
 20
-82.20324785275437
 30
0.0
 10
168.516830059385
 20
-82.095899489399
 30
0.0
 10
168.3356580326189
 20
-81.99291548883667
 30
0.0
 10
168.1474783812334
 20
-81.89461580827696
 30
0.0
 10
167.9592985622574
 20
-81.79631604017348
 30
0.0
 10
167.7641111061796
 20
-81.70270060041536
 30
0.0
 10
167.5625842727161
 20
-81.61408698517702
 30
0.0
 10
167.3611143554459
 20
-81.52549839662858
 30
0.0
 10
167.1533086410804
 20
-81.44190880771949
 30
0.0
 10
166.9399155573127
 20
-81.3635239990085
 30
0.0
 10
166.7266058980419
 20
-81.28516983427706
 30
0.0
 10
166.5077132371992
 20
-81.21201638099645
 30
0.0
 10
166.2838868210589
 20
-81.14455367017328
 30
0.0
 10
166.0601529453317
 20
-81.07711885162089
 30
0.0
 10
165.831489393159
 20
-81.01537007085557
 30
0.0
 10
165.599103529118
 20
-80.95858819874372
 30
0.0
 10
165.3668068775029
 20
-80.90182812506931
 30
0.0
 10
165.1307907714449
 20
-80.85003114720938
 30
0.0
 10
164.8903439487308
 20
-80.80682331996371
 30
0.0
 10
164.7084277789239
 20
-80.77413333741629
 30
0.0
 10
164.5239754383083
 20
-80.74635984011189
 30
0.0
 10
164.3395230976922
 20
-80.71858634280751
 30
0.0
  0
SPLINE
  5
14D
330
70
100
AcDbEntity
  8
0
 62
    18
420
        0
370
    18
100
AcDbSpline
210
0.0
220
0.0
230
1.0
 70
     8
 71
     3
 72
    47
 73
    43
 74
     0
 42
0.0000000001
 43
0.0000000001
 40
0.0
 40
0.0
 40
0.0
 40
0.0
 40
1.0
 40
1.0
 40
1.0
 40
2.0
 40
2.0
 40
2.0
 40
3.0
 40
3.0
 40
3.0
 40
4.0
 40
4.0
 40
4.0
 40
5.0
 40
5.0
 40
5.0
 40
6.0
 40
6.0
 40
6.0
 40
7.0
 40
7.0
 40
7.0
 40
8.0
 40
8.0
 40
8.0
 40
9.0
 40
9.0
 40
9.0
 40
10.0
 40
10.0
 40
10.0
 40
11.0
 40
11.0
 40
11.0
 40
12.0
 40
12.0
 40
12.0
 40
13.0
 40
13.0
 40
13.0
 40
14.0
 40
14.0
 40
14.0
 40
14.0
 10
159.9395232952211
 20
-80.71940773853265
 30
0.0
 10
159.8537853266036
 20
-80.73082487730378
 30
0.0
 10
159.7680473579861
 20
-80.74224201607488
 30
0.0
 10
159.6829493499729
 20
-80.75507169657822
 30
0.0
 10
159.4394290398939
 20
-80.79178569079745
 30
0.0
 10
159.2011493758493
 20
-80.84006700834647
 30
0.0
 10
158.9659447923454
 20
-80.89259881413676
 30
0.0
 10
158.7306574068259
 20
-80.94514911335647
 30
0.0
 10
158.4984472673459
 20
-81.00195289405018
 30
0.0
 10
158.2709266650787
 20
-81.06473752162195
 30
0.0
 10
158.0433062572975
 20
-81.12754969066431
 30
0.0
 10
157.8203795019103
 20
-81.19634795492309
 30
0.0
 10
157.6027055040956
 20
-81.27038997614755
 30
0.0
 10
157.3849197903451
 20
-81.34446999765589
 30
0.0
 10
157.1723922272527
 20
-81.42379915997519
 30
0.0
 10
156.965916804188
 20
-81.50825494757304
 30
0.0
 10
156.7593244475582
 20
-81.59275856515597
 30
0.0
 10
156.5587910879338
 20
-81.68239461640247
 30
0.0
 10
156.364993393074
 20
-81.77683681026588
 30
0.0
 10
156.1710839345283
 20
-81.8713334692131
 30
0.0
 10
155.983917911942
 20
-81.97064181580898
 30
0.0
 10
155.8041528798262
 20
-82.07445792199312
 30
0.0
 10
155.6242952163883
 20
-82.17832752369295
 30
0.0
 10
155.4518461727154
 20
-82.28670953179458
 30
0.0
 10
155.2873812556953
 20
-82.39926037414532
 30
0.0
 10
155.1228610245252
 20
-82.51184907049054
 30
0.0
 10
154.9663302914819
 20
-82.62860940574798
 30
0.0
 10
154.8184292420188
 20
-82.74920209347524
 30
0.0
 10
154.6705536211252
 20
-82.86977404774802
 30
0.0
 10
154.5313047166705
 20
-82.99417703681363
 30
0.0
 10
154.4008655307157
 20
-83.12197653155582
 30
0.0
 10
154.270541870734
 20
-83.24966283821787
 30
0.0
 10
154.1490123311702
 20
-83.38073963685983
 30
0.0
 10
154.0379554818009
 20
-83.51503201130942
 30
0.0
 10
153.927108045046
 20
-83.64907115943891
 30
0.0
 10
153.8266938403938
 20
-83.78631376800962
 30
0.0
 10
153.7326327793492
 20
-83.92550292464447
 30
0.0
 10
153.6388651287329
 20
-84.06425790001847
 30
0.0
 10
153.5514110480437
 20
-84.20494729842429
 30
0.0
 10
153.4874026583776
 20
-84.35016727538505
 30
0.0
 10
153.476464658798
 20
-84.37498302305781
 30
0.0
 10
153.4662113035863
 20
-84.3999310694577
 30
0.0
 10
153.4559579483745
 20
-84.42487911585761
 30
0.0
  0
LINE
  5
14E
330
70
100
AcDbEntity
  8
0
 62
    18
420
        0
370
    18
100
AcDbLine
 10
171.1593510168052
 20
-86.14525031480159
 30
0.0
 11
171.1557932959053
 21
-85.81234150330208
 31
0.0
  0
LINE
  5
14F
330
70
100
AcDbEntity
  8
0
 62
    18
420
        0
370
    18
100
AcDbLine
 10
153.1232525701051
 20
-85.81234150330208
 30
0.0
 11
153.1196948493053
 21
-86.14525031480159
 31
0.0
  0
LINE
  5
150
330
70
100
AcDbEntity
  8
0
 62
    18
420
        0
370
    18
100
AcDbLine
 10
153.139522834205
 20
-86.52394239960214
 30
0.0
 11
153.139522834205
 21
-135.2678129496021
 31
0.0
  0
LINE
  5
151
330
70
100
AcDbEntity
  8
0
 62
    18
420
        0
370
    18
100
AcDbLine
 10
171.1395230319054
 20
-135.2678129496021
 30
0.0
 11
171.1395230319054
 21
-86.52394239960214
 31
0.0
  0
SPLINE
  5
152
330
70
100
AcDbEntity
  8
0
 62
    18
420
        0
370
    18
100
AcDbSpline
210
0.0
220
0.0
230
1.0
 70
     8
 71
     3
 72
    23
 73
    19
 74
     0
 42
0.0000000001
 43
0.0000000001
 40
0.0
 40
0.0
 40
0.0
 40
0.0
 40
1.0
 40
1.0
 40
1.0
 40
2.0
 40
2.0
 40
2.0
 40
3.0
 40
3.0
 40
3.0
 40
4.0
 40
4.0
 40
4.0
 40
5.0
 40
5.0
 40
5.0
 40
6.0
 40
6.0
 40
6.0
 40
6.0
 10
163.736519373289
 20
-68.28238013197513
 30
0.0
 10
163.7327087860333
 20
-68.27959464231105
 30
0.0
 10
163.7288981987776
 20
-68.27680915264697
 30
0.0
 10
163.7250413870325
 20
-68.2740503638919
 30
0.0
 10
163.6449343393048
 20
-68.21674955765913
 30
0.0
 10
163.5448858432936
 20
-68.17096764094064
 30
0.0
 10
163.4419765217134
 20
-68.12847370351057
 30
0.0
 10
163.3389818592497
 20
-68.08594452660857
 30
0.0
 10
163.2331216243857
 20
-68.04670878458225
 30
0.0
 10
163.1216646218607
 20
-68.01369604383906
 30
0.0
 10
163.0103398085929
 20
-67.98072245657646
 30
0.0
 10
162.8934314954508
 20
-67.95395711825179
 30
0.0
 10
162.7737095918871
 20
-67.93277111156827
 30
0.0
 10
162.6541276595162
 20
-67.91160987420972
 30
0.0
 10
162.5317387118184
 20
-67.89601493012266
 30
0.0
 10
162.4080298364807
 20
-67.88767874813625
 30
0.0
 10
162.3548710024305
 20
-67.88409661456964
 30
0.0
 10
162.3014684438185
 20
-67.88185481100568
 30
0.0
 10
162.2480658852059
 20
-67.87961300744235
 30
0.0
  0
SPLINE
  5
153
330
70
100
AcDbEntity
  8
0
 62
    18
420
        0
370
    18
100
AcDbSpline
210
0.0
220
0.0
230
1.0
 70
     8
 71
     3
 72
    23
 73
    19
 74
     0
 42
0.0000000001
 43
0.0000000001
 40
0.0
 40
0.0
 40
0.0
 40
0.0
 40
1.0
 40
1.0
 40
1.0
 40
2.0
 40
2.0
 40
2.0
 40
3.0
 40
3.0
 40
3.0
 40
4.0
 40
4.0
 40
4.0
 40
5.0
 40
5.0
 40
5.0
 40
6.0
 40
6.0
 40
6.0
 40
6.0
 10
162.2480658852059
 20
-67.87961300744235
 30
0.0
 10
162.1825352401048
 20
-67.8787514986938
 30
0.0
 10
162.1170045950038
 20
-67.87788998994589
 30
0.0
 10
162.051535920853
 20
-67.87907445753088
 30
0.0
 10
161.9272427069366
 20
-67.88132318617676
 30
0.0
 10
161.8031728584203
 20
-67.89094634299802
 30
0.0
 10
161.6813048326429
 20
-67.90631354133376
 30
0.0
 10
161.5592508593843
 20
-67.92170418709763
 30
0.0
 10
161.4394054331185
 20
-67.94285641638326
 30
0.0
 10
161.3236169099676
 20
-67.97000021978295
 30
0.0
 10
161.2076624861156
 20
-67.997182914567
 30
0.0
 10
161.0957765990921
 20
-68.03037436510705
 30
0.0
 10
160.9887399812322
 20
-68.06860422781259
 30
0.0
 10
160.8814663317789
 20
-68.10691875019324
 30
0.0
 10
160.7790634525923
 20
-68.15029402448139
 30
0.0
 10
160.6859869359148
 20
-68.19987653197235
 30
0.0
 10
160.5967483978176
 20
-68.24741452159165
 30
0.0
 10
160.5160829410312
 20
-68.30065839224589
 30
0.0
 10
160.4354174842447
 20
-68.35390226290076
 30
0.0
  0
LINE
  5
154
330
70
100
AcDbEntity
  8
0
 62
    18
420
        0
370
    18
100
AcDbLine
 10
164.3495229643054
 20
-69.27777437910222
 30
0.0
 11
164.3495229643054
 21
-69.1961201324017
 31
0.0
  0
LINE
  5
155
330
70
100
AcDbEntity
  8
0
 62
    18
420
        0
370
    18
100
AcDbLine
 10
159.9295229017049
 20
-69.1961201324017
 30
0.0
 11
159.9295229017049
 21
-69.27777437910222
 31
0.0
  0
LWPOLYLINE
  5
156
330
70
100
AcDbEntity
  8
0
 62
    18
420
        0
370
    18
100
AcDbPolyline
 90
       11
 70
     0
 43
0.0
 10
162.308821423405
 20
-70.5440412521021
 10
161.9144403227049
 20
-70.5411429147016
 10
161.527293728605
 20
-70.49763880880163
 10
161.1598246419054
 20
-70.4149273124018
 10
160.8238437785051
 20
-70.29566679040191
 10
160.5301500419054
 20
-70.14369031750215
 10
160.2881827703048
 20
-69.96388263180191
 10
160.1057191849051
 20
-69.76202281100185
 10
159.9886236493054
 20
-69.54459892070168
 10
159.940659811305
 20
-69.31859904930219
 10
159.9395229001052
 20
-69.27777437910222
  0
LWPOLYLINE
  5
157
330
70
100
AcDbEntity
  8
0
 62
    18
420
        0
370
    18
100
AcDbPolyline
 90
       10
 70
     0
 43
0.0
 10
164.3395229660052
 20
-69.27777437910222
 10
164.335873246505
 20
-69.35090012580182
 10
164.2779588668048
 20
-69.57612182790206
 10
164.1513135798052
 20
-69.79175454890205
 10
163.960007585605
 20
-69.99086741590189
 10
163.7101897133052
 20
-70.16706088160185
 10
163.4098893686048
 20
-70.31467199400198
 10
163.0687584402052
 20
-70.4289563899019
 10
162.6977610367053
 20
-70.50624079340185
 10
162.308821423405
 20
-70.5440412521021
  0
SPLINE
  5
158
330
70
100
AcDbEntity
  8
0
 62
    18
420
        0
370
    18
100
AcDbSpline
210
0.0
220
0.0
230
1.0
 70
     8
 71
     3
 72
     8
 73
     4
 74
     0
 42
0.0000000001
 43
0.0000000001
 40
0.0
 40
0.0
 40
0.0
 40
0.0
 40
1.0
 40
1.0
 40
1.0
 40
1.0
 10
172.5056779600642
 20
-100.3666081938111
 30
0.0
 10
173.0841917769488
 20
-100.3186344774026
 30
0.0
 10
173.6096902493432
 20
-100.0107558414675
 30
0.0
 10
173.9343867139914
 20
-99.52955742123139
 30
0.0
  0
LWPOLYLINE
  5
159
330
70
100
AcDbEntity
  8
0
 62
    18
420
        0
370
    18
100
AcDbPolyline
 90
       15
 70
     0
 43
0.0
 10
175.0611919286049
 20
-97.24443770530189
 10
175.0358419163048
 20
-96.71787078700189
 10
174.9601219419051
 20
-96.16889973090176
 10
174.835019558805
 20
-95.60468207310195
 10
174.6621655866049
 20
-95.0325727056016
 10
174.4438130378054
 20
-94.46002897240202
 10
174.182808931905
 20
-93.89451531010188
 10
173.8825555734049
 20
-93.34340545590213
 10
173.546967614205
 20
-92.81388222300208
 10
173.1804195020054
 20
-92.31284936740157
 10
172.787689899205
 20
-91.8468386649018
 10
172.3738987259049
 20
-91.42192611370182
 10
171.9444403179048
 20
-91.04364954490172
 10
171.5049133241052
 20
-90.71694138480195
 10
171.1395226306048
 20
-90.48968933560216
  0
LWPOLYLINE
  5
15A
330
70
100
AcDbEntity
  8
0
 62
    18
420
        0
370
    18
100
AcDbPolyline
 90
        8
 70
     0
 43
0.0
 10
173.9218812172048
 20
-99.76258370830162
 10
174.182808931905
 20
-99.58020067960157
 10
174.4438130378054
 20
-99.31603716030217
 10
174.6621655866049
 20
-98.99559791370165
 10
174.835019558805
 20
-98.62306027780185
 10
174.9601219419051
 20
-98.203282757002
 10
175.0358419163048
 20
-97.74173612240202
 10
175.0611919286049
 20
-97.24443770530189
  0
LWPOLYLINE
  5
15B
330
70
100
AcDbEntity
  8
0
 62
    18
420
        0
370
    18
100
AcDbPolyline
 90
       10
 70
     0
 43
0.0
 10
171.1395230319054
 20
-95.05517431540175
 10
171.1449470679051
 20
-95.06487107710173
 10
171.293000122205
 20
-95.37524262340181
 10
171.3957241092048
 20
-95.69094158730198
 10
171.4483156054053
 20
-95.9972040324021
 10
171.4483156054053
 20
-96.27971173790166
 10
171.3957241092054
 20
-96.52525333400163
 10
171.293000122205
 20
-96.72234970700216
 10
171.1449470679051
 20
-96.86178283530168
 10
171.1395230319054
 20
-96.8652171384018
  0
LWPOLYLINE
  5
15C
330
70
100
AcDbEntity
  8
0
 62
    18
420
        0
370
    18
100
AcDbPolyline
 90
       30
 70
     0
 43
0.0
 10
168.938361655705
 20
-138.6852583571018
 10
168.3885616557048
 20
-139.0187672931022
 10
167.789853843505
 20
-139.322919576102
 10
167.1469250721048
 20
-139.5953355769019
 10
166.4648061196052
 20
-139.8338823775018
 10
165.748836003605
 20
-140.0366937629018
 10
165.0046188064053
 20
-140.2021823729018
 10
164.2379773785052
 20
-140.3290524372017
 10
163.4549136944048
 20
-140.416311713002
 10
162.6615543255054
 20
-140.4632768074018
 10
161.8641098733052
 20
-140.4695804764017
 10
161.0688207056054
 20
-140.4351734502017
 10
160.2819116485054
 20
-140.3603244325018
 10
159.5095406199053
 20
-140.2456199491022
 10
158.7577525316052
 20
-140.0919572004017
 10
158.0324316105054
 20
-139.9005390433018
 10
157.3392545103051
 20
-139.6728633460017
 10
156.6836455961052
 20
-139.4107123821018
 10
156.0707366420051
 20
-139.1161374707019
 10
155.5053237289048
 20
-138.7914444361018
 10
154.9918330330053
 20
-138.4391738569018
 10
154.5342819065052
 20
-138.0620834647019
 10
154.1362527327051
 20
-137.6631239273016
 10
153.8008598343051
 20
-137.2454179202021
 10
153.5307285650049
 20
-136.8122340661017
 10
153.327972457405
 20
-136.3669634022017
 10
153.1941786039048
 20
-135.9130902593019
 10
153.1303943536049
 20
-135.454166942902
 10
153.1371186199048
 20
-134.9937852956021
 10
153.1395230976051
 20
-134.9686217143021
  0
LWPOLYLINE
  5
15D
330
70
100
AcDbEntity
  8
0
 62
    18
420
        0
370
    18
100
AcDbPolyline
 90
       10
 70
     0
 43
0.0
 10
171.1395227685053
 20
-134.9686217143021
 10
171.1541126903049
 20
-135.3116927392019
 10
171.112119151005
 20
-135.7714519727016
 10
170.9999031668053
 20
-136.2272699113016
 10
170.818342446005
 20
-136.6755784349019
 10
170.5688578641053
 20
-137.1128693378017
 10
170.2534029275051
 20
-137.5357204850021
 10
169.8744457295053
 20
-137.9408220433017
 10
169.4349518275052
 20
-138.3250033978017
 10
168.938361655705
 20
-138.6852583571018
  0
LWPOLYLINE
  5
15E
330
70
100
AcDbEntity
  8
0
 62
    18
420
        0
370
    18
100
AcDbPolyline
 90
       29
 70
     0
 43
0.0
 10
168.9594248067049
 20
-140.0023088575019
 10
168.4079209297052
 20
-140.3368506907018
 10
167.8073584175053
 20
-140.641945324002
 10
167.1624378783054
 20
-140.9152051873018
 10
166.4782059198051
 20
-141.1544912658018
 10
165.7600180894054
 20
-141.3579308435018
 10
165.0134946693048
 20
-141.523932074302
 10
164.2444787933053
 20
-141.6511953861018
 10
163.4589885044049
 20
-141.7387247344018
 10
162.6631717108054
 20
-141.7858353577016
 10
161.8632566631048
 20
-141.7921586435021
 10
161.0655037486052
 20
-141.757645017702
 10
160.2761564963051
 20
-141.6825642486017
 10
159.5013928438049
 20
-141.5675040785018
 10
158.7472758787054
 20
-141.4133655095016
 10
158.0197081355053
 20
-141.221354059602
 10
157.3243833899051
 20
-140.9929732237019
 10
156.666743129405
 20
-140.730010293302
 10
156.0519352293054
 20
-140.4345228418019
 10
155.4847710487053
 20
-140.108823688202
 10
154.9696893422052
 20
-139.7554618890017
 10
154.5107211596054
 20
-139.3772030834019
 10
154.1114590588049
 20
-138.977007462402
 10
153.7750267138054
 20
-138.5580073578022
 10
153.5040583027048
 20
-138.1234819610021
 10
153.3006742071052
 20
-137.6768317375018
 10
153.1664657339054
 20
-137.2215525752015
 10
153.1024841837052
 20
-136.7612075763021
 10
153.0973733515051
 20
-136.5098543048018
  0
LWPOLYLINE
  5
15F
330
70
100
AcDbEntity
  8
0
 62
    18
420
        0
370
    18
100
AcDbPolyline
 90
       10
 70
     0
 43
0.0
 10
171.1816725146054
 20
-136.5098543048018
 10
171.1820397190051
 20
-136.6182917675019
 10
171.1399160512049
 20
-137.0794752686018
 10
171.0273520922049
 20
-137.5367051574017
 10
170.845228974305
 20
-137.986402820902
 10
170.5949717880048
 20
-138.4250484964022
 10
170.2785397031053
 20
-138.849209480002
 10
169.8984084519051
 20
-139.255566054302
 10
169.457553206705
 20
-139.6409377961018
 10
168.9594248067049
 20
-140.0023088575019
  0
SPLINE
  5
160
330
70
100
AcDbEntity
  8
0
 62
    18
420
        0
370
    18
100
AcDbSpline
210
0.0
220
0.0
230
1.0
 70
     8
 71
     3
 72
     8
 73
     4
 74
     0
 42
0.0000000001
 43
0.0000000001
 40
0.0
 40
0.0
 40
0.0
 40
0.0
 40
1.0
 40
1.0
 40
1.0
 40
1.0
 10
170.8906506329755
 20
-87.09784716556317
 30
0.0
 10
171.2618953168179
 20
-86.24803196831148
 30
0.0
 10
171.2378452116847
 20
-85.27745928875559
 30
0.0
 10
170.8249663500772
 20
-84.44707411884953
 30
0.0
  0
SPLINE
  5
161
330
70
100
AcDbEntity
  8
0
 62
    18
420
        0
370
    18
100
AcDbSpline
210
0.0
220
0.0
230
1.0
 70
     8
 71
     3
 72
     8
 73
     4
 74
     0
 42
0.0000000001
 43
0.0000000001
 40
0.0
 40
0.0
 40
0.0
 40
0.0
 40
1.0
 40
1.0
 40
1.0
 40
1.0
 10
153.4395088236552
 20
-84.47761451563513
 30
0.0
 10
153.031156604456
 20
-85.32088350767095
 30
0.0
 10
153.0214366272521
 20
-86.30260817702328
 30
0.0
 10
153.4130121536664
 20
-87.15379718950352
 30
0.0
  0
LWPOLYLINE
  5
162
330
70
100
AcDbEntity
  8
0
 62
    18
420
        0
370
    18
100
AcDbPolyline
 90
       37
 70
     0
 43
0.0
 10
153.1196948493053
 20
-86.14525031480159
 10
153.1474957008049
 20
-86.58714902590167
 10
153.2454170545051
 20
-87.04432553890191
 10
153.4129473529049
 20
-87.49471693600179
 10
153.6487747754053
 20
-87.93479828410189
 10
153.951053290005
 20
-88.36112555050211
 10
154.3174184585051
 20
-88.77036175790196
 10
154.7450016611048
 20
-89.15930466130175
 10
155.2304568331052
 20
-89.52491009030175
 10
155.769985484605
 20
-89.86431612470166
 10
156.3593637266051
 20
-90.17486721240207
 10
156.9939800198052
 20
-90.45413231160194
 10
157.6688673635052
 20
-90.69992590610201
 10
158.3787427817048
 20
-90.91032471740209
 10
159.1180522418053
 20
-91.08368147060209
 10
159.8810084547049
 20
-91.21864002440188
 10
160.661640529005
 20
-91.31414396350209
 10
161.4538395425048
 20
-91.3694452659022
 10
162.2514043766049
 20
-91.384111907002
 10
163.0480936099053
 20
-91.35802861920195
 10
163.8376724065051
 20
-91.29139993390188
 10
164.613960721305
 20
-91.18474729170168
 10
165.370883085905
 20
-91.03890463280162
 10
166.102515761005
 20
-90.85501429090216
 10
166.8031327020054
 20
-90.63451505620179
 10
167.4672505380052
 20
-90.37913263270212
 10
168.0896716407051
 20
-90.09086572440157
 10
168.6655247398048
 20
-89.77197049550211
 10
169.1903031355051
 20
-89.42494276940191
 10
169.6598996996048
 20
-89.05249843060158
 10
170.0706385190053
 20
-88.6575521161019
 10
170.4193063576054
 20
-88.2431954037019
 10
170.7031735482051
 20
-87.81267076020162
 10
170.920018293605
 20
-87.36934778140192
 10
171.0681436561048
 20
-86.91669574360179
 10
171.1463905974052
 20
-86.45825782770188
 10
171.1593510168052
 20
-86.14525031480159
  0
SPLINE
  5
163
330
70
100
AcDbEntity
  8
0
 62
    18
420
        0
370
    18
100
AcDbSpline
210
0.0
220
0.0
230
1.0
 70
     8
 71
     3
 72
     8
 73
     4
 74
     0
 42
0.0000000001
 43
0.0000000001
 40
0.0
 40
0.0
 40
0.0
 40
0.0
 40
1.0
 40
1.0
 40
1.0
 40
1.0
 10
159.7888209163198
 20
-91.20457560573916
 30
0.0
 10
161.3442822098289
 20
-91.4750844988611
 30
0.0
 10
162.9347636561814
 20
-91.4750844988611
 30
0.0
 10
164.4902249496905
 20
-91.20457560573916
 30
0.0
  0
LWPOLYLINE
  5
164
330
70
100
AcDbEntity
  8
0
 62
    18
420
        0
370
    18
100
AcDbPolyline
 90
       21
 70
     0
 43
0.0
 10
159.9395229001052
 20
-85.43695011660181
 10
159.9242609336054
 20
-85.52490407640219
 10
159.9339769017054
 20
-85.75459524310199
 10
160.0145807738053
 20
-85.97959370960181
 10
160.1634819347049
 20
-86.19266786990175
 10
160.375894873005
 20
-86.38696919570213
 10
160.6449922192054
 20
-86.55625280640196
 10
160.962125003705
 20
-86.69507776640173
 10
161.317100282805
 20
-86.7989821052021
 10
161.6985089128053
 20
-86.86462626520182
 10
162.0940921206051
 20
-86.88990039980158
 10
162.4911354534049
 20
-86.87399220070167
 10
162.8768777013051
 20
-86.81741288200177
 10
163.2389209081052
 20
-86.7219810611022
 10
163.5656284029049
 20
-86.59076390420173
 10
163.8464996359052
 20
-86.42797881840198
 10
164.0725073366053
 20
-86.23885796940214
 10
164.2363873228048
 20
-86.02947976150185
 10
164.3328723908053
 20
-85.80657390080185
 10
164.3588613889052
 20
-85.57730457040166
 10
164.3395229660052
 20
-85.43695011660181
  0
LWPOLYLINE
  5
165
330
70
100
AcDbEntity
  8
0
 62
    18
420
        0
370
    18
100
AcDbPolyline
 90
       35
 70
     0
 43
0.0
 10
153.1926876591048
 20
-86.83925652990184
 10
153.2981920211053
 20
-87.24666047160191
 10
153.4814912995054
 20
-87.69395074880218
 10
153.7325511198051
 20
-88.13013885560179
 10
154.0494067805053
 20
-88.55181079250213
 10
154.4295785981053
 20
-88.9556664588022
 10
154.8700915318052
 20
-89.33854497190161
 10
155.3674971793052
 20
-89.69745013890204
 10
155.9179036083049
 20
-90.02957254390173
 10
156.5170020279052
 20
-90.33231346130166
 10
157.1601047208051
 20
-90.60330310360216
 10
157.8421778387052
 20
-90.84042077040171
 10
158.5578834832051
 20
-91.04181062550161
 10
159.3016209965051
 20
-91.20589640940215
 10
160.0675683186054
 20
-91.33139436540201
 10
160.8497316406051
 20
-91.41732183090169
 10
161.6419891328051
 20
-91.46300666600181
 10
162.4381407304054
 20
-91.46809105490175
 10
163.2319552853048
 20
-91.43253530800199
 10
164.0172195617048
 20
-91.35661755740162
 10
164.787789075905
 20
-91.24093238840218
 10
165.5376320871052
 20
-91.08638460480204
 10
166.2608796467052
 20
-90.89418405850201
 10
166.9518724865048
 20
-90.66583500480156
 10
167.6052026391052
 20
-90.40312484920177
 10
168.2157556173052
 20
-90.10810892210166
 10
168.778754207505
 20
-89.78309675410203
 10
169.2897921543053
 20
-89.43063202220191
 10
169.7448687998052
 20
-89.05347255320201
 10
170.1404238220052
 20
-88.65457087760187
 10
170.4733610079052
 20
-88.23704894870214
 10
170.7410746286054
 20
-87.804173792302
 10
170.941468932105
 20
-87.35933348040211
 10
171.0729765825049
 20
-86.90601006290162
 10
171.0863582069048
 20
-86.83925652990184
  0
LWPOLYLINE
  5
166
330
70
100
AcDbEntity
  8
0
 62
    18
420
        0
370
    18
100
AcDbPolyline
 90
       38
 70
     0
 43
0.0
 10
153.139522834205
 20
-135.2678129496021
 10
153.1400733774048
 20
-135.3252851728018
 10
153.1840886484049
 20
-135.7842188299019
 10
153.2981920211053
 20
-136.2391111315021
 10
153.4814912995054
 20
-136.6864014087017
 10
153.7325511198051
 20
-137.122589515502
 10
154.0494067805053
 20
-137.5442614524017
 10
154.4295785981053
 20
-137.9481171187018
 10
154.8700915318052
 20
-138.3309956319019
 10
155.3674971793052
 20
-138.6899007988016
 10
155.9179036083049
 20
-139.022023203902
 10
156.5170020279052
 20
-139.324764121302
 10
157.1601047208051
 20
-139.5957537636018
 10
157.8421778387052
 20
-139.8328714303019
 10
158.5578834832051
 20
-140.0342612854018
 10
159.3016209965051
 20
-140.1983470694018
 10
160.0675683186054
 20
-140.3238450254017
 10
160.8497316406051
 20
-140.409772490902
 10
161.6419891328051
 20
-140.455457325902
 10
162.4381407304054
 20
-140.4605417148019
 10
163.2319552853048
 20
-140.4249859679022
 10
164.0172195617048
 20
-140.3490682173018
 10
164.787789075905
 20
-140.2333830483017
 10
165.5376320871052
 20
-140.0788352647016
 10
166.2608796467052
 20
-139.8866347184016
 10
166.9518724865048
 20
-139.6582856647017
 10
167.6052026391052
 20
-139.395575509202
 10
168.2157556173052
 20
-139.1005595821019
 10
168.778754207505
 20
-138.7755474140016
 10
169.2897921543053
 20
-138.4230826821021
 10
169.7448687998052
 20
-138.0459232131016
 10
170.1404238220052
 20
-137.6470215375021
 10
170.4733610079052
 20
-137.2294996086017
 10
170.7410746286054
 20
-136.7966244522015
 10
170.941468932105
 20
-136.3517841404018
 10
171.0729765825049
 20
-135.8984607229019
 10
171.134567616205
 20
-135.440201334702
 10
171.1395230319054
 20
-135.2678129496021
  0
LWPOLYLINE
  5
167
330
70
100
AcDbEntity
  8
0
 62
    18
420
        0
370
    18
100
AcDbPolyline
 90
       20
 70
     0
 43
0.0
 10
168.4759450377054
 20
-89.88328385100194
 10
168.1440909929054
 20
-90.067714965102
 10
167.5310541495049
 20
-90.36317027330168
 10
166.8746083570054
 20
-90.62571311620191
 10
166.1800381717054
 20
-90.85322952230155
 10
165.4529366780051
 20
-91.04388787240175
 10
164.6991568877051
 20
-91.19615235710174
 10
163.9247688690049
 20
-91.30879799370193
 10
163.1360066676048
 20
-91.38091693710215
 10
162.339221813605
 20
-91.41192950460185
 10
161.5408287939052
 20
-91.40158493630192
 10
160.7472560565053
 20
-91.34996747780185
 10
159.9648933273049
 20
-91.25749181810162
 10
159.2000389257048
 20
-91.12490339400165
 10
158.4588523503049
 20
-90.95326896140205
 10
157.7472996192051
 20
-90.74397119740158
 10
157.071110728305
 20
-90.49869448160199
 10
156.4357300624049
 20
-90.21941390940197
 10
155.8462724709053
 20
-89.90837845060168
 10
155.8031008283049
 20
-89.88328385100194
  0
LWPOLYLINE
  5
168
330
70
100
AcDbEntity
  8
0
 62
    18
420
        0
370
    18
100
AcDbPolyline
 90
       27
 70
     0
 43
0.0
 10
163.7599189043052
 20
-68.32857043390205
 10
163.9341967238053
 20
-68.45161010370166
 10
164.1356348863053
 20
-68.64856729460166
 10
164.272916391505
 20
-68.86312333720169
 10
164.3416287938052
 20
-69.08838214390162
 10
164.3395637299053
 20
-69.31710376390167
 10
164.266787515305
 20
-69.54193681860181
 10
164.1256393002052
 20
-69.75565511930188
 10
163.9206556823048
 20
-69.95138944710159
 10
163.6584249467054
 20
-70.1228487878022
 10
163.3473754836052
 20
-70.26452231140196
 10
162.997504681805
 20
-70.37185655980214
 10
162.620057658005
 20
-70.44140167860174
 10
162.227165724005
 20
-70.47092234630183
 10
161.8314569976053
 20
-70.45946988760191
 10
161.445649685405
 20
-70.40741230670191
 10
161.0821441147053
 20
-70.31642276820196
 10
160.752623540005
 20
-70.18942577480206
 10
160.4676790035049
 20
-70.03050316990169
 10
160.2364688835053
 20
-69.84476283700217
 10
160.0664245585048
 20
-69.6381745611021
 10
159.9630114046054
 20
-69.41737822380201
 10
159.9295529314052
 20
-69.18947050900182
 10
159.9671248053051
 20
-68.96177652560206
 10
160.0745193217049
 20
-68.74161457740178
 10
160.2482847854053
 20
-68.53606076210219
 10
160.412113964905
 20
-68.40035074600187
  0
LWPOLYLINE
  5
169
330
70
100
AcDbEntity
  8
0
 62
    18
420
        0
370
    18
100
AcDbPolyline
 90
       13
 70
     0
 43
0.0
 10
160.4559628217048
 20
-69.84871716950208
 10
160.641731992305
 20
-69.9724175815019
 10
160.9403189816054
 20
-70.11668953830218
 10
161.2797435224053
 20
-70.226831928802
 10
161.6484466886052
 20
-70.29909406310189
 10
162.0338730327052
 20
-70.33101508400164
 10
162.4228970714053
 20
-70.3215079914018
 10
162.8022711282051
 20
-70.27089646180212
 10
163.1590761732054
 20
-70.18090416540201
 10
163.4811615169053
 20
-70.05459558310214
 10
163.7575589360053
 20
-69.89627197350166
 10
163.9788560184054
 20
-69.71132488360179
 10
163.9859606600054
 20
-69.70396890500211
  0
LWPOLYLINE
  5
16A
330
70
100
AcDbEntity
  8
0
 62
    18
420
        0
370
    18
100
AcDbPolyline
 90
       10
 70
     0
 43
0.0
 10
162.0288659213052
 20
-70.55197991670207
 10
161.6365284159049
 20
-70.52009653260218
 10
161.2603575855051
 20
-70.44828389190175
 10
160.9124438792049
 20
-70.33885013760182
 10
160.6039696276049
 20
-70.19531243670209
 10
160.344849142205
 20
-70.02228440780162
 10
160.1434109798051
 20
-69.82532721690161
 10
160.0061294746054
 20
-69.61077117430159
 10
159.9374170723052
 20
-69.38551236760165
 10
159.9295229017049
 20
-69.27777437910222
  0
LWPOLYLINE
  5
16B
330
70
100
AcDbEntity
  8
0
 62
    18
420
        0
370
    18
100
AcDbPolyline
 90
       11
 70
     0
 43
0.0
 10
164.3495229643054
 20
-69.27777437910222
 10
164.3494929347052
 20
-69.28442400250209
 10
164.3119210607053
 20
-69.51211798590185
 10
164.2045265443054
 20
-69.73227993410214
 10
164.0307610807051
 20
-69.93783374940173
 10
163.7962096787049
 20
-70.12217267720195
 10
163.5084109527049
 20
-70.27937193020171
 10
163.176615090305
 20
-70.40437904920165
 10
162.8114863390051
 20
-70.49317622530193
 10
162.4247599621051
 20
-70.54290929690175
 10
162.0288659213052
 20
-70.55197991670207
  0
LWPOLYLINE
  5
16C
330
70
100
AcDbEntity
  8
0
 62
     8
420
  8421504
370
    18
100
AcDbPolyline
 90
       25
 70
     0
 43
0.0
 10
171.1395231636052
 20
-100.1101452159016
 10
171.4913042055051
 20
-100.2126872442016
 10
171.9016568544053
 20
-100.2771070191019
 10
172.2918955784054
 20
-100.2760708494021
 10
172.6567431970054
 20
-100.2095911695015
 10
172.9912658946052
 20
-100.0785673095018
 10
173.2909394706052
 20
-99.88477142040181
 10
173.551711505405
 20
-99.63082474170221
 10
173.7700556248049
 20
-99.32015957350184
 10
173.943018915405
 20
-98.95697972730175
 10
174.0682624905052
 20
-98.54619390650181
 10
174.1440925735053
 20
-98.0933594286018
 10
174.1694836789054
 20
-97.6045994850021
 10
174.1440925735053
 20
-97.08652359510214
 10
174.0682624905052
 20
-96.5461375669021
 10
173.943018915405
 20
-95.99074859240182
 10
173.7700556248049
 20
-95.42786958160199
 10
173.551711505405
 20
-94.86510965900205
 10
173.2909394706052
 20
-94.310081997702
 10
172.9912658946052
 20
-93.77029036250167
 10
172.6567431970054
 20
-93.2530348170018
 10
172.2918955784054
 20
-92.76531104310191
 10
171.9016568544053
 20
-92.31371483310191
 10
171.4913042055051
 20
-91.90435213260199
 10
171.1395231636052
 20
-91.60073641540202
  0
LWPOLYLINE
  5
16D
330
70
100
AcDbEntity
  8
0
 62
     8
420
  8421504
370
    18
100
AcDbPolyline
 90
       19
 70
     0
 43
0.0
 10
171.1395227685053
 20
-91.25233684410217
 10
171.5442062053048
 20
-91.58257638420202
 10
171.9665198006051
 20
-91.98482714000213
 10
172.3704388648054
 20
-92.43101639200165
 10
172.7506978737052
 20
-92.91532842390203
 10
173.102339435805
 20
-93.43144767650214
 10
173.4207794229049
 20
-93.97264684050169
 10
173.7018667655052
 20
-94.53187065490196
 10
173.941936531705
 20
-95.10182860160194
 10
174.137859318005
 20
-95.67509033930175
 10
174.2870807620049
 20
-96.24418273450174
 10
174.3876560500049
 20
-96.80168643760209
 10
174.4382736248048
 20
-97.34033352360198
 10
174.4382736248048
 20
-97.85310209210168
 10
174.3876560500049
 20
-98.33330737010191
 10
174.2870807620049
 20
-98.77468931740221
 10
174.137859318005
 20
-99.17149430060188
 10
173.941936531705
 20
-99.51854840410174
 10
173.9343867140049
 20
-99.52955742130198
  0
SPLINE
  5
16E
330
70
100
AcDbEntity
  8
0
 62
     8
420
  8421504
370
    18
100
AcDbSpline
210
0.0
220
0.0
230
1.0
 70
     8
 71
     3
 72
     8
 73
     4
 74
     0
 42
0.0000000001
 43
0.0000000001
 40
0.0
 40
0.0
 40
0.0
 40
0.0
 40
1.0
 40
1.0
 40
1.0
 40
1.0
 10
171.4549478070811
 20
-96.14228657368542
 30
0.0
 10
171.4411196407029
 20
-95.75943999200829
 30
0.0
 10
171.3327566139023
 20
-95.38596655541596
 30
0.0
 10
171.1395230318772
 20
-95.05517431538377
 30
0.0
  0
SPLINE
  5
16F
330
70
100
AcDbEntity
  8
0
 62
     8
420
  8421504
370
    18
100
AcDbSpline
210
0.0
220
0.0
230
1.0
 70
     8
 71
     3
 72
     8
 73
     4
 74
     0
 42
0.0000000001
 43
0.0000000001
 40
0.0
 40
0.0
 40
0.0
 40
0.0
 40
1.0
 40
1.0
 40
1.0
 40
1.0
 10
171.1395230319227
 20
-96.86521713835432
 30
0.0
 10
171.3646532972783
 20
-96.69661416394374
 30
0.0
 10
171.484471842849
 20
-96.42199880200156
 30
0.0
 10
171.4549478071274
 20
-96.14228657367773
 30
0.0
  0
LWPOLYLINE
  5
170
330
70
100
AcDbEntity
  8
0
 62
     8
420
  8421504
370
    18
100
AcDbPolyline
 90
       43
 70
     0
 43
0.0
 10
155.6392521889052
 20
-89.12622975430211
 10
156.200128586505
 20
-89.44874065320169
 10
156.8088250948053
 20
-89.74092939160184
 10
157.4604417145053
 20
-90.00044292860179
 10
158.1497311631049
 20
-90.22519246010213
 10
158.8711441494053
 20
-90.41336799820188
 10
159.6188721791054
 20
-90.56345456700206
 10
160.3868949700053
 20
-90.67424375910171
 10
161.169028789205
 20
-90.7448433925022
 10
161.9589766341049
 20
-90.77468518950217
 10
162.7503788088054
 20
-90.76352903510203
 10
163.5368616559051
 20
-90.71146434500191
 10
164.3120941921052
 20
-90.61891082660194
 10
165.0698347325052
 20
-90.48661346030188
 10
165.803981862205
 20
-90.31563710140218
 10
166.5086252760054
 20
-90.10735902840171
 10
167.1780911519053
 20
-89.86345552340216
 10
167.8069891386049
 20
-89.58589056190156
 10
168.3902561576053
 20
-89.27689904180168
 10
168.9231960342051
 20
-88.9389687713017
 10
169.4015180497049
 20
-88.57482064660192
 10
169.821370466505
 20
-88.18738625640184
 10
170.1793727784053
 20
-87.77978500660196
 10
170.4726431944054
 20
-87.35529913000199
 10
170.6988205690054
 20
-86.91734581950177
 10
170.8560833683054
 20
-86.46945168080208
 10
170.9431653428054
 20
-86.0152223951016
 10
170.9593660645052
 20
-85.55831565050189
 10
170.904553824605
 20
-85.1024099687018
 10
170.7791709015052
 20
-84.65117581150188
 10
170.5842269758053
 20
-84.20824653640192
 10
170.3212909638048
 20
-83.77718843890191
 10
169.9924804812053
 20
-83.36147155550184
 10
169.6004423501052
 20
-82.96444381220203
 10
169.1483335013053
 20
-82.58930114320202
 10
168.6397936772052
 20
-82.2390644336019
 10
168.0789172796048
 20
-81.91655353470169
 10
167.4702207713051
 20
-81.62436479620208
 10
166.818604151505
 20
-81.36485125920211
 10
166.1293147029048
 20
-81.14010172780188
 10
165.4079017167051
 20
-80.95192618970214
 10
164.660173687005
 20
-80.80183962090194
 10
164.3395228343049
 20
-80.75043353670187
  0
LWPOLYLINE
  5
171
330
70
100
AcDbEntity
  8
0
 62
     8
420
  8421504
370
    18
100
AcDbPolyline
 90
       24
 70
     0
 43
0.0
 10
159.9395230318049
 20
-80.75043353670187
 10
159.2092111336052
 20
-80.87868072760214
 10
158.4750640039054
 20
-81.04965708650182
 10
157.770420590105
 20
-81.25793515950167
 10
157.100954714105
 20
-81.50183866440174
 10
156.4720567274054
 20
-81.7794036260018
 10
155.8887897085052
 20
-82.0883951461017
 10
155.3558498318052
 20
-82.42632541660167
 10
154.8775278164048
 20
-82.790473541202
 10
154.4576753995053
 20
-83.17790793150216
 10
154.0996730877052
 20
-83.58550918120194
 10
153.806402671705
 20
-84.00999505790201
 10
153.5802252970049
 20
-84.44794836840163
 10
153.422962497805
 20
-84.89584250700183
 10
153.335880523305
 20
-85.35007179280176
 10
153.3196798016053
 20
-85.80697853740215
 10
153.3744920415054
 20
-86.26288421920156
 10
153.4998749645051
 20
-86.71411837640212
 10
153.6948188903051
 20
-87.157047651402
 10
153.957754902305
 20
-87.58810574890201
 10
154.2865653849051
 20
-88.00382263240217
 10
154.6786035159051
 20
-88.40085037570201
 10
155.1307123648051
 20
-88.775993044702
 10
155.6392521889052
 20
-89.12622975430211
  0
LWPOLYLINE
  5
172
330
70
100
AcDbEntity
  8
0
 62
     8
420
  8421504
370
    18
100
AcDbPolyline
 90
       32
 70
     0
 43
0.0
 10
170.890650633005
 20
-87.09784716560166
 10
170.699795214905
 20
-87.47910425520187
 10
170.4160399768048
 20
-87.90945903890206
 10
170.0675103009054
 20
-88.32365265850198
 10
169.6569330883052
 20
-88.71844302740184
 10
169.1875217069053
 20
-89.09074031660191
 10
168.6629505881051
 20
-89.43763135270206
 10
168.087324225805
 20
-89.75640055530218
 10
167.4651486615049
 20
-90.04455369790173
 10
166.801292728605
 20
-90.29983541440163
 10
166.1009525081051
 20
-90.52024789450218
 10
165.3696086706053
 20
-90.70406577600214
 10
164.6129844949052
 20
-90.84985064910158
 10
163.8370025350053
 20
-90.95646147260188
 10
163.0477356251049
 20
-91.02306400230173
 10
162.2513606492052
 20
-91.04913679740164
 10
161.4541095457049
 20
-91.03447608700179
 10
160.6622237360052
 20
-90.97919622610174
 10
159.8818995971048
 20
-90.88373015200176
 10
159.1192442073053
 20
-90.74882482190167
 10
158.3802268776054
 20
-90.5755363472018
 10
157.6706305505049
 20
-90.36522079300176
 10
156.9960097857051
 20
-90.11952391370158
 10
156.3616442003052
 20
-89.84036887360213
 10
155.7724977480053
 20
-89.52994064630182
 10
155.2331825488053
 20
-89.19066817590168
 10
154.7479184864052
 20
-88.82520713530158
 10
154.3205041347052
 20
-88.43641766840191
 10
153.9542835825051
 20
-88.02734280500219
 10
153.6521238693049
 20
-87.60118387780186
 10
153.4163899602054
 20
-87.1612757349016
 10
153.4130121537049
 20
-87.15379718950158
  0
LWPOLYLINE
  5
173
330
70
100
AcDbEntity
  8
0
 62
     8
420
  8421504
370
    18
100
AcDbPolyline
 90
       30
 70
     0
 43
0.0
 10
159.939522982405
 20
-84.60869847430171
 10
159.871975430105
 20
-84.66032086550184
 10
159.6378434634048
 20
-84.88258349820215
 10
159.4685036823053
 20
-85.12364926480207
 10
159.3683416968054
 20
-85.37727473420183
 10
159.3399522382054
 20
-85.63689114520192
 10
159.3840698470051
 20
-85.89577458900185
 10
159.4995524095049
 20
-86.14722012760214
 10
159.6834087506053
 20
-86.38471541690213
 10
159.9308771656054
 20
-86.60210952090164
 10
160.2355483782054
 20
-86.79377194190177
 10
160.5895315188049
 20
-86.9547387712017
 10
160.9836587177049
 20
-87.08084098790195
 10
161.407722065705
 20
-87.16881281570168
 10
161.8507387856054
 20
-87.21637561280202
 10
162.3012347273053
 20
-87.22229766750157
 10
162.7475424576051
 20
-87.18642546740198
 10
163.1781028082052
 20
-87.10968822310196
 10
163.5817645461053
 20
-86.99407329040202
 10
163.9480728493054
 20
-86.84257505670194
 10
164.2675407750052
 20
-86.65911730040164
 10
164.5318942218054
 20
-86.44845146740205
 10
164.7342864176049
 20
-86.21603360990189
 10
164.8694754635053
 20
-85.96788326780156
 10
164.9339604052051
 20
-85.71042751310191
 10
164.9260707785052
 20
-85.45033414130204
 10
164.8460110617048
 20
-85.19433949260173
 10
164.6958546821049
 20
-84.94907376370168
 10
164.4794906084054
 20
-84.72088920940175
 10
164.3395228837048
 20
-84.60869847430171
  0
LWPOLYLINE
  5
174
330
70
100
AcDbEntity
  8
0
 62
     8
420
  8421504
370
    18
100
AcDbPolyline
 90
       14
 70
     0
 43
0.0
 10
162.2451728333052
 20
-67.89791668750209
 10
161.856148794605
 20
-67.90742378010193
 10
161.4767747379053
 20
-67.95803530970161
 10
161.119969692905
 20
-68.04802760620184
 10
160.7978843492051
 20
-68.17433618840159
 10
160.5214869301052
 20
-68.33265979800208
 10
160.3001898476049
 20
-68.51760688790195
 10
160.1415289254052
 20
-68.7228792826021
 10
160.0509072742049
 20
-68.94148664100185
 10
160.0314110641052
 20
-69.16598465220187
 10
160.083704042005
 20
-69.38872821850181
 10
160.2060054048054
 20
-69.60213213790196
 10
160.3941503853053
 20
-69.79892916340211
 10
160.4559628217048
 20
-69.84871716950208
  0
LWPOLYLINE
  5
175
330
70
100
AcDbEntity
  8
0
 62
     8
420
  8421504
370
    18
100
AcDbPolyline
 90
       12
 70
     0
 43
0.0
 10
163.9859606600054
 20
-69.70396890500211
 10
164.1375169406051
 20
-69.50605248890164
 10
164.2281385918054
 20
-69.28744513050189
 10
164.2476348020052
 20
-69.06294711930185
 10
164.1953418241054
 20
-68.84020355300191
 10
164.073040461305
 20
-68.62679963360178
 10
163.884895480705
 20
-68.43000260810163
 10
163.6373138738054
 20
-68.25651419000184
 10
163.3387268844049
 20
-68.11224223320156
 10
162.9993023437051
 20
-68.00209984270174
 10
162.6305991775052
 20
-67.92983770840185
 10
162.2451728333052
 20
-67.89791668750209
  0
ENDSEC
  0
SECTION
  2
OBJECTS
  0
DICTIONARY
  5
C
330
0
100
AcDbDictionary
281
     1
  3
ACAD_COLOR
350
63
  3
ACAD_DETAILVIEWSTYLE
350
6A
  3
ACAD_GROUP
350
D
  3
ACAD_LAYOUT
350
62
  3
ACAD_MATERIAL
350
10
  3
ACAD_MLEADERSTYLE
350
66
  3
ACAD_MLINESTYLE
350
5F
  3
ACAD_PLOTSETTINGS
350
61
  3
ACAD_PLOTSTYLENAME
350
E
  3
ACAD_SCALELIST
350
42
  3
ACAD_SECTIONVIEWSTYLE
350
68
  3
ACAD_TABLESTYLE
350
64
  3
ACAD_VISUALSTYLE
350
29
  3
ACDB_RECOMPOSE_DATA
350
17E
  3
AcDbVariableDictionary
350
176
  0
DICTIONARY
  5
63
102
{ACAD_REACTORS
330
C
102
}
330
C
100
AcDbDictionary
281
     1
  0
DICTIONARY
  5
6A
102
{ACAD_REACTORS
330
C
102
}
330
C
100
AcDbDictionary
281
     1
  3
Imperial24
350
6B
  0
DICTIONARY
  5
D
102
{ACAD_REACTORS
330
C
102
}
330
C
100
AcDbDictionary
281
     1
  0
DICTIONARY
  5
62
102
{ACAD_REACTORS
330
C
102
}
330
C
100
AcDbDictionary
281
     1
  3
Layout1
350
6F
  3
Layout2
350
77
  3
Model
350
73
  0
DICTIONARY
  5
10
102
{ACAD_REACTORS
330
C
102
}
330
C
100
AcDbDictionary
281
     1
  3
ByBlock
350
19
  3
ByLayer
350
11
  3
Global
350
21
  0
DICTIONARY
  5
66
102
{ACAD_REACTORS
330
C
102
}
330
C
100
AcDbDictionary
281
     1
  3
Standard
350
67
  0
DICTIONARY
  5
5F
102
{ACAD_REACTORS
330
C
102
}
330
C
100
AcDbDictionary
281
     1
  3
Standard
350
60
  0
DICTIONARY
  5
61
102
{ACAD_REACTORS
330
C
102
}
330
C
100
AcDbDictionary
281
     1
  0
ACDBDICTIONARYWDFLT
  5
E
102
{ACAD_REACTORS
330
C
102
}
330
C
100
AcDbDictionary
281
     1
  3
Normal
350
F
100
AcDbDictionaryWithDefault
340
F
  0
DICTIONARY
  5
42
102
{ACAD_REACTORS
330
C
102
}
330
C
100
AcDbDictionary
281
     1
  3
A0
350
43
  3
A1
350
44
  3
A2
350
45
  3
A3
350
46
  3
A4
350
47
  3
A5
350
48
  3
A6
350
49
  3
A7
350
4A
  3
A8
350
4B
  3
A9
350
4C
  3
B0
350
4D
  3
B1
350
4E
  3
B2
350
4F
  3
B3
350
50
  3
B4
350
51
  3
B5
350
52
  3
B6
350
53
  0
DICTIONARY
  5
68
102
{ACAD_REACTORS
330
C
102
}
330
C
100
AcDbDictionary
281
     1
  3
Imperial24
350
69
  0
DICTIONARY
  5
64
102
{ACAD_REACTORS
330
C
102
}
330
C
100
AcDbDictionary
281
     1
  3
Standard
350
65
  0
DICTIONARY
  5
29
102
{ACAD_REACTORS
330
C
102
}
330
C
100
AcDbDictionary
281
     1
  3
2dWireframe
350
2F
  3
Basic
350
2E
  3
Brighten
350
35
  3
ColorChange
350
39
  3
Conceptual
350
32
  3
Dim
350
34
  3
EdgeColorOff
350
41
  3
Facepattern
350
38
  3
Flat
350
2A
  3
FlatWithEdges
350
2B
  3
Gouraud
350
2C
  3
GouraudWithEdges
350
2D
  3
Hidden
350
31
  3
JitterOff
350
3F
  3
Linepattern
350
37
  3
OverhangOff
350
40
  3
Realistic
350
33
  3
Shaded
350
3E
  3
Shaded with edges
350
3D
  3
Shades of Gray
350
3A
  3
Sketchy
350
3B
  3
Thicken
350
36
  3
Wireframe
350
30
  3
X-Ray
350
3C
  0
XRECORD
  5
17E
102
{ACAD_REACTORS
330
C
102
}
330
C
100
AcDbXrecord
280
     1
 90
        1
330
65
  0
DICTIONARY
  5
176
102
{ACAD_REACTORS
330
C
102
}
330
C
100
AcDbDictionary
281
     1
  3
CANNOSCALE
350
17B
  3
CMLEADERSTYLE
350
178
  3
CTABLESTYLE
350
177
  3
CVIEWDETAILSTYLE
350
179
  3
CVIEWSECTIONSTYLE
350
17A
  0
ACDBDETAILVIEWSTYLE
  5
6B
102
{ACAD_REACTORS
330
6A
102
}
330
6A
100
AcDbModelDocViewStyle
 70
     0
  3
Imperial24
290
     1
300
Imperial24
 90
        0
100
AcDbDetailViewStyle
 70
     0
 71
     0
 90
        3
 71
     1
340
55
 62
   256
 40
0.24
340
0
 62
   256
 40
0.24
300

 40
0.36
280
     3
 71
     2
340
5D
 90
       25
 62
   256
 71
     3
340
55
 62
   256
 40
0.24
 90
        1
 40
0.75
 90
        1
300
%<\AcVar ViewType \f "%tc1">% %<\AcVar ViewDetailId>%\PSCALE %<\AcVar ViewScale \f "%sn">%
 71
     4
340
5D
 90
       25
 62
   256
340
5D
 90
       25
 62
   256
280
     0
  0
LAYOUT
  5
6F
102
{ACAD_REACTORS
330
62
102
}
330
62
100
AcDbPlotSettings
  1

  2

  4

  6

 40
0.0
 41
0.0
 42
0.0
 43
0.0
 44
0.0
 45
0.0
 46
0.0
 47
0.0
 48
0.0
 49
0.0
140
0.0
141
0.0
142
1.0
143
1.0
 70
   688
 72
     0
 73
     0
 74
     5
  7

 75
    16
147
1.0
 76
     0
 77
     2
 78
   300
148
0.0
149
0.0
100
AcDbLayout
  1
Layout1
 70
     1
 71
     1
 10
0.0
 20
0.0
 11
12.0
 21
9.0
 12
0.0
 22
0.0
 32
0.0
 14
0.0
 24
0.0
 34
0.0
 15
0.0
 25
0.0
 35
0.0
146
0.0
 13
0.0
 23
0.0
 33
0.0
 16
1.0
 26
0.0
 36
0.0
 17
0.0
 27
1.0
 37
0.0
 76
     0
330
6C
  0
LAYOUT
  5
77
102
{ACAD_REACTORS
330
62
102
}
330
62
100
AcDbPlotSettings
  1

  2

  4

  6

 40
0.0
 41
0.0
 42
0.0
 43
0.0
 44
0.0
 45
0.0
 46
0.0
 47
0.0
 48
0.0
 49
0.0
140
0.0
141
0.0
142
1.0
143
1.0
 70
   688
 72
     0
 73
     0
 74
     5
  7

 75
    16
147
1.0
 76
     0
 77
     2
 78
   300
148
0.0
149
0.0
100
AcDbLayout
  1
Layout2
 70
     1
 71
     2
 10
0.0
 20
0.0
 11
12.0
 21
9.0
 12
0.0
 22
0.0
 32
0.0
 14
0.0
 24
0.0
 34
0.0
 15
0.0
 25
0.0
 35
0.0
146
0.0
 13
0.0
 23
0.0
 33
0.0
 16
1.0
 26
0.0
 36
0.0
 17
0.0
 27
1.0
 37
0.0
 76
     0
330
74
  0
LAYOUT
  5
73
102
{ACAD_REACTORS
330
62
102
}
330
62
100
AcDbPlotSettings
  1

  2

  4

  6

 40
0.0
 41
0.0
 42
0.0
 43
0.0
 44
0.0
 45
0.0
 46
0.0
 47
0.0
 48
0.0
 49
0.0
140
0.0
141
0.0
142
1.0
143
1.0
 70
  1712
 72
     0
 73
     0
 74
     0
  7

 75
     0
147
1.0
 76
     0
 77
     2
 78
   300
148
0.0
149
0.0
100
AcDbLayout
  1
Model
 70
     1
 71
     0
 10
0.0
 20
0.0
 11
12.0
 21
9.0
 12
0.0
 22
0.0
 32
0.0
 14
0.0
 24
0.0
 34
0.0
 15
0.0
 25
0.0
 35
0.0
146
0.0
 13
0.0
 23
0.0
 33
0.0
 16
1.0
 26
0.0
 36
0.0
 17
0.0
 27
1.0
 37
0.0
 76
     0
330
70
  0
MATERIAL
  5
19
102
{ACAD_XDICTIONARY
360
1A
102
}
102
{ACAD_REACTORS
330
10
102
}
330
10
100
AcDbMaterial
  1
ByBlock
 72
     0
 43
0.0208333333333333
 43
0.0
 43
0.0
 43
0.0
 43
0.0
 43
0.0208333333333333
 43
0.0
 43
0.0
 43
0.0
 43
0.0
 43
1.0
 43
0.0
 43
0.0
 43
0.0
 43
0.0
 43
1.0
 77
     0
 47
0.0208333333333333
 47
0.0
 47
0.0
 47
0.0
 47
0.0
 47
0.0208333333333333
 47
0.0
 47
0.0
 47
0.0
 47
0.0
 47
1.0
 47
0.0
 47
0.0
 47
0.0
 47
0.0
 47
1.0
171
     0
 49
0.0208333333333333
 49
0.0
 49
0.0
 49
0.0
 49
0.0
 49
0.0208333333333333
 49
0.0
 49
0.0
 49
0.0
 49
0.0
 49
1.0
 49
0.0
 49
0.0
 49
0.0
 49
0.0
 49
1.0
175
     0
142
0.0208333333333333
142
0.0
142
0.0
142
0.0
142
0.0
142
0.0208333333333333
142
0.0
142
0.0
142
0.0
142
0.0
142
1.0
142
0.0
142
0.0
142
0.0
142
0.0
142
1.0
179
     0
144
0.0208333333333333
144
0.0
144
0.0
144
0.0
144
0.0
144
0.0208333333333333
144
0.0
144
0.0
144
0.0
144
0.0
144
1.0
144
0.0
144
0.0
144
0.0
144
0.0
144
1.0
147
0.0208333333333333
147
0.0
147
0.0
147
0.0
147
0.0
147
0.0208333333333333
147
0.0
147
0.0
147
0.0
147
0.0
147
1.0
147
0.0
147
0.0
147
0.0
147
0.0
147
1.0
  0
MATERIAL
  5
11
102
{ACAD_XDICTIONARY
360
12
102
}
102
{ACAD_REACTORS
330
10
102
}
330
10
100
AcDbMaterial
  1
ByLayer
 72
     0
 43
0.0208333333333333
 43
0.0
 43
0.0
 43
0.0
 43
0.0
 43
0.0208333333333333
 43
0.0
 43
0.0
 43
0.0
 43
0.0
 43
1.0
 43
0.0
 43
0.0
 43
0.0
 43
0.0
 43
1.0
 77
     0
 47
0.0208333333333333
 47
0.0
 47
0.0
 47
0.0
 47
0.0
 47
0.0208333333333333
 47
0.0
 47
0.0
 47
0.0
 47
0.0
 47
1.0
 47
0.0
 47
0.0
 47
0.0
 47
0.0
 47
1.0
171
     0
 49
0.0208333333333333
 49
0.0
 49
0.0
 49
0.0
 49
0.0
 49
0.0208333333333333
 49
0.0
 49
0.0
 49
0.0
 49
0.0
 49
1.0
 49
0.0
 49
0.0
 49
0.0
 49
0.0
 49
1.0
175
     0
142
0.0208333333333333
142
0.0
142
0.0
142
0.0
142
0.0
142
0.0208333333333333
142
0.0
142
0.0
142
0.0
142
0.0
142
1.0
142
0.0
142
0.0
142
0.0
142
0.0
142
1.0
179
     0
144
0.0208333333333333
144
0.0
144
0.0
144
0.0
144
0.0
144
0.0208333333333333
144
0.0
144
0.0
144
0.0
144
0.0
144
1.0
144
0.0
144
0.0
144
0.0
144
0.0
144
1.0
147
0.0208333333333333
147
0.0
147
0.0
147
0.0
147
0.0
147
0.0208333333333333
147
0.0
147
0.0
147
0.0
147
0.0
147
1.0
147
0.0
147
0.0
147
0.0
147
0.0
147
1.0
  0
MATERIAL
  5
21
102
{ACAD_XDICTIONARY
360
22
102
}
102
{ACAD_REACTORS
330
10
102
}
330
10
100
AcDbMaterial
  1
Global
 72
     0
 43
0.0208333333333333
 43
0.0
 43
0.0
 43
0.0
 43
0.0
 43
0.0208333333333333
 43
0.0
 43
0.0
 43
0.0
 43
0.0
 43
1.0
 43
0.0
 43
0.0
 43
0.0
 43
0.0
 43
1.0
 77
     0
 47
0.0208333333333333
 47
0.0
 47
0.0
 47
0.0
 47
0.0
 47
0.0208333333333333
 47
0.0
 47
0.0
 47
0.0
 47
0.0
 47
1.0
 47
0.0
 47
0.0
 47
0.0
 47
0.0
 47
1.0
171
     0
 49
0.0208333333333333
 49
0.0
 49
0.0
 49
0.0
 49
0.0
 49
0.0208333333333333
 49
0.0
 49
0.0
 49
0.0
 49
0.0
 49
1.0
 49
0.0
 49
0.0
 49
0.0
 49
0.0
 49
1.0
175
     0
142
0.0208333333333333
142
0.0
142
0.0
142
0.0
142
0.0
142
0.0208333333333333
142
0.0
142
0.0
142
0.0
142
0.0
142
1.0
142
0.0
142
0.0
142
0.0
142
0.0
142
1.0
179
     0
144
0.0208333333333333
144
0.0
144
0.0
144
0.0
144
0.0
144
0.0208333333333333
144
0.0
144
0.0
144
0.0
144
0.0
144
1.0
144
0.0
144
0.0
144
0.0
144
0.0
144
1.0
147
0.0208333333333333
147
0.0
147
0.0
147
0.0
147
0.0
147
0.0208333333333333
147
0.0
147
0.0
147
0.0
147
0.0
147
1.0
147
0.0
147
0.0
147
0.0
147
0.0
147
1.0
  0
MLEADERSTYLE
  5
67
102
{ACAD_REACTORS
330
66
102
}
330
66
100
AcDbMLeaderStyle
179
     2
170
     2
171
     1
172
     0
 90
        2
 40
0.0
 41
0.0
173
     1
 91
-1056964608
340
5B
 92
       -2
290
     1
 42
0.09
291
     1
 43
0.36
  3
Standard
 44
0.18
300

342
55
174
     1
178
     6
175
     1
176
     0
 93
-1056964608
 45
0.18
292
     0
297
     0
 46
0.18
 94
-1056964608
 47
1.0
 49
1.0
140
1.0
293
     1
141
0.0
294
     1
177
     0
142
1.0
295
     1
296
     0
143
0.125
271
     0
272
     9
273
     9
298
     1
  0
MLINESTYLE
  5
60
102
{ACAD_REACTORS
330
5F
102
}
330
5F
100
AcDbMlineStyle
  2
STANDARD
 70
     0
  3

 62
   256
 51
90.0
 52
90.0
 71
     2
 49
0.5
 62
   256
  6
BYLAYER
 49
-0.5
 62
   256
  6
BYLAYER
  0
ACDBPLACEHOLDER
  5
F
102
{ACAD_REACTORS
330
E
102
}
330
E
  0
SCALE
  5
43
102
{ACAD_REACTORS
330
42
102
}
330
42
100
AcDbScale
 70
     0
300
1:1
140
1.0
141
1.0
290
     1
  0
SCALE
  5
44
102
{ACAD_REACTORS
330
42
102
}
330
42
100
AcDbScale
 70
     0
300
1/128" = 1'-0"
140
0.0078125
141
12.0
290
     0
  0
SCALE
  5
45
102
{ACAD_REACTORS
330
42
102
}
330
42
100
AcDbScale
 70
     0
300
1/64" = 1'-0"
140
0.015625
141
12.0
290
     0
  0
SCALE
  5
46
102
{ACAD_REACTORS
330
42
102
}
330
42
100
AcDbScale
 70
     0
300
1/32" = 1'-0"
140
0.03125
141
12.0
290
     0
  0
SCALE
  5
47
102
{ACAD_REACTORS
330
42
102
}
330
42
100
AcDbScale
 70
     0
300
1/16" = 1'-0"
140
0.0625
141
12.0
290
     0
  0
SCALE
  5
48
102
{ACAD_REACTORS
330
42
102
}
330
42
100
AcDbScale
 70
     0
300
3/32" = 1'-0"
140
0.09375
141
12.0
290
     0
  0
SCALE
  5
49
102
{ACAD_REACTORS
330
42
102
}
330
42
100
AcDbScale
 70
     0
300
1/8" = 1'-0"
140
0.125
141
12.0
290
     0
  0
SCALE
  5
4A
102
{ACAD_REACTORS
330
42
102
}
330
42
100
AcDbScale
 70
     0
300
3/16" = 1'-0"
140
0.1875
141
12.0
290
     0
  0
SCALE
  5
4B
102
{ACAD_REACTORS
330
42
102
}
330
42
100
AcDbScale
 70
     0
300
1/4" = 1'-0"
140
0.25
141
12.0
290
     0
  0
SCALE
  5
4C
102
{ACAD_REACTORS
330
42
102
}
330
42
100
AcDbScale
 70
     0
300
3/8" = 1'-0"
140
0.375
141
12.0
290
     0
  0
SCALE
  5
4D
102
{ACAD_REACTORS
330
42
102
}
330
42
100
AcDbScale
 70
     0
300
1/2" = 1'-0"
140
0.5
141
12.0
290
     0
  0
SCALE
  5
4E
102
{ACAD_REACTORS
330
42
102
}
330
42
100
AcDbScale
 70
     0
300
3/4" = 1'-0"
140
0.75
141
12.0
290
     0
  0
SCALE
  5
4F
102
{ACAD_REACTORS
330
42
102
}
330
42
100
AcDbScale
 70
     0
300
1" = 1'-0"
140
1.0
141
12.0
290
     0
  0
SCALE
  5
50
102
{ACAD_REACTORS
330
42
102
}
330
42
100
AcDbScale
 70
     0
300
1-1/2" = 1'-0"
140
1.5
141
12.0
290
     0
  0
SCALE
  5
51
102
{ACAD_REACTORS
330
42
102
}
330
42
100
AcDbScale
 70
     0
300
3" = 1'-0"
140
3.0
141
12.0
290
     0
  0
SCALE
  5
52
102
{ACAD_REACTORS
330
42
102
}
330
42
100
AcDbScale
 70
     0
300
6" = 1'-0"
140
6.0
141
12.0
290
     0
  0
SCALE
  5
53
102
{ACAD_REACTORS
330
42
102
}
330
42
100
AcDbScale
 70
     0
300
1'-0" = 1'-0"
140
12.0
141
12.0
290
     0
  0
ACDBSECTIONVIEWSTYLE
  5
69
102
{ACAD_REACTORS
330
68
102
}
330
68
100
AcDbModelDocViewStyle
 70
     0
  3
Imperial24
290
     1
300
Imperial24
 90
        0
100
AcDbSectionViewStyle
 70
     0
 71
     0
 90
       78
 71
     1
340
55
 62
   256
 40
0.24
340
0
340
0
 62
   256
 40
0.24
300
I, O, Q, S, X, Z
 40
0.48
 90
        3
 40
0.18
 90
        1
 71
     2
340
5D
 90
       25
 62
   256
340
5D
 90
       50
 62
   256
 40
0.24
 40
0.0
 40
0.24
 71
     3
340
55
 62
   256
 40
0.24
 90
        1
 40
0.75
 90
        1
300
%<\AcVar ViewType \f "%tc1">% %<\AcVar ViewSectionStartId>%-%<\AcVar ViewSectionEndId>%\PSCALE %<\AcVar ViewScale \f "%sn">%
 71
     4
 62
   256
 62
   257
300
ANSI31
 40
1.0
 90
        0
290
     0
290
     0
 90
        6
 40
0.0
 40
1.570796326794896
 40
0.2617993877991494
 40
1.308996938995747
 40
-0.2617993877991494
 40
1.832595714594046
  0
TABLESTYLE
  5
65
102
{ACAD_XDICTIONARY
360
17C
102
}
102
{ACAD_REACTORS
330
64
102
}
330
64
100
AcDbTableStyle
280
     0
  3
Standard
 70
     0
 71
     0
 40
0.06
 41
0.06
280
     0
281
     0
  7
Standard
140
0.18
170
     2
 62
     0
 63
     7
283
     0
 90
      512
 91
        0
  1

274
    -2
284
     1
 64
     0
275
    -2
285
     1
 65
     0
276
    -2
286
     1
 66
     0
277
    -2
287
     1
 67
     0
278
    -2
288
     1
 68
     0
279
    -2
289
     1
 69
     0
  7
Standard
140
0.25
170
     5
 62
     0
 63
     7
283
     0
 90
      512
 91
        0
  1

274
    -2
284
     1
 64
     0
275
    -2
285
     1
 65
     0
276
    -2
286
     1
 66
     0
277
    -2
287
     1
 67
     0
278
    -2
288
     1
 68
     0
279
    -2
289
     1
 69
     0
  7
Standard
140
0.18
170
     5
 62
     0
 63
     7
283
     0
 90
      512
 91
        0
  1

274
    -2
284
     1
 64
     0
275
    -2
285
     1
 65
     0
276
    -2
286
     1
 66
     0
277
    -2
287
     1
 67
     0
278
    -2
288
     1
 68
     0
279
    -2
289
     1
 69
     0
  0
VISUALSTYLE
  5
2F
102
{ACAD_REACTORS
330
29
102
}
330
29
100
AcDbVisualStyle
  2
2dWireframe
 70
     4
177
     3
291
     0
 70
    58
 90
        0
176
     1
 90
        2
176
     1
 90
        0
176
     1
 90
        0
176
     1
 40
0.6
176
     1
 40
30.0
176
     1
 62
     7
420
 16777215
176
     1
 90
        1
176
     1
 90
        4
176
     1
 62
     7
176
     1
 62
   257
176
     1
 90
        1
176
     1
 90
        1
176
     1
 40
1.0
176
     1
 90
        0
176
     1
 62
   257
176
     1
 40
1.0
176
     1
 90
        1
176
     1
 90
        6
176
     1
 90
        2
176
     1
 62
     7
176
     1
 90
        5
176
     1
 90
        0
176
     1
 90
        0
176
     1
290
     0
176
     1
 90
        1
176
     1
 40
0.0
176
     1
 90
        0
176
     1
290
     1
176
     1
290
     1
176
     1
290
     0
176
     1
290
     0
176
     1
290
     0
176
     1
290
     0
176
     1
290
     0
176
     1
290
     0
176
     1
290
     0
176
     1
 90
       50
176
     1
 40
0.0
176
     1
 40
1.0
176
     1
 90
        0
176
     1
 62
    18
420
        0
176
     1
 90
       50
176
     1
 90
        3
176
     1
 62
     5
420
      255
176
     1
290
     0
176
     1
 90
       50
176
     1
 90
       50
176
     1
 90
       50
176
     1
290
     0
176
     1
 90
       50
176
     1
 62
   256
176
     0
 40
1.0
176
     0
 90
        2
176
     1
  1
strokes_ogs.tif
176
     1
290
     0
176
     1
 40
1.0
176
     1
 40
1.0
176
     1
  0
VISUALSTYLE
  5
2E
102
{ACAD_REACTORS
330
29
102
}
330
29
100
AcDbVisualStyle
  2
Basic
 70
     7
177
     3
291
     1
 70
    58
 90
        1
176
     1
 90
        0
176
     1
 90
        1
176
     1
 90
        0
176
     1
 40
0.6
176
     1
 40
30.0
176
     1
 62
     7
420
 16777215
176
     1
 90
        0
176
     1
 90
        4
176
     1
 62
     7
176
     1
 62
   257
176
     1
 90
        1
176
     1
 90
        1
176
     1
 40
1.0
176
     1
 90
        8
176
     1
 62
     7
176
     1
 40
1.0
176
     1
 90
        1
176
     1
 90
        6
176
     1
 90
        2
176
     1
 62
     7
176
     1
 90
        5
176
     1
 90
        0
176
     1
 90
        0
176
     1
290
     0
176
     1
 90
        1
176
     1
 40
0.0
176
     1
 90
        0
176
     1
290
     0
176
     1
290
     1
176
     1
290
     1
176
     1
290
     0
176
     1
290
     0
176
     1
290
     0
176
     1
290
     0
176
     1
290
     0
176
     1
290
     0
176
     1
 90
       50
176
     1
 40
0.0
176
     1
 40
1.0
176
     1
 90
        0
176
     1
 62
    18
420
        0
176
     1
 90
       50
176
     1
 90
        3
176
     1
 62
     5
420
      255
176
     1
290
     0
176
     1
 90
       50
176
     1
 90
       50
176
     1
 90
       50
176
     1
290
     0
176
     1
 90
       50
176
     1
 62
   256
176
     0
 40
1.0
176
     0
 90
        2
176
     1
  1
strokes_ogs.tif
176
     1
290
     0
176
     1
 40
1.0
176
     1
 40
1.0
176
     1
  0
VISUALSTYLE
  5
35
102
{ACAD_REACTORS
330
29
102
}
330
29
100
AcDbVisualStyle
  2
Brighten
 70
    12
177
     3
291
     1
 70
    58
 90
        2
176
     1
 90
        2
176
     1
 90
        0
176
     1
 90
        0
176
     1
 40
0.6
176
     1
 40
30.0
176
     1
 62
     7
420
 16777215
176
     1
 90
        1
176
     1
 90
        4
176
     1
 62
     7
176
     1
 62
   257
176
     1
 90
        1
176
     1
 90
        1
176
     1
 40
1.0
176
     1
 90
        8
176
     1
 62
     7
176
     1
 40
1.0
176
     1
 90
        1
176
     1
 90
        6
176
     1
 90
        2
176
     1
 62
     7
176
     1
 90
        5
176
     1
 90
        0
176
     1
 90
        0
176
     1
290
     0
176
     1
 90
        1
176
     1
 40
50.0
176
     1
 90
        0
176
     1
290
     0
176
     1
290
     1
176
     1
290
     1
176
     1
290
     0
176
     1
290
     0
176
     1
290
     0
176
     1
290
     0
176
     1
290
     0
176
     1
290
     0
176
     1
 90
       50
176
     1
 40
0.0
176
     1
 40
1.0
176
     1
 90
        0
176
     1
 62
    18
420
        0
176
     1
 90
       50
176
     1
 90
        3
176
     1
 62
     5
420
      255
176
     1
290
     0
176
     1
 90
       50
176
     1
 90
       50
176
     1
 90
       50
176
     1
290
     0
176
     1
 90
       50
176
     1
 62
   256
176
     0
 40
1.0
176
     0
 90
        2
176
     1
  1
strokes_ogs.tif
176
     1
290
     0
176
     1
 40
1.0
176
     1
 40
1.0
176
     1
  0
VISUALSTYLE
  5
39
102
{ACAD_REACTORS
330
29
102
}
330
29
100
AcDbVisualStyle
  2
ColorChange
 70
    16
177
     3
291
     1
 70
    58
 90
        2
176
     1
 90
        2
176
     1
 90
        3
176
     1
 90
        0
176
     1
 40
0.6
176
     1
 40
30.0
176
     1
 62
     8
420
  8421504
176
     1
 90
        1
176
     1
 90
        4
176
     1
 62
     7
176
     1
 62
   257
176
     1
 90
        1
176
     1
 90
        1
176
     1
 40
1.0
176
     1
 90
        8
176
     1
 62
     8
420
  8421504
176
     1
 40
1.0
176
     1
 90
        1
176
     1
 90
        6
176
     1
 90
        2
176
     1
 62
     7
176
     1
 90
        5
176
     1
 90
        0
176
     1
 90
        0
176
     1
290
     0
176
     1
 90
        1
176
     1
 40
0.0
176
     1
 90
        0
176
     1
290
     0
176
     1
290
     1
176
     1
290
     1
176
     1
290
     0
176
     1
290
     0
176
     1
290
     0
176
     1
290
     0
176
     1
290
     0
176
     1
290
     0
176
     1
 90
       50
176
     1
 40
0.0
176
     1
 40
1.0
176
     1
 90
        0
176
     1
 62
    18
420
        0
176
     1
 90
       50
176
     1
 90
        3
176
     1
 62
     5
420
      255
176
     1
290
     0
176
     1
 90
       50
176
     1
 90
       50
176
     1
 90
       50
176
     1
290
     0
176
     1
 90
       50
176
     1
 62
   256
176
     0
 40
1.0
176
     0
 90
        2
176
     1
  1
strokes_ogs.tif
176
     1
290
     0
176
     1
 40
1.0
176
     1
 40
1.0
176
     1
  0
VISUALSTYLE
  5
32
102
{ACAD_REACTORS
330
29
102
}
330
29
100
AcDbVisualStyle
  2
Conceptual
 70
     9
177
     3
291
     0
 70
    58
 90
        3
176
     1
 90
        2
176
     1
 90
        0
176
     1
 90
        0
176
     1
 40
0.6
176
     1
 40
30.0
176
     1
 62
     7
420
 16777215
176
     1
 90
        2
176
     1
 90
        2
176
     1
 62
     7
176
     1
 62
   257
176
     1
 90
        1
176
     1
 90
        1
176
     1
 40
179.0
176
     1
 90
        8
176
     1
 62
     7
176
     1
 40
1.0
176
     1
 90
        1
176
     1
 90
        6
176
     1
 90
        2
176
     1
 62
     7
176
     1
 90
        3
176
     1
 90
        0
176
     1
 90
        0
176
     1
290
     0
176
     1
 90
        1
176
     1
 40
0.0
176
     1
 90
        0
176
     1
290
     0
176
     1
290
     1
176
     1
290
     1
176
     1
290
     0
176
     1
290
     0
176
     1
290
     0
176
     1
290
     0
176
     1
290
     0
176
     1
290
     0
176
     1
 90
       50
176
     1
 40
0.0
176
     1
 40
1.0
176
     1
 90
        0
176
     1
 62
    18
420
        0
176
     1
 90
       50
176
     1
 90
        3
176
     1
 62
     5
420
      255
176
     1
290
     0
176
     1
 90
       50
176
     1
 90
       50
176
     1
 90
       50
176
     1
290
     0
176
     1
 90
       50
176
     1
 62
   256
176
     0
 40
1.0
176
     0
 90
        2
176
     1
  1
strokes_ogs.tif
176
     1
290
     0
176
     1
 40
1.0
176
     1
 40
1.0
176
     1
  0
VISUALSTYLE
  5
34
102
{ACAD_REACTORS
330
29
102
}
330
29
100
AcDbVisualStyle
  2
Dim
 70
    11
177
     3
291
     1
 70
    58
 90
        2
176
     1
 90
        2
176
     1
 90
        0
176
     1
 90
        0
176
     1
 40
0.6
176
     1
 40
30.0
176
     1
 62
     7
420
 16777215
176
     1
 90
        1
176
     1
 90
        4
176
     1
 62
     7
176
     1
 62
   257
176
     1
 90
        1
176
     1
 90
        1
176
     1
 40
1.0
176
     1
 90
        8
176
     1
 62
     7
176
     1
 40
1.0
176
     1
 90
        1
176
     1
 90
        6
176
     1
 90
        2
176
     1
 62
     7
176
     1
 90
        5
176
     1
 90
        0
176
     1
 90
        0
176
     1
290
     0
176
     1
 90
        1
176
     1
 40
-50.0
176
     1
 90
        0
176
     1
290
     0
176
     1
290
     1
176
     1
290
     1
176
     1
290
     0
176
     1
290
     0
176
     1
290
     0
176
     1
290
     0
176
     1
290
     0
176
     1
290
     0
176
     1
 90
       50
176
     1
 40
0.0
176
     1
 40
1.0
176
     1
 90
        0
176
     1
 62
    18
420
        0
176
     1
 90
       50
176
     1
 90
        3
176
     1
 62
     5
420
      255
176
     1
290
     0
176
     1
 90
       50
176
     1
 90
       50
176
     1
 90
       50
176
     1
290
     0
176
     1
 90
       50
176
     1
 62
   256
176
     0
 40
1.0
176
     0
 90
        2
176
     1
  1
strokes_ogs.tif
176
     1
290
     0
176
     1
 40
1.0
176
     1
 40
1.0
176
     1
  0
VISUALSTYLE
  5
41
102
{ACAD_REACTORS
330
29
102
}
330
29
100
AcDbVisualStyle
  2
EdgeColorOff
 70
    22
177
     3
291
     1
 70
    58
 90
        2
176
     0
 90
        2
176
     0
 90
        0
176
     0
 90
        0
176
     0
 40
0.6
176
     0
 40
30.0
176
     0
 62
     7
420
 16777215
176
     0
 90
        1
176
     0
 90
        4
176
     0
 62
     7
176
     0
 62
   257
176
     0
 90
        1
176
     0
 90
        1
176
     0
 40
1.0
176
     0
 90
        8
176
     2
 62
     7
176
     0
 40
1.0
176
     0
 90
        1
176
     0
 90
        6
176
     0
 90
        2
176
     0
 62
     7
176
     0
 90
        5
176
     0
 90
        0
176
     0
 90
        0
176
     0
290
     0
176
     0
 90
        1
176
     0
 40
0.0
176
     0
 90
        0
176
     0
290
     0
176
     0
290
     1
176
     0
290
     1
176
     0
290
     0
176
     0
290
     0
176
     0
290
     0
176
     0
290
     0
176
     0
290
     0
176
     0
290
     0
176
     0
 90
       50
176
     0
 40
0.0
176
     0
 40
1.0
176
     0
 90
        0
176
     0
 62
    18
420
        0
176
     0
 90
       50
176
     0
 90
        3
176
     0
 62
     5
420
      255
176
     0
290
     0
176
     0
 90
       50
176
     0
 90
       50
176
     0
 90
       50
176
     0
290
     0
176
     0
 90
       50
176
     0
 62
   256
176
     0
 40
1.0
176
     0
 90
        2
176
     0
  1
strokes_ogs.tif
176
     0
290
     0
176
     0
 40
1.0
176
     0
 40
1.0
176
     0
  0
VISUALSTYLE
  5
38
102
{ACAD_REACTORS
330
29
102
}
330
29
100
AcDbVisualStyle
  2
Facepattern
 70
    15
177
     3
291
     1
 70
    58
 90
        2
176
     1
 90
        2
176
     1
 90
        0
176
     1
 90
        0
176
     1
 40
0.6
176
     1
 40
30.0
176
     1
 62
     7
420
 16777215
176
     1
 90
        1
176
     1
 90
        4
176
     1
 62
     7
176
     1
 62
   257
176
     1
 90
        1
176
     1
 90
        1
176
     1
 40
1.0
176
     1
 90
        8
176
     1
 62
     7
176
     1
 40
1.0
176
     1
 90
        1
176
     1
 90
        6
176
     1
 90
        2
176
     1
 62
     7
176
     1
 90
        5
176
     1
 90
        0
176
     1
 90
        0
176
     1
290
     0
176
     1
 90
        1
176
     1
 40
0.0
176
     1
 90
        0
176
     1
290
     0
176
     1
290
     1
176
     1
290
     1
176
     1
290
     0
176
     1
290
     0
176
     1
290
     0
176
     1
290
     0
176
     1
290
     0
176
     1
290
     0
176
     1
 90
       50
176
     1
 40
0.0
176
     1
 40
1.0
176
     1
 90
        0
176
     1
 62
    18
420
        0
176
     1
 90
       50
176
     1
 90
        3
176
     1
 62
     5
420
      255
176
     1
290
     0
176
     1
 90
       50
176
     1
 90
       50
176
     1
 90
       50
176
     1
290
     0
176
     1
 90
       50
176
     1
 62
   256
176
     0
 40
1.0
176
     0
 90
        2
176
     1
  1
strokes_ogs.tif
176
     1
290
     0
176
     1
 40
1.0
176
     1
 40
1.0
176
     1
  0
VISUALSTYLE
  5
2A
102
{ACAD_REACTORS
330
29
102
}
330
29
100
AcDbVisualStyle
  2
Flat
 70
     0
177
     3
291
     1
 70
    58
 90
        2
176
     1
 90
        1
176
     1
 90
        1
176
     1
 90
        2
176
     1
 40
0.6
176
     1
 40
30.0
176
     1
 62
     7
420
 16777215
176
     1
 90
        0
176
     1
 90
        0
176
     1
 62
     7
176
     1
 62
   257
176
     1
 90
        1
176
     1
 90
        1
176
     1
 40
1.0
176
     1
 90
        8
176
     1
 62
     7
176
     1
 40
1.0
176
     1
 90
        1
176
     1
 90
        6
176
     1
 90
        2
176
     1
 62
     7
176
     1
 90
        5
176
     1
 90
        0
176
     1
 90
        0
176
     1
290
     0
176
     1
 90
       13
176
     1
 40
0.0
176
     1
 90
        0
176
     1
290
     0
176
     1
290
     1
176
     1
290
     1
176
     1
290
     0
176
     1
290
     0
176
     1
290
     0
176
     1
290
     0
176
     1
290
     0
176
     1
290
     0
176
     1
 90
       50
176
     1
 40
0.0
176
     1
 40
1.0
176
     1
 90
        0
176
     1
 62
    18
420
        0
176
     1
 90
       50
176
     1
 90
        3
176
     1
 62
     5
420
      255
176
     1
290
     0
176
     1
 90
       50
176
     1
 90
       50
176
     1
 90
       50
176
     1
290
     0
176
     1
 90
       50
176
     1
 62
   256
176
     0
 40
1.0
176
     0
 90
        2
176
     1
  1
strokes_ogs.tif
176
     1
290
     0
176
     1
 40
1.0
176
     1
 40
1.0
176
     1
  0
VISUALSTYLE
  5
2B
102
{ACAD_REACTORS
330
29
102
}
330
29
100
AcDbVisualStyle
  2
FlatWithEdges
 70
     1
177
     3
291
     1
 70
    58
 90
        2
176
     1
 90
        1
176
     1
 90
        1
176
     1
 90
        2
176
     1
 40
0.6
176
     1
 40
30.0
176
     1
 62
     7
420
 16777215
176
     1
 90
        1
176
     1
 90
        0
176
     1
 62
     7
176
     1
 62
   257
176
     1
 90
        1
176
     1
 90
        1
176
     1
 40
1.0
176
     1
 90
        0
176
     1
 62
   257
176
     1
 40
1.0
176
     1
 90
        1
176
     1
 90
        6
176
     1
 90
        2
176
     1
 62
     7
176
     1
 90
        5
176
     1
 90
        0
176
     1
 90
        0
176
     1
290
     0
176
     1
 90
       13
176
     1
 40
0.0
176
     1
 90
        0
176
     1
290
     0
176
     1
290
     1
176
     1
290
     1
176
     1
290
     0
176
     1
290
     0
176
     1
290
     0
176
     1
290
     0
176
     1
290
     0
176
     1
290
     0
176
     1
 90
       50
176
     1
 40
0.0
176
     1
 40
1.0
176
     1
 90
        0
176
     1
 62
    18
420
        0
176
     1
 90
       50
176
     1
 90
        3
176
     1
 62
     5
420
      255
176
     1
290
     0
176
     1
 90
       50
176
     1
 90
       50
176
     1
 90
       50
176
     1
290
     0
176
     1
 90
       50
176
     1
 62
   256
176
     0
 40
1.0
176
     0
 90
        2
176
     1
  1
strokes_ogs.tif
176
     1
290
     0
176
     1
 40
1.0
176
     1
 40
1.0
176
     1
  0
VISUALSTYLE
  5
2C
102
{ACAD_REACTORS
330
29
102
}
330
29
100
AcDbVisualStyle
  2
Gouraud
 70
     2
177
     3
291
     1
 70
    58
 90
        2
176
     1
 90
        2
176
     1
 90
        1
176
     1
 90
        2
176
     1
 40
0.6
176
     1
 40
30.0
176
     1
 62
     7
420
 16777215
176
     1
 90
        0
176
     1
 90
        0
176
     1
 62
     7
176
     1
 62
   257
176
     1
 90
        1
176
     1
 90
        1
176
     1
 40
1.0
176
     1
 90
        0
176
     1
 62
     7
176
     1
 40
1.0
176
     1
 90
        1
176
     1
 90
        6
176
     1
 90
        2
176
     1
 62
     7
176
     1
 90
        5
176
     1
 90
        0
176
     1
 90
        0
176
     1
290
     0
176
     1
 90
       13
176
     1
 40
0.0
176
     1
 90
        0
176
     1
290
     0
176
     1
290
     1
176
     1
290
     1
176
     1
290
     0
176
     1
290
     0
176
     1
290
     0
176
     1
290
     0
176
     1
290
     0
176
     1
290
     0
176
     1
 90
       50
176
     1
 40
0.0
176
     1
 40
1.0
176
     1
 90
        0
176
     1
 62
    18
420
        0
176
     1
 90
       50
176
     1
 90
        3
176
     1
 62
     5
420
      255
176
     1
290
     0
176
     1
 90
       50
176
     1
 90
       50
176
     1
 90
       50
176
     1
290
     0
176
     1
 90
       50
176
     1
 62
   256
176
     0
 40
1.0
176
     0
 90
        2
176
     1
  1
strokes_ogs.tif
176
     1
290
     0
176
     1
 40
1.0
176
     1
 40
1.0
176
     1
  0
VISUALSTYLE
  5
2D
102
{ACAD_REACTORS
330
29
102
}
330
29
100
AcDbVisualStyle
  2
GouraudWithEdges
 70
     3
177
     3
291
     1
 70
    58
 90
        2
176
     1
 90
        2
176
     1
 90
        1
176
     1
 90
        2
176
     1
 40
0.6
176
     1
 40
30.0
176
     1
 62
     7
420
 16777215
176
     1
 90
        1
176
     1
 90
        0
176
     1
 62
     7
176
     1
 62
   257
176
     1
 90
        1
176
     1
 90
        1
176
     1
 40
1.0
176
     1
 90
        0
176
     1
 62
   257
176
     1
 40
1.0
176
     1
 90
        1
176
     1
 90
        6
176
     1
 90
        2
176
     1
 62
     7
176
     1
 90
        5
176
     1
 90
        0
176
     1
 90
        0
176
     1
290
     0
176
     1
 90
       13
176
     1
 40
0.0
176
     1
 90
        0
176
     1
290
     0
176
     1
290
     1
176
     1
290
     1
176
     1
290
     0
176
     1
290
     0
176
     1
290
     0
176
     1
290
     0
176
     1
290
     0
176
     1
290
     0
176
     1
 90
       50
176
     1
 40
0.0
176
     1
 40
1.0
176
     1
 90
        0
176
     1
 62
    18
420
        0
176
     1
 90
       50
176
     1
 90
        3
176
     1
 62
     5
420
      255
176
     1
290
     0
176
     1
 90
       50
176
     1
 90
       50
176
     1
 90
       50
176
     1
290
     0
176
     1
 90
       50
176
     1
 62
   256
176
     0
 40
1.0
176
     0
 90
        2
176
     1
  1
strokes_ogs.tif
176
     1
290
     0
176
     1
 40
1.0
176
     1
 40
1.0
176
     1
  0
VISUALSTYLE
  5
31
102
{ACAD_REACTORS
330
29
102
}
330
29
100
AcDbVisualStyle
  2
Hidden
 70
     6
177
     3
291
     0
 70
    58
 90
        1
176
     1
 90
        2
176
     1
 90
        2
176
     1
 90
        0
176
     1
 40
0.6
176
     1
 40
30.0
176
     1
 62
     7
420
 16777215
176
     1
 90
        2
176
     1
 90
        2
176
     1
 62
     7
176
     1
 62
   257
176
     1
 90
        2
176
     1
 90
        1
176
     1
 40
40.0
176
     1
 90
        0
176
     1
 62
   257
176
     1
 40
1.0
176
     1
 90
        1
176
     1
 90
        6
176
     1
 90
        2
176
     1
 62
     7
176
     1
 90
        3
176
     1
 90
        0
176
     1
 90
        0
176
     1
290
     0
176
     1
 90
        1
176
     1
 40
0.0
176
     1
 90
        0
176
     1
290
     0
176
     1
290
     1
176
     1
290
     1
176
     1
290
     0
176
     1
290
     0
176
     1
290
     0
176
     1
290
     0
176
     1
290
     0
176
     1
290
     0
176
     1
 90
       50
176
     1
 40
0.0
176
     1
 40
1.0
176
     1
 90
        0
176
     1
 62
    18
420
        0
176
     1
 90
       50
176
     1
 90
        3
176
     1
 62
     5
420
      255
176
     1
290
     0
176
     1
 90
       50
176
     1
 90
       50
176
     1
 90
       50
176
     1
290
     0
176
     1
 90
       50
176
     1
 62
   256
176
     0
 40
1.0
176
     0
 90
        2
176
     1
  1
strokes_ogs.tif
176
     1
290
     0
176
     1
 40
1.0
176
     1
 40
1.0
176
     1
  0
VISUALSTYLE
  5
3F
102
{ACAD_REACTORS
330
29
102
}
330
29
100
AcDbVisualStyle
  2
JitterOff
 70
    20
177
     3
291
     1
 70
    58
 90
        2
176
     0
 90
        2
176
     0
 90
        0
176
     0
 90
        0
176
     0
 40
0.6
176
     0
 40
30.0
176
     0
 62
     7
420
 16777215
176
     0
 90
        1
176
     0
 90
        4
176
     0
 62
     7
176
     0
 62
   257
176
     0
 90
        1
176
     0
 90
        1
176
     0
 40
1.0
176
     0
 90
       10
176
     2
 62
     7
176
     0
 40
1.0
176
     0
 90
        1
176
     0
 90
        6
176
     0
 90
        2
176
     0
 62
     7
176
     0
 90
        5
176
     0
 90
        0
176
     0
 90
        0
176
     0
290
     0
176
     0
 90
        1
176
     0
 40
0.0
176
     0
 90
        0
176
     0
290
     0
176
     0
290
     1
176
     0
290
     1
176
     0
290
     0
176
     0
290
     0
176
     0
290
     0
176
     0
290
     0
176
     0
290
     0
176
     0
290
     0
176
     0
 90
       50
176
     0
 40
0.0
176
     0
 40
1.0
176
     0
 90
        0
176
     0
 62
    18
420
        0
176
     0
 90
       50
176
     0
 90
        3
176
     0
 62
     5
420
      255
176
     0
290
     0
176
     0
 90
       50
176
     0
 90
       50
176
     0
 90
       50
176
     0
290
     0
176
     0
 90
       50
176
     0
 62
   256
176
     0
 40
1.0
176
     0
 90
        2
176
     0
  1
strokes_ogs.tif
176
     0
290
     0
176
     0
 40
1.0
176
     0
 40
1.0
176
     0
  0
VISUALSTYLE
  5
37
102
{ACAD_REACTORS
330
29
102
}
330
29
100
AcDbVisualStyle
  2
Linepattern
 70
    14
177
     3
291
     1
 70
    58
 90
        2
176
     1
 90
        2
176
     1
 90
        0
176
     1
 90
        0
176
     1
 40
0.6
176
     1
 40
30.0
176
     1
 62
     7
420
 16777215
176
     1
 90
        1
176
     1
 90
        4
176
     1
 62
     7
176
     1
 62
   257
176
     1
 90
        7
176
     1
 90
        7
176
     1
 40
1.0
176
     1
 90
        8
176
     1
 62
     7
176
     1
 40
1.0
176
     1
 90
        1
176
     1
 90
        6
176
     1
 90
        2
176
     1
 62
     7
176
     1
 90
        5
176
     1
 90
        0
176
     1
 90
        0
176
     1
290
     0
176
     1
 90
        1
176
     1
 40
0.0
176
     1
 90
        0
176
     1
290
     0
176
     1
290
     1
176
     1
290
     1
176
     1
290
     0
176
     1
290
     0
176
     1
290
     0
176
     1
290
     0
176
     1
290
     0
176
     1
290
     0
176
     1
 90
       50
176
     1
 40
0.0
176
     1
 40
1.0
176
     1
 90
        0
176
     1
 62
    18
420
        0
176
     1
 90
       50
176
     1
 90
        3
176
     1
 62
     5
420
      255
176
     1
290
     0
176
     1
 90
       50
176
     1
 90
       50
176
     1
 90
       50
176
     1
290
     0
176
     1
 90
       50
176
     1
 62
   256
176
     0
 40
1.0
176
     0
 90
        2
176
     1
  1
strokes_ogs.tif
176
     1
290
     0
176
     1
 40
1.0
176
     1
 40
1.0
176
     1
  0
VISUALSTYLE
  5
40
102
{ACAD_REACTORS
330
29
102
}
330
29
100
AcDbVisualStyle
  2
OverhangOff
 70
    21
177
     3
291
     1
 70
    58
 90
        2
176
     0
 90
        2
176
     0
 90
        0
176
     0
 90
        0
176
     0
 40
0.6
176
     0
 40
30.0
176
     0
 62
     7
420
 16777215
176
     0
 90
        1
176
     0
 90
        4
176
     0
 62
     7
176
     0
 62
   257
176
     0
 90
        1
176
     0
 90
        1
176
     0
 40
1.0
176
     0
 90
        9
176
     2
 62
     7
176
     0
 40
1.0
176
     0
 90
        1
176
     0
 90
        6
176
     0
 90
        2
176
     0
 62
     7
176
     0
 90
        5
176
     0
 90
        0
176
     0
 90
        0
176
     0
290
     0
176
     0
 90
        1
176
     0
 40
0.0
176
     0
 90
        0
176
     0
290
     0
176
     0
290
     1
176
     0
290
     1
176
     0
290
     0
176
     0
290
     0
176
     0
290
     0
176
     0
290
     0
176
     0
290
     0
176
     0
290
     0
176
     0
 90
       50
176
     0
 40
0.0
176
     0
 40
1.0
176
     0
 90
        0
176
     0
 62
    18
420
        0
176
     0
 90
       50
176
     0
 90
        3
176
     0
 62
     5
420
      255
176
     0
290
     0
176
     0
 90
       50
176
     0
 90
       50
176
     0
 90
       50
176
     0
290
     0
176
     0
 90
       50
176
     0
 62
   256
176
     0
 40
1.0
176
     0
 90
        2
176
     0
  1
strokes_ogs.tif
176
     0
290
     0
176
     0
 40
1.0
176
     0
 40
1.0
176
     0
  0
VISUALSTYLE
  5
33
102
{ACAD_REACTORS
330
29
102
}
330
29
100
AcDbVisualStyle
  2
Realistic
 70
     8
177
     3
291
     0
 70
    58
 90
        2
176
     1
 90
        3
176
     1
 90
        0
176
     1
 90
        2
176
     1
 40
0.6
176
     1
 40
30.0
176
     1
 62
     7
420
 16777215
176
     1
 90
        0
176
     1
 90
        0
176
     1
 62
     7
176
     1
 62
   257
176
     1
 90
        1
176
     1
 90
        1
176
     1
 40
1.0
176
     1
 90
        8
176
     1
 62
   257
176
     1
 40
1.0
176
     1
 90
        1
176
     1
 90
        6
176
     1
 90
        2
176
     1
 62
     7
176
     1
 90
        3
176
     1
 90
        0
176
     1
 90
        0
176
     1
290
     0
176
     1
 90
       13
176
     1
 40
0.0
176
     1
 90
        0
176
     1
290
     0
176
     1
290
     1
176
     1
290
     1
176
     1
290
     0
176
     1
290
     0
176
     1
290
     0
176
     1
290
     0
176
     1
290
     0
176
     1
290
     0
176
     1
 90
       50
176
     1
 40
0.0
176
     1
 40
1.0
176
     1
 90
        0
176
     1
 62
    18
420
        0
176
     1
 90
       50
176
     1
 90
        3
176
     1
 62
     5
420
      255
176
     1
290
     0
176
     1
 90
       50
176
     1
 90
       50
176
     1
 90
       50
176
     1
290
     0
176
     1
 90
       50
176
     1
 62
   256
176
     0
 40
1.0
176
     0
 90
        2
176
     1
  1
strokes_ogs.tif
176
     1
290
     0
176
     1
 40
1.0
176
     1
 40
1.0
176
     1
  0
VISUALSTYLE
  5
3E
102
{ACAD_REACTORS
330
29
102
}
330
29
100
AcDbVisualStyle
  2
Shaded
 70
    27
177
     3
291
     0
 70
    58
 90
        2
176
     1
 90
        2
176
     1
 90
        1
176
     1
 90
        2
176
     1
 40
0.6
176
     1
 40
30.0
176
     1
 62
     7
420
 16777215
176
     1
 90
        0
176
     1
 90
        4
176
     1
 62
     7
176
     1
 62
   257
176
     1
 90
        1
176
     1
 90
        1
176
     1
 40
1.0
176
     1
 90
        8
176
     1
 62
   257
176
     1
 40
1.0
176
     1
 90
        1
176
     1
 90
        6
176
     1
 90
        2
176
     1
 62
     8
420
  7895160
176
     1
 90
        3
176
     1
 90
        0
176
     1
 90
        0
176
     1
290
     0
176
     1
 90
        5
176
     1
 40
0.0
176
     1
 90
        0
176
     1
290
     0
176
     1
290
     1
176
     1
290
     1
176
     1
290
     0
176
     1
290
     0
176
     1
290
     0
176
     1
290
     0
176
     1
290
     0
176
     1
290
     0
176
     1
 90
       50
176
     1
 40
0.0
176
     1
 40
1.0
176
     1
 90
        0
176
     1
 62
    18
420
        0
176
     1
 90
       50
176
     1
 90
        3
176
     1
 62
     5
420
      255
176
     1
290
     0
176
     1
 90
       50
176
     1
 90
       50
176
     1
 90
       50
176
     1
290
     0
176
     1
 90
       50
176
     1
 62
   256
176
     0
 40
1.0
176
     0
 90
        2
176
     1
  1
strokes_ogs.tif
176
     1
290
     0
176
     1
 40
1.0
176
     1
 40
1.0
176
     1
  0
VISUALSTYLE
  5
3D
102
{ACAD_REACTORS
330
29
102
}
330
29
100
AcDbVisualStyle
  2
Shaded with edges
 70
    26
177
     3
291
     0
 70
    58
 90
        2
176
     1
 90
        2
176
     1
 90
        1
176
     1
 90
        2
176
     1
 40
0.6
176
     1
 40
30.0
176
     1
 62
     7
420
 16777215
176
     1
 90
        1
176
     1
 90
        2
176
     1
 62
     7
176
     1
 62
   257
176
     1
 90
        2
176
     1
 90
        1
176
     1
 40
1.0
176
     1
 90
        8
176
     1
 62
   257
176
     1
 40
1.0
176
     1
 90
        1
176
     1
 90
        6
176
     1
 90
        2
176
     1
 62
     7
176
     1
 90
        3
176
     1
 90
        0
176
     1
 90
        0
176
     1
290
     0
176
     1
 90
        5
176
     1
 40
0.0
176
     1
 90
        0
176
     1
290
     0
176
     1
290
     1
176
     1
290
     1
176
     1
290
     0
176
     1
290
     0
176
     1
290
     0
176
     1
290
     0
176
     1
290
     0
176
     1
290
     0
176
     1
 90
       50
176
     1
 40
0.0
176
     1
 40
1.0
176
     1
 90
        0
176
     1
 62
    18
420
        0
176
     1
 90
       50
176
     1
 90
        3
176
     1
 62
     5
420
      255
176
     1
290
     0
176
     1
 90
       50
176
     1
 90
       50
176
     1
 90
       50
176
     1
290
     0
176
     1
 90
       50
176
     1
 62
   256
176
     0
 40
1.0
176
     0
 90
        2
176
     1
  1
strokes_ogs.tif
176
     1
290
     0
176
     1
 40
1.0
176
     1
 40
1.0
176
     1
  0
VISUALSTYLE
  5
3A
102
{ACAD_REACTORS
330
29
102
}
330
29
100
AcDbVisualStyle
  2
Shades of Gray
 70
    23
177
     3
291
     0
 70
    58
 90
        2
176
     1
 90
        2
176
     1
 90
        3
176
     1
 90
        0
176
     1
 40
0.6
176
     1
 40
30.0
176
     1
 62
     7
420
 16777215
176
     1
 90
        2
176
     1
 90
        2
176
     1
 62
     7
176
     1
 62
     7
176
     1
 90
        1
176
     1
 90
        1
176
     1
 40
40.0
176
     1
 90
        8
176
     1
 62
     7
176
     1
 40
1.0
176
     1
 90
        1
176
     1
 90
        6
176
     1
 90
        2
176
     1
 62
     7
176
     1
 90
        3
176
     1
 90
        0
176
     1
 90
        0
176
     1
290
     0
176
     1
 90
        1
176
     1
 40
0.0
176
     1
 90
        0
176
     1
290
     0
176
     1
290
     1
176
     1
290
     1
176
     1
290
     0
176
     1
290
     0
176
     1
290
     0
176
     1
290
     0
176
     1
290
     0
176
     1
290
     0
176
     1
 90
       50
176
     1
 40
0.0
176
     1
 40
1.0
176
     1
 90
        0
176
     1
 62
    18
420
        0
176
     1
 90
       50
176
     1
 90
        3
176
     1
 62
     5
420
      255
176
     1
290
     0
176
     1
 90
       50
176
     1
 90
       50
176
     1
 90
       50
176
     1
290
     0
176
     1
 90
       50
176
     1
 62
   256
176
     0
 40
1.0
176
     0
 90
        2
176
     1
  1
strokes_ogs.tif
176
     1
290
     0
176
     1
 40
1.0
176
     1
 40
1.0
176
     1
  0
VISUALSTYLE
  5
3B
102
{ACAD_REACTORS
330
29
102
}
330
29
100
AcDbVisualStyle
  2
Sketchy
 70
    24
177
     3
291
     0
 70
    58
 90
        1
176
     1
 90
        2
176
     1
 90
        2
176
     1
 90
        0
176
     1
 40
0.6
176
     1
 40
30.0
176
     1
 62
     7
420
 16777215
176
     1
 90
        2
176
     1
 90
        2
176
     1
 62
     7
176
     1
 62
     7
176
     1
 90
        1
176
     1
 90
        1
176
     1
 40
40.0
176
     1
 90
       11
176
     1
 62
     7
176
     1
 40
1.0
176
     1
 90
        1
176
     1
 90
        6
176
     1
 90
        2
176
     1
 62
     7
176
     1
 90
        6
176
     1
 90
        0
176
     1
 90
        0
176
     1
290
     0
176
     1
 90
        1
176
     1
 40
0.0
176
     1
 90
        0
176
     1
290
     0
176
     1
290
     1
176
     1
290
     1
176
     1
290
     0
176
     1
290
     0
176
     1
290
     0
176
     1
290
     0
176
     1
290
     0
176
     1
290
     0
176
     1
 90
       50
176
     1
 40
0.0
176
     1
 40
1.0
176
     1
 90
        0
176
     1
 62
    18
420
        0
176
     1
 90
       50
176
     1
 90
        3
176
     1
 62
     5
420
      255
176
     1
290
     0
176
     1
 90
       50
176
     1
 90
       50
176
     1
 90
       50
176
     1
290
     0
176
     1
 90
       50
176
     1
 62
   256
176
     0
 40
1.0
176
     0
 90
        2
176
     1
  1
strokes_ogs.tif
176
     1
290
     0
176
     1
 40
1.0
176
     1
 40
1.0
176
     1
  0
VISUALSTYLE
  5
36
102
{ACAD_REACTORS
330
29
102
}
330
29
100
AcDbVisualStyle
  2
Thicken
 70
    13
177
     3
291
     1
 70
    58
 90
        2
176
     1
 90
        2
176
     1
 90
        0
176
     1
 90
        0
176
     1
 40
0.6
176
     1
 40
30.0
176
     1
 62
     7
420
 16777215
176
     1
 90
        1
176
     1
 90
        4
176
     1
 62
     7
176
     1
 62
   257
176
     1
 90
        1
176
     1
 90
        1
176
     1
 40
1.0
176
     1
 90
       12
176
     1
 62
     7
176
     1
 40
1.0
176
     1
 90
        1
176
     1
 90
        6
176
     1
 90
        2
176
     1
 62
     7
176
     1
 90
        5
176
     1
 90
        0
176
     1
 90
        0
176
     1
290
     0
176
     1
 90
        1
176
     1
 40
0.0
176
     1
 90
        0
176
     1
290
     0
176
     1
290
     1
176
     1
290
     1
176
     1
290
     0
176
     1
290
     0
176
     1
290
     0
176
     1
290
     0
176
     1
290
     0
176
     1
290
     0
176
     1
 90
       50
176
     1
 40
0.0
176
     1
 40
1.0
176
     1
 90
        0
176
     1
 62
    18
420
        0
176
     1
 90
       50
176
     1
 90
        3
176
     1
 62
     5
420
      255
176
     1
290
     0
176
     1
 90
       50
176
     1
 90
       50
176
     1
 90
       50
176
     1
290
     0
176
     1
 90
       50
176
     1
 62
   256
176
     0
 40
1.0
176
     0
 90
        2
176
     1
  1
strokes_ogs.tif
176
     1
290
     0
176
     1
 40
1.0
176
     1
 40
1.0
176
     1
  0
VISUALSTYLE
  5
30
102
{ACAD_REACTORS
330
29
102
}
330
29
100
AcDbVisualStyle
  2
Wireframe
 70
     5
177
     3
291
     0
 70
    58
 90
        0
176
     1
 90
        2
176
     1
 90
        0
176
     1
 90
        0
176
     1
 40
0.6
176
     1
 40
30.0
176
     1
 62
     7
420
 16777215
176
     1
 90
        1
176
     1
 90
        4
176
     1
 62
     7
176
     1
 62
   257
176
     1
 90
        1
176
     1
 90
        1
176
     1
 40
1.0
176
     1
 90
        0
176
     1
 62
   257
176
     1
 40
1.0
176
     1
 90
        1
176
     1
 90
        6
176
     1
 90
        2
176
     1
 62
     7
176
     1
 90
        3
176
     1
 90
        0
176
     1
 90
        0
176
     1
290
     0
176
     1
 90
        1
176
     1
 40
0.0
176
     1
 90
        0
176
     1
290
     0
176
     1
290
     1
176
     1
290
     1
176
     1
290
     0
176
     1
290
     0
176
     1
290
     0
176
     1
290
     0
176
     1
290
     0
176
     1
290
     0
176
     1
 90
       50
176
     1
 40
0.0
176
     1
 40
1.0
176
     1
 90
        0
176
     1
 62
    18
420
        0
176
     1
 90
       50
176
     1
 90
        3
176
     1
 62
     5
420
      255
176
     1
290
     0
176
     1
 90
       50
176
     1
 90
       50
176
     1
 90
       50
176
     1
290
     0
176
     1
 90
       50
176
     1
 62
   256
176
     0
 40
1.0
176
     0
 90
        2
176
     1
  1
strokes_ogs.tif
176
     1
290
     0
176
     1
 40
1.0
176
     1
 40
1.0
176
     1
  0
VISUALSTYLE
  5
3C
102
{ACAD_REACTORS
330
29
102
}
330
29
100
AcDbVisualStyle
  2
X-Ray
 70
    25
177
     3
291
     0
 70
    58
 90
        2
176
     1
 90
        2
176
     1
 90
        1
176
     1
 90
        1
176
     1
 40
0.5
176
     1
 40
30.0
176
     1
 62
     7
420
 16777215
176
     1
 90
        1
176
     1
 90
        0
176
     1
 62
     7
176
     1
 62
   257
176
     1
 90
        1
176
     1
 90
        1
176
     1
 40
1.0
176
     1
 90
        8
176
     1
 62
     7
176
     1
 40
1.0
176
     1
 90
        1
176
     1
 90
        6
176
     1
 90
        2
176
     1
 62
     7
176
     1
 90
        3
176
     1
 90
        0
176
     1
 90
        0
176
     1
290
     0
176
     1
 90
       13
176
     1
 40
0.0
176
     1
 90
        0
176
     1
290
     0
176
     1
290
     1
176
     1
290
     1
176
     1
290
     0
176
     1
290
     0
176
     1
290
     0
176
     1
290
     0
176
     1
290
     0
176
     1
290
     0
176
     1
 90
       50
176
     1
 40
0.0
176
     1
 40
1.0
176
     1
 90
        0
176
     1
 62
    18
420
        0
176
     1
 90
       50
176
     1
 90
        3
176
     1
 62
     5
420
      255
176
     1
290
     0
176
     1
 90
       50
176
     1
 90
       50
176
     1
 90
       50
176
     1
290
     0
176
     1
 90
       50
176
     1
 62
   256
176
     0
 40
1.0
176
     0
 90
        2
176
     1
  1
strokes_ogs.tif
176
     1
290
     0
176
     1
 40
1.0
176
     1
 40
1.0
176
     1
  0
DICTIONARYVAR
  5
17B
102
{ACAD_REACTORS
330
176
102
}
330
176
100
DictionaryVariables
280
     0
  1
1:1
  0
DICTIONARYVAR
  5
178
102
{ACAD_REACTORS
330
176
102
}
330
176
100
DictionaryVariables
280
     0
  1
STANDARD
  0
DICTIONARYVAR
  5
177
102
{ACAD_REACTORS
330
176
102
}
330
176
100
DictionaryVariables
280
     0
  1
STANDARD
  0
DICTIONARYVAR
  5
179
102
{ACAD_REACTORS
330
176
102
}
330
176
100
DictionaryVariables
280
     0
  1
Imperial24
  0
DICTIONARYVAR
  5
17A
102
{ACAD_REACTORS
330
176
102
}
330
176
100
DictionaryVariables
280
     0
  1
Imperial24
  0
DICTIONARY
  5
1A
330
19
100
AcDbDictionary
280
     1
281
     1
  3
BUMPTILE
360
1C
  3
DIFFUSETILE
360
1B
  3
OPACITYTILE
360
1F
  3
REFLECTIONTILE
360
1E
  3
REFRACTIONTILE
360
20
  3
SPECULARTILE
360
1D
  0
DICTIONARY
  5
12
330
11
100
AcDbDictionary
280
     1
281
     1
  3
BUMPTILE
360
14
  3
DIFFUSETILE
360
13
  3
OPACITYTILE
360
17
  3
REFLECTIONTILE
360
16
  3
REFRACTIONTILE
360
18
  3
SPECULARTILE
360
15
  0
DICTIONARY
  5
22
330
21
100
AcDbDictionary
280
     1
281
     1
  3
BUMPTILE
360
24
  3
DIFFUSETILE
360
23
  3
OPACITYTILE
360
27
  3
REFLECTIONTILE
360
26
  3
REFRACTIONTILE
360
28
  3
SPECULARTILE
360
25
  0
DICTIONARY
  5
17C
330
65
100
AcDbDictionary
280
     1
281
     1
  3
ACAD_ROUNDTRIP_2008_TABLESTYLE_CELLSTYLEMAP
360
17D
  0
XRECORD
  5
1C
102
{ACAD_REACTORS
330
1A
102
}
330
1A
100
AcDbXrecord
280
     1
270
     1
271
     1
  0
XRECORD
  5
1B
102
{ACAD_REACTORS
330
1A
102
}
330
1A
100
AcDbXrecord
280
     1
270
     1
271
     1
  0
XRECORD
  5
1F
102
{ACAD_REACTORS
330
1A
102
}
330
1A
100
AcDbXrecord
280
     1
270
     1
271
     1
  0
XRECORD
  5
1E
102
{ACAD_REACTORS
330
1A
102
}
330
1A
100
AcDbXrecord
280
     1
270
     1
271
     1
  0
XRECORD
  5
20
102
{ACAD_REACTORS
330
1A
102
}
330
1A
100
AcDbXrecord
280
     1
270
     1
271
     1
  0
XRECORD
  5
1D
102
{ACAD_REACTORS
330
1A
102
}
330
1A
100
AcDbXrecord
280
     1
270
     1
271
     1
  0
XRECORD
  5
14
102
{ACAD_REACTORS
330
12
102
}
330
12
100
AcDbXrecord
280
     1
270
     1
271
     1
  0
XRECORD
  5
13
102
{ACAD_REACTORS
330
12
102
}
330
12
100
AcDbXrecord
280
     1
270
     1
271
     1
  0
XRECORD
  5
17
102
{ACAD_REACTORS
330
12
102
}
330
12
100
AcDbXrecord
280
     1
270
     1
271
     1
  0
XRECORD
  5
16
102
{ACAD_REACTORS
330
12
102
}
330
12
100
AcDbXrecord
280
     1
270
     1
271
     1
  0
XRECORD
  5
18
102
{ACAD_REACTORS
330
12
102
}
330
12
100
AcDbXrecord
280
     1
270
     1
271
     1
  0
XRECORD
  5
15
102
{ACAD_REACTORS
330
12
102
}
330
12
100
AcDbXrecord
280
     1
270
     1
271
     1
  0
XRECORD
  5
24
102
{ACAD_REACTORS
330
22
102
}
330
22
100
AcDbXrecord
280
     1
270
     1
271
     1
  0
XRECORD
  5
23
102
{ACAD_REACTORS
330
22
102
}
330
22
100
AcDbXrecord
280
     1
270
     1
271
     1
  0
XRECORD
  5
27
102
{ACAD_REACTORS
330
22
102
}
330
22
100
AcDbXrecord
280
     1
270
     1
271
     1
  0
XRECORD
  5
26
102
{ACAD_REACTORS
330
22
102
}
330
22
100
AcDbXrecord
280
     1
270
     1
271
     1
  0
XRECORD
  5
28
102
{ACAD_REACTORS
330
22
102
}
330
22
100
AcDbXrecord
280
     1
270
     1
271
     1
  0
XRECORD
  5
25
102
{ACAD_REACTORS
330
22
102
}
330
22
100
AcDbXrecord
280
     1
270
     1
271
     1
  0
CELLSTYLEMAP
  5
17D
102
{ACAD_REACTORS
330
17C
102
}
330
17C
100
AcDbCellStyleMap
 90
        3
300
CELLSTYLE
  1
TABLEFORMAT_BEGIN
 90
        5
170
     1
 91
        0
 92
    32768
 62
   257
 93
        1
300
CONTENTFORMAT
  1
CONTENTFORMAT_BEGIN
 90
        0
 91
        0
 92
      512
 93
        0
300

 40
0.0
140
1.0
 94
        5
 62
     0
340
55
144
0.25
309
CONTENTFORMAT_END
171
     0
 94
        0
309
TABLEFORMAT_END
  1
CELLSTYLE_BEGIN
 90
        1
 91
        1
300
_TITLE
309
CELLSTYLE_END
300
CELLSTYLE
  1
TABLEFORMAT_BEGIN
 90
        5
170
     1
 91
        0
 92
        0
 62
   257
 93
        1
300
CONTENTFORMAT
  1
CONTENTFORMAT_BEGIN
 90
        0
 91
        0
 92
      512
 93
        0
300

 40
0.0
140
1.0
 94
        5
 62
     0
340
55
144
0.18
309
CONTENTFORMAT_END
171
     0
 94
        0
309
TABLEFORMAT_END
  1
CELLSTYLE_BEGIN
 90
        2
 91
        1
300
_HEADER
309
CELLSTYLE_END
300
CELLSTYLE
  1
TABLEFORMAT_BEGIN
 90
        5
170
     1
 91
        0
 92
        0
 62
   257
 93
        1
300
CONTENTFORMAT
  1
CONTENTFORMAT_BEGIN
 90
        0
 91
        0
 92
      512
 93
        0
300

 40
0.0
140
1.0
 94
        2
 62
     0
340
55
144
0.18
309
CONTENTFORMAT_END
171
     0
 94
        0
309
TABLEFORMAT_END
  1
CELLSTYLE_BEGIN
 90
        3
 91
        2
300
_DATA
309
CELLSTYLE_END
  0
ENDSEC
  0
EOF
