  0
SECTION
  2
HEADER
  9
$ACADVER
  1
AC1032
  9
$ACADMAINTVER
 90
      251
  9
$DWGCODEPAGE
  3
ANSI_1252
  9
$REQUIREDVERSIONS
160
                 0
  9
$INSBASE
 10
0.0
 20
0.0
 30
0.0
  9
$EXTMIN
 10
1.000000000000000E+20
 20
1.000000000000000E+20
 30
1.000000000000000E+20
  9
$EXTMAX
 10
-1.000000000000000E+20
 20
-1.000000000000000E+20
 30
-1.000000000000000E+20
  9
$LIMMIN
 10
0.0
 20
0.0
  9
$LIMMAX
 10
12.0
 20
9.0
  9
$ORTHOMODE
 70
     0
  9
$REGENMODE
 70
     1
  9
$FILLMODE
 70
     1
  9
$QTEXTMODE
 70
     0
  9
$MIRRTEXT
 70
     0
  9
$LTSCALE
 40
1.0
  9
$ATTMODE
 70
     1
  9
$TEXTSIZE
 40
0.2
  9
$TRACEWID
 40
0.05
  9
$TEXTSTYLE
  7
Standard
  9
$CLAYER
  8
0
  9
$CELTYPE
  6
ByLayer
  9
$CECOLOR
 62
   256
  9
$CELTSCALE
 40
1.0
  9
$DISPSILH
 70
     0
  9
$DIMSCALE
 40
1.0
  9
$DIMASZ
 40
0.18
  9
$DIMEXO
 40
0.0625
  9
$DIMDLI
 40
0.38
  9
$DIMRND
 40
0.0
  9
$DIMDLE
 40
0.0
  9
$DIMEXE
 40
0.18
  9
$DIMTP
 40
0.0
  9
$DIMTM
 40
0.0
  9
$DIMTXT
 40
0.18
  9
$DIMCEN
 40
0.09
  9
$DIMTSZ
 40
0.0
  9
$DIMTOL
 70
     0
  9
$DIMLIM
 70
     0
  9
$DIMTIH
 70
     1
  9
$DIMTOH
 70
     1
  9
$DIMSE1
 70
     0
  9
$DIMSE2
 70
     0
  9
$DIMTAD
 70
     0
  9
$DIMZIN
 70
     0
  9
$DIMBLK
  1

  9
$DIMASO
 70
     1
  9
$DIMSHO
 70
     1
  9
$DIMPOST
  1

  9
$DIMAPOST
  1

  9
$DIMALT
 70
     0
  9
$DIMALTD
 70
     2
  9
$DIMALTF
 40
25.4
  9
$DIMLFAC
 40
1.0
  9
$DIMTOFL
 70
     0
  9
$DIMTVP
 40
0.0
  9
$DIMTIX
 70
     0
  9
$DIMSOXD
 70
     0
  9
$DIMSAH
 70
     0
  9
$DIMBLK1
  1

  9
$DIMBLK2
  1

  9
$DIMSTYLE
  2
Standard
  9
$DIMCLRD
 70
     0
  9
$DIMCLRE
 70
     0
  9
$DIMCLRT
 70
     0
  9
$DIMTFAC
 40
1.0
  9
$DIMGAP
 40
0.09
  9
$DIMJUST
 70
     0
  9
$DIMSD1
 70
     0
  9
$DIMSD2
 70
     0
  9
$DIMTOLJ
 70
     1
  9
$DIMTZIN
 70
     0
  9
$DIMALTZ
 70
     0
  9
$DIMALTTZ
 70
     0
  9
$DIMUPT
 70
     0
  9
$DIMDEC
 70
     4
  9
$DIMTDEC
 70
     4
  9
$DIMALTU
 70
     2
  9
$DIMALTTD
 70
     2
  9
$DIMTXSTY
  7
Standard
  9
$DIMAUNIT
 70
     0
  9
$DIMADEC
 70
     0
  9
$DIMALTRND
 40
0.0
  9
$DIMAZIN
 70
     0
  9
$DIMDSEP
 70
    46
  9
$DIMATFIT
 70
     3
  9
$DIMFRAC
 70
     0
  9
$DIMLDRBLK
  1

  9
$DIMLUNIT
 70
     2
  9
$DIMLWD
 70
    -2
  9
$DIMLWE
 70
    -2
  9
$DIMTMOVE
 70
     0
  9
$DIMFXL
 40
1.0
  9
$DIMFXLON
 70
     0
  9
$DIMJOGANG
 40
0.7853981633974483
  9
$DIMTFILL
 70
     0
  9
$DIMTFILLCLR
 70
     0
  9
$DIMARCSYM
 70
     0
  9
$DIMLTYPE
  6

  9
$DIMLTEX1
  6

  9
$DIMLTEX2
  6

  9
$DIMTXTDIRECTION
 70
     0
  9
$LUNITS
 70
     2
  9
$LUPREC
 70
     4
  9
$SKETCHINC
 40
0.1
  9
$FILLETRAD
 40
0.0
  9
$AUNITS
 70
     0
  9
$AUPREC
 70
     0
  9
$MENU
  1
.
  9
$ELEVATION
 40
0.0
  9
$PELEVATION
 40
0.0
  9
$THICKNESS
 40
0.0
  9
$LIMCHECK
 70
     0
  9
$CHAMFERA
 40
0.0
  9
$CHAMFERB
 40
0.0
  9
$CHAMFERC
 40
0.0
  9
$CHAMFERD
 40
0.0
  9
$SKPOLY
 70
     0
  9
$TDCREATE
 40
2460031.585671297
  9
$TDUCREATE
 40
2460031.502337963
  9
$TDUPDATE
 40
2460031.585671297
  9
$TDUUPDATE
 40
2460031.502337963
  9
$TDINDWG
 40
0.0000000000
  9
$TDUSRTIMER
 40
0.0000000000
  9
$USRTIMER
 70
     1
  9
$ANGBASE
 50
0.0
  9
$ANGDIR
 70
     0
  9
$PDMODE
 70
     0
  9
$PDSIZE
 40
0.0
  9
$PLINEWID
 40
0.0
  9
$SPLFRAME
 70
     0
  9
$SPLINETYPE
 70
     6
  9
$SPLINESEGS
 70
     8
  9
$HANDSEED
  5
255
  9
$SURFTAB1
 70
     6
  9
$SURFTAB2
 70
     6
  9
$SURFTYPE
 70
     6
  9
$SURFU
 70
     6
  9
$SURFV
 70
     6
  9
$UCSBASE
  2

  9
$UCSNAME
  2

  9
$UCSORG
 10
0.0
 20
0.0
 30
0.0
  9
$UCSXDIR
 10
1.0
 20
0.0
 30
0.0
  9
$UCSYDIR
 10
0.0
 20
1.0
 30
0.0
  9
$UCSORTHOREF
  2

  9
$UCSORTHOVIEW
 70
     0
  9
$UCSORGTOP
 10
0.0
 20
0.0
 30
0.0
  9
$UCSORGBOTTOM
 10
0.0
 20
0.0
 30
0.0
  9
$UCSORGLEFT
 10
0.0
 20
0.0
 30
0.0
  9
$UCSORGRIGHT
 10
0.0
 20
0.0
 30
0.0
  9
$UCSORGFRONT
 10
0.0
 20
0.0
 30
0.0
  9
$UCSORGBACK
 10
0.0
 20
0.0
 30
0.0
  9
$PUCSBASE
  2

  9
$PUCSNAME
  2

  9
$PUCSORG
 10
0.0
 20
0.0
 30
0.0
  9
$PUCSXDIR
 10
1.0
 20
0.0
 30
0.0
  9
$PUCSYDIR
 10
0.0
 20
1.0
 30
0.0
  9
$PUCSORTHOREF
  2

  9
$PUCSORTHOVIEW
 70
     0
  9
$PUCSORGTOP
 10
0.0
 20
0.0
 30
0.0
  9
$PUCSORGBOTTOM
 10
0.0
 20
0.0
 30
0.0
  9
$PUCSORGLEFT
 10
0.0
 20
0.0
 30
0.0
  9
$PUCSORGRIGHT
 10
0.0
 20
0.0
 30
0.0
  9
$PUCSORGFRONT
 10
0.0
 20
0.0
 30
0.0
  9
$PUCSORGBACK
 10
0.0
 20
0.0
 30
0.0
  9
$USERI1
 70
     0
  9
$USERI2
 70
     0
  9
$USERI3
 70
     0
  9
$USERI4
 70
     0
  9
$USERI5
 70
     0
  9
$USERR1
 40
0.0
  9
$USERR2
 40
0.0
  9
$USERR3
 40
0.0
  9
$USERR4
 40
0.0
  9
$USERR5
 40
0.0
  9
$WORLDVIEW
 70
     1
  9
$SHADEDGE
 70
     3
  9
$SHADEDIF
 70
    70
  9
$TILEMODE
 70
     1
  9
$MAXACTVP
 70
    64
  9
$PINSBASE
 10
0.0
 20
0.0
 30
0.0
  9
$PLIMCHECK
 70
     0
  9
$PEXTMIN
 10
1.000000000000000E+20
 20
1.000000000000000E+20
 30
1.000000000000000E+20
  9
$PEXTMAX
 10
-1.000000000000000E+20
 20
-1.000000000000000E+20
 30
-1.000000000000000E+20
  9
$PLIMMIN
 10
0.0
 20
0.0
  9
$PLIMMAX
 10
12.0
 20
9.0
  9
$UNITMODE
 70
     0
  9
$VISRETAIN
 70
     1
  9
$PLINEGEN
 70
     0
  9
$PSLTSCALE
 70
     1
  9
$TREEDEPTH
 70
  3020
  9
$CMLSTYLE
  2
Standard
  9
$CMLJUST
 70
     0
  9
$CMLSCALE
 40
1.0
  9
$PROXYGRAPHICS
 70
     1
  9
$MEASUREMENT
 70
     0
  9
$CELWEIGHT
370
    -1
  9
$ENDCAPS
280
     0
  9
$JOINSTYLE
280
     0
  9
$LWDISPLAY
290
     1
  9
$INSUNITS
 70
     4
  9
$HYPERLINKBASE
  1

  9
$STYLESHEET
  1

  9
$XEDIT
290
     1
  9
$CEPSNTYPE
380
     0
  9
$PSTYLEMODE
290
     1
  9
$FINGERPRINTGUID
  2
{2D0FE5DA-77FB-594F-B0E1-8CCE835893D8}
  9
$VERSIONGUID
  2
{F97D7D08-EA22-C448-A5AE-CB44223F7113}
  9
$EXTNAMES
290
     1
  9
$PSVPSCALE
 40
0.0
  9
$OLESTARTUP
290
     0
  9
$SORTENTS
280
   127
  9
$INDEXCTL
280
     0
  9
$HIDETEXT
280
     1
  9
$XCLIPFRAME
280
     2
  9
$HALOGAP
280
     0
  9
$OBSCOLOR
 70
   257
  9
$OBSLTYPE
280
     0
  9
$INTERSECTIONDISPLAY
280
     0
  9
$INTERSECTIONCOLOR
 70
   257
  9
$DIMASSOC
280
     2
  9
$PROJECTNAME
  1

  9
$CAMERADISPLAY
290
     0
  9
$LENSLENGTH
 40
50.0
  9
$CAMERAHEIGHT
 40
0.0
  9
$STEPSPERSEC
 40
2.0
  9
$STEPSIZE
 40
6.0
  9
$3DDWFPREC
 40
2.0
  9
$PSOLWIDTH
 40
0.25
  9
$PSOLHEIGHT
 40
4.0
  9
$LOFTANG1
 40
1.570796326794896
  9
$LOFTANG2
 40
1.570796326794896
  9
$LOFTMAG1
 40
0.0
  9
$LOFTMAG2
 40
0.0
  9
$LOFTPARAM
 70
     7
  9
$LOFTNORMALS
280
     1
  9
$LATITUDE
 40
37.795
  9
$LONGITUDE
 40
-122.394
  9
$NORTHDIRECTION
 40
0.0
  9
$TIMEZONE
 70
 -8000
  9
$LIGHTGLYPHDISPLAY
280
     1
  9
$TILEMODELIGHTSYNCH
280
     1
  9
$CMATERIAL
347
11
  9
$SOLIDHIST
280
     0
  9
$SHOWHIST
280
     1
  9
$DWFFRAME
280
     2
  9
$DGNFRAME
280
     0
  9
$REALWORLDSCALE
290
     1
  9
$INTERFERECOLOR
 62
     1
  9
$INTERFEREOBJVS
345
33
  9
$INTERFEREVPVS
346
30
  9
$CSHADOW
280
     0
  9
$SHADOWPLANELOCATION
 40
0.0
  0
ENDSEC
  0
SECTION
  2
CLASSES
  0
CLASS
  1
ACDBDICTIONARYWDFLT
  2
AcDbDictionaryWithDefault
  3
ObjectDBX Classes
 90
        0
 91
        1
280
     0
281
     0
  0
CLASS
  1
MATERIAL
  2
AcDbMaterial
  3
ObjectDBX Classes
 90
     1153
 91
        3
280
     0
281
     0
  0
CLASS
  1
VISUALSTYLE
  2
AcDbVisualStyle
  3
ObjectDBX Classes
 90
     4095
 91
       24
280
     0
281
     0
  0
CLASS
  1
SCALE
  2
AcDbScale
  3
ObjectDBX Classes
 90
     1153
 91
       17
280
     0
281
     0
  0
CLASS
  1
TABLESTYLE
  2
AcDbTableStyle
  3
ObjectDBX Classes
 90
     4095
 91
        1
280
     0
281
     0
  0
CLASS
  1
MLEADERSTYLE
  2
AcDbMLeaderStyle
  3
ACDB_MLEADERSTYLE_CLASS
 90
     4095
 91
        1
280
     0
281
     0
  0
CLASS
  1
ACDBSECTIONVIEWSTYLE
  2
AcDbSectionViewStyle
  3
ObjectDBX Classes
 90
     1025
 91
        1
280
     0
281
     0
  0
CLASS
  1
ACDBDETAILVIEWSTYLE
  2
AcDbDetailViewStyle
  3
ObjectDBX Classes
 90
     1025
 91
        1
280
     0
281
     0
  0
CLASS
  1
DICTIONARYVAR
  2
AcDbDictionaryVar
  3
ObjectDBX Classes
 90
        0
 91
        5
280
     0
281
     0
  0
CLASS
  1
CELLSTYLEMAP
  2
AcDbCellStyleMap
  3
ObjectDBX Classes
 90
     1152
 91
        1
280
     0
281
     0
  0
ENDSEC
  0
SECTION
  2
TABLES
  0
TABLE
  2
VPORT
  5
8
330
0
100
AcDbSymbolTable
 70
     1
  0
VPORT
  5
57
330
8
100
AcDbSymbolTableRecord
100
AcDbViewportTableRecord
  2
*Active
 70
     0
 10
0.0
 20
0.0
 11
1.0
 21
1.0
 12
0.0
 22
0.0
 13
0.0
 23
0.0
 14
1.0
 24
1.0
 15
0.0
 25
0.0
 16
0.0
 26
0.0
 36
1.0
 17
104.9999999737499
 27
-43.49999998912136
 37
0.0
 40
302.9399999242646
 41
0.7070707070707073
 42
50.0
 43
0.0
 44
0.0
 50
0.0
 51
0.0
 71
     0
 72
   100
 73
     1
 74
     1
 75
     0
 76
     0
 77
     0
 78
     0
281
     0
 65
     1
110
0.0
120
0.0
130
0.0
111
1.0
121
0.0
131
0.0
112
0.0
122
1.0
132
0.0
 79
     0
146
0.0
 60
     3
 61
     5
292
     1
282
     1
141
0.0
142
0.0
 63
   250
421
  3355443
  0
ENDTAB
  0
TABLE
  2
LTYPE
  5
5
330
0
100
AcDbSymbolTable
 70
     1
  0
LTYPE
  5
5B
330
5
100
AcDbSymbolTableRecord
100
AcDbLinetypeTableRecord
  2
ByBlock
 70
     0
  3

 72
    65
 73
     0
 40
0.0
  0
LTYPE
  5
5C
330
5
100
AcDbSymbolTableRecord
100
AcDbLinetypeTableRecord
  2
ByLayer
 70
     0
  3

 72
    65
 73
     0
 40
0.0
  0
LTYPE
  5
5D
330
5
100
AcDbSymbolTableRecord
100
AcDbLinetypeTableRecord
  2
Continuous
 70
     0
  3
Solid line
 72
    65
 73
     0
 40
0.0
  0
ENDTAB
  0
TABLE
  2
LAYER
  5
2
330
0
100
AcDbSymbolTable
 70
     1
  0
LAYER
  5
54
330
2
100
AcDbSymbolTableRecord
100
AcDbLayerTableRecord
  2
0
 70
     0
 62
     7
  6
Continuous
370
     0
390
F
347
21
348
0
  0
ENDTAB
  0
TABLE
  2
STYLE
  5
3
330
0
100
AcDbSymbolTable
 70
     2
  0
STYLE
  5
55
330
3
100
AcDbSymbolTableRecord
100
AcDbTextStyleTableRecord
  2
Standard
 70
     0
 40
0.0
 41
1.0
 50
0.0
 71
     0
 42
0.2
  3
txt
  4

  0
STYLE
  5
5A
330
3
100
AcDbSymbolTableRecord
100
AcDbTextStyleTableRecord
  2
Annotative
 70
     0
 40
0.0
 41
1.0
 50
0.0
 71
     0
 42
0.2
  3
txt
  4

1001
AcadAnnotative
1000
AnnotativeData
1002
{
1070
     1
1070
     1
1002
}
  0
ENDTAB
  0
TABLE
  2
VIEW
  5
6
330
0
100
AcDbSymbolTable
 70
     0
  0
ENDTAB
  0
TABLE
  2
UCS
  5
7
330
0
100
AcDbSymbolTable
 70
     0
  0
ENDTAB
  0
TABLE
  2
APPID
  5
9
330
0
100
AcDbSymbolTable
 70
     2
  0
APPID
  5
56
330
9
100
AcDbSymbolTableRecord
100
AcDbRegAppTableRecord
  2
ACAD
 70
     0
  0
APPID
  5
5E
330
9
100
AcDbSymbolTableRecord
100
AcDbRegAppTableRecord
  2
AcadAnnotative
 70
     0
  0
ENDTAB
  0
TABLE
  2
DIMSTYLE
  5
A
330
0
100
AcDbSymbolTable
 70
     2
100
AcDbDimStyleTable
 71
     0
  0
DIMSTYLE
105
58
330
A
100
AcDbSymbolTableRecord
100
AcDbDimStyleTableRecord
  2
Standard
 70
     0
340
55
  0
DIMSTYLE
105
59
330
A
100
AcDbSymbolTableRecord
100
AcDbDimStyleTableRecord
  2
Annotative
 70
     0
340
55
1001
AcadAnnotative
1000
AnnotativeData
1002
{
1070
     1
1070
     1
1002
}
  0
ENDTAB
  0
TABLE
  2
BLOCK_RECORD
  5
1
330
0
100
AcDbSymbolTable
 70
     5
  0
BLOCK_RECORD
  5
70
330
1
100
AcDbSymbolTableRecord
100
AcDbBlockTableRecord
  2
*Model_Space
340
73
 70
     0
280
     1
281
     0
  0
BLOCK_RECORD
  5
6C
330
1
100
AcDbSymbolTableRecord
100
AcDbBlockTableRecord
  2
*Paper_Space
340
6F
 70
     0
280
     1
281
     0
  0
BLOCK_RECORD
  5
74
330
1
100
AcDbSymbolTableRecord
100
AcDbBlockTableRecord
  2
*Paper_Space0
340
77
 70
     0
280
     1
281
     0
  0
BLOCK_RECORD
  5
AD
330
1
100
AcDbSymbolTableRecord
100
AcDbBlockTableRecord
  2
Block_0
340
0
102
{BLKREFS
331
AE
102
}
 70
     0
280
     1
281
     0
  0
BLOCK_RECORD
  5
13A
330
1
100
AcDbSymbolTableRecord
100
AcDbBlockTableRecord
  2
Block_1
340
0
102
{BLKREFS
331
13B
102
}
 70
     0
280
     1
281
     0
  0
BLOCK_RECORD
  5
1B8
330
1
100
AcDbSymbolTableRecord
100
AcDbBlockTableRecord
  2
Block_2
340
0
102
{BLKREFS
331
1B9
102
}
 70
     0
280
     1
281
     0
  0
BLOCK_RECORD
  5
1C4
330
1
100
AcDbSymbolTableRecord
100
AcDbBlockTableRecord
  2
Block_3
340
0
102
{BLKREFS
331
1C5
102
}
 70
     0
280
     1
281
     0
  0
ENDTAB
  0
ENDSEC
  0
SECTION
  2
BLOCKS
  0
BLOCK
  5
71
330
70
100
AcDbEntity
  8
0
100
AcDbBlockBegin
  2
*Model_Space
 70
     0
 10
0.0
 20
0.0
 30
0.0
  3
*Model_Space
  1

  0
ENDBLK
  5
72
330
70
100
AcDbEntity
  8
0
100
AcDbBlockEnd
  0
BLOCK
  5
6D
330
6C
100
AcDbEntity
 67
     1
  8
0
100
AcDbBlockBegin
  2
*Paper_Space
 70
     0
 10
0.0
 20
0.0
 30
0.0
  3
*Paper_Space
  1

  0
ENDBLK
  5
6E
330
6C
100
AcDbEntity
 67
     1
  8
0
100
AcDbBlockEnd
  0
BLOCK
  5
75
330
74
100
AcDbEntity
 67
     1
  8
0
100
AcDbBlockBegin
  2
*Paper_Space0
 70
     0
 10
0.0
 20
0.0
 30
0.0
  3
*Paper_Space0
  1

  0
ENDBLK
  5
76
330
74
100
AcDbEntity
 67
     1
  8
0
100
AcDbBlockEnd
  0
BLOCK
  5
AF
330
AD
100
AcDbEntity
  8
0
100
AcDbBlockBegin
  2
Block_0
 70
     0
 10
0.0
 20
0.0
 30
0.0
  3
Block_0
  1

  0
LWPOLYLINE
  5
B1
330
AD
100
AcDbEntity
  8
0
100
AcDbPolyline
 90
        4
 70
     1
 43
0.0
 10
29.86342978801131
 20
-63.70816257040691
 10
32.36342978801108
 20
-64.01816257040663
 10
32.36342978801108
 20
-63.39816257040719
 10
32.36342978801108
 20
-63.39816257040719
  0
HATCH
  5
B2
330
AD
100
AcDbEntity
  8
0
 62
    18
420
        0
440
 33554687
100
AcDbHatch
 10
0.0
 20
0.0
 30
0.0
210
0.0
220
0.0
230
1.0
  2
SOLID
 70
     1
 71
     1
 91
        1
 92
        1
 93
        3
 72
     1
 10
29.86342978801131
 20
-63.70816257040691
 11
32.36342978801108
 21
-64.01816257040663
 72
     1
 10
32.36342978801108
 20
-64.01816257040663
 11
32.36342978801108
 21
-63.39816257040719
 72
     1
 10
32.36342978801108
 20
-63.39816257040719
 11
29.86342978801131
 21
-63.70816257040691
 97
        1
330
B1
 75
     2
 76
     1
 98
        1
 10
0.0
 20
0.0
450
        0
451
        0
460
0.0
461
0.0
452
        0
462
0.0
453
        0
470

  0
LWPOLYLINE
  5
B3
330
AD
100
AcDbEntity
  8
0
100
AcDbPolyline
 90
        4
 70
     1
 43
0.0
 10
60.86342978801112
 20
-63.70816257040691
 10
58.36342978801135
 20
-63.39816257040719
 10
58.36342978801135
 20
-64.01816257040663
 10
58.36342978801135
 20
-64.01816257040663
  0
HATCH
  5
B4
330
AD
100
AcDbEntity
  8
0
 62
    18
420
        0
440
 33554687
100
AcDbHatch
 10
0.0
 20
0.0
 30
0.0
210
0.0
220
0.0
230
1.0
  2
SOLID
 70
     1
 71
     1
 91
        1
 92
        1
 93
        3
 72
     1
 10
60.86342978801112
 20
-63.70816257040691
 11
58.36342978801135
 21
-63.39816257040719
 72
     1
 10
58.36342978801135
 20
-63.39816257040719
 11
58.36342978801135
 21
-64.01816257040663
 72
     1
 10
58.36342978801135
 20
-64.01816257040663
 11
60.86342978801112
 21
-63.70816257040691
 97
        1
330
B3
 75
     2
 76
     1
 98
        1
 10
0.0
 20
0.0
450
        0
451
        0
460
0.0
461
0.0
452
        0
462
0.0
453
        0
470

  0
LINE
  5
B5
330
AD
100
AcDbEntity
  8
0
 62
    18
420
        0
370
    18
100
AcDbLine
 10
29.86342978801131
 20
-51.53968720080683
 30
0.0
 11
29.86342978801131
 21
-64.7081625704063
 31
0.0
  0
LINE
  5
B6
330
AD
100
AcDbEntity
  8
0
 62
    18
420
        0
370
    18
100
AcDbLine
 10
60.86342978801112
 20
-51.53968720080683
 30
0.0
 11
60.86342978801112
 21
-64.7081625704063
 31
0.0
  0
LINE
  5
B7
330
AD
100
AcDbEntity
  8
0
 62
    18
420
        0
370
    18
100
AcDbLine
 10
29.86342978801131
 20
-63.70816257040691
 30
0.0
 11
60.86342978801112
 21
-63.70816257040691
 31
0.0
  0
MTEXT
  5
B8
330
AD
100
AcDbEntity
  8
0
100
AcDbMText
 10
41.91337618309805
 20
-63.01981826902152
 30
0.0
 40
0.2
 41
0.0
 46
0.0
 71
     7
 72
     1
  1
\C18;\c0;\FMyriad Pro|b0|i0|c1;\H2.381250;\W0.605000;∅
 73
     1
 44
1.0
  0
MTEXT
  5
B9
330
AD
100
AcDbEntity
  8
0
100
AcDbMText
 10
45.28571017510707
 20
-63.01981826902152
 30
0.0
 40
0.2
 41
0.0
 46
0.0
 71
     7
 72
     1
  1
\C18;\c0;\FMyriad Pro|b0|i0|c1;\H2.381250;\W0.605000;62
 73
     1
 44
1.0
  0
ENDBLK
  5
B0
330
AD
100
AcDbEntity
  8
0
100
AcDbBlockEnd
  0
BLOCK
  5
13C
330
13A
100
AcDbEntity
  8
0
100
AcDbBlockBegin
  2
Block_1
 70
     0
 10
0.0
 20
0.0
 30
0.0
  3
Block_1
  1

  0
LWPOLYLINE
  5
13E
330
13A
100
AcDbEntity
  8
0
100
AcDbPolyline
 90
        4
 70
     1
 43
0.0
 10
125.7339652784112
 20
41.99206327289305
 10
125.4239652784109
 20
39.49206327289328
 10
126.0439652784109
 20
39.49206327289328
 10
126.0439652784109
 20
39.49206327289328
  0
HATCH
  5
13F
330
13A
100
AcDbEntity
  8
0
 62
    18
420
        0
440
 33554687
100
AcDbHatch
 10
0.0
 20
0.0
 30
0.0
210
0.0
220
0.0
230
1.0
  2
SOLID
 70
     1
 71
     1
 91
        1
 92
        1
 93
        3
 72
     1
 10
125.7339652784112
 20
41.99206327289305
 11
125.4239652784109
 21
39.49206327289328
 72
     1
 10
125.4239652784109
 20
39.49206327289328
 11
126.0439652784109
 21
39.49206327289328
 72
     1
 10
126.0439652784109
 20
39.49206327289328
 11
125.7339652784112
 21
41.99206327289305
 97
        1
330
13E
 75
     2
 76
     1
 98
        1
 10
0.0
 20
0.0
450
        0
451
        0
460
0.0
461
0.0
452
        0
462
0.0
453
        0
470

  0
LWPOLYLINE
  5
140
330
13A
100
AcDbEntity
  8
0
100
AcDbPolyline
 90
        4
 70
     1
 43
0.0
 10
125.7339652784112
 20
-51.03968720080651
 10
126.0439652784109
 20
-48.53968720080674
 10
125.4239652784109
 20
-48.53968720080674
 10
125.4239652784109
 20
-48.53968720080674
  0
HATCH
  5
141
330
13A
100
AcDbEntity
  8
0
 62
    18
420
        0
440
 33554687
100
AcDbHatch
 10
0.0
 20
0.0
 30
0.0
210
0.0
220
0.0
230
1.0
  2
SOLID
 70
     1
 71
     1
 91
        1
 92
        1
 93
        3
 72
     1
 10
125.7339652784112
 20
-51.03968720080651
 11
126.0439652784109
 21
-48.53968720080674
 72
     1
 10
126.0439652784109
 20
-48.53968720080674
 11
125.4239652784109
 21
-48.53968720080674
 72
     1
 10
125.4239652784109
 20
-48.53968720080674
 11
125.7339652784112
 21
-51.03968720080651
 97
        1
330
140
 75
     2
 76
     1
 98
        1
 10
0.0
 20
0.0
450
        0
451
        0
460
0.0
461
0.0
452
        0
462
0.0
453
        0
470

  0
LINE
  5
142
330
13A
100
AcDbEntity
  8
0
 62
    18
420
        0
370
    18
100
AcDbLine
 10
159.823798614211
 20
41.99206327289305
 30
0.0
 11
124.7339652784112
 21
41.99206327289305
 31
0.0
  0
LINE
  5
143
330
13A
100
AcDbEntity
  8
0
 62
    18
420
        0
370
    18
100
AcDbLine
 10
144.7439652784113
 20
-51.03968720080651
 30
0.0
 11
124.7339652784112
 21
-51.03968720080651
 31
0.0
  0
LINE
  5
144
330
13A
100
AcDbEntity
  8
0
 62
    18
420
        0
370
    18
100
AcDbLine
 10
125.7339652784112
 20
41.99206327289305
 30
0.0
 11
125.7339652784112
 21
-51.03968720080651
 31
0.0
  0
MTEXT
  5
145
330
13A
100
AcDbEntity
  8
0
100
AcDbMText
 10
125.045624214257
 20
-7.169588214332902
 30
0.0
 40
0.2
 41
0.0
 46
0.0
 71
     7
 72
     1
  1
\C18;\c0;\FMyriad Pro|b0|i0|c1;\H2.381250;\W0.605000;186
 11
-0.000000000000007
 21
1.0
 31
0.0
 73
     1
 44
1.0
  0
ENDBLK
  5
13D
330
13A
100
AcDbEntity
  8
0
100
AcDbBlockEnd
  0
BLOCK
  5
1BA
330
1B8
100
AcDbEntity
  8
0
100
AcDbBlockBegin
  2
Block_2
 70
     0
 10
0.0
 20
0.0
 30
0.0
  3
Block_2
  1

  0
LWPOLYLINE
  5
1BC
330
1B8
100
AcDbEntity
  8
0
100
AcDbPolyline
 90
        4
 70
     1
 43
0.0
 10
70.86342978801114
 20
-90.83818739780637
 10
70.5534297880111
 20
-93.33818739780678
 10
71.17342978801119
 20
-93.33818739780678
 10
71.17342978801119
 20
-93.33818739780678
  0
HATCH
  5
1BD
330
1B8
100
AcDbEntity
  8
0
 62
    18
420
        0
440
 33554687
100
AcDbHatch
 10
0.0
 20
0.0
 30
0.0
210
0.0
220
0.0
230
1.0
  2
SOLID
 70
     1
 71
     1
 91
        1
 92
        1
 93
        3
 72
     1
 10
70.86342978801114
 20
-90.83818739780637
 11
70.5534297880111
 21
-93.33818739780678
 72
     1
 10
70.5534297880111
 20
-93.33818739780678
 11
71.17342978801119
 21
-93.33818739780678
 72
     1
 10
71.17342978801119
 20
-93.33818739780678
 11
70.86342978801114
 21
-90.83818739780637
 97
        1
330
1BC
 75
     2
 76
     1
 98
        1
 10
0.0
 20
0.0
450
        0
451
        0
460
0.0
461
0.0
452
        0
462
0.0
453
        0
470

  0
LWPOLYLINE
  5
1BE
330
1B8
100
AcDbEntity
  8
0
100
AcDbPolyline
 90
        4
 70
     1
 43
0.0
 10
70.86342978801114
 20
-140.1530207336067
 10
71.17342978801119
 20
-137.6530207336063
 10
70.5534297880111
 20
-137.6530207336063
 10
70.5534297880111
 20
-137.6530207336063
  0
HATCH
  5
1BF
330
1B8
100
AcDbEntity
  8
0
 62
    18
420
        0
440
 33554687
100
AcDbHatch
 10
0.0
 20
0.0
 30
0.0
210
0.0
220
0.0
230
1.0
  2
SOLID
 70
     1
 71
     1
 91
        1
 92
        1
 93
        3
 72
     1
 10
70.86342978801114
 20
-140.1530207336067
 11
71.17342978801119
 21
-137.6530207336063
 72
     1
 10
71.17342978801119
 20
-137.6530207336063
 11
70.5534297880111
 21
-137.6530207336063
 72
     1
 10
70.5534297880111
 20
-137.6530207336063
 11
70.86342978801114
 21
-140.1530207336067
 97
        1
330
1BE
 75
     2
 76
     1
 98
        1
 10
0.0
 20
0.0
450
        0
451
        0
460
0.0
461
0.0
452
        0
462
0.0
453
        0
470

  0
LINE
  5
1C0
330
1B8
100
AcDbEntity
  8
0
 62
    18
420
        0
370
    18
100
AcDbLine
 10
59.11342978801122
 20
-90.83818739780637
 30
0.0
 11
71.86342978801119
 21
-90.83818739780637
 31
0.0
  0
LINE
  5
1C1
330
1B8
100
AcDbEntity
  8
0
 62
    18
420
        0
370
    18
100
AcDbLine
 10
47.8634297880113
 20
-140.1530207336067
 30
0.0
 11
71.86342978801119
 21
-140.1530207336067
 31
0.0
  0
LINE
  5
1C2
330
1B8
100
AcDbEntity
  8
0
 62
    18
420
        0
370
    18
100
AcDbLine
 10
70.86342978801114
 20
-90.83818739780637
 30
0.0
 11
70.86342978801114
 21
-140.1530207336067
 31
0.0
  0
MTEXT
  5
1C3
330
1B8
100
AcDbEntity
  8
0
100
AcDbMText
 10
70.17508780524001
 20
-117.2593369932289
 30
0.0
 40
0.2
 41
0.0
 46
0.0
 71
     7
 72
     1
  1
\C18;\c0;\FMyriad Pro|b0|i0|c1;\H2.381250;\W0.605000;99
 11
-0.0000000000000088
 21
1.0
 31
0.0
 73
     1
 44
1.0
  0
ENDBLK
  5
1BB
330
1B8
100
AcDbEntity
  8
0
100
AcDbBlockEnd
  0
BLOCK
  5
1C6
330
1C4
100
AcDbEntity
  8
0
100
AcDbBlockBegin
  2
Block_3
 70
     0
 10
0.0
 20
0.0
 30
0.0
  3
Block_3
  1

  0
LWPOLYLINE
  5
1C8
330
1C4
100
AcDbEntity
  8
0
100
AcDbPolyline
 90
        4
 70
     1
 43
0.0
 10
59.11342978801122
 20
-80.83818739780729
 10
56.61342978801112
 20
-80.52818739780629
 10
56.61342978801112
 20
-81.14818739780702
 10
56.61342978801112
 20
-81.14818739780702
  0
HATCH
  5
1C9
330
1C4
100
AcDbEntity
  8
0
 62
    18
420
        0
440
 33554687
100
AcDbHatch
 10
0.0
 20
0.0
 30
0.0
210
0.0
220
0.0
230
1.0
  2
SOLID
 70
     1
 71
     1
 91
        1
 92
        1
 93
        3
 72
     1
 10
59.11342978801122
 20
-80.83818739780729
 11
56.61342978801112
 21
-80.52818739780629
 72
     1
 10
56.61342978801112
 20
-80.52818739780629
 11
56.61342978801112
 21
-81.14818739780702
 72
     1
 10
56.61342978801112
 20
-81.14818739780702
 11
59.11342978801122
 21
-80.83818739780729
 97
        1
330
1C8
 75
     2
 76
     1
 98
        1
 10
0.0
 20
0.0
450
        0
451
        0
460
0.0
461
0.0
452
        0
462
0.0
453
        0
470

  0
LWPOLYLINE
  5
1CA
330
1C4
100
AcDbEntity
  8
0
100
AcDbPolyline
 90
        4
 70
     1
 43
0.0
 10
31.61342978801121
 20
-80.83818739780729
 10
34.1134297880113
 20
-81.14818739780702
 10
34.1134297880113
 20
-80.52818739780629
 10
34.1134297880113
 20
-80.52818739780629
  0
HATCH
  5
1CB
330
1C4
100
AcDbEntity
  8
0
 62
    18
420
        0
440
 33554687
100
AcDbHatch
 10
0.0
 20
0.0
 30
0.0
210
0.0
220
0.0
230
1.0
  2
SOLID
 70
     1
 71
     1
 91
        1
 92
        1
 93
        3
 72
     1
 10
31.61342978801121
 20
-80.83818739780729
 11
34.1134297880113
 21
-81.14818739780702
 72
     1
 10
34.1134297880113
 20
-81.14818739780702
 11
34.1134297880113
 21
-80.52818739780629
 72
     1
 10
34.1134297880113
 20
-80.52818739780629
 11
31.61342978801121
 21
-80.83818739780729
 97
        1
330
1CA
 75
     2
 76
     1
 98
        1
 10
0.0
 20
0.0
450
        0
451
        0
460
0.0
461
0.0
452
        0
462
0.0
453
        0
470

  0
LINE
  5
1CC
330
1C4
100
AcDbEntity
  8
0
 62
    18
420
        0
370
    18
100
AcDbLine
 10
59.11342978801122
 20
-90.26318739780641
 30
0.0
 11
59.11342978801122
 21
-79.83818739780662
 31
0.0
  0
LINE
  5
1CD
330
1C4
100
AcDbEntity
  8
0
 62
    18
420
        0
370
    18
100
AcDbLine
 10
31.61342978801121
 20
-90.26318739780641
 30
0.0
 11
31.61342978801121
 21
-79.83818739780662
 31
0.0
  0
LINE
  5
1CE
330
1C4
100
AcDbEntity
  8
0
 62
    18
420
        0
370
    18
100
AcDbLine
 10
59.11342978801122
 20
-80.83818739780729
 30
0.0
 11
31.61342978801121
 21
-80.83818739780729
 31
0.0
  0
MTEXT
  5
1CF
330
1C4
100
AcDbEntity
  8
0
100
AcDbMText
 10
41.91337618309805
 20
-80.14984501848251
 30
0.0
 40
0.2
 41
0.0
 46
0.0
 71
     7
 72
     1
  1
\C18;\c0;\FMyriad Pro|b0|i0|c1;\H2.381250;\W0.605000;∅
 73
     1
 44
1.0
  0
MTEXT
  5
1D0
330
1C4
100
AcDbEntity
  8
0
100
AcDbMText
 10
45.28571017510707
 20
-80.14984501848251
 30
0.0
 40
0.2
 41
0.0
 46
0.0
 71
     7
 72
     1
  1
\C18;\c0;\FMyriad Pro|b0|i0|c1;\H2.381250;\W0.605000;55
 73
     1
 44
1.0
  0
ENDBLK
  5
1C7
330
1C4
100
AcDbEntity
  8
0
100
AcDbBlockEnd
  0
ENDSEC
  0
SECTION
  2
ENTITIES
  0
SPLINE
  5
78
330
70
100
AcDbEntity
  8
0
 62
    18
420
        0
370
    25
100
AcDbSpline
210
0.0
220
0.0
230
1.0
 70
     8
 71
     3
 72
     8
 73
     4
 74
     0
 42
0.0000000001
 43
0.0000000001
 40
0.0
 40
0.0
 40
0.0
 40
0.0
 40
1.0
 40
1.0
 40
1.0
 40
1.0
 10
60.81342978801128
 20
-50.63968720080649
 30
0.0
 10
60.81342978801128
 20
-50.58445872582371
 30
0.0
 10
60.76865826299437
 20
-50.5396872008068
 30
0.0
 10
60.71342978801127
 20
-50.5396872008068
 30
0.0
  0
SPLINE
  5
79
330
70
100
AcDbEntity
  8
0
 62
    18
420
        0
370
    25
100
AcDbSpline
210
0.0
220
0.0
230
1.0
 70
     8
 71
     3
 72
     8
 73
     4
 74
     0
 42
0.0000000001
 43
0.0000000001
 40
0.0
 40
0.0
 40
0.0
 40
0.0
 40
1.0
 40
1.0
 40
1.0
 40
1.0
 10
30.01342978801115
 20
-50.5396872008068
 30
0.0
 10
29.95820131302806
 20
-50.5396872008068
 30
0.0
 10
29.91342978801115
 20
-50.58445872582371
 30
0.0
 10
29.91342978801115
 20
-50.63968720080649
 30
0.0
  0
SPLINE
  5
7A
330
70
100
AcDbEntity
  8
0
 62
    18
420
        0
370
    25
100
AcDbSpline
210
0.0
220
0.0
230
1.0
 70
     8
 71
     3
 72
     8
 73
     4
 74
     0
 42
0.0000000001
 43
0.0000000001
 40
0.0
 40
0.0
 40
0.0
 40
0.0
 40
1.0
 40
1.0
 40
1.0
 40
1.0
 10
29.91342978801115
 20
-50.93968720080617
 30
0.0
 10
29.91342978801115
 20
-50.99491567578959
 30
0.0
 10
29.95820131302806
 20
-51.03968720080651
 30
0.0
 10
30.01342978801115
 20
-51.03968720080651
 30
0.0
  0
SPLINE
  5
7B
330
70
100
AcDbEntity
  8
0
 62
    18
420
        0
370
    25
100
AcDbSpline
210
0.0
220
0.0
230
1.0
 70
     8
 71
     3
 72
     8
 73
     4
 74
     0
 42
0.0000000001
 43
0.0000000001
 40
0.0
 40
0.0
 40
0.0
 40
0.0
 40
1.0
 40
1.0
 40
1.0
 40
1.0
 10
60.71342978801127
 20
-51.03968720080651
 30
0.0
 10
60.76865826299437
 20
-51.03968720080651
 30
0.0
 10
60.81342978801128
 20
-50.99491567578959
 30
0.0
 10
60.81342978801128
 20
-50.93968720080617
 30
0.0
  0
LINE
  5
7C
330
70
100
AcDbEntity
  8
0
 62
    18
420
        0
370
    25
100
AcDbLine
 10
29.91342995641126
 20
-50.63968954920679
 30
0.0
 11
29.91342995641126
 21
-50.93968717690674
 31
0.0
  0
LINE
  5
7D
330
70
100
AcDbEntity
  8
0
 62
    18
420
        0
370
    25
100
AcDbLine
 10
60.81342961961116
 20
-50.93968717690674
 30
0.0
 11
60.81342961961116
 21
-50.63968954920679
 31
0.0
  0
LINE
  5
7E
330
70
100
AcDbEntity
  8
0
 62
    18
420
        0
370
    25
100
AcDbLine
 10
60.86342953471133
 20
15.96031279919329
 30
0.0
 11
60.86342953471133
 21
16.31818828329284
 31
0.0
  0
LINE
  5
7F
330
70
100
AcDbEntity
  8
0
 62
    18
420
        0
370
    25
100
AcDbLine
 10
29.86343004131109
 20
16.31818828329284
 30
0.0
 11
29.86343004131109
 21
15.96031279919329
 31
0.0
  0
SPLINE
  5
80
330
70
100
AcDbEntity
  8
0
 62
    18
420
        0
370
    25
100
AcDbSpline
210
0.0
220
0.0
230
1.0
 70
     8
 71
     3
 72
     8
 73
     4
 74
     0
 42
0.0000000001
 43
0.0000000001
 40
0.0
 40
0.0
 40
0.0
 40
0.0
 40
1.0
 40
1.0
 40
1.0
 40
1.0
 10
60.86342978801112
 20
16.31818828789382
 30
0.0
 10
60.86342978801112
 20
16.45316964970523
 30
0.0
 10
60.75627962279407
 20
16.56377715722343
 30
0.0
 10
60.62136629594771
 20
16.56806227982084
 30
0.0
  0
SPLINE
  5
81
330
70
100
AcDbEntity
  8
0
 62
    18
420
        0
370
    25
100
AcDbSpline
210
0.0
220
0.0
230
1.0
 70
     8
 71
     3
 72
     8
 73
     4
 74
     0
 42
0.0000000001
 43
0.0000000001
 40
0.0
 40
0.0
 40
0.0
 40
0.0
 40
1.0
 40
1.0
 40
1.0
 40
1.0
 10
30.10549328007471
 20
16.56806227982084
 30
0.0
 10
29.97057995322836
 20
16.56377715722343
 30
0.0
 10
29.86342978801131
 20
16.45316964970523
 30
0.0
 10
29.86342978801131
 20
16.31818828789382
 30
0.0
  0
SPLINE
  5
82
330
70
100
AcDbEntity
  8
0
 62
    18
420
        0
370
    25
100
AcDbSpline
210
0.0
220
0.0
230
1.0
 70
     8
 71
     3
 72
     8
 73
     4
 74
     0
 42
0.0000000001
 43
0.0000000001
 40
0.0
 40
0.0
 40
0.0
 40
0.0
 40
1.0
 40
1.0
 40
1.0
 40
1.0
 10
40.36342978775949
 20
16.78430429313792
 30
0.0
 10
36.94344561673079
 20
16.74872385880746
 30
0.0
 10
33.52393865440339
 20
16.67663908135839
 30
0.0
 10
30.10549328032594
 20
16.56806227977849
 30
0.0
  0
SPLINE
  5
83
330
70
100
AcDbEntity
  8
0
 62
    18
420
        0
370
    25
100
AcDbSpline
210
0.0
220
0.0
230
1.0
 70
     8
 71
     3
 72
     8
 73
     4
 74
     0
 42
0.0000000001
 43
0.0000000001
 40
0.0
 40
0.0
 40
0.0
 40
0.0
 40
1.0
 40
1.0
 40
1.0
 40
1.0
 10
60.62136629569681
 20
16.56806227977849
 30
0.0
 10
57.20292092161904
 20
16.67663908135839
 30
0.0
 10
53.78341395929195
 20
16.74872385880746
 30
0.0
 10
50.36342978826326
 20
16.78430429313856
 30
0.0
  0
LINE
  5
84
330
70
100
AcDbEntity
  8
0
 62
    18
420
        0
370
    25
100
AcDbLine
 10
53.11212068741124
 20
16.98430429829334
 30
0.0
 11
53.05327786451127
 21
23.7270261874934
 31
0.0
  0
LINE
  5
85
330
70
100
AcDbEntity
  8
0
 62
    18
420
        0
370
    25
100
AcDbLine
 10
37.67358171141105
 20
23.7270261874934
 30
0.0
 11
37.61473888851109
 21
16.98430429829334
 31
0.0
  0
SPLINE
  5
86
330
70
100
AcDbEntity
  8
0
 62
    18
420
        0
370
    25
100
AcDbSpline
210
0.0
220
0.0
230
1.0
 70
     8
 71
     3
 72
     8
 73
     4
 74
     0
 42
0.0000000001
 43
0.0000000001
 40
0.0
 40
0.0
 40
0.0
 40
0.0
 40
1.0
 40
1.0
 40
1.0
 40
1.0
 10
37.91117109168432
 20
23.97453667214005
 30
0.0
 10
37.77892597833832
 20
23.96796867425625
 30
0.0
 10
37.67473712375036
 20
23.85942913957331
 30
0.0
 10
37.67358165964519
 20
23.72702606746809
 30
0.0
  0
SPLINE
  5
87
330
70
100
AcDbEntity
  8
0
 62
    18
420
        0
370
    25
100
AcDbSpline
210
0.0
220
0.0
230
1.0
 70
     8
 71
     3
 72
     8
 73
     4
 74
     0
 42
0.0000000001
 43
0.0000000001
 40
0.0
 40
0.0
 40
0.0
 40
0.0
 40
1.0
 40
1.0
 40
1.0
 40
1.0
 10
53.05327791637724
 20
23.72702606746809
 30
0.0
 10
53.05212245227206
 20
23.85942913957331
 30
0.0
 10
52.9479335976841
 20
23.96796867425625
 30
0.0
 10
52.8156884843381
 20
23.97453667214005
 30
0.0
  0
SPLINE
  5
88
330
70
100
AcDbEntity
  8
0
 62
    18
420
        0
370
    25
100
AcDbSpline
210
0.0
220
0.0
230
1.0
 70
     8
 71
     3
 72
     8
 73
     4
 74
     0
 42
0.0000000001
 43
0.0000000001
 40
0.0
 40
0.0
 40
0.0
 40
0.0
 40
1.0
 40
1.0
 40
1.0
 40
1.0
 10
52.81568848422388
 20
23.97453667208422
 30
0.0
 10
51.8478734971056
 20
24.0226035278407
 30
0.0
 10
50.87941097274436
 20
24.0566005394987
 30
0.0
 10
49.91060778884787
 20
24.07651693439055
 30
0.0
  0
SPLINE
  5
89
330
70
100
AcDbEntity
  8
0
 62
    18
420
        0
370
    25
100
AcDbSpline
210
0.0
220
0.0
230
1.0
 70
     8
 71
     3
 72
     8
 73
     4
 74
     0
 42
0.0000000001
 43
0.0000000001
 40
0.0
 40
0.0
 40
0.0
 40
0.0
 40
1.0
 40
1.0
 40
1.0
 40
1.0
 10
40.81625178717454
 20
24.07651693439055
 30
0.0
 10
39.84744860327806
 20
24.0566005394987
 30
0.0
 10
38.87898607891683
 20
24.0226035278407
 30
0.0
 10
37.91117109179854
 20
23.97453667208422
 30
0.0
  0
SPLINE
  5
8A
330
70
100
AcDbEntity
  8
0
 62
    18
420
        0
370
    25
100
AcDbSpline
210
0.0
220
0.0
230
1.0
 70
     8
 71
     3
 72
     8
 73
     4
 74
     0
 42
0.0000000001
 43
0.0000000001
 40
0.0
 40
0.0
 40
0.0
 40
0.0
 40
1.0
 40
1.0
 40
1.0
 40
1.0
 10
49.42090352127898
 20
24.57204804504369
 30
0.0
 10
49.42326354292974
 20
24.30161634980555
 30
0.0
 10
49.64022292502253
 20
24.08207543358618
 30
0.0
 10
49.9106077888344
 20
24.07651693438799
 30
0.0
  0
SPLINE
  5
8B
330
70
100
AcDbEntity
  8
0
 62
    18
420
        0
370
    25
100
AcDbSpline
210
0.0
220
0.0
230
1.0
 70
     8
 71
     3
 72
     8
 73
     4
 74
     0
 42
0.0000000001
 43
0.0000000001
 40
0.0
 40
0.0
 40
0.0
 40
0.0
 40
1.0
 40
1.0
 40
1.0
 40
1.0
 10
40.81625178718802
 20
24.07651693438799
 30
0.0
 10
41.08663665099989
 20
24.08207543358618
 30
0.0
 10
41.30359603309235
 20
24.30161634980555
 30
0.0
 10
41.30595605474312
 20
24.57204804504369
 30
0.0
  0
LINE
  5
8C
330
70
100
AcDbEntity
  8
0
 62
    18
420
        0
370
    25
100
AcDbLine
 10
49.42090329101105
 20
24.57204775569325
 30
0.0
 11
49.37360374581126
 21
29.99206294919332
 31
0.0
  0
LINE
  5
8D
330
70
100
AcDbEntity
  8
0
 62
    18
420
        0
370
    25
100
AcDbLine
 10
41.35325583021116
 20
29.99206294919332
 30
0.0
 11
41.30595628491126
 21
24.57204775569325
 31
0.0
  0
LINE
  5
8E
330
70
100
AcDbEntity
  8
0
 62
    18
420
        0
370
    25
100
AcDbLine
 10
50.36342967621106
 20
29.99206294919332
 30
0.0
 11
50.26159048401119
 21
41.66171455439324
 31
0.0
  0
LINE
  5
8F
330
70
100
AcDbEntity
  8
0
 62
    18
420
        0
370
    25
100
AcDbLine
 10
40.46526909201123
 20
41.66171455439324
 30
0.0
 11
40.36342989971126
 21
29.99206294919332
 31
0.0
  0
SPLINE
  5
90
330
70
100
AcDbEntity
  8
0
 62
    18
420
        0
370
    25
100
AcDbSpline
210
0.0
220
0.0
230
1.0
 70
     8
 71
     3
 72
     8
 73
     4
 74
     0
 42
0.0000000001
 43
0.0000000001
 40
0.0
 40
0.0
 40
0.0
 40
0.0
 40
1.0
 40
1.0
 40
1.0
 40
1.0
 10
40.55564992879271
 20
41.76037902529823
 30
0.0
 10
40.50471706761553
 20
41.7554587465942
 30
0.0
 10
40.46571583273561
 20
41.71288306562934
 30
0.0
 10
40.46526929620467
 20
41.66171504734324
 30
0.0
  0
SPLINE
  5
91
330
70
100
AcDbEntity
  8
0
 62
    18
420
        0
370
    25
100
AcDbSpline
210
0.0
220
0.0
230
1.0
 70
     8
 71
     3
 72
     8
 73
     4
 74
     0
 42
0.0000000001
 43
0.0000000001
 40
0.0
 40
0.0
 40
0.0
 40
0.0
 40
1.0
 40
1.0
 40
1.0
 40
1.0
 10
50.26159027981774
 20
41.66171504734324
 30
0.0
 10
50.26114374328681
 20
41.71288306562934
 30
0.0
 10
50.2221425084069
 20
41.7554587465942
 30
0.0
 10
50.17120964722971
 20
41.76037902529823
 30
0.0
  0
SPLINE
  5
92
330
70
100
AcDbEntity
  8
0
 62
    18
420
        0
370
    25
100
AcDbSpline
210
0.0
220
0.0
230
1.0
 70
     8
 71
     3
 72
     8
 73
     4
 74
     0
 42
0.0000000001
 43
0.0000000001
 40
0.0
 40
0.0
 40
0.0
 40
0.0
 40
1.0
 40
1.0
 40
1.0
 40
1.0
 10
50.1712096472496
 20
41.7603790252379
 30
0.0
 10
46.97346623144347
 20
42.06929135544497
 30
0.0
 10
43.75339334457896
 20
42.06929135544497
 30
0.0
 10
40.55564992877282
 20
41.7603790252379
 30
0.0
  0
LINE
  5
93
330
70
100
AcDbEntity
  8
0
 62
    18
420
        0
370
    25
100
AcDbLine
 10
29.86343004131109
 20
15.96031279919329
 30
0.0
 11
29.86343004131109
 21
-50.53968785640697
 31
0.0
  0
LINE
  5
94
330
70
100
AcDbEntity
  8
0
 62
    18
420
        0
370
    25
100
AcDbLine
 10
60.86342953471133
 20
-50.53968785640697
 30
0.0
 11
60.86342953471133
 21
15.96031279919329
 31
0.0
  0
LINE
  5
95
330
70
100
AcDbEntity
  8
0
 62
    18
420
        0
370
    25
100
AcDbLine
 10
45.36342978801121
 20
-51.03968886970656
 30
0.0
 11
30.01342978651118
 21
-51.03968886970656
 31
0.0
  0
LINE
  5
96
330
70
100
AcDbEntity
  8
0
 62
    18
420
        0
370
    25
100
AcDbLine
 10
60.71342978951125
 20
-51.03968886970656
 30
0.0
 11
45.36342978801121
 21
-51.03968886970656
 31
0.0
  0
LINE
  5
97
330
70
100
AcDbEntity
  8
0
 62
    18
420
        0
370
    25
100
AcDbLine
 10
60.86342953471133
 20
15.96031279919329
 30
0.0
 11
29.86343004131109
 21
15.96031279919329
 31
0.0
  0
LINE
  5
98
330
70
100
AcDbEntity
  8
0
 62
   144
420
    29337
370
    18
100
AcDbLine
 10
50.36342967621106
 20
16.78430428879298
 30
0.0
 11
40.36342989971126
 21
16.78430428879298
 31
0.0
  0
LINE
  5
99
330
70
100
AcDbEntity
  8
0
 62
   144
420
    29337
370
    18
100
AcDbLine
 10
46.15922042261112
 20
16.98430429829334
 30
0.0
 11
37.61473888851109
 21
16.98430429829334
 31
0.0
  0
LINE
  5
9A
330
70
100
AcDbEntity
  8
0
 62
   144
420
    29337
370
    18
100
AcDbLine
 10
53.11212068741124
 20
16.98430429829334
 30
0.0
 11
46.15922042261112
 21
16.98430429829334
 31
0.0
  0
LINE
  5
9B
330
70
100
AcDbEntity
  8
0
 62
    18
420
        0
370
    25
100
AcDbLine
 10
40.36342989971126
 20
29.99206294919332
 30
0.0
 11
50.36342967621106
 21
29.99206294919332
 31
0.0
  0
SPLINE
  5
9C
330
70
100
AcDbEntity
  8
0
 62
   144
420
    29337
370
    18
100
AcDbSpline
210
0.0
220
0.0
230
1.0
 70
    11
 71
     3
 72
    98
 73
    94
 74
     0
 42
0.0000000001
 43
0.0000000001
 40
0.0
 40
0.0
 40
0.0
 40
0.0
 40
1.0
 40
1.0
 40
1.0
 40
2.0
 40
2.0
 40
2.0
 40
3.0
 40
3.0
 40
3.0
 40
4.0
 40
4.0
 40
4.0
 40
5.0
 40
5.0
 40
5.0
 40
6.0
 40
6.0
 40
6.0
 40
7.0
 40
7.0
 40
7.0
 40
8.0
 40
8.0
 40
8.0
 40
9.0
 40
9.0
 40
9.0
 40
10.0
 40
10.0
 40
10.0
 40
11.0
 40
11.0
 40
11.0
 40
12.0
 40
12.0
 40
12.0
 40
13.0
 40
13.0
 40
13.0
 40
14.0
 40
14.0
 40
14.0
 40
15.0
 40
15.0
 40
15.0
 40
16.0
 40
16.0
 40
16.0
 40
17.0
 40
17.0
 40
17.0
 40
18.0
 40
18.0
 40
18.0
 40
19.0
 40
19.0
 40
19.0
 40
20.0
 40
20.0
 40
20.0
 40
21.0
 40
21.0
 40
21.0
 40
22.0
 40
22.0
 40
22.0
 40
23.0
 40
23.0
 40
23.0
 40
24.0
 40
24.0
 40
24.0
 40
25.0
 40
25.0
 40
25.0
 40
26.0
 40
26.0
 40
26.0
 40
27.0
 40
27.0
 40
27.0
 40
28.0
 40
28.0
 40
28.0
 40
29.0
 40
29.0
 40
29.0
 40
30.0
 40
30.0
 40
30.0
 40
31.0
 40
31.0
 40
31.0
 40
31.0
 10
44.2476434718048
 20
37.45252207768871
 30
0.0
 10
44.31580959099817
 20
37.37935631631954
 30
0.0
 10
44.38999263575331
 20
37.31400988794629
 30
0.0
 10
44.47007859948434
 20
37.25612288035883
 30
0.0
 10
44.55016456321537
 20
37.19823587277137
 30
0.0
 10
44.6371976175995
 20
37.14737901958126
 30
0.0
 10
44.72793706607411
 20
37.10578263741989
 30
0.0
 10
44.81867651454873
 20
37.06418625525915
 30
0.0
 10
44.91263230327229
 20
37.03179031197306
 30
0.0
 10
45.0098612485312
 20
37.00861651355331
 30
0.0
 10
45.10709019378981
 20
36.98544271513227
 30
0.0
 10
45.20835094796161
 20
36.97167188073353
 30
0.0
 10
45.3083578074237
 20
36.96805799834525
 30
0.0
 10
45.4083646668858
 20
36.96444411595698
 30
0.0
 10
45.50816251819923
 20
36.97059828345985
 30
0.0
 10
45.60774683368926
 20
36.98676124968331
 30
0.0
 10
45.70733114917929
 20
37.00292421590676
 30
0.0
 10
45.80468739351259
 20
37.02891047407631
 30
0.0
 10
45.89787301589255
 20
37.06377918488499
 30
0.0
 10
45.99105863827218
 20
37.09864789569368
 30
0.0
 10
46.08161612788331
 20
37.14307790126077
 30
0.0
 10
46.16632824070612
 20
37.19553750201633
 30
0.0
 10
46.25104035352894
 20
37.24799710277189
 30
0.0
 10
46.3295518678178
 20
37.30798436203722
 30
0.0
 10
46.40207309747943
 20
37.3754411006303
 30
0.0
 10
46.47459432714074
 20
37.44289783922275
 30
0.0
 10
46.54127005682904
 20
37.51836604211494
 30
0.0
 10
46.59918637231449
 20
37.59845784304525
 30
0.0
 10
46.65710268779994
 20
37.67854964397555
 30
0.0
 10
46.70707721551791
 20
37.76388524763686
 30
0.0
 10
46.74888117022624
 20
37.85476470280649
 30
0.0
 10
46.83248907964258
 20
38.03652361314576
 30
0.0
 10
46.87982258345384
 20
38.2331595695708
 30
0.0
 10
46.88736705843323
 20
38.43514055536746
 30
0.0
 10
46.89113929592293
 20
38.53613104826578
 30
0.0
 10
46.88491480714805
 20
38.6359776343737
 30
0.0
 10
46.86900060137424
 20
38.73471843134313
 30
0.0
 10
46.85308639560073
 20
38.83345922831257
 30
0.0
 10
46.82699522666612
 20
38.93203193889743
 30
0.0
 10
46.79206104767955
 20
39.02557777493976
 30
0.0
 10
46.75712686869266
 20
39.11912361098274
 30
0.0
 10
46.71343352243962
 20
39.20837396302878
 30
0.0
 10
46.66092365751028
 20
39.29339632389645
 30
0.0
 10
46.60841379258093
 20
39.37841868476476
 30
0.0
 10
46.54755192360255
 20
39.45811582739164
 30
0.0
 10
46.48021668113015
 20
39.53052946656394
 30
0.0
 10
46.41288143865774
 20
39.60294310573688
 30
0.0
 10
46.33807853801615
 20
39.66920856366583
 30
0.0
 10
46.25710444530097
 20
39.72776979427208
 30
0.0
 10
46.17613035258613
 20
39.78633102487767
 30
0.0
 10
46.09050223147908
 20
39.83625901795871
 30
0.0
 10
46.00022324541715
 20
39.87774689215192
 30
0.0
 10
45.9099442593549
 20
39.91923476634641
 30
0.0
 10
45.81381852700855
 20
39.95247330303581
 30
0.0
 10
45.71642513039985
 20
39.97564653255343
 30
0.0
 10
45.61903173379116
 20
39.99881976207104
 30
0.0
 10
45.52015860236641
 20
40.01231007353927
 30
0.0
 10
45.41978191441368
 20
40.01602174934674
 30
0.0
 10
45.31940522646062
 20
40.01973342515422
 30
0.0
 10
45.21753966789545
 20
40.01335432035491
 30
0.0
 10
45.11890573247669
 20
39.99733168297062
 30
0.0
 10
45.02027179705793
 20
39.98130904558569
 30
0.0
 10
44.92348709787025
 20
39.95570342542977
 30
0.0
 10
44.82904847770387
 20
39.92037052811123
 30
0.0
 10
44.73460985753781
 20
39.88503763079268
 30
0.0
 10
44.64536192214801
 20
39.84108102665558
 30
0.0
 10
44.5609854694291
 20
39.78887016510493
 30
0.0
 10
44.47660901670988
 20
39.73665930355491
 30
0.0
 10
44.39638140993973
 20
39.67540537564415
 30
0.0
 10
44.3237517434968
 20
39.60772207551233
 30
0.0
 10
44.25112207705389
 20
39.54003877538052
 30
0.0
 10
44.18570219463136
 20
39.46595982143736
 30
0.0
 10
44.12744377182789
 20
39.38535133835511
 30
0.0
 10
44.06918534902412
 20
39.30474285527287
 30
0.0
 10
44.01830144250229
 20
39.21740298154517
 30
0.0
 10
43.97694528435164
 20
39.12711108305892
 30
0.0
 10
43.93558912620131
 20
39.03681918457266
 30
0.0
 10
43.90303827796034
 20
38.94269643286683
 30
0.0
 10
43.87971139800852
 20
38.84449020040353
 30
0.0
 10
43.85638451805635
 20
38.74628396794152
 30
0.0
 10
43.84297641613696
 20
38.6464288066566
 30
0.0
 10
43.83940461577394
 20
38.54658184252762
 30
0.0
 10
43.83583281541093
 20
38.44673487839865
 30
0.0
 10
43.84218117558467
 20
38.34529507739038
 30
0.0
 10
43.85840443335719
 20
38.24604765982247
 30
0.0
 10
43.87462769112939
 20
38.14680024225391
 30
0.0
 10
43.90034344040567
 20
38.05052711528658
 30
0.0
 10
43.93533587546811
 20
37.95711208169733
 30
0.0
 10
43.97032831053087
 20
37.86369704810808
 30
0.0
 10
44.01499162179253
 20
37.77292392760993
 30
0.0
 10
44.06720085510855
 20
37.68868568203829
 30
0.0
 10
44.11941008842457
 20
37.60444743646667
 30
0.0
 10
44.17947735261143
 20
37.52568783905788
 30
0.0
 10
44.2476434718048
 20
37.45252207768871
 30
0.0
  0
LINE
  5
9D
330
70
100
AcDbEntity
  8
0
 62
   144
420
    29337
370
    18
100
AcDbLine
 10
29.86343004131109
 20
15.96031279919329
 30
0.0
 11
60.86342953471133
 21
15.96031279919329
 31
0.0
  0
LINE
  5
9E
330
70
100
AcDbEntity
  8
0
 62
    18
420
        0
370
    25
100
AcDbLine
 10
29.86343004131109
 20
-50.53968785640697
 30
0.0
 11
60.86342953471133
 21
-50.53968785640697
 31
0.0
  0
CIRCLE
  5
9F
330
70
100
AcDbEntity
  8
0
 62
    18
420
        0
370
    25
100
AcDbCircle
 10
45.36342978801121
 20
38.49206327289341
 30
0.0
 40
0.999999999999955
  0
CIRCLE
  5
A0
330
70
100
AcDbEntity
  8
0
 62
    18
420
        0
370
    25
100
AcDbCircle
 10
45.36342978801121
 20
38.49206327289325
 30
0.0
 40
1.499999999999892
  0
LINE
  5
A1
330
70
100
AcDbEntity
  8
0
 62
     8
420
  8421504
370
    25
100
AcDbLine
 10
60.81342961961116
 20
-50.63968954920679
 30
0.0
 11
29.91342995641126
 21
-50.63968954920679
 31
0.0
  0
LINE
  5
A2
330
70
100
AcDbEntity
  8
0
 62
     8
420
  8421504
370
    25
100
AcDbLine
 10
45.36342978801121
 20
-50.93968717690674
 30
0.0
 11
60.81342961961116
 21
-50.93968717690674
 31
0.0
  0
LINE
  5
A3
330
70
100
AcDbEntity
  8
0
 62
     8
420
  8421504
370
    25
100
AcDbLine
 10
29.91342995641126
 20
-50.93968717690674
 30
0.0
 11
45.36342978801121
 21
-50.93968717690674
 31
0.0
  0
LINE
  5
A4
330
70
100
AcDbEntity
  8
0
 62
     8
420
  8421504
370
    25
100
AcDbLine
 10
60.86342953471133
 20
16.31818828329284
 30
0.0
 11
29.86343004131109
 21
16.31818828329284
 31
0.0
  0
LINE
  5
A5
330
70
100
AcDbEntity
  8
0
 62
     8
420
  8421504
370
    25
100
AcDbLine
 10
30.10549288561108
 20
16.5680623046931
 30
0.0
 11
60.62136669031124
 21
16.5680623046931
 31
0.0
  0
LINE
  5
A6
330
70
100
AcDbEntity
  8
0
 62
     8
420
  8421504
370
    25
100
AcDbLine
 10
46.15317724501108
 20
23.7270261874934
 30
0.0
 11
37.67358171141105
 21
23.7270261874934
 31
0.0
  0
LINE
  5
A7
330
70
100
AcDbEntity
  8
0
 62
     8
420
  8421504
370
    25
100
AcDbLine
 10
53.05327786451127
 20
23.7270261874934
 30
0.0
 11
46.15317724501108
 21
23.7270261874934
 31
0.0
  0
LINE
  5
A8
330
70
100
AcDbEntity
  8
0
 62
     8
420
  8421504
370
    25
100
AcDbLine
 10
37.91117094781122
 20
23.97453633759347
 30
0.0
 11
52.8156886282112
 21
23.97453633759347
 31
0.0
  0
LINE
  5
A9
330
70
100
AcDbEntity
  8
0
 62
     8
420
  8421504
370
    25
100
AcDbLine
 10
49.91060760191132
 20
24.07651709079314
 30
0.0
 11
40.81625197401131
 21
24.07651709079314
 31
0.0
  0
LINE
  5
AA
330
70
100
AcDbEntity
  8
0
 62
     8
420
  8421504
370
    25
100
AcDbLine
 10
41.30595628491126
 20
24.57204775569325
 30
0.0
 11
49.42090329101105
 21
24.57204775569325
 31
0.0
  0
LINE
  5
AB
330
70
100
AcDbEntity
  8
0
 62
     8
420
  8421504
370
    25
100
AcDbLine
 10
40.46526909201123
 20
41.66171455439324
 30
0.0
 11
50.26159048401119
 21
41.66171455439324
 31
0.0
  0
LINE
  5
AC
330
70
100
AcDbEntity
  8
0
 62
     8
420
  8421504
370
    25
100
AcDbLine
 10
40.55564975691106
 20
41.76037886799341
 30
0.0
 11
50.17120981911105
 21
41.76037886799341
 31
0.0
  0
INSERT
  5
AE
330
70
100
AcDbEntity
  8
0
100
AcDbBlockReference
  2
Block_0
 10
0.0
 20
0.0
 30
0.0
  0
SPLINE
  5
BA
330
70
100
AcDbEntity
  8
0
 62
    18
420
        0
370
    25
100
AcDbSpline
210
0.0
220
0.0
230
1.0
 70
     8
 71
     3
 72
     8
 73
     4
 74
     0
 42
0.0000000001
 43
0.0000000001
 40
0.0
 40
0.0
 40
0.0
 40
0.0
 40
1.0
 40
1.0
 40
1.0
 40
1.0
 10
176.5439652784111
 20
-50.63968720080649
 30
0.0
 10
176.5439652784111
 20
-50.58445872582371
 30
0.0
 10
176.4991937533942
 20
-50.5396872008068
 30
0.0
 10
176.4439652784114
 20
-50.5396872008068
 30
0.0
  0
SPLINE
  5
BB
330
70
100
AcDbEntity
  8
0
 62
    18
420
        0
370
    25
100
AcDbSpline
210
0.0
220
0.0
230
1.0
 70
     8
 71
     3
 72
     8
 73
     4
 74
     0
 42
0.0000000001
 43
0.0000000001
 40
0.0
 40
0.0
 40
0.0
 40
0.0
 40
1.0
 40
1.0
 40
1.0
 40
1.0
 10
145.7439652784113
 20
-50.5396872008068
 30
0.0
 10
145.6887368034279
 20
-50.5396872008068
 30
0.0
 10
145.643965278411
 20
-50.58445872582371
 30
0.0
 10
145.643965278411
 20
-50.63968720080649
 30
0.0
  0
SPLINE
  5
BC
330
70
100
AcDbEntity
  8
0
 62
    18
420
        0
370
    25
100
AcDbSpline
210
0.0
220
0.0
230
1.0
 70
     8
 71
     3
 72
     8
 73
     4
 74
     0
 42
0.0000000001
 43
0.0000000001
 40
0.0
 40
0.0
 40
0.0
 40
0.0
 40
1.0
 40
1.0
 40
1.0
 40
1.0
 10
145.643965278411
 20
-50.93968720080617
 30
0.0
 10
145.643965278411
 20
-50.99491567578959
 30
0.0
 10
145.6887368034279
 20
-51.03968720080651
 30
0.0
 10
145.7439652784113
 20
-51.03968720080651
 30
0.0
  0
SPLINE
  5
BD
330
70
100
AcDbEntity
  8
0
 62
    18
420
        0
370
    25
100
AcDbSpline
210
0.0
220
0.0
230
1.0
 70
     8
 71
     3
 72
     8
 73
     4
 74
     0
 42
0.0000000001
 43
0.0000000001
 40
0.0
 40
0.0
 40
0.0
 40
0.0
 40
1.0
 40
1.0
 40
1.0
 40
1.0
 10
176.4439652784114
 20
-51.03968720080651
 30
0.0
 10
176.4991937533942
 20
-51.03968720080651
 30
0.0
 10
176.5439652784111
 20
-50.99491567578959
 30
0.0
 10
176.5439652784111
 20
-50.93968720080617
 30
0.0
  0
LINE
  5
BE
330
70
100
AcDbEntity
  8
0
 62
    18
420
        0
370
    25
100
AcDbLine
 10
145.6439654468115
 20
-50.63968954920679
 30
0.0
 11
145.6439654468115
 21
-50.93968717690674
 31
0.0
  0
LINE
  5
BF
330
70
100
AcDbEntity
  8
0
 62
    18
420
        0
370
    25
100
AcDbLine
 10
176.5439651100113
 20
-50.93968717690674
 30
0.0
 11
176.5439651100113
 21
-50.63968954920679
 31
0.0
  0
LINE
  5
C0
330
70
100
AcDbEntity
  8
0
 62
    18
420
        0
370
    25
100
AcDbLine
 10
176.5939650251115
 20
15.96031279919329
 30
0.0
 11
176.5939650251115
 21
16.31818828329284
 31
0.0
  0
LINE
  5
C1
330
70
100
AcDbEntity
  8
0
 62
    18
420
        0
370
    25
100
AcDbLine
 10
145.5939655318114
 20
16.31818828329284
 30
0.0
 11
145.5939655318114
 21
15.96031279919329
 31
0.0
  0
SPLINE
  5
C2
330
70
100
AcDbEntity
  8
0
 62
    18
420
        0
370
    25
100
AcDbSpline
210
0.0
220
0.0
230
1.0
 70
     8
 71
     3
 72
     8
 73
     4
 74
     0
 42
0.0000000001
 43
0.0000000001
 40
0.0
 40
0.0
 40
0.0
 40
0.0
 40
1.0
 40
1.0
 40
1.0
 40
1.0
 10
176.5939652784113
 20
16.31818828789382
 30
0.0
 10
176.5939652784113
 20
16.45316964970523
 30
0.0
 10
176.4868151131942
 20
16.56377715722343
 30
0.0
 10
176.3519017863472
 20
16.56806227982084
 30
0.0
  0
SPLINE
  5
C3
330
70
100
AcDbEntity
  8
0
 62
    18
420
        0
370
    25
100
AcDbSpline
210
0.0
220
0.0
230
1.0
 70
     8
 71
     3
 72
     8
 73
     4
 74
     0
 42
0.0000000001
 43
0.0000000001
 40
0.0
 40
0.0
 40
0.0
 40
0.0
 40
1.0
 40
1.0
 40
1.0
 40
1.0
 10
145.8360287704749
 20
16.56806227982084
 30
0.0
 10
145.7011154436279
 20
16.56377715722343
 30
0.0
 10
145.5939652784109
 20
16.45316964970523
 30
0.0
 10
145.5939652784109
 20
16.31818828789382
 30
0.0
  0
SPLINE
  5
C4
330
70
100
AcDbEntity
  8
0
 62
    18
420
        0
370
    25
100
AcDbSpline
210
0.0
220
0.0
230
1.0
 70
     8
 71
     3
 72
     8
 73
     4
 74
     0
 42
0.0000000001
 43
0.0000000001
 40
0.0
 40
0.0
 40
0.0
 40
0.0
 40
1.0
 40
1.0
 40
1.0
 40
1.0
 10
156.0939652781593
 20
16.78430429313792
 30
0.0
 10
152.673981107131
 20
16.74872385880746
 30
0.0
 10
149.2544741448036
 20
16.67663908135839
 30
0.0
 10
145.8360287707258
 20
16.56806227977849
 30
0.0
  0
SPLINE
  5
C5
330
70
100
AcDbEntity
  8
0
 62
    18
420
        0
370
    25
100
AcDbSpline
210
0.0
220
0.0
230
1.0
 70
     8
 71
     3
 72
     8
 73
     4
 74
     0
 42
0.0000000001
 43
0.0000000001
 40
0.0
 40
0.0
 40
0.0
 40
0.0
 40
1.0
 40
1.0
 40
1.0
 40
1.0
 10
176.351901786097
 20
16.56806227977849
 30
0.0
 10
172.9334564120192
 20
16.67663908135839
 30
0.0
 10
169.5139494496918
 20
16.74872385880746
 30
0.0
 10
166.0939652786634
 20
16.78430429313792
 30
0.0
  0
LINE
  5
C6
330
70
100
AcDbEntity
  8
0
 62
    18
420
        0
370
    25
100
AcDbLine
 10
168.5724897435109
 20
16.98430429829334
 30
0.0
 11
168.513646920611
 21
23.7270261874934
 31
0.0
  0
LINE
  5
C7
330
70
100
AcDbEntity
  8
0
 62
    18
420
        0
370
    25
100
AcDbLine
 10
153.1339503019113
 20
23.7270261874934
 30
0.0
 11
153.0751074790113
 21
16.98430429829334
 31
0.0
  0
SPLINE
  5
C8
330
70
100
AcDbEntity
  8
0
 62
    18
420
        0
370
    25
100
AcDbSpline
210
0.0
220
0.0
230
1.0
 70
     8
 71
     3
 72
     8
 73
     4
 74
     0
 42
0.0000000001
 43
0.0000000001
 40
0.0
 40
0.0
 40
0.0
 40
0.0
 40
1.0
 40
1.0
 40
1.0
 40
1.0
 10
153.3715399178841
 20
23.97453667214005
 30
0.0
 10
153.2392948045381
 20
23.96796867425625
 30
0.0
 10
153.1351059499505
 20
23.85942913957331
 30
0.0
 10
153.1339504858453
 20
23.72702606746809
 30
0.0
  0
SPLINE
  5
C9
330
70
100
AcDbEntity
  8
0
 62
    18
420
        0
370
    25
100
AcDbSpline
210
0.0
220
0.0
230
1.0
 70
     8
 71
     3
 72
     8
 73
     4
 74
     0
 42
0.0000000001
 43
0.0000000001
 40
0.0
 40
0.0
 40
0.0
 40
0.0
 40
1.0
 40
1.0
 40
1.0
 40
1.0
 10
168.5136467425774
 20
23.72702606746809
 30
0.0
 10
168.5124912784715
 20
23.85942913957331
 30
0.0
 10
168.4083024238839
 20
23.96796867425625
 30
0.0
 10
168.2760573105379
 20
23.97453667214005
 30
0.0
  0
SPLINE
  5
CA
330
70
100
AcDbEntity
  8
0
 62
    18
420
        0
370
    25
100
AcDbSpline
210
0.0
220
0.0
230
1.0
 70
     8
 71
     3
 72
     8
 73
     4
 74
     0
 42
0.0000000001
 43
0.0000000001
 40
0.0
 40
0.0
 40
0.0
 40
0.0
 40
1.0
 40
1.0
 40
1.0
 40
1.0
 10
168.2760573105238
 20
23.97453667208422
 30
0.0
 10
167.3082423234058
 20
24.0226035278407
 30
0.0
 10
166.3397797990443
 20
24.0566005394987
 30
0.0
 10
165.3709766151481
 20
24.07651693439055
 30
0.0
  0
SPLINE
  5
CB
330
70
100
AcDbEntity
  8
0
 62
    18
420
        0
370
    25
100
AcDbSpline
210
0.0
220
0.0
230
1.0
 70
     8
 71
     3
 72
     8
 73
     4
 74
     0
 42
0.0000000001
 43
0.0000000001
 40
0.0
 40
0.0
 40
0.0
 40
0.0
 40
1.0
 40
1.0
 40
1.0
 40
1.0
 10
156.2766206133747
 20
24.07651693439055
 30
0.0
 10
155.3078174294779
 20
24.0566005394987
 30
0.0
 10
154.339354905117
 20
24.0226035278407
 30
0.0
 10
153.3715399179984
 20
23.97453667208422
 30
0.0
  0
SPLINE
  5
CC
330
70
100
AcDbEntity
  8
0
 62
    18
420
        0
370
    25
100
AcDbSpline
210
0.0
220
0.0
230
1.0
 70
     8
 71
     3
 72
     8
 73
     4
 74
     0
 42
0.0000000001
 43
0.0000000001
 40
0.0
 40
0.0
 40
0.0
 40
0.0
 40
1.0
 40
1.0
 40
1.0
 40
1.0
 10
164.8812723474788
 20
24.57204804504369
 30
0.0
 10
164.8836323691296
 20
24.30161634980555
 30
0.0
 10
165.1005917512227
 20
24.08207543358618
 30
0.0
 10
165.3709766150345
 20
24.07651693438799
 30
0.0
  0
SPLINE
  5
CD
330
70
100
AcDbEntity
  8
0
 62
    18
420
        0
370
    25
100
AcDbSpline
210
0.0
220
0.0
230
1.0
 70
     8
 71
     3
 72
     8
 73
     4
 74
     0
 42
0.0000000001
 43
0.0000000001
 40
0.0
 40
0.0
 40
0.0
 40
0.0
 40
1.0
 40
1.0
 40
1.0
 40
1.0
 10
156.2766206133881
 20
24.07651693438799
 30
0.0
 10
156.5470054772
 20
24.08207543358618
 30
0.0
 10
156.7639648592925
 20
24.30161634980555
 30
0.0
 10
156.7663248809433
 20
24.57204804504369
 30
0.0
  0
LINE
  5
CE
330
70
100
AcDbEntity
  8
0
 62
    18
420
        0
370
    25
100
AcDbLine
 10
164.8812723471111
 20
24.57204775569325
 30
0.0
 11
164.8339725690111
 21
29.99206294919332
 31
0.0
  0
LINE
  5
CF
330
70
100
AcDbEntity
  8
0
 62
    18
420
        0
370
    25
100
AcDbLine
 10
156.8136244206109
 20
29.99206294919332
 30
0.0
 11
156.7663248754112
 21
24.57204775569325
 31
0.0
  0
LINE
  5
D0
330
70
100
AcDbEntity
  8
0
 62
    18
420
        0
370
    25
100
AcDbLine
 10
138.3388900323113
 20
9.335312877493739
 30
0.0
 11
136.1589656337115
 21
9.335312877493739
 31
0.0
  0
LINE
  5
D1
330
70
100
AcDbEntity
  8
0
 62
    18
420
        0
370
    25
100
AcDbLine
 10
136.1589656337115
 20
-18.16468743920656
 30
0.0
 11
138.3388900323113
 21
-18.16468743920656
 31
0.0
  0
SPLINE
  5
D2
330
70
100
AcDbEntity
  8
0
 62
    18
420
        0
370
    25
100
AcDbSpline
210
0.0
220
0.0
230
1.0
 70
     8
 71
     3
 72
     8
 73
     4
 74
     0
 42
0.0000000001
 43
0.0000000001
 40
0.0
 40
0.0
 40
0.0
 40
0.0
 40
1.0
 40
1.0
 40
1.0
 40
1.0
 10
138.3388902560115
 20
-18.16468720080703
 30
0.0
 10
138.6047142813983
 20
-18.16468720080703
 30
0.0
 10
138.8240677835795
 20
-17.95668922000427
 30
0.0
 10
138.838184690739
 20
-17.69124030701901
 30
0.0
  0
SPLINE
  5
D3
330
70
100
AcDbEntity
  8
0
 62
    18
420
        0
370
    25
100
AcDbSpline
210
0.0
220
0.0
230
1.0
 70
     8
 71
     3
 72
     8
 73
     4
 74
     0
 42
0.0000000001
 43
0.0000000001
 40
0.0
 40
0.0
 40
0.0
 40
0.0
 40
1.0
 40
1.0
 40
1.0
 40
1.0
 10
138.838184690739
 20
8.861865905405609
 30
0.0
 10
138.8240677835795
 20
9.127314818390866
 30
0.0
 10
138.6047142813983
 20
9.335312799193623
 30
0.0
 10
138.3388902560115
 20
9.335312799193623
 30
0.0
  0
SPLINE
  5
D4
330
70
100
AcDbEntity
  8
0
 62
    18
420
        0
370
    25
100
AcDbSpline
210
0.0
220
0.0
230
1.0
 70
     8
 71
     3
 72
     8
 73
     4
 74
     0
 42
0.0000000001
 43
0.0000000001
 40
0.0
 40
0.0
 40
0.0
 40
0.0
 40
1.0
 40
1.0
 40
1.0
 40
1.0
 10
138.838184690782
 20
-17.6912403068034
 30
0.0
 10
139.0025112006727
 20
-14.60130758060007
 30
0.0
 10
139.1094564914722
 20
-11.50859029130435
 30
0.0
 10
139.1589652784516
 20
-8.414687200654761
 30
0.0
  0
SPLINE
  5
D5
330
70
100
AcDbEntity
  8
0
 62
    18
420
        0
370
    25
100
AcDbSpline
210
0.0
220
0.0
230
1.0
 70
     8
 71
     3
 72
     8
 73
     4
 74
     0
 42
0.0000000001
 43
0.0000000001
 40
0.0
 40
0.0
 40
0.0
 40
0.0
 40
1.0
 40
1.0
 40
1.0
 40
1.0
 10
138.9807539473741
 20
5.835312799365794
 30
0.0
 10
138.9393448082997
 20
6.844442556775091
 30
0.0
 10
138.8918208501954
 20
7.853312115602742
 30
0.0
 10
138.838184690782
 20
8.861865905189999
 30
0.0
  0
SPLINE
  5
D6
330
70
100
AcDbEntity
  8
0
 62
    18
420
        0
370
    25
100
AcDbSpline
210
0.0
220
0.0
230
1.0
 70
     8
 71
     3
 72
     8
 73
     4
 74
     0
 42
0.0000000001
 43
0.0000000001
 40
0.0
 40
0.0
 40
0.0
 40
0.0
 40
1.0
 40
1.0
 40
1.0
 40
1.0
 10
139.1589652784516
 20
-0.4146872009586439
 30
0.0
 10
139.1361531439186
 20
1.010888698615625
 30
0.0
 10
139.1011462657949
 20
2.436243369123336
 30
0.0
 10
139.0539484866614
 20
3.861220354401325
 30
0.0
  0
LINE
  5
D7
330
70
100
AcDbEntity
  8
0
 62
    18
420
        0
370
    25
100
AcDbLine
 10
144.8005550666114
 20
-8.401210069106632
 30
0.0
 11
144.8005550666114
 21
-10.66468714120672
 31
0.0
  0
LINE
  5
D8
330
70
100
AcDbEntity
  8
0
 62
    18
420
        0
370
    25
100
AcDbLine
 10
144.8005550666114
 20
1.835313045093392
 30
0.0
 11
144.8005550666114
 21
-0.4146868581065475
 31
0.0
  0
LINE
  5
D9
330
70
100
AcDbEntity
  8
0
 62
    18
420
        0
370
    25
100
AcDbLine
 10
145.5545147075113
 20
1.835313045093392
 30
0.0
 11
144.8005550666114
 21
1.835313045093392
 31
0.0
  0
LINE
  5
DA
330
70
100
AcDbEntity
  8
0
 62
    18
420
        0
370
    25
100
AcDbLine
 10
144.8005550666114
 20
-10.66468714120672
 30
0.0
 11
145.5545147075113
 21
-10.66468714120672
 31
0.0
  0
LINE
  5
DB
330
70
100
AcDbEntity
  8
0
 62
    18
420
        0
370
    25
100
AcDbLine
 10
139.1589661254109
 20
-8.414686306706395
 30
0.0
 11
144.8005550666114
 21
-8.414686306706395
 31
0.0
  0
LINE
  5
DC
330
70
100
AcDbEntity
  8
0
 62
    18
420
        0
370
    25
100
AcDbLine
 10
144.8005550666114
 20
-0.4146868581065475
 30
0.0
 11
139.1589661254109
 21
-0.4146868581065475
 31
0.0
  0
LINE
  5
DD
330
70
100
AcDbEntity
  8
0
 62
    18
420
        0
370
    25
100
AcDbLine
 10
165.7363703600108
 20
40.01033620599327
 30
0.0
 11
165.7219590745111
 21
41.66171455439324
 31
0.0
  0
LINE
  5
DE
330
70
100
AcDbEntity
  8
0
 62
    18
420
        0
370
    25
100
AcDbLine
 10
165.8237987323114
 20
29.99206294919332
 30
0.0
 11
165.7627500719114
 21
36.98753880019347
 31
0.0
  0
LINE
  5
DF
330
70
100
AcDbEntity
  8
0
 62
    18
420
        0
370
    25
100
AcDbLine
 10
155.9256381481113
 20
41.66171455439324
 30
0.0
 11
155.8237984902115
 21
29.99206294919332
 31
0.0
  0
SPLINE
  5
E0
330
70
100
AcDbEntity
  8
0
 62
    18
420
        0
370
    25
100
AcDbSpline
210
0.0
220
0.0
230
1.0
 70
     8
 71
     3
 72
     8
 73
     4
 74
     0
 42
0.0000000001
 43
0.0000000001
 40
0.0
 40
0.0
 40
0.0
 40
0.0
 40
1.0
 40
1.0
 40
1.0
 40
1.0
 10
156.0160187549925
 20
41.76037902529823
 30
0.0
 10
155.9650858938153
 20
41.7554587465942
 30
0.0
 10
155.9260846589357
 20
41.71288306562934
 30
0.0
 10
155.9256381224048
 20
41.66171504734324
 30
0.0
  0
SPLINE
  5
E1
330
70
100
AcDbEntity
  8
0
 62
    18
420
        0
370
    25
100
AcDbSpline
210
0.0
220
0.0
230
1.0
 70
     8
 71
     3
 72
     8
 73
     4
 74
     0
 42
0.0000000001
 43
0.0000000001
 40
0.0
 40
0.0
 40
0.0
 40
0.0
 40
1.0
 40
1.0
 40
1.0
 40
1.0
 10
165.7219591060179
 20
41.66171504734324
 30
0.0
 10
165.7215125694869
 20
41.71288306562934
 30
0.0
 10
165.6825113346067
 20
41.7554587465942
 30
0.0
 10
165.6315784734295
 20
41.76037902529823
 30
0.0
  0
SPLINE
  5
E2
330
70
100
AcDbEntity
  8
0
 62
    18
420
        0
370
    25
100
AcDbSpline
210
0.0
220
0.0
230
1.0
 70
     8
 71
     3
 72
     8
 73
     4
 74
     0
 42
0.0000000001
 43
0.0000000001
 40
0.0
 40
0.0
 40
0.0
 40
0.0
 40
1.0
 40
1.0
 40
1.0
 40
1.0
 10
165.6315784734494
 20
41.7603790252379
 30
0.0
 10
162.4338350576433
 20
42.06929135544497
 30
0.0
 10
159.2137621707788
 20
42.06929135544497
 30
0.0
 10
156.0160187549726
 20
41.7603790252379
 30
0.0
  0
LINE
  5
E3
330
70
100
AcDbEntity
  8
0
 62
    18
420
        0
370
    25
100
AcDbLine
 10
145.5939655318114
 20
-10.47231687550652
 30
0.0
 11
145.5939655318114
 21
-50.53968785640697
 31
0.0
  0
LINE
  5
E4
330
70
100
AcDbEntity
  8
0
 62
    18
420
        0
370
    25
100
AcDbLine
 10
145.5939655318114
 20
15.96031279919329
 30
0.0
 11
145.5939655318114
 21
1.641814947693133
 31
0.0
  0
LINE
  5
E5
330
70
100
AcDbEntity
  8
0
 62
    18
420
        0
370
    25
100
AcDbLine
 10
176.5939650251115
 20
-50.53968785640697
 30
0.0
 11
176.5939650251115
 21
15.96031279919329
 31
0.0
  0
LINE
  5
E6
330
70
100
AcDbEntity
  8
0
 62
    18
420
        0
370
    25
100
AcDbLine
 10
135.7339658900111
 20
-17.16468541260673
 30
0.0
 11
136.1589656337115
 21
-17.16468541260673
 31
0.0
  0
LINE
  5
E7
330
70
100
AcDbEntity
  8
0
 62
    18
420
        0
370
    25
100
AcDbLine
 10
136.1589656337115
 20
8.335312713493397
 30
0.0
 11
135.7339658900111
 21
8.335312713493397
 31
0.0
  0
LINE
  5
E8
330
70
100
AcDbEntity
  8
0
 62
    18
420
        0
370
    25
100
AcDbLine
 10
165.7627104907114
 20
36.99206316529342
 30
0.0
 11
185.0487982048112
 21
36.99206316529342
 31
0.0
  0
LINE
  5
E9
330
70
100
AcDbEntity
  8
0
 62
    18
420
        0
370
    25
100
AcDbLine
 10
185.0487982048112
 20
39.9920636570936
 30
0.0
 11
165.7365300818112
 21
39.9920636570936
 31
0.0
  0
LINE
  5
EA
330
70
100
AcDbEntity
  8
0
 62
    18
420
        0
370
    25
100
AcDbLine
 10
176.4439652799111
 20
-51.03968886970656
 30
0.0
 11
145.743965276911
 21
-51.03968886970656
 31
0.0
  0
LINE
  5
EB
330
70
100
AcDbEntity
  8
0
 62
    18
420
        0
370
    25
100
AcDbLine
 10
176.5939650251115
 20
15.96031279919329
 30
0.0
 11
145.5939655318114
 21
15.96031279919329
 31
0.0
  0
LINE
  5
EC
330
70
100
AcDbEntity
  8
0
 62
   144
420
    29337
370
    18
100
AcDbLine
 10
166.0939651667113
 20
16.78430428879298
 30
0.0
 11
156.0939653902109
 21
16.78430428879298
 31
0.0
  0
LINE
  5
ED
330
70
100
AcDbEntity
  8
0
 62
   144
420
    29337
370
    18
100
AcDbLine
 10
168.5724897435109
 20
16.98430429829334
 30
0.0
 11
153.0751074790113
 21
16.98430429829334
 31
0.0
  0
LINE
  5
EE
330
70
100
AcDbEntity
  8
0
 62
    18
420
        0
370
    25
100
AcDbLine
 10
136.1589656337115
 20
9.335312877493739
 30
0.0
 11
136.1589656337115
 21
-18.16468743920656
 31
0.0
  0
SPLINE
  5
EF
330
70
100
AcDbEntity
  8
0
 62
    18
420
        0
370
    25
100
AcDbSpline
210
0.0
220
0.0
230
1.0
 70
     8
 71
     3
 72
    23
 73
    19
 74
     0
 42
0.0000000001
 43
0.0000000001
 40
0.0
 40
0.0
 40
0.0
 40
0.0
 40
1.0
 40
1.0
 40
1.0
 40
2.0
 40
2.0
 40
2.0
 40
3.0
 40
3.0
 40
3.0
 40
4.0
 40
4.0
 40
4.0
 40
5.0
 40
5.0
 40
5.0
 40
6.0
 40
6.0
 40
6.0
 40
6.0
 10
139.0190481441071
 20
4.461217249213919
 30
0.0
 10
139.0205756160989
 20
4.41822383953363
 30
0.0
 10
139.0220261700724
 20
4.375861841551083
 30
0.0
 10
139.0233902882306
 20
4.334226086198442
 30
0.0
 10
139.0247544063889
 20
4.292590330846442
 30
0.0
 10
139.0260422609918
 20
4.251289533198115
 30
0.0
 10
139.0271693017176
 20
4.212909405823562
 30
0.0
 10
139.0294233831698
 20
4.136149151074457
 30
0.0
 10
139.0311100589216
 20
4.068385383144036
 30
0.0
 10
139.0321167264105
 20
4.015600864990322
 30
0.0
 10
139.0326200601546
 20
3.989208605914427
 30
0.0
 10
139.0329648289932
 20
3.966108204191463
 30
0.0
 10
139.0331574044298
 20
3.946802358309186
 30
0.0
 10
139.033349979867
 20
3.927496512425625
 30
0.0
 10
139.0333968055501
 20
3.91167766633114
 30
0.0
 10
139.033311430403
 20
3.898991988633333
 30
0.0
 10
139.0331406801101
 20
3.873620633239644
 30
0.0
 10
139.032448037071
 20
3.861220354213949
 30
0.0
 10
139.0312916999804
 20
3.861220354213949
 30
0.0
  0
SPLINE
  5
F0
330
70
100
AcDbEntity
  8
0
 62
    18
420
        0
370
    25
100
AcDbSpline
210
0.0
220
0.0
230
1.0
 70
     8
 71
     3
 72
     8
 73
     4
 74
     0
 42
0.0000000001
 43
0.0000000001
 40
0.0
 40
0.0
 40
0.0
 40
0.0
 40
1.0
 40
1.0
 40
1.0
 40
1.0
 10
139.053262875873
 20
3.861219973047928
 30
0.0
 10
139.0309022778558
 20
4.519360846905268
 30
0.0
 10
139.0055967483892
 20
5.177398367106579
 30
0.0
 10
138.9773470475341
 20
5.835312769279093
 30
0.0
  0
LINE
  5
F1
330
70
100
AcDbEntity
  8
0
 62
    18
420
        0
370
    25
100
AcDbLine
 10
139.0458234711113
 20
3.861219972993383
 30
0.0
 11
139.0401479913115
 21
3.861219972993383
 31
0.0
  0
SPLINE
  5
F2
330
70
100
AcDbEntity
  8
0
 62
    18
420
        0
370
    25
100
AcDbSpline
210
0.0
220
0.0
230
1.0
 70
     8
 71
     3
 72
     8
 73
     4
 74
     0
 42
0.0000000001
 43
0.0000000001
 40
0.0
 40
0.0
 40
0.0
 40
0.0
 40
1.0
 40
1.0
 40
1.0
 40
1.0
 10
139.0458234710824
 20
3.861219972795098
 30
0.0
 10
139.0429468458403
 20
3.955235673244132
 30
0.0
 10
139.0400125582933
 20
4.049249600528563
 30
0.0
 10
139.0370206100975
 20
4.143261701609397
 30
0.0
  0
LINE
  5
F3
330
70
100
AcDbEntity
  8
0
 62
    18
420
        0
370
    25
100
AcDbLine
 10
139.053948329311
 20
3.861219972993383
 30
0.0
 11
139.0538868620111
 21
3.861219972993383
 31
0.0
  0
SPLINE
  5
F4
330
70
100
AcDbEntity
  8
0
 62
   144
420
    29337
370
    18
100
AcDbSpline
210
0.0
220
0.0
230
1.0
 70
     8
 71
     3
 72
     8
 73
     4
 74
     0
 42
0.0000000001
 43
0.0000000001
 40
0.0
 40
0.0
 40
0.0
 40
0.0
 40
1.0
 40
1.0
 40
1.0
 40
1.0
 10
139.0538862407014
 20
3.861220354194698
 30
0.0
 10
139.0376750405299
 20
4.35066248087863
 30
0.0
 10
139.0200257652244
 20
4.840055918398965
 30
0.0
 10
139.0009386433446
 20
5.329394329074179
 30
0.0
  0
LINE
  5
F5
330
70
100
AcDbEntity
  8
0
 62
   144
420
    29337
370
    18
100
AcDbLine
 10
139.0009393110112
 20
5.329394132493528
 30
0.0
 11
138.9999372079109
 21
5.329394132493528
 31
0.0
  0
SPLINE
  5
F6
330
70
100
AcDbEntity
  8
0
 62
   144
420
    29337
370
    18
100
AcDbSpline
210
0.0
220
0.0
230
1.0
 70
     8
 71
     3
 72
     8
 73
     4
 74
     0
 42
0.0000000001
 43
0.0000000001
 40
0.0
 40
0.0
 40
0.0
 40
0.0
 40
1.0
 40
1.0
 40
1.0
 40
1.0
 10
138.9999363045418
 20
5.329394329300057
 30
0.0
 10
138.9933580654994
 20
5.498040610414347
 30
0.0
 10
138.9866090482386
 20
5.666680186803604
 30
0.0
 10
138.9796892631383
 20
5.835312799119383
 30
0.0
  0
LINE
  5
F7
330
70
100
AcDbEntity
  8
0
 62
   144
420
    29337
370
    18
100
AcDbLine
 10
139.0532628758115
 20
3.861219972993383
 30
0.0
 11
139.0509904488113
 21
3.861219972993383
 31
0.0
  0
SPLINE
  5
F8
330
70
100
AcDbEntity
  8
0
 62
   144
420
    29337
370
    18
100
AcDbSpline
210
0.0
220
0.0
230
1.0
 70
     8
 71
     3
 72
     8
 73
     4
 74
     0
 42
0.0000000001
 43
0.0000000001
 40
0.0
 40
0.0
 40
0.0
 40
0.0
 40
1.0
 40
1.0
 40
1.0
 40
1.0
 10
139.0509904487625
 20
3.861219973101189
 30
0.0
 10
139.0477412093129
 20
3.955235876879622
 30
0.0
 10
139.0444350135697
 20
4.049249803540963
 30
0.0
 10
139.0410718633495
 20
4.143261701410471
 30
0.0
  0
SPLINE
  5
F9
330
70
100
AcDbEntity
  8
0
 62
   144
420
    29337
370
    18
100
AcDbSpline
210
0.0
220
0.0
230
1.0
 70
     8
 71
     3
 72
     8
 73
     4
 74
     0
 42
0.0000000001
 43
0.0000000001
 40
0.0
 40
0.0
 40
0.0
 40
0.0
 40
1.0
 40
1.0
 40
1.0
 40
1.0
 10
139.0401479913012
 20
3.861219973153167
 30
0.0
 10
139.0208961157354
 20
4.519347203439751
 30
0.0
 10
138.9986919203695
 20
5.177384756907381
 30
0.0
 10
138.9735360754862
 20
5.835312769250859
 30
0.0
  0
LINE
  5
FA
330
70
100
AcDbEntity
  8
0
 62
   144
420
    29337
370
    18
100
AcDbLine
 10
138.9735360755112
 20
5.835312769393316
 30
0.0
 11
138.977347047511
 21
5.835312769393316
 31
0.0
  0
SPLINE
  5
FB
330
70
100
AcDbEntity
  8
0
 62
   144
420
    29337
370
    18
100
AcDbSpline
210
0.0
220
0.0
230
1.0
 70
     8
 71
     3
 72
    17
 73
    13
 74
     0
 42
0.0000000001
 43
0.0000000001
 40
0.0
 40
0.0
 40
0.0
 40
0.0
 40
1.0
 40
1.0
 40
1.0
 40
2.0
 40
2.0
 40
2.0
 40
3.0
 40
3.0
 40
3.0
 40
4.0
 40
4.0
 40
4.0
 40
4.0
 10
138.9851768749217
 20
5.340437614214653
 30
0.0
 10
138.9867594831844
 20
5.299912619651083
 30
0.0
 10
138.9882657979867
 20
5.259971302138714
 30
0.0
 10
138.9896635725364
 20
5.220898897139282
 30
0.0
 10
138.9910613470854
 20
5.181826492139849
 30
0.0
 10
138.9923285741213
 20
5.144108429312163
 30
0.0
 10
138.9933683399654
 20
5.110320381373202
 30
0.0
 10
138.9944081058101
 20
5.0765323334336
 30
0.0
 10
138.9952273928018
 20
5.046471235388422
 30
0.0
 10
138.9958395522552
 20
5.020669722474996
 30
0.0
 10
138.9964517117093
 20
4.994868209561571
 30
0.0
 10
138.9968729892746
 20
4.972830412567753
 30
0.0
 10
138.9971738040179
 20
4.953339709214159
 30
0.0
  0
SPLINE
  5
FC
330
70
100
AcDbEntity
  8
0
 62
   144
420
    29337
370
    18
100
AcDbSpline
210
0.0
220
0.0
230
1.0
 70
     8
 71
     3
 72
    17
 73
    13
 74
     0
 42
0.0000000001
 43
0.0000000001
 40
0.0
 40
0.0
 40
0.0
 40
0.0
 40
1.0
 40
1.0
 40
1.0
 40
2.0
 40
2.0
 40
2.0
 40
3.0
 40
3.0
 40
3.0
 40
4.0
 40
4.0
 40
4.0
 40
4.0
 10
138.9971738040179
 20
4.953339709214159
 30
0.0
 10
138.9984297624002
 20
4.936452848005825
 30
0.0
 10
138.9998664644574
 20
4.913241595272578
 30
0.0
 10
139.0015350220133
 20
4.882080809571927
 30
0.0
 10
139.0032035795692
 20
4.850920023871919
 30
0.0
 10
139.0050413753761
 20
4.812865562273175
 30
0.0
 10
139.0070086488632
 20
4.768493049044265
 30
0.0
 10
139.0089759223503
 20
4.724120535815356
 30
0.0
 10
139.0110419110996
 20
4.674061224724829
 30
0.0
 10
139.0130814918646
 20
4.621789075718147
 30
0.0
 10
139.0151210726289
 20
4.569516926710181
 30
0.0
 10
139.0171208678969
 20
4.515463858050314
 30
0.0
 10
139.0190481441071
 20
4.461217249213919
 30
0.0
  0
LINE
  5
FD
330
70
100
AcDbEntity
  8
0
 62
   144
420
    29337
370
    18
100
AcDbLine
 10
139.0312911137114
 20
3.861219972993383
 30
0.0
 11
139.0137002929114
 21
3.861219972993383
 31
0.0
  0
SPLINE
  5
FE
330
70
100
AcDbEntity
  8
0
 62
   144
420
    29337
370
    18
100
AcDbSpline
210
0.0
220
0.0
230
1.0
 70
     8
 71
     3
 72
     8
 73
     4
 74
     0
 42
0.0000000001
 43
0.0000000001
 40
0.0
 40
0.0
 40
0.0
 40
0.0
 40
1.0
 40
1.0
 40
1.0
 40
1.0
 10
139.0136997331465
 20
3.861220354351273
 30
0.0
 10
138.991897958361
 20
4.519345026702921
 30
0.0
 10
138.9674956561601
 20
5.177380979127597
 30
0.0
 10
138.9404933980929
 20
5.835312799151467
 30
0.0
  0
LINE
  5
FF
330
70
100
AcDbEntity
  8
0
 62
   144
420
    29337
370
    18
100
AcDbLine
 10
138.9404927506115
 20
5.835312769393316
 30
0.0
 11
138.9575657560113
 21
5.835312769393316
 31
0.0
  0
SPLINE
  5
100
330
70
100
AcDbEntity
  8
0
 62
   144
420
    29337
370
    18
100
AcDbSpline
210
0.0
220
0.0
230
1.0
 70
     8
 71
     3
 72
    20
 73
    16
 74
     0
 42
0.0000000001
 43
0.0000000001
 40
0.0
 40
0.0
 40
0.0
 40
0.0
 40
1.0
 40
1.0
 40
1.0
 40
2.0
 40
2.0
 40
2.0
 40
3.0
 40
3.0
 40
3.0
 40
4.0
 40
4.0
 40
4.0
 40
5.0
 40
5.0
 40
5.0
 40
5.0
 10
138.9575648455385
 20
5.835312799214354
 30
0.0
 10
138.9585969943245
 20
5.835312799214354
 30
0.0
 10
138.9598277379876
 20
5.829371487985868
 30
0.0
 10
138.961421040091
 20
5.813326367684305
 30
0.0
 10
138.9630143421944
 20
5.797281247382741
 30
0.0
 10
138.9649836265404
 20
5.770787603109464
 30
0.0
 10
138.967456464655
 20
5.728425947383517
 30
0.0
 10
138.9686928837124
 20
5.707245119521186
 30
0.0
 10
138.9700273754338
 20
5.682555938315223
 30
0.0
 10
138.9714460886295
 20
5.654495402890081
 30
0.0
 10
138.9728648018252
 20
5.626434867464938
 30
0.0
 10
138.9743986841723
 20
5.594329204428164
 30
0.0
 10
138.9759389487579
 20
5.560476081031127
 30
0.0
 10
138.9790194779304
 20
5.49276983423577
 30
0.0
 10
138.9821977796143
 20
5.416721697872806
 30
0.0
 10
138.9851768749217
 20
5.340437614214653
 30
0.0
  0
LINE
  5
101
330
70
100
AcDbEntity
  8
0
 62
   144
420
    29337
370
    18
100
AcDbLine
 10
139.1589661254109
 20
-0.4146868581065475
 30
0.0
 11
139.1589661254109
 21
-8.414686306706395
 31
0.0
  0
LINE
  5
102
330
70
100
AcDbEntity
  8
0
 62
   144
420
    29337
370
    18
100
AcDbLine
 10
138.993101300211
 20
4.461217091092859
 30
0.0
 11
139.0032806559114
 21
4.461217091092859
 31
0.0
  0
LINE
  5
103
330
70
100
AcDbEntity
  8
0
 62
    18
420
        0
370
    25
100
AcDbLine
 10
139.0317176594114
 20
4.14326170149325
 30
0.0
 11
139.0370206101109
 21
4.14326170149325
 31
0.0
  0
LINE
  5
104
330
70
100
AcDbEntity
  8
0
 62
    18
420
        0
370
    25
100
AcDbLine
 10
139.0231606676112
 20
4.56627400279321
 30
0.0
 11
139.0255616172111
 21
4.56627400279321
 31
0.0
  0
LINE
  5
105
330
70
100
AcDbEntity
  8
0
 62
   144
420
    29337
370
    18
100
AcDbLine
 10
138.9893480702113
 20
4.56627400279321
 30
0.0
 11
138.9995255633109
 21
4.56627400279321
 31
0.0
  0
LINE
  5
106
330
70
100
AcDbEntity
  8
0
 62
   144
420
    29337
370
    18
100
AcDbLine
 10
139.0183941586114
 20
4.56627400279321
 30
0.0
 11
139.0231606676112
 21
4.56627400279321
 31
0.0
  0
SPLINE
  5
107
330
70
100
AcDbEntity
  8
0
 62
   144
420
    29337
370
    18
100
AcDbSpline
210
0.0
220
0.0
230
1.0
 70
     8
 71
     3
 72
     8
 73
     4
 74
     0
 42
0.0000000001
 43
0.0000000001
 40
0.0
 40
0.0
 40
0.0
 40
0.0
 40
1.0
 40
1.0
 40
1.0
 40
1.0
 10
139.0255616172014
 20
4.566274002696955
 30
0.0
 10
139.0179362770892
 20
4.769046878941839
 30
0.0
 10
139.0100442427646
 20
4.971809638251431
 30
0.0
 10
139.0018855347051
 20
5.174561754480004
 30
0.0
  0
LINE
  5
108
330
70
100
AcDbEntity
  8
0
 62
   144
420
    29337
370
    18
100
AcDbLine
 10
139.0018855347109
 20
5.174561754493479
 30
0.0
 11
139.0018501444114
 21
5.174561754493479
 31
0.0
  0
SPLINE
  5
109
330
70
100
AcDbEntity
  8
0
 62
   144
420
    29337
370
    18
100
AcDbSpline
210
0.0
220
0.0
230
1.0
 70
     8
 71
     3
 72
     8
 73
     4
 74
     0
 42
0.0000000001
 43
0.0000000001
 40
0.0
 40
0.0
 40
0.0
 40
0.0
 40
1.0
 40
1.0
 40
1.0
 40
1.0
 10
139.0231606676195
 20
4.566274002609042
 30
0.0
 10
139.0163268636414
 20
4.769045945458397
 30
0.0
 10
139.0092233496387
 20
4.971808708758073
 30
0.0
 10
139.0018501444628
 20
5.174561754430593
 30
0.0
  0
SPLINE
  5
10A
330
70
100
AcDbEntity
  8
0
 62
   144
420
    29337
370
    18
100
AcDbSpline
210
0.0
220
0.0
230
1.0
 70
     8
 71
     3
 72
    17
 73
    13
 74
     0
 42
0.0000000001
 43
0.0000000001
 40
0.0
 40
0.0
 40
0.0
 40
0.0
 40
1.0
 40
1.0
 40
1.0
 40
2.0
 40
2.0
 40
2.0
 40
3.0
 40
3.0
 40
3.0
 40
4.0
 40
4.0
 40
4.0
 40
4.0
 10
138.9858057490751
 20
5.066654824214386
 30
0.0
 10
138.9861688721259
 20
5.066654824214386
 30
0.0
 10
138.986483657358
 20
5.067796003742162
 30
0.0
 10
138.9866798645018
 20
5.071881835880627
 30
0.0
 10
138.9868760716451
 20
5.075967668019091
 30
0.0
 10
138.9869519097211
 20
5.083025779102243
 30
0.0
 10
138.9867296801643
 20
5.096579205804823
 30
0.0
 10
138.9865074506068
 20
5.110132632507403
 30
0.0
 10
138.9859358489486
 20
5.13104099895153
 30
0.0
 10
138.9851480589515
 20
5.154825201617412
 30
0.0
 10
138.9843602689543
 20
5.17860940428201
 30
0.0
 10
138.9834100260395
 20
5.204292918882214
 30
0.0
 10
138.9824222815199
 20
5.229875224214529
 30
0.0
  0
LINE
  5
10B
330
70
100
AcDbEntity
  8
0
 62
   144
420
    29337
370
    18
100
AcDbLine
 10
138.9810350849111
 20
5.066654995693695
 30
0.0
 11
138.9858053191111
 21
5.066654995693695
 31
0.0
  0
SPLINE
  5
10C
330
70
100
AcDbEntity
  8
0
 62
   144
420
    29337
370
    18
100
AcDbSpline
210
0.0
220
0.0
230
1.0
 70
     8
 71
     3
 72
     8
 73
     4
 74
     0
 42
0.0000000001
 43
0.0000000001
 40
0.0
 40
0.0
 40
0.0
 40
0.0
 40
1.0
 40
1.0
 40
1.0
 40
1.0
 10
138.9810342298581
 20
5.06665482436326
 30
0.0
 10
138.9772562626357
 20
5.166187009027692
 30
0.0
 10
138.9734188058581
 20
5.265716926772194
 30
0.0
 10
138.9695218615859
 20
5.365244524179172
 30
0.0
  0
LINE
  5
10D
330
70
100
AcDbEntity
  8
0
 62
   144
420
    29337
370
    18
100
AcDbLine
 10
138.9742941721109
 20
5.365244463693263
 30
0.0
 11
138.9695220752113
 21
5.365244463693263
 31
0.0
  0
SPLINE
  5
10E
330
70
100
AcDbEntity
  8
0
 62
   144
420
    29337
370
    18
100
AcDbSpline
210
0.0
220
0.0
230
1.0
 70
     8
 71
     3
 72
    17
 73
    13
 74
     0
 42
0.0000000001
 43
0.0000000001
 40
0.0
 40
0.0
 40
0.0
 40
0.0
 40
1.0
 40
1.0
 40
1.0
 40
2.0
 40
2.0
 40
2.0
 40
3.0
 40
3.0
 40
3.0
 40
4.0
 40
4.0
 40
4.0
 40
4.0
 10
138.9824222815199
 20
5.229875224214529
 30
0.0
 10
138.9815114600893
 20
5.253465243150332
 30
0.0
 10
138.9805237331644
 20
5.277224015129914
 30
0.0
 10
138.9795901849966
 20
5.296990023580097
 30
0.0
 10
138.9786566368294
 20
5.316756032029638
 30
0.0
 10
138.9777984401758
 20
5.331955167475323
 30
0.0
 10
138.9771237677328
 20
5.341818440978665
 30
0.0
 10
138.9764490952899
 20
5.351681714481368
 30
0.0
 10
138.9759108283375
 20
5.357272413638114
 30
0.0
 10
138.9754566497748
 20
5.360656839141596
 30
0.0
 10
138.9750024712116
 20
5.364041264645078
 30
0.0
 10
138.9746270636425
 20
5.365244524214466
 30
0.0
 10
138.9742936007132
 20
5.365244524214466
 30
0.0
  0
SPLINE
  5
10F
330
70
100
AcDbEntity
  8
0
 62
   144
420
    29337
370
    18
100
AcDbSpline
210
0.0
220
0.0
230
1.0
 70
     8
 71
     3
 72
    17
 73
    13
 74
     0
 42
0.0000000001
 43
0.0000000001
 40
0.0
 40
0.0
 40
0.0
 40
0.0
 40
1.0
 40
1.0
 40
1.0
 40
2.0
 40
2.0
 40
2.0
 40
3.0
 40
3.0
 40
3.0
 40
4.0
 40
4.0
 40
4.0
 40
4.0
 10
139.0097305995072
 20
4.519218784213909
 30
0.0
 10
139.0087763595626
 20
4.545902190476453
 30
0.0
 10
139.0077792135212
 20
4.572384839619783
 30
0.0
 10
139.0067551250925
 20
4.597179481023788
 30
0.0
 10
139.0057310366637
 20
4.621974122427793
 30
0.0
 10
139.0047179263021
 20
4.643875290427241
 30
0.0
 10
139.0038580885719
 20
4.659662308712678
 30
0.0
 10
139.0029982508416
 20
4.675449326998114
 30
0.0
 10
139.0022998118247
 20
4.685242864424968
 30
0.0
 10
139.0017308057025
 20
4.69109520578599
 30
0.0
 10
139.0011617995803
 20
4.696947547147011
 30
0.0
 10
139.000721800137
 20
4.698987919214199
 30
0.0
 10
139.0003488721642
 20
4.698987919214199
 30
0.0
  0
LINE
  5
110
330
70
100
AcDbEntity
  8
0
 62
   144
420
    29337
370
    18
100
AcDbLine
 10
139.0003488524114
 20
4.698987469693754
 30
0.0
 11
138.9947180762113
 21
4.698987469693754
 31
0.0
  0
SPLINE
  5
111
330
70
100
AcDbEntity
  8
0
 62
   144
420
    29337
370
    18
100
AcDbSpline
210
0.0
220
0.0
230
1.0
 70
     8
 71
     3
 72
     8
 73
     4
 74
     0
 42
0.0000000001
 43
0.0000000001
 40
0.0
 40
0.0
 40
0.0
 40
0.0
 40
1.0
 40
1.0
 40
1.0
 40
1.0
 10
139.0078628259173
 20
4.331288629000151
 30
0.0
 10
139.0035717186671
 20
4.453858267005211
 30
0.0
 10
138.9991904060337
 20
4.576424730309511
 30
0.0
 10
138.9947188915747
 20
4.698987919402217
 30
0.0
  0
LINE
  5
112
330
70
100
AcDbEntity
  8
0
 62
   144
420
    29337
370
    18
100
AcDbLine
 10
139.0078627630108
 20
4.331288278693437
 30
0.0
 11
139.0131433620109
 21
4.331288278693437
 31
0.0
  0
SPLINE
  5
113
330
70
100
AcDbEntity
  8
0
 62
   144
420
    29337
370
    18
100
AcDbSpline
210
0.0
220
0.0
230
1.0
 70
     8
 71
     3
 72
    17
 73
    13
 74
     0
 42
0.0000000001
 43
0.0000000001
 40
0.0
 40
0.0
 40
0.0
 40
0.0
 40
1.0
 40
1.0
 40
1.0
 40
2.0
 40
2.0
 40
2.0
 40
3.0
 40
3.0
 40
3.0
 40
4.0
 40
4.0
 40
4.0
 40
4.0
 10
139.0131437923195
 20
4.331288629214478
 30
0.0
 10
139.0135519532786
 20
4.331288629214478
 30
0.0
 10
139.013888092911
 20
4.333117717585102
 30
0.0
 10
139.0140862401722
 20
4.338579263426424
 30
0.0
 10
139.0142843874334
 20
4.344040809266463
 30
0.0
 10
139.0143422668836
 20
4.353262691226145
 30
0.0
 10
139.0141108856383
 20
4.369153484199184
 30
0.0
 10
139.0138795043937
 20
4.385044277172865
 30
0.0
 10
139.0133330416144
 20
4.407843308167142
 30
0.0
 10
139.0125429468274
 20
4.434436670536422
 30
0.0
 10
139.0117528520412
 20
4.461030032905703
 30
0.0
 10
139.0107703051124
 20
4.490145502182614
 30
0.0
 10
139.0097305995072
 20
4.519218784213909
 30
0.0
  0
LINE
  5
114
330
70
100
AcDbEntity
  8
0
 62
    18
420
        0
370
    25
100
AcDbLine
 10
145.3631446822112
 20
-3.164686843206232
 30
0.0
 11
145.3631446822112
 21
-5.66468632160671
 31
0.0
  0
SPLINE
  5
115
330
70
100
AcDbEntity
  8
0
 62
    18
420
        0
370
    25
100
AcDbSpline
210
0.0
220
0.0
230
1.0
 70
     8
 71
     3
 72
    35
 73
    31
 74
     0
 42
0.0000000001
 43
0.0000000001
 40
0.0
 40
0.0
 40
0.0
 40
0.0
 40
1.0
 40
1.0
 40
1.0
 40
2.0
 40
2.0
 40
2.0
 40
3.0
 40
3.0
 40
3.0
 40
4.0
 40
4.0
 40
4.0
 40
5.0
 40
5.0
 40
5.0
 40
6.0
 40
6.0
 40
6.0
 40
7.0
 40
7.0
 40
7.0
 40
8.0
 40
8.0
 40
8.0
 40
9.0
 40
9.0
 40
9.0
 40
10.0
 40
10.0
 40
10.0
 40
10.0
 10
145.363144682224
 20
-5.664686321616978
 30
0.0
 10
145.360163660126
 20
-5.937915121067108
 30
0.0
 10
145.3571826380281
 20
-6.211143920516597
 30
0.0
 10
145.3479790254191
 20
-6.480545386076864
 30
0.0
 10
145.3385042742436
 20
-6.757883422881358
 30
0.0
 10
145.3224348967968
 20
-7.031165297452833
 30
0.0
 10
145.302543522294
 20
-7.296402587891066
 30
0.0
 10
145.2832238813718
 20
-7.554016218849908
 30
0.0
 10
145.2602987955694
 20
-7.804041067226583
 30
0.0
 10
145.2345718755081
 20
-8.043261825443012
 30
0.0
 10
145.2081204600798
 20
-8.289219275446752
 30
0.0
 10
145.1787071836073
 20
-8.52375555959631
 30
0.0
 10
145.1481116129711
 20
-8.74376727581124
 30
0.0
 10
145.1178898490027
 20
-8.961090960888824
 30
0.0
 10
145.0865145041535
 20
-9.16424282276076
 30
0.0
 10
145.0556629462793
 20
-9.350497856140984
 30
0.0
 10
145.0239366401009
 20
-9.542033863507766
 30
0.0
 10
144.9927642443217
 20
-9.715701291726006
 30
0.0
 10
144.9637972875193
 20
-9.869536965490649
 30
0.0
 10
144.9353451094862
 20
-10.02063878842519
 30
0.0
 10
144.9090206801696
 20
-10.1526074634758
 30
0.0
 10
144.8866800530509
 20
-10.2616181814681
 30
0.0
 10
144.8636712773796
 20
-10.37388911919617
 30
0.0
 10
144.8448881570014
 20
-10.46180834266861
 30
0.0
 10
144.8298097713544
 20
-10.53135341346397
 30
0.0
 10
144.8154084846538
 20
-10.59777554422706
 30
0.0
 10
144.8043866790077
 20
-10.64743666364086
 30
0.0
 10
144.8029820932701
 20
-10.65375341415499
 30
0.0
 10
144.8024201017391
 20
-10.65628082148642
 30
0.0
 10
144.8033977267906
 20
-10.65186924751862
 30
0.0
 10
144.8043753518415
 20
-10.64745767355018
 30
0.0
  0
SPLINE
  5
116
330
70
100
AcDbEntity
  8
0
 62
    18
420
        0
370
    25
100
AcDbSpline
210
0.0
220
0.0
230
1.0
 70
     8
 71
     3
 72
    35
 73
    31
 74
     0
 42
0.0000000001
 43
0.0000000001
 40
0.0
 40
0.0
 40
0.0
 40
0.0
 40
1.0
 40
1.0
 40
1.0
 40
2.0
 40
2.0
 40
2.0
 40
3.0
 40
3.0
 40
3.0
 40
4.0
 40
4.0
 40
4.0
 40
5.0
 40
5.0
 40
5.0
 40
6.0
 40
6.0
 40
6.0
 40
7.0
 40
7.0
 40
7.0
 40
8.0
 40
8.0
 40
8.0
 40
9.0
 40
9.0
 40
9.0
 40
10.0
 40
10.0
 40
10.0
 40
10.0
 10
144.8043753518415
 20
1.818084508775734
 30
0.0
 10
144.8040344570524
 20
1.819642827450882
 30
0.0
 10
144.8036935622632
 20
1.821201146126029
 30
0.0
 10
144.8065714104726
 20
1.808172442613649
 30
0.0
 10
144.811062661259
 20
1.787839481793259
 30
0.0
 10
144.8233933539685
 20
1.731978952194474
 30
0.0
 10
144.8391788764548
 20
1.658531256615076
 30
0.0
 10
144.8554161432319
 20
1.582981661834023
 30
0.0
 10
144.8753088072854
 20
1.488823891603497
 30
0.0
 10
144.898811460908
 20
1.372724190949395
 30
0.0
 10
144.921843063668
 20
1.258951413244361
 30
0.0
 10
144.9483414000267
 20
1.124107431320435
 30
0.0
 10
144.976662577565
 20
0.9712729385487179
 30
0.0
 10
145.00577156394
 20
0.8141870560230353
 30
0.0
 10
145.0368062137494
 20
0.6380958595475036
 30
0.0
 10
145.0681389434886
 20
0.4450719586006306
 30
0.0
 10
145.0992660354754
 20
0.253314879970066
 30
0.0
 10
145.1306873076136
 20
0.0448466273292074
 30
0.0
 10
145.1607068194702
 20
-0.1775665426261809
 30
0.0
 10
145.1915901901043
 20
-0.4063800021685849
 30
0.0
 10
145.2209899639474
 20
-0.6499525006499205
 30
0.0
 10
145.2470571859432
 20
-0.90487545669127
 30
0.0
 10
145.272455125397
 20
-1.153253201118404
 30
0.0
 10
145.2946894443522
 20
-1.412406033780163
 30
0.0
 10
145.3128849281625
 20
-1.678864120841794
 30
0.0
 10
145.3316301101949
 20
-1.953372092053627
 30
0.0
 10
145.346088738856
 20
-2.235633378703133
 30
0.0
 10
145.3537066592532
 20
-2.52111314177597
 30
0.0
 10
145.3593991956599
 20
-2.734439595721755
 30
0.0
 10
145.3612719389419
 20
-2.949563219439609
 30
0.0
 10
145.363144682224
 20
-3.164686843157463
 30
0.0
  0
SPLINE
  5
117
330
70
100
AcDbEntity
  8
0
 62
    18
420
        0
370
    25
100
AcDbSpline
210
0.0
220
0.0
230
1.0
 70
     8
 71
     3
 72
    35
 73
    31
 74
     0
 42
0.0000000001
 43
0.0000000001
 40
0.0
 40
0.0
 40
0.0
 40
0.0
 40
1.0
 40
1.0
 40
1.0
 40
2.0
 40
2.0
 40
2.0
 40
3.0
 40
3.0
 40
3.0
 40
4.0
 40
4.0
 40
4.0
 40
5.0
 40
5.0
 40
5.0
 40
6.0
 40
6.0
 40
6.0
 40
7.0
 40
7.0
 40
7.0
 40
8.0
 40
8.0
 40
8.0
 40
9.0
 40
9.0
 40
9.0
 40
10.0
 40
10.0
 40
10.0
 40
10.0
 10
145.1589652462558
 20
-4.414687513710062
 30
0.0
 10
145.1570557699518
 20
-4.634392037626899
 30
0.0
 10
145.1551462936484
 20
-4.854096561543737
 30
0.0
 10
145.1492478265119
 20
-5.070746525527342
 30
0.0
 10
145.1431766111307
 20
-5.29374151105293
 30
0.0
 10
145.1328793325232
 20
-5.51350039904117
 30
0.0
 10
145.1201216443134
 20
-5.726803674698937
 30
0.0
 10
145.1077279406507
 20
-5.934021279124137
 30
0.0
 10
145.0930122185659
 20
-6.135146381413814
 30
0.0
 10
145.076491044338
 20
-6.327534675002971
 30
0.0
 10
145.0594997394214
 20
-6.525397618258953
 30
0.0
 10
145.0405987675802
 20
-6.714019444458419
 30
0.0
 10
145.0209413780525
 20
-6.890811606646615
 30
0.0
 10
145.0016377608218
 20
-7.064422055962269
 30
0.0
 10
144.9816047072731
 20
-7.226624804599597
 30
0.0
 10
144.9619216038542
 20
-7.375188752413973
 30
0.0
 10
144.9416757508915
 20
-7.528000216079865
 30
0.0
 10
144.9218001446038
 20
-7.666381850390607
 30
0.0
 10
144.9033581777171
 20
-7.788764893413187
 30
0.0
 10
144.8853154486343
 20
-7.908498547806247
 30
0.0
 10
144.8686449590278
 20
-8.012918798769748
 30
0.0
 10
144.8545326604206
 20
-8.098962365985963
 30
0.0
 10
144.8400028747598
 20
-8.18755137787544
 30
0.0
 10
144.8281848779299
 20
-8.256660340881216
 30
0.0
 10
144.8186935051039
 20
-8.311361654997746
 30
0.0
 10
144.8095724593347
 20
-8.363928675474337
 30
0.0
 10
144.8026000226537
 20
-8.403190406702544
 30
0.0
 10
144.8019278361156
 20
-8.406963779927032
 30
0.0
 10
144.8016754832159
 20
-8.408380383238768
 30
0.0
 10
144.8023110931141
 20
-8.40479522614992
 30
0.0
 10
144.8029467030123
 20
-8.401210069061072
 30
0.0
  0
SPLINE
  5
118
330
70
100
AcDbEntity
  8
0
 62
    18
420
        0
370
    25
100
AcDbSpline
210
0.0
220
0.0
230
1.0
 70
     8
 71
     3
 72
    32
 73
    28
 74
     0
 42
0.0000000001
 43
0.0000000001
 40
0.0
 40
0.0
 40
0.0
 40
0.0
 40
1.0
 40
1.0
 40
1.0
 40
2.0
 40
2.0
 40
2.0
 40
3.0
 40
3.0
 40
3.0
 40
4.0
 40
4.0
 40
4.0
 40
5.0
 40
5.0
 40
5.0
 40
6.0
 40
6.0
 40
6.0
 40
7.0
 40
7.0
 40
7.0
 40
8.0
 40
8.0
 40
8.0
 40
9.0
 40
9.0
 40
9.0
 40
9.0
 10
144.8013001247003
 20
-0.418902024031233
 30
0.0
 10
144.8025593897058
 20
-0.4259291540766292
 30
0.0
 10
144.8038186547114
 20
-0.4329562841220255
 30
0.0
 10
144.8085271878791
 20
-0.4597740465412613
 30
0.0
 10
144.8138259449291
 20
-0.4899534681595776
 30
0.0
 10
144.8234929139679
 20
-0.5451960839214168
 30
0.0
 10
144.8356044604139
 20
-0.6167950326210818
 30
0.0
 10
144.8473616275951
 20
-0.6862990231838077
 30
0.0
 10
144.8614224102294
 20
-0.7712161895367331
 30
0.0
 10
144.8773947669819
 20
-0.8723499470954562
 30
0.0
 10
144.8938188772536
 20
-0.9763441172782446
 30
0.0
 10
144.9122642226774
 20
-1.097485173824147
 30
0.0
 10
144.9316014661147
 20
-1.233472138048446
 30
0.0
 10
144.9506507891136
 20
-1.367434334545482
 30
0.0
 10
144.9705656481578
 20
-1.515803635919852
 30
0.0
 10
144.9903288050252
 20
-1.676766782404405
 30
0.0
 10
145.0106559539543
 20
-1.842323422604848
 30
0.0
 10
145.0308226187445
 20
-2.021202959188277
 30
0.0
 10
145.0495590581255
 20
-2.210865377785117
 30
0.0
 10
145.0679088775551
 20
-2.396614177920139
 30
0.0
 10
145.084886887015
 20
-2.59270544921271
 30
0.0
 10
145.0999100817992
 20
-2.796456798316138
 30
0.0
 10
145.11537701472
 20
-3.006226324328776
 30
0.0
 10
145.1287719493236
 20
-3.224115120438501
 30
0.0
 10
145.137835399683
 20
-3.447145804168061
 30
0.0
 10
145.1506625967732
 20
-3.762793645105731
 30
0.0
 10
145.1548139215145
 20
-4.088740579407897
 30
0.0
 10
145.1589652462558
 20
-4.414687513710062
 30
0.0
  0
LINE
  5
119
330
70
100
AcDbEntity
  8
0
 62
    18
420
        0
370
    25
100
AcDbLine
 10
145.3631446822112
 20
-3.164686843206232
 30
0.0
 11
146.1330681233113
 21
-3.164686843206232
 31
0.0
  0
SPLINE
  5
11A
330
70
100
AcDbEntity
  8
0
 62
   144
420
    29337
370
    18
100
AcDbSpline
210
0.0
220
0.0
230
1.0
 70
     8
 71
     3
 72
    35
 73
    31
 74
     0
 42
0.0000000001
 43
0.0000000001
 40
0.0
 40
0.0
 40
0.0
 40
0.0
 40
1.0
 40
1.0
 40
1.0
 40
2.0
 40
2.0
 40
2.0
 40
3.0
 40
3.0
 40
3.0
 40
4.0
 40
4.0
 40
4.0
 40
5.0
 40
5.0
 40
5.0
 40
6.0
 40
6.0
 40
6.0
 40
7.0
 40
7.0
 40
7.0
 40
8.0
 40
8.0
 40
8.0
 40
9.0
 40
9.0
 40
9.0
 40
10.0
 40
10.0
 40
10.0
 40
10.0
 10
146.1330681233363
 20
-3.164686843157463
 30
0.0
 10
146.1297745197765
 20
-2.887762003505922
 30
0.0
 10
146.1264809162174
 20
-2.61083716385438
 30
0.0
 10
146.1167001290874
 20
-2.337845622898486
 30
0.0
 10
146.1069185720488
 20
-2.064832593030608
 30
0.0
 10
146.0906488101034
 20
-1.795753481113351
 30
0.0
 10
146.0703966333224
 20
-1.534620880485499
 30
0.0
 10
146.0501628037803
 20
-1.273724850084745
 30
0.0
 10
146.0259537717835
 20
-1.020760939384979
 30
0.0
 10
145.9988896860433
 20
-0.7787278139600965
 30
0.0
 10
145.971822714012
 20
-0.5366688765353031
 30
0.0
 10
145.9419000792406
 20
-0.3055430559712595
 30
0.0
 10
145.9107474549366
 20
-0.0887537592656101
 30
0.0
 10
145.8790724923085
 20
0.1316704593918338
 30
0.0
 10
145.8461259477065
 20
0.3372733606136807
 30
0.0
 10
145.8137315823391
 20
0.5258129692071423
 30
0.0
 10
145.7813380108336
 20
0.7143479574180042
 30
0.0
 10
145.749496591499
 20
0.8858204893018125
 30
0.0
 10
145.7199576436234
 20
1.037653886377165
 30
0.0
 10
145.6900724648455
 20
1.191266947856393
 30
0.0
 10
145.6625440491519
 20
1.324777789283874
 30
0.0
 10
145.6391235007596
 20
1.435077168642405
 30
0.0
 10
145.6157058520353
 20
1.545362891979294
 30
0.0
 10
145.5963950534967
 20
1.632442900453346
 30
0.0
 10
145.5810043154912
 20
1.701153234242465
 30
0.0
 10
145.5658798268021
 20
1.768674925912634
 30
0.0
 10
145.5545409430178
 20
1.818457011267978
 30
0.0
 10
145.5531652210909
 20
1.824400738476663
 30
0.0
 10
145.552637428907
 20
1.826681034152804
 30
0.0
 10
145.553576068204
 20
1.82250896567377
 30
0.0
 10
145.554514707501
 20
1.818336897193453
 30
0.0
  0
LINE
  5
11B
330
70
100
AcDbEntity
  8
0
 62
    18
420
        0
370
    25
100
AcDbLine
 10
145.3631446822112
 20
-5.66468632160671
 30
0.0
 11
146.1330681233113
 21
-5.66468632160671
 31
0.0
  0
SPLINE
  5
11C
330
70
100
AcDbEntity
  8
0
 62
   144
420
    29337
370
    18
100
AcDbSpline
210
0.0
220
0.0
230
1.0
 70
     8
 71
     3
 72
    35
 73
    31
 74
     0
 42
0.0000000001
 43
0.0000000001
 40
0.0
 40
0.0
 40
0.0
 40
0.0
 40
1.0
 40
1.0
 40
1.0
 40
2.0
 40
2.0
 40
2.0
 40
3.0
 40
3.0
 40
3.0
 40
4.0
 40
4.0
 40
4.0
 40
5.0
 40
5.0
 40
5.0
 40
6.0
 40
6.0
 40
6.0
 40
7.0
 40
7.0
 40
7.0
 40
8.0
 40
8.0
 40
8.0
 40
9.0
 40
9.0
 40
9.0
 40
10.0
 40
10.0
 40
10.0
 40
10.0
 10
145.554514707501
 20
-10.64771099329073
 30
0.0
 10
145.5541288940903
 20
-10.64927249022037
 30
0.0
 10
145.5537430806789
 20
-10.65083398715001
 30
0.0
 10
145.5566809638101
 20
-10.63796935916
 30
0.0
 10
145.5613577715659
 20
-10.61749019464564
 30
0.0
 10
145.5744572800663
 20
-10.56045326032045
 30
0.0
 10
145.5910579426842
 20
-10.4858024263392
 30
0.0
 10
145.6076602432787
 20
-10.41114422660654
 30
0.0
 10
145.6277643889384
 20
-10.31886865114183
 30
0.0
 10
145.6516199870663
 20
-10.20493788957688
 30
0.0
 10
145.675665191481
 20
-10.09010159679957
 30
0.0
 10
145.7035217190661
 20
-9.953264515463773
 30
0.0
 10
145.7332317842794
 20
-9.79837833285442
 30
0.0
 10
145.7629441932124
 20
-9.643479931836543
 30
0.0
 10
145.7945104322236
 20
-9.470529581775892
 30
0.0
 10
145.8264143331603
 20
-9.280793949366492
 30
0.0
 10
145.8590532209415
 20
-9.08668727800298
 30
0.0
 10
145.8920455076439
 20
-8.875013033231461
 30
0.0
 10
145.9235950498534
 20
-8.649297639132701
 30
0.0
 10
145.9551424615219
 20
-8.423597487603199
 30
0.0
 10
145.9852473235481
 20
-8.183858083081339
 30
0.0
 10
146.0119030563785
 20
-7.93277157783623
 30
0.0
 10
146.0386539434521
 20
-7.680788757099727
 30
0.0
 10
146.0619310323354
 20
-7.417377678466016
 30
0.0
 10
146.081042581673
 20
-7.146616115570822
 30
0.0
 10
146.1001517448399
 20
-6.87588835858357
 30
0.0
 10
146.1150964085727
 20
-6.597811952707026
 30
0.0
 10
146.1230368478851
 20
-6.31645193636516
 30
0.0
 10
146.1291317459516
 20
-6.100486477491631
 30
0.0
 10
146.1310999346439
 20
-5.882586399554305
 30
0.0
 10
146.1330681233363
 20
-5.664686321616978
 30
0.0
  0
LINE
  5
11D
330
70
100
AcDbEntity
  8
0
 62
   144
420
    29337
370
    18
100
AcDbLine
 10
146.1330681233113
 20
-3.164686843206232
 30
0.0
 11
146.1330681233113
 21
-5.66468632160671
 31
0.0
  0
LINE
  5
11E
330
70
100
AcDbEntity
  8
0
 62
   144
420
    29337
370
    18
100
AcDbLine
 10
139.1589661254109
 20
-4.414687513706212
 30
0.0
 11
139.1589661254109
 21
-0.4146868581065475
 31
0.0
  0
LINE
  5
11F
330
70
100
AcDbEntity
  8
0
 62
   144
420
    29337
370
    18
100
AcDbLine
 10
139.1589661254109
 20
-8.414686306706395
 30
0.0
 11
139.1589661254109
 21
-4.414687513706212
 31
0.0
  0
LINE
  5
120
330
70
100
AcDbEntity
  8
0
 62
    18
420
        0
370
    25
100
AcDbLine
 10
160.8237986113112
 20
29.99206294919332
 30
0.0
 11
165.8237987323114
 21
29.99206294919332
 31
0.0
  0
LINE
  5
121
330
70
100
AcDbEntity
  8
0
 62
    18
420
        0
370
    25
100
AcDbLine
 10
155.8237984902115
 20
29.99206294919332
 30
0.0
 11
160.8237986113112
 21
29.99206294919332
 31
0.0
  0
SPLINE
  5
122
330
70
100
AcDbEntity
  8
0
 62
   144
420
    29337
370
    18
100
AcDbSpline
210
0.0
220
0.0
230
1.0
 70
     8
 71
     3
 72
    14
 73
    10
 74
     0
 42
0.0000000001
 43
0.0000000001
 40
0.0
 40
0.0
 40
0.0
 40
0.0
 40
1.0
 40
1.0
 40
1.0
 40
2.0
 40
2.0
 40
2.0
 40
3.0
 40
3.0
 40
3.0
 40
3.0
 10
165.6308971470847
 20
37.4525220847121
 30
0.0
 10
165.6585033896844
 20
37.34091102053488
 30
0.0
 10
165.6861096322846
 20
37.22929995635829
 30
0.0
 10
165.7100129997982
 20
37.14267478942788
 30
0.0
 10
165.7339441484459
 20
37.0559489444088
 30
0.0
 10
165.7541638098444
 20
36.99426710894453
 30
0.0
 10
165.7578340856985
 20
36.98318393587968
 30
0.0
 10
165.7594045449806
 20
36.97844160241187
 30
0.0
 10
165.7579450377956
 20
36.98296319297073
 30
0.0
 10
165.7564855306105
 20
36.98748478352959
 30
0.0
  0
SPLINE
  5
123
330
70
100
AcDbEntity
  8
0
 62
   144
420
    29337
370
    18
100
AcDbSpline
210
0.0
220
0.0
230
1.0
 70
     8
 71
     3
 72
    29
 73
    25
 74
     0
 42
0.0000000001
 43
0.0000000001
 40
0.0
 40
0.0
 40
0.0
 40
0.0
 40
1.0
 40
1.0
 40
1.0
 40
2.0
 40
2.0
 40
2.0
 40
3.0
 40
3.0
 40
3.0
 40
4.0
 40
4.0
 40
4.0
 40
5.0
 40
5.0
 40
5.0
 40
6.0
 40
6.0
 40
6.0
 40
7.0
 40
7.0
 40
7.0
 40
8.0
 40
8.0
 40
8.0
 40
8.0
 10
165.7343181906892
 20
40.0103175795069
 30
0.0
 10
165.7349742277417
 20
40.01253908978987
 30
0.0
 10
165.735630264794
 20
40.01476060007346
 30
0.0
 10
165.7361244908228
 20
40.01644381940258
 30
0.0
 10
165.7416860651635
 20
40.03538525285411
 30
0.0
 10
165.7267571482631
 20
39.98616170086421
 30
0.0
 10
165.7087366222097
 20
39.92293158233051
 30
0.0
 10
165.6906723486958
 20
39.85954796344446
 30
0.0
 10
165.6695014371435
 20
39.7820896894927
 30
0.0
 10
165.6456343955054
 20
39.68123847305674
 30
0.0
 10
165.6208617568058
 20
39.57656061708008
 30
0.0
 10
165.5931845056302
 20
39.44668092349449
 30
0.0
 10
165.5697390562549
 20
39.30163697957866
 30
0.0
 10
165.5458708948373
 20
39.15397795156837
 30
0.0
 10
165.5263885062117
 20
38.99060293314513
 30
0.0
 10
165.5160846314091
 20
38.82016928553478
 30
0.0
 10
165.5061266405216
 20
38.65545681161514
 30
0.0
 10
165.5047412912668
 20
38.48415164746367
 30
0.0
 10
165.512559575464
 20
38.31543715357721
 30
0.0
 10
165.5201131782831
 20
38.15243434573604
 30
0.0
 10
165.5362578004679
 20
37.99184976744946
 30
0.0
 10
165.5575894876078
 20
37.84766548931486
 30
0.0
 10
165.5786535536994
 20
37.70529010456342
 30
0.0
 10
165.6047753503921
 20
37.57890609463744
 30
0.0
 10
165.6308971470847
 20
37.4525220847121
 30
0.0
  0
LINE
  5
124
330
70
100
AcDbEntity
  8
0
 62
   144
420
    29337
370
    18
100
AcDbLine
 10
161.0939652784111
 20
15.96031279919329
 30
0.0
 11
176.5939650251115
 21
15.96031279919329
 31
0.0
  0
LINE
  5
125
330
70
100
AcDbEntity
  8
0
 62
   144
420
    29337
370
    18
100
AcDbLine
 10
145.5939655318114
 20
15.96031279919329
 30
0.0
 11
161.0939652784111
 21
15.96031279919329
 31
0.0
  0
LINE
  5
126
330
70
100
AcDbEntity
  8
0
 62
    18
420
        0
370
    25
100
AcDbLine
 10
161.0939652784111
 20
-50.53968785640697
 30
0.0
 11
176.5939650251115
 21
-50.53968785640697
 31
0.0
  0
LINE
  5
127
330
70
100
AcDbEntity
  8
0
 62
    18
420
        0
370
    25
100
AcDbLine
 10
145.5939655318114
 20
-50.53968785640697
 30
0.0
 11
161.0939652784111
 21
-50.53968785640697
 31
0.0
  0
LINE
  5
128
330
70
100
AcDbEntity
  8
0
 62
    18
420
        0
370
    25
100
AcDbLine
 10
135.7339658900111
 20
8.335312713493397
 30
0.0
 11
135.7339658900111
 21
-17.16468541260673
 31
0.0
  0
LINE
  5
129
330
70
100
AcDbEntity
  8
0
 62
    18
420
        0
370
    25
100
AcDbLine
 10
185.0487982048112
 20
39.9920636570936
 30
0.0
 11
185.0487982048112
 21
36.99206316529342
 31
0.0
  0
LINE
  5
12A
330
70
100
AcDbEntity
  8
0
 62
     8
420
  8421504
370
    25
100
AcDbLine
 10
176.5439651100113
 20
-50.63968954920679
 30
0.0
 11
145.6439654468115
 21
-50.63968954920679
 31
0.0
  0
LINE
  5
12B
330
70
100
AcDbEntity
  8
0
 62
     8
420
  8421504
370
    25
100
AcDbLine
 10
145.6439654468115
 20
-50.93968717690674
 30
0.0
 11
176.5439651100113
 21
-50.93968717690674
 31
0.0
  0
LINE
  5
12C
330
70
100
AcDbEntity
  8
0
 62
     8
420
  8421504
370
    25
100
AcDbLine
 10
176.5939650251115
 20
16.31818828329284
 30
0.0
 11
145.5939655318114
 21
16.31818828329284
 31
0.0
  0
LINE
  5
12D
330
70
100
AcDbEntity
  8
0
 62
     8
420
  8421504
370
    25
100
AcDbLine
 10
145.836028376111
 20
16.5680623046931
 30
0.0
 11
176.3519021808112
 21
16.5680623046931
 31
0.0
  0
LINE
  5
12E
330
70
100
AcDbEntity
  8
0
 62
     8
420
  8421504
370
    25
100
AcDbLine
 10
168.513646920611
 20
23.7270261874934
 30
0.0
 11
153.1339503019113
 21
23.7270261874934
 31
0.0
  0
LINE
  5
12F
330
70
100
AcDbEntity
  8
0
 62
     8
420
  8421504
370
    25
100
AcDbLine
 10
153.3715400039109
 20
23.97453633759347
 30
0.0
 11
168.2760572186113
 21
23.97453633759347
 31
0.0
  0
LINE
  5
130
330
70
100
AcDbEntity
  8
0
 62
     8
420
  8421504
370
    25
100
AcDbLine
 10
165.3709766580111
 20
24.07651709079314
 30
0.0
 11
156.3006645194108
 21
24.07651709079314
 31
0.0
  0
LINE
  5
131
330
70
100
AcDbEntity
  8
0
 62
     8
420
  8421504
370
    25
100
AcDbLine
 10
156.7663248754112
 20
24.57204775569325
 30
0.0
 11
164.8812723471111
 21
24.57204775569325
 31
0.0
  0
LINE
  5
132
330
70
100
AcDbEntity
  8
0
 62
     8
420
  8421504
370
    25
100
AcDbLine
 10
138.3388900323113
 20
-4.414687513706212
 30
0.0
 11
138.3388900323113
 21
9.335312877493739
 31
0.0
  0
LINE
  5
133
330
70
100
AcDbEntity
  8
0
 62
     8
420
  8421504
370
    25
100
AcDbLine
 10
138.3388900323113
 20
-18.16468743920656
 30
0.0
 11
138.3388900323113
 21
-4.414687513706212
 31
0.0
  0
LINE
  5
134
330
70
100
AcDbEntity
  8
0
 62
     8
420
  8421504
370
    25
100
AcDbLine
 10
138.8381851031109
 20
-4.414687513706212
 30
0.0
 11
138.8381851031109
 21
-17.69124029520662
 31
0.0
  0
LINE
  5
135
330
70
100
AcDbEntity
  8
0
 62
     8
420
  8421504
370
    25
100
AcDbLine
 10
138.8381851031109
 20
8.861865733393049
 30
0.0
 11
138.8381851031109
 21
-4.414687513706212
 31
0.0
  0
LINE
  5
136
330
70
100
AcDbEntity
  8
0
 62
     8
420
  8421504
370
    25
100
AcDbLine
 10
160.8237986113112
 20
41.66171455439324
 30
0.0
 11
165.7219590745111
 21
41.66171455439324
 31
0.0
  0
LINE
  5
137
330
70
100
AcDbEntity
  8
0
 62
     8
420
  8421504
370
    25
100
AcDbLine
 10
155.9256381481113
 20
41.66171455439324
 30
0.0
 11
160.8237986113112
 21
41.66171455439324
 31
0.0
  0
LINE
  5
138
330
70
100
AcDbEntity
  8
0
 62
     8
420
  8421504
370
    25
100
AcDbLine
 10
160.8237986113112
 20
41.76037886799341
 30
0.0
 11
165.6315784095111
 21
41.76037886799341
 31
0.0
  0
LINE
  5
139
330
70
100
AcDbEntity
  8
0
 62
     8
420
  8421504
370
    25
100
AcDbLine
 10
156.0160188130111
 20
41.76037886799341
 30
0.0
 11
160.8237986113112
 21
41.76037886799341
 31
0.0
  0
INSERT
  5
13B
330
70
100
AcDbEntity
  8
0
100
AcDbBlockReference
  2
Block_1
 10
0.0
 20
0.0
 30
0.0
  0
LINE
  5
146
330
70
100
AcDbEntity
  8
0
 62
    18
420
        0
370
    25
100
AcDbLine
 10
59.11342971351125
 20
-93.44311215170611
 30
0.0
 11
59.11342971351125
 21
-91.26318775300678
 31
0.0
  0
LINE
  5
147
330
70
100
AcDbEntity
  8
0
 62
    18
420
        0
370
    25
100
AcDbLine
 10
31.61342986251118
 20
-91.26318775300678
 30
0.0
 11
31.61342986251118
 21
-93.44311215170611
 31
0.0
  0
SPLINE
  5
148
330
70
100
AcDbEntity
  8
0
 62
    18
420
        0
370
    25
100
AcDbSpline
210
0.0
220
0.0
230
1.0
 70
     8
 71
     3
 72
     8
 73
     4
 74
     0
 42
0.0000000001
 43
0.0000000001
 40
0.0
 40
0.0
 40
0.0
 40
0.0
 40
1.0
 40
1.0
 40
1.0
 40
1.0
 10
31.61342978801121
 20
-93.44311237540624
 30
0.0
 10
31.61342978801121
 20
-93.70893640079437
 30
0.0
 10
31.82142776881332
 20
-93.92828990297495
 30
0.0
 10
32.08687668179922
 20
-93.94240681013444
 30
0.0
  0
SPLINE
  5
149
330
70
100
AcDbEntity
  8
0
 62
    18
420
        0
370
    25
100
AcDbSpline
210
0.0
220
0.0
230
1.0
 70
     8
 71
     3
 72
     8
 73
     4
 74
     0
 42
0.0000000001
 43
0.0000000001
 40
0.0
 40
0.0
 40
0.0
 40
0.0
 40
1.0
 40
1.0
 40
1.0
 40
1.0
 10
58.6399828942232
 20
-93.94240681013444
 30
0.0
 10
58.90543180720911
 20
-93.92828990297495
 30
0.0
 10
59.11342978801122
 20
-93.70893640079437
 30
0.0
 10
59.11342978801122
 20
-93.44311237540624
 30
0.0
  0
SPLINE
  5
14A
330
70
100
AcDbEntity
  8
0
 62
    18
420
        0
370
    25
100
AcDbSpline
210
0.0
220
0.0
230
1.0
 70
     8
 71
     3
 72
     8
 73
     4
 74
     0
 42
0.0000000001
 43
0.0000000001
 40
0.0
 40
0.0
 40
0.0
 40
0.0
 40
1.0
 40
1.0
 40
1.0
 40
1.0
 10
32.08687668201483
 20
-93.94240681017679
 30
0.0
 10
35.17680940821785
 20
-94.10673332006807
 30
0.0
 10
38.26952669751388
 20
-94.21367861086828
 30
0.0
 10
41.36342978816283
 20
-94.26318739784635
 30
0.0
  0
SPLINE
  5
14B
330
70
100
AcDbEntity
  8
0
 62
    18
420
        0
370
    25
100
AcDbSpline
210
0.0
220
0.0
230
1.0
 70
     8
 71
     3
 72
     8
 73
     4
 74
     0
 42
0.0000000001
 43
0.0000000001
 40
0.0
 40
0.0
 40
0.0
 40
0.0
 40
1.0
 40
1.0
 40
1.0
 40
1.0
 10
49.36342978785959
 20
-94.26318739784635
 30
0.0
 10
52.45733287865388
 20
-94.2136786108657
 30
0.0
 10
55.55005016809527
 20
-94.10673332005778
 30
0.0
 10
58.63998289444331
 20
-93.9424068101537
 30
0.0
  0
LINE
  5
14C
330
70
100
AcDbEntity
  8
0
 62
    18
420
        0
370
    25
100
AcDbLine
 10
41.36342959801136
 20
-94.26318824480693
 30
0.0
 11
41.36342959801136
 21
-100.2631873656063
 31
0.0
  0
LINE
  5
14D
330
70
100
AcDbEntity
  8
0
 62
    18
420
        0
370
    25
100
AcDbLine
 10
49.36342997801106
 20
-100.261263253206
 30
0.0
 11
49.36342997801106
 21
-94.26318824480693
 31
0.0
  0
LINE
  5
14E
330
70
100
AcDbEntity
  8
0
 62
    18
420
        0
370
    25
100
AcDbLine
 10
32.6134300264111
 20
-90.83818800930705
 30
0.0
 11
32.6134300264111
 21
-91.26318775300678
 31
0.0
  0
LINE
  5
14F
330
70
100
AcDbEntity
  8
0
 62
    18
420
        0
370
    25
100
AcDbLine
 10
58.11342954961133
 20
-91.26318775300678
 30
0.0
 11
58.11342954961133
 21
-90.83818800930705
 31
0.0
  0
LINE
  5
150
330
70
100
AcDbEntity
  8
0
 62
    18
420
        0
370
    25
100
AcDbLine
 10
43.8634297749112
 20
-120.6217870880068
 30
0.0
 11
43.8634297749112
 21
-140.1530203242066
 31
0.0
  0
LINE
  5
151
330
70
100
AcDbEntity
  8
0
 62
    18
420
        0
370
    25
100
AcDbLine
 10
46.86342980101112
 20
-140.1530203242066
 30
0.0
 11
46.86342980101112
 21
-120.6213339996068
 31
0.0
  0
SPLINE
  5
152
330
70
100
AcDbEntity
  8
0
 62
    18
420
        0
370
    25
100
AcDbSpline
210
0.0
220
0.0
230
1.0
 70
     8
 71
     3
 72
     8
 73
     4
 74
     0
 42
0.0000000001
 43
0.0000000001
 40
0.0
 40
0.0
 40
0.0
 40
0.0
 40
1.0
 40
1.0
 40
1.0
 40
1.0
 10
46.86342978802249
 20
-131.6254360183472
 30
0.0
 10
54.8054038766817
 20
-130.8532334418475
 30
0.0
 10
60.86342978801112
 20
-124.1776140215741
 30
0.0
 10
60.86342978801112
 20
-116.1981873978065
 30
0.0
  0
SPLINE
  5
153
330
70
100
AcDbEntity
  8
0
 62
    18
420
        0
370
    25
100
AcDbSpline
210
0.0
220
0.0
230
1.0
 70
     8
 71
     3
 72
    14
 73
    10
 74
     0
 42
0.0000000001
 43
0.0000000001
 40
0.0
 40
0.0
 40
0.0
 40
0.0
 40
1.0
 40
1.0
 40
1.0
 40
2.0
 40
2.0
 40
2.0
 40
3.0
 40
3.0
 40
3.0
 40
3.0
 10
60.86342978801112
 20
-116.1981873978065
 30
0.0
 10
60.86342978801112
 20
-107.6377737754289
 30
0.0
 10
53.92384341038845
 20
-100.6981873978062
 30
0.0
 10
45.36342978801121
 20
-100.6981873978062
 30
0.0
 10
36.80301616563397
 20
-100.6981873978062
 30
0.0
 10
29.86342978801131
 20
-107.6377737754289
 30
0.0
 10
29.86342978801131
 20
-116.1981873978065
 30
0.0
 10
29.86342978801131
 20
-124.1776140215741
 30
0.0
 10
35.92145569934073
 20
-130.8532334418475
 30
0.0
 10
43.86342978799993
 20
-131.6254360183472
 30
0.0
  0
SPLINE
  5
154
330
70
100
AcDbEntity
  8
0
 62
   144
420
    29337
370
    18
100
AcDbSpline
210
0.0
220
0.0
230
1.0
 70
     8
 71
     3
 72
    17
 73
    13
 74
     0
 42
0.0000000001
 43
0.0000000001
 40
0.0
 40
0.0
 40
0.0
 40
0.0
 40
1.0
 40
1.0
 40
1.0
 40
2.0
 40
2.0
 40
2.0
 40
3.0
 40
3.0
 40
3.0
 40
4.0
 40
4.0
 40
4.0
 40
4.0
 10
46.86342978801254
 20
-123.5301396320416
 30
0.0
 10
51.06196412201879
 20
-122.7017125072948
 30
0.0
 10
53.79397581119309
 20
-118.6265550676113
 30
0.0
 10
52.96554868644602
 20
-114.4280207336047
 30
0.0
 10
52.13712156169927
 20
-110.2294863995995
 30
0.0
 10
48.0619641220158
 20
-107.4974747104245
 30
0.0
 10
43.86342978800987
 20
-108.3259018351713
 30
0.0
 10
39.66489545400364
 20
-109.154328959918
 30
0.0
 10
36.93288376482933
 20
-113.2294863996015
 30
0.0
 10
37.76131088957608
 20
-117.428020733608
 30
0.0
 10
38.36968479792977
 20
-120.5113079242776
 30
0.0
 10
40.78014259734032
 20
-122.9217657236882
 30
0.0
 10
43.86342978800987
 20
-123.5301396320416
 30
0.0
  0
LINE
  5
155
330
70
100
AcDbEntity
  8
0
 62
    18
420
        0
370
    25
100
AcDbLine
 10
59.11342971351125
 20
-91.26318775300678
 30
0.0
 11
31.61342986251118
 21
-91.26318775300678
 31
0.0
  0
SPLINE
  5
156
330
70
100
AcDbEntity
  8
0
 62
    18
420
        0
370
    25
100
AcDbSpline
210
0.0
220
0.0
230
1.0
 70
     8
 71
     3
 72
    23
 73
    19
 74
     0
 42
0.0000000001
 43
0.0000000001
 40
0.0
 40
0.0
 40
0.0
 40
0.0
 40
1.0
 40
1.0
 40
1.0
 40
2.0
 40
2.0
 40
2.0
 40
3.0
 40
3.0
 40
3.0
 40
4.0
 40
4.0
 40
4.0
 40
5.0
 40
5.0
 40
5.0
 40
6.0
 40
6.0
 40
6.0
 40
6.0
 10
42.68978895799668
 20
-94.12327026346012
 30
0.0
 10
42.68978895799668
 20
-94.12479773545326
 30
0.0
 10
42.68572621270573
 20
-94.12624828942611
 30
0.0
 10
42.67699097985345
 20
-94.12761240758433
 30
0.0
 10
42.66825574700085
 20
-94.12897652574256
 30
0.0
 10
42.65455837918635
 20
-94.13026438034552
 30
0.0
 10
42.6363875268624
 20
-94.1313914210713
 30
0.0
 10
42.60004582221389
 20
-94.13364550252287
 30
0.0
 10
42.54423838762142
 20
-94.13533217827531
 30
0.0
 10
42.47720218751156
 20
-94.13633884576357
 30
0.0
 10
42.44368408745695
 20
-94.13684217950899
 30
0.0
 10
42.40702025813423
 20
-94.13718694834628
 30
0.0
 10
42.36917704001645
 20
-94.13737952378349
 30
0.0
 10
42.33133382189867
 20
-94.13757209922071
 30
0.0
 10
42.29196417930466
 20
-94.13761892490311
 30
0.0
 10
42.25122299788504
 20
-94.13753354975668
 30
0.0
 10
42.16974063504519
 20
-94.13736279946379
 30
0.0
 10
42.0845208387152
 20
-94.13667015642531
 30
0.0
 10
41.9986606729969
 20
-94.13551381933414
 30
0.0
  0
SPLINE
  5
157
330
70
100
AcDbEntity
  8
0
 62
    18
420
        0
370
    25
100
AcDbSpline
210
0.0
220
0.0
230
1.0
 70
     8
 71
     3
 72
     8
 73
     4
 74
     0
 42
0.0000000001
 43
0.0000000001
 40
0.0
 40
0.0
 40
0.0
 40
0.0
 40
1.0
 40
1.0
 40
1.0
 40
1.0
 10
44.05899436069726
 20
-94.0815691668166
 30
0.0
 10
44.29829412704334
 20
-94.10978986120985
 30
0.0
 10
44.53792850299446
 20
-94.13509701157876
 30
0.0
 10
44.77784424644669
 20
-94.15748499516514
 30
0.0
  0
SPLINE
  5
158
330
70
100
AcDbEntity
  8
0
 62
    18
420
        0
370
    25
100
AcDbSpline
210
0.0
220
0.0
230
1.0
 70
     8
 71
     3
 72
     8
 73
     4
 74
     0
 42
0.0000000001
 43
0.0000000001
 40
0.0
 40
0.0
 40
0.0
 40
0.0
 40
1.0
 40
1.0
 40
1.0
 40
1.0
 10
42.73739490798162
 20
-94.14437054332365
 30
0.0
 10
42.9410725787305
 20
-94.14651129345699
 30
0.0
 10
43.1447527910664
 20
-94.14840298497715
 30
0.0
 10
43.34843508814644
 20
-94.1500456136438
 30
0.0
  0
SPLINE
  5
159
330
70
100
AcDbEntity
  8
0
 62
    18
420
        0
370
    25
100
AcDbSpline
210
0.0
220
0.0
230
1.0
 70
     8
 71
     3
 72
     8
 73
     4
 74
     0
 42
0.0000000001
 43
0.0000000001
 40
0.0
 40
0.0
 40
0.0
 40
0.0
 40
1.0
 40
1.0
 40
1.0
 40
1.0
 10
43.34843516672346
 20
-94.1500455904284
 30
0.0
 10
43.37794353144552
 20
-94.14716845831854
 30
0.0
 10
43.40744629495506
 20
-94.14423416582078
 30
0.0
 10
43.43694329117845
 20
-94.1412427294537
 30
0.0
  0
SPLINE
  5
15A
330
70
100
AcDbEntity
  8
0
 62
    18
420
        0
370
    25
100
AcDbSpline
210
0.0
220
0.0
230
1.0
 70
     8
 71
     3
 72
     8
 73
     4
 74
     0
 42
0.0000000001
 43
0.0000000001
 40
0.0
 40
0.0
 40
0.0
 40
0.0
 40
1.0
 40
1.0
 40
1.0
 40
1.0
 10
43.43694329320076
 20
-94.14124238053757
 30
0.0
 10
43.64615940946731
 20
-94.14285558201822
 30
0.0
 10
43.8553774694996
 20
-94.14420599273929
 30
0.0
 10
44.06459697818449
 20
-94.14529360950515
 30
0.0
  0
SPLINE
  5
15B
330
70
100
AcDbEntity
  8
0
 62
    18
420
        0
370
    25
100
AcDbSpline
210
0.0
220
0.0
230
1.0
 70
     8
 71
     3
 72
     8
 73
     4
 74
     0
 42
0.0000000001
 43
0.0000000001
 40
0.0
 40
0.0
 40
0.0
 40
0.0
 40
1.0
 40
1.0
 40
1.0
 40
1.0
 10
45.18706107800361
 20
-94.15810836009681
 30
0.0
 10
45.38979122902711
 20
-94.15825145958194
 30
0.0
 10
45.59252147914818
 20
-94.15814782664119
 30
0.0
 10
45.79525137791915
 20
-94.15779746150292
 30
0.0
  0
LINE
  5
15C
330
70
100
AcDbEntity
  8
0
 62
    18
420
        0
370
    25
100
AcDbLine
 10
48.56196659941111
 20
-94.13769811580726
 30
0.0
 11
48.56196659941111
 21
-94.11301993020677
 31
0.0
  0
SPLINE
  5
15D
330
70
100
AcDbEntity
  8
0
 62
    18
420
        0
370
    25
100
AcDbSpline
210
0.0
220
0.0
230
1.0
 70
     8
 71
     3
 72
     8
 73
     4
 74
     0
 42
0.0000000001
 43
0.0000000001
 40
0.0
 40
0.0
 40
0.0
 40
0.0
 40
1.0
 40
1.0
 40
1.0
 40
1.0
 10
49.1600528780328
 20
-94.0834031419269
 30
0.0
 10
49.38938698463695
 20
-94.07991740834606
 30
0.0
 10
49.61871618206859
 20
-94.0761158440674
 30
0.0
 10
49.84803981787219
 20
-94.07199845990609
 30
0.0
  0
LINE
  5
15E
330
70
100
AcDbEntity
  8
0
 62
    18
420
        0
370
    25
100
AcDbLine
 10
47.7500423728111
 20
-94.1007693130072
 30
0.0
 11
47.7500423728111
 21
-94.07357469390721
 31
0.0
  0
LINE
  5
15F
330
70
100
AcDbEntity
  8
0
 62
    18
420
        0
370
    25
100
AcDbLine
 10
46.57226472021133
 20
-94.15524609570708
 30
0.0
 11
46.57226472021133
 21
-94.08205159190639
 31
0.0
  0
SPLINE
  5
160
330
70
100
AcDbEntity
  8
0
 62
    18
420
        0
370
    25
100
AcDbSpline
210
0.0
220
0.0
230
1.0
 70
     8
 71
     3
 72
     8
 73
     4
 74
     0
 42
0.0000000001
 43
0.0000000001
 40
0.0
 40
0.0
 40
0.0
 40
0.0
 40
1.0
 40
1.0
 40
1.0
 40
1.0
 10
46.57226468315674
 20
-94.15524642268225
 30
0.0
 10
46.77499620200024
 20
-94.1542655979056
 30
0.0
 10
46.97772645201833
 20
-94.15303803496369
 30
0.0
 10
47.18045498280277
 20
-94.15156373658245
 30
0.0
  0
SPLINE
  5
161
330
70
100
AcDbEntity
  8
0
 62
    18
420
        0
370
    25
100
AcDbSpline
210
0.0
220
0.0
230
1.0
 70
     8
 71
     3
 72
     8
 73
     4
 74
     0
 42
0.0000000001
 43
0.0000000001
 40
0.0
 40
0.0
 40
0.0
 40
0.0
 40
1.0
 40
1.0
 40
1.0
 40
1.0
 10
47.18045498291668
 20
-94.12688721946487
 30
0.0
 10
47.370319202079
 20
-94.12550633756351
 30
0.0
 10
47.56018178543143
 20
-94.12390901987437
 30
0.0
 10
47.75004236286284
 20
-94.1220952695097
 30
0.0
  0
LINE
  5
162
330
70
100
AcDbEntity
  8
0
 62
    18
420
        0
370
    25
100
AcDbLine
 10
47.7500423728111
 20
-94.14677292290686
 30
0.0
 11
47.7500423728111
 21
-94.12209473740643
 31
0.0
  0
LINE
  5
163
330
70
100
AcDbEntity
  8
0
 62
   144
420
    29337
370
    18
100
AcDbLine
 10
48.35832981801121
 20
-94.1155436342064
 30
0.0
 11
48.56196669801104
 21
-94.11301938320709
 31
0.0
  0
LINE
  5
164
330
70
100
AcDbEntity
  8
0
 62
   144
420
    29337
370
    18
100
AcDbLine
 10
48.3583298916112
 20
-94.11554381440703
 30
0.0
 11
48.3583298916112
 21
-94.14022200000628
 31
0.0
  0
SPLINE
  5
165
330
70
100
AcDbEntity
  8
0
 62
   144
420
    29337
370
    18
100
AcDbSpline
210
0.0
220
0.0
230
1.0
 70
     8
 71
     3
 72
     8
 73
     4
 74
     0
 42
0.0000000001
 43
0.0000000001
 40
0.0
 40
0.0
 40
0.0
 40
0.0
 40
1.0
 40
1.0
 40
1.0
 40
1.0
 10
47.75004236282755
 20
-94.14677225990212
 30
0.0
 10
47.95280743091959
 20
-94.14483542341713
 30
0.0
 10
48.15557006616502
 20
-94.14265175907917
 30
0.0
 10
48.35832981785463
 20
-94.14022127174076
 30
0.0
  0
LINE
  5
166
330
70
100
AcDbEntity
  8
0
 62
   144
420
    29337
370
    18
100
AcDbLine
 10
47.18045503221135
 20
-94.12688732330719
 30
0.0
 11
47.18045503221135
 21
-94.15156364630695
 31
0.0
  0
SPLINE
  5
167
330
70
100
AcDbEntity
  8
0
 62
   144
420
    29337
370
    18
100
AcDbSpline
210
0.0
220
0.0
230
1.0
 70
     8
 71
     3
 72
     8
 73
     4
 74
     0
 42
0.0000000001
 43
0.0000000001
 40
0.0
 40
0.0
 40
0.0
 40
0.0
 40
1.0
 40
1.0
 40
1.0
 40
1.0
 10
46.57226468305824
 20
-94.08205102652846
 30
0.0
 10
46.77499620276098
 20
-94.0810699143361
 30
0.0
 10
46.97772645292537
 20
-94.0798419916731
 30
0.0
 10
47.18045498281785
 20
-94.07836726126927
 30
0.0
  0
LINE
  5
168
330
70
100
AcDbEntity
  8
0
 62
   144
420
    29337
370
    18
100
AcDbLine
 10
47.18045503221135
 20
-94.07836727980667
 30
0.0
 11
47.18045503221135
 21
-94.10556189900676
 31
0.0
  0
SPLINE
  5
169
330
70
100
AcDbEntity
  8
0
 62
   144
420
    29337
370
    18
100
AcDbSpline
210
0.0
220
0.0
230
1.0
 70
     8
 71
     3
 72
     8
 73
     4
 74
     0
 42
0.0000000001
 43
0.0000000001
 40
0.0
 40
0.0
 40
0.0
 40
0.0
 40
1.0
 40
1.0
 40
1.0
 40
1.0
 10
47.1804549832311
 20
-94.10556222484229
 30
0.0
 10
47.37031920269021
 20
-94.10418122505953
 30
0.0
 10
47.56018178603239
 20
-94.10258377101191
 30
0.0
 10
47.75004236313845
 20
-94.10076986581424
 30
0.0
  0
SPLINE
  5
16A
330
70
100
AcDbEntity
  8
0
 62
   144
420
    29337
370
    18
100
AcDbSpline
210
0.0
220
0.0
230
1.0
 70
     8
 71
     3
 72
     8
 73
     4
 74
     0
 42
0.0000000001
 43
0.0000000001
 40
0.0
 40
0.0
 40
0.0
 40
0.0
 40
1.0
 40
1.0
 40
1.0
 40
1.0
 10
47.75004236312947
 20
-94.07357438046417
 30
0.0
 10
47.95280743264512
 20
-94.07163697637328
 30
0.0
 10
48.15557006786647
 20
-94.06945267209325
 30
0.0
 10
48.35832981786329
 20
-94.06702147248045
 30
0.0
  0
LINE
  5
16B
330
70
100
AcDbEntity
  8
0
 62
   144
420
    29337
370
    18
100
AcDbLine
 10
48.3583298916112
 20
-94.06702190820693
 30
0.0
 11
48.3583298916112
 21
-94.09430220910723
 31
0.0
  0
LINE
  5
16C
330
70
100
AcDbEntity
  8
0
 62
   144
420
    29337
370
    18
100
AcDbLine
 10
48.35832981801121
 20
-94.09430197860636
 30
0.0
 11
48.56196669801104
 21
-94.09177751300623
 31
0.0
  0
LINE
  5
16D
330
70
100
AcDbEntity
  8
0
 62
   144
420
    29337
370
    18
100
AcDbLine
 10
48.56196659941111
 20
-94.09177832490694
 30
0.0
 11
48.56196659941111
 21
-94.06449616140717
 31
0.0
  0
SPLINE
  5
16E
330
70
100
AcDbEntity
  8
0
 62
   144
420
    29337
370
    18
100
AcDbSpline
210
0.0
220
0.0
230
1.0
 70
     8
 71
     3
 72
     8
 73
     4
 74
     0
 42
0.0000000001
 43
0.0000000001
 40
0.0
 40
0.0
 40
0.0
 40
0.0
 40
1.0
 40
1.0
 40
1.0
 40
1.0
 10
48.56196669810667
 20
-94.06449673111913
 30
0.0
 10
48.76133202919177
 20
-94.06194366574357
 30
0.0
 10
48.96069423204507
 20
-94.05915190180875
 30
0.0
 10
49.1600528779946
 20
-94.05612144531323
 30
0.0
  0
LINE
  5
16F
330
70
100
AcDbEntity
  8
0
 62
   144
420
    29337
370
    18
100
AcDbLine
 10
49.16005287641122
 20
-94.0561217088064
 30
0.0
 11
49.16005287641122
 21
-94.08340387230618
 31
0.0
  0
SPLINE
  5
170
330
70
100
AcDbEntity
  8
0
 62
   144
420
    29337
370
    18
100
AcDbSpline
210
0.0
220
0.0
230
1.0
 70
     8
 71
     3
 72
     8
 73
     4
 74
     0
 42
0.0000000001
 43
0.0000000001
 40
0.0
 40
0.0
 40
0.0
 40
0.0
 40
1.0
 40
1.0
 40
1.0
 40
1.0
 10
49.16005287790895
 20
-94.10464572426869
 30
0.0
 10
49.389386983753
 20
-94.10116028710918
 30
0.0
 10
49.61871618125941
 20
-94.09735904611078
 30
0.0
 10
49.84803981808364
 20
-94.09324201208614
 30
0.0
  0
LINE
  5
171
330
70
100
AcDbEntity
  8
0
 62
   144
420
    29337
370
    18
100
AcDbLine
 10
49.16005287641122
 20
-94.10464547760728
 30
0.0
 11
49.16005287641122
 21
-94.12932366320651
 31
0.0
  0
SPLINE
  5
172
330
70
100
AcDbEntity
  8
0
 62
   144
420
    29337
370
    18
100
AcDbSpline
210
0.0
220
0.0
230
1.0
 70
     8
 71
     3
 72
     8
 73
     4
 74
     0
 42
0.0000000001
 43
0.0000000001
 40
0.0
 40
0.0
 40
0.0
 40
0.0
 40
1.0
 40
1.0
 40
1.0
 40
1.0
 10
48.56196669787886
 20
-94.13769727009029
 30
0.0
 10
48.76133202706069
 20
-94.13514495275485
 30
0.0
 10
48.96069422986972
 20
-94.13235400679637
 30
0.0
 10
49.16005287783322
 20
-94.12932443821468
 30
0.0
  0
LINE
  5
173
330
70
100
AcDbEntity
  8
0
 62
   144
420
    29337
370
    18
100
AcDbLine
 10
45.18706108471129
 20
-94.1581089813064
 30
0.0
 11
45.18706108471129
 21
-94.10516143030655
 31
0.0
  0
SPLINE
  5
174
330
70
100
AcDbEntity
  8
0
 62
   144
420
    29337
370
    18
100
AcDbSpline
210
0.0
220
0.0
230
1.0
 70
     8
 71
     3
 72
     8
 73
     4
 74
     0
 42
0.0000000001
 43
0.0000000001
 40
0.0
 40
0.0
 40
0.0
 40
0.0
 40
1.0
 40
1.0
 40
1.0
 40
1.0
 10
44.6341195878425
 20
-94.10415842394103
 30
0.0
 10
44.81843299172847
 20
-94.10469652169597
 30
0.0
 10
45.00274693470645
 20
-94.10503063483195
 30
0.0
 10
45.18706107813549
 20
-94.1051607627355
 30
0.0
  0
LINE
  5
175
330
70
100
AcDbEntity
  8
0
 62
   144
420
    29337
370
    18
100
AcDbLine
 10
44.63411957811113
 20
-94.10415932720686
 30
0.0
 11
44.63411957811113
 21
-94.08391051180656
 31
0.0
  0
SPLINE
  5
176
330
70
100
AcDbEntity
  8
0
 62
   144
420
    29337
370
    18
100
AcDbSpline
210
0.0
220
0.0
230
1.0
 70
     8
 71
     3
 72
     8
 73
     4
 74
     0
 42
0.0000000001
 43
0.0000000001
 40
0.0
 40
0.0
 40
0.0
 40
0.0
 40
1.0
 40
1.0
 40
1.0
 40
1.0
 10
44.63411958788229
 20
-94.08391138253055
 30
0.0
 10
45.20550905406081
 20
-94.085579673087
 30
0.0
 10
45.77690256274372
 20
-94.08528738629613
 30
0.0
 10
46.34829002312378
 20
-94.0830345273223
 30
0.0
  0
LINE
  5
177
330
70
100
AcDbEntity
  8
0
 62
   144
420
    29337
370
    18
100
AcDbLine
 10
46.34829002291105
 20
-94.08303506860699
 30
0.0
 11
46.34829002291105
 21
-94.10328202140652
 31
0.0
  0
SPLINE
  5
178
330
70
100
AcDbEntity
  8
0
 62
   144
420
    29337
370
    18
100
AcDbSpline
210
0.0
220
0.0
230
1.0
 70
     8
 71
     3
 72
     8
 73
     4
 74
     0
 42
0.0000000001
 43
0.0000000001
 40
0.0
 40
0.0
 40
0.0
 40
0.0
 40
1.0
 40
1.0
 40
1.0
 40
1.0
 10
45.795251378086
 20
-94.10484979824552
 30
0.0
 10
45.97959811520214
 20
-94.10453113602502
 30
0.0
 10
46.16394444309816
 20
-94.10400841622307
 30
0.0
 10
46.34829002299383
 20
-94.10328163980222
 30
0.0
  0
LINE
  5
179
330
70
100
AcDbEntity
  8
0
 62
   144
420
    29337
370
    18
100
AcDbLine
 10
45.79525138221116
 20
-94.1048503686069
 30
0.0
 11
45.79525138221116
 21
-94.15779791960673
 31
0.0
  0
SPLINE
  5
17A
330
70
100
AcDbEntity
  8
0
 62
   144
420
    29337
370
    18
100
AcDbSpline
210
0.0
220
0.0
230
1.0
 70
     8
 71
     3
 72
     8
 73
     4
 74
     0
 42
0.0000000001
 43
0.0000000001
 40
0.0
 40
0.0
 40
0.0
 40
0.0
 40
1.0
 40
1.0
 40
1.0
 40
1.0
 10
44.14753496290681
 20
-94.15521216665965
 30
0.0
 10
44.35763700897917
 20
-94.15623458708417
 30
0.0
 10
44.56774026108508
 20
-94.15699200150521
 30
0.0
 10
44.77784421783782
 20
-94.15748440811318
 30
0.0
  0
SPLINE
  5
17B
330
70
100
AcDbEntity
  8
0
 62
   144
420
    29337
370
    18
100
AcDbSpline
210
0.0
220
0.0
230
1.0
 70
     8
 71
     3
 72
     8
 73
     4
 74
     0
 42
0.0000000001
 43
0.0000000001
 40
0.0
 40
0.0
 40
0.0
 40
0.0
 40
1.0
 40
1.0
 40
1.0
 40
1.0
 10
44.06459696443384
 20
-94.14529398267497
 30
0.0
 10
44.09223621235224
 20
-94.14865639702419
 30
0.0
 10
44.11988226970907
 20
-94.15196259900087
 30
0.0
 10
44.14753496499587
 20
-94.15521256809503
 30
0.0
  0
SPLINE
  5
17C
330
70
100
AcDbEntity
  8
0
 62
   144
420
    29337
370
    18
100
AcDbSpline
210
0.0
220
0.0
230
1.0
 70
     8
 71
     3
 72
     8
 73
     4
 74
     0
 42
0.0000000001
 43
0.0000000001
 40
0.0
 40
0.0
 40
0.0
 40
0.0
 40
1.0
 40
1.0
 40
1.0
 40
1.0
 10
42.73739489117199
 20
-94.14437011073124
 30
0.0
 10
42.98005621563414
 20
-94.12509766846936
 30
0.0
 10
43.22247566164941
 20
-94.10289207368164
 30
0.0
 10
43.46460007916684
 20
-94.07775819490659
 30
0.0
  0
SPLINE
  5
17D
330
70
100
AcDbEntity
  8
0
 62
   144
420
    29337
370
    18
100
AcDbSpline
210
0.0
220
0.0
230
1.0
 70
     8
 71
     3
 72
     8
 73
     4
 74
     0
 42
0.0000000001
 43
0.0000000001
 40
0.0
 40
0.0
 40
0.0
 40
0.0
 40
1.0
 40
1.0
 40
1.0
 40
1.0
 10
43.46460008315371
 20
-94.07775878542627
 30
0.0
 10
43.66272993140983
 20
-94.07926495474134
 30
0.0
 10
43.86086150162744
 20
-94.0805353858755
 30
0.0
 10
44.05899437303456
 20
-94.08157007613237
 30
0.0
  0
SPLINE
  5
17E
330
70
100
AcDbEntity
  8
0
 62
   144
420
    29337
370
    18
100
AcDbSpline
210
0.0
220
0.0
230
1.0
 70
     8
 71
     3
 72
    17
 73
    13
 74
     0
 42
0.0000000001
 43
0.0000000001
 40
0.0
 40
0.0
 40
0.0
 40
0.0
 40
1.0
 40
1.0
 40
1.0
 40
2.0
 40
2.0
 40
2.0
 40
3.0
 40
3.0
 40
3.0
 40
4.0
 40
4.0
 40
4.0
 40
4.0
 10
42.59026985299682
 20
-94.0893989942754
 30
0.0
 10
42.59026985299682
 20
-94.09098160253874
 30
0.0
 10
42.58632985659408
 20
-94.09248791734107
 30
0.0
 10
42.57652569347175
 20
-94.09388569189008
 30
0.0
 10
42.56672153034943
 20
-94.09528346643908
 30
0.0
 10
42.55078554235134
 20
-94.09655069347497
 30
0.0
 10
42.52887892945117
 20
-94.0975904593197
 30
0.0
 10
42.50697231655066
 20
-94.09863022516315
 30
0.0
 10
42.47902965990849
 20
-94.09944951215551
 30
0.0
 10
42.44797920416268
 20
-94.10006167160895
 30
0.0
 10
42.41692874841654
 20
-94.10067383106238
 30
0.0
 10
42.38254773118537
 20
-94.10109510862888
 30
0.0
 10
42.34692896299662
 20
-94.10139592337156
 30
0.0
  0
SPLINE
  5
17F
330
70
100
AcDbEntity
  8
0
 62
   144
420
    29337
370
    18
100
AcDbSpline
210
0.0
220
0.0
230
1.0
 70
     8
 71
     3
 72
    17
 73
    13
 74
     0
 42
0.0000000001
 43
0.0000000001
 40
0.0
 40
0.0
 40
0.0
 40
0.0
 40
1.0
 40
1.0
 40
1.0
 40
2.0
 40
2.0
 40
2.0
 40
3.0
 40
3.0
 40
3.0
 40
4.0
 40
4.0
 40
4.0
 40
4.0
 10
42.34692896299662
 20
-94.10139592337156
 30
0.0
 10
42.39849521068719
 20
-94.10265188175392
 30
0.0
 10
42.4468241161525
 20
-94.10408858381112
 30
0.0
 10
42.49108365476601
 20
-94.10575714136699
 30
0.0
 10
42.53534319337952
 20
-94.10742569892288
 30
0.0
 10
42.57352367982799
 20
-94.1092634947298
 30
0.0
 10
42.603955449548
 20
-94.11123076821688
 30
0.0
 10
42.63438721926801
 20
-94.11319804170398
 30
0.0
 10
42.65641782171701
 20
-94.11526403045328
 30
0.0
 10
42.67022156101407
 20
-94.11730361121829
 30
0.0
 10
42.68402530031113
 20
-94.11934319198328
 30
0.0
 10
42.68978895799668
 20
-94.12134298724998
 30
0.0
 10
42.68978895799668
 20
-94.12327026346012
 30
0.0
  0
SPLINE
  5
180
330
70
100
AcDbEntity
  8
0
 62
   144
420
    29337
370
    18
100
AcDbSpline
210
0.0
220
0.0
230
1.0
 70
     8
 71
     3
 72
     8
 73
     4
 74
     0
 42
0.0000000001
 43
0.0000000001
 40
0.0
 40
0.0
 40
0.0
 40
0.0
 40
1.0
 40
1.0
 40
1.0
 40
1.0
 10
40.87881975794744
 20
-94.11792185254634
 30
0.0
 10
41.25208645192239
 20
-94.12462242596312
 30
0.0
 10
41.62536769441646
 20
-94.13048642963564
 30
0.0
 10
41.99866067301036
 20
-94.13551381938292
 30
0.0
  0
LINE
  5
181
330
70
100
AcDbEntity
  8
0
 62
   144
420
    29337
370
    18
100
AcDbLine
 10
40.87881962161111
 20
-94.11792241220672
 30
0.0
 11
40.87881962161111
 21
-94.04471486990678
 31
0.0
  0
SPLINE
  5
182
330
70
100
AcDbEntity
  8
0
 62
   144
420
    29337
370
    18
100
AcDbSpline
210
0.0
220
0.0
230
1.0
 70
     8
 71
     3
 72
     8
 73
     4
 74
     0
 42
0.0000000001
 43
0.0000000001
 40
0.0
 40
0.0
 40
0.0
 40
0.0
 40
1.0
 40
1.0
 40
1.0
 40
1.0
 10
40.87881975812648
 20
-94.04471551748892
 30
0.0
 10
41.23915491587971
 20
-94.05118585073802
 30
0.0
 10
41.59950365466371
 20
-94.05687634654693
 30
0.0
 10
41.95986344286509
 20
-94.06178696493908
 30
0.0
  0
SPLINE
  5
183
330
70
100
AcDbEntity
  8
0
 62
   144
420
    29337
370
    18
100
AcDbSpline
210
0.0
220
0.0
230
1.0
 70
     8
 71
     3
 72
    20
 73
    16
 74
     0
 42
0.0000000001
 43
0.0000000001
 40
0.0
 40
0.0
 40
0.0
 40
0.0
 40
1.0
 40
1.0
 40
1.0
 40
2.0
 40
2.0
 40
2.0
 40
3.0
 40
3.0
 40
3.0
 40
4.0
 40
4.0
 40
4.0
 40
5.0
 40
5.0
 40
5.0
 40
5.0
 10
41.95986344299662
 20
-94.06178696489158
 30
0.0
 10
42.0356064326421
 20
-94.06281911367761
 30
0.0
 10
42.11053869405882
 20
-94.06404985734068
 30
0.0
 10
42.18409176692586
 20
-94.06564315944407
 30
0.0
 10
42.25764483979289
 20
-94.06723646154748
 30
0.0
 10
42.32983618277367
 20
-94.06920574589475
 30
0.0
 10
42.39312179341637
 20
-94.07167858400809
 30
0.0
 10
42.42476459873773
 20
-94.0729150030654
 30
0.0
 10
42.45340380166474
 20
-94.07424949478752
 30
0.0
 10
42.47829700816249
 20
-94.0756682079826
 30
0.0
 10
42.50319021466022
 20
-94.07708692117896
 30
0.0
 10
42.52469130194321
 20
-94.07862080352602
 30
0.0
 10
42.54136152678404
 20
-94.08016106811164
 30
0.0
 10
42.57470197646508
 20
-94.08324159728413
 30
0.0
 10
42.59026985299682
 20
-94.08641989896802
 30
0.0
 10
42.59026985299682
 20
-94.0893989942754
 30
0.0
  0
LINE
  5
184
330
70
100
AcDbEntity
  8
0
 62
   144
420
    29337
370
    18
100
AcDbLine
 10
49.36342997801106
 20
-94.26318824480693
 30
0.0
 11
41.36342959801136
 21
-94.26318824480693
 31
0.0
  0
LINE
  5
185
330
70
100
AcDbEntity
  8
0
 62
   144
420
    29337
370
    18
100
AcDbLine
 10
44.77784424641107
 20
-94.0842904914068
 30
0.0
 11
44.77784424641107
 21
-94.10453744420635
 31
0.0
  0
SPLINE
  5
186
330
70
100
AcDbEntity
  8
0
 62
    18
420
        0
370
    25
100
AcDbSpline
210
0.0
220
0.0
230
1.0
 70
     8
 71
     3
 72
     8
 73
     4
 74
     0
 42
0.0000000001
 43
0.0000000001
 40
0.0
 40
0.0
 40
0.0
 40
0.0
 40
1.0
 40
1.0
 40
1.0
 40
1.0
 10
43.56965702304839
 20
-94.12738255135675
 30
0.0
 10
43.69407957777922
 20
-94.12827589415297
 30
0.0
 10
43.81850278249276
 20
-94.12907628860285
 30
0.0
 10
43.94292653307146
 20
-94.1297837340352
 30
0.0
  0
SPLINE
  5
187
330
70
100
AcDbEntity
  8
0
 62
   144
420
    29337
370
    18
100
AcDbSpline
210
0.0
220
0.0
230
1.0
 70
     8
 71
     3
 72
     8
 73
     4
 74
     0
 42
0.0000000001
 43
0.0000000001
 40
0.0
 40
0.0
 40
0.0
 40
0.0
 40
1.0
 40
1.0
 40
1.0
 40
1.0
 10
43.76603962710762
 20
-94.10610765406138
 30
0.0
 10
43.82496652101752
 20
-94.11426201375068
 30
0.0
 10
43.88392940860557
 20
-94.12215411938339
 30
0.0
 10
43.94292653861766
 20
-94.1297837365545
 30
0.0
  0
LINE
  5
188
330
70
100
AcDbEntity
  8
0
 62
   144
420
    29337
370
    18
100
AcDbLine
 10
43.76043705801124
 20
-94.10607135650664
 30
0.0
 11
43.76603966301132
 21
-94.10610724460605
 31
0.0
  0
SPLINE
  5
189
330
70
100
AcDbEntity
  8
0
 62
   144
420
    29337
370
    18
100
AcDbSpline
210
0.0
220
0.0
230
1.0
 70
     8
 71
     3
 72
     8
 73
     4
 74
     0
 42
0.0000000001
 43
0.0000000001
 40
0.0
 40
0.0
 40
0.0
 40
0.0
 40
1.0
 40
1.0
 40
1.0
 40
1.0
 10
43.56965699091885
 20
-94.12738278691291
 30
0.0
 10
43.6332798478165
 20
-94.1205460235362
 30
0.0
 10
43.69687375126442
 20
-94.11344245334317
 30
0.0
 10
43.76043702335436
 20
-94.10607226375871
 30
0.0
  0
LINE
  5
18A
330
70
100
AcDbEntity
  8
0
 62
   144
420
    29337
370
    18
100
AcDbLine
 10
48.56196659941111
 20
-94.09177832490694
 30
0.0
 11
48.56196659941111
 21
-94.11301993020677
 31
0.0
  0
LINE
  5
18B
330
70
100
AcDbEntity
  8
0
 62
    18
420
        0
370
    25
100
AcDbLine
 10
47.7500423728111
 20
-94.1007693130072
 30
0.0
 11
47.7500423728111
 21
-94.12209473740643
 31
0.0
  0
LINE
  5
18C
330
70
100
AcDbEntity
  8
0
 62
   144
420
    29337
370
    18
100
AcDbLine
 10
47.18045503221135
 20
-94.10556189900676
 30
0.0
 11
47.18045503221135
 21
-94.12688732330719
 31
0.0
  0
LINE
  5
18D
330
70
100
AcDbEntity
  8
0
 62
   144
420
    29337
370
    18
100
AcDbLine
 10
43.56965699091115
 20
-94.07853491790671
 30
0.0
 11
43.56965699091115
 21
-94.12738278690651
 31
0.0
  0
LINE
  5
18E
330
70
100
AcDbEntity
  8
0
 62
   144
420
    29337
370
    18
100
AcDbLine
 10
43.94292653861124
 20
-94.08093773010671
 30
0.0
 11
43.94292653861124
 21
-94.12978373650702
 31
0.0
  0
LINE
  5
18F
330
70
100
AcDbEntity
  8
0
 62
   144
420
    29337
370
    18
100
AcDbLine
 10
41.99866074461115
 20
-94.06250871900612
 30
0.0
 11
41.99866074461115
 21
-94.0840427596065
 31
0.0
  0
LINE
  5
190
330
70
100
AcDbEntity
  8
0
 62
   144
420
    29337
370
    18
100
AcDbLine
 10
41.99866074461115
 20
-94.08967539850683
 30
0.0
 11
41.99866074461115
 21
-94.1073723901063
 31
0.0
  0
LINE
  5
191
330
70
100
AcDbEntity
  8
0
 62
   144
420
    29337
370
    18
100
AcDbLine
 10
41.99866074461115
 20
-94.11837503500663
 30
0.0
 11
41.99866074461115
 21
-94.13551323300604
 31
0.0
  0
LINE
  5
192
330
70
100
AcDbEntity
  8
0
 62
    18
420
        0
370
    25
100
AcDbLine
 10
43.34843516671127
 20
-94.08958971690674
 30
0.0
 11
43.34843516671127
 21
-94.1500455905067
 31
0.0
  0
LINE
  5
193
330
70
100
AcDbEntity
  8
0
 62
    18
420
        0
370
    25
100
AcDbLine
 10
43.43694329121118
 20
-94.08061735520686
 30
0.0
 11
43.43694329121118
 21
-94.14124272950633
 31
0.0
  0
LINE
  5
194
330
70
100
AcDbEntity
  8
0
 62
   144
420
    29337
370
    18
100
AcDbLine
 10
44.06459696451117
 20
-94.0822304059062
 30
0.0
 11
44.06459696451117
 21
-94.14529398270705
 31
0.0
  0
LINE
  5
195
330
70
100
AcDbEntity
  8
0
 62
   144
420
    29337
370
    18
100
AcDbLine
 10
45.79525138221116
 20
-94.08460341580605
 30
0.0
 11
45.79525138221116
 21
-94.1048503686069
 31
0.0
  0
LINE
  5
196
330
70
100
AcDbEntity
  8
0
 62
   144
420
    29337
370
    18
100
AcDbLine
 10
45.18706108471129
 20
-94.084914477507
 30
0.0
 11
45.18706108471129
 21
-94.10516143030655
 31
0.0
  0
SPLINE
  5
197
330
70
100
AcDbEntity
  8
0
 62
   144
420
    29337
370
    18
100
AcDbSpline
210
0.0
220
0.0
230
1.0
 70
     8
 71
     3
 72
    17
 73
    13
 74
     0
 42
0.0000000001
 43
0.0000000001
 40
0.0
 40
0.0
 40
0.0
 40
0.0
 40
1.0
 40
1.0
 40
1.0
 40
2.0
 40
2.0
 40
2.0
 40
3.0
 40
3.0
 40
3.0
 40
4.0
 40
4.0
 40
4.0
 40
4.0
 10
42.01507986799666
 20
-94.08664440087292
 30
0.0
 10
42.01507986799666
 20
-94.08573357944364
 30
0.0
 10
42.01008684751775
 20
-94.08474585251877
 30
0.0
 10
41.99783681684972
 20
-94.08381230435031
 30
0.0
 10
41.98558678618169
 20
-94.08287875618311
 30
0.0
 10
41.96600285393385
 20
-94.0820205595295
 30
0.0
 10
41.94485580454843
 20
-94.08134588708653
 30
0.0
 10
41.92370875516333
 20
-94.08067121464357
 30
0.0
 10
41.90057716178094
 20
-94.08013294769183
 30
0.0
 10
41.87752351931877
 20
-94.07967876912854
 30
0.0
 10
41.85446987685629
 20
-94.07922459056525
 30
0.0
 10
41.83117657792094
 20
-94.0788491829962
 30
0.0
 10
41.80775109799678
 20
-94.07851572006691
 30
0.0
  0
SPLINE
  5
198
330
70
100
AcDbEntity
  8
0
 62
   144
420
    29337
370
    18
100
AcDbSpline
210
0.0
220
0.0
230
1.0
 70
     8
 71
     3
 72
     8
 73
     4
 74
     0
 42
0.0000000001
 43
0.0000000001
 40
0.0
 40
0.0
 40
0.0
 40
0.0
 40
1.0
 40
1.0
 40
1.0
 40
1.0
 10
41.48701005803721
 20
-94.07374398098127
 30
0.0
 10
41.59392270575458
 20
-94.07540320387855
 30
0.0
 10
41.70083640777288
 20
-94.07699378391772
 30
0.0
 10
41.80775109793645
 20
-94.07851572011441
 30
0.0
  0
LINE
  5
199
330
70
100
AcDbEntity
  8
0
 62
   144
420
    29337
370
    18
100
AcDbLine
 10
41.48701005011126
 20
-94.07374419460673
 30
0.0
 11
41.48701005011126
 21
-94.08525720420639
 31
0.0
  0
SPLINE
  5
19A
330
70
100
AcDbEntity
  8
0
 62
   144
420
    29337
370
    18
100
AcDbSpline
210
0.0
220
0.0
230
1.0
 70
     8
 71
     3
 72
     8
 73
     4
 74
     0
 42
0.0000000001
 43
0.0000000001
 40
0.0
 40
0.0
 40
0.0
 40
0.0
 40
1.0
 40
1.0
 40
1.0
 40
1.0
 10
41.48701005792107
 20
-94.08525634925792
 30
0.0
 10
41.59392270585724
 20
-94.08691549568908
 30
0.0
 10
41.70083640795094
 20
-94.08850600242312
 30
0.0
 10
41.80775109814501
 20
-94.09002786847954
 30
0.0
  0
SPLINE
  5
19B
330
70
100
AcDbEntity
  8
0
 62
   144
420
    29337
370
    18
100
AcDbSpline
210
0.0
220
0.0
230
1.0
 70
     8
 71
     3
 72
    17
 73
    13
 74
     0
 42
0.0000000001
 43
0.0000000001
 40
0.0
 40
0.0
 40
0.0
 40
0.0
 40
1.0
 40
1.0
 40
1.0
 40
2.0
 40
2.0
 40
2.0
 40
3.0
 40
3.0
 40
3.0
 40
4.0
 40
4.0
 40
4.0
 40
4.0
 10
41.80775109799678
 20
-94.09002786842947
 30
0.0
 10
41.83326135118879
 20
-94.09039099147895
 30
0.0
 10
41.85869207551239
 20
-94.09070577671172
 30
0.0
 10
41.88391751661099
 20
-94.09090198385491
 30
0.0
 10
41.90914295770927
 20
-94.09109819099811
 30
0.0
 10
41.93411761154284
 20
-94.09117402907481
 30
0.0
 10
41.95565608705395
 20
-94.09095179951732
 30
0.0
 10
41.97719456256474
 20
-94.09072956995983
 30
0.0
 10
41.99394547636607
 20
-94.09015796830232
 30
0.0
 10
42.00311660530116
 20
-94.08937017830517
 30
0.0
 10
42.01228773423624
 20
-94.08858238830804
 30
0.0
 10
42.01507986799666
 20
-94.0876321453932
 30
0.0
 10
42.01507986799666
 20
-94.08664440087292
 30
0.0
  0
SPLINE
  5
19C
330
70
100
AcDbEntity
  8
0
 62
   144
420
    29337
370
    18
100
AcDbSpline
210
0.0
220
0.0
230
1.0
 70
     8
 71
     3
 72
    17
 73
    13
 74
     0
 42
0.0000000001
 43
0.0000000001
 40
0.0
 40
0.0
 40
0.0
 40
0.0
 40
1.0
 40
1.0
 40
1.0
 40
2.0
 40
2.0
 40
2.0
 40
3.0
 40
3.0
 40
3.0
 40
4.0
 40
4.0
 40
4.0
 40
4.0
 10
41.84376321799677
 20
-94.11736591167326
 30
0.0
 10
41.87273404718498
 20
-94.11777407263162
 30
0.0
 10
41.90149362804802
 20
-94.11811021226471
 30
0.0
 10
41.92983363325396
 20
-94.1183083595259
 30
0.0
 10
41.95817363845988
 20
-94.11850650678712
 30
0.0
 10
41.98626593552752
 20
-94.11856438623729
 30
0.0
 10
42.01065703205832
 20
-94.11833300499267
 30
0.0
 10
42.03504812858878
 20
-94.11810162374807
 30
0.0
 10
42.05444440352652
 20
-94.11755516096745
 30
0.0
 10
42.06595175333842
 20
-94.11676506618114
 30
0.0
 10
42.07745910315032
 20
-94.11597497139485
 30
0.0
 10
42.08153388799672
 20
-94.11499242446611
 30
0.0
 10
42.08153388799672
 20
-94.11395271886151
 30
0.0
  0
SPLINE
  5
19D
330
70
100
AcDbEntity
  8
0
 62
   144
420
    29337
370
    18
100
AcDbSpline
210
0.0
220
0.0
230
1.0
 70
     8
 71
     3
 72
     8
 73
     4
 74
     0
 42
0.0000000001
 43
0.0000000001
 40
0.0
 40
0.0
 40
0.0
 40
0.0
 40
1.0
 40
1.0
 40
1.0
 40
1.0
 10
41.4870100581662
 20
-94.1120849453088
 30
0.0
 10
41.60592650600523
 20
-94.11393017704718
 30
0.0
 10
41.72484425622026
 20
-94.11569049963325
 30
0.0
 10
41.84376321787548
 20
-94.11736591171946
 30
0.0
  0
LINE
  5
19E
330
70
100
AcDbEntity
  8
0
 62
   144
420
    29337
370
    18
100
AcDbLine
 10
41.48701005011126
 20
-94.0989401955073
 30
0.0
 11
41.48701005011126
 21
-94.11208488230679
 31
0.0
  0
SPLINE
  5
19F
330
70
100
AcDbEntity
  8
0
 62
   144
420
    29337
370
    18
100
AcDbSpline
210
0.0
220
0.0
230
1.0
 70
     8
 71
     3
 72
     8
 73
     4
 74
     0
 42
0.0000000001
 43
0.0000000001
 40
0.0
 40
0.0
 40
0.0
 40
0.0
 40
1.0
 40
1.0
 40
1.0
 40
1.0
 10
41.48701005818608
 20
-94.098941010981
 30
0.0
 10
41.61420609117398
 20
-94.10091482125599
 30
0.0
 10
41.74140361316193
 20
-94.10279148199775
 30
0.0
 10
41.86860251284499
 20
-94.10457099156348
 30
0.0
  0
SPLINE
  5
1A0
330
70
100
AcDbEntity
  8
0
 62
   144
420
    29337
370
    18
100
AcDbSpline
210
0.0
220
0.0
230
1.0
 70
     8
 71
     3
 72
    17
 73
    13
 74
     0
 42
0.0000000001
 43
0.0000000001
 40
0.0
 40
0.0
 40
0.0
 40
0.0
 40
1.0
 40
1.0
 40
1.0
 40
2.0
 40
2.0
 40
2.0
 40
3.0
 40
3.0
 40
3.0
 40
4.0
 40
4.0
 40
4.0
 40
4.0
 10
42.08153388799672
 20
-94.11395271886151
 30
0.0
 10
42.08153388799672
 20
-94.1129984789163
 30
0.0
 10
42.07804590290219
 20
-94.11200133287495
 30
0.0
 10
42.06821726375565
 20
-94.11097724444619
 30
0.0
 10
42.05838862460879
 20
-94.10995315601743
 30
0.0
 10
42.04180896428256
 20
-94.1089400456552
 30
0.0
 10
42.02040867249286
 20
-94.10808020792558
 30
0.0
 10
41.99900838070316
 20
-94.10722037019597
 30
0.0
 10
41.97371798995094
 20
-94.10652193117776
 30
0.0
 10
41.94770485699183
 20
-94.10595292505556
 30
0.0
 10
41.9216917240324
 20
-94.10538391893336
 30
0.0
 10
41.89525931144766
 20
-94.10494391949063
 30
0.0
 10
41.86860251299676
 20
-94.10457099151727
 30
0.0
  0
SPLINE
  5
1A1
330
70
100
AcDbEntity
  8
0
 62
    18
420
        0
370
    25
100
AcDbSpline
210
0.0
220
0.0
230
1.0
 70
     8
 71
     3
 72
     8
 73
     4
 74
     0
 42
0.0000000001
 43
0.0000000001
 40
0.0
 40
0.0
 40
0.0
 40
0.0
 40
1.0
 40
1.0
 40
1.0
 40
1.0
 10
47.8739473731673
 20
-94.09963966605541
 30
0.0
 10
48.03540987522257
 20
-94.09801697898727
 30
0.0
 10
48.19687076610568
 20
-94.09623774901621
 30
0.0
 10
48.35832981811677
 20
-94.09430197864871
 30
0.0
  0
LINE
  5
1A2
330
70
100
AcDbEntity
  8
0
 62
   144
420
    29337
370
    18
100
AcDbLine
 10
47.87394739081113
 20
-94.09964055010622
 30
0.0
 11
47.87394739081113
 21
-94.0723602492072
 31
0.0
  0
LINE
  5
1A3
330
70
100
AcDbEntity
  8
0
 62
   144
420
    29337
370
    18
100
AcDbLine
 10
48.3583298916112
 20
-94.09430220910723
 30
0.0
 11
48.3583298916112
 21
-94.11554381440703
 31
0.0
  0
LINE
  5
1A4
330
70
100
AcDbEntity
  8
0
 62
   144
420
    29337
370
    18
100
AcDbLine
 10
47.87394739081113
 20
-94.12088029270645
 30
0.0
 11
47.87394739081113
 21
-94.09964055010622
 31
0.0
  0
SPLINE
  5
1A5
330
70
100
AcDbEntity
  8
0
 62
   144
420
    29337
370
    18
100
AcDbSpline
210
0.0
220
0.0
230
1.0
 70
     8
 71
     3
 72
     8
 73
     4
 74
     0
 42
0.0000000001
 43
0.0000000001
 40
0.0
 40
0.0
 40
0.0
 40
0.0
 40
1.0
 40
1.0
 40
1.0
 40
1.0
 10
47.87394737322119
 20
-94.12088086780995
 30
0.0
 10
48.03540987500151
 20
-94.11925831871222
 30
0.0
 10
48.19687076584932
 20
-94.11747924002172
 30
0.0
 10
48.35832981817227
 20
-94.11554363424491
 30
0.0
  0
LINE
  5
1A6
330
70
100
AcDbEntity
  8
0
 62
    18
420
        0
370
    25
100
AcDbLine
 10
50.36342967621106
 20
-100.4673668016072
 30
0.0
 11
50.36342967621106
 21
-101.237290242706
 31
0.0
  0
LINE
  5
1A7
330
70
100
AcDbEntity
  8
0
 62
    18
420
        0
370
    25
100
AcDbLine
 10
40.36342989971126
 20
-100.4673668016072
 30
0.0
 11
40.36342989971126
 21
-101.237290242706
 31
0.0
  0
SPLINE
  5
1A8
330
70
100
AcDbEntity
  8
0
 62
    18
420
        0
370
    25
100
AcDbSpline
210
0.0
220
0.0
230
1.0
 70
     8
 71
     3
 72
    77
 73
    73
 74
     0
 42
0.0000000001
 43
0.0000000001
 40
0.0
 40
0.0
 40
0.0
 40
0.0
 40
1.0
 40
1.0
 40
1.0
 40
2.0
 40
2.0
 40
2.0
 40
3.0
 40
3.0
 40
3.0
 40
4.0
 40
4.0
 40
4.0
 40
5.0
 40
5.0
 40
5.0
 40
6.0
 40
6.0
 40
6.0
 40
7.0
 40
7.0
 40
7.0
 40
8.0
 40
8.0
 40
8.0
 40
9.0
 40
9.0
 40
9.0
 40
10.0
 40
10.0
 40
10.0
 40
11.0
 40
11.0
 40
11.0
 40
12.0
 40
12.0
 40
12.0
 40
13.0
 40
13.0
 40
13.0
 40
14.0
 40
14.0
 40
14.0
 40
15.0
 40
15.0
 40
15.0
 40
16.0
 40
16.0
 40
16.0
 40
17.0
 40
17.0
 40
17.0
 40
18.0
 40
18.0
 40
18.0
 40
19.0
 40
19.0
 40
19.0
 40
20.0
 40
20.0
 40
20.0
 40
21.0
 40
21.0
 40
21.0
 40
22.0
 40
22.0
 40
22.0
 40
23.0
 40
23.0
 40
23.0
 40
24.0
 40
24.0
 40
24.0
 40
24.0
 10
50.36342978799662
 20
-100.4673662548
 30
0.0
 10
50.36342978799662
 20
-100.4673662548
 30
0.0
 10
50.33081252929246
 20
-100.4598602250638
 30
0.0
 10
50.26701294147359
 20
-100.4456134810754
 30
0.0
 10
50.23511314756415
 20
-100.4384901090819
 30
0.0
 10
50.1953589041874
 20
-100.429681047096
 30
0.0
 10
50.14757983224287
 20
-100.419284089076
 30
0.0
 10
50.09980076029833
 20
-100.408887131056
 30
0.0
 10
50.04380493220589
 20
-100.3968648572003
 30
0.0
 10
49.98099764304665
 20
-100.3836948905696
 30
0.0
 10
49.8553830647285
 20
-100.3573549573095
 30
0.0
 10
49.70179988726883
 20
-100.326222235065
 30
0.0
 10
49.52046225132415
 20
-100.2921319473565
 30
0.0
 10
49.42979343335181
 20
-100.2750868035017
 30
0.0
 10
49.33159000200557
 20
-100.2572069640975
 30
0.0
 10
49.22750057506299
 20
-100.2390614226903
 30
0.0
 10
49.1234111481204
 20
-100.2209158812818
 30
0.0
 10
49.01385449645144
 20
-100.2025716222789
 30
0.0
 10
48.89896356599155
 20
-100.1842911596355
 30
0.0
 10
48.6691817050718
 20
-100.147730234346
 30
0.0
 10
48.41822364922393
 20
-100.1114164986917
 30
0.0
 10
48.14520193823071
 20
-100.0774006710703
 30
0.0
 10
48.00869108273409
 20
-100.060392757259
 30
0.0
 10
47.86740780418984
 20
-100.0440745507399
 30
0.0
 10
47.72353414172723
 20
-100.028899420622
 30
0.0
 10
47.57966047926462
 20
-100.013724290504
 30
0.0
 10
47.43258405579928
 20
-99.99961385198014
 30
0.0
 10
47.28231880495922
 20
-99.98675177631918
 30
0.0
 10
47.13205355411917
 20
-99.97388970065824
 30
0.0
 10
46.97859966927398
 20
-99.96227532846951
 30
0.0
 10
46.82187886447592
 20
-99.95209528344707
 30
0.0
 10
46.66515805967787
 20
-99.94191523842461
 30
0.0
 10
46.504212024686
 20
-99.93313442839914
 30
0.0
 10
46.34276686766688
 20
-99.92610068562782
 30
0.0
 10
46.01987655362832
 20
-99.91203320008645
 30
0.0
 10
45.69482573461098
 20
-99.90483898484368
 30
0.0
 10
45.36764993607665
 20
-99.90477761905031
 30
0.0
 10
45.04047413754231
 20
-99.90471625325696
 30
0.0
 10
44.70802585090022
 20
-99.91202974733752
 30
0.0
 10
44.38701353703144
 20
-99.92597362289215
 30
0.0
 10
44.06600122316265
 20
-99.93991749844679
 30
0.0
 10
43.75382628493502
 20
-99.96036036003028
 30
0.0
 10
43.4505081027857
 20
-99.98624179773914
 30
0.0
 10
43.29884901171089
 20
-99.99918251659359
 30
0.0
 10
43.14911066797431
 20
-100.0135324727439
 30
0.0
 10
43.00482163734812
 20
-100.0287416586038
 30
0.0
 10
42.86053260672225
 20
-100.0439508444624
 30
0.0
 10
42.72087089302138
 20
-100.0600814355043
 30
0.0
 10
42.58572399068675
 20
-100.0768944194051
 30
0.0
 10
42.45057708835246
 20
-100.0937074033046
 30
0.0
 10
42.31994527482268
 20
-100.1112036237291
 30
0.0
 10
42.19385043718493
 20
-100.1291455433725
 30
0.0
 10
42.06775559954719
 20
-100.1470874630159
 30
0.0
 10
41.94565271993649
 20
-100.1655638584198
 30
0.0
 10
41.82959030201679
 20
-100.1840216446028
 30
0.0
 10
41.5974654661774
 20
-100.2209372169676
 30
0.0
 10
41.39127901644886
 20
-100.2574080410216
 30
0.0
 10
41.21020746836571
 20
-100.2914160051449
 30
0.0
 10
41.11967169432398
 20
-100.3084199872072
 30
0.0
 10
41.03546204085881
 20
-100.3248095502538
 30
0.0
 10
40.9577665525447
 20
-100.3403231974998
 30
0.0
 10
40.88007106423028
 20
-100.3558368447458
 30
0.0
 10
40.80926291226027
 20
-100.3704023946812
 30
0.0
 10
40.7465176725968
 20
-100.3835573996945
 30
0.0
 10
40.62102719326957
 20
-100.4098674097224
 30
0.0
 10
40.52588356954424
 20
-100.4308717480678
 30
0.0
 10
40.46132688563871
 20
-100.4452829865111
 30
0.0
 10
40.42904854368578
 20
-100.4524886057328
 30
0.0
 10
40.4044216784331
 20
-100.4580571736124
 30
0.0
 10
40.38803381844863
 20
-100.4617729862534
 30
0.0
 10
40.37164595846418
 20
-100.4654887988931
 30
0.0
 10
40.3634297879966
 20
-100.4673662548
 30
0.0
 10
40.3634297879966
 20
-100.4673662548
 30
0.0
  0
SPLINE
  5
1A9
330
70
100
AcDbEntity
  8
0
 62
   144
420
    29337
370
    18
100
AcDbSpline
210
0.0
220
0.0
230
1.0
 70
     8
 71
     3
 72
    77
 73
    73
 74
     0
 42
0.0000000001
 43
0.0000000001
 40
0.0
 40
0.0
 40
0.0
 40
0.0
 40
1.0
 40
1.0
 40
1.0
 40
2.0
 40
2.0
 40
2.0
 40
3.0
 40
3.0
 40
3.0
 40
4.0
 40
4.0
 40
4.0
 40
5.0
 40
5.0
 40
5.0
 40
6.0
 40
6.0
 40
6.0
 40
7.0
 40
7.0
 40
7.0
 40
8.0
 40
8.0
 40
8.0
 40
9.0
 40
9.0
 40
9.0
 40
10.0
 40
10.0
 40
10.0
 40
11.0
 40
11.0
 40
11.0
 40
12.0
 40
12.0
 40
12.0
 40
13.0
 40
13.0
 40
13.0
 40
14.0
 40
14.0
 40
14.0
 40
15.0
 40
15.0
 40
15.0
 40
16.0
 40
16.0
 40
16.0
 40
17.0
 40
17.0
 40
17.0
 40
18.0
 40
18.0
 40
18.0
 40
19.0
 40
19.0
 40
19.0
 40
20.0
 40
20.0
 40
20.0
 40
21.0
 40
21.0
 40
21.0
 40
22.0
 40
22.0
 40
22.0
 40
23.0
 40
23.0
 40
23.0
 40
24.0
 40
24.0
 40
24.0
 40
24.0
 10
40.3634297879966
 20
-101.2372903625305
 30
0.0
 10
40.3634297879966
 20
-101.2372903625305
 30
0.0
 10
40.39606221508063
 20
-101.22950743188
 30
0.0
 10
40.45988402314786
 20
-101.2147385510168
 30
0.0
 10
40.49179492718162
 20
-101.2073541105839
 30
0.0
 10
40.53156212507591
 20
-101.1982226890014
 30
0.0
 10
40.57935539280563
 20
-101.1874462841338
 30
0.0
 10
40.62714866053537
 20
-101.1766698792662
 30
0.0
 10
40.68315365783586
 20
-101.1642111536497
 30
0.0
 10
40.74596608254107
 20
-101.1505651953368
 30
0.0
 10
40.87159093195115
 20
-101.1232732787085
 30
0.0
 10
41.02517551078912
 20
-101.0910216145205
 30
0.0
 10
41.20650859281325
 20
-101.0557138673149
 30
0.0
 10
41.29717513382531
 20
-101.0380599937122
 30
0.0
 10
41.39538211240011
 20
-101.0195421655262
 30
0.0
 10
41.49943955204416
 20
-101.0007570528432
 30
0.0
 10
41.60349699168821
 20
-100.9819719401615
 30
0.0
 10
41.71302147094707
 20
-100.9629822820235
 30
0.0
 10
41.82788273847132
 20
-100.9440594566121
 30
0.0
 10
42.05760527351951
 20
-100.9062138057892
 30
0.0
 10
42.30851328049517
 20
-100.8686271876398
 30
0.0
 10
42.58152174541041
 20
-100.833419184376
 30
0.0
 10
42.71802597786804
 20
-100.8158151827447
 30
0.0
 10
42.85925007891242
 20
-100.7989326090947
 30
0.0
 10
43.00309349986238
 20
-100.7832298085617
 30
0.0
 10
43.146936920812
 20
-100.7675270080286
 30
0.0
 10
43.29399315412893
 20
-100.752925420401
 30
0.0
 10
43.44425063261364
 20
-100.7396150644241
 30
0.0
 10
43.59450811109868
 20
-100.7263047084459
 30
0.0
 10
43.74796662453444
 20
-100.7142848963414
 30
0.0
 10
43.90470721014046
 20
-100.7037489425543
 30
0.0
 10
44.06144779574679
 20
-100.6932129887684
 30
0.0
 10
44.22243013458941
 20
-100.6841248396254
 30
0.0
 10
44.383883537052
 20
-100.6768461404034
 30
0.0
 10
44.70679034197685
 20
-100.6622887419581
 30
0.0
 10
45.03189044130538
 20
-100.6548420491836
 30
0.0
 10
45.35914937805219
 20
-100.654777644473
 30
0.0
 10
45.68640831479899
 20
-100.6547132397637
 30
0.0
 10
46.01894218087243
 20
-100.6622824081871
 30
0.0
 10
46.33998591866617
 20
-100.6767115449077
 30
0.0
 10
46.66102965646023
 20
-100.6911406816296
 30
0.0
 10
46.97324439600019
 20
-100.7122958821409
 30
0.0
 10
47.27661243424858
 20
-100.7390847081058
 30
0.0
 10
47.42829645337262
 20
-100.7524791210883
 30
0.0
 10
47.57800597876726
 20
-100.7673279978568
 30
0.0
 10
47.72225930634593
 20
-100.7830653737681
 30
0.0
 10
47.8665126339246
 20
-100.7988027496781
 30
0.0
 10
48.00614611652061
 20
-100.8154948766902
 30
0.0
 10
48.1412722078216
 20
-100.8328952587728
 30
0.0
 10
48.27639829912291
 20
-100.8502956408566
 30
0.0
 10
48.40701673238709
 20
-100.8684051542497
 30
0.0
 10
48.53310562456709
 20
-100.8869786581142
 30
0.0
 10
48.65919451674677
 20
-100.9055521619787
 30
0.0
 10
48.78132088377405
 20
-100.9246854675653
 30
0.0
 10
48.89732306160798
 20
-100.9437870706628
 30
0.0
 10
49.12932741727552
 20
-100.9819902768579
 30
0.0
 10
49.3354639849704
 20
-101.0197480963388
 30
0.0
 10
49.51653245190673
 20
-101.054970707459
 30
0.0
 10
49.60706668537506
 20
-101.0725820130178
 30
0.0
 10
49.69128654994422
 20
-101.0895607405075
 30
0.0
 10
49.76900056121328
 20
-101.1056353118752
 30
0.0
 10
49.84671457248267
 20
-101.121709883243
 30
0.0
 10
49.91749013441298
 20
-101.1367929156624
 30
0.0
 10
49.98023099518252
 20
-101.1504212788315
 30
0.0
 10
50.10571271672159
 20
-101.1776780051696
 30
0.0
 10
50.20089209404588
 20
-101.1994511503887
 30
0.0
 10
50.26548424622145
 20
-101.2143935059281
 30
0.0
 10
50.29778032230892
 20
-101.2218646836984
 30
0.0
 10
50.32242367889901
 20
-101.2276394761913
 30
0.0
 10
50.3388166813784
 20
-101.2314915722249
 30
0.0
 10
50.35520968385778
 20
-101.2353436682597
 30
0.0
 10
50.36342978799662
 20
-101.2372903625305
 30
0.0
 10
50.36342978799662
 20
-101.2372903625305
 30
0.0
  0
CIRCLE
  5
1AA
330
70
100
AcDbEntity
  8
0
 62
    18
420
        0
370
    25
100
AcDbCircle
 10
45.36342978801121
 20
-115.9280207336067
 30
0.0
 40
4.807779859212887
  0
CIRCLE
  5
1AB
330
70
100
AcDbEntity
  8
0
 62
    18
420
        0
370
    25
100
AcDbCircle
 10
45.36342978801121
 20
-115.9280207336067
 30
0.0
 40
4.89816049180108
  0
SPLINE
  5
1AC
330
70
100
AcDbEntity
  8
0
 62
    18
420
        0
370
    25
100
AcDbSpline
210
0.0
220
0.0
230
1.0
 70
     8
 71
     3
 72
     8
 73
     4
 74
     0
 42
0.0000000001
 43
0.0000000001
 40
0.0
 40
0.0
 40
0.0
 40
0.0
 40
1.0
 40
1.0
 40
1.0
 40
1.0
 10
40.36342978801136
 20
-115.928020733607
 30
0.0
 10
40.36342978801136
 20
-118.1116088783972
 30
0.0
 10
41.78041945694742
 20
-120.0426402972556
 30
0.0
 10
43.86342978801308
 20
-120.6977167406921
 30
0.0
  0
SPLINE
  5
1AD
330
70
100
AcDbEntity
  8
0
 62
    18
420
        0
370
    25
100
AcDbSpline
210
0.0
220
0.0
230
1.0
 70
     8
 71
     3
 72
    14
 73
    10
 74
     0
 42
0.0000000001
 43
0.0000000001
 40
0.0
 40
0.0
 40
0.0
 40
0.0
 40
1.0
 40
1.0
 40
1.0
 40
2.0
 40
2.0
 40
2.0
 40
3.0
 40
3.0
 40
3.0
 40
3.0
 10
46.86342978800934
 20
-120.6977167406921
 30
0.0
 10
49.49766015405155
 20
-119.8692896159466
 30
0.0
 10
50.96155291984174
 20
-117.0622510996505
 30
0.0
 10
50.13312579509658
 20
-114.4280207336086
 30
0.0
 10
49.30469867035143
 20
-111.7937903675667
 30
0.0
 10
46.49766015405497
 20
-110.3298976017765
 30
0.0
 10
43.86342978801308
 20
-111.1583247265207
 30
0.0
 10
41.78041945694742
 20
-111.8134011699573
 30
0.0
 10
40.36342978801136
 20
-113.7444325888156
 30
0.0
 10
40.36342978801136
 20
-115.928020733607
 30
0.0
  0
SPLINE
  5
1AE
330
70
100
AcDbEntity
  8
0
 62
   144
420
    29337
370
    18
100
AcDbSpline
210
0.0
220
0.0
230
1.0
 70
     8
 71
     3
 72
    41
 73
    37
 74
     0
 42
0.0000000001
 43
0.0000000001
 40
0.0
 40
0.0
 40
0.0
 40
0.0
 40
1.0
 40
1.0
 40
1.0
 40
2.0
 40
2.0
 40
2.0
 40
3.0
 40
3.0
 40
3.0
 40
4.0
 40
4.0
 40
4.0
 40
5.0
 40
5.0
 40
5.0
 40
6.0
 40
6.0
 40
6.0
 40
7.0
 40
7.0
 40
7.0
 40
8.0
 40
8.0
 40
8.0
 40
9.0
 40
9.0
 40
9.0
 40
10.0
 40
10.0
 40
10.0
 40
11.0
 40
11.0
 40
11.0
 40
12.0
 40
12.0
 40
12.0
 40
12.0
 10
46.86342980103519
 20
-120.6213339995619
 30
0.0
 10
46.87174095518112
 20
-120.6184515923843
 30
0.0
 10
46.88005210932673
 20
-120.615569185208
 30
0.0
 10
46.88589597908741
 20
-120.6134633924846
 30
0.0
 10
46.91507292289808
 20
-120.6029497091732
 30
0.0
 10
46.88274666122779
 20
-120.6117950744596
 30
0.0
 10
46.83341245954816
 20
-120.6256781537108
 30
0.0
 10
46.78485062391667
 20
-120.6393438823488
 30
0.0
 10
46.71980922513927
 20
-120.6578908209011
 30
0.0
 10
46.63111289819663
 20
-120.6802699547287
 30
0.0
 10
46.53911631282373
 20
-120.7034817828478
 30
0.0
 10
46.42167172026306
 20
-120.7308162923897
 30
0.0
 10
46.28757361179173
 20
-120.7555971872091
 30
0.0
 10
46.14926418875815
 20
-120.7811563192792
 30
0.0
 10
45.99323882690827
 20
-120.8039989269567
 30
0.0
 10
45.82704804461403
 20
-120.8192405123294
 30
0.0
 10
45.66419423893271
 20
-120.8341760589838
 30
0.0
 10
45.49157914122981
 20
-120.8418127635694
 30
0.0
 10
45.31993672181008
 20
-120.8403466101765
 30
0.0
 10
45.15461273338016
 20
-120.8389344282263
 30
0.0
 10
44.99019112962762
 20
-120.8290772344922
 30
0.0
 10
44.83594620224034
 20
-120.812958741564
 30
0.0
 10
44.6813268227521
 20
-120.7968011186382
 30
0.0
 10
44.53693359034299
 20
-120.7743517591786
 30
0.0
 10
44.40871221568394
 20
-120.7498565148591
 30
0.0
 10
44.27562568421669
 20
-120.7244318373227
 30
0.0
 10
44.15996152418134
 20
-120.6968030737434
 30
0.0
 10
44.07106115804931
 20
-120.673961175608
 30
0.0
 10
43.98055795399644
 20
-120.6507074472175
 30
0.0
 10
43.91779232478203
 20
-120.6324147508462
 30
0.0
 10
43.87414429193341
 20
-120.6203067507628
 30
0.0
 10
43.83196145085057
 20
-120.6086051960745
 30
0.0
 10
43.80763425673502
 20
-120.6026800868882
 30
0.0
 10
43.84869275936821
 20
-120.6167816948171
 30
0.0
 10
43.85310232024334
 20
-120.6182961655025
 30
0.0
 10
43.85826604760069
 20
-120.6200416267483
 30
0.0
 10
43.86342977495836
 20
-120.6217870879953
 30
0.0
  0
LINE
  5
1AF
330
70
100
AcDbEntity
  8
0
 62
    18
420
        0
370
    25
100
AcDbLine
 10
58.11342954961133
 20
-90.83818800930705
 30
0.0
 11
32.6134300264111
 21
-90.83818800930705
 31
0.0
  0
LINE
  5
1B0
330
70
100
AcDbEntity
  8
0
 62
    18
420
        0
370
    25
100
AcDbLine
 10
46.86342980101112
 20
-140.1530203242066
 30
0.0
 11
43.8634297749112
 21
-140.1530203242066
 31
0.0
  0
SPLINE
  5
1B1
330
70
100
AcDbEntity
  8
0
 62
     8
420
  8421504
370
    25
100
AcDbSpline
210
0.0
220
0.0
230
1.0
 70
     8
 71
     3
 72
    14
 73
    10
 74
     0
 42
0.0000000001
 43
0.0000000001
 40
0.0
 40
0.0
 40
0.0
 40
0.0
 40
1.0
 40
1.0
 40
1.0
 40
2.0
 40
2.0
 40
2.0
 40
3.0
 40
3.0
 40
3.0
 40
3.0
 10
60.62136629594771
 20
-116.1981873978065
 30
0.0
 10
60.62136629594771
 20
-107.7714617505872
 30
0.0
 10
53.79015543523117
 20
-100.9402508898696
 30
0.0
 10
45.36342978801121
 20
-100.9402508898696
 30
0.0
 10
36.93670414079126
 20
-100.9402508898696
 30
0.0
 10
30.10549328007471
 20
-107.7714617505872
 30
0.0
 10
30.10549328007471
 20
-116.1981873978065
 30
0.0
 10
30.10549328007471
 20
-124.043985124076
 30
0.0
 10
36.05563797600507
 20
-130.6108963737796
 30
0.0
 10
43.86342978801116
 20
-131.3822127692358
 30
0.0
  0
SPLINE
  5
1B2
330
70
100
AcDbEntity
  8
0
 62
     8
420
  8421504
370
    25
100
AcDbSpline
210
0.0
220
0.0
230
1.0
 70
     8
 71
     3
 72
     8
 73
     4
 74
     0
 42
0.0000000001
 43
0.0000000001
 40
0.0
 40
0.0
 40
0.0
 40
0.0
 40
1.0
 40
1.0
 40
1.0
 40
1.0
 10
46.86342978801127
 20
-131.3822127692358
 30
0.0
 10
54.67122160001735
 20
-130.6108963737796
 30
0.0
 10
60.62136629594771
 20
-124.043985124076
 30
0.0
 10
60.62136629594771
 20
-116.1981873978065
 30
0.0
  0
SPLINE
  5
1B3
330
70
100
AcDbEntity
  8
0
 62
     8
420
  8421504
370
    25
100
AcDbSpline
210
0.0
220
0.0
230
1.0
 70
     8
 71
     3
 72
    11
 73
     7
 74
     0
 42
0.0000000001
 43
0.0000000001
 40
0.0
 40
0.0
 40
0.0
 40
0.0
 40
1.0
 40
1.0
 40
1.0
 40
2.0
 40
2.0
 40
2.0
 40
2.0
 10
44.59808277399548
 20
-108.5151667875893
 30
0.0
 10
40.50407658688697
 20
-108.9378562717585
 30
0.0
 10
37.52788635782413
 20
-112.5993615605139
 30
0.0
 10
37.95057584199374
 20
-116.6933677476228
 30
0.0
 10
38.28457500257734
 20
-119.9283539044351
 30
0.0
 10
40.67780813890339
 20
-122.5731543148298
 30
0.0
 10
43.86342978801436
 20
-123.2277576930359
 30
0.0
  0
SPLINE
  5
1B4
330
70
100
AcDbEntity
  8
0
 62
     8
420
  8421504
370
    25
100
AcDbSpline
210
0.0
220
0.0
230
1.0
 70
     8
 71
     3
 72
    11
 73
     7
 74
     0
 42
0.0000000001
 43
0.0000000001
 40
0.0
 40
0.0
 40
0.0
 40
0.0
 40
1.0
 40
1.0
 40
1.0
 40
2.0
 40
2.0
 40
2.0
 40
2.0
 10
46.86342978800805
 20
-123.2277576930359
 30
0.0
 10
50.89496318847725
 20
-122.3993305682917
 30
0.0
 10
53.49159387218522
 20
-118.4595541340784
 30
0.0
 10
52.66316674744071
 20
-114.4280207336099
 30
0.0
 10
51.89260602362284
 20
-110.678093670177
 30
0.0
 10
48.40611884213609
 20
-108.1220025548604
 30
0.0
 10
44.59808277399548
 20
-108.5151667875893
 30
0.0
  0
SPLINE
  5
1B5
330
70
100
AcDbEntity
  8
0
 62
     8
420
  8421504
370
    25
100
AcDbSpline
210
0.0
220
0.0
230
1.0
 70
     8
 71
     3
 72
    17
 73
    13
 74
     0
 42
0.0000000001
 43
0.0000000001
 40
0.0
 40
0.0
 40
0.0
 40
0.0
 40
1.0
 40
1.0
 40
1.0
 40
2.0
 40
2.0
 40
2.0
 40
3.0
 40
3.0
 40
3.0
 40
4.0
 40
4.0
 40
4.0
 40
4.0
 10
46.86342978801319
 20
-123.4701533389908
 30
0.0
 10
51.02883460716855
 20
-122.6417262142428
 30
0.0
 10
53.73398951814235
 20
-118.5934255527601
 30
0.0
 10
52.90556239339496
 20
-114.4280207336047
 30
0.0
 10
52.07713526864756
 20
-110.2626159144494
 30
0.0
 10
48.02883460716427
 20
-107.5574610034753
 30
0.0
 10
43.86342978800891
 20
-108.3858881282233
 30
0.0
 10
39.69802496885388
 20
-109.21431525297
 30
0.0
 10
36.99287005788008
 20
-113.262615914454
 30
0.0
 10
37.82129718262747
 20
-117.4280207336094
 30
0.0
 10
38.42802167215495
 20
-120.4786851035713
 30
0.0
 10
40.81276541804665
 20
-122.863428849463
 30
0.0
 10
43.86342978800891
 20
-123.4701533389908
 30
0.0
  0
LINE
  5
1B6
330
70
100
AcDbEntity
  8
0
 62
     8
420
  8421504
370
    25
100
AcDbLine
 10
31.61342986251118
 20
-93.44311215170611
 30
0.0
 11
59.11342971351125
 21
-93.44311215170611
 31
0.0
  0
LINE
  5
1B7
330
70
100
AcDbEntity
  8
0
 62
     8
420
  8421504
370
    25
100
AcDbLine
 10
58.63998256941119
 20
-93.94240722250692
 30
0.0
 11
32.08687700651113
 21
-93.94240722250692
 31
0.0
  0
INSERT
  5
1B9
330
70
100
AcDbEntity
  8
0
100
AcDbBlockReference
  2
Block_2
 10
0.0
 20
0.0
 30
0.0
  0
INSERT
  5
1C5
330
70
100
AcDbEntity
  8
0
100
AcDbBlockReference
  2
Block_3
 10
0.0
 20
0.0
 30
0.0
  0
SPLINE
  5
1D1
330
70
100
AcDbEntity
  8
0
 62
    18
420
        0
370
    25
100
AcDbSpline
210
0.0
220
0.0
230
1.0
 70
     8
 71
     3
 72
    35
 73
    31
 74
     0
 42
0.0000000001
 43
0.0000000001
 40
0.0
 40
0.0
 40
0.0
 40
0.0
 40
1.0
 40
1.0
 40
1.0
 40
2.0
 40
2.0
 40
2.0
 40
3.0
 40
3.0
 40
3.0
 40
4.0
 40
4.0
 40
4.0
 40
5.0
 40
5.0
 40
5.0
 40
6.0
 40
6.0
 40
6.0
 40
7.0
 40
7.0
 40
7.0
 40
8.0
 40
8.0
 40
8.0
 40
9.0
 40
9.0
 40
9.0
 40
10.0
 40
10.0
 40
10.0
 40
10.0
 10
174.4339383381755
 20
-82.15165006434993
 30
0.0
 10
174.3954229066488
 20
-82.08527752613436
 30
0.0
 10
174.3569074751221
 20
-82.01890498791877
 30
0.0
 10
174.3157674653018
 20
-81.95317310687363
 30
0.0
 10
174.1733705211824
 20
-81.7256568998335
 30
0.0
 10
173.9995299896334
 20
-81.50581604384351
 30
0.0
 10
173.8153493718533
 20
-81.28951070038386
 30
0.0
 10
173.6306375699748
 20
-81.07258152386153
 30
0.0
 10
173.4355259534336
 20
-80.85920828238938
 30
0.0
 10
173.2251647472495
 20
-80.65128648934827
 30
0.0
 10
173.0143558280794
 20
-80.44292217513735
 30
0.0
 10
172.7882323386084
 20
-80.24003253874973
 30
0.0
 10
172.5490206372905
 20
-80.04284480202924
 30
0.0
 10
172.3094831736358
 20
-79.84538853188181
 30
0.0
 10
172.0568218263869
 20
-79.65364970185452
 30
0.0
 10
171.7914311999438
 20
-79.46829247362574
 30
0.0
 10
171.5258470018796
 20
-79.28280004883974
 30
0.0
 10
171.2475149487886
 20
-79.10369853852241
 30
0.0
 10
170.9574925304343
 20
-78.93141235807153
 30
0.0
 10
170.6673910433175
 20
-78.75907920726845
 30
0.0
 10
170.3655928157832
 20
-78.59356510296283
 30
0.0
 10
170.0527730238777
 20
-78.43564252325659
 30
0.0
 10
169.7399809153964
 20
-78.27773391913042
 30
0.0
 10
169.4161691931941
 20
-78.12741549601675
 30
0.0
 10
169.0833073454809
 20
-77.98410960044961
 30
0.0
 10
168.7505199208391
 20
-77.84083574599872
 30
0.0
 10
168.4086864171872
 20
-77.70457128364377
 30
0.0
 10
168.0553908205989
 20
-77.57956302690246
 30
0.0
 10
167.7445573945539
 20
-77.46957936137683
 30
0.0
 10
167.42485153186
 20
-77.36830876175783
 30
0.0
 10
167.1051456691668
 20
-77.26703816214012
 30
0.0
  0
SPLINE
  5
1D2
330
70
100
AcDbEntity
  8
0
 62
    18
420
        0
370
    25
100
AcDbSpline
210
0.0
220
0.0
230
1.0
 70
     8
 71
     3
 72
    38
 73
    34
 74
     0
 42
0.0000000001
 43
0.0000000001
 40
0.0
 40
0.0
 40
0.0
 40
0.0
 40
1.0
 40
1.0
 40
1.0
 40
2.0
 40
2.0
 40
2.0
 40
3.0
 40
3.0
 40
3.0
 40
4.0
 40
4.0
 40
4.0
 40
5.0
 40
5.0
 40
5.0
 40
6.0
 40
6.0
 40
6.0
 40
7.0
 40
7.0
 40
7.0
 40
8.0
 40
8.0
 40
8.0
 40
9.0
 40
9.0
 40
9.0
 40
10.0
 40
10.0
 40
10.0
 40
11.0
 40
11.0
 40
11.0
 40
11.0
 10
153.1791008758473
 20
-77.12670102009311
 30
0.0
 10
153.0071546796916
 20
-77.17308595181052
 30
0.0
 10
152.8352084835353
 20
-77.21947088352663
 30
0.0
 10
152.6660604598146
 20
-77.269086754458
 30
0.0
 10
152.2970272967657
 20
-77.37733455649825
 30
0.0
 10
151.9413131272882
 20
-77.50096127446811
 30
0.0
 10
151.5929404520875
 20
-77.63092967331785
 30
0.0
 10
151.2444376454326
 20
-77.76094662068615
 30
0.0
 10
150.9032818187766
 20
-77.89730998757374
 30
0.0
 10
150.5724564251589
 20
-78.0419268398859
 30
0.0
 10
150.2414993555759
 20
-78.1866012529664
 30
0.0
 10
149.9208809441587
 20
-78.33953572292395
 30
0.0
 10
149.6111131935646
 20
-78.49965115474571
 30
0.0
 10
149.3012249359555
 20
-78.65982887527419
 30
0.0
 10
149.0021957831414
 20
-78.82719314588242
 30
0.0
 10
148.7150808665958
 20
-79.00140864480454
 30
0.0
 10
148.4278724440192
 20
-79.17568088128622
 30
0.0
 10
148.1525860193015
 20
-79.35680880935018
 30
0.0
 10
147.8901703175128
 20
-79.54424316846441
 30
0.0
 10
147.6277112226618
 20
-79.73170852172568
 30
0.0
 10
147.3781271076962
 20
-79.92548239187225
 30
0.0
 10
147.1418285737374
 20
-80.12492657854521
 30
0.0
 10
146.9055816875574
 20
-80.32432717269399
 30
0.0
 10
146.6826145753583
 20
-80.52939560491699
 30
0.0
 10
146.4751714559606
 20
-80.73988061958777
 30
0.0
 10
146.2678776713246
 20
-80.95021410968985
 30
0.0
 10
146.0760855366204
 20
-81.16595638643703
 30
0.0
 10
145.8948343766568
 20
-81.38522026345608
 30
0.0
 10
145.7138394552847
 20
-81.60417416250245
 30
0.0
 10
145.5433557257242
 20
-81.82663971173935
 30
0.0
 10
145.4049510197027
 20
-82.05667277321813
 30
0.0
 10
145.365235871049
 20
-82.12268062435706
 30
0.0
 10
145.3281621080246
 20
-82.18931158417801
 30
0.0
 10
145.2910883450002
 20
-82.25594254399892
 30
0.0
  0
LINE
  5
1D3
330
70
100
AcDbEntity
  8
0
 62
    18
420
        0
370
    25
100
AcDbLine
 10
175.3945805903113
 20
-85.57476550410713
 30
0.0
 11
175.3945805903113
 21
-85.2825455658062
 31
0.0
  0
LINE
  5
1D4
330
70
100
AcDbEntity
  8
0
 62
    18
420
        0
370
    25
100
AcDbLine
 10
144.3945804254109
 20
-85.2825455658062
 30
0.0
 11
144.3945804254109
 21
-85.57476550410713
 31
0.0
  0
SPLINE
  5
1D5
330
70
100
AcDbEntity
  8
0
 62
    18
420
        0
370
    25
100
AcDbSpline
210
0.0
220
0.0
230
1.0
 70
     8
 71
     3
 72
    23
 73
    19
 74
     0
 42
0.0000000001
 43
0.0000000001
 40
0.0
 40
0.0
 40
0.0
 40
0.0
 40
1.0
 40
1.0
 40
1.0
 40
2.0
 40
2.0
 40
2.0
 40
3.0
 40
3.0
 40
3.0
 40
4.0
 40
4.0
 40
4.0
 40
5.0
 40
5.0
 40
5.0
 40
6.0
 40
6.0
 40
6.0
 40
6.0
 10
167.2396400493959
 20
-77.46673663492351
 30
0.0
 10
167.1805552128816
 20
-77.37426731881742
 30
0.0
 10
167.1214703763679
 20
-77.28179800271131
 30
0.0
 10
167.0544568398424
 20
-77.19177629033634
 30
0.0
 10
166.9366878015529
 20
-77.0335728729167
 30
0.0
 10
166.7944315610249
 20
-76.88292869818006
 30
0.0
 10
166.6411467333709
 20
-76.73701897994196
 30
0.0
 10
166.4868111268581
 20
-76.59010903976671
 30
0.0
 10
166.3212952113993
 20
-76.44799868867213
 30
0.0
 10
166.1419094925434
 20
-76.31273540250314
 30
0.0
 10
165.9618110290537
 20
-76.17693468123613
 30
0.0
 10
165.7677323267647
 20
-76.04803554321519
 30
0.0
 10
165.5634898684725
 20
-75.92502067180245
 30
0.0
 10
165.3589160368117
 20
-75.80180621479735
 30
0.0
 10
165.1441454420024
 20
-75.68449513375637
 30
0.0
 10
164.9139973634447
 20
-75.57919868392017
 30
0.0
 10
164.7565745160834
 20
-75.50717519776256
 30
0.0
 10
164.5919570779456
 20
-75.44077294042513
 30
0.0
 10
164.4273396398083
 20
-75.37437068308772
 30
0.0
  0
SPLINE
  5
1D6
330
70
100
AcDbEntity
  8
0
 62
    18
420
        0
370
    25
100
AcDbSpline
210
0.0
220
0.0
230
1.0
 70
     8
 71
     3
 72
    23
 73
    19
 74
     0
 42
0.0000000001
 43
0.0000000001
 40
0.0
 40
0.0
 40
0.0
 40
0.0
 40
1.0
 40
1.0
 40
1.0
 40
2.0
 40
2.0
 40
2.0
 40
3.0
 40
3.0
 40
3.0
 40
4.0
 40
4.0
 40
4.0
 40
5.0
 40
5.0
 40
5.0
 40
6.0
 40
6.0
 40
6.0
 40
6.0
 10
155.7388844518
 20
-75.37568669082557
 30
0.0
 10
155.5633638874838
 20
-75.44731120018447
 30
0.0
 10
155.3878433231663
 20
-75.51893570954335
 30
0.0
 10
155.2203835081843
 20
-75.59677990092845
 30
0.0
 10
154.9912527980643
 20
-75.70329199072665
 30
0.0
 10
154.7772131847201
 20
-75.82144838547498
 30
0.0
 10
154.5735444436157
 20
-75.94558006420533
 30
0.0
 10
154.3696513951335
 20
-76.06984845341493
 30
0.0
 10
154.1761520750669
 20
-76.20010529542333
 30
0.0
 10
153.9969592364302
 20
-76.33729780111484
 30
0.0
 10
153.8176865775533
 20
-76.47455141828027
 30
0.0
 10
153.6527331483972
 20
-76.61874687939387
 30
0.0
 10
153.4986168752706
 20
-76.76761439476727
 30
0.0
 10
153.3447048369428
 20
-76.91628463099177
 30
0.0
 10
153.20160125089
 20
-77.06961454687352
 30
0.0
 10
153.0860594028536
 20
-77.23126515454332
 30
0.0
 10
153.0332438553922
 20
-77.30515756224296
 30
0.0
 10
152.9861873672627
 20
-77.38078858880794
 30
0.0
 10
152.9391308791332
 20
-77.45641961537294
 30
0.0
  0
LINE
  5
1D7
330
70
100
AcDbEntity
  8
0
 62
    18
420
        0
370
    25
100
AcDbLine
 10
167.8341606957113
 20
-84.60075263370651
 30
0.0
 11
167.7753190853113
 21
-79.09525450140613
 31
0.0
  0
LINE
  5
1D8
330
70
100
AcDbEntity
  8
0
 62
    18
420
        0
370
    25
100
AcDbLine
 10
152.3959156245109
 20
-79.09525450140613
 30
0.0
 11
152.3370736849109
 21
-84.60075244360702
 31
0.0
  0
LINE
  5
1D9
330
70
100
AcDbEntity
  8
0
 62
    18
420
        0
370
    25
100
AcDbLine
 10
164.1430136247109
 20
-78.41819755250707
 30
0.0
 11
164.1141403993112
 21
-75.71667383740664
 31
0.0
  0
LINE
  5
1DA
330
70
100
AcDbEntity
  8
0
 62
    18
420
        0
370
    25
100
AcDbLine
 10
156.057093981211
 20
-75.71667383740664
 30
0.0
 11
156.0282207558113
 21
-78.41819755250707
 31
0.0
  0
SPLINE
  5
1DB
330
70
100
AcDbEntity
  8
0
 62
    18
420
        0
370
    25
100
AcDbSpline
210
0.0
220
0.0
230
1.0
 70
     8
 71
     3
 72
    35
 73
    31
 74
     0
 42
0.0000000001
 43
0.0000000001
 40
0.0
 40
0.0
 40
0.0
 40
0.0
 40
1.0
 40
1.0
 40
1.0
 40
2.0
 40
2.0
 40
2.0
 40
3.0
 40
3.0
 40
3.0
 40
4.0
 40
4.0
 40
4.0
 40
5.0
 40
5.0
 40
5.0
 40
6.0
 40
6.0
 40
6.0
 40
7.0
 40
7.0
 40
7.0
 40
8.0
 40
8.0
 40
8.0
 40
9.0
 40
9.0
 40
9.0
 40
10.0
 40
10.0
 40
10.0
 40
10.0
 10
175.3945804462428
 20
-103.9633486556978
 30
0.0
 10
175.5931442528727
 20
-104.0853612607703
 30
0.0
 10
175.7917080595019
 20
-104.2073738658441
 30
0.0
 10
175.9906099003094
 20
-104.3190230120993
 30
0.0
 10
176.2707917568394
 20
-104.4762968962997
 30
0.0
 10
176.5516443669905
 20
-104.6130068021347
 30
0.0
 10
176.831734864734
 20
-104.7371206517898
 30
0.0
 10
177.111915257204
 20
-104.8612743356444
 30
0.0
 10
177.3913330479902
 20
-104.9728238766432
 30
0.0
 10
177.6692364555372
 20
-105.0689910289027
 30
0.0
 10
177.9469450164604
 20
-105.1650907554147
 30
0.0
 10
178.2231413169618
 20
-105.2458296557573
 30
0.0
 10
178.4969016139791
 20
-105.3113912540117
 30
0.0
 10
178.7700952188595
 20
-105.3768171377653
 30
0.0
 10
179.0408628950206
 20
-105.4271284893501
 30
0.0
 10
179.3082855765499
 20
-105.4617553266158
 30
0.0
 10
179.574662911899
 20
-105.4962468087502
 30
0.0
 10
179.8377213524451
 20
-105.515176157375
 30
0.0
 10
180.0965580842492
 20
-105.5183958255021
 30
0.0
 10
180.3538529906157
 20
-105.5215963148748
 30
0.0
 10
180.6069763337603
 20
-105.5092737235727
 30
0.0
 10
180.8546386311633
 20
-105.4807964037551
 30
0.0
 10
181.1004105311555
 20
-105.4525364502942
 30
0.0
 10
181.3408044351663
 20
-105.4083674440324
 30
0.0
 10
181.5755924143508
 20
-105.3498585852216
 30
0.0
 10
181.8084714631959
 20
-105.2918254293643
 30
0.0
 10
182.0358353739478
 20
-105.2196846517494
 30
0.0
 10
182.2531984931165
 20
-105.1278221331943
 30
0.0
 10
182.4546765279194
 20
-105.0426730067874
 30
0.0
 10
182.647562091748
 20
-104.9405793730195
 30
0.0
 10
182.8404476555766
 20
-104.8384857392514
 30
0.0
  0
LINE
  5
1DC
330
70
100
AcDbEntity
  8
0
 62
    18
420
        0
370
    25
100
AcDbLine
 10
182.8592899310115
 20
-104.8312430606064
 30
0.0
 11
184.4007292558112
 21
-103.9413890795061
 31
0.0
  0
LINE
  5
1DD
330
70
100
AcDbEntity
  8
0
 62
    18
420
        0
370
    25
100
AcDbLine
 10
175.394580425711
 20
-97.88250142100615
 30
0.0
 11
177.4048046584111
 21
-96.72202367290651
 31
0.0
  0
LINE
  5
1DE
330
70
100
AcDbEntity
  8
0
 62
    18
420
        0
370
    25
100
AcDbLine
 10
165.0855220306111
 20
-73.98917695290666
 30
0.0
 11
164.9836843786111
 21
-64.46079283860659
 31
0.0
  0
LINE
  5
1DF
330
70
100
AcDbEntity
  8
0
 62
    18
420
        0
370
    25
100
AcDbLine
 10
155.187550001911
 20
-64.46079283860659
 30
0.0
 11
155.1477467486113
 21
-68.18495730300643
 31
0.0
  0
LINE
  5
1E0
330
70
100
AcDbEntity
  8
0
 62
    18
420
        0
370
    25
100
AcDbLine
 10
155.1104943676114
 20
-71.6704700695061
 30
0.0
 11
155.0857123499111
 21
-73.98917695290666
 31
0.0
  0
LINE
  5
1E1
330
70
100
AcDbEntity
  8
0
 62
    18
420
        0
370
    25
100
AcDbLine
 10
144.3945804254109
 20
-85.57476550410713
 30
0.0
 11
144.3945804254109
 21
-139.8747300299065
 31
0.0
  0
LINE
  5
1E2
330
70
100
AcDbEntity
  8
0
 62
    18
420
        0
370
    25
100
AcDbLine
 10
175.3945805903113
 20
-139.8747300299065
 30
0.0
 11
175.3945805903113
 21
-85.57476550410713
 31
0.0
  0
LINE
  5
1E3
330
70
100
AcDbEntity
  8
0
 62
    18
420
        0
370
    25
100
AcDbLine
 10
155.9409916790115
 20
-67.72702648870655
 30
0.0
 11
142.2060166599114
 21
-75.65605879300632
 31
0.0
  0
LINE
  5
1E4
330
70
100
AcDbEntity
  8
0
 62
    18
420
        0
370
    25
100
AcDbLine
 10
143.7058947469109
 20
-78.25420425790702
 30
0.0
 11
157.4274641047112
 21
-70.33291087710614
 31
0.0
  0
LWPOLYLINE
  5
1E5
330
70
100
AcDbEntity
  8
0
 62
    18
420
        0
370
    25
100
AcDbPolyline
 90
       28
 70
     0
 43
0.0
 10
148.969780857611
 20
-146.5080983949064
 10
149.9356251997109
 20
-147.0202283076071
 10
150.9732242222114
 20
-147.4832279456067
 10
152.0751017161111
 20
-147.8937614629063
 10
153.2333188452108
 20
-148.2488707119065
 10
154.4395303687114
 20
-148.5459978162061
 10
155.6850454748109
 20
-148.7830012800072
 10
156.9608911653114
 20
-148.958173571307
 10
158.2578735004109
 20
-149.0702529072067
 10
159.5666483919111
 20
-149.1184314271062
 10
160.8777854826113
 20
-149.102362416207
 10
162.1818399272114
 20
-149.0221614462064
 10
163.469413636811
 20
-148.8784059947065
 10
164.7312310122114
 20
-148.6721320241067
 10
165.9582001879114
 20
-148.4048259976066
 10
167.1414808624111
 20
-148.0784138548061
 10
168.2725468599113
 20
-147.6952469450064
 10
169.343249844711
 20
-147.258086535307
 10
170.3458752558113
 20
-146.7700821650072
 10
171.273198530911
 20
-146.2347498332061
 10
172.1185384889115
 20
-145.6559465035069
 10
172.8758045808109
 20
-145.0378428271065
 10
173.5395410537112
 20
-144.3848923252067
 10
174.1049647341113
 20
-143.7017989319067
 10
174.5680025242112
 20
-142.9934847036069
 10
174.9253182375109
 20
-142.2650530379067
 10
175.1743369650113
 20
-141.5217525569069
 10
175.3064567984111
 20
-140.827529316907
  0
LWPOLYLINE
  5
1E6
330
70
100
AcDbEntity
  8
0
 62
    18
420
        0
370
    25
100
AcDbPolyline
 90
       10
 70
     0
 43
0.0
 10
144.4827042173111
 20
-140.827529316907
 10
144.5315181704113
 20
-141.1461966435069
 10
144.7256663110112
 20
-141.8949286083061
 10
145.0291064981112
 20
-142.6314586480071
 10
145.4396530225111
 20
-143.3504792140064
 10
145.9543480316114
 20
-144.0468103047072
 10
146.569481944211
 20
-144.7154348212064
 10
147.280623908111
 20
-145.3515351587062
 10
148.0826497063113
 20
-145.9505283244063
 10
148.969780857611
 20
-146.5080983949064
  0
LWPOLYLINE
  5
1E7
330
70
100
AcDbEntity
  8
0
 62
    18
420
        0
370
    25
100
AcDbPolyline
 90
       20
 70
     0
 43
0.0
 10
170.7736276961115
 20
-146.5344920650066
 10
170.2782289466112
 20
-146.8092213316072
 10
169.2820931211109
 20
-147.2940670861071
 10
168.2183206588113
 20
-147.7283982732062
 10
167.0945750420114
 20
-148.109084956307
 10
165.9189529109111
 20
-148.433384306206
 10
164.6999257819115
 20
-148.6989605608068
 10
163.4462756755108
 20
-148.9038993756068
 10
162.1670351881109
 20
-149.046724171706
 10
160.8714226256111
 20
-149.126406210207
 10
159.5687708809113
 20
-149.142371434707
 10
158.268466847311
 20
-149.0945042738063
 10
156.9798789791114
 20
-148.9831506818067
 10
155.7122917660112
 20
-148.8091122464064
 10
154.474837903211
 20
-148.573642767207
 10
153.2764334248108
 20
-148.2784389412068
 10
152.1257134957109
 20
-147.9256276276067
 10
151.0309677096113
 20
-147.517751306107
 10
150.000084194711
 20
-147.0577487355067
 10
149.0404914156112
 20
-146.5489335221062
  0
SPLINE
  5
1E8
330
70
100
AcDbEntity
  8
0
 62
    18
420
        0
370
    25
100
AcDbSpline
210
0.0
220
0.0
230
1.0
 70
     8
 71
     3
 72
     8
 73
     4
 74
     0
 42
0.0000000001
 43
0.0000000001
 40
0.0
 40
0.0
 40
0.0
 40
0.0
 40
1.0
 40
1.0
 40
1.0
 40
1.0
 10
145.2584838064259
 20
-82.33698140537939
 30
0.0
 10
144.0933408387343
 20
-84.18741267062014
 30
0.0
 10
144.1270478166792
 20
-86.55040901815373
 30
0.0
 10
145.3444969631563
 20
-88.36685378149875
 30
0.0
  0
SPLINE
  5
1E9
330
70
100
AcDbEntity
  8
0
 62
    18
420
        0
370
    25
100
AcDbSpline
210
0.0
220
0.0
230
1.0
 70
     8
 71
     3
 72
     8
 73
     4
 74
     0
 42
0.0000000001
 43
0.0000000001
 40
0.0
 40
0.0
 40
0.0
 40
0.0
 40
1.0
 40
1.0
 40
1.0
 40
1.0
 10
174.4519633598672
 20
-88.35535517013294
 30
0.0
 10
175.6858015506985
 20
-86.50268048076158
 30
0.0
 10
175.6915876834418
 20
-84.09160899822174
 30
0.0
 10
174.4666558171142
 20
-82.23303370820893
 30
0.0
  0
LWPOLYLINE
  5
1EA
330
70
100
AcDbEntity
  8
0
 62
    18
420
        0
370
    25
100
AcDbPolyline
 90
       29
 70
     0
 43
0.0
 10
170.8547354371113
 20
-91.90192826730696
 10
169.8857656427114
 20
-92.4157157197065
 10
168.8448087018111
 20
-92.88021360630667
 10
167.739365189411
 20
-93.29207581660726
 10
166.5773999543112
 20
-93.64833450850612
 10
165.3672842496112
 20
-93.94642287170638
 10
164.1177381926111
 20
-94.18419313770707
 10
162.8377647451115
 20
-94.35993264220646
 10
161.5365848473114
 20
-94.47237465990673
 10
160.2235741975109
 20
-94.52070904940645
 10
158.9081927875111
 20
-94.50458795530627
 10
157.5999190483113
 20
-94.42412732940637
 10
156.3081780690109
 20
-94.27990655020733
 10
155.0422770591109
 20
-94.07296538190728
 10
153.811337847811
 20
-93.80479389920724
 10
152.6242280663114
 20
-93.47732545500702
 10
151.4895010552115
 20
-93.09291871690696
 10
150.4153329739112
 20
-92.65434341080625
 10
149.409463284411
 20
-92.16475964950646
 10
148.4791389397108
 20
-91.62769483700708
 10
147.6310630997109
 20
-91.04701862530721
 10
146.8713460697114
 20
-90.42691459120625
 10
146.2054619185112
 20
-89.771850631207
 10
145.6382084722109
 20
-89.08654674140631
 10
145.1736715056111
 20
-88.37594066040622
 10
144.8152000466114
 20
-87.6451515627062
 10
144.5653752606114
 20
-86.89944536810649
 10
144.4259982668111
 20
-86.14419501450694
 10
144.3945804254109
 20
-85.57476550410713
  0
LWPOLYLINE
  5
1EB
330
70
100
AcDbEntity
  8
0
 62
    18
420
        0
370
    25
100
AcDbPolyline
 90
       11
 70
     0
 43
0.0
 10
175.3945805903113
 20
-85.57476550410713
 10
175.3910883288109
 20
-85.76468951850698
 10
175.3073616386112
 20
-86.52267443250693
 10
175.1125852465112
 20
-87.2738295987064
 10
174.808162511011
 20
-88.01274254170728
 10
174.3962877023114
 20
-88.73409012610707
 10
173.8799275634113
 20
-89.43267505260683
 10
173.2628025415114
 20
-90.10346330470646
 10
172.5493589645109
 20
-90.74162226090727
 10
171.7447378425115
 20
-91.34255391170709
 10
170.8547354371113
 20
-91.90192826730696
  0
SPLINE
  5
1EC
330
70
100
AcDbEntity
  8
0
 62
    18
420
        0
370
    25
100
AcDbSpline
210
0.0
220
0.0
230
1.0
 70
     8
 71
     3
 72
     8
 73
     4
 74
     0
 42
0.0000000001
 43
0.0000000001
 40
0.0
 40
0.0
 40
0.0
 40
0.0
 40
1.0
 40
1.0
 40
1.0
 40
1.0
 10
152.9029896272589
 20
-77.53708470150629
 30
0.0
 10
152.2633695573802
 20
-78.45570885888459
 30
0.0
 10
152.2391738489394
 20
-79.66892162030619
 30
0.0
 10
152.8416587186839
 20
-80.61231769727502
 30
0.0
  0
SPLINE
  5
1ED
330
70
100
AcDbEntity
  8
0
 62
    18
420
        0
370
    25
100
AcDbSpline
210
0.0
220
0.0
230
1.0
 70
     8
 71
     3
 72
     8
 73
     4
 74
     0
 42
0.0000000001
 43
0.0000000001
 40
0.0
 40
0.0
 40
0.0
 40
0.0
 40
1.0
 40
1.0
 40
1.0
 40
1.0
 10
167.3339016406826
 20
-80.60528893069621
 30
0.0
 10
167.9306343844326
 20
-79.66729456379505
 30
0.0
 10
167.9077457532793
 20
-78.46317269027514
 30
0.0
 10
167.2757971062919
 20
-77.54853379575248
 30
0.0
  0
LWPOLYLINE
  5
1EE
330
70
100
AcDbEntity
  8
0
 62
   144
420
    29337
370
    18
100
AcDbPolyline
 90
        9
 70
     0
 43
0.0
 10
155.1981457772114
 20
-88.09951864410615
 10
154.5090074523111
 20
-87.73411830950639
 10
153.9011882611114
 20
-87.32342917210694
 10
153.3835521099113
 20
-86.8734396049062
 10
152.9636475033112
 20
-86.39071149040708
 10
152.6475966828115
 20
-85.88228428760636
 10
152.4400094598115
 20
-85.35557206500685
 10
152.3439120110109
 20
-84.81825510510679
 10
152.3370736849109
 20
-84.60075244360702
  0
LWPOLYLINE
  5
1EF
330
70
100
AcDbEntity
  8
0
 62
   144
420
    29337
370
    18
100
AcDbPolyline
 90
       20
 70
     0
 43
0.0
 10
167.8341606957113
 20
-84.60075263370651
 10
167.8105281675112
 20
-84.97853406020665
 10
167.6810872931112
 20
-85.51351373720644
 10
167.440887464411
 20
-86.03558570400643
 10
167.0934309855113
 20
-86.53713696840609
 10
166.6437851919112
 20
-87.01085392160704
 10
166.0985063057112
 20
-87.44982864340679
 10
165.4655461387113
 20
-87.8476599026065
 10
164.7541342436111
 20
-88.19854628060653
 10
163.974645032111
 20
-88.49737124620695
 10
163.1384451368111
 20
-88.73977720590685
 10
162.2577276328114
 20
-88.9222292709061
 10
161.3453362782109
 20
-89.04206691900636
 10
160.4145754832111
 20
-89.09754260520722
 10
159.4790175206115
 20
-89.08784751880633
 10
158.5523054572111
 20
-89.01312308270631
 10
157.647952132211
 20
-88.87445857810687
 10
156.779145393511
 20
-88.67387641240643
 10
155.9585546494109
 20
-88.41430142100666
 10
155.1981457772114
 20
-88.09951864410615
  0
LINE
  5
1F0
330
70
100
AcDbEntity
  8
0
 62
    18
420
        0
370
    25
100
AcDbLine
 10
164.1426660778109
 20
-78.46654439250696
 30
0.0
 11
164.1430136247109
 21
-78.41819755250707
 31
0.0
  0
LWPOLYLINE
  5
1F1
330
70
100
AcDbEntity
  8
0
 62
    18
420
        0
370
    25
100
AcDbPolyline
 90
       26
 70
     0
 43
0.0
 10
187.2490060342111
 20
-97.64602255100681
 10
187.2098654413111
 20
-96.61700776360648
 10
187.0927577886111
 20
-95.55108552230704
 10
186.8986274287113
 20
-94.45684060380649
 10
186.6290357707113
 20
-93.3430824442064
 10
186.2861540360114
 20
-92.2187778378065
 10
185.872743501411
 20
-91.0929786957063
 10
185.392132451211
 20
-89.97475094400613
 10
184.8481898341112
 20
-88.87309543880665
 10
184.2452949712113
 20
-87.79688332910671
 10
183.5883033112111
 20
-86.75478077490664
 10
182.8825039542111
 20
-85.75517651610667
 10
182.1335794809109
 20
-84.80611913930692
 10
181.3475595246113
 20
-83.9152503502065
 10
180.530773027611
 20
-83.08974243130638
 10
179.6897962151113
 20
-82.33624235180698
 10
178.8314000772109
 20
-81.6608167344065
 10
177.9624959561109
 20
-81.06890333360658
 10
177.090079734911
 20
-80.56526816930654
 10
176.2211756139111
 20
-80.15396622600604
 10
175.3627794760113
 20
-79.83830875830709
 10
174.521802663511
 20
-79.62083767780608
 10
173.7050161664112
 20
-79.50330398040683
 10
172.9189962102111
 20
-79.48665344510638
 10
172.170071736911
 20
-79.57102103050711
 10
171.996930178311
 20
-79.60615260150655
  0
LWPOLYLINE
  5
1F2
330
70
100
AcDbEntity
  8
0
 62
    18
420
        0
370
    25
100
AcDbPolyline
 90
       10
 70
     0
 43
0.0
 10
184.4007292558112
 20
-103.9413890795061
 10
184.8481898341112
 20
-103.6470255203067
 10
185.392132451211
 20
-103.173393553407
 10
185.872743501411
 20
-102.6100659880071
 10
186.2861540360114
 20
-101.9615820100069
 10
186.6290357707113
 20
-101.2331594675063
 10
186.8986274287113
 20
-100.4306644503067
 10
187.0927577886111
 20
-99.56055767450727
 10
187.2098654413111
 20
-98.62984657190716
 10
187.2490060342111
 20
-97.64602255100681
  0
SPLINE
  5
1F3
330
70
100
AcDbEntity
  8
0
 62
    18
420
        0
370
    25
100
AcDbSpline
210
0.0
220
0.0
230
1.0
 70
     8
 71
     3
 72
     8
 73
     4
 74
     0
 42
0.0000000001
 43
0.0000000001
 40
0.0
 40
0.0
 40
0.0
 40
0.0
 40
1.0
 40
1.0
 40
1.0
 40
1.0
 10
175.3945800913454
 20
-86.4084564482243
 30
0.0
 10
175.5245932714032
 20
-86.48358229674308
 30
0.0
 10
175.6546777480457
 20
-86.55858469141845
 30
0.0
 10
175.7848333453625
 20
-86.63346353082738
 30
0.0
  0
SPLINE
  5
1F4
330
70
100
AcDbEntity
  8
0
 62
    18
420
        0
370
    25
100
AcDbSpline
210
0.0
220
0.0
230
1.0
 70
     8
 71
     3
 72
     8
 73
     4
 74
     0
 42
0.0000000001
 43
0.0000000001
 40
0.0
 40
0.0
 40
0.0
 40
0.0
 40
1.0
 40
1.0
 40
1.0
 40
1.0
 10
177.7728592570137
 20
-87.16143347433963
 30
0.0
 10
177.76680663562
 20
-87.35916300019777
 30
0.0
 10
177.7609899273555
 20
-87.55689967705119
 30
0.0
 10
177.7554091446384
 20
-87.75464308272095
 30
0.0
  0
SPLINE
  5
1F5
330
70
100
AcDbEntity
  8
0
 62
    18
420
        0
370
    25
100
AcDbSpline
210
0.0
220
0.0
230
1.0
 70
     8
 71
     3
 72
     8
 73
     4
 74
     0
 42
0.0000000001
 43
0.0000000001
 40
0.0
 40
0.0
 40
0.0
 40
0.0
 40
1.0
 40
1.0
 40
1.0
 40
1.0
 10
178.216711834441
 20
-86.92638392037865
 30
0.0
 10
178.3814525386682
 20
-87.01863761829599
 30
0.0
 10
178.5463009392676
 20
-87.11069886715874
 30
0.0
 10
178.7112566989206
 20
-87.20256747858845
 30
0.0
  0
SPLINE
  5
1F6
330
70
100
AcDbEntity
  8
0
 62
    18
420
        0
370
    25
100
AcDbSpline
210
0.0
220
0.0
230
1.0
 70
     8
 71
     3
 72
     8
 73
     4
 74
     0
 42
0.0000000001
 43
0.0000000001
 40
0.0
 40
0.0
 40
0.0
 40
0.0
 40
1.0
 40
1.0
 40
1.0
 40
1.0
 10
177.2266341246905
 20
-85.78510954478096
 30
0.0
 10
177.2200064716528
 20
-85.97543298612242
 30
0.0
 10
177.213596634245
 20
-86.16576395006708
 30
0.0
 10
177.207404625058
 20
-86.35610206272641
 30
0.0
  0
SPLINE
  5
1F7
330
70
100
AcDbEntity
  8
0
 62
    18
420
        0
370
    25
100
AcDbSpline
210
0.0
220
0.0
230
1.0
 70
     8
 71
     3
 72
     8
 73
     4
 74
     0
 42
0.0000000001
 43
0.0000000001
 40
0.0
 40
0.0
 40
0.0
 40
0.0
 40
1.0
 40
1.0
 40
1.0
 40
1.0
 10
176.3878254876594
 20
-85.30779623395273
 30
0.0
 10
176.3687679112289
 20
-85.8550063704178
 30
0.0
 10
176.3515157073495
 20
-86.40227789141514
 30
0.0
 10
176.3360691576887
 20
-86.9496018619966
 30
0.0
  0
SPLINE
  5
1F8
330
70
100
AcDbEntity
  8
0
 62
    18
420
        0
370
    25
100
AcDbSpline
210
0.0
220
0.0
230
1.0
 70
     8
 71
     3
 72
     8
 73
     4
 74
     0
 42
0.0000000001
 43
0.0000000001
 40
0.0
 40
0.0
 40
0.0
 40
0.0
 40
1.0
 40
1.0
 40
1.0
 40
1.0
 10
176.3360691577888
 20
-86.94960186214162
 30
0.0
 10
176.4802027071656
 20
-87.03200717165358
 30
0.0
 10
176.6244225792525
 20
-87.11426140389441
 30
0.0
 10
176.7687285364623
 20
-87.19636442336041
 30
0.0
  0
SPLINE
  5
1F9
330
70
100
AcDbEntity
  8
0
 62
    18
420
        0
370
    25
100
AcDbSpline
210
0.0
220
0.0
230
1.0
 70
     8
 71
     3
 72
     8
 73
     4
 74
     0
 42
0.0000000001
 43
0.0000000001
 40
0.0
 40
0.0
 40
0.0
 40
0.0
 40
1.0
 40
1.0
 40
1.0
 40
1.0
 10
176.786177332073
 20
-86.60315557557471
 30
0.0
 10
176.9214845073947
 20
-86.68013895626172
 30
0.0
 10
177.0568672195226
 20
-86.75698949642034
 30
0.0
 10
177.1923252728069
 20
-86.83370708499047
 30
0.0
  0
SPLINE
  5
1FA
330
70
100
AcDbEntity
  8
0
 62
    18
420
        0
370
    25
100
AcDbSpline
210
0.0
220
0.0
230
1.0
 70
     8
 71
     3
 72
     8
 73
     4
 74
     0
 42
0.0000000001
 43
0.0000000001
 40
0.0
 40
0.0
 40
0.0
 40
0.0
 40
1.0
 40
1.0
 40
1.0
 40
1.0
 10
177.1923252729705
 20
-86.83370708503538
 30
0.0
 10
177.1862726515775
 20
-87.03143661089354
 30
0.0
 10
177.180455943313
 20
-87.22917328774823
 30
0.0
 10
177.1748751605953
 20
-87.4269166934167
 30
0.0
  0
LINE
  5
1FB
330
70
100
AcDbEntity
  8
0
 62
   144
420
    29337
370
    18
100
AcDbLine
 10
177.6270817045112
 20
-87.07933840410658
 30
0.0
 11
177.7728592570111
 21
-87.16143347430627
 31
0.0
  0
SPLINE
  5
1FC
330
70
100
AcDbEntity
  8
0
 62
   144
420
    29337
370
    18
100
AcDbSpline
210
0.0
220
0.0
230
1.0
 70
     8
 71
     3
 72
     8
 73
     4
 74
     0
 42
0.0000000001
 43
0.0000000001
 40
0.0
 40
0.0
 40
0.0
 40
0.0
 40
1.0
 40
1.0
 40
1.0
 40
1.0
 10
177.6270817044618
 20
-87.0793384040758
 30
0.0
 10
177.6210290830688
 20
-87.27706792992368
 30
0.0
 10
177.6152123748043
 20
-87.47480460676937
 30
0.0
 10
177.6096315920872
 20
-87.67254801243016
 30
0.0
  0
SPLINE
  5
1FD
330
70
100
AcDbEntity
  8
0
 62
   144
420
    29337
370
    18
100
AcDbSpline
210
0.0
220
0.0
230
1.0
 70
     8
 71
     3
 72
     8
 73
     4
 74
     0
 42
0.0000000001
 43
0.0000000001
 40
0.0
 40
0.0
 40
0.0
 40
0.0
 40
1.0
 40
1.0
 40
1.0
 40
1.0
 10
177.1748751605414
 20
-87.42691669334098
 30
0.0
 10
177.319708919943
 20
-87.50894424507272
 30
0.0
 10
177.4646278085393
 20
-87.59082139552479
 30
0.0
 10
177.6096315919935
 20
-87.67254801230052
 30
0.0
  0
SPLINE
  5
1FE
330
70
100
AcDbEntity
  8
0
 62
   144
420
    29337
370
    18
100
AcDbSpline
210
0.0
220
0.0
230
1.0
 70
     8
 71
     3
 72
     8
 73
     4
 74
     0
 42
0.0000000001
 43
0.0000000001
 40
0.0
 40
0.0
 40
0.0
 40
0.0
 40
1.0
 40
1.0
 40
1.0
 40
1.0
 10
176.7861773318638
 20
-86.60315557569791
 30
0.0
 10
176.7801240944949
 20
-86.80088481678541
 30
0.0
 10
176.7743078252277
 20
-86.99862124131378
 30
0.0
 10
176.7687285365919
 20
-87.19636442325002
 30
0.0
  0
SPLINE
  5
1FF
330
70
100
AcDbEntity
  8
0
 62
   144
420
    29337
370
    18
100
AcDbSpline
210
0.0
220
0.0
230
1.0
 70
     8
 71
     3
 72
     8
 73
     4
 74
     0
 42
0.0000000001
 43
0.0000000001
 40
0.0
 40
0.0
 40
0.0
 40
0.0
 40
1.0
 40
1.0
 40
1.0
 40
1.0
 10
176.3878254876056
 20
-85.3077962339476
 30
0.0
 10
176.5319596208618
 20
-85.39020103755815
 30
0.0
 10
176.6761799318451
 20
-85.47245501627783
 30
0.0
 10
176.8204861837449
 20
-85.55455803504179
 30
0.0
  0
SPLINE
  5
200
330
70
100
AcDbEntity
  8
0
 62
   144
420
    29337
370
    18
100
AcDbSpline
210
0.0
220
0.0
230
1.0
 70
     8
 71
     3
 72
     8
 73
     4
 74
     0
 42
0.0000000001
 43
0.0000000001
 40
0.0
 40
0.0
 40
0.0
 40
0.0
 40
1.0
 40
1.0
 40
1.0
 40
1.0
 10
176.8204861836364
 20
-85.55455803517396
 30
0.0
 10
176.8138585305987
 20
-85.74488147652571
 30
0.0
 10
176.8074486931902
 20
-85.9352124404819
 30
0.0
 10
176.8012566840033
 20
-86.12555055315407
 30
0.0
  0
SPLINE
  5
201
330
70
100
AcDbEntity
  8
0
 62
   144
420
    29337
370
    18
100
AcDbSpline
210
0.0
220
0.0
230
1.0
 70
     8
 71
     3
 72
     8
 73
     4
 74
     0
 42
0.0000000001
 43
0.0000000001
 40
0.0
 40
0.0
 40
0.0
 40
0.0
 40
1.0
 40
1.0
 40
1.0
 40
1.0
 10
176.8012566841476
 20
-86.12555055308604
 30
0.0
 10
176.936563859572
 20
-86.20253393383208
 30
0.0
 10
177.0719465718167
 20
-86.27938447405618
 30
0.0
 10
177.2074046252043
 20
-86.35610206268406
 30
0.0
  0
SPLINE
  5
202
330
70
100
AcDbEntity
  8
0
 62
   144
420
    29337
370
    18
100
AcDbSpline
210
0.0
220
0.0
230
1.0
 70
     8
 71
     3
 72
     8
 73
     4
 74
     0
 42
0.0000000001
 43
0.0000000001
 40
0.0
 40
0.0
 40
0.0
 40
0.0
 40
1.0
 40
1.0
 40
1.0
 40
1.0
 10
177.2266341246476
 20
-85.78510954458975
 30
0.0
 10
177.3714680830015
 20
-85.86713726827245
 30
0.0
 10
177.5163874111142
 20
-85.94901416555371
 30
0.0
 10
177.6613918732864
 20
-86.03074010326684
 30
0.0
  0
SPLINE
  5
203
330
70
100
AcDbEntity
  8
0
 62
   144
420
    29337
370
    18
100
AcDbSpline
210
0.0
220
0.0
230
1.0
 70
     8
 71
     3
 72
     8
 73
     4
 74
     0
 42
0.0000000001
 43
0.0000000001
 40
0.0
 40
0.0
 40
0.0
 40
0.0
 40
1.0
 40
1.0
 40
1.0
 40
1.0
 10
177.6613918733525
 20
-86.03074010329635
 30
0.0
 10
177.6547426651633
 20
-86.22167465552935
 30
0.0
 10
177.6483126323497
 20
-86.41261677746753
 30
0.0
 10
177.6421017876204
 20
-86.60356609171998
 30
0.0
  0
LINE
  5
204
330
70
100
AcDbEntity
  8
0
 62
   144
420
    29337
370
    18
100
AcDbLine
 10
177.6421017876114
 20
-86.60356609160704
 30
0.0
 11
177.7878793402114
 21
-86.6856611619068
 31
0.0
  0
SPLINE
  5
205
330
70
100
AcDbEntity
  8
0
 62
   144
420
    29337
370
    18
100
AcDbSpline
210
0.0
220
0.0
230
1.0
 70
     8
 71
     3
 72
     8
 73
     4
 74
     0
 42
0.0000000001
 43
0.0000000001
 40
0.0
 40
0.0
 40
0.0
 40
0.0
 40
1.0
 40
1.0
 40
1.0
 40
1.0
 10
177.807170743016
 20
-86.1128344131635
 30
0.0
 10
177.8005215765476
 20
-86.30376923487032
 30
0.0
 10
177.79409110472
 20
-86.49471160978293
 30
0.0
 10
177.787879340189
 20
-86.68566116211728
 30
0.0
  0
SPLINE
  5
206
330
70
100
AcDbEntity
  8
0
 62
   144
420
    29337
370
    18
100
AcDbSpline
210
0.0
220
0.0
230
1.0
 70
     8
 71
     3
 72
     8
 73
     4
 74
     0
 42
0.0000000001
 43
0.0000000001
 40
0.0
 40
0.0
 40
0.0
 40
0.0
 40
1.0
 40
1.0
 40
1.0
 40
1.0
 10
177.8071707430853
 20
-86.11283441322768
 30
0.0
 10
177.9500329176973
 20
-86.19322130569795
 30
0.0
 10
178.0929771570267
 20
-86.27346226704615
 30
0.0
 10
178.2360032373881
 20
-86.35355717170595
 30
0.0
  0
SPLINE
  5
207
330
70
100
AcDbEntity
  8
0
 62
   144
420
    29337
370
    18
100
AcDbSpline
210
0.0
220
0.0
230
1.0
 70
     8
 71
     3
 72
     8
 73
     4
 74
     0
 42
0.0000000001
 43
0.0000000001
 40
0.0
 40
0.0
 40
0.0
 40
0.0
 40
1.0
 40
1.0
 40
1.0
 40
1.0
 10
178.236003237406
 20
-86.35355717200626
 30
0.0
 10
178.2293546423507
 20
-86.54449201307697
 30
0.0
 10
178.2229241705533
 20
-86.73543438710407
 30
0.0
 10
178.2167118346008
 20
-86.92638392031319
 30
0.0
  0
SPLINE
  5
208
330
70
100
AcDbEntity
  8
0
 62
   144
420
    29337
370
    18
100
AcDbSpline
210
0.0
220
0.0
230
1.0
 70
     8
 71
     3
 72
     8
 73
     4
 74
     0
 42
0.0000000001
 43
0.0000000001
 40
0.0
 40
0.0
 40
0.0
 40
0.0
 40
1.0
 40
1.0
 40
1.0
 40
1.0
 10
178.7112566988962
 20
-87.20256747864878
 30
0.0
 10
178.7060988386288
 20
-87.36115370817314
 30
0.0
 10
178.7010917029605
 20
-87.51974480400038
 30
0.0
 10
178.6962352986753
 20
-87.67834055127934
 30
0.0
  0
SPLINE
  5
209
330
70
100
AcDbEntity
  8
0
 62
   144
420
    29337
370
    18
100
AcDbSpline
210
0.0
220
0.0
230
1.0
 70
     8
 71
     3
 72
     8
 73
     4
 74
     0
 42
0.0000000001
 43
0.0000000001
 40
0.0
 40
0.0
 40
0.0
 40
0.0
 40
1.0
 40
1.0
 40
1.0
 40
1.0
 10
178.2016917515185
 20
-87.40215623294496
 30
0.0
 10
178.3664314962446
 20
-87.49441111374206
 30
0.0
 10
178.5312794588241
 20
-87.58647261661495
 30
0.0
 10
178.6962352986452
 20
-87.67834055134736
 30
0.0
  0
SPLINE
  5
20A
330
70
100
AcDbEntity
  8
0
 62
   144
420
    29337
370
    18
100
AcDbSpline
210
0.0
220
0.0
230
1.0
 70
     8
 71
     3
 72
     8
 73
     4
 74
     0
 42
0.0000000001
 43
0.0000000001
 40
0.0
 40
0.0
 40
0.0
 40
0.0
 40
1.0
 40
1.0
 40
1.0
 40
1.0
 10
178.2016917514441
 20
-87.40215623274474
 30
0.0
 10
178.1956377885824
 20
-87.59988571843637
 30
0.0
 10
178.1898210802666
 20
-87.79762239702751
 30
0.0
 10
178.1842416390592
 20
-87.9953658414546
 30
0.0
  0
SPLINE
  5
20B
330
70
100
AcDbEntity
  8
0
 62
   144
420
    29337
370
    18
100
AcDbSpline
210
0.0
220
0.0
230
1.0
 70
     8
 71
     3
 72
     8
 73
     4
 74
     0
 42
0.0000000001
 43
0.0000000001
 40
0.0
 40
0.0
 40
0.0
 40
0.0
 40
1.0
 40
1.0
 40
1.0
 40
1.0
 10
177.7554091447475
 20
-87.75464308264266
 30
0.0
 10
177.8982713193524
 20
-87.83502997510906
 30
0.0
 10
178.041215558676
 20
-87.91527093645342
 30
0.0
 10
178.1842416390297
 20
-87.99536584110937
 30
0.0
  0
SPLINE
  5
20C
330
70
100
AcDbEntity
  8
0
 62
   144
420
    29337
370
    18
100
AcDbSpline
210
0.0
220
0.0
230
1.0
 70
     8
 71
     3
 72
     8
 73
     4
 74
     0
 42
0.0000000001
 43
0.0000000001
 40
0.0
 40
0.0
 40
0.0
 40
0.0
 40
1.0
 40
1.0
 40
1.0
 40
1.0
 10
175.3638023705488
 20
-84.71893649633987
 30
0.0
 10
175.6517694206521
 20
-84.88548991776418
 30
0.0
 10
175.9400879528164
 20
-85.05143489364016
 30
0.0
 10
176.2287560374886
 20
-85.21677031339335
 30
0.0
  0
SPLINE
  5
20D
330
70
100
AcDbEntity
  8
0
 62
   144
420
    29337
370
    18
100
AcDbSpline
210
0.0
220
0.0
230
1.0
 70
     8
 71
     3
 72
     8
 73
     4
 74
     0
 42
0.0000000001
 43
0.0000000001
 40
0.0
 40
0.0
 40
0.0
 40
0.0
 40
1.0
 40
1.0
 40
1.0
 40
1.0
 10
176.2287560374052
 20
-85.21677031349089
 30
0.0
 10
176.2238653035363
 20
-85.35722229703964
 30
0.0
 10
176.2190930493068
 20
-85.49767838118517
 30
0.0
 10
176.2144392798094
 20
-85.63813841603552
 30
0.0
  0
SPLINE
  5
20E
330
70
100
AcDbEntity
  8
0
 62
   144
420
    29337
370
    18
100
AcDbSpline
210
0.0
220
0.0
230
1.0
 70
     8
 71
     3
 72
     8
 73
     4
 74
     0
 42
0.0000000001
 43
0.0000000001
 40
0.0
 40
0.0
 40
0.0
 40
0.0
 40
1.0
 40
1.0
 40
1.0
 40
1.0
 10
175.8222729179216
 20
-85.41302600566311
 30
0.0
 10
175.9529234268116
 20
-85.48818816112339
 30
0.0
 10
176.0836456069332
 20
-85.56322566541458
 30
0.0
 10
176.2144392798357
 20
-85.63813841610096
 30
0.0
  0
SPLINE
  5
20F
330
70
100
AcDbEntity
  8
0
 62
   144
420
    29337
370
    18
100
AcDbSpline
210
0.0
220
0.0
230
1.0
 70
     8
 71
     3
 72
     8
 73
     4
 74
     0
 42
0.0000000001
 43
0.0000000001
 40
0.0
 40
0.0
 40
0.0
 40
0.0
 40
1.0
 40
1.0
 40
1.0
 40
1.0
 10
175.8222729178382
 20
-85.41302600561049
 30
0.0
 10
175.8087950761269
 20
-85.8198072860083
 30
0.0
 10
175.7963151811189
 20
-86.22662101855494
 30
0.0
 10
175.7848333454735
 20
-86.63346353077349
 30
0.0
  0
SPLINE
  5
210
330
70
100
AcDbEntity
  8
0
 62
   144
420
    29337
370
    18
100
AcDbSpline
210
0.0
220
0.0
230
1.0
 70
     8
 71
     3
 72
     8
 73
     4
 74
     0
 42
0.0000000001
 43
0.0000000001
 40
0.0
 40
0.0
 40
0.0
 40
0.0
 40
1.0
 40
1.0
 40
1.0
 40
1.0
 10
178.2333944133276
 20
-94.89064548232862
 30
0.0
 10
178.1551394686343
 20
-92.8871968927317
 30
0.0
 10
177.0927538428765
 20
-91.05158829716932
 30
0.0
 10
175.3945799092043
 20
-89.98569178318478
 30
0.0
  0
SPLINE
  5
211
330
70
100
AcDbEntity
  8
0
 62
   144
420
    29337
370
    18
100
AcDbSpline
210
0.0
220
0.0
230
1.0
 70
     8
 71
     3
 72
     8
 73
     4
 74
     0
 42
0.0000000001
 43
0.0000000001
 40
0.0
 40
0.0
 40
0.0
 40
0.0
 40
1.0
 40
1.0
 40
1.0
 40
1.0
 10
177.4048046584226
 20
-96.72202367292321
 30
0.0
 10
177.986950644224
 20
-96.30228913695084
 30
0.0
 10
178.3024317324644
 20
-95.60500175063344
 30
0.0
 10
178.233394413352
 20
-94.89064548234658
 30
0.0
  0
LINE
  5
212
330
70
100
AcDbEntity
  8
0
 62
    18
420
        0
370
    25
100
AcDbLine
 10
177.2693341506115
 20
-86.78925080620613
 30
0.0
 11
177.2693341506115
 21
-87.37238667910691
 31
0.0
  0
LINE
  5
213
330
70
100
AcDbEntity
  8
0
 62
    18
420
        0
370
    25
100
AcDbLine
 10
176.8665750796115
 20
-86.55674294360663
 30
0.0
 11
177.2693341506115
 21
-86.78925080620613
 31
0.0
  0
LINE
  5
214
330
70
100
AcDbEntity
  8
0
 62
    18
420
        0
370
    25
100
AcDbLine
 10
176.4365195857114
 20
-86.89161306430673
 30
0.0
 11
176.7718893033111
 21
-87.08521788130676
 31
0.0
  0
LINE
  5
215
330
70
100
AcDbEntity
  8
0
 62
    18
420
        0
370
    25
100
AcDbLine
 10
176.4365195857114
 20
-85.33562842170644
 30
0.0
 11
176.4365195857114
 21
-86.89161306430673
 31
0.0
  0
LINE
  5
216
330
70
100
AcDbEntity
  8
0
 62
    18
420
        0
370
    25
100
AcDbLine
 10
177.2693341506115
 20
-85.80928714570683
 30
0.0
 11
177.2693341506115
 21
-86.32035090850612
 31
0.0
  0
LINE
  5
217
330
70
100
AcDbEntity
  8
0
 62
    18
420
        0
370
    25
100
AcDbLine
 10
177.8434512770112
 20
-87.12068156860697
 30
0.0
 11
177.8434512770112
 21
-87.70381744150645
 31
0.0
  0
LINE
  5
218
330
70
100
AcDbEntity
  8
0
 62
   144
420
    29337
370
    18
100
AcDbLine
 10
177.6994583801112
 20
-87.12011361100687
 30
0.0
 11
177.6994583801112
 21
-87.03755623860613
 31
0.0
  0
LINE
  5
219
330
70
100
AcDbEntity
  8
0
 62
   144
420
    29337
370
    18
100
AcDbLine
 10
177.6994583801112
 20
-87.03755623860613
 30
0.0
 11
177.8434512770112
 21
-87.12068156860697
 31
0.0
  0
LINE
  5
21A
330
70
100
AcDbEntity
  8
0
 62
   144
420
    29337
370
    18
100
AcDbLine
 10
177.8434512770112
 20
-87.70381744150645
 30
0.0
 11
178.1868907990109
 21
-87.90208085740653
 31
0.0
  0
LINE
  5
21B
330
70
100
AcDbEntity
  8
0
 62
   144
420
    29337
370
    18
100
AcDbLine
 10
178.266362139211
 20
-87.43835881380606
 30
0.0
 11
178.266362139211
 21
-87.36482281270637
 31
0.0
  0
LINE
  5
21C
330
70
100
AcDbEntity
  8
0
 62
   144
420
    29337
370
    18
100
AcDbLine
 10
178.266362139211
 20
-87.36482281270637
 30
0.0
 11
178.698209615111
 21
-87.61412305400666
 31
0.0
  0
LINE
  5
21D
330
70
100
AcDbEntity
  8
0
 62
   144
420
    29337
370
    18
100
AcDbLine
 10
177.8434512770112
 20
-86.13324559970724
 30
0.0
 11
177.8434512770112
 21
-86.65358016560722
 31
0.0
  0
LINE
  5
21E
330
70
100
AcDbEntity
  8
0
 62
   144
420
    29337
370
    18
100
AcDbLine
 10
177.8434512770112
 20
-86.65358016560722
 30
0.0
 11
177.7899361393114
 21
-86.62268653420676
 31
0.0
  0
LINE
  5
21F
330
70
100
AcDbEntity
  8
0
 62
   144
420
    29337
370
    18
100
AcDbLine
 10
177.2693341506115
 20
-87.37238667910691
 30
0.0
 11
177.612532151411
 21
-87.57051066780631
 31
0.0
  0
LINE
  5
220
330
70
100
AcDbEntity
  8
0
 62
   144
420
    29337
370
    18
100
AcDbLine
 10
177.2693341506115
 20
-86.32035090850612
 30
0.0
 11
177.2074046251113
 21
-86.35610206260706
 31
0.0
  0
LINE
  5
221
330
70
100
AcDbEntity
  8
0
 62
   144
420
    29337
370
    18
100
AcDbLine
 10
177.8434512770112
 20
-87.70381744150645
 30
0.0
 11
177.7554091447109
 21
-87.75464308260671
 31
0.0
  0
LINE
  5
222
330
70
100
AcDbEntity
  8
0
 62
   144
420
    29337
370
    18
100
AcDbLine
 10
177.8434512770112
 20
-87.12068156860697
 30
0.0
 11
177.7728592570111
 21
-87.16143347430627
 31
0.0
  0
LINE
  5
223
330
70
100
AcDbEntity
  8
0
 62
    18
420
        0
370
    25
100
AcDbLine
 10
176.4365195857114
 20
-86.89161306430673
 30
0.0
 11
176.3360691577112
 21
-86.94960186210698
 31
0.0
  0
LINE
  5
224
330
70
100
AcDbEntity
  8
0
 62
    18
420
        0
370
    25
100
AcDbLine
 10
177.2693341506115
 20
-86.78925080620613
 30
0.0
 11
177.1923252729109
 21
-86.83370708510727
 31
0.0
  0
LINE
  5
225
330
70
100
AcDbEntity
  8
0
 62
   144
420
    29337
370
    18
100
AcDbLine
 10
177.2693341506115
 20
-87.37238667910691
 30
0.0
 11
177.1748751606113
 21
-87.42691669330632
 31
0.0
  0
LINE
  5
226
330
70
100
AcDbEntity
  8
0
 62
   144
420
    29337
370
    18
100
AcDbLine
 10
176.8665750796115
 20
-86.55674294360663
 30
0.0
 11
176.7861773319113
 21
-86.60315557550667
 31
0.0
  0
LINE
  5
227
330
70
100
AcDbEntity
  8
0
 62
    18
420
        0
370
    25
100
AcDbLine
 10
175.4570327018109
 20
-86.32616732210689
 30
0.0
 11
175.7881380247112
 21
-86.51731035640667
 31
0.0
  0
LINE
  5
228
330
70
100
AcDbEntity
  8
0
 62
   144
420
    29337
370
    18
100
AcDbLine
 10
175.3909614355114
 20
-85.08920107170672
 30
0.0
 11
175.4570327018109
 21
-85.1273432019061
 31
0.0
  0
LINE
  5
229
330
70
100
AcDbEntity
  8
0
 62
   144
420
    29337
370
    18
100
AcDbLine
 10
175.4570327018109
 20
-85.1273432019061
 30
0.0
 11
175.4570327018109
 21
-86.32616732210689
 31
0.0
  0
LINE
  5
22A
330
70
100
AcDbEntity
  8
0
 62
   144
420
    29337
370
    18
100
AcDbLine
 10
175.8870881854111
 20
-85.45030009230631
 30
0.0
 11
175.8870881854111
 21
-85.37560894810688
 31
0.0
  0
LINE
  5
22B
330
70
100
AcDbEntity
  8
0
 62
   144
420
    29337
370
    18
100
AcDbLine
 10
175.8870881854111
 20
-85.37560894810688
 30
0.0
 11
176.2168408270114
 21
-85.56597109610683
 31
0.0
  0
LINE
  5
22C
330
70
100
AcDbEntity
  8
0
 62
   144
420
    29337
370
    18
100
AcDbLine
 10
175.4570327018109
 20
-86.32616732210689
 30
0.0
 11
175.394580291911
 21
-86.36222033090721
 31
0.0
  0
SPLINE
  5
22D
330
70
100
AcDbEntity
  8
0
 62
   144
420
    29337
370
    18
100
AcDbSpline
210
0.0
220
0.0
230
1.0
 70
     8
 71
     3
 72
     8
 73
     4
 74
     0
 42
0.0000000001
 43
0.0000000001
 40
0.0
 40
0.0
 40
0.0
 40
0.0
 40
1.0
 40
1.0
 40
1.0
 40
1.0
 10
177.2807980934982
 20
-86.88378987471368
 30
0.0
 10
177.3961715077764
 20
-86.94906910341638
 30
0.0
 10
177.5115994183906
 20
-87.01425196926777
 30
0.0
 10
177.6270817045914
 20
-87.07933840407836
 30
0.0
  0
SPLINE
  5
22E
330
70
100
AcDbEntity
  8
0
 62
   144
420
    29337
370
    18
100
AcDbSpline
210
0.0
220
0.0
230
1.0
 70
     8
 71
     3
 72
     8
 73
     4
 74
     0
 42
0.0000000001
 43
0.0000000001
 40
0.0
 40
0.0
 40
0.0
 40
0.0
 40
1.0
 40
1.0
 40
1.0
 40
1.0
 10
177.2958168594835
 20
-86.40801832246451
 30
0.0
 10
177.2906598766516
 20
-86.56660404594502
 30
0.0
 10
177.2856536190407
 20
-86.7251946349622
 30
0.0
 10
177.280798093434
 20
-86.88378987459691
 30
0.0
  0
SPLINE
  5
22F
330
70
100
AcDbEntity
  8
0
 62
    18
420
        0
370
    25
100
AcDbSpline
210
0.0
220
0.0
230
1.0
 70
     8
 71
     3
 72
     8
 73
     4
 74
     0
 42
0.0000000001
 43
0.0000000001
 40
0.0
 40
0.0
 40
0.0
 40
0.0
 40
1.0
 40
1.0
 40
1.0
 40
1.0
 10
177.2958168595945
 20
-86.40801832269936
 30
0.0
 10
177.4111912416769
 20
-86.47329636299597
 30
0.0
 10
177.526619590438
 20
-86.53847897490138
 30
0.0
 10
177.6421017874728
 20
-86.60356609155313
 30
0.0
  0
SPLINE
  5
230
330
70
100
AcDbEntity
  8
0
 62
   144
420
    29337
370
    18
100
AcDbSpline
210
0.0
220
0.0
230
1.0
 70
     8
 71
     3
 72
     8
 73
     4
 74
     0
 42
0.0000000001
 43
0.0000000001
 40
0.0
 40
0.0
 40
0.0
 40
0.0
 40
1.0
 40
1.0
 40
1.0
 40
1.0
 10
177.642101787598
 20
-86.60356609153902
 30
0.0
 10
177.6369433119072
 20
-86.76215203434585
 30
0.0
 10
177.6319366152329
 20
-86.92074287786985
 30
0.0
 10
177.6270817044547
 20
-87.07933840419002
 30
0.0
  0
LINE
  5
231
330
70
100
AcDbEntity
  8
0
 62
   144
420
    29337
370
    18
100
AcDbLine
 10
177.295816859411
 20
-86.40801832260695
 30
0.0
 11
177.3569482290111
 21
-86.37272793410609
 31
0.0
  0
LINE
  5
232
330
70
100
AcDbEntity
  8
0
 62
   144
420
    29337
370
    18
100
AcDbLine
 10
177.644224276611
 20
-86.53856886630642
 30
0.0
 11
177.3569482290111
 21
-86.37272793410609
 31
0.0
  0
LWPOLYLINE
  5
233
330
70
100
AcDbEntity
  8
0
 62
   144
420
    29337
370
    18
100
AcDbPolyline
 90
       16
 70
     0
 43
0.0
 10
175.3945799092113
 20
-89.98569178320661
 10
175.7642277965109
 20
-90.2255171355066
 10
176.2331950390113
 20
-90.61295744370674
 10
176.6783356473112
 20
-91.0764870566065
 10
177.0868437295114
 20
-91.60276951220636
 10
177.4469673120115
 20
-92.17666457430723
 10
177.748346254811
 20
-92.78166361300618
 10
177.9823104903115
 20
-93.4003613971063
 10
178.1421291995111
 20
-94.01495735740619
 10
178.223204754211
 20
-94.6077721138071
 10
178.223204754211
 20
-95.16175259990692
 10
178.1421291995111
 20
-95.66096103430698
 10
177.9823104903115
 20
-96.09103424060664
 10
177.748346254811
 20
-96.43960266820672
 10
177.4469673120115
 20
-96.69663546540709
 10
177.4048046584111
 20
-96.72202367290651
  0
LWPOLYLINE
  5
234
330
70
100
AcDbEntity
  8
0
 62
    18
420
        0
370
    25
100
AcDbPolyline
 90
       23
 70
     0
 43
0.0
 10
155.0857123499111
 20
-73.98917695290666
 10
155.1170561050113
 20
-74.33016422990665
 10
155.2559882521111
 20
-74.75405092110726
 10
155.5028059592115
 20
-75.1612494002066
 10
155.8519963034112
 20
-75.54266358540636
 10
156.295758495811
 20
-75.88977330460711
 10
156.824180042011
 20
-76.19482457000659
 10
157.4254568610114
 20
-76.45100303070674
 10
158.0861571967112
 20
-76.65258632560666
 10
158.7915220790111
 20
-76.79507115510677
 10
159.5257949248109
 20
-76.87527497640719
 10
160.2725732016111
 20
-76.89140576480621
 10
161.0151751538113
 20
-76.84310340470656
 10
161.7370126214114
 20
-76.7314470551062
 10
162.4219604013113
 20
-76.55893048630649
 10
163.0547180762111
 20
-76.32940773960673
 10
163.6211510172111
 20
-76.0480059491066
 10
164.1086060736114
 20
-75.72101114870673
 10
164.5061941708115
 20
-75.35572794210686
 10
164.8050339306113
 20
-74.96031605280714
 10
164.9984494404115
 20
-74.54360810510689
 10
165.0821206482111
 20
-74.11491312320698
 10
165.0855220306111
 20
-73.98917695290666
  0
LWPOLYLINE
  5
235
330
70
100
AcDbEntity
  8
0
 62
    18
420
        0
370
    25
100
AcDbPolyline
 90
       27
 70
     0
 43
0.0
 10
156.6220945468108
 20
-62.47878985640706
 10
156.1339813574113
 20
-62.8074370166072
 10
155.7384913830114
 20
-63.17524645060732
 10
155.4448940491112
 20
-63.57359681360666
 10
155.2600712280112
 20
-63.99315109150611
 10
155.1883554018111
 20
-64.42407567340652
 10
155.2314271761111
 20
-64.85626964180639
 10
155.3882766728109
 20
-65.27960299610626
 10
155.6552283082113
 20
-65.68415297580603
 10
156.0260244687109
 20
-66.06043731800697
 10
156.4919739825109
 20
-66.39963625920718
 10
157.0421551460114
 20
-66.69379945980685
 10
157.6636727421113
 20
-66.93603163440606
 10
158.3419589327114
 20
-67.12065522850728
 10
159.0611145601114
 20
-67.24334281830689
 10
159.8042838484114
 20
-67.30121880080604
 10
160.554047307411
 20
-67.29292654030631
 10
161.2928313478115
 20
-67.21866030370711
 10
162.0033188831111
 20
-67.08016088770662
 10
162.6688574219112
 20
-66.88067467990726
 10
163.273847114811
 20
-66.62487752930615
 10
163.8041072350114
 20
-66.31876487780698
 10
164.2472089483115
 20
-65.96951173830674
 10
164.5927665964112
 20
-65.58530454170664
 10
164.8326806169115
 20
-65.17514881800696
 10
164.9613274511112
 20
-64.74865786960631
 10
164.9836843786111
 20
-64.46079283860659
  0
SPLINE
  5
236
330
70
100
AcDbEntity
  8
0
 62
   144
420
    29337
370
    18
100
AcDbSpline
210
0.0
220
0.0
230
1.0
 70
     8
 71
     3
 72
    38
 73
    34
 74
     0
 42
0.0000000001
 43
0.0000000001
 40
0.0
 40
0.0
 40
0.0
 40
0.0
 40
1.0
 40
1.0
 40
1.0
 40
2.0
 40
2.0
 40
2.0
 40
3.0
 40
3.0
 40
3.0
 40
4.0
 40
4.0
 40
4.0
 40
5.0
 40
5.0
 40
5.0
 40
6.0
 40
6.0
 40
6.0
 40
7.0
 40
7.0
 40
7.0
 40
8.0
 40
8.0
 40
8.0
 40
9.0
 40
9.0
 40
9.0
 40
10.0
 40
10.0
 40
10.0
 40
11.0
 40
11.0
 40
11.0
 40
11.0
 10
157.3519284733731
 20
-70.37651741099843
 30
0.0
 10
157.3975700179512
 20
-70.36228558649092
 30
0.0
 10
157.44321156253
 20
-70.3480537619847
 30
0.0
 10
157.4850440260387
 20
-70.32667594157678
 30
0.0
 10
157.5929621616645
 20
-70.27152608119081
 30
0.0
 10
157.6755300498929
 20
-70.16881809309173
 30
0.0
 10
157.7368947419035
 20
-70.05350565374278
 30
0.0
 10
157.7980413612008
 20
-69.93860300210162
 30
0.0
 10
157.8381352168007
 20
-69.81118532532221
 30
0.0
 10
157.8490550790526
 20
-69.6722339645962
 30
0.0
 10
157.8594823472988
 20
-69.53955068728363
 30
0.0
 10
157.8433083283657
 20
-69.3963508229805
 30
0.0
 10
157.8033064859912
 20
-69.25258954365586
 30
0.0
 10
157.7639309041799
 20
-69.11107896115661
 30
0.0
 10
157.7014677455779
 20
-68.96902440482709
 30
0.0
 10
157.621656861632
 20
-68.83156298065199
 30
0.0
 10
157.5388763333767
 20
-68.68898682129503
 30
0.0
 10
157.4374330961863
 20
-68.55135196039636
 30
0.0
 10
157.3254735057165
 20
-68.42372836814097
 30
0.0
 10
157.2099978548108
 20
-68.2920967917401
 30
0.0
 10
157.0833349523813
 20
-68.17111515999444
 30
0.0
 10
156.9548301274855
 20
-68.06596867438954
 30
0.0
 10
156.8289055756311
 20
-67.96293344524811
 30
0.0
 10
156.7012123273249
 20
-67.8751038326902
 30
0.0
 10
156.5813240074022
 20
-67.80914692273326
 30
0.0
 10
156.465848967591
 20
-67.74561799174143
 30
0.0
 10
156.3576148088661
 20
-67.70238106482719
 30
0.0
 10
156.2584571766028
 20
-67.67675674855157
 30
0.0
 10
156.1590588246977
 20
-67.65107022550393
 30
0.0
 10
156.0687811219341
 20
-67.64308193126689
 30
0.0
 10
156.0009771399659
 20
-67.67395180521193
 30
0.0
 10
155.9631299965081
 20
-67.6911828956862
 30
0.0
 10
155.9322849931243
 20
-67.72052103061028
 30
0.0
 10
155.9014399897413
 20
-67.74985916553567
 30
0.0
  0
LWPOLYLINE
  5
237
330
70
100
AcDbEntity
  8
0
 62
    18
420
        0
370
    25
100
AcDbPolyline
 90
       20
 70
     0
 43
0.0
 10
155.3589530030113
 20
-64.90535831090672
 10
155.4749521607109
 20
-65.18425276380646
 10
155.736977718511
 20
-65.58133801720605
 10
156.1009319720113
 20
-65.95067915480661
 10
156.5582835596109
 20
-66.28361938080643
 10
157.0983131875112
 20
-66.57235447750615
 10
157.7083623956111
 20
-66.81011709260619
 10
158.3741329478114
 20
-66.99133398640634
 10
159.080018574111
 20
-67.11175785610624
 10
159.8094749901114
 20
-67.16856594190684
 10
160.5454039107113
 20
-67.16042660470647
 10
161.2705557505113
 20
-67.08753068960604
 10
161.9679334757109
 20
-66.95158686910673
 10
162.6211917234114
 20
-66.75578170150689
 10
163.2150178574113
 20
-66.50470430660678
 10
163.735493647311
 20
-66.2042400287071
 10
164.1704195306114
 20
-65.86143152520725
 10
164.5096008215111
 20
-65.48431354220618
 10
164.7450879411115
 20
-65.08172595070663
 10
164.8655174570115
 20
-64.6961399263069
  0
LWPOLYLINE
  5
238
330
70
100
AcDbEntity
  8
0
 62
    18
420
        0
370
    25
100
AcDbPolyline
 90
       15
 70
     0
 43
0.0
 10
164.689422491011
 20
-63.59781944120656
 10
164.5784523084108
 20
-63.40965665770622
 10
164.2645414282113
 20
-63.02531549880698
 10
163.8526798727113
 20
-62.67314158720624
 10
163.352521822011
 20
-62.3613891189063
 10
162.7757899446113
 20
-62.09736566730665
 10
162.1360030068112
 20
-61.88725934900615
 10
161.4481566433114
 20
-61.73599521420707
 10
160.7283735876113
 20
-61.64711848760606
 10
159.9935246799111
 20
-61.62271245130646
 10
159.2608344811114
 20
-61.66334926060704
 10
158.5474763503115
 20
-61.76807630550636
 10
157.8701710617113
 20
-61.93443902060622
 10
157.2447942302114
 20
-62.15853795820659
 10
156.6860033278112
 20
-62.43512017170719
  0
LWPOLYLINE
  5
239
330
70
100
AcDbEntity
  8
0
 62
   144
420
    29337
370
    18
100
AcDbPolyline
 90
       39
 70
     0
 43
0.0
 10
144.3945804254109
 20
-85.57476550410713
 10
144.4259982668111
 20
-86.14419501450694
 10
144.5653752606114
 20
-86.89944536810649
 10
144.8152000466114
 20
-87.6451515627062
 10
145.1736715056111
 20
-88.37594066040622
 10
145.6382084722109
 20
-89.08654674140631
 10
146.2054619185112
 20
-89.771850631207
 10
146.8713460697114
 20
-90.42691459120625
 10
147.6310630997109
 20
-91.04701862530721
 10
148.4791389397115
 20
-91.62769483700708
 10
149.409463284411
 20
-92.16475964950646
 10
150.4153329739112
 20
-92.65434341080625
 10
151.4895010552115
 20
-93.09291871690696
 10
152.6242280663114
 20
-93.47732545500702
 10
153.811337847811
 20
-93.80479389920724
 10
155.0422770591109
 20
-94.07296538190728
 10
156.3081780690109
 20
-94.27990655020604
 10
157.5999190483113
 20
-94.42412732940637
 10
158.9081927875111
 20
-94.50458795530627
 10
160.2235741975109
 20
-94.52070904940645
 10
161.5365848473114
 20
-94.47237465990673
 10
162.8377647451115
 20
-94.35993264220646
 10
164.1177381926111
 20
-94.18419313770707
 10
165.3672842496112
 20
-93.94642287170638
 10
166.5773999543112
 20
-93.64833450850612
 10
167.739365189411
 20
-93.29207581660726
 10
168.8448087018111
 20
-92.88021360630667
 10
169.8857656427114
 20
-92.4157157197065
 10
170.8547354371113
 20
-91.90192826730696
 10
171.7447378425115
 20
-91.34255391170709
 10
172.5493589645109
 20
-90.74162226090727
 10
173.2628025415114
 20
-90.10346330470646
 10
173.8799275634113
 20
-89.43267505260683
 10
174.3962877023114
 20
-88.73409012610707
 10
174.808162511011
 20
-88.01274254170728
 10
175.1125852465112
 20
-87.2738295987064
 10
175.3073616386112
 20
-86.52267443250693
 10
175.3910883288109
 20
-85.76468951850698
 10
175.3945805903113
 20
-85.57476550410713
  0
LWPOLYLINE
  5
23A
330
70
100
AcDbEntity
  8
0
 62
    18
420
        0
370
    25
100
AcDbPolyline
 90
       39
 70
     0
 43
0.0
 10
144.3945804254109
 20
-139.8747300299065
 10
144.4259982668111
 20
-140.4441595402062
 10
144.5653752606114
 20
-141.1994098939071
 10
144.8152000466114
 20
-141.9451160885068
 10
145.1736715056111
 20
-142.6759051862068
 10
145.6382084722109
 20
-143.3865112672069
 10
146.2054619185112
 20
-144.0718151569063
 10
146.8713460697114
 20
-144.7268791170069
 10
147.6310630997109
 20
-145.3469831511065
 10
148.4791389397115
 20
-145.9276593628064
 10
149.409463284411
 20
-146.464724175207
 10
150.4153329739112
 20
-146.9543079366069
 10
151.4895010552115
 20
-147.3928832427063
 10
152.6242280663114
 20
-147.7772899808064
 10
153.811337847811
 20
-148.1047584250066
 10
155.0422770591109
 20
-148.3729299076065
 10
156.3081780690109
 20
-148.5798710760066
 10
157.5999190483113
 20
-148.7240918551069
 10
158.9081927875111
 20
-148.8045524810068
 10
160.2235741975109
 20
-148.8206735751069
 10
161.5365848473114
 20
-148.772339185706
 10
162.8377647451115
 20
-148.6598971680071
 10
164.1177381926111
 20
-148.4841576635064
 10
165.3672842496112
 20
-148.246387397507
 10
166.5773999543112
 20
-147.9482990343067
 10
167.739365189411
 20
-147.5920403424066
 10
168.8448087018111
 20
-147.1801781321073
 10
169.8857656427114
 20
-146.715680245407
 10
170.8547354371113
 20
-146.2018927931063
 10
171.7447378425115
 20
-145.6425184374063
 10
172.5493589645109
 20
-145.0415867866065
 10
173.2628025415114
 20
-144.4034278305071
 10
173.8799275634113
 20
-143.7326395784062
 10
174.3962877023114
 20
-143.0340546519064
 10
174.808162511011
 20
-142.3127070675066
 10
175.1125852465112
 20
-141.5737941244069
 10
175.3073616386112
 20
-140.8226389583063
 10
175.3910883288109
 20
-140.0646540443063
 10
175.3945805903113
 20
-139.8747300299065
  0
LWPOLYLINE
  5
23B
330
70
100
AcDbEntity
  8
0
 62
    18
420
        0
370
    25
100
AcDbPolyline
 90
       24
 70
     0
 43
0.0
 10
144.0027032262112
 20
-77.36167577030638
 10
143.9176898223109
 20
-76.99381557470632
 10
143.7613488866112
 20
-76.62308642920715
 10
143.5452757414112
 20
-76.27698387270666
 10
143.2854953676109
 20
-75.98117580270687
 10
143.0012745499114
 20
-75.75760152140728
 10
142.7136926341113
 20
-75.62284208190658
 10
142.4440782770114
 20
-75.58689388560665
 10
142.2124275084109
 20
-75.65241970930642
 10
142.0359208697111
 20
-75.81456339520696
 10
141.9276489909111
 20
-76.06129704190724
 10
141.8956418345112
 20
-76.37432220830618
 10
141.9422733711111
 20
-76.7304235931066
 10
142.0640850896112
 20
-77.10319073970666
 10
142.2520428295114
 20
-77.46497772480686
 10
142.4922064795111
 20
-77.78895061810729
 10
142.7667643039113
 20
-78.05108231740634
 10
143.055353612611
 20
-78.23193397470713
 10
143.3365710095112
 20
-78.31808958710666
 10
143.5895599373113
 20
-78.30316220160629
 10
143.7955573103113
 20
-78.18825634490686
 10
143.9392853077113
 20
-77.98189695640679
 10
144.010084193011
 20
-77.6993860012066
 10
144.0027032262112
 20
-77.36167577030638
  0
LWPOLYLINE
  5
23C
330
70
100
AcDbEntity
  8
0
 62
    18
420
        0
370
    25
100
AcDbPolyline
 90
       19
 70
     0
 43
0.0
 10
143.6537874127114
 20
-77.22616179830636
 10
143.5726603269112
 20
-76.9116680048071
 10
143.4171496100109
 20
-76.60241638380691
 10
143.2060120501111
 20
-76.33570671190674
 10
142.9647140405109
 20
-76.14370977850676
 10
142.7223596355112
 20
-76.04958142460661
 10
142.5081803820114
 20
-76.06467722320622
 10
142.3480093926113
 20
-76.18717404560698
 10
142.2611657289111
 20
-76.40229732680642
 10
142.2581239941109
 20
-76.68410125260698
 10
142.3392510799112
 20
-76.99859656710623
 10
142.4947617968114
 20
-77.30784818810642
 10
142.7058993567113
 20
-77.57455633900661
 10
142.9471973663114
 20
-77.76655327240658
 10
143.1895517713111
 20
-77.86068162630674
 10
143.4037310248109
 20
-77.84558582770713
 10
143.5639020143111
 20
-77.72308900530638
 10
143.6507456779112
 20
-77.50796572420703
 10
143.6537874127114
 20
-77.22616179830636
  0
LWPOLYLINE
  5
23D
330
70
100
AcDbEntity
  8
0
 62
     8
420
  8421504
370
    25
100
AcDbPolyline
 90
       31
 70
     0
 43
0.0
 10
174.3703021945114
 20
-143.0735238295069
 10
174.1049647341113
 20
-143.4568386254071
 10
173.5395410537112
 20
-144.139932018707
 10
172.8758045808109
 20
-144.7928825206068
 10
172.1185384889115
 20
-145.4109861970072
 10
171.273198530911
 20
-145.9897895267064
 10
170.3458752558113
 20
-146.5251218585062
 10
169.343249844711
 20
-147.0131262288073
 10
168.2725468599113
 20
-147.4502866385067
 10
167.1414808624111
 20
-147.8334535483064
 10
165.9582001879114
 20
-148.1598656911069
 10
164.7312310122114
 20
-148.427171717607
 10
163.469413636811
 20
-148.6334456882068
 10
162.1818399272114
 20
-148.7772011397067
 10
160.8777854826113
 20
-148.857402109706
 10
159.5666483919111
 20
-148.8734711206066
 10
158.2578735004109
 20
-148.825292600707
 10
156.9608911653114
 20
-148.7132132648073
 10
155.6850454748109
 20
-148.5380409735063
 10
154.4395303687114
 20
-148.3010375097064
 10
153.2333188452108
 20
-148.0039104054068
 10
152.0751017161111
 20
-147.6488011564066
 10
150.9732242222114
 20
-147.238267639107
 10
149.9356251997109
 20
-146.7752680010073
 10
148.969780857611
 20
-146.2631380884067
 10
148.0826497063113
 20
-145.7055680179067
 10
147.280623908111
 20
-145.1065748521064
 10
146.569481944211
 20
-144.4704745147068
 10
145.9543480316114
 20
-143.8018499981062
 10
145.4396530225111
 20
-143.1055189074066
 10
145.4188588212109
 20
-143.0735238295069
  0
LWPOLYLINE
  5
23E
330
70
100
AcDbEntity
  8
0
 62
     8
420
  8421504
370
    25
100
AcDbPolyline
 90
       25
 70
     0
 43
0.0
 10
170.8547354371113
 20
-91.60970832900732
 10
169.8857656427114
 20
-92.12349578140685
 10
168.8448087018111
 20
-92.58799366800703
 10
167.739365189411
 20
-92.99985587830633
 10
166.5773999543112
 20
-93.35611457020648
 10
165.3672842496112
 20
-93.65420293340674
 10
164.1177381926111
 20
-93.89197319940613
 10
162.8377647451115
 20
-94.06771270390681
 10
161.5365848473114
 20
-94.18015472170718
 10
160.2235741975109
 20
-94.22848911110682
 10
158.9081927875111
 20
-94.21236801700661
 10
157.5999190483113
 20
-94.13190739110673
 10
156.3081780690109
 20
-93.9876866119064
 10
155.0422770591109
 20
-93.78074544360634
 10
153.811337847811
 20
-93.5125739609063
 10
152.6242280663114
 20
-93.18510551670609
 10
151.4895010552115
 20
-92.80069877860604
 10
150.4153329739112
 20
-92.36212347250662
 10
149.409463284411
 20
-91.87253971120682
 10
148.4791389397108
 20
-91.33547489870617
 10
147.6310630997109
 20
-90.75479868700627
 10
146.8713460697114
 20
-90.13469465290661
 10
146.2054619185112
 20
-89.47963069290608
 10
145.6382084722109
 20
-88.79432680310667
 10
145.3444969631114
 20
-88.36685378150646
  0
SPLINE
  5
23F
330
70
100
AcDbEntity
  8
0
 62
     8
420
  8421504
370
    25
100
AcDbSpline
210
0.0
220
0.0
230
1.0
 70
     8
 71
     3
 72
     8
 73
     4
 74
     0
 42
0.0000000001
 43
0.0000000001
 40
0.0
 40
0.0
 40
0.0
 40
0.0
 40
1.0
 40
1.0
 40
1.0
 40
1.0
 10
170.8547354371581
 20
-91.60970832908688
 30
0.0
 10
172.3015408568918
 20
-90.83490638099487
 30
0.0
 10
173.5365887228095
 20
-89.71757881373335
 30
0.0
 10
174.4519633599359
 20
-88.35535517018556
 30
0.0
  0
LWPOLYLINE
  5
240
330
70
100
AcDbEntity
  8
0
 62
     8
420
  8421504
370
    25
100
AcDbPolyline
 90
       23
 70
     0
 43
0.0
 10
170.6835711584113
 20
-91.30686495790731
 10
171.5596735002113
 20
-90.75622585540628
 10
172.3517294284114
 20
-90.16467916770656
 10
173.0540310909115
 20
-89.53648635890653
 10
173.6615183139114
 20
-88.87617368160675
 10
174.1698142460112
 20
-88.18849867370683
 10
174.5752573798111
 20
-87.47841646650689
 10
174.8749257532111
 20
-86.75104300300624
 10
175.066660328211
 20
-86.01161873180647
 10
175.1490798075113
 20
-85.26547116030702
 10
175.121590184111
 20
-84.51797664770698
 10
174.9843896799111
 20
-83.77452105750618
 10
174.7384667701109
 20
-83.04046059990682
 10
174.3855929395113
 20
-82.32108419510602
 10
173.9283108284112
 20
-81.62157545640729
 10
173.3699157935109
 20
-80.94697391260686
 10
172.7144310480109
 20
-80.30214012780714
 10
171.9665789320114
 20
-79.69172010780706
 10
171.1317474511108
 20
-79.12011229660675
 10
170.215951997711
 20
-78.59143483450717
 10
169.2257909407108
 20
-78.10949687890648
 10
168.1683978813112
 20
-77.67777104190688
 10
167.1552167837112
 20
-77.3314974109066
  0
LWPOLYLINE
  5
241
330
70
100
AcDbEntity
  8
0
 62
     8
420
  8421504
370
    25
100
AcDbPolyline
 90
       43
 70
     0
 43
0.0
 10
153.0659942102109
 20
-77.20165502810697
 10
152.1723078246112
 20
-77.48172411020641
 10
151.0841280564112
 20
-77.88715423010657
 10
150.0594281099113
 20
-78.34439838470713
 10
149.1055898573109
 20
-78.85016150120652
 10
148.229487515511
 20
-79.40080060370625
 10
147.4374315873115
 20
-79.99234729140727
 10
146.7351299248114
 20
-80.62054010010719
 10
146.1276427018109
 20
-81.28085277740698
 10
145.619346769711
 20
-81.96852778530688
 10
145.2139036359111
 20
-82.67860999250684
 10
144.9142352625111
 20
-83.4059834560062
 10
144.7225006875112
 20
-84.14540772720725
 10
144.6400812082109
 20
-84.89155529880681
 10
144.6675708316113
 20
-85.63904981140685
 10
144.8047713358111
 20
-86.38250540160637
 10
145.0506942456114
 20
-87.116565859207
 10
145.4035680762109
 20
-87.83594226390642
 10
145.860850187311
 20
-88.53545100270656
 10
146.4192452222113
 20
-89.21005254650697
 10
147.0747299677113
 20
-89.85488633130669
 10
147.8225820837115
 20
-90.46530635130677
 10
148.6574135646114
 20
-91.03691416250708
 10
149.5732090180112
 20
-91.56559162450655
 10
150.5633700750114
 20
-92.04752958010724
 10
151.620763134411
 20
-92.47925541710683
 10
152.737769042011
 20
-92.85765870620698
 10
153.906339807811
 20
-93.18001329830718
 10
155.1180557756109
 20
-93.4439966420061
 10
156.3641872794115
 20
-93.64770636830687
 10
157.635755064811
 20
-93.78967464230717
 10
158.9235974606112
 20
-93.86887880750654
 10
160.2184362333108
 20
-93.88474822930717
 10
161.5109417827113
 20
-93.83716847660725
 10
162.7918009726114
 20
-93.72648246250687
 10
164.0517852894114
 20
-93.55348759280683
 10
165.2818170263111
 20
-93.3194302537073
 10
166.4730341499114
 20
-93.02599725800707
 10
167.616853191111
 20
-92.67530234890612
 10
168.7050329593111
 20
-92.26987222900724
 10
169.7297329058109
 20
-91.81262807430659
 10
170.6835711584113
 20
-91.30686495790731
 10
170.6835711584113
 20
-91.30686495790731
  0
SPLINE
  5
242
330
70
100
AcDbEntity
  8
0
 62
     8
420
  8421504
370
    25
100
AcDbSpline
210
0.0
220
0.0
230
1.0
 70
     8
 71
     3
 72
     8
 73
     4
 74
     0
 42
0.0000000001
 43
0.0000000001
 40
0.0
 40
0.0
 40
0.0
 40
0.0
 40
1.0
 40
1.0
 40
1.0
 40
1.0
 10
152.8416587186961
 20
-80.61231769729683
 30
0.0
 10
153.4301256838852
 20
-81.48502667254714
 30
0.0
 10
154.2626451154733
 20
-82.16504224814949
 30
0.0
 10
155.2352608106455
 20
-82.56745128645112
 30
0.0
  0
LWPOLYLINE
  5
243
330
70
100
AcDbEntity
  8
0
 62
     8
420
  8421504
370
    25
100
AcDbPolyline
 90
       17
 70
     0
 43
0.0
 10
167.3339016407109
 20
-80.60528893070648
 10
167.0402144978114
 20
-81.01693434920724
 10
166.5939830928111
 20
-81.48705385200718
 10
166.0528449698109
 20
-81.92269496120662
 10
165.424691354511
 20
-82.31750510720669
 10
164.718681993911
 20
-82.66572697120656
 10
163.9451119451114
 20
-82.96228260910728
 10
163.1152622299111
 20
-83.20284788240664
 10
162.2412332331108
 20
-83.38391441910681
 10
161.3357702607112
 20
-83.50284203610712
 10
160.412077623811
 20
-83.55789649430633
 10
159.4836240394112
 20
-83.5482751608068
 10
158.5639491826113
 20
-83.47411793780636
 10
157.6664633244113
 20
-83.33650659820632
 10
156.8042545431109
 20
-83.13744739210727
 10
155.9898954411109
 20
-82.87984348530679
 10
155.2352608106109
 20
-82.56745128650631
  0
LINE
  5
244
330
70
100
AcDbEntity
  8
0
 62
     8
420
  8421504
370
    25
100
AcDbLine
 10
164.7861143585113
 20
-75.58216699380678
 30
0.0
 11
164.437520326311
 21
-75.42820888180685
 31
0.0
  0
LWPOLYLINE
  5
245
330
70
100
AcDbEntity
  8
0
 62
     8
420
  8421504
370
    25
100
AcDbPolyline
 90
       43
 70
     0
 43
0.0
 10
155.7337138896109
 20
-75.42820878680716
 10
155.4422308128109
 20
-75.55563675950648
 10
154.7611315258114
 20
-75.91055152800615
 10
154.1607463349111
 20
-76.3110948759065
 10
153.6501762016114
 20
-76.75119480490668
 10
153.2371607938111
 20
-77.22417983650666
 10
152.9279606472114
 20
-77.72287973340688
 10
152.7272639400112
 20
-78.23973520240722
 10
152.6381118309112
 20
-78.76691094680687
 10
152.6618566409109
 20
-79.29641561050697
 10
152.7981374878111
 20
-79.82022229140669
 10
153.0448895051113
 20
-80.33039095640653
 10
153.3983718308112
 20
-80.81918762390642
 10
153.8532262176115
 20
-81.27920259760719
 10
154.4025570047111
 20
-81.70346278170605
 10
155.0380369791113
 20
-82.08553689390697
 10
155.7500336103112
 20
-82.41963266930723
 10
156.5277527776112
 20
-82.70068591550684
 10
157.3594057523114
 20
-82.92443600000698
 10
158.2323855230111
 20
-83.08749114400621
 10
159.1334581439112
 20
-83.1873795796066
 10
160.0489647432114
 20
-83.22258709110691
 10
160.9650264956113
 20
-83.19257992030614
 10
161.8677578254109
 20
-83.09781322530705
 10
162.7434731900109
 20
-82.93972309690614
 10
163.5788985546114
 20
-82.72070636220725
 10
164.361369367511
 20
-82.44408309040727
 10
165.0790240794111
 20
-82.11404646360724
 10
165.7209836069114
 20
-81.73559947290696
 10
166.2775172246114
 20
-81.31447930000613
 10
166.7401873822111
 20
-80.85706915370634
 10
167.1019815274109
 20
-80.37030354250664
 10
167.3574143138114
 20
-79.86156098900668
 10
167.5026141582111
 20
-79.33855323460611
 10
167.5353800402112
 20
-78.80920919250705
 10
167.4552150880109
 20
-78.28155253350657
 10
167.2633344808111
 20
-77.76358250220607
 10
166.9626470097113
 20
-77.26315074240713
 10
166.5577107906114
 20
-76.7878433495066
 10
166.0546641167111
 20
-76.34486567880687
 10
165.461133026211
 20
-75.94093234030726
 10
164.7861143585113
 20
-75.58216699380678
 10
164.7861143585113
 20
-75.58216699380678
  0
LWPOLYLINE
  5
246
330
70
100
AcDbEntity
  8
0
 62
     8
420
  8421504
370
    25
100
AcDbPolyline
 90
       28
 70
     0
 43
0.0
 10
164.1347257598111
 20
-77.6427525270061
 10
164.2430640692111
 20
-77.77398471490698
 10
164.4800099472113
 20
-78.16252508520619
 10
164.608751447311
 20
-78.56767967720609
 10
164.6261182538113
 20
-78.97947260150698
 10
164.5316829713109
 20
-79.38776416330684
 10
164.3277705913109
 20
-79.78250058610725
 10
164.0194026803111
 20
-80.15396235750669
 10
163.614171639011
 20
-80.49300276200659
 10
163.1220558959114
 20
-80.79127356060695
 10
162.5551727600113
 20
-81.04143020380695
 10
161.9274813092109
 20
-81.23731323500653
 10
161.2544370505113
 20
-81.37409936880686
 10
160.5526125036112
 20
-81.44842015980669
 10
159.8392889463113
 20
-81.45844580380725
 10
159.1320305840112
 20
-81.40392947570719
 10
158.4482530377111
 20
-81.28621341190715
 10
157.8047927386114
 20
-81.1081962635067
 10
157.2174938766114
 20
-80.87426135090707
 10
156.7008177393112
 20
-80.59016899280718
 10
156.2674864803114
 20
-80.2629145367069
 10
155.9281703113111
 20
-79.90055595130704
 10
155.6912244333109
 20
-79.51201558110665
 10
155.5624829332112
 20
-79.10686098910677
 10
155.545116126811
 20
-78.69506806480714
 10
155.6395514092112
 20
-78.28677650290718
 10
155.8434637069114
 20
-77.89204012760663
 10
156.0365084561114
 20
-77.64275243190629
  0
LWPOLYLINE
  5
247
330
70
100
AcDbEntity
  8
0
 62
     8
420
  8421504
370
    25
100
AcDbPolyline
 90
       21
 70
     0
 43
0.0
 10
156.0282207558113
 20
-78.41819755250707
 10
156.0358254632113
 20
-78.57671622710603
 10
156.1321352925113
 20
-78.95955619110655
 10
156.3362856541112
 20
-79.32802360380687
 10
156.6427081012109
 20
-79.67206746850648
 10
157.0430442428115
 20
-79.98230321440671
 10
157.5263737854109
 20
-80.25026846690691
 10
158.0795128119113
 20
-80.46865378730661
 10
158.6873731004109
 20
-80.63150230920628
 10
159.3333738172112
 20
-80.73437175010687
 10
159.9998939577115
 20
-80.77445626800642
 10
160.6687520959109
 20
-80.75066230480681
 10
161.3217040793109
 20
-80.66363909530677
 10
161.9409388308111
 20
-80.51576027630636
 10
162.5095653013112
 20
-80.31105966150652
 10
163.0120723596112
 20
-80.05512067200724
 10
163.434753698511
 20
-79.7549251354065
 10
163.7660794589113
 20
-79.41866137120662
 10
163.9970115085111
 20
-79.05550169720664
 10
164.1212511983113
 20
-78.67535219390652
 10
164.1426660778109
 20
-78.46654439250696
  0
LWPOLYLINE
  5
248
330
70
100
AcDbEntity
  8
0
 62
     8
420
  8421504
370
    25
100
AcDbPolyline
 90
       39
 70
     0
 43
0.0
 10
175.3945802199111
 20
-103.8273302629064
 10
175.4180940454113
 20
-103.8415585036069
 10
176.2724493131115
 20
-104.3123032276071
 10
177.121496012311
 20
-104.6903613075065
 10
177.9581983770109
 20
-104.9726018888061
 10
178.7756234976111
 20
-105.1566865807069
 10
179.5669980792112
 20
-105.2410870130066
 10
180.325763841711
 20
-105.2251046506067
 10
181.0456343192112
 20
-105.1088746852067
 10
181.7206440862109
 20
-104.8933564303069
 10
182.3451991365113
 20
-104.5803380688067
 10
182.9141249566114
 20
-104.1724126944066
 10
183.4227076848113
 20
-103.6729610070063
 10
183.8667319779113
 20
-103.0861214609062
 10
184.2425192061112
 20
-102.4167560406071
 10
184.5469551125112
 20
-101.6704114744072
 10
184.7775168131113
 20
-100.8532739844072
 10
184.932294528811
 20
-99.97211186950638
 10
185.0100054150108
 20
-99.0342287358063
 10
185.0100054150108
 20
-98.04739429300653
 10
184.932294528811
 20
-97.01978808000651
 10
184.7775168131113
 20
-95.95992341840654
 10
184.5469551125112
 20
-94.87658353420719
 10
184.2425192061112
 20
-93.77874551260619
 10
183.8667319779113
 20
-92.67550539390702
 10
183.4227076848113
 20
-91.57600555090622
 10
182.9141249566114
 20
-90.48935674430614
 10
182.3451991365113
 20
-89.42456436030616
 10
181.7206440862109
 20
-88.39044932620637
 10
181.0456343192112
 20
-87.39558290410725
 10
180.325763841711
 20
-86.44820665590669
 10
179.5669980792112
 20
-85.55617275190625
 10
178.7756234976111
 20
-84.72687230150645
 10
177.9581983770109
 20
-83.96717689730682
 10
177.121496012311
 20
-83.28338149090724
 10
176.2724493131108
 20
-82.6811526389064
 10
175.4180940454113
 20
-82.16548014760643
 10
174.565509521611
 20
-81.74063751050629
 10
173.9927831589114
 20
-81.50635266260666
  0
LWPOLYLINE
  5
249
330
70
100
AcDbEntity
  8
0
 62
     8
420
  8421504
370
    25
100
AcDbPolyline
 90
       31
 70
     0
 43
0.0
 10
173.1198331874112
 20
-80.54021266940658
 10
173.8213401512109
 20
-80.72816273940608
 10
174.6797362891114
 20
-81.04382020710632
 10
175.5486404102114
 20
-81.4551221504068
 10
176.4210566314112
 20
-81.95875731470684
 10
177.2899607524112
 20
-82.55067071550676
 10
178.1483568903109
 20
-83.22609633290724
 10
178.9893337028113
 20
-83.97959641240664
 10
179.8061201999111
 20
-84.80510433130678
 10
180.5921401561111
 20
-85.69597312040718
 10
181.3410646294113
 20
-86.64503049730704
 10
182.0468639864113
 20
-87.6446347560069
 10
182.703855646411
 20
-88.68673731020697
 10
183.3067505093108
 20
-89.76294941990691
 10
183.8506931264113
 20
-90.8646049251064
 10
184.3313041767113
 20
-91.98283267680656
 10
184.7447147112111
 20
-93.10863181900687
 10
185.087596446011
 20
-94.23293642530666
 10
185.3571881039109
 20
-95.34669458490675
 10
185.5513184638114
 20
-96.44093950340732
 10
185.6684261166108
 20
-97.50686174480685
 10
185.7075667094114
 20
-98.53587653220717
 10
185.6684261166115
 20
-99.51970055300614
 10
185.5513184638114
 20
-100.4504116556062
 10
185.3571881039109
 20
-101.3205184314069
 10
185.087596446011
 20
-102.1230134487066
 10
184.7447147112111
 20
-102.8514359911072
 10
184.3313041767113
 20
-103.4999199691061
 10
183.8506931264113
 20
-104.0632475345072
 10
183.3067505093115
 20
-104.536879501407
 10
182.843235274511
 20
-104.8404678412072
  0
LWPOLYLINE
  5
24A
330
70
100
AcDbEntity
  8
0
 62
     8
420
  8421504
370
    25
100
AcDbPolyline
 90
        8
 70
     0
 43
0.0
 10
156.6860033278112
 20
-62.43512017170719
 10
156.2068969900109
 20
-62.75770328140713
 10
155.8187040797109
 20
-63.11872570100631
 10
155.530524262211
 20
-63.50972567390645
 10
155.349112043111
 20
-63.92153855720614
 10
155.2787193975112
 20
-64.34451160570656
 10
155.320996473211
 20
-64.76873085030636
 10
155.3589530030113
 20
-64.90535831090672
  0
SPLINE
  5
24B
330
70
100
AcDbEntity
  8
0
 62
     8
420
  8421504
370
    25
100
AcDbSpline
210
0.0
220
0.0
230
1.0
 70
     8
 71
     3
 72
     8
 73
     4
 74
     0
 42
0.0000000001
 43
0.0000000001
 40
0.0
 40
0.0
 40
0.0
 40
0.0
 40
1.0
 40
1.0
 40
1.0
 40
1.0
 10
164.8655174570358
 20
-64.69613992634925
 30
0.0
 10
164.9334955102634
 20
-64.32066106043106
 30
0.0
 10
164.8713776460264
 20
-63.93322623302346
 30
0.0
 10
164.6894224909654
 20
-63.59781944117319
 30
0.0
  0
ENDSEC
  0
SECTION
  2
OBJECTS
  0
DICTIONARY
  5
C
330
0
100
AcDbDictionary
281
     1
  3
ACAD_COLOR
350
63
  3
ACAD_DETAILVIEWSTYLE
350
6A
  3
ACAD_GROUP
350
D
  3
ACAD_LAYOUT
350
62
  3
ACAD_MATERIAL
350
10
  3
ACAD_MLEADERSTYLE
350
66
  3
ACAD_MLINESTYLE
350
5F
  3
ACAD_PLOTSETTINGS
350
61
  3
ACAD_PLOTSTYLENAME
350
E
  3
ACAD_SCALELIST
350
42
  3
ACAD_SECTIONVIEWSTYLE
350
68
  3
ACAD_TABLESTYLE
350
64
  3
ACAD_VISUALSTYLE
350
29
  3
ACDB_RECOMPOSE_DATA
350
254
  3
AcDbVariableDictionary
350
24C
  0
DICTIONARY
  5
63
102
{ACAD_REACTORS
330
C
102
}
330
C
100
AcDbDictionary
281
     1
  0
DICTIONARY
  5
6A
102
{ACAD_REACTORS
330
C
102
}
330
C
100
AcDbDictionary
281
     1
  3
Imperial24
350
6B
  0
DICTIONARY
  5
D
102
{ACAD_REACTORS
330
C
102
}
330
C
100
AcDbDictionary
281
     1
  0
DICTIONARY
  5
62
102
{ACAD_REACTORS
330
C
102
}
330
C
100
AcDbDictionary
281
     1
  3
Layout1
350
6F
  3
Layout2
350
77
  3
Model
350
73
  0
DICTIONARY
  5
10
102
{ACAD_REACTORS
330
C
102
}
330
C
100
AcDbDictionary
281
     1
  3
ByBlock
350
19
  3
ByLayer
350
11
  3
Global
350
21
  0
DICTIONARY
  5
66
102
{ACAD_REACTORS
330
C
102
}
330
C
100
AcDbDictionary
281
     1
  3
Standard
350
67
  0
DICTIONARY
  5
5F
102
{ACAD_REACTORS
330
C
102
}
330
C
100
AcDbDictionary
281
     1
  3
Standard
350
60
  0
DICTIONARY
  5
61
102
{ACAD_REACTORS
330
C
102
}
330
C
100
AcDbDictionary
281
     1
  0
ACDBDICTIONARYWDFLT
  5
E
102
{ACAD_REACTORS
330
C
102
}
330
C
100
AcDbDictionary
281
     1
  3
Normal
350
F
100
AcDbDictionaryWithDefault
340
F
  0
DICTIONARY
  5
42
102
{ACAD_REACTORS
330
C
102
}
330
C
100
AcDbDictionary
281
     1
  3
A0
350
43
  3
A1
350
44
  3
A2
350
45
  3
A3
350
46
  3
A4
350
47
  3
A5
350
48
  3
A6
350
49
  3
A7
350
4A
  3
A8
350
4B
  3
A9
350
4C
  3
B0
350
4D
  3
B1
350
4E
  3
B2
350
4F
  3
B3
350
50
  3
B4
350
51
  3
B5
350
52
  3
B6
350
53
  0
DICTIONARY
  5
68
102
{ACAD_REACTORS
330
C
102
}
330
C
100
AcDbDictionary
281
     1
  3
Imperial24
350
69
  0
DICTIONARY
  5
64
102
{ACAD_REACTORS
330
C
102
}
330
C
100
AcDbDictionary
281
     1
  3
Standard
350
65
  0
DICTIONARY
  5
29
102
{ACAD_REACTORS
330
C
102
}
330
C
100
AcDbDictionary
281
     1
  3
2dWireframe
350
2F
  3
Basic
350
2E
  3
Brighten
350
35
  3
ColorChange
350
39
  3
Conceptual
350
32
  3
Dim
350
34
  3
EdgeColorOff
350
41
  3
Facepattern
350
38
  3
Flat
350
2A
  3
FlatWithEdges
350
2B
  3
Gouraud
350
2C
  3
GouraudWithEdges
350
2D
  3
Hidden
350
31
  3
JitterOff
350
3F
  3
Linepattern
350
37
  3
OverhangOff
350
40
  3
Realistic
350
33
  3
Shaded
350
3E
  3
Shaded with edges
350
3D
  3
Shades of Gray
350
3A
  3
Sketchy
350
3B
  3
Thicken
350
36
  3
Wireframe
350
30
  3
X-Ray
350
3C
  0
XRECORD
  5
254
102
{ACAD_REACTORS
330
C
102
}
330
C
100
AcDbXrecord
280
     1
 90
        1
330
65
  0
DICTIONARY
  5
24C
102
{ACAD_REACTORS
330
C
102
}
330
C
100
AcDbDictionary
281
     1
  3
CANNOSCALE
350
251
  3
CMLEADERSTYLE
350
24E
  3
CTABLESTYLE
350
24D
  3
CVIEWDETAILSTYLE
350
24F
  3
CVIEWSECTIONSTYLE
350
250
  0
ACDBDETAILVIEWSTYLE
  5
6B
102
{ACAD_REACTORS
330
6A
102
}
330
6A
100
AcDbModelDocViewStyle
 70
     0
  3
Imperial24
290
     1
300
Imperial24
 90
        0
100
AcDbDetailViewStyle
 70
     0
 71
     0
 90
        3
 71
     1
340
55
 62
   256
 40
0.24
340
0
 62
   256
 40
0.24
300

 40
0.36
280
     3
 71
     2
340
5D
 90
       25
 62
   256
 71
     3
340
55
 62
   256
 40
0.24
 90
        1
 40
0.75
 90
        1
300
%<\AcVar ViewType \f "%tc1">% %<\AcVar ViewDetailId>%\PSCALE %<\AcVar ViewScale \f "%sn">%
 71
     4
340
5D
 90
       25
 62
   256
340
5D
 90
       25
 62
   256
280
     0
  0
LAYOUT
  5
6F
102
{ACAD_REACTORS
330
62
102
}
330
62
100
AcDbPlotSettings
  1

  2

  4

  6

 40
0.0
 41
0.0
 42
0.0
 43
0.0
 44
0.0
 45
0.0
 46
0.0
 47
0.0
 48
0.0
 49
0.0
140
0.0
141
0.0
142
1.0
143
1.0
 70
   688
 72
     0
 73
     0
 74
     5
  7

 75
    16
147
1.0
 76
     0
 77
     2
 78
   300
148
0.0
149
0.0
100
AcDbLayout
  1
Layout1
 70
     1
 71
     1
 10
0.0
 20
0.0
 11
12.0
 21
9.0
 12
0.0
 22
0.0
 32
0.0
 14
0.0
 24
0.0
 34
0.0
 15
0.0
 25
0.0
 35
0.0
146
0.0
 13
0.0
 23
0.0
 33
0.0
 16
1.0
 26
0.0
 36
0.0
 17
0.0
 27
1.0
 37
0.0
 76
     0
330
6C
  0
LAYOUT
  5
77
102
{ACAD_REACTORS
330
62
102
}
330
62
100
AcDbPlotSettings
  1

  2

  4

  6

 40
0.0
 41
0.0
 42
0.0
 43
0.0
 44
0.0
 45
0.0
 46
0.0
 47
0.0
 48
0.0
 49
0.0
140
0.0
141
0.0
142
1.0
143
1.0
 70
   688
 72
     0
 73
     0
 74
     5
  7

 75
    16
147
1.0
 76
     0
 77
     2
 78
   300
148
0.0
149
0.0
100
AcDbLayout
  1
Layout2
 70
     1
 71
     2
 10
0.0
 20
0.0
 11
12.0
 21
9.0
 12
0.0
 22
0.0
 32
0.0
 14
0.0
 24
0.0
 34
0.0
 15
0.0
 25
0.0
 35
0.0
146
0.0
 13
0.0
 23
0.0
 33
0.0
 16
1.0
 26
0.0
 36
0.0
 17
0.0
 27
1.0
 37
0.0
 76
     0
330
74
  0
LAYOUT
  5
73
102
{ACAD_REACTORS
330
62
102
}
330
62
100
AcDbPlotSettings
  1

  2

  4

  6

 40
0.0
 41
0.0
 42
0.0
 43
0.0
 44
0.0
 45
0.0
 46
0.0
 47
0.0
 48
0.0
 49
0.0
140
0.0
141
0.0
142
1.0
143
1.0
 70
  1712
 72
     0
 73
     0
 74
     0
  7

 75
     0
147
1.0
 76
     0
 77
     2
 78
   300
148
0.0
149
0.0
100
AcDbLayout
  1
Model
 70
     1
 71
     0
 10
0.0
 20
0.0
 11
12.0
 21
9.0
 12
0.0
 22
0.0
 32
0.0
 14
0.0
 24
0.0
 34
0.0
 15
0.0
 25
0.0
 35
0.0
146
0.0
 13
0.0
 23
0.0
 33
0.0
 16
1.0
 26
0.0
 36
0.0
 17
0.0
 27
1.0
 37
0.0
 76
     0
330
70
  0
MATERIAL
  5
19
102
{ACAD_XDICTIONARY
360
1A
102
}
102
{ACAD_REACTORS
330
10
102
}
330
10
100
AcDbMaterial
  1
ByBlock
 72
     0
 43
0.0208333333333333
 43
0.0
 43
0.0
 43
0.0
 43
0.0
 43
0.0208333333333333
 43
0.0
 43
0.0
 43
0.0
 43
0.0
 43
1.0
 43
0.0
 43
0.0
 43
0.0
 43
0.0
 43
1.0
 77
     0
 47
0.0208333333333333
 47
0.0
 47
0.0
 47
0.0
 47
0.0
 47
0.0208333333333333
 47
0.0
 47
0.0
 47
0.0
 47
0.0
 47
1.0
 47
0.0
 47
0.0
 47
0.0
 47
0.0
 47
1.0
171
     0
 49
0.0208333333333333
 49
0.0
 49
0.0
 49
0.0
 49
0.0
 49
0.0208333333333333
 49
0.0
 49
0.0
 49
0.0
 49
0.0
 49
1.0
 49
0.0
 49
0.0
 49
0.0
 49
0.0
 49
1.0
175
     0
142
0.0208333333333333
142
0.0
142
0.0
142
0.0
142
0.0
142
0.0208333333333333
142
0.0
142
0.0
142
0.0
142
0.0
142
1.0
142
0.0
142
0.0
142
0.0
142
0.0
142
1.0
179
     0
144
0.0208333333333333
144
0.0
144
0.0
144
0.0
144
0.0
144
0.0208333333333333
144
0.0
144
0.0
144
0.0
144
0.0
144
1.0
144
0.0
144
0.0
144
0.0
144
0.0
144
1.0
147
0.0208333333333333
147
0.0
147
0.0
147
0.0
147
0.0
147
0.0208333333333333
147
0.0
147
0.0
147
0.0
147
0.0
147
1.0
147
0.0
147
0.0
147
0.0
147
0.0
147
1.0
  0
MATERIAL
  5
11
102
{ACAD_XDICTIONARY
360
12
102
}
102
{ACAD_REACTORS
330
10
102
}
330
10
100
AcDbMaterial
  1
ByLayer
 72
     0
 43
0.0208333333333333
 43
0.0
 43
0.0
 43
0.0
 43
0.0
 43
0.0208333333333333
 43
0.0
 43
0.0
 43
0.0
 43
0.0
 43
1.0
 43
0.0
 43
0.0
 43
0.0
 43
0.0
 43
1.0
 77
     0
 47
0.0208333333333333
 47
0.0
 47
0.0
 47
0.0
 47
0.0
 47
0.0208333333333333
 47
0.0
 47
0.0
 47
0.0
 47
0.0
 47
1.0
 47
0.0
 47
0.0
 47
0.0
 47
0.0
 47
1.0
171
     0
 49
0.0208333333333333
 49
0.0
 49
0.0
 49
0.0
 49
0.0
 49
0.0208333333333333
 49
0.0
 49
0.0
 49
0.0
 49
0.0
 49
1.0
 49
0.0
 49
0.0
 49
0.0
 49
0.0
 49
1.0
175
     0
142
0.0208333333333333
142
0.0
142
0.0
142
0.0
142
0.0
142
0.0208333333333333
142
0.0
142
0.0
142
0.0
142
0.0
142
1.0
142
0.0
142
0.0
142
0.0
142
0.0
142
1.0
179
     0
144
0.0208333333333333
144
0.0
144
0.0
144
0.0
144
0.0
144
0.0208333333333333
144
0.0
144
0.0
144
0.0
144
0.0
144
1.0
144
0.0
144
0.0
144
0.0
144
0.0
144
1.0
147
0.0208333333333333
147
0.0
147
0.0
147
0.0
147
0.0
147
0.0208333333333333
147
0.0
147
0.0
147
0.0
147
0.0
147
1.0
147
0.0
147
0.0
147
0.0
147
0.0
147
1.0
  0
MATERIAL
  5
21
102
{ACAD_XDICTIONARY
360
22
102
}
102
{ACAD_REACTORS
330
10
102
}
330
10
100
AcDbMaterial
  1
Global
 72
     0
 43
0.0208333333333333
 43
0.0
 43
0.0
 43
0.0
 43
0.0
 43
0.0208333333333333
 43
0.0
 43
0.0
 43
0.0
 43
0.0
 43
1.0
 43
0.0
 43
0.0
 43
0.0
 43
0.0
 43
1.0
 77
     0
 47
0.0208333333333333
 47
0.0
 47
0.0
 47
0.0
 47
0.0
 47
0.0208333333333333
 47
0.0
 47
0.0
 47
0.0
 47
0.0
 47
1.0
 47
0.0
 47
0.0
 47
0.0
 47
0.0
 47
1.0
171
     0
 49
0.0208333333333333
 49
0.0
 49
0.0
 49
0.0
 49
0.0
 49
0.0208333333333333
 49
0.0
 49
0.0
 49
0.0
 49
0.0
 49
1.0
 49
0.0
 49
0.0
 49
0.0
 49
0.0
 49
1.0
175
     0
142
0.0208333333333333
142
0.0
142
0.0
142
0.0
142
0.0
142
0.0208333333333333
142
0.0
142
0.0
142
0.0
142
0.0
142
1.0
142
0.0
142
0.0
142
0.0
142
0.0
142
1.0
179
     0
144
0.0208333333333333
144
0.0
144
0.0
144
0.0
144
0.0
144
0.0208333333333333
144
0.0
144
0.0
144
0.0
144
0.0
144
1.0
144
0.0
144
0.0
144
0.0
144
0.0
144
1.0
147
0.0208333333333333
147
0.0
147
0.0
147
0.0
147
0.0
147
0.0208333333333333
147
0.0
147
0.0
147
0.0
147
0.0
147
1.0
147
0.0
147
0.0
147
0.0
147
0.0
147
1.0
  0
MLEADERSTYLE
  5
67
102
{ACAD_REACTORS
330
66
102
}
330
66
100
AcDbMLeaderStyle
179
     2
170
     2
171
     1
172
     0
 90
        2
 40
0.0
 41
0.0
173
     1
 91
-1056964608
340
5B
 92
       -2
290
     1
 42
0.09
291
     1
 43
0.36
  3
Standard
 44
0.18
300

342
55
174
     1
178
     6
175
     1
176
     0
 93
-1056964608
 45
0.18
292
     0
297
     0
 46
0.18
 94
-1056964608
 47
1.0
 49
1.0
140
1.0
293
     1
141
0.0
294
     1
177
     0
142
1.0
295
     1
296
     0
143
0.125
271
     0
272
     9
273
     9
298
     1
  0
MLINESTYLE
  5
60
102
{ACAD_REACTORS
330
5F
102
}
330
5F
100
AcDbMlineStyle
  2
STANDARD
 70
     0
  3

 62
   256
 51
90.0
 52
90.0
 71
     2
 49
0.5
 62
   256
  6
BYLAYER
 49
-0.5
 62
   256
  6
BYLAYER
  0
ACDBPLACEHOLDER
  5
F
102
{ACAD_REACTORS
330
E
102
}
330
E
  0
SCALE
  5
43
102
{ACAD_REACTORS
330
42
102
}
330
42
100
AcDbScale
 70
     0
300
1:1
140
1.0
141
1.0
290
     1
  0
SCALE
  5
44
102
{ACAD_REACTORS
330
42
102
}
330
42
100
AcDbScale
 70
     0
300
1/128" = 1'-0"
140
0.0078125
141
12.0
290
     0
  0
SCALE
  5
45
102
{ACAD_REACTORS
330
42
102
}
330
42
100
AcDbScale
 70
     0
300
1/64" = 1'-0"
140
0.015625
141
12.0
290
     0
  0
SCALE
  5
46
102
{ACAD_REACTORS
330
42
102
}
330
42
100
AcDbScale
 70
     0
300
1/32" = 1'-0"
140
0.03125
141
12.0
290
     0
  0
SCALE
  5
47
102
{ACAD_REACTORS
330
42
102
}
330
42
100
AcDbScale
 70
     0
300
1/16" = 1'-0"
140
0.0625
141
12.0
290
     0
  0
SCALE
  5
48
102
{ACAD_REACTORS
330
42
102
}
330
42
100
AcDbScale
 70
     0
300
3/32" = 1'-0"
140
0.09375
141
12.0
290
     0
  0
SCALE
  5
49
102
{ACAD_REACTORS
330
42
102
}
330
42
100
AcDbScale
 70
     0
300
1/8" = 1'-0"
140
0.125
141
12.0
290
     0
  0
SCALE
  5
4A
102
{ACAD_REACTORS
330
42
102
}
330
42
100
AcDbScale
 70
     0
300
3/16" = 1'-0"
140
0.1875
141
12.0
290
     0
  0
SCALE
  5
4B
102
{ACAD_REACTORS
330
42
102
}
330
42
100
AcDbScale
 70
     0
300
1/4" = 1'-0"
140
0.25
141
12.0
290
     0
  0
SCALE
  5
4C
102
{ACAD_REACTORS
330
42
102
}
330
42
100
AcDbScale
 70
     0
300
3/8" = 1'-0"
140
0.375
141
12.0
290
     0
  0
SCALE
  5
4D
102
{ACAD_REACTORS
330
42
102
}
330
42
100
AcDbScale
 70
     0
300
1/2" = 1'-0"
140
0.5
141
12.0
290
     0
  0
SCALE
  5
4E
102
{ACAD_REACTORS
330
42
102
}
330
42
100
AcDbScale
 70
     0
300
3/4" = 1'-0"
140
0.75
141
12.0
290
     0
  0
SCALE
  5
4F
102
{ACAD_REACTORS
330
42
102
}
330
42
100
AcDbScale
 70
     0
300
1" = 1'-0"
140
1.0
141
12.0
290
     0
  0
SCALE
  5
50
102
{ACAD_REACTORS
330
42
102
}
330
42
100
AcDbScale
 70
     0
300
1-1/2" = 1'-0"
140
1.5
141
12.0
290
     0
  0
SCALE
  5
51
102
{ACAD_REACTORS
330
42
102
}
330
42
100
AcDbScale
 70
     0
300
3" = 1'-0"
140
3.0
141
12.0
290
     0
  0
SCALE
  5
52
102
{ACAD_REACTORS
330
42
102
}
330
42
100
AcDbScale
 70
     0
300
6" = 1'-0"
140
6.0
141
12.0
290
     0
  0
SCALE
  5
53
102
{ACAD_REACTORS
330
42
102
}
330
42
100
AcDbScale
 70
     0
300
1'-0" = 1'-0"
140
12.0
141
12.0
290
     0
  0
ACDBSECTIONVIEWSTYLE
  5
69
102
{ACAD_REACTORS
330
68
102
}
330
68
100
AcDbModelDocViewStyle
 70
     0
  3
Imperial24
290
     1
300
Imperial24
 90
        0
100
AcDbSectionViewStyle
 70
     0
 71
     0
 90
       78
 71
     1
340
55
 62
   256
 40
0.24
340
0
340
0
 62
   256
 40
0.24
300
I, O, Q, S, X, Z
 40
0.48
 90
        3
 40
0.18
 90
        1
 71
     2
340
5D
 90
       25
 62
   256
340
5D
 90
       50
 62
   256
 40
0.24
 40
0.0
 40
0.24
 71
     3
340
55
 62
   256
 40
0.24
 90
        1
 40
0.75
 90
        1
300
%<\AcVar ViewType \f "%tc1">% %<\AcVar ViewSectionStartId>%-%<\AcVar ViewSectionEndId>%\PSCALE %<\AcVar ViewScale \f "%sn">%
 71
     4
 62
   256
 62
   257
300
ANSI31
 40
1.0
 90
        0
290
     0
290
     0
 90
        6
 40
0.0
 40
1.570796326794896
 40
0.2617993877991494
 40
1.308996938995747
 40
-0.2617993877991494
 40
1.832595714594046
  0
TABLESTYLE
  5
65
102
{ACAD_XDICTIONARY
360
252
102
}
102
{ACAD_REACTORS
330
64
102
}
330
64
100
AcDbTableStyle
280
     0
  3
Standard
 70
     0
 71
     0
 40
0.06
 41
0.06
280
     0
281
     0
  7
Standard
140
0.18
170
     2
 62
     0
 63
     7
283
     0
 90
      512
 91
        0
  1

274
    -2
284
     1
 64
     0
275
    -2
285
     1
 65
     0
276
    -2
286
     1
 66
     0
277
    -2
287
     1
 67
     0
278
    -2
288
     1
 68
     0
279
    -2
289
     1
 69
     0
  7
Standard
140
0.25
170
     5
 62
     0
 63
     7
283
     0
 90
      512
 91
        0
  1

274
    -2
284
     1
 64
     0
275
    -2
285
     1
 65
     0
276
    -2
286
     1
 66
     0
277
    -2
287
     1
 67
     0
278
    -2
288
     1
 68
     0
279
    -2
289
     1
 69
     0
  7
Standard
140
0.18
170
     5
 62
     0
 63
     7
283
     0
 90
      512
 91
        0
  1

274
    -2
284
     1
 64
     0
275
    -2
285
     1
 65
     0
276
    -2
286
     1
 66
     0
277
    -2
287
     1
 67
     0
278
    -2
288
     1
 68
     0
279
    -2
289
     1
 69
     0
  0
VISUALSTYLE
  5
2F
102
{ACAD_REACTORS
330
29
102
}
330
29
100
AcDbVisualStyle
  2
2dWireframe
 70
     4
177
     3
291
     0
 70
    58
 90
        0
176
     1
 90
        2
176
     1
 90
        0
176
     1
 90
        0
176
     1
 40
0.6
176
     1
 40
30.0
176
     1
 62
     7
420
 16777215
176
     1
 90
        1
176
     1
 90
        4
176
     1
 62
     7
176
     1
 62
   257
176
     1
 90
        1
176
     1
 90
        1
176
     1
 40
1.0
176
     1
 90
        0
176
     1
 62
   257
176
     1
 40
1.0
176
     1
 90
        1
176
     1
 90
        6
176
     1
 90
        2
176
     1
 62
     7
176
     1
 90
        5
176
     1
 90
        0
176
     1
 90
        0
176
     1
290
     0
176
     1
 90
        1
176
     1
 40
0.0
176
     1
 90
        0
176
     1
290
     1
176
     1
290
     1
176
     1
290
     0
176
     1
290
     0
176
     1
290
     0
176
     1
290
     0
176
     1
290
     0
176
     1
290
     0
176
     1
290
     0
176
     1
 90
       50
176
     1
 40
0.0
176
     1
 40
1.0
176
     1
 90
        0
176
     1
 62
    18
420
        0
176
     1
 90
       50
176
     1
 90
        3
176
     1
 62
     5
420
      255
176
     1
290
     0
176
     1
 90
       50
176
     1
 90
       50
176
     1
 90
       50
176
     1
290
     0
176
     1
 90
       50
176
     1
 62
   256
176
     0
 40
1.0
176
     0
 90
        2
176
     1
  1
strokes_ogs.tif
176
     1
290
     0
176
     1
 40
1.0
176
     1
 40
1.0
176
     1
  0
VISUALSTYLE
  5
2E
102
{ACAD_REACTORS
330
29
102
}
330
29
100
AcDbVisualStyle
  2
Basic
 70
     7
177
     3
291
     1
 70
    58
 90
        1
176
     1
 90
        0
176
     1
 90
        1
176
     1
 90
        0
176
     1
 40
0.6
176
     1
 40
30.0
176
     1
 62
     7
420
 16777215
176
     1
 90
        0
176
     1
 90
        4
176
     1
 62
     7
176
     1
 62
   257
176
     1
 90
        1
176
     1
 90
        1
176
     1
 40
1.0
176
     1
 90
        8
176
     1
 62
     7
176
     1
 40
1.0
176
     1
 90
        1
176
     1
 90
        6
176
     1
 90
        2
176
     1
 62
     7
176
     1
 90
        5
176
     1
 90
        0
176
     1
 90
        0
176
     1
290
     0
176
     1
 90
        1
176
     1
 40
0.0
176
     1
 90
        0
176
     1
290
     0
176
     1
290
     1
176
     1
290
     1
176
     1
290
     0
176
     1
290
     0
176
     1
290
     0
176
     1
290
     0
176
     1
290
     0
176
     1
290
     0
176
     1
 90
       50
176
     1
 40
0.0
176
     1
 40
1.0
176
     1
 90
        0
176
     1
 62
    18
420
        0
176
     1
 90
       50
176
     1
 90
        3
176
     1
 62
     5
420
      255
176
     1
290
     0
176
     1
 90
       50
176
     1
 90
       50
176
     1
 90
       50
176
     1
290
     0
176
     1
 90
       50
176
     1
 62
   256
176
     0
 40
1.0
176
     0
 90
        2
176
     1
  1
strokes_ogs.tif
176
     1
290
     0
176
     1
 40
1.0
176
     1
 40
1.0
176
     1
  0
VISUALSTYLE
  5
35
102
{ACAD_REACTORS
330
29
102
}
330
29
100
AcDbVisualStyle
  2
Brighten
 70
    12
177
     3
291
     1
 70
    58
 90
        2
176
     1
 90
        2
176
     1
 90
        0
176
     1
 90
        0
176
     1
 40
0.6
176
     1
 40
30.0
176
     1
 62
     7
420
 16777215
176
     1
 90
        1
176
     1
 90
        4
176
     1
 62
     7
176
     1
 62
   257
176
     1
 90
        1
176
     1
 90
        1
176
     1
 40
1.0
176
     1
 90
        8
176
     1
 62
     7
176
     1
 40
1.0
176
     1
 90
        1
176
     1
 90
        6
176
     1
 90
        2
176
     1
 62
     7
176
     1
 90
        5
176
     1
 90
        0
176
     1
 90
        0
176
     1
290
     0
176
     1
 90
        1
176
     1
 40
50.0
176
     1
 90
        0
176
     1
290
     0
176
     1
290
     1
176
     1
290
     1
176
     1
290
     0
176
     1
290
     0
176
     1
290
     0
176
     1
290
     0
176
     1
290
     0
176
     1
290
     0
176
     1
 90
       50
176
     1
 40
0.0
176
     1
 40
1.0
176
     1
 90
        0
176
     1
 62
    18
420
        0
176
     1
 90
       50
176
     1
 90
        3
176
     1
 62
     5
420
      255
176
     1
290
     0
176
     1
 90
       50
176
     1
 90
       50
176
     1
 90
       50
176
     1
290
     0
176
     1
 90
       50
176
     1
 62
   256
176
     0
 40
1.0
176
     0
 90
        2
176
     1
  1
strokes_ogs.tif
176
     1
290
     0
176
     1
 40
1.0
176
     1
 40
1.0
176
     1
  0
VISUALSTYLE
  5
39
102
{ACAD_REACTORS
330
29
102
}
330
29
100
AcDbVisualStyle
  2
ColorChange
 70
    16
177
     3
291
     1
 70
    58
 90
        2
176
     1
 90
        2
176
     1
 90
        3
176
     1
 90
        0
176
     1
 40
0.6
176
     1
 40
30.0
176
     1
 62
     8
420
  8421504
176
     1
 90
        1
176
     1
 90
        4
176
     1
 62
     7
176
     1
 62
   257
176
     1
 90
        1
176
     1
 90
        1
176
     1
 40
1.0
176
     1
 90
        8
176
     1
 62
     8
420
  8421504
176
     1
 40
1.0
176
     1
 90
        1
176
     1
 90
        6
176
     1
 90
        2
176
     1
 62
     7
176
     1
 90
        5
176
     1
 90
        0
176
     1
 90
        0
176
     1
290
     0
176
     1
 90
        1
176
     1
 40
0.0
176
     1
 90
        0
176
     1
290
     0
176
     1
290
     1
176
     1
290
     1
176
     1
290
     0
176
     1
290
     0
176
     1
290
     0
176
     1
290
     0
176
     1
290
     0
176
     1
290
     0
176
     1
 90
       50
176
     1
 40
0.0
176
     1
 40
1.0
176
     1
 90
        0
176
     1
 62
    18
420
        0
176
     1
 90
       50
176
     1
 90
        3
176
     1
 62
     5
420
      255
176
     1
290
     0
176
     1
 90
       50
176
     1
 90
       50
176
     1
 90
       50
176
     1
290
     0
176
     1
 90
       50
176
     1
 62
   256
176
     0
 40
1.0
176
     0
 90
        2
176
     1
  1
strokes_ogs.tif
176
     1
290
     0
176
     1
 40
1.0
176
     1
 40
1.0
176
     1
  0
VISUALSTYLE
  5
32
102
{ACAD_REACTORS
330
29
102
}
330
29
100
AcDbVisualStyle
  2
Conceptual
 70
     9
177
     3
291
     0
 70
    58
 90
        3
176
     1
 90
        2
176
     1
 90
        0
176
     1
 90
        0
176
     1
 40
0.6
176
     1
 40
30.0
176
     1
 62
     7
420
 16777215
176
     1
 90
        2
176
     1
 90
        2
176
     1
 62
     7
176
     1
 62
   257
176
     1
 90
        1
176
     1
 90
        1
176
     1
 40
179.0
176
     1
 90
        8
176
     1
 62
     7
176
     1
 40
1.0
176
     1
 90
        1
176
     1
 90
        6
176
     1
 90
        2
176
     1
 62
     7
176
     1
 90
        3
176
     1
 90
        0
176
     1
 90
        0
176
     1
290
     0
176
     1
 90
        1
176
     1
 40
0.0
176
     1
 90
        0
176
     1
290
     0
176
     1
290
     1
176
     1
290
     1
176
     1
290
     0
176
     1
290
     0
176
     1
290
     0
176
     1
290
     0
176
     1
290
     0
176
     1
290
     0
176
     1
 90
       50
176
     1
 40
0.0
176
     1
 40
1.0
176
     1
 90
        0
176
     1
 62
    18
420
        0
176
     1
 90
       50
176
     1
 90
        3
176
     1
 62
     5
420
      255
176
     1
290
     0
176
     1
 90
       50
176
     1
 90
       50
176
     1
 90
       50
176
     1
290
     0
176
     1
 90
       50
176
     1
 62
   256
176
     0
 40
1.0
176
     0
 90
        2
176
     1
  1
strokes_ogs.tif
176
     1
290
     0
176
     1
 40
1.0
176
     1
 40
1.0
176
     1
  0
VISUALSTYLE
  5
34
102
{ACAD_REACTORS
330
29
102
}
330
29
100
AcDbVisualStyle
  2
Dim
 70
    11
177
     3
291
     1
 70
    58
 90
        2
176
     1
 90
        2
176
     1
 90
        0
176
     1
 90
        0
176
     1
 40
0.6
176
     1
 40
30.0
176
     1
 62
     7
420
 16777215
176
     1
 90
        1
176
     1
 90
        4
176
     1
 62
     7
176
     1
 62
   257
176
     1
 90
        1
176
     1
 90
        1
176
     1
 40
1.0
176
     1
 90
        8
176
     1
 62
     7
176
     1
 40
1.0
176
     1
 90
        1
176
     1
 90
        6
176
     1
 90
        2
176
     1
 62
     7
176
     1
 90
        5
176
     1
 90
        0
176
     1
 90
        0
176
     1
290
     0
176
     1
 90
        1
176
     1
 40
-50.0
176
     1
 90
        0
176
     1
290
     0
176
     1
290
     1
176
     1
290
     1
176
     1
290
     0
176
     1
290
     0
176
     1
290
     0
176
     1
290
     0
176
     1
290
     0
176
     1
290
     0
176
     1
 90
       50
176
     1
 40
0.0
176
     1
 40
1.0
176
     1
 90
        0
176
     1
 62
    18
420
        0
176
     1
 90
       50
176
     1
 90
        3
176
     1
 62
     5
420
      255
176
     1
290
     0
176
     1
 90
       50
176
     1
 90
       50
176
     1
 90
       50
176
     1
290
     0
176
     1
 90
       50
176
     1
 62
   256
176
     0
 40
1.0
176
     0
 90
        2
176
     1
  1
strokes_ogs.tif
176
     1
290
     0
176
     1
 40
1.0
176
     1
 40
1.0
176
     1
  0
VISUALSTYLE
  5
41
102
{ACAD_REACTORS
330
29
102
}
330
29
100
AcDbVisualStyle
  2
EdgeColorOff
 70
    22
177
     3
291
     1
 70
    58
 90
        2
176
     0
 90
        2
176
     0
 90
        0
176
     0
 90
        0
176
     0
 40
0.6
176
     0
 40
30.0
176
     0
 62
     7
420
 16777215
176
     0
 90
        1
176
     0
 90
        4
176
     0
 62
     7
176
     0
 62
   257
176
     0
 90
        1
176
     0
 90
        1
176
     0
 40
1.0
176
     0
 90
        8
176
     2
 62
     7
176
     0
 40
1.0
176
     0
 90
        1
176
     0
 90
        6
176
     0
 90
        2
176
     0
 62
     7
176
     0
 90
        5
176
     0
 90
        0
176
     0
 90
        0
176
     0
290
     0
176
     0
 90
        1
176
     0
 40
0.0
176
     0
 90
        0
176
     0
290
     0
176
     0
290
     1
176
     0
290
     1
176
     0
290
     0
176
     0
290
     0
176
     0
290
     0
176
     0
290
     0
176
     0
290
     0
176
     0
290
     0
176
     0
 90
       50
176
     0
 40
0.0
176
     0
 40
1.0
176
     0
 90
        0
176
     0
 62
    18
420
        0
176
     0
 90
       50
176
     0
 90
        3
176
     0
 62
     5
420
      255
176
     0
290
     0
176
     0
 90
       50
176
     0
 90
       50
176
     0
 90
       50
176
     0
290
     0
176
     0
 90
       50
176
     0
 62
   256
176
     0
 40
1.0
176
     0
 90
        2
176
     0
  1
strokes_ogs.tif
176
     0
290
     0
176
     0
 40
1.0
176
     0
 40
1.0
176
     0
  0
VISUALSTYLE
  5
38
102
{ACAD_REACTORS
330
29
102
}
330
29
100
AcDbVisualStyle
  2
Facepattern
 70
    15
177
     3
291
     1
 70
    58
 90
        2
176
     1
 90
        2
176
     1
 90
        0
176
     1
 90
        0
176
     1
 40
0.6
176
     1
 40
30.0
176
     1
 62
     7
420
 16777215
176
     1
 90
        1
176
     1
 90
        4
176
     1
 62
     7
176
     1
 62
   257
176
     1
 90
        1
176
     1
 90
        1
176
     1
 40
1.0
176
     1
 90
        8
176
     1
 62
     7
176
     1
 40
1.0
176
     1
 90
        1
176
     1
 90
        6
176
     1
 90
        2
176
     1
 62
     7
176
     1
 90
        5
176
     1
 90
        0
176
     1
 90
        0
176
     1
290
     0
176
     1
 90
        1
176
     1
 40
0.0
176
     1
 90
        0
176
     1
290
     0
176
     1
290
     1
176
     1
290
     1
176
     1
290
     0
176
     1
290
     0
176
     1
290
     0
176
     1
290
     0
176
     1
290
     0
176
     1
290
     0
176
     1
 90
       50
176
     1
 40
0.0
176
     1
 40
1.0
176
     1
 90
        0
176
     1
 62
    18
420
        0
176
     1
 90
       50
176
     1
 90
        3
176
     1
 62
     5
420
      255
176
     1
290
     0
176
     1
 90
       50
176
     1
 90
       50
176
     1
 90
       50
176
     1
290
     0
176
     1
 90
       50
176
     1
 62
   256
176
     0
 40
1.0
176
     0
 90
        2
176
     1
  1
strokes_ogs.tif
176
     1
290
     0
176
     1
 40
1.0
176
     1
 40
1.0
176
     1
  0
VISUALSTYLE
  5
2A
102
{ACAD_REACTORS
330
29
102
}
330
29
100
AcDbVisualStyle
  2
Flat
 70
     0
177
     3
291
     1
 70
    58
 90
        2
176
     1
 90
        1
176
     1
 90
        1
176
     1
 90
        2
176
     1
 40
0.6
176
     1
 40
30.0
176
     1
 62
     7
420
 16777215
176
     1
 90
        0
176
     1
 90
        0
176
     1
 62
     7
176
     1
 62
   257
176
     1
 90
        1
176
     1
 90
        1
176
     1
 40
1.0
176
     1
 90
        8
176
     1
 62
     7
176
     1
 40
1.0
176
     1
 90
        1
176
     1
 90
        6
176
     1
 90
        2
176
     1
 62
     7
176
     1
 90
        5
176
     1
 90
        0
176
     1
 90
        0
176
     1
290
     0
176
     1
 90
       13
176
     1
 40
0.0
176
     1
 90
        0
176
     1
290
     0
176
     1
290
     1
176
     1
290
     1
176
     1
290
     0
176
     1
290
     0
176
     1
290
     0
176
     1
290
     0
176
     1
290
     0
176
     1
290
     0
176
     1
 90
       50
176
     1
 40
0.0
176
     1
 40
1.0
176
     1
 90
        0
176
     1
 62
    18
420
        0
176
     1
 90
       50
176
     1
 90
        3
176
     1
 62
     5
420
      255
176
     1
290
     0
176
     1
 90
       50
176
     1
 90
       50
176
     1
 90
       50
176
     1
290
     0
176
     1
 90
       50
176
     1
 62
   256
176
     0
 40
1.0
176
     0
 90
        2
176
     1
  1
strokes_ogs.tif
176
     1
290
     0
176
     1
 40
1.0
176
     1
 40
1.0
176
     1
  0
VISUALSTYLE
  5
2B
102
{ACAD_REACTORS
330
29
102
}
330
29
100
AcDbVisualStyle
  2
FlatWithEdges
 70
     1
177
     3
291
     1
 70
    58
 90
        2
176
     1
 90
        1
176
     1
 90
        1
176
     1
 90
        2
176
     1
 40
0.6
176
     1
 40
30.0
176
     1
 62
     7
420
 16777215
176
     1
 90
        1
176
     1
 90
        0
176
     1
 62
     7
176
     1
 62
   257
176
     1
 90
        1
176
     1
 90
        1
176
     1
 40
1.0
176
     1
 90
        0
176
     1
 62
   257
176
     1
 40
1.0
176
     1
 90
        1
176
     1
 90
        6
176
     1
 90
        2
176
     1
 62
     7
176
     1
 90
        5
176
     1
 90
        0
176
     1
 90
        0
176
     1
290
     0
176
     1
 90
       13
176
     1
 40
0.0
176
     1
 90
        0
176
     1
290
     0
176
     1
290
     1
176
     1
290
     1
176
     1
290
     0
176
     1
290
     0
176
     1
290
     0
176
     1
290
     0
176
     1
290
     0
176
     1
290
     0
176
     1
 90
       50
176
     1
 40
0.0
176
     1
 40
1.0
176
     1
 90
        0
176
     1
 62
    18
420
        0
176
     1
 90
       50
176
     1
 90
        3
176
     1
 62
     5
420
      255
176
     1
290
     0
176
     1
 90
       50
176
     1
 90
       50
176
     1
 90
       50
176
     1
290
     0
176
     1
 90
       50
176
     1
 62
   256
176
     0
 40
1.0
176
     0
 90
        2
176
     1
  1
strokes_ogs.tif
176
     1
290
     0
176
     1
 40
1.0
176
     1
 40
1.0
176
     1
  0
VISUALSTYLE
  5
2C
102
{ACAD_REACTORS
330
29
102
}
330
29
100
AcDbVisualStyle
  2
Gouraud
 70
     2
177
     3
291
     1
 70
    58
 90
        2
176
     1
 90
        2
176
     1
 90
        1
176
     1
 90
        2
176
     1
 40
0.6
176
     1
 40
30.0
176
     1
 62
     7
420
 16777215
176
     1
 90
        0
176
     1
 90
        0
176
     1
 62
     7
176
     1
 62
   257
176
     1
 90
        1
176
     1
 90
        1
176
     1
 40
1.0
176
     1
 90
        0
176
     1
 62
     7
176
     1
 40
1.0
176
     1
 90
        1
176
     1
 90
        6
176
     1
 90
        2
176
     1
 62
     7
176
     1
 90
        5
176
     1
 90
        0
176
     1
 90
        0
176
     1
290
     0
176
     1
 90
       13
176
     1
 40
0.0
176
     1
 90
        0
176
     1
290
     0
176
     1
290
     1
176
     1
290
     1
176
     1
290
     0
176
     1
290
     0
176
     1
290
     0
176
     1
290
     0
176
     1
290
     0
176
     1
290
     0
176
     1
 90
       50
176
     1
 40
0.0
176
     1
 40
1.0
176
     1
 90
        0
176
     1
 62
    18
420
        0
176
     1
 90
       50
176
     1
 90
        3
176
     1
 62
     5
420
      255
176
     1
290
     0
176
     1
 90
       50
176
     1
 90
       50
176
     1
 90
       50
176
     1
290
     0
176
     1
 90
       50
176
     1
 62
   256
176
     0
 40
1.0
176
     0
 90
        2
176
     1
  1
strokes_ogs.tif
176
     1
290
     0
176
     1
 40
1.0
176
     1
 40
1.0
176
     1
  0
VISUALSTYLE
  5
2D
102
{ACAD_REACTORS
330
29
102
}
330
29
100
AcDbVisualStyle
  2
GouraudWithEdges
 70
     3
177
     3
291
     1
 70
    58
 90
        2
176
     1
 90
        2
176
     1
 90
        1
176
     1
 90
        2
176
     1
 40
0.6
176
     1
 40
30.0
176
     1
 62
     7
420
 16777215
176
     1
 90
        1
176
     1
 90
        0
176
     1
 62
     7
176
     1
 62
   257
176
     1
 90
        1
176
     1
 90
        1
176
     1
 40
1.0
176
     1
 90
        0
176
     1
 62
   257
176
     1
 40
1.0
176
     1
 90
        1
176
     1
 90
        6
176
     1
 90
        2
176
     1
 62
     7
176
     1
 90
        5
176
     1
 90
        0
176
     1
 90
        0
176
     1
290
     0
176
     1
 90
       13
176
     1
 40
0.0
176
     1
 90
        0
176
     1
290
     0
176
     1
290
     1
176
     1
290
     1
176
     1
290
     0
176
     1
290
     0
176
     1
290
     0
176
     1
290
     0
176
     1
290
     0
176
     1
290
     0
176
     1
 90
       50
176
     1
 40
0.0
176
     1
 40
1.0
176
     1
 90
        0
176
     1
 62
    18
420
        0
176
     1
 90
       50
176
     1
 90
        3
176
     1
 62
     5
420
      255
176
     1
290
     0
176
     1
 90
       50
176
     1
 90
       50
176
     1
 90
       50
176
     1
290
     0
176
     1
 90
       50
176
     1
 62
   256
176
     0
 40
1.0
176
     0
 90
        2
176
     1
  1
strokes_ogs.tif
176
     1
290
     0
176
     1
 40
1.0
176
     1
 40
1.0
176
     1
  0
VISUALSTYLE
  5
31
102
{ACAD_REACTORS
330
29
102
}
330
29
100
AcDbVisualStyle
  2
Hidden
 70
     6
177
     3
291
     0
 70
    58
 90
        1
176
     1
 90
        2
176
     1
 90
        2
176
     1
 90
        0
176
     1
 40
0.6
176
     1
 40
30.0
176
     1
 62
     7
420
 16777215
176
     1
 90
        2
176
     1
 90
        2
176
     1
 62
     7
176
     1
 62
   257
176
     1
 90
        2
176
     1
 90
        1
176
     1
 40
40.0
176
     1
 90
        0
176
     1
 62
   257
176
     1
 40
1.0
176
     1
 90
        1
176
     1
 90
        6
176
     1
 90
        2
176
     1
 62
     7
176
     1
 90
        3
176
     1
 90
        0
176
     1
 90
        0
176
     1
290
     0
176
     1
 90
        1
176
     1
 40
0.0
176
     1
 90
        0
176
     1
290
     0
176
     1
290
     1
176
     1
290
     1
176
     1
290
     0
176
     1
290
     0
176
     1
290
     0
176
     1
290
     0
176
     1
290
     0
176
     1
290
     0
176
     1
 90
       50
176
     1
 40
0.0
176
     1
 40
1.0
176
     1
 90
        0
176
     1
 62
    18
420
        0
176
     1
 90
       50
176
     1
 90
        3
176
     1
 62
     5
420
      255
176
     1
290
     0
176
     1
 90
       50
176
     1
 90
       50
176
     1
 90
       50
176
     1
290
     0
176
     1
 90
       50
176
     1
 62
   256
176
     0
 40
1.0
176
     0
 90
        2
176
     1
  1
strokes_ogs.tif
176
     1
290
     0
176
     1
 40
1.0
176
     1
 40
1.0
176
     1
  0
VISUALSTYLE
  5
3F
102
{ACAD_REACTORS
330
29
102
}
330
29
100
AcDbVisualStyle
  2
JitterOff
 70
    20
177
     3
291
     1
 70
    58
 90
        2
176
     0
 90
        2
176
     0
 90
        0
176
     0
 90
        0
176
     0
 40
0.6
176
     0
 40
30.0
176
     0
 62
     7
420
 16777215
176
     0
 90
        1
176
     0
 90
        4
176
     0
 62
     7
176
     0
 62
   257
176
     0
 90
        1
176
     0
 90
        1
176
     0
 40
1.0
176
     0
 90
       10
176
     2
 62
     7
176
     0
 40
1.0
176
     0
 90
        1
176
     0
 90
        6
176
     0
 90
        2
176
     0
 62
     7
176
     0
 90
        5
176
     0
 90
        0
176
     0
 90
        0
176
     0
290
     0
176
     0
 90
        1
176
     0
 40
0.0
176
     0
 90
        0
176
     0
290
     0
176
     0
290
     1
176
     0
290
     1
176
     0
290
     0
176
     0
290
     0
176
     0
290
     0
176
     0
290
     0
176
     0
290
     0
176
     0
290
     0
176
     0
 90
       50
176
     0
 40
0.0
176
     0
 40
1.0
176
     0
 90
        0
176
     0
 62
    18
420
        0
176
     0
 90
       50
176
     0
 90
        3
176
     0
 62
     5
420
      255
176
     0
290
     0
176
     0
 90
       50
176
     0
 90
       50
176
     0
 90
       50
176
     0
290
     0
176
     0
 90
       50
176
     0
 62
   256
176
     0
 40
1.0
176
     0
 90
        2
176
     0
  1
strokes_ogs.tif
176
     0
290
     0
176
     0
 40
1.0
176
     0
 40
1.0
176
     0
  0
VISUALSTYLE
  5
37
102
{ACAD_REACTORS
330
29
102
}
330
29
100
AcDbVisualStyle
  2
Linepattern
 70
    14
177
     3
291
     1
 70
    58
 90
        2
176
     1
 90
        2
176
     1
 90
        0
176
     1
 90
        0
176
     1
 40
0.6
176
     1
 40
30.0
176
     1
 62
     7
420
 16777215
176
     1
 90
        1
176
     1
 90
        4
176
     1
 62
     7
176
     1
 62
   257
176
     1
 90
        7
176
     1
 90
        7
176
     1
 40
1.0
176
     1
 90
        8
176
     1
 62
     7
176
     1
 40
1.0
176
     1
 90
        1
176
     1
 90
        6
176
     1
 90
        2
176
     1
 62
     7
176
     1
 90
        5
176
     1
 90
        0
176
     1
 90
        0
176
     1
290
     0
176
     1
 90
        1
176
     1
 40
0.0
176
     1
 90
        0
176
     1
290
     0
176
     1
290
     1
176
     1
290
     1
176
     1
290
     0
176
     1
290
     0
176
     1
290
     0
176
     1
290
     0
176
     1
290
     0
176
     1
290
     0
176
     1
 90
       50
176
     1
 40
0.0
176
     1
 40
1.0
176
     1
 90
        0
176
     1
 62
    18
420
        0
176
     1
 90
       50
176
     1
 90
        3
176
     1
 62
     5
420
      255
176
     1
290
     0
176
     1
 90
       50
176
     1
 90
       50
176
     1
 90
       50
176
     1
290
     0
176
     1
 90
       50
176
     1
 62
   256
176
     0
 40
1.0
176
     0
 90
        2
176
     1
  1
strokes_ogs.tif
176
     1
290
     0
176
     1
 40
1.0
176
     1
 40
1.0
176
     1
  0
VISUALSTYLE
  5
40
102
{ACAD_REACTORS
330
29
102
}
330
29
100
AcDbVisualStyle
  2
OverhangOff
 70
    21
177
     3
291
     1
 70
    58
 90
        2
176
     0
 90
        2
176
     0
 90
        0
176
     0
 90
        0
176
     0
 40
0.6
176
     0
 40
30.0
176
     0
 62
     7
420
 16777215
176
     0
 90
        1
176
     0
 90
        4
176
     0
 62
     7
176
     0
 62
   257
176
     0
 90
        1
176
     0
 90
        1
176
     0
 40
1.0
176
     0
 90
        9
176
     2
 62
     7
176
     0
 40
1.0
176
     0
 90
        1
176
     0
 90
        6
176
     0
 90
        2
176
     0
 62
     7
176
     0
 90
        5
176
     0
 90
        0
176
     0
 90
        0
176
     0
290
     0
176
     0
 90
        1
176
     0
 40
0.0
176
     0
 90
        0
176
     0
290
     0
176
     0
290
     1
176
     0
290
     1
176
     0
290
     0
176
     0
290
     0
176
     0
290
     0
176
     0
290
     0
176
     0
290
     0
176
     0
290
     0
176
     0
 90
       50
176
     0
 40
0.0
176
     0
 40
1.0
176
     0
 90
        0
176
     0
 62
    18
420
        0
176
     0
 90
       50
176
     0
 90
        3
176
     0
 62
     5
420
      255
176
     0
290
     0
176
     0
 90
       50
176
     0
 90
       50
176
     0
 90
       50
176
     0
290
     0
176
     0
 90
       50
176
     0
 62
   256
176
     0
 40
1.0
176
     0
 90
        2
176
     0
  1
strokes_ogs.tif
176
     0
290
     0
176
     0
 40
1.0
176
     0
 40
1.0
176
     0
  0
VISUALSTYLE
  5
33
102
{ACAD_REACTORS
330
29
102
}
330
29
100
AcDbVisualStyle
  2
Realistic
 70
     8
177
     3
291
     0
 70
    58
 90
        2
176
     1
 90
        3
176
     1
 90
        0
176
     1
 90
        2
176
     1
 40
0.6
176
     1
 40
30.0
176
     1
 62
     7
420
 16777215
176
     1
 90
        0
176
     1
 90
        0
176
     1
 62
     7
176
     1
 62
   257
176
     1
 90
        1
176
     1
 90
        1
176
     1
 40
1.0
176
     1
 90
        8
176
     1
 62
   257
176
     1
 40
1.0
176
     1
 90
        1
176
     1
 90
        6
176
     1
 90
        2
176
     1
 62
     7
176
     1
 90
        3
176
     1
 90
        0
176
     1
 90
        0
176
     1
290
     0
176
     1
 90
       13
176
     1
 40
0.0
176
     1
 90
        0
176
     1
290
     0
176
     1
290
     1
176
     1
290
     1
176
     1
290
     0
176
     1
290
     0
176
     1
290
     0
176
     1
290
     0
176
     1
290
     0
176
     1
290
     0
176
     1
 90
       50
176
     1
 40
0.0
176
     1
 40
1.0
176
     1
 90
        0
176
     1
 62
    18
420
        0
176
     1
 90
       50
176
     1
 90
        3
176
     1
 62
     5
420
      255
176
     1
290
     0
176
     1
 90
       50
176
     1
 90
       50
176
     1
 90
       50
176
     1
290
     0
176
     1
 90
       50
176
     1
 62
   256
176
     0
 40
1.0
176
     0
 90
        2
176
     1
  1
strokes_ogs.tif
176
     1
290
     0
176
     1
 40
1.0
176
     1
 40
1.0
176
     1
  0
VISUALSTYLE
  5
3E
102
{ACAD_REACTORS
330
29
102
}
330
29
100
AcDbVisualStyle
  2
Shaded
 70
    27
177
     3
291
     0
 70
    58
 90
        2
176
     1
 90
        2
176
     1
 90
        1
176
     1
 90
        2
176
     1
 40
0.6
176
     1
 40
30.0
176
     1
 62
     7
420
 16777215
176
     1
 90
        0
176
     1
 90
        4
176
     1
 62
     7
176
     1
 62
   257
176
     1
 90
        1
176
     1
 90
        1
176
     1
 40
1.0
176
     1
 90
        8
176
     1
 62
   257
176
     1
 40
1.0
176
     1
 90
        1
176
     1
 90
        6
176
     1
 90
        2
176
     1
 62
     8
420
  7895160
176
     1
 90
        3
176
     1
 90
        0
176
     1
 90
        0
176
     1
290
     0
176
     1
 90
        5
176
     1
 40
0.0
176
     1
 90
        0
176
     1
290
     0
176
     1
290
     1
176
     1
290
     1
176
     1
290
     0
176
     1
290
     0
176
     1
290
     0
176
     1
290
     0
176
     1
290
     0
176
     1
290
     0
176
     1
 90
       50
176
     1
 40
0.0
176
     1
 40
1.0
176
     1
 90
        0
176
     1
 62
    18
420
        0
176
     1
 90
       50
176
     1
 90
        3
176
     1
 62
     5
420
      255
176
     1
290
     0
176
     1
 90
       50
176
     1
 90
       50
176
     1
 90
       50
176
     1
290
     0
176
     1
 90
       50
176
     1
 62
   256
176
     0
 40
1.0
176
     0
 90
        2
176
     1
  1
strokes_ogs.tif
176
     1
290
     0
176
     1
 40
1.0
176
     1
 40
1.0
176
     1
  0
VISUALSTYLE
  5
3D
102
{ACAD_REACTORS
330
29
102
}
330
29
100
AcDbVisualStyle
  2
Shaded with edges
 70
    26
177
     3
291
     0
 70
    58
 90
        2
176
     1
 90
        2
176
     1
 90
        1
176
     1
 90
        2
176
     1
 40
0.6
176
     1
 40
30.0
176
     1
 62
     7
420
 16777215
176
     1
 90
        1
176
     1
 90
        2
176
     1
 62
     7
176
     1
 62
   257
176
     1
 90
        2
176
     1
 90
        1
176
     1
 40
1.0
176
     1
 90
        8
176
     1
 62
   257
176
     1
 40
1.0
176
     1
 90
        1
176
     1
 90
        6
176
     1
 90
        2
176
     1
 62
     7
176
     1
 90
        3
176
     1
 90
        0
176
     1
 90
        0
176
     1
290
     0
176
     1
 90
        5
176
     1
 40
0.0
176
     1
 90
        0
176
     1
290
     0
176
     1
290
     1
176
     1
290
     1
176
     1
290
     0
176
     1
290
     0
176
     1
290
     0
176
     1
290
     0
176
     1
290
     0
176
     1
290
     0
176
     1
 90
       50
176
     1
 40
0.0
176
     1
 40
1.0
176
     1
 90
        0
176
     1
 62
    18
420
        0
176
     1
 90
       50
176
     1
 90
        3
176
     1
 62
     5
420
      255
176
     1
290
     0
176
     1
 90
       50
176
     1
 90
       50
176
     1
 90
       50
176
     1
290
     0
176
     1
 90
       50
176
     1
 62
   256
176
     0
 40
1.0
176
     0
 90
        2
176
     1
  1
strokes_ogs.tif
176
     1
290
     0
176
     1
 40
1.0
176
     1
 40
1.0
176
     1
  0
VISUALSTYLE
  5
3A
102
{ACAD_REACTORS
330
29
102
}
330
29
100
AcDbVisualStyle
  2
Shades of Gray
 70
    23
177
     3
291
     0
 70
    58
 90
        2
176
     1
 90
        2
176
     1
 90
        3
176
     1
 90
        0
176
     1
 40
0.6
176
     1
 40
30.0
176
     1
 62
     7
420
 16777215
176
     1
 90
        2
176
     1
 90
        2
176
     1
 62
     7
176
     1
 62
     7
176
     1
 90
        1
176
     1
 90
        1
176
     1
 40
40.0
176
     1
 90
        8
176
     1
 62
     7
176
     1
 40
1.0
176
     1
 90
        1
176
     1
 90
        6
176
     1
 90
        2
176
     1
 62
     7
176
     1
 90
        3
176
     1
 90
        0
176
     1
 90
        0
176
     1
290
     0
176
     1
 90
        1
176
     1
 40
0.0
176
     1
 90
        0
176
     1
290
     0
176
     1
290
     1
176
     1
290
     1
176
     1
290
     0
176
     1
290
     0
176
     1
290
     0
176
     1
290
     0
176
     1
290
     0
176
     1
290
     0
176
     1
 90
       50
176
     1
 40
0.0
176
     1
 40
1.0
176
     1
 90
        0
176
     1
 62
    18
420
        0
176
     1
 90
       50
176
     1
 90
        3
176
     1
 62
     5
420
      255
176
     1
290
     0
176
     1
 90
       50
176
     1
 90
       50
176
     1
 90
       50
176
     1
290
     0
176
     1
 90
       50
176
     1
 62
   256
176
     0
 40
1.0
176
     0
 90
        2
176
     1
  1
strokes_ogs.tif
176
     1
290
     0
176
     1
 40
1.0
176
     1
 40
1.0
176
     1
  0
VISUALSTYLE
  5
3B
102
{ACAD_REACTORS
330
29
102
}
330
29
100
AcDbVisualStyle
  2
Sketchy
 70
    24
177
     3
291
     0
 70
    58
 90
        1
176
     1
 90
        2
176
     1
 90
        2
176
     1
 90
        0
176
     1
 40
0.6
176
     1
 40
30.0
176
     1
 62
     7
420
 16777215
176
     1
 90
        2
176
     1
 90
        2
176
     1
 62
     7
176
     1
 62
     7
176
     1
 90
        1
176
     1
 90
        1
176
     1
 40
40.0
176
     1
 90
       11
176
     1
 62
     7
176
     1
 40
1.0
176
     1
 90
        1
176
     1
 90
        6
176
     1
 90
        2
176
     1
 62
     7
176
     1
 90
        6
176
     1
 90
        0
176
     1
 90
        0
176
     1
290
     0
176
     1
 90
        1
176
     1
 40
0.0
176
     1
 90
        0
176
     1
290
     0
176
     1
290
     1
176
     1
290
     1
176
     1
290
     0
176
     1
290
     0
176
     1
290
     0
176
     1
290
     0
176
     1
290
     0
176
     1
290
     0
176
     1
 90
       50
176
     1
 40
0.0
176
     1
 40
1.0
176
     1
 90
        0
176
     1
 62
    18
420
        0
176
     1
 90
       50
176
     1
 90
        3
176
     1
 62
     5
420
      255
176
     1
290
     0
176
     1
 90
       50
176
     1
 90
       50
176
     1
 90
       50
176
     1
290
     0
176
     1
 90
       50
176
     1
 62
   256
176
     0
 40
1.0
176
     0
 90
        2
176
     1
  1
strokes_ogs.tif
176
     1
290
     0
176
     1
 40
1.0
176
     1
 40
1.0
176
     1
  0
VISUALSTYLE
  5
36
102
{ACAD_REACTORS
330
29
102
}
330
29
100
AcDbVisualStyle
  2
Thicken
 70
    13
177
     3
291
     1
 70
    58
 90
        2
176
     1
 90
        2
176
     1
 90
        0
176
     1
 90
        0
176
     1
 40
0.6
176
     1
 40
30.0
176
     1
 62
     7
420
 16777215
176
     1
 90
        1
176
     1
 90
        4
176
     1
 62
     7
176
     1
 62
   257
176
     1
 90
        1
176
     1
 90
        1
176
     1
 40
1.0
176
     1
 90
       12
176
     1
 62
     7
176
     1
 40
1.0
176
     1
 90
        1
176
     1
 90
        6
176
     1
 90
        2
176
     1
 62
     7
176
     1
 90
        5
176
     1
 90
        0
176
     1
 90
        0
176
     1
290
     0
176
     1
 90
        1
176
     1
 40
0.0
176
     1
 90
        0
176
     1
290
     0
176
     1
290
     1
176
     1
290
     1
176
     1
290
     0
176
     1
290
     0
176
     1
290
     0
176
     1
290
     0
176
     1
290
     0
176
     1
290
     0
176
     1
 90
       50
176
     1
 40
0.0
176
     1
 40
1.0
176
     1
 90
        0
176
     1
 62
    18
420
        0
176
     1
 90
       50
176
     1
 90
        3
176
     1
 62
     5
420
      255
176
     1
290
     0
176
     1
 90
       50
176
     1
 90
       50
176
     1
 90
       50
176
     1
290
     0
176
     1
 90
       50
176
     1
 62
   256
176
     0
 40
1.0
176
     0
 90
        2
176
     1
  1
strokes_ogs.tif
176
     1
290
     0
176
     1
 40
1.0
176
     1
 40
1.0
176
     1
  0
VISUALSTYLE
  5
30
102
{ACAD_REACTORS
330
29
102
}
330
29
100
AcDbVisualStyle
  2
Wireframe
 70
     5
177
     3
291
     0
 70
    58
 90
        0
176
     1
 90
        2
176
     1
 90
        0
176
     1
 90
        0
176
     1
 40
0.6
176
     1
 40
30.0
176
     1
 62
     7
420
 16777215
176
     1
 90
        1
176
     1
 90
        4
176
     1
 62
     7
176
     1
 62
   257
176
     1
 90
        1
176
     1
 90
        1
176
     1
 40
1.0
176
     1
 90
        0
176
     1
 62
   257
176
     1
 40
1.0
176
     1
 90
        1
176
     1
 90
        6
176
     1
 90
        2
176
     1
 62
     7
176
     1
 90
        3
176
     1
 90
        0
176
     1
 90
        0
176
     1
290
     0
176
     1
 90
        1
176
     1
 40
0.0
176
     1
 90
        0
176
     1
290
     0
176
     1
290
     1
176
     1
290
     1
176
     1
290
     0
176
     1
290
     0
176
     1
290
     0
176
     1
290
     0
176
     1
290
     0
176
     1
290
     0
176
     1
 90
       50
176
     1
 40
0.0
176
     1
 40
1.0
176
     1
 90
        0
176
     1
 62
    18
420
        0
176
     1
 90
       50
176
     1
 90
        3
176
     1
 62
     5
420
      255
176
     1
290
     0
176
     1
 90
       50
176
     1
 90
       50
176
     1
 90
       50
176
     1
290
     0
176
     1
 90
       50
176
     1
 62
   256
176
     0
 40
1.0
176
     0
 90
        2
176
     1
  1
strokes_ogs.tif
176
     1
290
     0
176
     1
 40
1.0
176
     1
 40
1.0
176
     1
  0
VISUALSTYLE
  5
3C
102
{ACAD_REACTORS
330
29
102
}
330
29
100
AcDbVisualStyle
  2
X-Ray
 70
    25
177
     3
291
     0
 70
    58
 90
        2
176
     1
 90
        2
176
     1
 90
        1
176
     1
 90
        1
176
     1
 40
0.5
176
     1
 40
30.0
176
     1
 62
     7
420
 16777215
176
     1
 90
        1
176
     1
 90
        0
176
     1
 62
     7
176
     1
 62
   257
176
     1
 90
        1
176
     1
 90
        1
176
     1
 40
1.0
176
     1
 90
        8
176
     1
 62
     7
176
     1
 40
1.0
176
     1
 90
        1
176
     1
 90
        6
176
     1
 90
        2
176
     1
 62
     7
176
     1
 90
        3
176
     1
 90
        0
176
     1
 90
        0
176
     1
290
     0
176
     1
 90
       13
176
     1
 40
0.0
176
     1
 90
        0
176
     1
290
     0
176
     1
290
     1
176
     1
290
     1
176
     1
290
     0
176
     1
290
     0
176
     1
290
     0
176
     1
290
     0
176
     1
290
     0
176
     1
290
     0
176
     1
 90
       50
176
     1
 40
0.0
176
     1
 40
1.0
176
     1
 90
        0
176
     1
 62
    18
420
        0
176
     1
 90
       50
176
     1
 90
        3
176
     1
 62
     5
420
      255
176
     1
290
     0
176
     1
 90
       50
176
     1
 90
       50
176
     1
 90
       50
176
     1
290
     0
176
     1
 90
       50
176
     1
 62
   256
176
     0
 40
1.0
176
     0
 90
        2
176
     1
  1
strokes_ogs.tif
176
     1
290
     0
176
     1
 40
1.0
176
     1
 40
1.0
176
     1
  0
DICTIONARYVAR
  5
251
102
{ACAD_REACTORS
330
24C
102
}
330
24C
100
DictionaryVariables
280
     0
  1
1:1
  0
DICTIONARYVAR
  5
24E
102
{ACAD_REACTORS
330
24C
102
}
330
24C
100
DictionaryVariables
280
     0
  1
STANDARD
  0
DICTIONARYVAR
  5
24D
102
{ACAD_REACTORS
330
24C
102
}
330
24C
100
DictionaryVariables
280
     0
  1
STANDARD
  0
DICTIONARYVAR
  5
24F
102
{ACAD_REACTORS
330
24C
102
}
330
24C
100
DictionaryVariables
280
     0
  1
Imperial24
  0
DICTIONARYVAR
  5
250
102
{ACAD_REACTORS
330
24C
102
}
330
24C
100
DictionaryVariables
280
     0
  1
Imperial24
  0
DICTIONARY
  5
1A
330
19
100
AcDbDictionary
280
     1
281
     1
  3
BUMPTILE
360
1C
  3
DIFFUSETILE
360
1B
  3
OPACITYTILE
360
1F
  3
REFLECTIONTILE
360
1E
  3
REFRACTIONTILE
360
20
  3
SPECULARTILE
360
1D
  0
DICTIONARY
  5
12
330
11
100
AcDbDictionary
280
     1
281
     1
  3
BUMPTILE
360
14
  3
DIFFUSETILE
360
13
  3
OPACITYTILE
360
17
  3
REFLECTIONTILE
360
16
  3
REFRACTIONTILE
360
18
  3
SPECULARTILE
360
15
  0
DICTIONARY
  5
22
330
21
100
AcDbDictionary
280
     1
281
     1
  3
BUMPTILE
360
24
  3
DIFFUSETILE
360
23
  3
OPACITYTILE
360
27
  3
REFLECTIONTILE
360
26
  3
REFRACTIONTILE
360
28
  3
SPECULARTILE
360
25
  0
DICTIONARY
  5
252
330
65
100
AcDbDictionary
280
     1
281
     1
  3
ACAD_ROUNDTRIP_2008_TABLESTYLE_CELLSTYLEMAP
360
253
  0
XRECORD
  5
1C
102
{ACAD_REACTORS
330
1A
102
}
330
1A
100
AcDbXrecord
280
     1
270
     1
271
     1
  0
XRECORD
  5
1B
102
{ACAD_REACTORS
330
1A
102
}
330
1A
100
AcDbXrecord
280
     1
270
     1
271
     1
  0
XRECORD
  5
1F
102
{ACAD_REACTORS
330
1A
102
}
330
1A
100
AcDbXrecord
280
     1
270
     1
271
     1
  0
XRECORD
  5
1E
102
{ACAD_REACTORS
330
1A
102
}
330
1A
100
AcDbXrecord
280
     1
270
     1
271
     1
  0
XRECORD
  5
20
102
{ACAD_REACTORS
330
1A
102
}
330
1A
100
AcDbXrecord
280
     1
270
     1
271
     1
  0
XRECORD
  5
1D
102
{ACAD_REACTORS
330
1A
102
}
330
1A
100
AcDbXrecord
280
     1
270
     1
271
     1
  0
XRECORD
  5
14
102
{ACAD_REACTORS
330
12
102
}
330
12
100
AcDbXrecord
280
     1
270
     1
271
     1
  0
XRECORD
  5
13
102
{ACAD_REACTORS
330
12
102
}
330
12
100
AcDbXrecord
280
     1
270
     1
271
     1
  0
XRECORD
  5
17
102
{ACAD_REACTORS
330
12
102
}
330
12
100
AcDbXrecord
280
     1
270
     1
271
     1
  0
XRECORD
  5
16
102
{ACAD_REACTORS
330
12
102
}
330
12
100
AcDbXrecord
280
     1
270
     1
271
     1
  0
XRECORD
  5
18
102
{ACAD_REACTORS
330
12
102
}
330
12
100
AcDbXrecord
280
     1
270
     1
271
     1
  0
XRECORD
  5
15
102
{ACAD_REACTORS
330
12
102
}
330
12
100
AcDbXrecord
280
     1
270
     1
271
     1
  0
XRECORD
  5
24
102
{ACAD_REACTORS
330
22
102
}
330
22
100
AcDbXrecord
280
     1
270
     1
271
     1
  0
XRECORD
  5
23
102
{ACAD_REACTORS
330
22
102
}
330
22
100
AcDbXrecord
280
     1
270
     1
271
     1
  0
XRECORD
  5
27
102
{ACAD_REACTORS
330
22
102
}
330
22
100
AcDbXrecord
280
     1
270
     1
271
     1
  0
XRECORD
  5
26
102
{ACAD_REACTORS
330
22
102
}
330
22
100
AcDbXrecord
280
     1
270
     1
271
     1
  0
XRECORD
  5
28
102
{ACAD_REACTORS
330
22
102
}
330
22
100
AcDbXrecord
280
     1
270
     1
271
     1
  0
XRECORD
  5
25
102
{ACAD_REACTORS
330
22
102
}
330
22
100
AcDbXrecord
280
     1
270
     1
271
     1
  0
CELLSTYLEMAP
  5
253
102
{ACAD_REACTORS
330
252
102
}
330
252
100
AcDbCellStyleMap
 90
        3
300
CELLSTYLE
  1
TABLEFORMAT_BEGIN
 90
        5
170
     1
 91
        0
 92
    32768
 62
   257
 93
        1
300
CONTENTFORMAT
  1
CONTENTFORMAT_BEGIN
 90
        0
 91
        0
 92
      512
 93
        0
300

 40
0.0
140
1.0
 94
        5
 62
     0
340
55
144
0.25
309
CONTENTFORMAT_END
171
     0
 94
        0
309
TABLEFORMAT_END
  1
CELLSTYLE_BEGIN
 90
        1
 91
        1
300
_TITLE
309
CELLSTYLE_END
300
CELLSTYLE
  1
TABLEFORMAT_BEGIN
 90
        5
170
     1
 91
        0
 92
        0
 62
   257
 93
        1
300
CONTENTFORMAT
  1
CONTENTFORMAT_BEGIN
 90
        0
 91
        0
 92
      512
 93
        0
300

 40
0.0
140
1.0
 94
        5
 62
     0
340
55
144
0.18
309
CONTENTFORMAT_END
171
     0
 94
        0
309
TABLEFORMAT_END
  1
CELLSTYLE_BEGIN
 90
        2
 91
        1
300
_HEADER
309
CELLSTYLE_END
300
CELLSTYLE
  1
TABLEFORMAT_BEGIN
 90
        5
170
     1
 91
        0
 92
        0
 62
   257
 93
        1
300
CONTENTFORMAT
  1
CONTENTFORMAT_BEGIN
 90
        0
 91
        0
 92
      512
 93
        0
300

 40
0.0
140
1.0
 94
        2
 62
     0
340
55
144
0.18
309
CONTENTFORMAT_END
171
     0
 94
        0
309
TABLEFORMAT_END
  1
CELLSTYLE_BEGIN
 90
        3
 91
        2
300
_DATA
309
CELLSTYLE_END
  0
ENDSEC
  0
EOF
