  0
SECTION
  2
HEADER
  9
$ACADVER
  1
AC1032
  9
$ACADMAINTVER
 90
      251
  9
$DWGCODEPAGE
  3
ANSI_1252
  9
$REQUIREDVERSIONS
160
                 0
  9
$INSBASE
 10
0.0
 20
0.0
 30
0.0
  9
$EXTMIN
 10
1.000000000000000E+20
 20
1.000000000000000E+20
 30
1.000000000000000E+20
  9
$EXTMAX
 10
-1.000000000000000E+20
 20
-1.000000000000000E+20
 30
-1.000000000000000E+20
  9
$LIMMIN
 10
0.0
 20
0.0
  9
$LIMMAX
 10
12.0
 20
9.0
  9
$ORTHOMODE
 70
     0
  9
$REGENMODE
 70
     1
  9
$FILLMODE
 70
     1
  9
$QTEXTMODE
 70
     0
  9
$MIRRTEXT
 70
     0
  9
$LTSCALE
 40
1.0
  9
$ATTMODE
 70
     1
  9
$TEXTSIZE
 40
0.2
  9
$TRACEWID
 40
0.05
  9
$TEXTSTYLE
  7
Standard
  9
$CLAYER
  8
0
  9
$CELTYPE
  6
ByLayer
  9
$CECOLOR
 62
   256
  9
$CELTSCALE
 40
1.0
  9
$DISPSILH
 70
     0
  9
$DIMSCALE
 40
1.0
  9
$DIMASZ
 40
0.18
  9
$DIMEXO
 40
0.0625
  9
$DIMDLI
 40
0.38
  9
$DIMRND
 40
0.0
  9
$DIMDLE
 40
0.0
  9
$DIMEXE
 40
0.18
  9
$DIMTP
 40
0.0
  9
$DIMTM
 40
0.0
  9
$DIMTXT
 40
0.18
  9
$DIMCEN
 40
0.09
  9
$DIMTSZ
 40
0.0
  9
$DIMTOL
 70
     0
  9
$DIMLIM
 70
     0
  9
$DIMTIH
 70
     1
  9
$DIMTOH
 70
     1
  9
$DIMSE1
 70
     0
  9
$DIMSE2
 70
     0
  9
$DIMTAD
 70
     0
  9
$DIMZIN
 70
     0
  9
$DIMBLK
  1

  9
$DIMASO
 70
     1
  9
$DIMSHO
 70
     1
  9
$DIMPOST
  1

  9
$DIMAPOST
  1

  9
$DIMALT
 70
     0
  9
$DIMALTD
 70
     2
  9
$DIMALTF
 40
25.4
  9
$DIMLFAC
 40
1.0
  9
$DIMTOFL
 70
     0
  9
$DIMTVP
 40
0.0
  9
$DIMTIX
 70
     0
  9
$DIMSOXD
 70
     0
  9
$DIMSAH
 70
     0
  9
$DIMBLK1
  1

  9
$DIMBLK2
  1

  9
$DIMSTYLE
  2
Standard
  9
$DIMCLRD
 70
     0
  9
$DIMCLRE
 70
     0
  9
$DIMCLRT
 70
     0
  9
$DIMTFAC
 40
1.0
  9
$DIMGAP
 40
0.09
  9
$DIMJUST
 70
     0
  9
$DIMSD1
 70
     0
  9
$DIMSD2
 70
     0
  9
$DIMTOLJ
 70
     1
  9
$DIMTZIN
 70
     0
  9
$DIMALTZ
 70
     0
  9
$DIMALTTZ
 70
     0
  9
$DIMUPT
 70
     0
  9
$DIMDEC
 70
     4
  9
$DIMTDEC
 70
     4
  9
$DIMALTU
 70
     2
  9
$DIMALTTD
 70
     2
  9
$DIMTXSTY
  7
Standard
  9
$DIMAUNIT
 70
     0
  9
$DIMADEC
 70
     0
  9
$DIMALTRND
 40
0.0
  9
$DIMAZIN
 70
     0
  9
$DIMDSEP
 70
    46
  9
$DIMATFIT
 70
     3
  9
$DIMFRAC
 70
     0
  9
$DIMLDRBLK
  1

  9
$DIMLUNIT
 70
     2
  9
$DIMLWD
 70
    -2
  9
$DIMLWE
 70
    -2
  9
$DIMTMOVE
 70
     0
  9
$DIMFXL
 40
1.0
  9
$DIMFXLON
 70
     0
  9
$DIMJOGANG
 40
0.7853981633974483
  9
$DIMTFILL
 70
     0
  9
$DIMTFILLCLR
 70
     0
  9
$DIMARCSYM
 70
     0
  9
$DIMLTYPE
  6

  9
$DIMLTEX1
  6

  9
$DIMLTEX2
  6

  9
$DIMTXTDIRECTION
 70
     0
  9
$LUNITS
 70
     2
  9
$LUPREC
 70
     4
  9
$SKETCHINC
 40
0.1
  9
$FILLETRAD
 40
0.0
  9
$AUNITS
 70
     0
  9
$AUPREC
 70
     0
  9
$MENU
  1
.
  9
$ELEVATION
 40
0.0
  9
$PELEVATION
 40
0.0
  9
$THICKNESS
 40
0.0
  9
$LIMCHECK
 70
     0
  9
$CHAMFERA
 40
0.0
  9
$CHAMFERB
 40
0.0
  9
$CHAMFERC
 40
0.0
  9
$CHAMFERD
 40
0.0
  9
$SKPOLY
 70
     0
  9
$TDCREATE
 40
2460035.457303241
  9
$TDUCREATE
 40
2460035.373969908
  9
$TDUPDATE
 40
2460035.457303241
  9
$TDUUPDATE
 40
2460035.373969908
  9
$TDINDWG
 40
0.0000000000
  9
$TDUSRTIMER
 40
0.0000000000
  9
$USRTIMER
 70
     1
  9
$ANGBASE
 50
0.0
  9
$ANGDIR
 70
     0
  9
$PDMODE
 70
     0
  9
$PDSIZE
 40
0.0
  9
$PLINEWID
 40
0.0
  9
$SPLFRAME
 70
     0
  9
$SPLINETYPE
 70
     6
  9
$SPLINESEGS
 70
     8
  9
$HANDSEED
  5
1F8
  9
$SURFTAB1
 70
     6
  9
$SURFTAB2
 70
     6
  9
$SURFTYPE
 70
     6
  9
$SURFU
 70
     6
  9
$SURFV
 70
     6
  9
$UCSBASE
  2

  9
$UCSNAME
  2

  9
$UCSORG
 10
0.0
 20
0.0
 30
0.0
  9
$UCSXDIR
 10
1.0
 20
0.0
 30
0.0
  9
$UCSYDIR
 10
0.0
 20
1.0
 30
0.0
  9
$UCSORTHOREF
  2

  9
$UCSORTHOVIEW
 70
     0
  9
$UCSORGTOP
 10
0.0
 20
0.0
 30
0.0
  9
$UCSORGBOTTOM
 10
0.0
 20
0.0
 30
0.0
  9
$UCSORGLEFT
 10
0.0
 20
0.0
 30
0.0
  9
$UCSORGRIGHT
 10
0.0
 20
0.0
 30
0.0
  9
$UCSORGFRONT
 10
0.0
 20
0.0
 30
0.0
  9
$UCSORGBACK
 10
0.0
 20
0.0
 30
0.0
  9
$PUCSBASE
  2

  9
$PUCSNAME
  2

  9
$PUCSORG
 10
0.0
 20
0.0
 30
0.0
  9
$PUCSXDIR
 10
1.0
 20
0.0
 30
0.0
  9
$PUCSYDIR
 10
0.0
 20
1.0
 30
0.0
  9
$PUCSORTHOREF
  2

  9
$PUCSORTHOVIEW
 70
     0
  9
$PUCSORGTOP
 10
0.0
 20
0.0
 30
0.0
  9
$PUCSORGBOTTOM
 10
0.0
 20
0.0
 30
0.0
  9
$PUCSORGLEFT
 10
0.0
 20
0.0
 30
0.0
  9
$PUCSORGRIGHT
 10
0.0
 20
0.0
 30
0.0
  9
$PUCSORGFRONT
 10
0.0
 20
0.0
 30
0.0
  9
$PUCSORGBACK
 10
0.0
 20
0.0
 30
0.0
  9
$USERI1
 70
     0
  9
$USERI2
 70
     0
  9
$USERI3
 70
     0
  9
$USERI4
 70
     0
  9
$USERI5
 70
     0
  9
$USERR1
 40
0.0
  9
$USERR2
 40
0.0
  9
$USERR3
 40
0.0
  9
$USERR4
 40
0.0
  9
$USERR5
 40
0.0
  9
$WORLDVIEW
 70
     1
  9
$SHADEDGE
 70
     3
  9
$SHADEDIF
 70
    70
  9
$TILEMODE
 70
     1
  9
$MAXACTVP
 70
    64
  9
$PINSBASE
 10
0.0
 20
0.0
 30
0.0
  9
$PLIMCHECK
 70
     0
  9
$PEXTMIN
 10
1.000000000000000E+20
 20
1.000000000000000E+20
 30
1.000000000000000E+20
  9
$PEXTMAX
 10
-1.000000000000000E+20
 20
-1.000000000000000E+20
 30
-1.000000000000000E+20
  9
$PLIMMIN
 10
0.0
 20
0.0
  9
$PLIMMAX
 10
12.0
 20
9.0
  9
$UNITMODE
 70
     0
  9
$VISRETAIN
 70
     1
  9
$PLINEGEN
 70
     0
  9
$PSLTSCALE
 70
     1
  9
$TREEDEPTH
 70
  3020
  9
$CMLSTYLE
  2
Standard
  9
$CMLJUST
 70
     0
  9
$CMLSCALE
 40
1.0
  9
$PROXYGRAPHICS
 70
     1
  9
$MEASUREMENT
 70
     0
  9
$CELWEIGHT
370
    -1
  9
$ENDCAPS
280
     0
  9
$JOINSTYLE
280
     0
  9
$LWDISPLAY
290
     1
  9
$INSUNITS
 70
     4
  9
$HYPERLINKBASE
  1

  9
$STYLESHEET
  1

  9
$XEDIT
290
     1
  9
$CEPSNTYPE
380
     0
  9
$PSTYLEMODE
290
     1
  9
$FINGERPRINTGUID
  2
{0FB01CB0-62A2-B040-864B-15CBFA33BF0D}
  9
$VERSIONGUID
  2
{D1E84A41-3AB1-8D43-96A8-FEAF1A6DB0EB}
  9
$EXTNAMES
290
     1
  9
$PSVPSCALE
 40
0.0
  9
$OLESTARTUP
290
     0
  9
$SORTENTS
280
   127
  9
$INDEXCTL
280
     0
  9
$HIDETEXT
280
     1
  9
$XCLIPFRAME
280
     2
  9
$HALOGAP
280
     0
  9
$OBSCOLOR
 70
   257
  9
$OBSLTYPE
280
     0
  9
$INTERSECTIONDISPLAY
280
     0
  9
$INTERSECTIONCOLOR
 70
   257
  9
$DIMASSOC
280
     2
  9
$PROJECTNAME
  1

  9
$CAMERADISPLAY
290
     0
  9
$LENSLENGTH
 40
50.0
  9
$CAMERAHEIGHT
 40
0.0
  9
$STEPSPERSEC
 40
2.0
  9
$STEPSIZE
 40
6.0
  9
$3DDWFPREC
 40
2.0
  9
$PSOLWIDTH
 40
0.25
  9
$PSOLHEIGHT
 40
4.0
  9
$LOFTANG1
 40
1.570796326794896
  9
$LOFTANG2
 40
1.570796326794896
  9
$LOFTMAG1
 40
0.0
  9
$LOFTMAG2
 40
0.0
  9
$LOFTPARAM
 70
     7
  9
$LOFTNORMALS
280
     1
  9
$LATITUDE
 40
37.795
  9
$LONGITUDE
 40
-122.394
  9
$NORTHDIRECTION
 40
0.0
  9
$TIMEZONE
 70
 -8000
  9
$LIGHTGLYPHDISPLAY
280
     1
  9
$TILEMODELIGHTSYNCH
280
     1
  9
$CMATERIAL
347
11
  9
$SOLIDHIST
280
     0
  9
$SHOWHIST
280
     1
  9
$DWFFRAME
280
     2
  9
$DGNFRAME
280
     0
  9
$REALWORLDSCALE
290
     1
  9
$INTERFERECOLOR
 62
     1
  9
$INTERFEREOBJVS
345
33
  9
$INTERFEREVPVS
346
30
  9
$CSHADOW
280
     0
  9
$SHADOWPLANELOCATION
 40
0.0
  0
ENDSEC
  0
SECTION
  2
CLASSES
  0
CLASS
  1
ACDBDICTIONARYWDFLT
  2
AcDbDictionaryWithDefault
  3
ObjectDBX Classes
 90
        0
 91
        1
280
     0
281
     0
  0
CLASS
  1
MATERIAL
  2
AcDbMaterial
  3
ObjectDBX Classes
 90
     1153
 91
        3
280
     0
281
     0
  0
CLASS
  1
VISUALSTYLE
  2
AcDbVisualStyle
  3
ObjectDBX Classes
 90
     4095
 91
       24
280
     0
281
     0
  0
CLASS
  1
SCALE
  2
AcDbScale
  3
ObjectDBX Classes
 90
     1153
 91
       17
280
     0
281
     0
  0
CLASS
  1
TABLESTYLE
  2
AcDbTableStyle
  3
ObjectDBX Classes
 90
     4095
 91
        1
280
     0
281
     0
  0
CLASS
  1
MLEADERSTYLE
  2
AcDbMLeaderStyle
  3
ACDB_MLEADERSTYLE_CLASS
 90
     4095
 91
        1
280
     0
281
     0
  0
CLASS
  1
ACDBSECTIONVIEWSTYLE
  2
AcDbSectionViewStyle
  3
ObjectDBX Classes
 90
     1025
 91
        1
280
     0
281
     0
  0
CLASS
  1
ACDBDETAILVIEWSTYLE
  2
AcDbDetailViewStyle
  3
ObjectDBX Classes
 90
     1025
 91
        1
280
     0
281
     0
  0
CLASS
  1
DICTIONARYVAR
  2
AcDbDictionaryVar
  3
ObjectDBX Classes
 90
        0
 91
        5
280
     0
281
     0
  0
CLASS
  1
CELLSTYLEMAP
  2
AcDbCellStyleMap
  3
ObjectDBX Classes
 90
     1152
 91
        1
280
     0
281
     0
  0
ENDSEC
  0
SECTION
  2
TABLES
  0
TABLE
  2
VPORT
  5
8
330
0
100
AcDbSymbolTable
 70
     1
  0
VPORT
  5
57
330
8
100
AcDbSymbolTableRecord
100
AcDbViewportTableRecord
  2
*Active
 70
     0
 10
0.0
 20
0.0
 11
1.0
 21
1.0
 12
0.0
 22
0.0
 13
0.0
 23
0.0
 14
1.0
 24
1.0
 15
0.0
 25
0.0
 16
0.0
 26
0.0
 36
1.0
 17
104.9999999737499
 27
31.49999999212523
 37
0.0
 40
302.9399999242649
 41
0.7070707070707066
 42
50.0
 43
0.0
 44
0.0
 50
0.0
 51
0.0
 71
     0
 72
   100
 73
     1
 74
     1
 75
     0
 76
     0
 77
     0
 78
     0
281
     0
 65
     1
110
0.0
120
0.0
130
0.0
111
1.0
121
0.0
131
0.0
112
0.0
122
1.0
132
0.0
 79
     0
146
0.0
 60
     3
 61
     5
292
     1
282
     1
141
0.0
142
0.0
 63
   250
421
  3355443
  0
ENDTAB
  0
TABLE
  2
LTYPE
  5
5
330
0
100
AcDbSymbolTable
 70
     1
  0
LTYPE
  5
5B
330
5
100
AcDbSymbolTableRecord
100
AcDbLinetypeTableRecord
  2
ByBlock
 70
     0
  3

 72
    65
 73
     0
 40
0.0
  0
LTYPE
  5
5C
330
5
100
AcDbSymbolTableRecord
100
AcDbLinetypeTableRecord
  2
ByLayer
 70
     0
  3

 72
    65
 73
     0
 40
0.0
  0
LTYPE
  5
5D
330
5
100
AcDbSymbolTableRecord
100
AcDbLinetypeTableRecord
  2
Continuous
 70
     0
  3
Solid line
 72
    65
 73
     0
 40
0.0
  0
ENDTAB
  0
TABLE
  2
LAYER
  5
2
330
0
100
AcDbSymbolTable
 70
     2
  0
LAYER
  5
54
330
2
100
AcDbSymbolTableRecord
100
AcDbLayerTableRecord
  2
0
 70
     0
 62
     7
  6
Continuous
370
     0
390
F
347
21
348
0
  0
LAYER
  5
1C9
330
2
100
AcDbSymbolTableRecord
100
AcDbLayerTableRecord
  2
CAPA_BASE
 70
     0
 62
     7
  6
Continuous
370
     0
390
F
347
21
348
0
  0
ENDTAB
  0
TABLE
  2
STYLE
  5
3
330
0
100
AcDbSymbolTable
 70
     2
  0
STYLE
  5
55
330
3
100
AcDbSymbolTableRecord
100
AcDbTextStyleTableRecord
  2
Standard
 70
     0
 40
0.0
 41
1.0
 50
0.0
 71
     0
 42
0.2
  3
txt
  4

  0
STYLE
  5
5A
330
3
100
AcDbSymbolTableRecord
100
AcDbTextStyleTableRecord
  2
Annotative
 70
     0
 40
0.0
 41
1.0
 50
0.0
 71
     0
 42
0.2
  3
txt
  4

1001
AcadAnnotative
1000
AnnotativeData
1002
{
1070
     1
1070
     1
1002
}
  0
ENDTAB
  0
TABLE
  2
VIEW
  5
6
330
0
100
AcDbSymbolTable
 70
     0
  0
ENDTAB
  0
TABLE
  2
UCS
  5
7
330
0
100
AcDbSymbolTable
 70
     0
  0
ENDTAB
  0
TABLE
  2
APPID
  5
9
330
0
100
AcDbSymbolTable
 70
     2
  0
APPID
  5
56
330
9
100
AcDbSymbolTableRecord
100
AcDbRegAppTableRecord
  2
ACAD
 70
     0
  0
APPID
  5
5E
330
9
100
AcDbSymbolTableRecord
100
AcDbRegAppTableRecord
  2
AcadAnnotative
 70
     0
  0
ENDTAB
  0
TABLE
  2
DIMSTYLE
  5
A
330
0
100
AcDbSymbolTable
 70
     2
100
AcDbDimStyleTable
 71
     0
  0
DIMSTYLE
105
58
330
A
100
AcDbSymbolTableRecord
100
AcDbDimStyleTableRecord
  2
Standard
 70
     0
340
55
  0
DIMSTYLE
105
59
330
A
100
AcDbSymbolTableRecord
100
AcDbDimStyleTableRecord
  2
Annotative
 70
     0
340
55
1001
AcadAnnotative
1000
AnnotativeData
1002
{
1070
     1
1070
     1
1002
}
  0
ENDTAB
  0
TABLE
  2
BLOCK_RECORD
  5
1
330
0
100
AcDbSymbolTable
 70
     4
  0
BLOCK_RECORD
  5
70
330
1
100
AcDbSymbolTableRecord
100
AcDbBlockTableRecord
  2
*Model_Space
340
73
 70
     0
280
     1
281
     0
  0
BLOCK_RECORD
  5
6C
330
1
100
AcDbSymbolTableRecord
100
AcDbBlockTableRecord
  2
*Paper_Space
340
6F
 70
     0
280
     1
281
     0
  0
BLOCK_RECORD
  5
74
330
1
100
AcDbSymbolTableRecord
100
AcDbBlockTableRecord
  2
*Paper_Space0
340
77
 70
     0
280
     1
281
     0
  0
BLOCK_RECORD
  5
1CA
330
1
100
AcDbSymbolTableRecord
100
AcDbBlockTableRecord
  2
Block_0
340
0
102
{BLKREFS
331
1CB
102
}
 70
     0
280
     1
281
     0
  0
BLOCK_RECORD
  5
1D7
330
1
100
AcDbSymbolTableRecord
100
AcDbBlockTableRecord
  2
Block_1
340
0
102
{BLKREFS
331
1D8
102
}
 70
     0
280
     1
281
     0
  0
BLOCK_RECORD
  5
1E3
330
1
100
AcDbSymbolTableRecord
100
AcDbBlockTableRecord
  2
Block_2
340
0
102
{BLKREFS
331
1E4
102
}
 70
     0
280
     1
281
     0
  0
ENDTAB
  0
ENDSEC
  0
SECTION
  2
BLOCKS
  0
BLOCK
  5
71
330
70
100
AcDbEntity
  8
0
100
AcDbBlockBegin
  2
*Model_Space
 70
     0
 10
0.0
 20
0.0
 30
0.0
  3
*Model_Space
  1

  0
ENDBLK
  5
72
330
70
100
AcDbEntity
  8
0
100
AcDbBlockEnd
  0
BLOCK
  5
6D
330
6C
100
AcDbEntity
 67
     1
  8
0
100
AcDbBlockBegin
  2
*Paper_Space
 70
     0
 10
0.0
 20
0.0
 30
0.0
  3
*Paper_Space
  1

  0
ENDBLK
  5
6E
330
6C
100
AcDbEntity
 67
     1
  8
0
100
AcDbBlockEnd
  0
BLOCK
  5
75
330
74
100
AcDbEntity
 67
     1
  8
0
100
AcDbBlockBegin
  2
*Paper_Space0
 70
     0
 10
0.0
 20
0.0
 30
0.0
  3
*Paper_Space0
  1

  0
ENDBLK
  5
76
330
74
100
AcDbEntity
 67
     1
  8
0
100
AcDbBlockEnd
  0
BLOCK
  5
1CC
330
1CA
100
AcDbEntity
  8
0
100
AcDbBlockBegin
  2
Block_0
 70
     0
 10
0.0
 20
0.0
 30
0.0
  3
Block_0
  1

  0
LWPOLYLINE
  5
1CE
330
1CA
100
AcDbEntity
  8
CAPA_BASE
100
AcDbPolyline
 90
        4
 70
     1
 43
0.0
 10
31.48696702833281
 20
25.16637082514346
 10
33.9869670283329
 20
24.85637082514373
 10
33.9869670283329
 20
25.47637082514382
 10
33.9869670283329
 20
25.47637082514382
  0
HATCH
  5
1CF
330
1CA
100
AcDbEntity
  8
CAPA_BASE
 62
    18
420
        0
440
 33554687
100
AcDbHatch
 10
0.0
 20
0.0
 30
0.0
210
0.0
220
0.0
230
1.0
  2
SOLID
 70
     1
 71
     1
 91
        1
 92
        1
 93
        3
 72
     1
 10
31.48696702833281
 20
25.16637082514346
 11
33.9869670283329
 21
24.85637082514373
 72
     1
 10
33.9869670283329
 20
24.85637082514373
 11
33.9869670283329
 21
25.47637082514382
 72
     1
 10
33.9869670283329
 20
25.47637082514382
 11
31.48696702833281
 21
25.16637082514346
 97
        1
330
1CE
 75
     2
 76
     1
 98
        1
 10
0.0
 20
0.0
450
        0
451
        0
460
0.0
461
0.0
452
        0
462
0.0
453
        0
470

  0
LWPOLYLINE
  5
1D0
330
1CA
100
AcDbEntity
  8
CAPA_BASE
100
AcDbPolyline
 90
        4
 70
     1
 43
0.0
 10
69.54910788373294
 20
25.16637082514346
 10
67.04910788373253
 20
25.47637082514382
 10
67.04910788373253
 20
24.85637082514373
 10
67.04910788373253
 20
24.85637082514373
  0
HATCH
  5
1D1
330
1CA
100
AcDbEntity
  8
CAPA_BASE
 62
    18
420
        0
440
 33554687
100
AcDbHatch
 10
0.0
 20
0.0
 30
0.0
210
0.0
220
0.0
230
1.0
  2
SOLID
 70
     1
 71
     1
 91
        1
 92
        1
 93
        3
 72
     1
 10
69.54910788373294
 20
25.16637082514346
 11
67.04910788373253
 21
25.47637082514382
 72
     1
 10
67.04910788373253
 20
25.47637082514382
 11
67.04910788373253
 21
24.85637082514373
 72
     1
 10
67.04910788373253
 20
24.85637082514373
 11
69.54910788373294
 21
25.16637082514346
 97
        1
330
1D0
 75
     2
 76
     1
 98
        1
 10
0.0
 20
0.0
450
        0
451
        0
460
0.0
461
0.0
452
        0
462
0.0
453
        0
470

  0
LINE
  5
1D2
330
1CA
100
AcDbEntity
  8
CAPA_BASE
 62
    18
420
        0
370
    25
100
AcDbLine
 10
31.48696702833281
 20
77.29355245904395
 30
0.0
 11
31.48696702833281
 21
24.16637082514342
 31
0.0
  0
LINE
  5
1D3
330
1CA
100
AcDbEntity
  8
CAPA_BASE
 62
    18
420
        0
370
    25
100
AcDbLine
 10
69.54910788373294
 20
77.29355245904395
 30
0.0
 11
69.54910788373294
 21
24.16637082514342
 31
0.0
  0
LINE
  5
1D4
330
1CA
100
AcDbEntity
  8
CAPA_BASE
 62
    18
420
        0
370
    25
100
AcDbLine
 10
31.48696702833281
 20
25.16637082514346
 30
0.0
 11
69.54910788373294
 21
25.16637082514346
 31
0.0
  0
MTEXT
  5
1D5
330
1CA
100
AcDbEntity
  8
CAPA_BASE
100
AcDbMText
 10
47.0679818777458
 20
25.96011868993467
 30
0.0
 40
0.2
 41
0.0
 46
0.0
 71
     7
 72
     1
  1
\C18;\c0;\FArial Bold|b1|i0|c1;\H2.997200;\W0.700000;Ø
 73
     1
 44
1.0
  0
MTEXT
  5
1D6
330
1CA
100
AcDbEntity
  8
CAPA_BASE
100
AcDbMText
 10
50.44031586975483
 20
25.96011868993467
 30
0.0
 40
0.2
 41
0.0
 46
0.0
 71
     7
 72
     1
  1
\C18;\c0;\FArial Bold|b1|i0|c1;\H2.997200;\W0.700000;76
 73
     1
 44
1.0
  0
ENDBLK
  5
1CD
330
1CA
100
AcDbEntity
  8
0
100
AcDbBlockEnd
  0
BLOCK
  5
1D9
330
1D7
100
AcDbEntity
  8
0
100
AcDbBlockBegin
  2
Block_1
 70
     0
 10
0.0
 20
0.0
 30
0.0
  3
Block_1
  1

  0
LWPOLYLINE
  5
1DB
330
1D7
100
AcDbEntity
  8
CAPA_BASE
100
AcDbPolyline
 90
        4
 70
     1
 43
0.0
 10
79.54911740293299
 20
2.761007903743255
 10
79.23911740293327
 20
0.2610079037434887
 10
79.85911740293271
 20
0.2610079037434887
 10
79.85911740293271
 20
0.2610079037434887
  0
HATCH
  5
1DC
330
1D7
100
AcDbEntity
  8
CAPA_BASE
 62
    18
420
        0
440
 33554687
100
AcDbHatch
 10
0.0
 20
0.0
 30
0.0
210
0.0
220
0.0
230
1.0
  2
SOLID
 70
     1
 71
     1
 91
        1
 92
        1
 93
        3
 72
     1
 10
79.54911740293299
 20
2.761007903743255
 11
79.23911740293327
 21
0.2610079037434887
 72
     1
 10
79.23911740293327
 20
0.2610079037434887
 11
79.85911740293271
 21
0.2610079037434887
 72
     1
 10
79.85911740293271
 20
0.2610079037434887
 11
79.54911740293299
 21
2.761007903743255
 97
        1
330
1DB
 75
     2
 76
     1
 98
        1
 10
0.0
 20
0.0
450
        0
451
        0
460
0.0
461
0.0
452
        0
462
0.0
453
        0
470

  0
LWPOLYLINE
  5
1DD
330
1D7
100
AcDbEntity
  8
CAPA_BASE
100
AcDbPolyline
 90
        4
 70
     1
 43
0.0
 10
79.54911740293299
 20
-56.96399209625669
 10
79.85911740293271
 20
-54.46399209625628
 10
79.23911740293327
 20
-54.46399209625628
 10
79.23911740293327
 20
-54.46399209625628
  0
HATCH
  5
1DE
330
1D7
100
AcDbEntity
  8
CAPA_BASE
 62
    18
420
        0
440
 33554687
100
AcDbHatch
 10
0.0
 20
0.0
 30
0.0
210
0.0
220
0.0
230
1.0
  2
SOLID
 70
     1
 71
     1
 91
        1
 92
        1
 93
        3
 72
     1
 10
79.54911740293299
 20
-56.96399209625669
 11
79.85911740293271
 21
-54.46399209625628
 72
     1
 10
79.85911740293271
 20
-54.46399209625628
 11
79.23911740293327
 21
-54.46399209625628
 72
     1
 10
79.23911740293327
 20
-54.46399209625628
 11
79.54911740293299
 21
-56.96399209625669
 97
        1
330
1DD
 75
     2
 76
     1
 98
        1
 10
0.0
 20
0.0
450
        0
451
        0
460
0.0
461
0.0
452
        0
462
0.0
453
        0
470

  0
LINE
  5
1DF
330
1D7
100
AcDbEntity
  8
CAPA_BASE
 62
    18
420
        0
370
    25
100
AcDbLine
 10
65.26803745603243
 20
2.761007903743255
 30
0.0
 11
80.54911740293238
 21
2.761007903743255
 31
0.0
  0
LINE
  5
1E0
330
1D7
100
AcDbEntity
  8
CAPA_BASE
 62
    18
420
        0
370
    25
100
AcDbLine
 10
53.0180374560328
 20
-56.96399209625669
 30
0.0
 11
80.54911740293238
 21
-56.96399209625669
 31
0.0
  0
LINE
  5
1E1
330
1D7
100
AcDbEntity
  8
CAPA_BASE
 62
    18
420
        0
370
    25
100
AcDbLine
 10
79.54911740293299
 20
2.761007903743255
 30
0.0
 11
79.54911740293299
 21
-56.96399209625669
 31
0.0
  0
MTEXT
  5
1E2
330
1D7
100
AcDbEntity
  8
CAPA_BASE
100
AcDbMText
 10
78.75536725936453
 20
-29.74702147693889
 30
0.0
 40
0.2
 41
0.0
 46
0.0
 71
     7
 72
     1
  1
\C18;\c0;\FArial Bold|b1|i0|c1;\H2.997200;\W0.700000;119
 11
0.0000000000000003
 21
1.0
 31
0.0
 73
     1
 44
1.0
  0
ENDBLK
  5
1DA
330
1D7
100
AcDbEntity
  8
0
100
AcDbBlockEnd
  0
BLOCK
  5
1E5
330
1E3
100
AcDbEntity
  8
0
100
AcDbBlockBegin
  2
Block_2
 70
     0
 10
0.0
 20
0.0
 30
0.0
  3
Block_2
  1

  0
LWPOLYLINE
  5
1E7
330
1E3
100
AcDbEntity
  8
CAPA_BASE
100
AcDbPolyline
 90
        4
 70
     1
 43
0.0
 10
109.7129200828327
 20
117.5741298049436
 10
109.4029200828329
 20
115.0741298049435
 10
110.0229200828324
 20
115.0741298049435
 10
110.0229200828324
 20
115.0741298049435
  0
HATCH
  5
1E8
330
1E3
100
AcDbEntity
  8
CAPA_BASE
 62
    18
420
        0
440
 33554687
100
AcDbHatch
 10
0.0
 20
0.0
 30
0.0
210
0.0
220
0.0
230
1.0
  2
SOLID
 70
     1
 71
     1
 91
        1
 92
        1
 93
        3
 72
     1
 10
109.7129200828327
 20
117.5741298049436
 11
109.4029200828329
 21
115.0741298049435
 72
     1
 10
109.4029200828329
 20
115.0741298049435
 11
110.0229200828324
 21
115.0741298049435
 72
     1
 10
110.0229200828324
 20
115.0741298049435
 11
109.7129200828327
 21
117.5741298049436
 97
        1
330
1E7
 75
     2
 76
     1
 98
        1
 10
0.0
 20
0.0
450
        0
451
        0
460
0.0
461
0.0
452
        0
462
0.0
453
        0
470

  0
LWPOLYLINE
  5
1E9
330
1E3
100
AcDbEntity
  8
CAPA_BASE
100
AcDbPolyline
 90
        4
 70
     1
 43
0.0
 10
109.7129200828327
 20
35.16637082514317
 10
110.0229200828324
 20
37.66637082514357
 10
109.4029200828329
 20
37.66637082514357
 10
109.4029200828329
 20
37.66637082514357
  0
HATCH
  5
1EA
330
1E3
100
AcDbEntity
  8
CAPA_BASE
 62
    18
420
        0
440
 33554687
100
AcDbHatch
 10
0.0
 20
0.0
 30
0.0
210
0.0
220
0.0
230
1.0
  2
SOLID
 70
     1
 71
     1
 91
        1
 92
        1
 93
        3
 72
     1
 10
109.7129200828327
 20
35.16637082514317
 11
110.0229200828324
 21
37.66637082514357
 72
     1
 10
110.0229200828324
 20
37.66637082514357
 11
109.4029200828329
 21
37.66637082514357
 72
     1
 10
109.4029200828329
 20
37.66637082514357
 11
109.7129200828327
 21
35.16637082514317
 97
        1
330
1E9
 75
     2
 76
     1
 98
        1
 10
0.0
 20
0.0
450
        0
451
        0
460
0.0
461
0.0
452
        0
462
0.0
453
        0
470

  0
LINE
  5
1EB
330
1E3
100
AcDbEntity
  8
CAPA_BASE
 62
    18
420
        0
370
    25
100
AcDbLine
 10
154.2129200828333
 20
117.5741298049436
 30
0.0
 11
108.7129200828333
 21
117.5741298049436
 31
0.0
  0
LINE
  5
1EC
330
1E3
100
AcDbEntity
  8
CAPA_BASE
 62
    18
420
        0
370
    25
100
AcDbLine
 10
139.4556031846326
 20
35.16637082514317
 30
0.0
 11
108.7129200828333
 21
35.16637082514317
 31
0.0
  0
LINE
  5
1ED
330
1E3
100
AcDbEntity
  8
CAPA_BASE
 62
    18
420
        0
370
    25
100
AcDbLine
 10
109.7129200828327
 20
117.5741298049436
 30
0.0
 11
109.7129200828327
 21
35.16637082514317
 31
0.0
  0
MTEXT
  5
1EE
330
1E3
100
AcDbEntity
  8
CAPA_BASE
100
AcDbMText
 10
108.9191699285542
 20
73.72435436524883
 30
0.0
 40
0.2
 41
0.0
 46
0.0
 71
     7
 72
     1
  1
\C18;\c0;\FArial Bold|b1|i0|c1;\H2.997200;\W0.700000;165
 11
0.0000000000000003
 21
1.0
 31
0.0
 73
     1
 44
1.0
  0
ENDBLK
  5
1E6
330
1E3
100
AcDbEntity
  8
0
100
AcDbBlockEnd
  0
ENDSEC
  0
SECTION
  2
ENTITIES
  0
SPLINE
  5
78
330
70
100
AcDbEntity
  8
0
 62
    18
420
        0
370
    25
100
AcDbSpline
210
0.0
220
0.0
230
1.0
 70
     8
 71
     3
 72
    11
 73
     7
 74
     0
 42
0.0000000001
 43
0.0000000001
 40
0.0
 40
0.0
 40
0.0
 40
0.0
 40
1.0
 40
1.0
 40
1.0
 40
2.0
 40
2.0
 40
2.0
 40
2.0
 10
31.48696702836682
 20
78.29355245901767
 30
0.0
 10
31.48576214524849
 20
78.15548652888738
 30
0.0
 10
31.59670994512881
 20
78.04258522749599
 30
0.0
 10
31.73477587525877
 20
78.04138034437734
 30
0.0
 10
31.73550306924344
 20
78.0413739982517
 30
0.0
 10
31.7362302874577
 20
78.04137082514363
 30
0.0
 10
31.73695750913296
 20
78.04137082514363
 30
0.0
  0
SPLINE
  5
79
330
70
100
AcDbEntity
  8
0
 62
    18
420
        0
370
    25
100
AcDbSpline
210
0.0
220
0.0
230
1.0
 70
     8
 71
     3
 72
    11
 73
     7
 74
     0
 42
0.0000000001
 43
0.0000000001
 40
0.0
 40
0.0
 40
0.0
 40
0.0
 40
1.0
 40
1.0
 40
1.0
 40
2.0
 40
2.0
 40
2.0
 40
2.0
 10
69.29911740293312
 20
78.04137082514363
 30
0.0
 10
69.43718859039069
 20
78.04137082514363
 30
0.0
 10
69.54911740293264
 20
78.15329963768623
 30
0.0
 10
69.54911740293264
 20
78.2913708251438
 30
0.0
 10
69.54911740293264
 20
78.29209804681906
 30
0.0
 10
69.54911422982458
 20
78.292825265033
 30
0.0
 10
69.54910788369893
 20
78.29355245901767
 30
0.0
  0
LINE
  5
7A
330
70
100
AcDbEntity
  8
0
 62
    18
420
        0
370
    25
100
AcDbLine
 10
69.54910762883276
 20
78.29355369624358
 30
0.0
 11
69.51803684503324
 21
81.85386951384369
 31
0.0
  0
LINE
  5
7B
330
70
100
AcDbEntity
  8
0
 62
    18
420
        0
370
    25
100
AcDbLine
 10
31.51803806693274
 20
81.85386951384369
 30
0.0
 11
31.486967283233
 21
78.29355369624358
 31
0.0
  0
SPLINE
  5
7C
330
70
100
AcDbEntity
  8
0
 62
    18
420
        0
370
    25
100
AcDbSpline
210
0.0
220
0.0
230
1.0
 70
     8
 71
     3
 72
     8
 73
     4
 74
     0
 42
0.0000000001
 43
0.0000000001
 40
0.0
 40
0.0
 40
0.0
 40
0.0
 40
1.0
 40
1.0
 40
1.0
 40
1.0
 10
69.51803745603723
 20
81.85387082514349
 30
0.0
 10
69.51803745603723
 20
83.17144645433122
 30
0.0
 10
69.48331734631079
 20
84.48879331197323
 30
0.0
 10
69.4139132788868
 20
85.80453972145125
 30
0.0
  0
SPLINE
  5
7D
330
70
100
AcDbEntity
  8
0
 62
    18
420
        0
370
    25
100
AcDbSpline
210
0.0
220
0.0
230
1.0
 70
     8
 71
     3
 72
     8
 73
     4
 74
     0
 42
0.0000000001
 43
0.0000000001
 40
0.0
 40
0.0
 40
0.0
 40
0.0
 40
1.0
 40
1.0
 40
1.0
 40
1.0
 10
31.62216163317864
 20
85.80453972145125
 30
0.0
 10
31.55275756575498
 20
84.48879331197323
 30
0.0
 10
31.51803745602852
 20
83.17144645433122
 30
0.0
 10
31.51803745602852
 20
81.85387082514349
 30
0.0
  0
SPLINE
  5
7E
330
70
100
AcDbEntity
  8
0
 62
    18
420
        0
370
    25
100
AcDbSpline
210
0.0
220
0.0
230
1.0
 70
     8
 71
     3
 72
     8
 73
     4
 74
     0
 42
0.0000000001
 43
0.0000000001
 40
0.0
 40
0.0
 40
0.0
 40
0.0
 40
1.0
 40
1.0
 40
1.0
 40
1.0
 10
69.41391327884187
 20
85.80453972146472
 30
0.0
 10
69.40690986678418
 20
85.93730880276286
 30
0.0
 10
69.29721402327564
 20
86.04137082514327
 30
0.0
 10
69.1642603594325
 20
86.04137082514327
 30
0.0
  0
SPLINE
  5
7F
330
70
100
AcDbEntity
  8
0
 62
    18
420
        0
370
    25
100
AcDbSpline
210
0.0
220
0.0
230
1.0
 70
     8
 71
     3
 72
     8
 73
     4
 74
     0
 42
0.0000000001
 43
0.0000000001
 40
0.0
 40
0.0
 40
0.0
 40
0.0
 40
1.0
 40
1.0
 40
1.0
 40
1.0
 10
31.87181455253282
 20
86.04137082514327
 30
0.0
 10
31.73886088869033
 20
86.04137082514327
 30
0.0
 10
31.62916504518178
 20
85.93730880276286
 30
0.0
 10
31.62216163312346
 20
85.80453972146472
 30
0.0
  0
LINE
  5
80
330
70
100
AcDbEntity
  8
0
 62
    18
420
        0
370
    25
100
AcDbLine
 10
32.51803823083298
 20
86.16636987144351
 30
0.0
 11
32.51803823083298
 21
86.04137148074345
 31
0.0
  0
LINE
  5
81
330
70
100
AcDbEntity
  8
0
 62
    18
420
        0
370
    25
100
AcDbLine
 10
68.518036681133
 20
86.04137148074345
 30
0.0
 11
68.518036681133
 21
86.16636987144351
 31
0.0
  0
LINE
  5
82
330
70
100
AcDbEntity
  8
0
 62
    18
420
        0
370
    25
100
AcDbLine
 10
55.51803734423288
 20
105.5741264980434
 30
0.0
 11
55.4161981520327
 21
117.2437846225437
 31
0.0
  0
LINE
  5
83
330
70
100
AcDbEntity
  8
0
 62
    18
420
        0
370
    25
100
AcDbLine
 10
45.61987676003274
 20
117.2437846225437
 30
0.0
 11
45.51803756773277
 21
105.5741264980434
 31
0.0
  0
SPLINE
  5
84
330
70
100
AcDbEntity
  8
0
 62
    18
420
        0
370
    25
100
AcDbSpline
210
0.0
220
0.0
230
1.0
 70
     8
 71
     3
 72
     8
 73
     4
 74
     0
 42
0.0000000001
 43
0.0000000001
 40
0.0
 40
0.0
 40
0.0
 40
0.0
 40
1.0
 40
1.0
 40
1.0
 40
1.0
 10
45.71025759681421
 20
117.3424455572483
 30
0.0
 10
45.65932473563703
 20
117.337525278544
 30
0.0
 10
45.62032350075711
 20
117.2949495975798
 30
0.0
 10
45.6198769642265
 20
117.2437815792934
 30
0.0
  0
SPLINE
  5
85
330
70
100
AcDbEntity
  8
0
 62
    18
420
        0
370
    25
100
AcDbSpline
210
0.0
220
0.0
230
1.0
 70
     8
 71
     3
 72
     8
 73
     4
 74
     0
 42
0.0000000001
 43
0.0000000001
 40
0.0
 40
0.0
 40
0.0
 40
0.0
 40
1.0
 40
1.0
 40
1.0
 40
1.0
 10
55.41619794783925
 20
117.2437815792934
 30
0.0
 10
55.41575141130864
 20
117.2949495975798
 30
0.0
 10
55.3767501764284
 20
117.337525278544
 30
0.0
 10
55.32581731525122
 20
117.3424455572483
 30
0.0
  0
SPLINE
  5
86
330
70
100
AcDbEntity
  8
0
 62
    18
420
        0
370
    25
100
AcDbSpline
210
0.0
220
0.0
230
1.0
 70
     8
 71
     3
 72
     8
 73
     4
 74
     0
 42
0.0000000001
 43
0.0000000001
 40
0.0
 40
0.0
 40
0.0
 40
0.0
 40
1.0
 40
1.0
 40
1.0
 40
1.0
 10
55.32581731527144
 20
117.3424455572884
 30
0.0
 10
52.12807389946529
 20
117.6513578874952
 30
0.0
 10
48.90800101260047
 20
117.6513578874952
 30
0.0
 10
45.71025759679431
 20
117.3424455572884
 30
0.0
  0
LINE
  5
87
330
70
100
AcDbEntity
  8
0
 62
    18
420
        0
370
    25
100
AcDbLine
 10
67.51803837993299
 20
91.26637052114343
 30
0.0
 11
67.51803837993299
 21
91.68300698814345
 31
0.0
  0
LINE
  5
88
330
70
100
AcDbEntity
  8
0
 62
    18
420
        0
370
    25
100
AcDbLine
 10
33.51803653213277
 20
91.68300698814345
 30
0.0
 11
33.51803653213277
 21
91.26637052114343
 31
0.0
  0
SPLINE
  5
89
330
70
100
AcDbEntity
  8
0
 62
    18
420
        0
370
    25
100
AcDbSpline
210
0.0
220
0.0
230
1.0
 70
     8
 71
     3
 72
     8
 73
     4
 74
     0
 42
0.0000000001
 43
0.0000000001
 40
0.0
 40
0.0
 40
0.0
 40
0.0
 40
1.0
 40
1.0
 40
1.0
 40
1.0
 10
33.51803745603276
 20
91.26637082514355
 30
0.0
 10
33.51803745603276
 20
91.21114235016044
 30
0.0
 10
33.56280898104967
 20
91.16637082514355
 30
0.0
 10
33.61803745603276
 20
91.16637082514355
 30
0.0
  0
SPLINE
  5
8A
330
70
100
AcDbEntity
  8
0
 62
    18
420
        0
370
    25
100
AcDbSpline
210
0.0
220
0.0
230
1.0
 70
     8
 71
     3
 72
     8
 73
     4
 74
     0
 42
0.0000000001
 43
0.0000000001
 40
0.0
 40
0.0
 40
0.0
 40
0.0
 40
1.0
 40
1.0
 40
1.0
 40
1.0
 10
67.41803745603299
 20
91.16637082514355
 30
0.0
 10
67.47326593101577
 20
91.16637082514355
 30
0.0
 10
67.51803745603331
 20
91.21114235016044
 30
0.0
 10
67.51803745603331
 20
91.26637082514355
 30
0.0
  0
SPLINE
  5
8B
330
70
100
AcDbEntity
  8
0
 62
    18
420
        0
370
    25
100
AcDbSpline
210
0.0
220
0.0
230
1.0
 70
     8
 71
     3
 72
     8
 73
     4
 74
     0
 42
0.0000000001
 43
0.0000000001
 40
0.0
 40
0.0
 40
0.0
 40
0.0
 40
1.0
 40
1.0
 40
1.0
 40
1.0
 10
33.75096731327885
 20
91.93242189734409
 30
0.0
 10
33.6198281590157
 20
91.92344669430642
 30
0.0
 10
33.51803745603276
 20
91.814451285982
 30
0.0
 10
33.51803745603276
 20
91.68300535774372
 30
0.0
  0
SPLINE
  5
8C
330
70
100
AcDbEntity
  8
0
 62
    18
420
        0
370
    25
100
AcDbSpline
210
0.0
220
0.0
230
1.0
 70
     8
 71
     3
 72
     8
 73
     4
 74
     0
 42
0.0000000001
 43
0.0000000001
 40
0.0
 40
0.0
 40
0.0
 40
0.0
 40
1.0
 40
1.0
 40
1.0
 40
1.0
 10
67.51803745603331
 20
91.68300535774372
 30
0.0
 10
67.51803745603331
 20
91.814451285982
 30
0.0
 10
67.41624675305037
 20
91.92344669430642
 30
0.0
 10
67.28510759878658
 20
91.93242189734409
 30
0.0
  0
SPLINE
  5
8D
330
70
100
AcDbEntity
  8
0
 62
    18
420
        0
370
    25
100
AcDbSpline
210
0.0
220
0.0
230
1.0
 70
     8
 71
     3
 72
     8
 73
     4
 74
     0
 42
0.0000000001
 43
0.0000000001
 40
0.0
 40
0.0
 40
0.0
 40
0.0
 40
1.0
 40
1.0
 40
1.0
 40
1.0
 10
43.76803745617445
 20
92.41637082516685
 30
0.0
 10
40.42611403948668
 20
92.32204996706448
 30
0.0
 10
37.08641887279523
 20
92.16070120221075
 30
0.0
 10
33.75096731322045
 20
91.93242189739029
 30
0.0
  0
SPLINE
  5
8E
330
70
100
AcDbEntity
  8
0
 62
    18
420
        0
370
    25
100
AcDbSpline
210
0.0
220
0.0
230
1.0
 70
     8
 71
     3
 72
     8
 73
     4
 74
     0
 42
0.0000000001
 43
0.0000000001
 40
0.0
 40
0.0
 40
0.0
 40
0.0
 40
1.0
 40
1.0
 40
1.0
 40
1.0
 10
67.28510759874551
 20
91.93242189739029
 30
0.0
 10
63.94965603917074
 20
92.16070120221075
 30
0.0
 10
60.60996087247897
 20
92.32204996706448
 30
0.0
 10
57.26803745579151
 20
92.41637082516685
 30
0.0
  0
LINE
  5
8F
330
70
100
AcDbEntity
  8
0
 62
    18
420
        0
370
    25
100
AcDbLine
 10
57.26803763113289
 20
92.4163713615435
 30
0.0
 11
57.26803763113289
 21
92.56637017544353
 31
0.0
  0
LINE
  5
90
330
70
100
AcDbEntity
  8
0
 62
    18
420
        0
370
    25
100
AcDbLine
 10
43.76803728093286
 20
92.56637017544353
 30
0.0
 11
43.76803728093286
 21
92.4163713615435
 31
0.0
  0
LINE
  5
91
330
70
100
AcDbEntity
  8
0
 62
    18
420
        0
370
    25
100
AcDbLine
 10
58.26672835543273
 20
92.56637017544353
 30
0.0
 11
58.20788553253278
 21
99.30908973634354
 31
0.0
  0
LINE
  5
92
330
70
100
AcDbEntity
  8
0
 62
    18
420
        0
370
    25
100
AcDbLine
 10
42.82818937943287
 20
99.30908973634354
 30
0.0
 11
42.76934655653291
 21
92.56637017544353
 31
0.0
  0
SPLINE
  5
93
330
70
100
AcDbEntity
  8
0
 62
    18
420
        0
370
    25
100
AcDbSpline
210
0.0
220
0.0
230
1.0
 70
     8
 71
     3
 72
     8
 73
     4
 74
     0
 42
0.0000000001
 43
0.0000000001
 40
0.0
 40
0.0
 40
0.0
 40
0.0
 40
1.0
 40
1.0
 40
1.0
 40
1.0
 10
43.06577875970615
 20
99.55660320409021
 30
0.0
 10
42.93353364635982
 20
99.55003520620609
 30
0.0
 10
42.82934479177219
 20
99.44149567152313
 30
0.0
 10
42.82818932766669
 20
99.30909259941824
 30
0.0
  0
SPLINE
  5
94
330
70
100
AcDbEntity
  8
0
 62
    18
420
        0
370
    25
100
AcDbSpline
210
0.0
220
0.0
230
1.0
 70
     8
 71
     3
 72
     8
 73
     4
 74
     0
 42
0.0000000001
 43
0.0000000001
 40
0.0
 40
0.0
 40
0.0
 40
0.0
 40
1.0
 40
1.0
 40
1.0
 40
1.0
 10
58.20788558439875
 20
99.30909259941824
 30
0.0
 10
58.20673012029356
 20
99.44149567152313
 30
0.0
 10
58.10254126570593
 20
99.55003520620609
 30
0.0
 10
57.97029615235961
 20
99.55660320409021
 30
0.0
  0
SPLINE
  5
95
330
70
100
AcDbEntity
  8
0
 62
    18
420
        0
370
    25
100
AcDbSpline
210
0.0
220
0.0
230
1.0
 70
     8
 71
     3
 72
     8
 73
     4
 74
     0
 42
0.0000000001
 43
0.0000000001
 40
0.0
 40
0.0
 40
0.0
 40
0.0
 40
1.0
 40
1.0
 40
1.0
 40
1.0
 10
57.97029615224571
 20
99.55660320413448
 30
0.0
 10
57.0024811651271
 20
99.60467005989128
 30
0.0
 10
56.03401864076587
 20
99.63866707154927
 30
0.0
 10
55.0652154568697
 20
99.65858346644113
 30
0.0
  0
SPLINE
  5
96
330
70
100
AcDbEntity
  8
0
 62
    18
420
        0
370
    25
100
AcDbSpline
210
0.0
220
0.0
230
1.0
 70
     8
 71
     3
 72
     8
 73
     4
 74
     0
 42
0.0000000001
 43
0.0000000001
 40
0.0
 40
0.0
 40
0.0
 40
0.0
 40
1.0
 40
1.0
 40
1.0
 40
1.0
 10
45.97085945519604
 20
99.65858346644113
 30
0.0
 10
45.00205627129989
 20
99.63866707154927
 30
0.0
 10
44.03359374693865
 20
99.60467005989128
 30
0.0
 10
43.06577875982005
 20
99.5566032041348
 30
0.0
  0
SPLINE
  5
97
330
70
100
AcDbEntity
  8
0
 62
    18
420
        0
370
    25
100
AcDbSpline
210
0.0
220
0.0
230
1.0
 70
     8
 71
     3
 72
     8
 73
     4
 74
     0
 42
0.0000000001
 43
0.0000000001
 40
0.0
 40
0.0
 40
0.0
 40
0.0
 40
1.0
 40
1.0
 40
1.0
 40
1.0
 10
54.57551118930081
 20
100.1541145770942
 30
0.0
 10
54.57787121095158
 20
99.88368288185549
 30
0.0
 10
54.79483059304403
 20
99.66414196563643
 30
0.0
 10
55.06521545685623
 20
99.65858346643855
 30
0.0
  0
SPLINE
  5
98
330
70
100
AcDbEntity
  8
0
 62
    18
420
        0
370
    25
100
AcDbSpline
210
0.0
220
0.0
230
1.0
 70
     8
 71
     3
 72
     8
 73
     4
 74
     0
 42
0.0000000001
 43
0.0000000001
 40
0.0
 40
0.0
 40
0.0
 40
0.0
 40
1.0
 40
1.0
 40
1.0
 40
1.0
 10
45.97085945520952
 20
99.65858346643855
 30
0.0
 10
46.24124431902171
 20
99.66414196563643
 30
0.0
 10
46.45820370111418
 20
99.88368288185549
 30
0.0
 10
46.46056372276494
 20
100.1541145770942
 30
0.0
  0
LINE
  5
99
330
70
100
AcDbEntity
  8
0
 62
    18
420
        0
370
    25
100
AcDbLine
 10
54.57551095903288
 20
100.1541122358434
 30
0.0
 11
54.52821141383277
 21
105.5741264980434
 31
0.0
  0
LINE
  5
9A
330
70
100
AcDbEntity
  8
0
 62
    18
420
        0
370
    25
100
AcDbLine
 10
46.50786349823298
 20
105.5741264980434
 30
0.0
 11
46.46056395293276
 21
100.1541122358434
 31
0.0
  0
SPLINE
  5
9B
330
70
100
AcDbEntity
  8
0
 62
    18
420
        0
370
    25
100
AcDbSpline
210
0.0
220
0.0
230
1.0
 70
     8
 71
     3
 72
    11
 73
     7
 74
     0
 42
0.0000000001
 43
0.0000000001
 40
0.0
 40
0.0
 40
0.0
 40
0.0
 40
1.0
 40
1.0
 40
1.0
 40
2.0
 40
2.0
 40
2.0
 40
2.0
 10
69.18447103919922
 20
90.91418919126885
 30
0.0
 10
69.18567592231787
 20
91.05225512139883
 30
0.0
 10
69.07472812243691
 20
91.16515642279086
 30
0.0
 10
68.93666219230791
 20
91.16636130590952
 30
0.0
 10
68.93593499832196
 20
91.16636765203548
 30
0.0
 10
68.93520778010802
 20
91.16637082514355
 30
0.0
 10
68.93448055843276
 20
91.16637082514355
 30
0.0
  0
SPLINE
  5
9C
330
70
100
AcDbEntity
  8
0
 62
    18
420
        0
370
    25
100
AcDbSpline
210
0.0
220
0.0
230
1.0
 70
     8
 71
     3
 72
    11
 73
     7
 74
     0
 42
0.0000000001
 43
0.0000000001
 40
0.0
 40
0.0
 40
0.0
 40
0.0
 40
1.0
 40
1.0
 40
1.0
 40
2.0
 40
2.0
 40
2.0
 40
2.0
 10
32.101594353633
 20
91.16637082514355
 30
0.0
 10
31.9635231661751
 20
91.16637082514355
 30
0.0
 10
31.85159435363283
 20
91.05444201260127
 30
0.0
 10
31.85159435363283
 20
90.91637082514369
 30
0.0
 10
31.85159435363283
 20
90.91564360346811
 30
0.0
 10
31.85159752674089
 20
90.91491638525416
 30
0.0
 10
31.85160387286686
 20
90.91418919126885
 30
0.0
  0
LINE
  5
9D
330
70
100
AcDbEntity
  8
0
 62
    18
420
        0
370
    25
100
AcDbLine
 10
31.8516042856327
 20
90.91418902694353
 30
0.0
 11
31.89087443323279
 21
86.41418735794353
 31
0.0
  0
LINE
  5
9E
330
70
100
AcDbEntity
  8
0
 62
    18
420
        0
370
    25
100
AcDbLine
 10
69.14520047873255
 20
86.41418735794353
 30
0.0
 11
69.18447062643273
 21
90.91418902694353
 31
0.0
  0
SPLINE
  5
9F
330
70
100
AcDbEntity
  8
0
 62
    18
420
        0
370
    25
100
AcDbSpline
210
0.0
220
0.0
230
1.0
 70
     8
 71
     3
 72
     8
 73
     4
 74
     0
 42
0.0000000001
 43
0.0000000001
 40
0.0
 40
0.0
 40
0.0
 40
0.0
 40
1.0
 40
1.0
 40
1.0
 40
1.0
 10
68.89520965333263
 20
86.16637082514369
 30
0.0
 10
69.03242961683128
 20
86.16637082514369
 30
0.0
 10
69.14400267921664
 20
86.27697445268575
 30
0.0
 10
69.14520013409909
 20
86.4141891912687
 30
0.0
  0
SPLINE
  5
A0
330
70
100
AcDbEntity
  8
0
 62
    18
420
        0
370
    25
100
AcDbSpline
210
0.0
220
0.0
230
1.0
 70
     8
 71
     3
 72
     8
 73
     4
 74
     0
 42
0.0000000001
 43
0.0000000001
 40
0.0
 40
0.0
 40
0.0
 40
0.0
 40
1.0
 40
1.0
 40
1.0
 40
1.0
 10
31.89087477786689
 20
86.4141891912687
 30
0.0
 10
31.89207223274932
 20
86.27697445268575
 30
0.0
 10
32.00364529513436
 20
86.16637082514369
 30
0.0
 10
32.14086525863271
 20
86.16637082514369
 30
0.0
  0
LINE
  5
A1
330
70
100
AcDbEntity
  8
0
 62
    18
420
        0
370
    25
100
AcDbLine
 10
34.59769457853278
 20
78.04137016944337
 30
0.0
 11
35.01075662943284
 21
35.90901821454312
 31
0.0
  0
LINE
  5
A2
330
70
100
AcDbEntity
  8
0
 62
    18
420
        0
370
    25
100
AcDbLine
 10
66.02531828263292
 20
35.90901821454312
 30
0.0
 11
66.43838033353297
 21
78.04137016944337
 31
0.0
  0
SPLINE
  5
A3
330
70
100
AcDbEntity
  8
0
 62
    18
420
        0
370
    25
100
AcDbSpline
210
0.0
220
0.0
230
1.0
 70
     8
 71
     3
 72
     8
 73
     4
 74
     0
 42
0.0000000001
 43
0.0000000001
 40
0.0
 40
0.0
 40
0.0
 40
0.0
 40
1.0
 40
1.0
 40
1.0
 40
1.0
 10
65.27535435423271
 20
35.16637082514317
 30
0.0
 10
65.68669941280781
 20
35.16637082514317
 30
0.0
 10
66.02128571210574
 20
35.49769294591377
 30
0.0
 10
66.02531831300196
 20
35.90901823731189
 30
0.0
  0
SPLINE
  5
A4
330
70
100
AcDbEntity
  8
0
 62
    18
420
        0
370
    25
100
AcDbSpline
210
0.0
220
0.0
230
1.0
 70
     8
 71
     3
 72
     8
 73
     4
 74
     0
 42
0.0000000001
 43
0.0000000001
 40
0.0
 40
0.0
 40
0.0
 40
0.0
 40
1.0
 40
1.0
 40
1.0
 40
1.0
 10
35.01075659906411
 20
35.90901823731189
 30
0.0
 10
35.01478919996035
 20
35.49769294591377
 30
0.0
 10
35.34937549925826
 20
35.16637082514317
 30
0.0
 10
35.76072055783273
 20
35.16637082514317
 30
0.0
  0
LWPOLYLINE
  5
A5
330
70
100
AcDbEntity
  8
0
 62
    18
420
        0
370
    25
100
AcDbPolyline
 90
        3
 70
     0
 43
0.0
 10
41.40589822353298
 20
92.3385276955434
 10
41.94505296923268
 20
92.79155279814348
 10
42.77666582063294
 20
93.40507085734364
  0
LWPOLYLINE
  5
A6
330
70
100
AcDbEntity
  8
0
 62
    18
420
        0
370
    25
100
AcDbPolyline
 90
        3
 70
     0
 43
0.0
 10
58.25940909133271
 20
93.40507085734364
 10
59.09102194283275
 20
92.79155279814348
 10
59.63017668843298
 20
92.3385276955434
  0
LINE
  5
A7
330
70
100
AcDbEntity
  8
0
 62
    18
420
        0
370
    25
100
AcDbLine
 10
69.29911829803268
 20
78.04137016944337
 30
0.0
 11
31.73695661403275
 21
78.04137016944337
 31
0.0
  0
LINE
  5
A8
330
70
100
AcDbEntity
  8
0
 62
    18
420
        0
370
    25
100
AcDbLine
 10
31.8718139854329
 20
86.04137148074345
 30
0.0
 11
69.16426092663286
 21
86.04137148074345
 31
0.0
  0
LINE
  5
A9
330
70
100
AcDbEntity
  8
0
 62
    18
420
        0
370
    25
100
AcDbLine
 10
45.51803756773277
 20
105.5741264980434
 30
0.0
 11
55.51803734423288
 21
105.5741264980434
 31
0.0
  0
CIRCLE
  5
AA
330
70
100
AcDbEntity
  8
0
 62
    18
420
        0
370
    25
100
AcDbCircle
 10
50.51803547283288
 20
114.0741289004436
 30
0.0
 40
1.524999285860492
  0
CIRCLE
  5
AB
330
70
100
AcDbEntity
  8
0
 62
    18
420
        0
370
    25
100
AcDbCircle
 10
50.5180374560328
 20
114.0741298049436
 30
0.0
 40
1.499999999999892
  0
CIRCLE
  5
AC
330
70
100
AcDbEntity
  8
0
 62
    18
420
        0
370
    25
100
AcDbCircle
 10
50.51803745603272
 20
114.0741298049435
 30
0.0
 40
1.000000000000035
  0
LINE
  5
AD
330
70
100
AcDbEntity
  8
0
 62
    18
420
        0
370
    25
100
AcDbLine
 10
56.07782461023285
 20
92.4163713615435
 30
0.0
 11
43.76803728093286
 21
92.4163713615435
 31
0.0
  0
LINE
  5
AE
330
70
100
AcDbEntity
  8
0
 62
    18
420
        0
370
    25
100
AcDbLine
 10
57.26803763113289
 20
92.4163713615435
 30
0.0
 11
56.07782461023285
 21
92.4163713615435
 31
0.0
  0
LINE
  5
AF
330
70
100
AcDbEntity
  8
0
 62
    18
420
        0
370
    25
100
AcDbLine
 10
44.12575735053287
 20
92.56637017544353
 30
0.0
 11
42.76934655653291
 21
92.56637017544353
 31
0.0
  0
LINE
  5
B0
330
70
100
AcDbEntity
  8
0
 62
    18
420
        0
370
    25
100
AcDbLine
 10
58.26672835543273
 20
92.56637017544353
 30
0.0
 11
44.12575735053287
 21
92.56637017544353
 31
0.0
  0
LINE
  5
B1
330
70
100
AcDbEntity
  8
0
 62
    18
420
        0
370
    25
100
AcDbLine
 10
68.93448129573276
 20
91.16637255364365
 30
0.0
 11
32.10159361633299
 21
91.16637255364365
 31
0.0
  0
LINE
  5
B2
330
70
100
AcDbEntity
  8
0
 62
    18
420
        0
370
    25
100
AcDbLine
 10
68.89520928533298
 20
86.16636987144351
 30
0.0
 11
32.14086562663299
 21
86.16636987144351
 31
0.0
  0
LINE
  5
B3
330
70
100
AcDbEntity
  8
0
 62
    18
420
        0
370
    25
100
AcDbLine
 10
65.2753540155324
 20
35.16637082514317
 30
0.0
 11
35.76072089643292
 21
35.16637082514317
 31
0.0
  0
LINE
  5
B4
330
70
100
AcDbEntity
  8
0
 62
     8
420
  8421504
370
    25
100
AcDbLine
 10
58.86457179013282
 20
92.36620660244367
 30
0.0
 11
58.26448247113293
 21
92.82373930624366
 31
0.0
  0
LWPOLYLINE
  5
B5
330
70
100
AcDbEntity
  8
0
 62
     8
420
  8421504
370
    25
100
AcDbPolyline
 90
        3
 70
     0
 43
0.0
 10
42.77159244093282
 20
92.82373930624366
 10
42.37596847393279
 20
92.52820085104344
 10
42.17150312193293
 20
92.36620660244367
  0
LINE
  5
B6
330
70
100
AcDbEntity
  8
0
 62
     8
420
  8421504
370
    25
100
AcDbLine
 10
31.486967283233
 20
78.29355369624358
 30
0.0
 11
69.54910762883276
 21
78.29355369624358
 31
0.0
  0
LINE
  5
B7
330
70
100
AcDbEntity
  8
0
 62
     8
420
  8421504
370
    25
100
AcDbLine
 10
31.51803806693274
 20
81.85386951384369
 30
0.0
 11
69.51803684503324
 21
81.85386951384369
 31
0.0
  0
LINE
  5
B8
330
70
100
AcDbEntity
  8
0
 62
     8
420
  8421504
370
    25
100
AcDbLine
 10
69.41391311863272
 20
85.80453987534351
 30
0.0
 11
31.62216179343271
 21
85.80453987534351
 31
0.0
  0
LINE
  5
B9
330
70
100
AcDbEntity
  8
0
 62
     8
420
  8421504
370
    25
100
AcDbLine
 10
45.61987676003274
 20
117.2437846225437
 30
0.0
 11
55.4161981520327
 21
117.2437846225437
 31
0.0
  0
LINE
  5
BA
330
70
100
AcDbEntity
  8
0
 62
     8
420
  8421504
370
    25
100
AcDbLine
 10
45.71025742493288
 20
117.3424452107434
 30
0.0
 11
55.32581748713287
 21
117.3424452107434
 31
0.0
  0
LINE
  5
BB
330
70
100
AcDbEntity
  8
0
 62
     8
420
  8421504
370
    25
100
AcDbLine
 10
67.51803837993299
 20
91.68300698814345
 30
0.0
 11
33.51803653213277
 21
91.68300698814345
 31
0.0
  0
LINE
  5
BC
330
70
100
AcDbEntity
  8
0
 62
     8
420
  8421504
370
    25
100
AcDbLine
 10
33.51803653213277
 20
91.26637052114343
 30
0.0
 11
67.51803837993299
 21
91.26637052114343
 31
0.0
  0
LINE
  5
BD
330
70
100
AcDbEntity
  8
0
 62
     8
420
  8421504
370
    25
100
AcDbLine
 10
64.32860687643281
 20
91.93242262414365
 30
0.0
 11
67.28510715343269
 21
91.93242262414365
 31
0.0
  0
LINE
  5
BE
330
70
100
AcDbEntity
  8
0
 62
     8
420
  8421504
370
    25
100
AcDbLine
 10
33.75096775863274
 20
91.93242262414365
 30
0.0
 11
64.32860687643281
 21
91.93242262414365
 31
0.0
  0
LINE
  5
BF
330
70
100
AcDbEntity
  8
0
 62
     8
420
  8421504
370
    25
100
AcDbLine
 10
44.17429974573283
 20
99.30908973634354
 30
0.0
 11
42.82818937943287
 21
99.30908973634354
 31
0.0
  0
LINE
  5
C0
330
70
100
AcDbEntity
  8
0
 62
     8
420
  8421504
370
    25
100
AcDbLine
 10
58.20788553253278
 20
99.30908973634354
 30
0.0
 11
44.17429974573283
 21
99.30908973634354
 31
0.0
  0
LINE
  5
C1
330
70
100
AcDbEntity
  8
0
 62
     8
420
  8421504
370
    25
100
AcDbLine
 10
43.06577861583273
 20
99.55660547434344
 30
0.0
 11
57.97029629623271
 21
99.55660547434344
 31
0.0
  0
LINE
  5
C2
330
70
100
AcDbEntity
  8
0
 62
     8
420
  8421504
370
    25
100
AcDbLine
 10
55.06521526993283
 20
99.65858157094366
 30
0.0
 11
45.97085964203282
 21
99.65858157094366
 31
0.0
  0
LINE
  5
C3
330
70
100
AcDbEntity
  8
0
 62
     8
420
  8421504
370
    25
100
AcDbLine
 10
46.46056395293276
 20
100.1541122358434
 30
0.0
 11
54.57551095903288
 21
100.1541122358434
 31
0.0
  0
LINE
  5
C4
330
70
100
AcDbEntity
  8
0
 62
     8
420
  8421504
370
    25
100
AcDbLine
 10
69.18447062643273
 20
90.91418902694353
 30
0.0
 11
31.8516042856327
 21
90.91418902694353
 31
0.0
  0
LINE
  5
C5
330
70
100
AcDbEntity
  8
0
 62
     8
420
  8421504
370
    25
100
AcDbLine
 10
69.14520047873255
 20
86.41418735794353
 30
0.0
 11
31.89087443323279
 21
86.41418735794353
 31
0.0
  0
LINE
  5
C6
330
70
100
AcDbEntity
  8
0
 62
     8
420
  8421504
370
    25
100
AcDbLine
 10
66.02531828263292
 20
35.90901821454312
 30
0.0
 11
35.01075662943284
 21
35.90901821454312
 31
0.0
  0
LINE
  5
C7
330
70
100
AcDbEntity
  8
0
 62
    18
420
        0
370
    25
100
AcDbLine
 10
64.26803738153274
 20
0.5810846673437688
 30
0.0
 11
64.26803738153274
 21
2.761009066043742
 31
0.0
  0
LINE
  5
C8
330
70
100
AcDbEntity
  8
0
 62
    18
420
        0
370
    25
100
AcDbLine
 10
36.76803753053269
 20
2.761009066043742
 30
0.0
 11
36.76803753053269
 21
0.5810846673437688
 31
0.0
  0
SPLINE
  5
C9
330
70
100
AcDbEntity
  8
0
 62
    18
420
        0
370
    25
100
AcDbSpline
210
0.0
220
0.0
230
1.0
 70
     8
 71
     3
 72
     8
 73
     4
 74
     0
 42
0.0000000001
 43
0.0000000001
 40
0.0
 40
0.0
 40
0.0
 40
0.0
 40
1.0
 40
1.0
 40
1.0
 40
1.0
 10
36.76803745603272
 20
0.5810829261434778
 30
0.0
 10
36.76803745603272
 20
0.3152589007559861
 30
0.0
 10
36.97603543683483
 20
0.0959053985747626
 30
0.0
 10
37.24148434982073
 20
0.0817884914152691
 30
0.0
  0
SPLINE
  5
CA
330
70
100
AcDbEntity
  8
0
 62
    18
420
        0
370
    25
100
AcDbSpline
210
0.0
220
0.0
230
1.0
 70
     8
 71
     3
 72
     8
 73
     4
 74
     0
 42
0.0000000001
 43
0.0000000001
 40
0.0
 40
0.0
 40
0.0
 40
0.0
 40
1.0
 40
1.0
 40
1.0
 40
1.0
 10
63.79459056224471
 20
0.0817884914152691
 30
0.0
 10
64.06003947523061
 20
0.0959053985747626
 30
0.0
 10
64.26803745603272
 20
0.3152589007559861
 30
0.0
 10
64.26803745603272
 20
0.5810829261434778
 30
0.0
  0
SPLINE
  5
CB
330
70
100
AcDbEntity
  8
0
 62
    18
420
        0
370
    25
100
AcDbSpline
210
0.0
220
0.0
230
1.0
 70
     8
 71
     3
 72
     8
 73
     4
 74
     0
 42
0.0000000001
 43
0.0000000001
 40
0.0
 40
0.0
 40
0.0
 40
0.0
 40
1.0
 40
1.0
 40
1.0
 40
1.0
 10
54.51803745588142
 20
-0.2389920962966352
 30
0.0
 10
57.61194054667539
 20
-0.1894833093153604
 30
0.0
 10
60.70465783611709
 20
-0.0825380185080737
 30
0.0
 10
63.79459056246513
 20
0.0817884913960181
 30
0.0
  0
SPLINE
  5
CC
330
70
100
AcDbEntity
  8
0
 62
    18
420
        0
370
    25
100
AcDbSpline
210
0.0
220
0.0
230
1.0
 70
     8
 71
     3
 72
     8
 73
     4
 74
     0
 42
0.0000000001
 43
0.0000000001
 40
0.0
 40
0.0
 40
0.0
 40
0.0
 40
1.0
 40
1.0
 40
1.0
 40
1.0
 10
37.24148435003634
 20
0.081788491372917
 30
0.0
 10
40.33141707623935
 20
-0.0825380185183409
 30
0.0
 10
43.4241343655357
 20
-0.1894833093179272
 30
0.0
 10
46.51803745618433
 20
-0.2389920962966352
 30
0.0
  0
LINE
  5
CD
330
70
100
AcDbEntity
  8
0
 62
    18
420
        0
370
    25
100
AcDbLine
 10
46.51803726603287
 20
-0.2389932883565561
 30
0.0
 11
46.51803726603287
 21
-13.96300186345639
 31
0.0
  0
LINE
  5
CE
330
70
100
AcDbEntity
  8
0
 62
    18
420
        0
370
    25
100
AcDbLine
 10
54.51803764603289
 20
-13.96300186345639
 30
0.0
 11
54.51803764603289
 21
-0.2389932883565561
 31
0.0
  0
LWPOLYLINE
  5
CF
330
70
100
AcDbEntity
  8
0
 62
    18
420
        0
370
    25
100
AcDbPolyline
 90
       12
 70
     0
 43
0.0
 10
46.51746822793287
 20
-13.96426101155657
 10
46.51822073653299
 20
-13.96882449215621
 10
46.50297591733272
 20
-14.05026120075642
 10
46.47165926443279
 20
-14.10953429465674
 10
46.4338708510328
 20
-14.15144381055628
 10
46.39670362973272
 20
-14.17863097915631
 10
46.36842821063289
 20
-14.19318382565618
 10
46.35301668473274
 20
-14.19929888975668
 10
46.34300124173292
 20
-14.20264233775648
 10
46.33470222623296
 20
-14.20504515005658
 10
46.32840927963292
 20
-14.20662839835632
 10
46.32936015993298
 20
-14.20644027125642
  0
LWPOLYLINE
  5
D0
330
70
100
AcDbEntity
  8
0
 62
    18
420
        0
370
    25
100
AcDbPolyline
 90
       10
 70
     0
 43
0.0
 10
54.70531404293268
 20
-14.20610872035669
 10
54.70603814623295
 20
-14.20624283085623
 10
54.69331907383277
 20
-14.20271870625649
 10
54.6808938336327
 20
-14.19851099085615
 10
54.66208996523285
 20
-14.19067856795638
 10
54.62548107183291
 20
-14.16968283185674
 10
54.57912309363287
 20
-14.12817005945653
 10
54.53534022243275
 20
-14.0561415714564
 10
54.51788444343272
 20
-13.9702363772564
 10
54.51883625513294
 20
-13.9642535609565
  0
SPLINE
  5
D1
330
70
100
AcDbEntity
  8
0
 62
    18
420
        0
370
    25
100
AcDbSpline
210
0.0
220
0.0
230
1.0
 70
     8
 71
     3
 72
    11
 73
     7
 74
     0
 42
0.0000000001
 43
0.0000000001
 40
0.0
 40
0.0
 40
0.0
 40
0.0
 40
1.0
 40
1.0
 40
1.0
 40
2.0
 40
2.0
 40
2.0
 40
2.0
 10
46.36320727397829
 20
-14.16698654747704
 30
0.0
 10
36.1061718356146
 20
-16.46163589516218
 30
0.0
 10
29.65138255956792
 20
-26.63678683994711
 30
0.0
 10
31.94603190725337
 20
-36.89382227831114
 30
0.0
 10
33.76926720938115
 20
-45.04364661869088
 30
0.0
 10
40.69274160743891
 20
-51.05263152645103
 30
0.0
 10
49.0180374560423
 20
-51.71086611928455
 30
0.0
  0
SPLINE
  5
D2
330
70
100
AcDbEntity
  8
0
 62
    18
420
        0
370
    25
100
AcDbSpline
210
0.0
220
0.0
230
1.0
 70
     8
 71
     3
 72
    11
 73
     7
 74
     0
 42
0.0000000001
 43
0.0000000001
 40
0.0
 40
0.0
 40
0.0
 40
0.0
 40
1.0
 40
1.0
 40
1.0
 40
2.0
 40
2.0
 40
2.0
 40
2.0
 10
52.01803745602346
 20
-51.71086611928455
 30
0.0
 10
62.49591415465276
 20
-50.88243899454292
 30
0.0
 10
70.31833860380121
 20
-41.71686879489494
 30
0.0
 10
69.48991147906086
 20
-31.23899209626565
 30
0.0
 10
68.82997477897021
 20
-22.89216813802589
 30
0.0
 10
62.79229171877084
 20
-15.95716642449948
 30
0.0
 10
54.6158183933848
 20
-14.15431573816287
 30
0.0
  0
LINE
  5
D3
330
70
100
AcDbEntity
  8
0
 62
    18
420
        0
370
    25
100
AcDbLine
 10
49.0180374429327
 20
-37.42979382105665
 30
0.0
 11
49.0180374429327
 21
-56.96399238835616
 31
0.0
  0
LINE
  5
D4
330
70
100
AcDbEntity
  8
0
 62
    18
420
        0
370
    25
100
AcDbLine
 10
52.01803746903295
 20
-56.96399238835616
 30
0.0
 11
52.01803746903295
 21
-37.42966297025668
 31
0.0
  0
SPLINE
  5
D5
330
70
100
AcDbEntity
  8
0
 62
    18
420
        0
370
    25
100
AcDbSpline
210
0.0
220
0.0
230
1.0
 70
     8
 71
     3
 72
    11
 73
     7
 74
     0
 42
0.0000000001
 43
0.0000000001
 40
0.0
 40
0.0
 40
0.0
 40
0.0
 40
1.0
 40
1.0
 40
1.0
 40
2.0
 40
2.0
 40
2.0
 40
2.0
 10
50.51803745603272
 20
-14.07254899384656
 30
0.0
 10
40.20884559698767
 20
-14.07254899384656
 30
0.0
 10
31.8515943536232
 20
-22.42980023721166
 30
0.0
 10
31.8515943536232
 20
-32.7389920962564
 30
0.0
 10
31.8515943536232
 20
-42.46653216763077
 30
0.0
 10
39.32195568242842
 20
-50.56338232017337
 30
0.0
 10
49.01803745602015
 20
-51.34506900933664
 30
0.0
  0
SPLINE
  5
D6
330
70
100
AcDbEntity
  8
0
 62
    18
420
        0
370
    25
100
AcDbSpline
210
0.0
220
0.0
230
1.0
 70
     8
 71
     3
 72
    11
 73
     7
 74
     0
 42
0.0000000001
 43
0.0000000001
 40
0.0
 40
0.0
 40
0.0
 40
0.0
 40
1.0
 40
1.0
 40
1.0
 40
2.0
 40
2.0
 40
2.0
 40
2.0
 10
52.01803745604529
 20
-51.34506900933664
 30
0.0
 10
62.29388998931854
 20
-50.51664188458346
 30
0.0
 10
69.95254149386614
 20
-41.51484462951708
 30
0.0
 10
69.1241143691136
 20
-31.23899209624383
 30
0.0
 10
68.34242767994969
 20
-21.54291032265209
 30
0.0
 10
60.24557752740709
 20
-14.07254899384656
 30
0.0
 10
50.51803745603272
 20
-14.07254899384656
 30
0.0
  0
LINE
  5
D7
330
70
100
AcDbEntity
  8
0
 62
    18
420
        0
370
    25
100
AcDbLine
 10
64.26803738153274
 20
2.761009066043742
 30
0.0
 11
36.76803753053269
 21
2.761009066043742
 31
0.0
  0
LINE
  5
D8
330
70
100
AcDbEntity
  8
0
 62
    18
420
        0
370
    25
100
AcDbLine
 10
54.51803764603289
 20
-0.2389932883565561
 30
0.0
 11
46.51803726603287
 21
-0.2389932883565561
 31
0.0
  0
SPLINE
  5
D9
330
70
100
AcDbEntity
  8
0
 62
    18
420
        0
370
    25
100
AcDbSpline
210
0.0
220
0.0
230
1.0
 70
     8
 71
     3
 72
     8
 73
     4
 74
     0
 42
0.0000000001
 43
0.0000000001
 40
0.0
 40
0.0
 40
0.0
 40
0.0
 40
1.0
 40
1.0
 40
1.0
 40
1.0
 10
50.51803745599871
 20
-14.09276862569604
 30
0.0
 10
49.9310394109684
 20
-13.86423903324607
 30
0.0
 10
49.31178476456287
 20
-13.72934105339459
 30
0.0
 10
48.68291882602501
 20
-13.69300772376622
 30
0.0
  0
SPLINE
  5
DA
330
70
100
AcDbEntity
  8
0
 62
    18
420
        0
370
    25
100
AcDbSpline
210
0.0
220
0.0
230
1.0
 70
     8
 71
     3
 72
     8
 73
     4
 74
     0
 42
0.0000000001
 43
0.0000000001
 40
0.0
 40
0.0
 40
0.0
 40
0.0
 40
1.0
 40
1.0
 40
1.0
 40
1.0
 10
50.51803745599742
 20
-14.09276862568384
 30
0.0
 10
49.88354758520205
 20
-13.97580292825735
 30
0.0
 10
49.23862391026722
 20
-13.92506226825219
 30
0.0
 10
48.59364899611969
 20
-13.94136351472913
 30
0.0
  0
LWPOLYLINE
  5
DB
330
70
100
AcDbEntity
  8
0
 62
    18
420
        0
370
    25
100
AcDbPolyline
 90
        9
 70
     0
 43
0.0
 10
48.68291882603271
 20
-13.6930077237566
 10
48.68368088073287
 20
-13.73880644265664
 10
48.68051752723273
 20
-13.78304985295633
 10
48.67353644963268
 20
-13.82422921185669
 10
48.66297478593287
 20
-13.86094939835616
 10
48.64919167753297
 20
-13.89195871485645
 10
48.63265581233293
 20
-13.91620290405614
 10
48.61392936013285
 20
-13.93286053965636
 10
48.59364899613284
 20
-13.94136351475672
  0
LWPOLYLINE
  5
DC
330
70
100
AcDbEntity
  8
0
 62
    18
420
        0
370
    25
100
AcDbPolyline
 90
        9
 70
     0
 43
0.0
 10
52.35315608603272
 20
-13.6930077237566
 10
52.35239403133288
 20
-13.73880644265664
 10
52.3555573848327
 20
-13.78304985295633
 10
52.36253846243275
 20
-13.82422921185669
 10
52.37310012613288
 20
-13.86094939835616
 10
52.38688323453278
 20
-13.89195871485645
 10
52.40341909963271
 20
-13.91620290405614
 10
52.4221455519329
 20
-13.93286053965636
 10
52.44242591593291
 20
-13.94136351475672
  0
SPLINE
  5
DD
330
70
100
AcDbEntity
  8
0
 62
    18
420
        0
370
    25
100
AcDbSpline
210
0.0
220
0.0
230
1.0
 70
     8
 71
     3
 72
     8
 73
     4
 74
     0
 42
0.0000000001
 43
0.0000000001
 40
0.0
 40
0.0
 40
0.0
 40
0.0
 40
1.0
 40
1.0
 40
1.0
 40
1.0
 10
52.35315608594063
 20
-13.69300772376622
 30
0.0
 10
51.72429014740277
 20
-13.72934105339459
 30
0.0
 10
51.10503550099724
 20
-13.86423903324607
 30
0.0
 10
50.51803745596694
 20
-14.09276862569604
 30
0.0
  0
SPLINE
  5
DE
330
70
100
AcDbEntity
  8
0
 62
    18
420
        0
370
    25
100
AcDbSpline
210
0.0
220
0.0
230
1.0
 70
     8
 71
     3
 72
     8
 73
     4
 74
     0
 42
0.0000000001
 43
0.0000000001
 40
0.0
 40
0.0
 40
0.0
 40
0.0
 40
1.0
 40
1.0
 40
1.0
 40
1.0
 10
48.59364899612739
 20
-13.94136351473041
 30
0.0
 10
47.8341478616134
 20
-13.97584973262959
 30
0.0
 10
47.07808188328451
 20
-14.06456496695626
 30
0.0
 10
46.33122746173455
 20
-14.20683142668779
 30
0.0
  0
LINE
  5
DF
330
70
100
AcDbEntity
  8
0
 62
    18
420
        0
370
    25
100
AcDbLine
 10
46.39776906273274
 20
-14.17785239345661
 30
0.0
 11
46.32731637263281
 21
-14.20691524575642
 31
0.0
  0
SPLINE
  5
E0
330
70
100
AcDbEntity
  8
0
 62
    18
420
        0
370
    25
100
AcDbSpline
210
0.0
220
0.0
230
1.0
 70
     8
 71
     3
 72
     8
 73
     4
 74
     0
 42
0.0000000001
 43
0.0000000001
 40
0.0
 40
0.0
 40
0.0
 40
0.0
 40
1.0
 40
1.0
 40
1.0
 40
1.0
 10
54.70483953407999
 20
-14.20682956409216
 30
0.0
 10
53.95400848488264
 20
-14.09213038029817
 30
0.0
 10
53.19941420044191
 20
-14.00358814296502
 30
0.0
 10
52.44242591595601
 20
-13.94136351478239
 30
0.0
  0
LINE
  5
E1
330
70
100
AcDbEntity
  8
0
 62
    18
420
        0
370
    25
100
AcDbLine
 10
54.70885495703271
 20
-14.20693746995668
 30
0.0
 11
54.70875834773273
 21
-14.2069156230562
 31
0.0
  0
SPLINE
  5
E2
330
70
100
AcDbEntity
  8
0
 62
    18
420
        0
370
    25
100
AcDbSpline
210
0.0
220
0.0
230
1.0
 70
     8
 71
     3
 72
    11
 73
     7
 74
     0
 42
0.0000000001
 43
0.0000000001
 40
0.0
 40
0.0
 40
0.0
 40
0.0
 40
1.0
 40
1.0
 40
1.0
 40
2.0
 40
2.0
 40
2.0
 40
2.0
 10
46.32721995506897
 20
-14.20693746991753
 30
0.0
 10
36.09224880191054
 20
-16.52146206502339
 30
0.0
 10
29.67145823458737
 20
-26.69483844406203
 30
0.0
 10
31.98598282969386
 20
-36.92980959722014
 30
0.0
 10
33.82123821877924
 20
-45.04542262880417
 30
0.0
 10
40.72347056152969
 20
-51.02280451518836
 30
0.0
 10
49.01803745603555
 20
-51.67968902113229
 30
0.0
  0
SPLINE
  5
E3
330
70
100
AcDbEntity
  8
0
 62
    18
420
        0
370
    25
100
AcDbSpline
210
0.0
220
0.0
230
1.0
 70
     8
 71
     3
 72
    11
 73
     7
 74
     0
 42
0.0000000001
 43
0.0000000001
 40
0.0
 40
0.0
 40
0.0
 40
0.0
 40
1.0
 40
1.0
 40
1.0
 40
2.0
 40
2.0
 40
2.0
 40
2.0
 10
52.01803745602988
 20
-51.67968902113229
 30
0.0
 10
62.47869551880606
 20
-50.8512618963881
 30
0.0
 10
70.28716150565344
 20
-41.69965015903541
 30
0.0
 10
69.45873438090861
 20
-31.23899209625923
 30
0.0
 10
68.80184987496469
 20
-22.94442520175338
 30
0.0
 10
62.82446798858082
 20
-16.04219285900292
 30
0.0
 10
54.70885495699678
 20
-14.20693746991753
 30
0.0
  0
LINE
  5
E4
330
70
100
AcDbEntity
  8
0
 62
    18
420
        0
370
    25
100
AcDbLine
 10
46.32731656433271
 20
-14.2069156230562
 30
0.0
 11
46.32721995503271
 21
-14.20693746995668
 31
0.0
  0
LWPOLYLINE
  5
E5
330
70
100
AcDbEntity
  8
0
 62
    18
420
        0
370
    25
100
AcDbPolyline
 90
        3
 70
     0
 43
0.0
 10
46.32721998073276
 20
-14.2069375974565
 10
46.33102070813289
 20
-14.20541954165626
 10
46.35436198013292
 20
-14.19876431055628
  0
SPLINE
  5
E6
330
70
100
AcDbEntity
  8
0
 62
    18
420
        0
370
    25
100
AcDbSpline
210
0.0
220
0.0
230
1.0
 70
     8
 71
     3
 72
    11
 73
     7
 74
     0
 42
0.0000000001
 43
0.0000000001
 40
0.0
 40
0.0
 40
0.0
 40
0.0
 40
1.0
 40
1.0
 40
1.0
 40
2.0
 40
2.0
 40
2.0
 40
2.0
 10
46.36281584211582
 20
-14.16708387544241
 30
0.0
 10
36.10583415650316
 20
-16.4619494049764
 30
0.0
 10
29.65126370568539
 20
-26.63723202456127
 30
0.0
 10
31.94612923521906
 20
-36.89421371017361
 30
0.0
 10
33.76950371964499
 20
-45.04384969192524
 30
0.0
 10
40.69289458323825
 20
-51.05263374115526
 30
0.0
 10
49.01803745604517
 20
-51.71085657034338
 30
0.0
  0
SPLINE
  5
E7
330
70
100
AcDbEntity
  8
0
 62
    18
420
        0
370
    25
100
AcDbSpline
210
0.0
220
0.0
230
1.0
 70
     8
 71
     3
 72
    11
 73
     7
 74
     0
 42
0.0000000001
 43
0.0000000001
 40
0.0
 40
0.0
 40
0.0
 40
0.0
 40
1.0
 40
1.0
 40
1.0
 40
2.0
 40
2.0
 40
2.0
 40
2.0
 10
52.01803745602058
 20
-51.71085657034338
 30
0.0
 10
62.49590888091562
 20
-50.88242944560432
 30
0.0
 10
70.3183290548594
 20
-41.7168635211639
 30
0.0
 10
69.4899019301197
 20
-31.23899209626885
 30
0.0
 10
68.8328533370085
 20
-22.92870085526002
 30
0.0
 10
62.84383141566953
 20
-16.01329036951912
 30
0.0
 10
54.71260967166279
 20
-14.17593185417967
 30
0.0
  0
CIRCLE
  5
E8
330
70
100
AcDbEntity
  8
0
 62
    18
420
        0
370
    25
100
AcDbCircle
 10
50.51803745603272
 20
-32.7389920962564
 30
0.0
 40
4.807779859212726
  0
CIRCLE
  5
E9
330
70
100
AcDbEntity
  8
0
 62
    18
420
        0
370
    25
100
AcDbCircle
 10
50.51803745603272
 20
-32.73899209625656
 30
0.0
 40
4.89816049180068
  0
SPLINE
  5
EA
330
70
100
AcDbEntity
  8
0
 62
    18
420
        0
370
    25
100
AcDbSpline
210
0.0
220
0.0
230
1.0
 70
     8
 71
     3
 72
     8
 73
     4
 74
     0
 42
0.0000000001
 43
0.0000000001
 40
0.0
 40
0.0
 40
0.0
 40
0.0
 40
1.0
 40
1.0
 40
1.0
 40
1.0
 10
49.0121583527871
 20
-37.42897984513771
 30
0.0
 10
49.99826175663367
 20
-37.71549608230926
 30
0.0
 10
51.04565040208683
 20
-37.71466266882012
 30
0.0
 10
52.03129659211344
 20
-37.42657749855518
 30
0.0
  0
SPLINE
  5
EB
330
70
100
AcDbEntity
  8
0
 62
    18
420
        0
370
    25
100
AcDbSpline
210
0.0
220
0.0
230
1.0
 70
     8
 71
     3
 72
     8
 73
     4
 74
     0
 42
0.0000000001
 43
0.0000000001
 40
0.0
 40
0.0
 40
0.0
 40
0.0
 40
1.0
 40
1.0
 40
1.0
 40
1.0
 10
45.51803745603286
 20
-32.7389920962564
 30
0.0
 10
45.51803745603286
 20
-34.92258024104721
 30
0.0
 10
46.93502712496893
 20
-36.85361165990555
 30
0.0
 10
49.01803745603459
 20
-37.50868810334144
 30
0.0
  0
SPLINE
  5
EC
330
70
100
AcDbEntity
  8
0
 62
    18
420
        0
370
    25
100
AcDbSpline
210
0.0
220
0.0
230
1.0
 70
     8
 71
     3
 72
    14
 73
    10
 74
     0
 42
0.0000000001
 43
0.0000000001
 40
0.0
 40
0.0
 40
0.0
 40
0.0
 40
1.0
 40
1.0
 40
1.0
 40
2.0
 40
2.0
 40
2.0
 40
3.0
 40
3.0
 40
3.0
 40
3.0
 10
52.01803745603085
 20
-37.50868810334144
 30
0.0
 10
54.65226782207306
 20
-36.68026097859661
 30
0.0
 10
56.11616058786324
 20
-33.87322246230048
 30
0.0
 10
55.28773346311808
 20
-31.23899209625859
 30
0.0
 10
54.45930633837294
 20
-28.60476173021606
 30
0.0
 10
51.6522678220768
 20
-27.14086896442587
 30
0.0
 10
49.01803745603459
 20
-27.96929608917134
 30
0.0
 10
46.93502712496893
 20
-28.62437253260788
 30
0.0
 10
45.51803745603286
 20
-30.55540395146558
 30
0.0
 10
45.51803745603286
 20
-32.7389920962564
 30
0.0
  0
LINE
  5
ED
330
70
100
AcDbEntity
  8
0
 62
    18
420
        0
370
    25
100
AcDbLine
 10
52.01803746903295
 20
-56.96399238835616
 30
0.0
 11
49.0180374429327
 21
-56.96399238835616
 31
0.0
  0
SPLINE
  5
EE
330
70
100
AcDbEntity
  8
0
 62
    18
420
        0
370
    25
100
AcDbSpline
210
0.0
220
0.0
230
1.0
 70
     8
 71
     3
 72
    14
 73
    10
 74
     0
 42
0.0000000001
 43
0.0000000001
 40
0.0
 40
0.0
 40
0.0
 40
0.0
 40
1.0
 40
1.0
 40
1.0
 40
2.0
 40
2.0
 40
2.0
 40
3.0
 40
3.0
 40
3.0
 40
3.0
 10
52.01803745603726
 20
-49.67268631813208
 30
0.0
 10
61.37025853307728
 20
-48.8442591933834
 30
0.0
 10
68.28015880265708
 20
-40.59121317329154
 30
0.0
 10
67.4517316779084
 20
-31.23899209625217
 30
0.0
 10
66.62330455315973
 20
-21.88677101921215
 30
0.0
 10
58.37025853306819
 20
-14.97687074963203
 30
0.0
 10
49.01803745602817
 20
-15.80529787438071
 30
0.0
 10
43.97202517365212
 20
-16.25227762519049
 30
0.0
 10
39.38823753485214
 20
-18.92633179615471
 30
0.0
 10
36.51561012877922
 20
-23.09886611445586
 30
0.0
  0
SPLINE
  5
EF
330
70
100
AcDbEntity
  8
0
 62
    18
420
        0
370
    25
100
AcDbSpline
210
0.0
220
0.0
230
1.0
 70
     8
 71
     3
 72
    11
 73
     7
 74
     0
 42
0.0000000001
 43
0.0000000001
 40
0.0
 40
0.0
 40
0.0
 40
0.0
 40
1.0
 40
1.0
 40
1.0
 40
2.0
 40
2.0
 40
2.0
 40
2.0
 10
36.51561012877922
 20
-23.09886611445586
 30
0.0
 10
31.19151556258333
 20
-30.83219318791203
 30
0.0
 10
33.14458440077635
 20
-41.41732485731366
 30
0.0
 10
40.87791147423251
 20
-46.74141942350988
 30
0.0
 10
43.29308389352795
 20
-48.40417159109066
 30
0.0
 10
46.09727305671163
 20
-49.41396270227017
 30
0.0
 10
49.01803745602817
 20
-49.67268631813208
 30
0.0
  0
SPLINE
  5
F0
330
70
100
AcDbEntity
  8
0
 62
    18
420
        0
370
    25
100
AcDbSpline
210
0.0
220
0.0
230
1.0
 70
     8
 71
     3
 72
    17
 73
    13
 74
     0
 42
0.0000000001
 43
0.0000000001
 40
0.0
 40
0.0
 40
0.0
 40
0.0
 40
1.0
 40
1.0
 40
1.0
 40
2.0
 40
2.0
 40
2.0
 40
3.0
 40
3.0
 40
3.0
 40
4.0
 40
4.0
 40
4.0
 40
4.0
 10
52.01803745603405
 20
-40.34111099469153
 30
0.0
 10
56.2165717900403
 20
-39.51268386994478
 30
0.0
 10
58.9485834792146
 20
-35.4375264302613
 30
0.0
 10
58.12015635446785
 20
-31.23899209625474
 30
0.0
 10
57.29172922972078
 20
-27.04045776224881
 30
0.0
 10
53.21657179003763
 20
-24.3084460730745
 30
0.0
 10
49.01803745603138
 20
-25.13687319782126
 30
0.0
 10
44.81950312202545
 20
-25.96530032256866
 30
0.0
 10
42.08749143285082
 20
-30.04045776225149
 30
0.0
 10
42.9159185575979
 20
-34.23899209625805
 30
0.0
 10
43.11955398285415
 20
-35.27103257274456
 30
0.0
 10
43.53119501114237
 20
-36.25080349890144
 30
0.0
 10
44.12575721882736
 20
-37.11859996854135
 30
0.0
  0
SPLINE
  5
F1
330
70
100
AcDbEntity
  8
0
 62
    18
420
        0
370
    25
100
AcDbSpline
210
0.0
220
0.0
230
1.0
 70
     8
 71
     3
 72
     8
 73
     4
 74
     0
 42
0.0000000001
 43
0.0000000001
 40
0.0
 40
0.0
 40
0.0
 40
0.0
 40
1.0
 40
1.0
 40
1.0
 40
1.0
 10
44.12575721882736
 20
-37.11859996854135
 30
0.0
 10
45.27198718455247
 20
-38.7915860830207
 30
0.0
 10
47.02841264520452
 20
-39.94853133945108
 30
0.0
 10
49.01803745603138
 20
-40.34111099469153
 30
0.0
  0
LINE
  5
F2
330
70
100
AcDbEntity
  8
0
 62
     8
420
  8421504
370
    25
100
AcDbLine
 10
36.76803753053269
 20
0.5810846673437688
 30
0.0
 11
64.26803738153274
 21
0.5810846673437688
 31
0.0
  0
LINE
  5
F3
330
70
100
AcDbEntity
  8
0
 62
     8
420
  8421504
370
    25
100
AcDbLine
 10
63.7945902375328
 20
0.0817877339434558
 30
0.0
 11
37.24148467453296
 21
0.0817877339434558
 31
0.0
  0
SPLINE
  5
F4
330
70
100
AcDbEntity
  8
0
 62
     8
420
  8421504
370
    25
100
AcDbSpline
210
0.0
220
0.0
230
1.0
 70
     8
 71
     3
 72
     8
 73
     4
 74
     0
 42
0.0000000001
 43
0.0000000001
 40
0.0
 40
0.0
 40
0.0
 40
0.0
 40
1.0
 40
1.0
 40
1.0
 40
1.0
 10
52.44242591589344
 20
-13.94136351471052
 30
0.0
 10
51.83616642202526
 20
-13.91922737364593
 30
0.0
 10
51.22930880549667
 20
-13.96370736239224
 30
0.0
 10
50.63275607545224
 20
-14.07400433843194
 30
0.0
  0
SPLINE
  5
F5
330
70
100
AcDbEntity
  8
0
 62
     8
420
  8421504
370
    25
100
AcDbSpline
210
0.0
220
0.0
230
1.0
 70
     8
 71
     3
 72
    11
 73
     7
 74
     0
 42
0.0000000001
 43
0.0000000001
 40
0.0
 40
0.0
 40
0.0
 40
0.0
 40
1.0
 40
1.0
 40
1.0
 40
2.0
 40
2.0
 40
2.0
 40
2.0
 10
52.01803745602924
 20
-51.57523702757288
 30
0.0
 10
62.42100827567271
 20
-50.74680990282868
 30
0.0
 10
70.18270951209338
 20
-41.64196291590366
 30
0.0
 10
69.3542823873492
 20
-31.23899209625987
 30
0.0
 10
68.6302757322987
 20
-22.14728097194347
 30
0.0
 10
61.51549820302051
 20
-14.87020990396416
 30
0.0
 10
52.44242592268999
 20
-13.94136319945341
 30
0.0
  0
SPLINE
  5
F6
330
70
100
AcDbEntity
  8
0
 62
     8
420
  8421504
370
    25
100
AcDbSpline
210
0.0
220
0.0
230
1.0
 70
     8
 71
     3
 72
    11
 73
     7
 74
     0
 42
0.0000000001
 43
0.0000000001
 40
0.0
 40
0.0
 40
0.0
 40
0.0
 40
1.0
 40
1.0
 40
1.0
 40
2.0
 40
2.0
 40
2.0
 40
2.0
 10
48.59364898937575
 20
-13.94136319945341
 30
0.0
 10
38.21200521669258
 20
-15.00417360233791
 30
0.0
 10
30.65759815634459
 20
-24.28173679023082
 30
0.0
 10
31.72040855922941
 20
-34.66338056291368
 30
0.0
 10
32.64925526374049
 20
-43.7364528432445
 30
0.0
 10
39.92632633171947
 20
-50.85123037252173
 30
0.0
 10
49.01803745603651
 20
-51.57523702757288
 30
0.0
  0
SPLINE
  5
F7
330
70
100
AcDbEntity
  8
0
 62
     8
420
  8421504
370
    25
100
AcDbSpline
210
0.0
220
0.0
230
1.0
 70
     8
 71
     3
 72
     8
 73
     4
 74
     0
 42
0.0000000001
 43
0.0000000001
 40
0.0
 40
0.0
 40
0.0
 40
0.0
 40
1.0
 40
1.0
 40
1.0
 40
1.0
 10
54.51106483388095
 20
-13.96300186349939
 30
0.0
 10
53.79968544671092
 20
-13.81819233199818
 30
0.0
 10
53.07828417522644
 20
-13.72793174250731
 30
0.0
 10
52.35315608597368
 20
-13.69300772382654
 30
0.0
  0
SPLINE
  5
F8
330
70
100
AcDbEntity
  8
0
 62
     8
420
  8421504
370
    25
100
AcDbSpline
210
0.0
220
0.0
230
1.0
 70
     8
 71
     3
 72
     8
 73
     4
 74
     0
 42
0.0000000001
 43
0.0000000001
 40
0.0
 40
0.0
 40
0.0
 40
0.0
 40
1.0
 40
1.0
 40
1.0
 40
1.0
 10
48.68291882605196
 20
-13.69300772380152
 30
0.0
 10
47.96054882954343
 20
-13.75651735388387
 30
0.0
 10
47.24075931436567
 20
-13.84657628296659
 30
0.0
 10
46.52501007812994
 20
-13.96300186347436
 30
0.0
  0
LINE
  5
F9
330
70
100
AcDbEntity
  8
0
 62
     8
420
  8421504
370
    25
100
AcDbLine
 10
46.33122746173294
 20
-14.20683142675645
 30
0.0
 11
46.32731637263281
 21
-14.20691524575642
 31
0.0
  0
LINE
  5
FA
330
70
100
AcDbEntity
  8
0
 62
     8
420
  8421504
370
    25
100
AcDbLine
 10
54.70875853943294
 20
-14.20691524575642
 30
0.0
 11
54.70483953403282
 21
-14.20682956405622
 31
0.0
  0
SPLINE
  5
FB
330
70
100
AcDbEntity
  8
0
 62
     8
420
  8421504
370
    25
100
AcDbSpline
210
0.0
220
0.0
230
1.0
 70
     8
 71
     3
 72
    17
 73
    13
 74
     0
 42
0.0000000001
 43
0.0000000001
 40
0.0
 40
0.0
 40
0.0
 40
0.0
 40
1.0
 40
1.0
 40
1.0
 40
2.0
 40
2.0
 40
2.0
 40
3.0
 40
3.0
 40
3.0
 40
4.0
 40
4.0
 40
4.0
 40
4.0
 10
64.32860693631937
 20
-42.24703142106988
 30
0.0
 10
69.57975205620527
 20
-34.61966451062943
 30
0.0
 10
67.6534436912873
 20
-24.17956773585562
 30
0.0
 10
60.02607678084653
 20
-18.92842261596941
 30
0.0
 10
52.39870987040543
 20
-13.67727749608384
 30
0.0
 10
41.95861309563226
 20
-15.6035858610018
 30
0.0
 10
36.70746797574606
 20
-23.2309527714429
 30
0.0
 10
31.45632285586017
 20
-30.85831968188401
 30
0.0
 10
33.38263122077813
 20
-41.29841645665716
 30
0.0
 10
41.00999813121922
 20
-46.54956157654337
 30
0.0
 10
43.38631858669408
 20
-48.18556567986854
 30
0.0
 10
46.1445737371813
 20
-49.18073362825769
 30
0.0
 10
49.01803745603844
 20
-49.43883165153483
 30
0.0
  0
SPLINE
  5
FC
330
70
100
AcDbEntity
  8
0
 62
     8
420
  8421504
370
    25
100
AcDbSpline
210
0.0
220
0.0
230
1.0
 70
     8
 71
     3
 72
     8
 73
     4
 74
     0
 42
0.0000000001
 43
0.0000000001
 40
0.0
 40
0.0
 40
0.0
 40
0.0
 40
1.0
 40
1.0
 40
1.0
 40
1.0
 10
52.01803745602731
 20
-49.43883165153483
 30
0.0
 10
56.98717203075858
 20
-48.99249791057926
 30
0.0
 10
61.49943442897641
 20
-46.35644684832988
 30
0.0
 10
64.32860693631937
 20
-42.24703142106988
 30
0.0
  0
SPLINE
  5
FD
330
70
100
AcDbEntity
  8
0
 62
     8
420
  8421504
370
    25
100
AcDbSpline
210
0.0
220
0.0
230
1.0
 70
     8
 71
     3
 72
    14
 73
    10
 74
     0
 42
0.0000000001
 43
0.0000000001
 40
0.0
 40
0.0
 40
0.0
 40
0.0
 40
1.0
 40
1.0
 40
1.0
 40
2.0
 40
2.0
 40
2.0
 40
3.0
 40
3.0
 40
3.0
 40
3.0
 10
56.66577598018948
 20
-28.52692957114485
 30
0.0
 10
54.33951808223631
 20
-25.13162733830559
 30
0.0
 10
49.7012771637601
 20
-24.26499567414678
 30
0.0
 10
46.30597493092117
 20
-26.59125357209963
 30
0.0
 10
42.9106726980819
 20
-28.91751147005312
 30
0.0
 10
42.0440410339231
 20
-33.55575238852933
 30
0.0
 10
44.37029893187626
 20
-36.95105462136794
 30
0.0
 10
45.46123014137836
 20
-38.54332913863281
 30
0.0
 10
47.12739342529824
 20
-39.6502265573269
 30
0.0
 10
49.01803745603587
 20
-40.03872905568589
 30
0.0
  0
SPLINE
  5
FE
330
70
100
AcDbEntity
  8
0
 62
     8
420
  8421504
370
    25
100
AcDbSpline
210
0.0
220
0.0
230
1.0
 70
     8
 71
     3
 72
    11
 73
     7
 74
     0
 42
0.0000000001
 43
0.0000000001
 40
0.0
 40
0.0
 40
0.0
 40
0.0
 40
1.0
 40
1.0
 40
1.0
 40
2.0
 40
2.0
 40
2.0
 40
2.0
 10
52.01803745602956
 20
-40.03872905568589
 30
0.0
 10
56.04957085649875
 20
-39.21030193094106
 30
0.0
 10
58.64620154020673
 20
-35.27052549672842
 30
0.0
 10
57.81777441546221
 20
-31.23899209625923
 30
0.0
 10
57.61810631845674
 20
-30.2673090380377
 30
0.0
 10
57.22645231942859
 20
-29.34526773915006
 30
0.0
 10
56.66577598018948
 20
-28.52692957114485
 30
0.0
  0
SPLINE
  5
FF
330
70
100
AcDbEntity
  8
0
 62
     8
420
  8421504
370
    25
100
AcDbSpline
210
0.0
220
0.0
230
1.0
 70
     8
 71
     3
 72
    17
 73
    13
 74
     0
 42
0.0000000001
 43
0.0000000001
 40
0.0
 40
0.0
 40
0.0
 40
0.0
 40
1.0
 40
1.0
 40
1.0
 40
2.0
 40
2.0
 40
2.0
 40
3.0
 40
3.0
 40
3.0
 40
4.0
 40
4.0
 40
4.0
 40
4.0
 10
52.01803745603502
 20
-40.28112470164013
 30
0.0
 10
56.18344227519005
 20
-39.45269757689274
 30
0.0
 10
58.88859718616386
 20
-35.40439691540945
 30
0.0
 10
58.06017006141678
 20
-31.2389920962541
 30
0.0
 10
57.23174293666938
 20
-27.07358727709938
 30
0.0
 10
53.18344227518577
 20
-24.36843236612526
 30
0.0
 10
49.01803745603074
 20
-25.19685949087265
 30
0.0
 10
44.8526326368757
 20
-26.02528661562005
 30
0.0
 10
42.14747772590158
 20
-30.07358727710334
 30
0.0
 10
42.97590485064897
 20
-34.23899209625869
 30
0.0
 10
43.17877744239226
 20
-35.25905342220714
 30
0.0
 10
43.586462806211
 20
-36.2273612722934
 30
0.0
 10
44.17429960284058
 20
-37.08534163203622
 30
0.0
  0
SPLINE
  5
100
330
70
100
AcDbEntity
  8
0
 62
     8
420
  8421504
370
    25
100
AcDbSpline
210
0.0
220
0.0
230
1.0
 70
     8
 71
     3
 72
     8
 73
     4
 74
     0
 42
0.0000000001
 43
0.0000000001
 40
0.0
 40
0.0
 40
0.0
 40
0.0
 40
1.0
 40
1.0
 40
1.0
 40
1.0
 10
44.17429960284058
 20
-37.08534163203622
 30
0.0
 10
45.30955331333751
 20
-38.74230729413319
 30
0.0
 10
47.04805461069407
 20
-39.88932911508399
 30
0.0
 10
49.01803745603074
 20
-40.28112470164013
 30
0.0
  0
SPLINE
  5
101
330
70
100
AcDbEntity
  8
0
 62
     8
420
  8421504
370
    25
100
AcDbSpline
210
0.0
220
0.0
230
1.0
 70
     8
 71
     3
 72
    11
 73
     7
 74
     0
 42
0.0000000001
 43
0.0000000001
 40
0.0
 40
0.0
 40
0.0
 40
0.0
 40
1.0
 40
1.0
 40
1.0
 40
2.0
 40
2.0
 40
2.0
 40
2.0
 10
52.01803745604272
 20
-51.09424683554738
 30
0.0
 10
62.15536472781248
 20
-50.2658197107955
 30
0.0
 10
69.70171932007559
 20
-41.37631936801614
 30
0.0
 10
68.87329219532372
 20
-31.23899209624639
 30
0.0
 10
68.09223624832353
 20
-21.68133818109155
 30
0.0
 10
60.10755239445503
 20
-14.32254899384673
 30
0.0
 10
50.51803745603272
 20
-14.32254899384673
 30
0.0
  0
SPLINE
  5
102
330
70
100
AcDbEntity
  8
0
 62
     8
420
  8421504
370
    25
100
AcDbSpline
210
0.0
220
0.0
230
1.0
 70
     8
 71
     3
 72
    11
 73
     7
 74
     0
 42
0.0000000001
 43
0.0000000001
 40
0.0
 40
0.0
 40
0.0
 40
0.0
 40
1.0
 40
1.0
 40
1.0
 40
2.0
 40
2.0
 40
2.0
 40
2.0
 10
50.51803745603272
 20
-14.32254899384673
 30
0.0
 10
40.34691678444557
 20
-14.32254899384673
 30
0.0
 10
32.10159435362305
 20
-22.56787142466924
 30
0.0
 10
32.10159435362305
 20
-32.7389920962564
 30
0.0
 10
32.10159435362305
 20
-42.32850703467838
 30
0.0
 10
39.46038354086788
 20
-50.3131908885472
 30
0.0
 10
49.01803745602272
 20
-51.09424683554738
 30
0.0
  0
LWPOLYLINE
  5
103
330
70
100
AcDbEntity
  8
0
 62
    18
420
        0
370
    25
100
AcDbPolyline
 90
       17
 70
     0
 43
0.0
 10
162.8724637394327
 20
8.555064930043455
 10
162.6093284518331
 20
8.384990102843667
 10
162.0798191547322
 20
7.926551358743876
 10
161.6076677671332
 20
7.390379125943757
 10
161.1953253918324
 20
6.779265128643497
 10
160.8455072077326
 20
6.096368889043509
 10
160.5610396879332
 20
5.34578348414334
 10
160.3445023511328
 20
4.532751457843361
 10
160.1978451477332
 20
3.663468948543231
 10
160.1222521407325
 20
2.744778043943536
 10
160.1111359095323
 20
2.213661780943475
 10
160.1210851999331
 20
1.699768751443737
 10
160.194206689333
 20
0.7012791828435492
 10
160.3375527309332
 20
-0.3241260240566079
 10
160.5497463081334
 20
-1.369169694356157
 10
160.8289928871334
 20
-2.426522233756549
 10
160.9158674200329
 20
-2.694734893056384
  0
LWPOLYLINE
  5
104
330
70
100
AcDbEntity
  8
0
 62
    18
420
        0
370
    25
100
AcDbPolyline
 90
       17
 70
     0
 43
0.0
 10
165.2265769507329
 20
-10.55798368125664
 10
165.8726262352333
 20
-11.29461817685622
 10
166.6416317063332
 20
-12.08076159385633
 10
167.4349437258327
 20
-12.80418509905632
 10
168.2472866938323
 20
-13.45965001795675
 10
169.0732952424325
 20
-14.04229780875625
 10
169.9075255957334
 20
-14.54766878975669
 10
170.7444451566325
 20
-14.97169917015615
 10
171.5783671464332
 20
-15.31071678045632
 10
172.4031839352325
 20
-15.56146354455623
 10
173.2125911118332
 20
-15.72134041695637
 10
173.9999004982326
 20
-15.78857317915626
 10
174.7581512788327
 20
-15.7625138261567
 10
175.4804695663324
 20
-15.64387244315637
 10
176.1606163097334
 20
-15.43470496985654
 10
176.7934624354328
 20
-15.13800613135624
 10
176.8979313019333
 20
-15.06958493395646
  0
LINE
  5
105
330
70
100
AcDbEntity
  8
0
 62
    18
420
        0
370
    25
100
AcDbLine
 10
176.8547439531322
 20
-15.10321150135648
 30
0.0
 11
178.3961832779326
 21
-14.21335752025621
 31
0.0
  0
LINE
  5
106
330
70
100
AcDbEntity
  8
0
 62
    18
420
        0
370
    25
100
AcDbLine
 10
164.6473004574334
 20
9.602983971443329
 30
0.0
 11
163.105861132633
 21
8.713129990343702
 31
0.0
  0
LWPOLYLINE
  5
107
330
70
100
AcDbEntity
  8
0
 62
    18
420
        0
370
    25
100
AcDbPolyline
 90
        3
 70
     0
 43
0.0
 10
165.4099634862325
 20
-16.94931126935673
 10
165.3926885467329
 20
-15.21329591755658
 10
165.2945904397325
 20
-13.31563853075649
  0
SPLINE
  5
108
330
70
100
AcDbEntity
  8
0
 62
    18
420
        0
370
    25
100
AcDbSpline
210
0.0
220
0.0
230
1.0
 70
     8
 71
     3
 72
     8
 73
     4
 74
     0
 42
0.0000000001
 43
0.0000000001
 40
0.0
 40
0.0
 40
0.0
 40
0.0
 40
1.0
 40
1.0
 40
1.0
 40
1.0
 10
127.5468883893752
 20
-13.31489668484418
 30
0.0
 10
127.4460516574861
 20
-14.52364381549518
 30
0.0
 10
127.4066829662
 20
-15.73673303235834
 30
0.0
 10
127.4289345069162
 20
-16.94947477786357
 30
0.0
  0
LINE
  5
109
330
70
100
AcDbEntity
  8
0
 62
    18
420
        0
370
    25
100
AcDbLine
 10
165.450158408833
 20
-19.78889300605618
 30
0.0
 11
165.4190882789331
 21
-16.88186008695649
 31
0.0
  0
LINE
  5
10A
330
70
100
AcDbEntity
  8
0
 62
    18
420
        0
370
    25
100
AcDbLine
 10
127.4198123483324
 20
-16.88186008695649
 30
0.0
 11
127.3887422184325
 21
-19.78889300605618
 31
0.0
  0
SPLINE
  5
10B
330
70
100
AcDbEntity
  8
0
 62
    18
420
        0
370
    25
100
AcDbSpline
210
0.0
220
0.0
230
1.0
 70
     8
 71
     3
 72
     8
 73
     4
 74
     0
 42
0.0000000001
 43
0.0000000001
 40
0.0
 40
0.0
 40
0.0
 40
0.0
 40
1.0
 40
1.0
 40
1.0
 40
1.0
 10
128.5041908330048
 20
-23.59143913463381
 30
0.0
 10
129.6384882335224
 20
-25.32877462835702
 30
0.0
 10
131.1887484075166
 20
-26.75529172046276
 30
0.0
 10
133.0142315788435
 20
-27.74148460310414
 30
0.0
  0
LWPOLYLINE
  5
10C
330
70
100
AcDbEntity
  8
0
 62
    18
420
        0
370
    25
100
AcDbPolyline
 90
       30
 70
     0
 43
0.0
 10
133.0142315788332
 20
-27.74148460305665
 10
133.5354581970328
 20
-28.03116014195622
 10
134.5751386317334
 20
-28.54841473165628
 10
135.6757441469333
 20
-29.02060797895661
 10
136.8314594654333
 20
-29.44536213005668
 10
138.0363120823331
 20
-29.82059035255631
 10
139.2841004840328
 20
-30.14445529835621
 10
140.5684134106323
 20
-30.41537109865672
 10
141.8826687095332
 20
-30.63201058865663
 10
143.2201324340326
 20
-30.79330872745618
 10
144.5739590139323
 20
-30.89847894905614
 10
145.9372192439333
 20
-30.94699814105668
 10
147.3029378205325
 20
-30.93863440175614
 10
148.6641262694326
 20
-30.87342802875624
 10
150.013804677533
 20
-30.75170482645646
 10
151.3450721567328
 20
-30.57406127765661
 10
152.6511193569327
 20
-30.34137404945664
 10
153.9252669904328
 20
-30.05478459595643
 10
155.160996125133
 20
-29.7156930739562
 10
156.351981441133
 20
-29.32575435265626
 10
157.492115102633
 20
-28.88685662675657
 10
158.5755400971329
 20
-28.40113106545675
 10
159.5966652171323
 20
-27.8709157875567
 10
160.5501870390334
 20
-27.29877663155658
 10
161.4311049052327
 20
-26.68747721375634
 10
162.2347106339325
 20
-26.0400228880563
 10
162.9566211177333
 20
-25.35967082135651
 10
163.592840308333
 20
-24.64990941785639
 10
164.1397878639331
 20
-23.91451021795643
 10
164.3652069905322
 20
-23.53913902895673
  0
LINE
  5
10D
330
70
100
AcDbEntity
  8
0
 62
    18
420
        0
370
    25
100
AcDbLine
 10
167.4005823551333
 20
-0.0656038904562898
 30
0.0
 11
161.739449273333
 21
-3.333706455156389
 31
0.0
  0
LINE
  5
10E
330
70
100
AcDbEntity
  8
0
 62
    18
420
        0
370
    25
100
AcDbLine
 10
165.0745435546332
 20
-10.64575276785636
 30
0.0
 11
171.4002573634323
 21
-6.993995915856253
 31
0.0
  0
LINE
  5
10F
330
70
100
AcDbEntity
  8
0
 62
    18
420
        0
370
    25
100
AcDbLine
 10
151.4193551540322
 20
2.436832951643526
 30
0.0
 11
151.3175175020323
 21
11.96522238914387
 31
0.0
  0
LINE
  5
110
330
70
100
AcDbEntity
  8
0
 62
    18
420
        0
370
    25
100
AcDbLine
 10
141.5213831253334
 20
11.96522238914387
 30
0.0
 11
141.4815798720324
 21
8.241054882943636
 31
0.0
  0
LINE
  5
111
330
70
100
AcDbEntity
  8
0
 62
    18
420
        0
370
    25
100
AcDbLine
 10
141.4443274909324
 20
4.755542116443328
 30
0.0
 11
141.4195454733322
 21
2.436832951643526
 31
0.0
  0
LINE
  5
112
330
70
100
AcDbEntity
  8
0
 62
    18
420
        0
370
    25
100
AcDbLine
 10
142.2748249670322
 20
8.698985792243837
 30
0.0
 11
128.5398492894327
 21
0.7699531077438034
 31
0.0
  0
LINE
  5
113
330
70
100
AcDbEntity
  8
0
 62
    18
420
        0
370
    25
100
AcDbLine
 10
130.039727376433
 20
-1.828193878056125
 30
0.0
 11
143.7612973927332
 21
6.093099882943738
 31
0.0
  0
LWPOLYLINE
  5
114
330
70
100
AcDbEntity
  8
0
 62
    18
420
        0
370
    25
100
AcDbPolyline
 90
       14
 70
     0
 43
0.0
 10
162.3582926024333
 20
-5.482302049156596
 10
162.2056083997329
 20
-5.23173858145649
 10
161.6806667673328
 20
-4.54177414535639
 10
161.0669523474334
 20
-3.877051203956333
 10
160.3680514088326
 20
-3.241638206356245
 10
159.5881692521332
 20
-2.639384618356454
 10
158.7320215909328
 20
-2.073865827956313
 10
157.8047576260329
 20
-1.548350904356426
 10
156.8119449807332
 20
-1.065842565556377
 10
155.7594170012332
 20
-0.6290087932562118
 10
154.6532965050326
 20
-0.2402452065562159
 10
153.4999766422332
 20
0.0983207802433566
 10
152.3060976817324
 20
0.3848471637438631
 10
151.9657852583322
 20
0.4494192354438061
  0
LWPOLYLINE
  5
115
330
70
100
AcDbEntity
  8
0
 62
    18
420
        0
370
    25
100
AcDbPolyline
 90
       14
 70
     0
 43
0.0
 10
140.8548634787328
 20
0.4442620381432628
 10
140.2204892005325
 20
0.3158156949437704
 10
139.0365753355325
 20
0.0157050702437217
 10
137.8949311375332
 20
-0.3359959914564498
 10
136.8020992463328
 20
-0.7373801912562911
 10
135.7643568258326
 20
-1.186292792956407
 10
134.7876916918323
 20
-1.680321830456473
 10
133.8777774936325
 20
-2.216827646256755
 10
133.0399569615332
 20
-2.792923665556189
 10
132.2792540903332
 20
-3.405475449456242
 10
131.6003467276334
 20
-4.051045042556129
 10
131.0074818268328
 20
-4.725920125756636
 10
130.5044423970331
 20
-5.426057816556635
 10
130.4623344026325
 20
-5.500108667856337
  0
LINE
  5
116
330
70
100
AcDbEntity
  8
0
 62
    18
420
        0
370
    25
100
AcDbLine
 10
163.4194501491332
 20
-9.263842492256534
 30
0.0
 11
163.4194501491332
 21
-8.923641813256658
 31
0.0
  0
LINE
  5
117
330
70
100
AcDbEntity
  8
0
 62
    18
420
        0
370
    25
100
AcDbLine
 10
129.4194504781323
 20
-8.923641813256658
 30
0.0
 11
129.4194504781323
 21
-9.263842492256534
 31
0.0
  0
SPLINE
  5
118
330
70
100
AcDbEntity
  8
0
 62
    18
420
        0
370
    25
100
AcDbSpline
210
0.0
220
0.0
230
1.0
 70
     8
 71
     3
 72
     8
 73
     4
 74
     0
 42
0.0000000001
 43
0.0000000001
 40
0.0
 40
0.0
 40
0.0
 40
0.0
 40
1.0
 40
1.0
 40
1.0
 40
1.0
 10
153.6110505455714
 20
-1.082357740197929
 30
0.0
 10
152.9098988021639
 20
-0.0892996787203054
 30
0.0
 10
151.9130804933669
 20
0.6570047188433098
 30
0.0
 10
150.7627592792147
 20
1.050119441314883
 30
0.0
  0
SPLINE
  5
119
330
70
100
AcDbEntity
  8
0
 62
    18
420
        0
370
    25
100
AcDbSpline
210
0.0
220
0.0
230
1.0
 70
     8
 71
     3
 72
     8
 73
     4
 74
     0
 42
0.0000000001
 43
0.0000000001
 40
0.0
 40
0.0
 40
0.0
 40
0.0
 40
1.0
 40
1.0
 40
1.0
 40
1.0
 10
142.0698275525916
 20
1.054210658752752
 30
0.0
 10
140.6241254470782
 20
0.6200531758181266
 30
0.0
 10
139.4492101716503
 20
-0.4393653316983853
 30
0.0
 10
138.8683030549581
 20
-1.832596906007669
 30
0.0
  0
SPLINE
  5
11A
330
70
100
AcDbEntity
  8
0
 62
    18
420
        0
370
    25
100
AcDbSpline
210
0.0
220
0.0
230
1.0
 70
     8
 71
     3
 72
     8
 73
     4
 74
     0
 42
0.0000000001
 43
0.0000000001
 40
0.0
 40
0.0
 40
0.0
 40
0.0
 40
1.0
 40
1.0
 40
1.0
 40
1.0
 10
138.8683030549876
 20
-1.832596905994835
 30
0.0
 10
138.7575136323435
 20
-2.143846783918538
 30
0.0
 10
138.714653217433
 20
-2.475210932982056
 30
0.0
 10
138.7426040305707
 20
-2.804406216548394
 30
0.0
  0
LINE
  5
11B
330
70
100
AcDbEntity
  8
0
 62
    18
420
        0
370
    25
100
AcDbLine
 10
154.1679939837328
 20
-8.174740732956372
 30
0.0
 11
154.1091520441334
 21
-2.669244691956373
 31
0.0
  0
LINE
  5
11C
330
70
100
AcDbEntity
  8
0
 62
    18
420
        0
370
    25
100
AcDbLine
 10
138.7297485832322
 20
-2.669244691956373
 30
0.0
 11
138.6709066436329
 21
-8.174740732956372
 31
0.0
  0
LINE
  5
11D
330
70
100
AcDbEntity
  8
0
 62
    18
420
        0
370
    25
100
AcDbLine
 10
150.4768467481333
 20
-1.992186887556345
 30
0.0
 11
150.4479735227323
 21
0.7093368275434358
 31
0.0
  0
LINE
  5
11E
330
70
100
AcDbEntity
  8
0
 62
    18
420
        0
370
    25
100
AcDbLine
 10
142.3909271046334
 20
0.7093368275434358
 30
0.0
 11
142.3620538792324
 21
-1.992186887556345
 31
0.0
  0
LWPOLYLINE
  5
11F
330
70
100
AcDbEntity
  8
0
 62
    18
420
        0
370
    25
100
AcDbPolyline
 90
       16
 70
     0
 43
0.0
 10
164.0793980155328
 20
-6.034595309256681
 10
163.9357497019325
 20
-5.778540320156365
 10
163.4220092531329
 20
-5.047291335956353
 10
162.8182829778322
 20
-4.339608800156605
 10
162.1277335360334
 20
-3.659413948156374
 10
161.3541083752327
 20
-3.010471379656554
 10
160.5016537082328
 20
-2.396307467756203
 10
159.5668317514329
 20
-1.815451630656303
 10
159.0504682375334
 20
-1.528586539456624
 10
158.0200692468334
 20
-1.016702172756729
 10
156.9288374541326
 20
-0.5499354636562469
 10
155.7826502868326
 20
-0.1306802750567395
 10
154.5875461043324
 20
0.2389720001436477
 10
153.3497968843334
 20
0.5571707069435701
 10
152.0758840219327
 20
0.8223335889438081
 10
150.8288970688327
 20
1.024005408743607
  0
LWPOLYLINE
  5
120
330
70
100
AcDbEntity
  8
0
 62
    18
420
        0
370
    25
100
AcDbPolyline
 90
       16
 70
     0
 43
0.0
 10
141.9792666521329
 20
1.013650338343271
 10
141.404116927933
 20
0.933412800343283
 10
140.1148830275333
 20
0.6949983054438582
 10
138.8585460595323
 20
0.4028726185438582
 10
137.6416615052332
 20
0.0584843670437613
 10
136.4705780628326
 20
-0.3364570264565513
 10
135.3514197024333
 20
-0.7799993087566245
 10
134.2900527385328
 20
-1.269957280856735
 10
133.2920684584331
 20
-1.803925868856536
 10
132.3627591803333
 20
-2.37927569555661
 10
131.5071095023327
 20
-2.993170300356586
 10
130.7298160840326
 20
-3.64252126315643
 10
130.0352149471322
 20
-4.323986069956348
 10
129.4272525842324
 20
-5.033971104156758
 10
128.9094334399329
 20
-5.76859505095617
 10
128.8214281861329
 20
-5.925061229556132
  0
LINE
  5
121
330
70
100
AcDbEntity
  8
0
 62
    18
420
        0
370
    25
100
AcDbLine
 10
127.7533723856334
 20
-9.617898644956325
 30
0.0
 11
127.7926420532324
 21
-13.29219337855653
 31
0.0
  0
LINE
  5
122
330
70
100
AcDbEntity
  8
0
 62
    18
420
        0
370
    25
100
AcDbLine
 10
165.0462585741333
 20
-13.29219337855653
 30
0.0
 11
165.0855282417322
 21
-9.617898644956325
 31
0.0
  0
LWPOLYLINE
  5
123
330
70
100
AcDbEntity
  8
0
 62
    18
420
        0
370
    25
100
AcDbPolyline
 90
       36
 70
     0
 43
0.0
 10
128.9705931269332
 20
-17.01961252705613
 10
129.0878222812324
 20
-17.21383288975672
 10
129.6289914380334
 20
-17.93750519055669
 10
130.2592376300327
 20
-18.63638842255631
 10
130.9752080422328
 20
-19.30659756485658
 10
131.7729871338328
 20
-19.94443217265635
 10
132.6481844708331
 20
-20.5464392452567
 10
133.5960047996322
 20
-21.10942934385633
 10
134.6112664657334
 20
-21.63045985025641
 10
135.6885031175331
 20
-22.10687087135659
 10
136.8219863026329
 20
-22.53626330605642
 10
138.0057223606334
 20
-22.91648336545638
 10
139.2334834361326
 20
-23.24563135465615
 10
140.4988263295321
 20
-23.52205886745629
 10
141.7951191684333
 20
-23.74438722645665
 10
143.1155799323333
 20
-23.91150082935672
 10
144.4533004892331
 20
-24.02256558835653
 10
145.8012903891325
 20
-24.07702455735631
 10
147.1525005716334
 20
-24.07460401515623
 10
148.499871439733
 20
-24.01531764805651
 10
149.8363433962334
 20
-23.89946502795647
 10
151.1549345522327
 20
-23.72763465575663
 10
152.4487558736332
 20
-23.50068228775677
 10
153.7110474010333
 20
-23.21975108975623
 10
154.9352138113325
 20
-22.88623817625624
 10
156.1148533932331
 20
-22.50180754095669
 10
157.2437893285326
 20
-22.06835678685627
 10
158.3160919178328
 20
-21.58803015095637
 10
159.3261113638324
 20
-21.0631950136563
 10
160.2684849945329
 20
-20.49643012495621
 10
161.1381625761325
 20
-19.89054140795658
 10
161.9303881618332
 20
-19.24856178815672
 10
162.6407374028325
 20
-18.57379048775617
 10
163.2651854396324
 20
-17.86977360165645
 10
163.8001313509331
 20
-17.14034016995651
 10
163.8867092095323
 20
-16.99340241305645
  0
LINE
  5
124
330
70
100
AcDbEntity
  8
0
 62
    18
420
        0
370
    25
100
AcDbLine
 10
130.5701167359333
 20
-26.00850298865653
 30
0.0
 11
130.912542099333
 21
-54.52742965845617
 31
0.0
  0
LINE
  5
125
330
70
100
AcDbEntity
  8
0
 62
    18
420
        0
370
    25
100
AcDbLine
 10
161.9263585280326
 20
-54.52742965845617
 30
0.0
 11
162.2687904769328
 21
-26.00790678575623
 31
0.0
  0
LWPOLYLINE
  5
126
330
70
100
AcDbEntity
  8
0
 62
    18
420
        0
370
    25
100
AcDbPolyline
 90
       41
 70
     0
 43
0.0
 10
130.9217689664324
 20
-54.46263851145624
 10
130.9157386744327
 20
-54.66152867905616
 10
130.9912197288324
 20
-55.40483714425643
 10
131.163448873933
 20
-56.13939127195632
 10
131.4311887047323
 20
-56.86180823155621
 10
131.7934625997325
 20
-57.56887434695673
 10
132.2490943982331
 20
-58.2568633051562
 10
132.7961601626328
 20
-58.92144029235615
 10
133.4316268015323
 20
-59.55789416225631
 10
134.1513059718332
 20
-60.16151867605634
 10
134.9500656773334
 20
-60.72794808905661
 10
135.822121366033
 20
-61.2533339369565
 10
136.7612237179322
 20
-61.73433971625657
 10
137.7607956640321
 20
-62.16810854085657
 10
138.8142619048325
 20
-62.55229120275675
 10
139.9148606700323
 20
-62.8848625028567
 10
141.0556464552331
 20
-63.16409317975627
 10
142.2294980894333
 20
-63.38853784055634
 10
143.4291386558325
 20
-63.55703384635646
 10
144.6471582116331
 20
-63.66870820395632
 10
145.8760516543323
 20
-63.72298114285615
 10
147.1082569174322
 20
-63.71957383805662
 10
148.3361908608324
 20
-63.65850814895657
 10
149.5522361002333
 20
-63.5401166107566
 10
150.7489253994331
 20
-63.36502644305657
 10
151.9189110480329
 20
-63.1341524571567
 10
153.0550056914333
 20
-62.84868073055643
 10
154.1502165747331
 20
-62.5100544213565
 10
155.197769415133
 20
-62.11995714515638
 10
156.1911237132323
 20
-61.68029712525669
 10
157.1239743169332
 20
-61.19320278245623
 10
157.9902343818323
 20
-60.66103393645663
 10
158.7840098520329
 20
-60.0864264763563
 10
159.4993821412325
 20
-59.47256954475657
 10
160.1307625114323
 20
-58.82315878675641
 10
160.6729382536329
 20
-58.14260936075629
 10
161.1213217820323
 20
-57.43619057305639
 10
161.4723487245329
 20
-56.70995256435612
 10
161.7238429209331
 20
-55.97036306145658
 10
161.8751310092331
 20
-55.22372538745617
 10
161.9105481914334
 20
-54.71037099315614
  0
LINE
  5
127
330
70
100
AcDbEntity
  8
0
 62
    18
420
        0
370
    25
100
AcDbLine
 10
162.8823293946334
 20
8.57541085934347
 30
0.0
 11
163.105861132633
 21
8.713129990343702
 31
0.0
  0
LINE
  5
128
330
70
100
AcDbEntity
  8
0
 62
    18
420
        0
370
    25
100
AcDbLine
 10
176.898262549833
 20
-15.07776955395668
 30
0.0
 11
176.8547439531322
 21
-15.10321150135648
 31
0.0
  0
LWPOLYLINE
  5
129
330
70
100
AcDbEntity
  8
0
 62
    18
420
        0
370
    25
100
AcDbPolyline
 90
       28
 70
     0
 43
0.0
 10
181.244460056333
 20
-7.917992512756242
 10
181.2053194634324
 20
-6.888976204456685
 10
181.0882118107331
 20
-5.823057004856252
 10
180.8940814508326
 20
-4.728810565556577
 10
180.6244897928327
 20
-3.615053166356363
 10
180.2816080580327
 20
-2.490749320456465
 10
179.8681975235323
 20
-1.364948657356267
 10
179.3875864732323
 20
-0.2467209056567538
 10
178.8436438562325
 20
0.8549353600433757
 10
178.2407489933333
 20
1.931146709143855
 10
177.583757333333
 20
2.9732485029434
 10
176.877957976333
 20
3.972852001243367
 10
176.1290335029334
 20
4.92191013854375
 10
175.3430135467327
 20
5.812780828743664
 10
174.5262270497323
 20
6.63828798724327
 10
173.6852502372327
 20
7.391788066743306
 10
172.8268540993329
 20
8.067212543443526
 10
171.9579499782329
 20
8.659126704743441
 10
171.085533757033
 20
9.162761869043483
 10
170.2166296360331
 20
9.57406305184334
 10
169.3582334981333
 20
9.889721660243838
 10
168.5172566856323
 20
10.10719274064345
 10
167.7004701885332
 20
10.22472719854335
 10
166.9144502323325
 20
10.24137583274365
 10
166.1655257590329
 20
10.15700748684357
 10
165.4597264020329
 20
9.972302580543527
 10
164.8027347420326
 20
9.688747211343283
 10
164.6473004574334
 20
9.602983971443329
  0
LWPOLYLINE
  5
12A
330
70
100
AcDbEntity
  8
0
 62
    18
420
        0
370
    25
100
AcDbPolyline
 90
       10
 70
     0
 43
0.0
 10
178.3961832779326
 20
-14.21335752025621
 10
178.8436438562325
 20
-13.91899700295667
 10
179.3875864732323
 20
-13.44536351505632
 10
179.8681975235323
 20
-12.88203747065649
 10
180.2816080580327
 20
-12.2335504507564
 10
180.6244897928327
 20
-11.50512942925638
 10
180.8940814508326
 20
-10.70263593295664
 10
181.0882118107331
 20
-9.832527636156616
 10
181.2053194634324
 20
-8.901818054456381
 10
181.244460056333
 20
-7.917992512756242
  0
SPLINE
  5
12B
330
70
100
AcDbEntity
  8
0
 62
    18
420
        0
370
    25
100
AcDbSpline
210
0.0
220
0.0
230
1.0
 70
     8
 71
     3
 72
     8
 73
     4
 74
     0
 42
0.0000000001
 43
0.0000000001
 40
0.0
 40
0.0
 40
0.0
 40
0.0
 40
1.0
 40
1.0
 40
1.0
 40
1.0
 10
164.5327782504022
 20
-16.83037485125387
 30
0.0
 10
165.3341951091038
 20
-15.32938405986983
 30
0.0
 10
165.5233986849119
 20
-13.57641517713345
 30
0.0
 10
165.0607215286499
 20
-11.93898664852343
 30
0.0
  0
SPLINE
  5
12C
330
70
100
AcDbEntity
  8
0
 62
    18
420
        0
370
    25
100
AcDbSpline
210
0.0
220
0.0
230
1.0
 70
     8
 71
     3
 72
     8
 73
     4
 74
     0
 42
0.0000000001
 43
0.0000000001
 40
0.0
 40
0.0
 40
0.0
 40
0.0
 40
1.0
 40
1.0
 40
1.0
 40
1.0
 10
127.7781790987311
 20
-11.93898664853562
 30
0.0
 10
127.3235910003115
 20
-13.53263038979882
 30
0.0
 10
127.4913446431034
 20
-15.23945531885827
 30
0.0
 10
128.247496769248
 20
-16.71410262429056
 30
0.0
  0
SPLINE
  5
12D
330
70
100
AcDbEntity
  8
0
 62
    18
420
        0
370
    25
100
AcDbSpline
210
0.0
220
0.0
230
1.0
 70
     8
 71
     3
 72
     8
 73
     4
 74
     0
 42
0.0000000001
 43
0.0000000001
 40
0.0
 40
0.0
 40
0.0
 40
0.0
 40
1.0
 40
1.0
 40
1.0
 40
1.0
 10
143.2660869868633
 20
-24.13945778693416
 30
0.0
 10
146.022822735969
 20
-24.413412195081
 30
0.0
 10
148.8035196495852
 20
-24.32653562731026
 30
0.0
 10
151.5377774262267
 20
-23.88102758135816
 30
0.0
  0
SPLINE
  5
12E
330
70
100
AcDbEntity
  8
0
 62
    18
420
        0
370
    25
100
AcDbSpline
210
0.0
220
0.0
230
1.0
 70
     8
 71
     3
 72
     8
 73
     4
 74
     0
 42
0.0000000001
 43
0.0000000001
 40
0.0
 40
0.0
 40
0.0
 40
0.0
 40
1.0
 40
1.0
 40
1.0
 40
1.0
 10
127.38874221848
 20
-19.78889300612228
 30
0.0
 10
127.3934730457559
 20
-21.10645120163886
 30
0.0
 10
127.7687516638612
 20
-22.39610564651396
 30
0.0
 10
128.4716956128011
 20
-23.51048968442365
 30
0.0
  0
SPLINE
  5
12F
330
70
100
AcDbEntity
  8
0
 62
    18
420
        0
370
    25
100
AcDbSpline
210
0.0
220
0.0
230
1.0
 70
     8
 71
     3
 72
     8
 73
     4
 74
     0
 42
0.0000000001
 43
0.0000000001
 40
0.0
 40
0.0
 40
0.0
 40
0.0
 40
1.0
 40
1.0
 40
1.0
 40
1.0
 10
164.3987703699395
 20
-23.45840188001932
 30
0.0
 10
165.0842594592512
 20
-22.35707295890225
 30
0.0
 10
165.4484108426771
 20
-21.08612761484017
 30
0.0
 10
165.4501584089023
 20
-19.78889300611714
 30
0.0
  0
LWPOLYLINE
  5
130
330
70
100
AcDbEntity
  8
0
 62
    18
420
        0
370
    25
100
AcDbPolyline
 90
       16
 70
     0
 43
0.0
 10
172.2288471184329
 20
-5.162616204356669
 10
172.1902708982332
 20
-4.602754115756518
 10
172.0755949210332
 20
-4.013625338856373
 10
171.8879472733326
 20
-3.411295879856211
 10
171.6324463275326
 20
-2.812201998256542
 10
171.3160614603333
 20
-2.232680444756505
 10
170.9474228973332
 20
-1.688542334156602
 10
170.5365861194332
 20
-1.194629912956654
 10
170.0947576607322
 20
-0.7644118760565078
 10
169.6339895236329
 20
-0.4096305289563098
 10
169.1668501949327
 20
-0.1399567346561739
 10
168.7060820579323
 20
0.0372534855436484
 10
168.2642535992326
 20
0.1171597287434258
 10
167.8534168212325
 20
0.0975893547437837
 10
167.4847782583324
 20
-0.0209277306565811
 10
167.4005823551333
 20
-0.0656038904562898
  0
SPLINE
  5
131
330
70
100
AcDbEntity
  8
0
 62
    18
420
        0
370
    25
100
AcDbSpline
210
0.0
220
0.0
230
1.0
 70
     8
 71
     3
 72
     8
 73
     4
 74
     0
 42
0.0000000001
 43
0.0000000001
 40
0.0
 40
0.0
 40
0.0
 40
0.0
 40
1.0
 40
1.0
 40
1.0
 40
1.0
 10
171.4002573634195
 20
-6.993995915910797
 30
0.0
 10
171.9810357397976
 20
-6.573143629311667
 30
0.0
 10
172.2961424710324
 20
-5.876683081606832
 30
0.0
 10
172.2288471183494
 20
-5.162616204408646
 30
0.0
  0
LWPOLYLINE
  5
132
330
70
100
AcDbEntity
  8
0
 62
    18
420
        0
370
    25
100
AcDbPolyline
 90
       12
 70
     0
 43
0.0
 10
143.6857614321329
 20
6.049493158943617
 10
143.8188769848326
 20
6.099336149343429
 10
144.0707280299326
 20
6.372509669043296
 10
144.1828883671325
 20
6.75377831634328
 10
144.1371397740331
 20
7.173425779143701
 10
143.9554901496322
 20
7.594447779343337
 10
143.6593064644327
 20
8.002283722743296
 10
143.2886630862325
 20
8.360041895543517
 10
142.9151569661325
 20
8.616865168143313
 10
142.5922904646325
 20
8.74925553244374
 10
142.3348100987322
 20
8.752063327543329
 10
142.2747511277325
 20
8.706258421843811
  0
LWPOLYLINE
  5
133
330
70
100
AcDbEntity
  8
0
 62
    18
420
        0
370
    25
100
AcDbPolyline
 90
       23
 70
     0
 43
0.0
 10
141.4195454733322
 20
2.436832951643526
 10
141.4508890638334
 20
2.095845579543744
 10
141.5898212108325
 20
1.67195888834378
 10
141.8366389180329
 20
1.264760409243799
 10
142.1858292622333
 20
0.8833462241435011
 10
142.6295917838331
 20
0.5362366950435347
 10
143.1580133300324
 20
0.2311854295432941
 10
143.7592898197328
 20
-0.0249932212563453
 10
144.4199901555333
 20
-0.2265765161562712
 10
145.125355037733
 20
-0.3690613455562702
 10
145.859627883633
 20
-0.4492651668566762
 10
146.6064063250322
 20
-0.4653958602566498
 10
147.3490082772324
 20
-0.4170935001563575
 10
148.0708458271323
 20
-0.30543710305616
 10
148.7557935247324
 20
-0.1329205817563047
 10
149.3885511996322
 20
0.0966021649434592
 10
149.9549841405334
 20
0.3780039554436023
 10
150.4424391558328
 20
0.704998732043487
 10
150.8400272942326
 20
1.070281962443321
 10
151.1388670540324
 20
1.465693851743685
 10
151.3322825638326
 20
1.882401799343842
 10
151.4159537716322
 20
2.311096781343846
 10
151.4193551540322
 20
2.436832951643526
  0
LWPOLYLINE
  5
134
330
70
100
AcDbEntity
  8
0
 62
    18
420
        0
370
    25
100
AcDbPolyline
 90
       28
 70
     0
 43
0.0
 10
142.9559276701331
 20
13.9472253713434
 10
142.4784013246324
 20
13.62689066814358
 10
142.0889113493327
 20
13.26904738154361
 10
141.7961581870323
 20
12.88168919634376
 10
141.6066820905322
 20
12.47346891634376
 10
141.5247150312325
 20
12.05350538584358
 10
141.5520884215322
 20
11.63118024144354
 10
141.688190638133
 20
11.21592729804336
 10
141.9299812635325
 20
10.81702245754377
 10
142.2720594093328
 20
10.44337699164327
 10
142.7067832018329
 20
10.10333721624357
 10
143.2244419081331
 20
9.804499206043272
 10
143.8134718984333
 20
9.553538502443783
 10
144.460714959433
 20
9.356060992343705
 10
145.1517132816327
 20
9.216478235443299
 10
145.8710304171325
 20
9.137908098143526
 10
146.6025982914326
 20
9.122105776343467
 10
147.3300752872325
 20
9.16942435244376
 10
148.0372101724333
 20
9.278806574743622
 10
148.7082069339322
 20
9.447809377943794
 10
149.3280768516324
 20
9.672657154643836
 10
149.8829729571324
 20
9.948327246143275
 10
150.3604993026331
 20
10.26866194934373
 10
150.749989278033
 20
10.62650523594371
 10
151.0427424402332
 20
11.01386342114355
 10
151.2322185368334
 20
11.42208370124366
 10
151.3141855961332
 20
11.84204723174383
 10
151.3175175020323
 20
11.96522238914387
  0
LWPOLYLINE
  5
135
330
70
100
AcDbEntity
  8
0
 62
    18
420
        0
370
    25
100
AcDbPolyline
 90
       20
 70
     0
 43
0.0
 10
141.6966619901328
 20
11.50877224274339
 10
141.8087851194329
 20
11.24175932714326
 10
142.0708110065324
 20
10.8446742637437
 10
142.4347649308334
 20
10.47533293604365
 10
142.8921168476323
 20
10.14239290014333
 10
143.4321461462325
 20
9.853657613343473
 10
144.0421956836331
 20
9.615895188343568
 10
144.7079659066329
 20
9.434678104443278
 10
145.4138518621323
 20
9.314254424843513
 10
146.1433081135331
 20
9.257446243943761
 10
146.8792370341331
 20
9.265585581243584
 10
147.604388873933
 20
9.338481496343373
 10
148.3017665991327
 20
9.474425316843326
 10
148.9550248880328
 20
9.670230508243786
 10
149.5488509756328
 20
9.921307876343332
 10
150.0693267707334
 20
10.2217721572436
 10
150.5042526540331
 20
10.56458066074345
 10
150.8434339449329
 20
10.94169864374388
 10
151.0789210645326
 20
11.34428623514333
 10
151.1932070187325
 20
11.69872914184344
  0
LWPOLYLINE
  5
136
330
70
100
AcDbEntity
  8
0
 62
    18
420
        0
370
    25
100
AcDbPolyline
 90
       15
 70
     0
 43
0.0
 10
151.0467794827328
 20
12.78159744144375
 10
150.9122855964329
 20
13.01635562324353
 10
150.5983743869326
 20
13.40069659204328
 10
150.1865131607327
 20
13.75287069374351
 10
149.6863547808325
 20
14.06462297194331
 10
149.1096232326333
 20
14.32864661364375
 10
148.4698359656333
 20
14.53875274194357
 10
147.7819899313328
 20
14.69001706674332
 10
147.062206711033
 20
14.77889369834336
 10
146.3273578033322
 20
14.80329973464359
 10
145.5946676045325
 20
14.76266292524355
 10
144.8813094737326
 20
14.65793588034359
 10
144.2040042674329
 20
14.49157321284369
 10
143.5786273124322
 20
14.2674742039435
 10
143.0198364512329
 20
13.99089201424351
  0
LWPOLYLINE
  5
137
330
70
100
AcDbEntity
  8
0
 62
    18
420
        0
370
    25
100
AcDbPolyline
 90
       19
 70
     0
 43
0.0
 10
129.2897883329329
 20
-1.345662851756167
 10
129.5316331029324
 20
-1.436029288956226
 10
129.7443078086322
 20
-1.417016998056567
 10
129.9021607625334
 20
-1.290906697356318
 10
129.9861525580331
 20
-1.072915764256434
 10
129.9861525580331
 20
-0.789330026656209
 10
129.9021607625334
 20
-0.474364230656528
 10
129.7443078086322
 20
-0.1660007886567433
 10
129.5316331029324
 20
0.0985665744436732
 10
129.2897883329329
 20
0.2874220815433087
 10
129.0479435628333
 20
0.3777946023435181
 10
128.8352688572323
 20
0.3587762277436037
 10
128.6774159032322
 20
0.2326659270433546
 10
128.5934241077325
 20
0.0146749940435757
 10
128.5934241077325
 20
-0.2689107436567552
 10
128.6774159032322
 20
-0.5838765395563312
 10
128.8352688572323
 20
-0.8922399815561156
 10
129.0479435628333
 20
-1.156801260956276
 10
129.2897883329329
 20
-1.345662851756167
  0
LWPOLYLINE
  5
138
330
70
100
AcDbEntity
  8
0
 62
    18
420
        0
370
    25
100
AcDbPolyline
 90
       24
 70
     0
 43
0.0
 10
129.2897883329329
 20
-1.753928001356397
 10
129.5759510286329
 20
-1.873711365456445
 10
129.8408903166323
 20
-1.893765149656576
 10
130.0649569573326
 20
-1.812613856056509
 10
130.2315328272323
 20
-1.636268744556752
 10
130.3282637958332
 20
-1.37781407305623
 10
130.3479758439325
 20
-1.056415035056608
 10
130.2892070027323
 20
-0.695909237456508
 10
130.1563157668331
 20
-0.3230320078566012
 10
129.9591581601323
 20
0.0345586402433487
 10
129.7123565050333
 20
0.3503467378437994
 10
129.4342148711334
 20
0.6009107056437094
 10
129.1453617947323
 20
0.7676620372432637
 10
128.8672201608325
 20
0.8382335643432618
 10
128.6204185056334
 20
0.8073965924435501
 10
128.4232608990327
 20
0.6774392717435687
 10
128.2903696630333
 20
0.4579949972437757
 10
128.2316008219333
 20
0.1653422593434657
 10
128.2513128700325
 20
-0.1788158249565567
 10
128.3480438386334
 20
-0.5489536956564525
 10
128.514619708433
 20
-0.9176232126563911
 10
128.7386863492322
 20
-1.257476343056384
 10
129.0036256371327
 20
-1.543314949656349
 10
129.2897883329329
 20
-1.753928001356397
  0
SPLINE
  5
139
330
70
100
AcDbEntity
  8
0
 62
    18
420
        0
370
    25
100
AcDbSpline
210
0.0
220
0.0
230
1.0
 70
     8
 71
     3
 72
     8
 73
     4
 74
     0
 42
0.0000000001
 43
0.0000000001
 40
0.0
 40
0.0
 40
0.0
 40
0.0
 40
1.0
 40
1.0
 40
1.0
 40
1.0
 10
162.4057479782661
 20
-12.26185716603464
 30
0.0
 10
163.7377246894319
 20
-10.22614262246936
 30
0.0
 10
163.7322604673694
 20
-7.593488957429554
 30
0.0
 10
162.3918447866103
 20
-5.563321115908824
 30
0.0
  0
SPLINE
  5
13A
330
70
100
AcDbEntity
  8
0
 62
    18
420
        0
370
    25
100
AcDbSpline
210
0.0
220
0.0
230
1.0
 70
     8
 71
     3
 72
     8
 73
     4
 74
     0
 42
0.0000000001
 43
0.0000000001
 40
0.0
 40
0.0
 40
0.0
 40
0.0
 40
1.0
 40
1.0
 40
1.0
 40
1.0
 10
130.4345418487949
 20
-5.583210261448831
 30
0.0
 10
129.1190759372051
 20
-7.58985428685245
 30
0.0
 10
129.1043178806433
 20
-10.18184615287069
 30
0.0
 10
130.3968487367923
 20
-12.20333936214651
 30
0.0
  0
LWPOLYLINE
  5
13B
330
70
100
AcDbEntity
  8
0
 62
    18
420
        0
370
    25
100
AcDbPolyline
 90
       41
 70
     0
 43
0.0
 10
129.4194504781323
 20
-9.263842492256534
 10
129.4517231103332
 20
-9.86827042075666
 10
129.5909940785332
 20
-10.65450117955613
 10
129.8394036523332
 20
-11.43171317375671
 10
130.1953410320333
 20
-12.19486611395629
 10
130.6564983482329
 20
-12.93901000135619
 10
131.2198848212323
 20
-13.65931839205652
 10
131.8818448703326
 20
-14.35112166215622
 10
132.6380880780324
 20
-15.00993114865635
 10
133.4837088640329
 20
-15.63147483765614
 10
134.4132221507333
 20
-16.21172251575645
 10
135.4206007085333
 20
-16.74691037055631
 10
136.4993108536322
 20
-17.23356768095652
 10
137.6423572574332
 20
-17.66853812335624
 10
138.8423270961332
 20
-18.04900069635616
 10
140.0914362089334
 20
-18.37248876425625
 10
141.3815861447326
 20
-18.63690322035646
 10
142.7044077906324
 20
-18.8405300696567
 10
144.0513222873329
 20
-18.9820482227563
 10
145.4135960176327
 20
-19.06053995005666
 10
146.7823926312327
 20
-19.07549658455669
 10
148.1488356068323
 20
-19.02682118285675
 10
149.5040635694328
 20
-18.91482852565665
 10
150.8392856084325
 20
-18.74024587745674
 10
152.1458435099324
 20
-18.5042051932565
 10
153.4152634523323
 20
-18.2082368461563
 10
154.6393133002328
 20
-17.85426088285655
 10
155.8100538055325
 20
-17.44457267275624
 10
156.9198924440329
 20
-16.98182931665623
 10
157.9616330118327
 20
-16.46903242005661
 10
158.9285163313326
 20
-15.90950611535663
 10
159.8142747466331
 20
-15.30688080875644
 10
160.6131620040323
 20
-14.66506376515621
 10
161.3199977453323
 20
-13.98821798485664
 10
161.9301978425328
 20
-13.28073252645628
 10
162.4398042781321
 20
-12.54719613275655
 10
162.8455128054325
 20
-11.79236605665671
 10
163.1446928681331
 20
-11.02113755265617
 10
163.3354020892332
 20
-10.23851194265624
 10
163.4164056979324
 20
-9.449565631956467
 10
163.4194501491332
 20
-9.263842492256534
  0
LWPOLYLINE
  5
13C
330
70
100
AcDbEntity
  8
0
 62
    18
420
        0
370
    25
100
AcDbPolyline
 90
       22
 70
     0
 43
0.0
 10
158.3934604997329
 20
-16.23031505885648
 10
157.8937379785327
 20
-16.50830148535618
 10
156.8581257436333
 20
-17.01808216345676
 10
155.7548149276328
 20
-17.47810331475633
 10
154.5909616454328
 20
-17.88538191455669
 10
153.3741119939325
 20
-18.23727549865637
 10
152.1121589583326
 20
-18.5315024786566
 10
150.8132862712334
 20
-18.76615478325663
 10
149.4859186926333
 20
-18.93971059325627
 10
148.1386630698323
 20
-19.05104403625642
 10
146.7802582885323
 20
-19.09943355025632
 10
145.4195130400328
 20
-19.08456511515625
 10
144.0652531378331
 20
-19.00653453375634
 10
142.7262609315322
 20
-18.86584895215653
 10
141.4112199890328
 20
-18.66342001745642
 10
140.1286604372322
 20
-18.40056045525663
 10
138.8868977177332
 20
-18.07897608685671
 10
137.6939881347322
 20
-17.7007508121564
 10
136.5576654703327
 20
-17.26833891155674
 10
135.4853001545331
 20
-16.78454451625669
 10
134.4838469526334
 20
-16.25250509515625
 10
134.4454401275326
 20
-16.23031505885648
  0
SPLINE
  5
13D
330
70
100
AcDbEntity
  8
0
 62
    18
420
        0
370
    25
100
AcDbSpline
210
0.0
220
0.0
230
1.0
 70
     8
 71
     3
 72
     8
 73
     4
 74
     0
 42
0.0000000001
 43
0.0000000001
 40
0.0
 40
0.0
 40
0.0
 40
0.0
 40
1.0
 40
1.0
 40
1.0
 40
1.0
 10
153.6683929794048
 20
-4.178205997345173
 30
0.0
 10
154.2559752213764
 20
-3.255554700923457
 30
0.0
 10
154.2432464915202
 20
-2.072964211428299
 30
0.0
 10
153.6359408938678
 20
-1.163174006529654
 30
0.0
  0
LINE
  5
13E
330
70
100
AcDbEntity
  8
0
 62
    18
420
        0
370
    25
100
AcDbLine
 10
138.7315417999322
 20
-2.796333125656595
 30
0.0
 11
138.7297485832322
 21
-2.669244691956373
 31
0.0
  0
LWPOLYLINE
  5
13F
330
70
100
AcDbEntity
  8
0
 62
    18
420
        0
370
    25
100
AcDbPolyline
 90
       29
 70
     0
 43
0.0
 10
154.1679939837328
 20
-8.174740732956372
 10
154.1679574345332
 20
-8.233155510756578
 10
154.1072577408327
 20
-8.761989175056655
 10
153.9386384073331
 20
-9.282966633456156
 10
153.6644662431323
 20
-9.78877418215637
 10
153.2885892882329
 20
-10.27231167785659
 10
152.8162852829334
 20
-10.72679147635652
 10
152.2541834657326
 20
-11.14583338065618
 10
151.6101749283327
 20
-11.52355516805635
 10
150.8932999229328
 20
-11.85465437495647
 10
150.1136220795332
 20
-12.13448318975616
 10
149.282085996533
 20
-12.35911317685671
 10
148.4103645397324
 20
-12.5253911141562
 10
147.5106951126324
 20
-12.63098294995671
 10
146.5957074463333
 20
-12.67440630775622
 10
145.6782449697333
 20
-12.65505187075618
 10
144.7711878257326
 20
-12.57319088995651
 10
143.8872681490322
 20
-12.42997290335636
 10
143.0388952232322
 20
-12.22740805785658
 10
142.2379776731329
 20
-11.96834011775664
 10
141.4957589115333
 20
-11.65640583325639
 10
140.8226578637328
 20
-11.29598405195625
 10
140.2281236246326
 20
-10.89213424375621
 10
139.7205021244329
 20
-10.45052561155631
 10
139.3069190512334
 20
-9.977357338256236
 10
138.9931802158327
 20
-9.479271795456726
 10
138.7836902931323
 20
-8.963260873356489
 10
138.6813893551323
 20
-8.436568134556461
 10
138.6709066436329
 20
-8.174740732956372
  0
SPLINE
  5
140
330
70
100
AcDbEntity
  8
0
 62
    18
420
        0
370
    25
100
AcDbSpline
210
0.0
220
0.0
230
1.0
 70
     8
 71
     3
 72
     8
 73
     4
 74
     0
 42
0.0000000001
 43
0.0000000001
 40
0.0
 40
0.0
 40
0.0
 40
0.0
 40
1.0
 40
1.0
 40
1.0
 40
1.0
 10
140.5174512852389
 20
-19.41634145178378
 30
0.0
 10
143.2325082262137
 20
-19.93935690368324
 30
0.0
 10
146.005075170591
 20
-20.09887830985681
 30
0.0
 10
148.7622013273543
 20
-19.89070840005049
 30
0.0
  0
SPLINE
  5
141
330
70
100
AcDbEntity
  8
0
 62
    18
420
        0
370
    25
100
AcDbSpline
210
0.0
220
0.0
230
1.0
 70
     8
 71
     3
 72
     8
 73
     4
 74
     0
 42
0.0000000001
 43
0.0000000001
 40
0.0
 40
0.0
 40
0.0
 40
0.0
 40
1.0
 40
1.0
 40
1.0
 40
1.0
 10
163.9468428842286
 20
-13.25804207440593
 30
0.0
 10
165.3862093354043
 20
-11.11177404781378
 30
0.0
 10
165.4504241388398
 20
-8.325601394124303
 30
0.0
 10
164.1114664988782
 20
-6.115299455219136
 30
0.0
  0
SPLINE
  5
142
330
70
100
AcDbEntity
  8
0
 62
    18
420
        0
370
    25
100
AcDbSpline
210
0.0
220
0.0
230
1.0
 70
     8
 71
     3
 72
     8
 73
     4
 74
     0
 42
0.0000000001
 43
0.0000000001
 40
0.0
 40
0.0
 40
0.0
 40
0.0
 40
1.0
 40
1.0
 40
1.0
 40
1.0
 10
128.7912023103168
 20
-6.007760105345899
 30
0.0
 10
127.3954233758755
 20
-8.233784606121639
 30
0.0
 10
127.4348461112626
 20
-11.07144426523754
 30
0.0
 10
128.8919253757244
 20
-13.25783488197453
 30
0.0
  0
SPLINE
  5
143
330
70
100
AcDbEntity
  8
0
 62
    18
420
        0
370
    25
100
AcDbSpline
210
0.0
220
0.0
230
1.0
 70
     8
 71
     3
 72
     8
 73
     4
 74
     0
 42
0.0000000001
 43
0.0000000001
 40
0.0
 40
0.0
 40
0.0
 40
0.0
 40
1.0
 40
1.0
 40
1.0
 40
1.0
 10
163.9174645551607
 20
-16.9128462703341
 30
0.0
 10
164.6235158154963
 20
-15.83460921268509
 30
0.0
 10
165.014460210319
 20
-14.58063910847711
 30
0.0
 10
165.0462585741384
 20
-13.29219337862648
 30
0.0
  0
SPLINE
  5
144
330
70
100
AcDbEntity
  8
0
 62
    18
420
        0
370
    25
100
AcDbSpline
210
0.0
220
0.0
230
1.0
 70
     8
 71
     3
 72
     8
 73
     4
 74
     0
 42
0.0000000001
 43
0.0000000001
 40
0.0
 40
0.0
 40
0.0
 40
0.0
 40
1.0
 40
1.0
 40
1.0
 40
1.0
 10
127.7926420532324
 20
-13.29219337860274
 30
0.0
 10
127.8244174124403
 20
-14.59114266151871
 30
0.0
 10
128.2213143413328
 20
-15.85489495558324
 30
0.0
 10
128.9378950750961
 20
-16.93877270009092
 30
0.0
  0
LINE
  5
145
330
70
100
AcDbEntity
  8
0
 62
    18
420
        0
370
    25
100
AcDbLine
 10
161.9263585280326
 20
-54.52742965845617
 30
0.0
 11
161.921653227533
 21
-54.69445605475645
 31
0.0
  0
SPLINE
  5
146
330
70
100
AcDbEntity
  8
0
 62
     8
420
  8421504
370
    25
100
AcDbSpline
210
0.0
220
0.0
230
1.0
 70
     8
 71
     3
 72
     8
 73
     4
 74
     0
 42
0.0000000001
 43
0.0000000001
 40
0.0
 40
0.0
 40
0.0
 40
0.0
 40
1.0
 40
1.0
 40
1.0
 40
1.0
 10
160.239305792856
 20
2.020686905147398
 30
0.0
 10
160.2642321043191
 20
0.3840138138727665
 30
0.0
 10
160.5315124637996
 20
-1.239935167397589
 30
0.0
 10
161.0324409932069
 20
-2.798264637417926
 30
0.0
  0
LWPOLYLINE
  5
147
330
70
100
AcDbEntity
  8
0
 62
     8
420
  8421504
370
    25
100
AcDbPolyline
 90
       60
 70
     0
 43
0.0
 10
165.296741904633
 20
-10.51748072925657
 10
165.3081831276332
 20
-10.53094194015656
 10
166.0840572179329
 20
-11.39250287095642
 10
166.8892915272329
 20
-12.18782453895621
 10
167.7172133534326
 20
-12.91031720865621
 10
168.5609622266329
 20
-13.55399758385675
 10
169.4135467504326
 20
-14.11352770475632
 10
170.2679020181327
 20
-14.58427242865634
 10
171.1169487173322
 20
-14.96233355045629
 10
171.9536510820327
 20
-15.24457413175646
 10
172.7710762026323
 20
-15.42865578185624
 10
173.5624507842324
 20
-15.51305925595636
 10
174.3212165467322
 20
-15.49707689355648
 10
175.041087024233
 20
-15.38084540725663
 10
175.7160967912328
 20
-15.16532867325664
 10
176.3406518415326
 20
-14.85231031175644
 10
176.9095776616333
 20
-14.44438493735639
 10
177.4181603898332
 20
-13.94493324995673
 10
177.8621846829332
 20
-13.35809218295615
 10
178.2379719111324
 20
-12.68872828355622
 10
178.5424078175324
 20
-11.94238371735635
 10
178.7729695181325
 20
-11.12524318555655
 10
178.9277472338328
 20
-10.24408259155624
 10
179.0054581200327
 20
-9.306197936956301
 10
179.0054581200327
 20
-8.319366535956255
 10
178.9277472338328
 20
-7.291758802056363
 10
178.7729695181325
 20
-6.231895661356289
 10
178.5424078175324
 20
-5.148554256256419
 10
178.2379719111324
 20
-4.050715474256167
 10
177.8621846829332
 20
-2.947476876456224
 10
177.4181603898332
 20
-1.847976272956721
 10
176.9095776616333
 20
-0.7613274662565449
 10
176.3406518415326
 20
0.3034656781433372
 10
175.7160967912328
 20
1.337579951743763
 10
175.041087024233
 20
2.332446373843535
 10
174.3212165467322
 20
3.279822622043436
 10
173.5624507842324
 20
4.171857286543863
 10
172.7710762026323
 20
5.001155455543806
 10
171.9536510820327
 20
5.760852760943698
 10
171.1169487173322
 20
6.444648167243801
 10
170.2679020181327
 20
7.046875498343472
 10
169.4135467504326
 20
7.562548369843711
 10
168.5609622266329
 20
7.987391387143481
 10
167.7172133534326
 20
8.317882725243416
 10
166.8892915272329
 20
8.551288249243514
 10
166.0840572179329
 20
8.685670325443345
 10
165.3081831276332
 20
8.719914551443231
 10
164.5680979679322
 20
8.65374091954373
 10
163.8699341053325
 20
8.487694496643324
 10
163.2194778409333
 20
8.223152833843549
 10
162.6221180446331
 20
7.862306950143297
 10
162.0828049955324
 20
7.408145549043681
 10
161.6060075764331
 20
6.864437143443771
 10
161.1956763960323
 20
6.23568442454381
 10
160.8552121781327
 20
5.527093840443474
 10
160.5874361274332
 20
4.744540992143838
 10
160.3945662217331
 20
3.894511315443253
 10
160.2782014071327
 20
2.984045325643846
 10
160.239305792933
 20
2.020686905143548
 10
160.239305792933
 20
2.020686905143548
  0
LWPOLYLINE
  5
148
330
70
100
AcDbEntity
  8
0
 62
     8
420
  8421504
370
    25
100
AcDbPolyline
 90
       37
 70
     0
 43
0.0
 10
163.105861132633
 20
8.713129990343702
 10
163.2612954172323
 20
8.798893230143551
 10
163.9182870772325
 20
9.082448599443258
 10
164.6240864342325
 20
9.267153505743305
 10
165.3730109075334
 20
9.35152185154328
 10
166.1590308637328
 20
9.334873217443721
 10
166.9758173608333
 20
9.217338759543828
 10
167.8167941733329
 20
8.999867679143569
 10
168.6751903112327
 20
8.684209070743714
 10
169.5440944323327
 20
8.272907887943857
 10
170.4165106535326
 20
7.769272723643815
 10
171.2854147745325
 20
7.177358562243795
 10
172.1438109124323
 20
6.501934085643679
 10
172.9847877249332
 20
5.748434006143643
 10
173.8015742220324
 20
4.922926847643396
 10
174.5875941782331
 20
4.032056157443482
 10
175.3365186515326
 20
3.08299802014374
 10
176.0423180085326
 20
2.083394521843773
 10
176.6993096685329
 20
1.041292728043587
 10
177.3022045314322
 20
-0.0349186211563559
 10
177.8461471485333
 20
-1.136574886856485
 10
178.3267581988333
 20
-2.254802638456536
 10
178.7401687333324
 20
-3.380603301556733
 10
179.0830504681324
 20
-4.504907147456632
 10
179.3526421260322
 20
-5.618664546656204
 10
179.5467724859327
 20
-6.71291098595652
 10
179.6638801387335
 20
-7.778830185556312
 10
179.7030207315327
 20
-8.80784649385651
 10
179.6638801387335
 20
-9.791672035656754
 10
179.5467724859327
 20
-10.72238161725624
 10
179.3526421260322
 20
-11.59248991405626
 10
179.0830504681324
 20
-12.39498341035665
 10
178.7401687333324
 20
-13.12340443185667
 10
178.3267581988333
 20
-13.77189145175612
 10
177.8461471485333
 20
-14.33521749615659
 10
177.3022045314335
 20
-14.8088509840563
 10
176.898262549833
 20
-15.07776955395668
  0
LWPOLYLINE
  5
149
330
70
100
AcDbEntity
  8
0
 62
     8
420
  8421504
370
    25
100
AcDbPolyline
 90
       16
 70
     0
 43
0.0
 10
172.2288471184329
 20
-5.162616204356669
 10
172.1902708982332
 20
-4.602754115756518
 10
172.0755949210332
 20
-4.013625338856373
 10
171.8879472733326
 20
-3.411295879856211
 10
171.6324463275326
 20
-2.812201998256542
 10
171.3160614603333
 20
-2.232680444756505
 10
170.9474228973332
 20
-1.688542334156602
 10
170.5365861194332
 20
-1.194629912956654
 10
170.0947576607322
 20
-0.7644118760565078
 10
169.6339895236329
 20
-0.4096305289563098
 10
169.1668501949327
 20
-0.1399567346561739
 10
168.7060820579323
 20
0.0372534855436484
 10
168.2642535992326
 20
0.1171597287434258
 10
167.8534168212325
 20
0.0975893547437837
 10
167.4847782583324
 20
-0.0209277306565811
 10
167.4005823551333
 20
-0.0656038904562898
  0
SPLINE
  5
14A
330
70
100
AcDbEntity
  8
0
 62
     8
420
  8421504
370
    25
100
AcDbSpline
210
0.0
220
0.0
230
1.0
 70
     8
 71
     3
 72
     8
 73
     4
 74
     0
 42
0.0000000001
 43
0.0000000001
 40
0.0
 40
0.0
 40
0.0
 40
0.0
 40
1.0
 40
1.0
 40
1.0
 40
1.0
 10
171.4002573634195
 20
-6.993995915910797
 30
0.0
 10
171.9810357397976
 20
-6.573143629311667
 30
0.0
 10
172.2961424710324
 20
-5.876683081606832
 30
0.0
 10
172.2288471183494
 20
-5.162616204408646
 30
0.0
  0
LWPOLYLINE
  5
14B
330
70
100
AcDbEntity
  8
0
 62
     8
420
  8421504
370
    25
100
AcDbPolyline
 90
       36
 70
     0
 43
0.0
 10
164.5327782503329
 20
-16.83037485125644
 10
164.4461605498326
 20
-16.99396527415636
 10
163.9640763354328
 20
-17.7745573566564
 10
163.3807310248329
 20
-18.53176938575636
 10
162.699493073133
 20
-19.26123131125639
 10
161.9242913568322
 20
-19.95873161375654
 10
161.0596038139325
 20
-20.62024667265629
 10
160.1104173962327
 20
-21.24195628195667
 10
159.0822129639325
 20
-21.8202736597567
 10
157.9809237149332
 20
-22.35186032255671
 10
156.8129066204322
 20
-22.83364865765667
 10
155.5849022127331
 20
-23.26285753395677
 10
154.3039989004322
 20
-23.63700986095621
 10
152.9775888454323
 20
-23.95394589505661
 10
151.613327627833
 20
-24.21183740025618
 10
150.219090122833
 20
-24.40919487185655
 10
148.8029224270334
 20
-24.54488008195624
 10
147.3729977365329
 20
-24.61810874055663
 10
145.9375695895331
 20
-24.62845923945643
 10
144.5049231346333
 20
-24.57587189215658
 10
143.0833263979326
 20
-24.46064893345663
 10
141.680983527033
 20
-24.28345718085656
 10
140.3059906681333
 20
-24.04531777015653
 10
138.9662822947322
 20
-23.74760558475667
 10
137.6695890607324
 20
-23.39204013225671
 10
136.4233979586324
 20
-22.98067166725674
 10
135.2349001299327
 20
-22.51587539495651
 10
134.1109536571323
 20
-22.00033455265632
 10
133.0580484962325
 20
-21.43702320765638
 10
132.0822588972332
 20
-20.82919399625622
 10
131.1892192023323
 20
-20.18035350845672
 10
130.3840812051329
 20
-19.49424831605633
 10
129.6714929128328
 20
-18.7748375059564
 10
129.055568746833
 20
-18.02627243565638
 10
128.5398602377334
 20
-17.25287525385626
 10
128.2474967692326
 20
-16.71410262425655
  0
LWPOLYLINE
  5
14C
330
70
100
AcDbEntity
  8
0
 62
     8
420
  8421504
370
    25
100
AcDbPolyline
 90
       21
 70
     0
 43
0.0
 10
127.7902693173329
 20
-13.07015876535634
 10
127.7766486413333
 20
-13.73645512285618
 10
127.8586907746323
 20
-14.55969311635632
 10
128.0496555110329
 20
-15.37688983385645
 10
128.3484213492325
 20
-16.18325019555666
 10
128.7532345852329
 20
-16.9740414695567
 10
129.2617201781325
 20
-17.74462387515627
 10
129.8708949214326
 20
-18.49047415405663
 10
130.5771825892322
 20
-19.20721636325672
 10
131.3764391253329
 20
-19.89064402075631
 10
132.2639741290324
 20
-20.53674619415638
 10
133.2345792541328
 20
-21.14173149885634
 10
134.2825580904327
 20
-21.70204991085647
 10
135.4017611495323
 20
-22.21441296255657
 10
136.5856208493325
 20
-22.67581393965628
 10
137.8271892981332
 20
-23.08354513145629
 10
139.1191798658322
 20
-23.43521422525617
 10
140.4540123757322
 20
-23.72875670985651
 10
141.8238514653325
 20
-23.96245041665615
 10
143.2206599282332
 20
-24.13492426385654
 10
143.2660869869326
 20
-24.13945778695663
  0
LWPOLYLINE
  5
14D
330
70
100
AcDbEntity
  8
0
 62
     8
420
  8421504
370
    25
100
AcDbPolyline
 90
       20
 70
     0
 43
0.0
 10
151.5377774262331
 20
-23.88102758135624
 10
151.7038472046331
 20
-23.85317901385658
 10
153.0571752663332
 20
-23.58936674645677
 10
154.3715507496324
 20
-23.26652382645635
 10
155.639260781333
 20
-22.88654501935647
 10
156.8528657840325
 20
-22.45166002005657
 10
158.0052427757325
 20
-21.96442062235613
 10
159.0896294510322
 20
-21.42768591605644
 10
160.0996626236327
 20
-20.84460617665635
 10
161.0294151458327
 20
-20.2186030739563
 10
161.8734299888325
 20
-19.55334999695613
 10
162.6267545273334
 20
-18.85275074155668
 10
163.2849684459323
 20
-18.12091731775653
 10
163.8442093812326
 20
-17.36214450215643
 10
164.3011951472329
 20
-16.58088484175651
 10
164.6532431630328
 20
-15.78172223205671
 10
164.8982875744331
 20
-14.96934758635621
 10
165.0348907788329
 20
-14.14852785205652
 10
165.0622519860324
 20
-13.32407977865667
 10
165.0486313100328
 20
-13.07015876535634
  0
LWPOLYLINE
  5
14E
330
70
100
AcDbEntity
  8
0
 62
     8
420
  8421504
370
    25
100
AcDbPolyline
 90
       43
 70
     0
 43
0.0
 10
127.419450148933
 20
-16.94958350885616
 10
127.4596687790326
 20
-17.66282967795656
 10
127.607742511733
 20
-18.48988951695628
 10
127.8639143496331
 20
-19.30809786585637
 10
128.2267144216325
 20
-20.11275278655615
 10
128.6940581050324
 20
-20.89923008535652
 10
129.2632582088328
 20
-21.66301163615668
 10
129.9310453890334
 20
-22.39970704965653
 10
130.6935809895325
 20
-23.10508389705675
 10
131.5464845369332
 20
-23.77508814425631
 10
132.4848531674324
 20
-24.40587057355627
 10
133.5032965296322
 20
-24.99380541205648
 10
134.5959621383333
 20
-25.53551409185617
 10
135.7565692900329
 20
-26.0278848293563
 10
136.9784502215333
 20
-26.46808726155656
 10
138.2545823789333
 20
-26.85359259495614
 10
139.5776341861334
 20
-27.18218482055668
 10
140.9400004419333
 20
-27.45197658635665
 10
142.3338546741323
 20
-27.66141660985631
 10
143.7511866765323
 20
-27.80930146405674
 10
145.1838515707322
 20
-27.89478261035676
 10
146.623616891833
 20
-27.91736696875651
 10
148.0622086866325
 20
-27.87692604185642
 10
149.4913595873328
 20
-27.77369173305674
 10
150.9028588610329
 20
-27.60825710715633
 10
152.2885952150326
 20
-27.38157372875635
 10
153.6406042121331
 20
-27.09494329875672
 10
154.9511173319331
 20
-26.75001290205622
 10
156.2126054350333
 20
-26.34876588385629
 10
157.4178167941327
 20
-25.89350597715639
 10
158.5598276367334
 20
-25.38685093525655
 10
159.6320740234328
 20
-24.83171108735618
 10
160.6283961141323
 20
-24.23127747065636
 10
161.5430678436324
 20
-23.58900013665664
 10
162.3708322776329
 20
-22.90856926155667
 10
163.1069348894324
 20
-22.19389593555614
 10
163.7471432134329
 20
-21.44908561075641
 10
164.2877792785323
 20
-20.67841937765629
 10
164.7257377181323
 20
-19.88632526235639
 10
165.0584995994325
 20
-19.07735503595623
 10
165.2841551434329
 20
-18.25615817335613
 10
165.4014057004331
 20
-17.42745257995642
 10
165.4194504784326
 20
-16.94958959155664
  0
LWPOLYLINE
  5
14F
330
70
100
AcDbEntity
  8
0
 62
     8
420
  8421504
370
    25
100
AcDbPolyline
 90
       34
 70
     0
 43
0.0
 10
128.4716956128332
 20
-23.51048968435628
 10
128.9335144370328
 20
-24.19301434385634
 10
129.5537145324327
 20
-24.94626500515624
 10
130.2711069069323
 20
-25.67018576795676
 10
131.0815595229329
 20
-26.36060446015665
 10
131.9804009950327
 20
-27.01354241655655
 10
132.9624515412324
 20
-27.62523690775672
 10
134.0220522887324
 20
-28.19216262075645
 10
135.1530965543323
 20
-28.71105275765662
 10
136.3490663936328
 20
-29.17891709415631
 10
137.603069809233
 20
-29.59305889665635
 10
138.9078796043331
 20
-29.95109279085669
 10
140.2559781640331
 20
-30.25095388515618
 10
141.6395940047322
 20
-30.49091582915627
 10
143.0507567622322
 20
-30.66959366485639
 10
144.4813314361325
 20
-30.78595979375647
 10
145.9230756835334
 20
-30.83934207585634
 10
147.3676799896325
 20
-30.82943409435634
 10
148.806820352033
 20
-30.75629211445623
 10
150.2322030610322
 20
-30.62033888475663
 10
151.6356134325326
 20
-30.42235603405643
 10
153.0089632229324
 20
-30.16348483165644
 10
154.344339690633
 20
-29.8452183939567
 10
155.6340467552322
 20
-29.46939008895667
 10
156.8706524126329
 20
-29.03816593335633
 10
158.0470292358333
 20
-28.55403033575658
 10
159.1563992375326
 20
-28.01977388405621
 10
160.1923683623328
 20
-27.43847495445621
 10
161.1489671512324
 20
-26.8134838395564
 10
162.0206835042335
 20
-26.14840231405659
 10
162.8024930561332
 20
-25.44706305845672
 10
163.4898900453332
 20
-24.71350727605666
 10
164.0789133267328
 20
-23.9519620732563
 10
164.3987703699331
 20
-23.45840187995643
  0
LWPOLYLINE
  5
150
330
70
100
AcDbEntity
  8
0
 62
     8
420
  8421504
370
    25
100
AcDbPolyline
 90
        8
 70
     0
 43
0.0
 10
143.0198364512329
 20
13.99089201424351
 10
142.540730133933
 20
13.66830891644324
 10
142.1525372031326
 20
13.30728648484365
 10
141.8643573856334
 20
12.91628651194351
 10
141.6829451665334
 20
12.50447362874328
 10
141.6125525209323
 20
12.0815005802435
 10
141.6548295965333
 20
11.6572813355436
 10
141.6966619901328
 20
11.50877224274339
  0
SPLINE
  5
151
330
70
100
AcDbEntity
  8
0
 62
     8
420
  8421504
370
    25
100
AcDbSpline
210
0.0
220
0.0
230
1.0
 70
     8
 71
     3
 72
     8
 73
     4
 74
     0
 42
0.0000000001
 43
0.0000000001
 40
0.0
 40
0.0
 40
0.0
 40
0.0
 40
1.0
 40
1.0
 40
1.0
 40
1.0
 10
151.1932070187068
 20
11.69872914181906
 30
0.0
 10
151.2673057614753
 20
12.06588947677959
 30
0.0
 10
151.2157303258965
 20
12.44730273931239
 30
0.0
 10
151.0467794827199
 20
12.78159744139177
 30
0.0
  0
LWPOLYLINE
  5
152
330
70
100
AcDbEntity
  8
0
 62
     8
420
  8421504
370
    25
100
AcDbPolyline
 90
       34
 70
     0
 43
0.0
 10
149.461798841433
 20
-18.2387342500566
 10
150.7787258554332
 20
-18.0665440094567
 10
152.0673818830329
 20
-17.83373704835657
 10
153.3194093358325
 20
-17.54182454115626
 10
154.5266867136333
 20
-17.19269840215651
 10
155.6813863918328
 20
-16.78862377705625
 10
156.7760189083322
 20
-16.3322210804566
 10
157.803484659533
 20
-15.82644983785662
 10
158.7571209858334
 20
-15.27459062835654
 10
159.6307421789322
 20
-14.68022198885632
 10
160.4186839326322
 20
-14.04719931485647
 10
161.1158338013323
 20
-13.37962663265636
 10
161.7176733467323
 20
-12.68183531035644
 10
162.2202978935323
 20
-11.95834984185658
 10
162.6204479758323
 20
-11.21386209105674
 10
162.9155279404334
 20
-10.45320078275614
 10
163.1036247155325
 20
-9.681298618056404
 10
163.1835180181325
 20
-8.903162051356423
 10
163.1546895737324
 20
-8.123837834656184
 10
163.0173277260322
 20
-7.348379182956527
 10
162.7723215102323
 20
-6.581816501056547
 10
162.4212609819329
 20
-5.829120317156142
 10
161.9664220709326
 20
-5.095172769956404
 10
161.4107557153328
 20
-4.384733203356639
 10
160.7578644826327
 20
-3.702409463456555
 10
160.0119839666323
 20
-3.052626630156682
 10
159.1779492010322
 20
-2.439599264056735
 10
158.2611722951324
 20
-1.8673017687564
 10
157.2675956301327
 20
-1.339447454156176
 10
156.2036656933327
 20
-0.8594582244563234
 10
155.0762819474327
 20
-0.4304472264563342
 10
153.8927543188322
 20
-0.0551973495563185
 10
152.6607594607323
 20
0.2638579401434973
 10
152.1140404199329
 20
0.3840884935434692
  0
LWPOLYLINE
  5
153
330
70
100
AcDbEntity
  8
0
 62
     8
420
  8421504
370
    25
100
AcDbPolyline
 90
       38
 70
     0
 43
0.0
 10
140.6852431576323
 20
0.3757975637433815
 10
139.5194912915331
 20
0.1018570065432531
 10
138.3122139137324
 20
-0.2472691324564929
 10
137.1575142355329
 20
-0.6513437574566464
 10
136.0628817190322
 20
-1.107746454056293
 10
135.0354159678327
 20
-1.613517696656275
 10
134.0817796414335
 20
-2.165376906156357
 10
133.2081584484334
 20
-2.759745545656577
 10
132.4202166947335
 20
-3.392768219756527
 10
131.7230668259332
 20
-4.060340901856541
 10
131.1212272806333
 20
-4.758132224256562
 10
130.6186027338334
 20
-5.481617692656318
 10
130.2184526515333
 20
-6.226105443456161
 10
129.9233726869323
 20
-6.986766751856221
 10
129.7352759118332
 20
-7.758668916456495
 10
129.6553826092331
 20
-8.536805483156477
 10
129.6842110536333
 20
-9.31612969995618
 10
129.8215729012333
 20
-10.09158835165647
 10
130.0665791171334
 20
-10.85815103345635
 10
130.4176396454327
 20
-11.61084721735676
 10
130.872478556433
 20
-12.34479476455649
 10
131.4281449120328
 20
-13.05523433125636
 10
132.081036144733
 20
-13.73755807105634
 10
132.8269166607333
 20
-14.38734090445632
 10
133.6609514262333
 20
-15.00036827045616
 10
134.5777283322333
 20
-15.5726657658566
 10
135.5713049971329
 20
-16.10052008045619
 10
136.6352349339328
 20
-16.58050931015668
 10
137.7626186799329
 20
-17.00952030815667
 10
138.9461463085334
 20
-17.38477018495658
 10
140.1781411666333
 20
-17.7038254747565
 10
141.4506134629322
 20
-17.96461710415663
 10
142.7553099883326
 20
-18.16545388835672
 10
144.083770092333
 20
-18.30503279605623
 10
145.4273780371332
 20
-18.38244940355633
 10
146.7774199617332
 20
-18.39720112655638
 10
148.1251405169325
 20
-18.34919254255665
 10
149.461798841433
 20
-18.2387342500566
  0
LWPOLYLINE
  5
154
330
70
100
AcDbEntity
  8
0
 62
     8
420
  8421504
370
    25
100
AcDbPolyline
 90
       32
 70
     0
 43
0.0
 10
162.4057479782328
 20
-12.26185716595635
 10
161.9301978425328
 20
-12.94053184745641
 10
161.3199977453323
 20
-13.64801730585613
 10
160.6131620040323
 20
-14.32486308615633
 10
159.8142747466331
 20
-14.96668012975656
 10
158.9285163313326
 20
-15.56930543635675
 10
157.9616330118327
 20
-16.12883174105673
 10
156.9198924440329
 20
-16.64162863755625
 10
155.8100538055325
 20
-17.10437199375636
 10
154.6393133002328
 20
-17.51406020385667
 10
153.4152634523323
 20
-17.86803616715642
 10
152.1458435099324
 20
-18.16400451425663
 10
150.8392856084325
 20
-18.40004519845622
 10
149.5040635694328
 20
-18.57462784665614
 10
148.1488356068323
 20
-18.68662050385623
 10
146.7823926312327
 20
-18.7352959054567
 10
145.4135960176327
 20
-18.72033927105615
 10
144.0513222873329
 20
-18.64184754375642
 10
142.7044077906324
 20
-18.50032939065618
 10
141.3815861447326
 20
-18.29670254135658
 10
140.0914362089334
 20
-18.03228808525638
 10
138.8423270961332
 20
-17.70880001735629
 10
137.6423572574332
 20
-17.32833744435636
 10
136.4993108536322
 20
-16.89336700195665
 10
135.4206007085333
 20
-16.40670969155643
 10
134.4132221507333
 20
-15.87152183675658
 10
133.4837088640329
 20
-15.29127415865627
 10
132.6380880780324
 20
-14.66973046965648
 10
131.8818448703326
 20
-14.01092098315635
 10
131.2198848212323
 20
-13.31911771305665
 10
130.6564983482329
 20
-12.59880932235631
 10
130.3968487367333
 20
-12.20333936215614
  0
LWPOLYLINE
  5
155
330
70
100
AcDbEntity
  8
0
 62
     8
420
  8421504
370
    25
100
AcDbPolyline
 90
       25
 70
     0
 43
0.0
 10
153.6683929793329
 20
-4.178205997356723
 10
153.4208304583332
 20
-4.532594349656221
 10
152.9864371318327
 20
-5.00639460745642
 10
152.4562823787332
 20
-5.446513259856184
 10
151.8380970346334
 20
-5.846532557956324
 10
151.1408954122333
 20
-6.200619088956231
 10
150.3748447069325
 20
-6.503609811156225
 10
149.5511154221332
 20
-6.751086236056121
 10
148.6817196152329
 20
-6.939439674556571
 10
147.7793345152325
 20
-7.065923258356694
 10
146.8571196522325
 20
-7.128692879656543
 10
145.9285218466334
 20
-7.126833089656759
 10
145.0070837368331
 20
-7.060371070756247
 10
144.1062402895327
 20
-6.930275875156367
 10
143.2391291382326
 20
-6.738444739756207
 10
142.418394090533
 20
-6.487674810056603
 10
141.6560036168324
 20
-6.181622985656645
 10
140.9630747881328
 20
-5.824752182656371
 10
140.3497124670333
 20
-5.422266253256318
 10
139.8248602732323
 20
-4.980034594256498
 10
139.3961720823332
 20
-4.504505799956642
 10
139.0698990047329
 20
-4.002614283756664
 10
138.8507992712326
 20
-3.48167845395628
 10
138.7420673168323
 20
-2.949295145656554
 10
138.7315417999322
 20
-2.796333125656595
  0
LWPOLYLINE
  5
156
330
70
100
AcDbEntity
  8
0
 62
     8
420
  8421504
370
    25
100
AcDbPolyline
 90
       11
 70
     0
 43
0.0
 10
153.7449357721327
 20
-3.28467819105655
 10
153.8565070412331
 20
-2.769178026956198
 10
153.8596288715328
 20
-2.249672585456582
 10
153.7542564818323
 20
-1.73373788735664
 10
153.5419259274332
 20
-1.228897300156756
 10
153.2257336844326
 20
-0.7425124287563497
 10
152.8102904700334
 20
-0.2816758610563346
 10
152.3016544819323
 20
0.1468923818437717
 10
151.7072426936331
 20
0.5369428142437509
 10
151.0357230555331
 20
0.8827876094433497
 10
150.771353614333
 20
0.997805680543416
  0
LWPOLYLINE
  5
157
330
70
100
AcDbEntity
  8
0
 62
     8
420
  8421504
370
    25
100
AcDbPolyline
 90
       35
 70
     0
 43
0.0
 10
142.0675470130326
 20
0.997805680543416
 10
141.8438814258334
 20
0.9011968734437868
 10
141.168221050233
 20
0.5580502521432855
 10
140.5691353811329
 20
0.1703902166435477
 10
140.0553603999322
 20
-0.2561302661562482
 10
139.6343885396333
 20
-0.7152919015562414
 10
139.3123579703329
 20
-1.200398452356743
 10
139.0939648552329
 20
-1.704376434656482
 10
138.9823935861326
 20
-2.219876598856297
 10
138.9792717558328
 20
-2.739382040356555
 10
139.0846441455333
 20
-3.255316738356393
 10
139.2969746999324
 20
-3.760157325656381
 10
139.613166942933
 20
-4.246542196956683
 10
140.0286101573323
 20
-4.707378764756161
 10
140.5372461454334
 20
-5.135947007656268
 10
141.1316579337325
 20
-5.525997439956142
 10
141.8031775718326
 20
-5.871842235256488
 10
142.5420127729332
 20
-6.168438218656637
 10
143.3373902349332
 20
-6.41146010075625
 10
144.1777104785326
 20
-6.597364391356417
 10
145.0507205423334
 20
-6.723440053156635
 10
145.9436897729327
 20
-6.787848775756769
 10
146.8435970993327
 20
-6.789650970056702
 10
147.7373190463332
 20
-6.728820784256424
 10
148.6118233475328
 20
-6.606244964356397
 10
149.454357947033
 20
-6.423711067756219
 10
150.2526367916323
 20
-6.183880805056458
 10
150.9950192015323
 20
-5.890251499156177
 10
151.6706795770326
 20
-5.547104877856318
 10
152.2697652461326
 20
-5.15944484235658
 10
152.7835402274335
 20
-4.732924359556142
 10
153.2045120876323
 20
-4.273762724256255
 10
153.5265426569327
 20
-3.788656173356289
 10
153.7449357721327
 20
-3.28467819105655
 10
153.7449357721327
 20
-3.28467819105655
  0
LWPOLYLINE
  5
158
330
70
100
AcDbEntity
  8
0
 62
     8
420
  8421504
370
    25
100
AcDbPolyline
 90
       23
 70
     0
 43
0.0
 10
150.8892745695331
 20
-2.893389585656752
 10
150.7035952290326
 20
-3.291113239056192
 10
150.4124259487322
 20
-3.667171974356747
 10
150.022936302633
 20
-4.012305999356143
 10
149.5447171682331
 20
-4.318017096756467
 10
148.989543486233
 20
-4.576777432156309
 10
148.3710853233322
 20
-4.782215362156221
 10
147.7045716036333
 20
-4.92927268215646
 10
147.0064139971333
 20
-5.014328038456561
 10
146.2938033142327
 20
-5.035287361656714
 10
145.5842863089333
 20
-4.9916342862565
 10
144.8953340845325
 20
-4.884443884556343
 10
144.2439106652326
 20
-4.716355436856297
 10
143.6460562197326
 20
-4.491507850256388
 10
143.1164916872332
 20
-4.215437820256715
 10
142.6682570721328
 20
-3.894942875556666
 10
142.3123895805322
 20
-3.537914577656384
 10
142.057651229333
 20
-3.153144397356571
 10
141.9103150665327
 20
-2.750106590056728
 10
141.8740085200329
 20
-2.338725199356645
 10
141.9496260577324
 20
-1.929129750656473
 10
142.1353053983331
 20
-1.531406097256392
 10
142.3703415795325
 20
-1.216741766956213
  0
SPLINE
  5
159
330
70
100
AcDbEntity
  8
0
 62
     8
420
  8421504
370
    25
100
AcDbSpline
210
0.0
220
0.0
230
1.0
 70
     8
 71
     3
 72
     8
 73
     4
 74
     0
 42
0.0000000001
 43
0.0000000001
 40
0.0
 40
0.0
 40
0.0
 40
0.0
 40
1.0
 40
1.0
 40
1.0
 40
1.0
 10
150.8892745695639
 20
-2.893389585681137
 30
0.0
 10
151.0599466100146
 20
-2.299501390157756
 30
0.0
 10
150.8994018931361
 20
-1.659693882654571
 30
0.0
 10
150.4685590477818
 20
-1.216741766979956
 30
0.0
  0
LWPOLYLINE
  5
15A
330
70
100
AcDbEntity
  8
0
 62
     8
420
  8421504
370
    25
100
AcDbPolyline
 90
        3
 70
     0
 43
0.0
 10
150.4079009247325
 20
-2.436845953556312
 10
150.4761630142325
 20
-2.052002115356759
 10
150.4768467481333
 20
-1.992186887556345
  0
LWPOLYLINE
  5
15B
330
70
100
AcDbEntity
  8
0
 62
     8
420
  8421504
370
    25
100
AcDbPolyline
 90
       19
 70
     0
 43
0.0
 10
142.3620538792324
 20
-1.992186887556345
 10
142.4051319096328
 20
-2.347356393456708
 10
142.5570264352326
 20
-2.724143628856153
 10
142.8142777922331
 20
-3.081359302856695
 10
143.1698689010324
 20
-3.409259310856242
 10
143.6141000284328
 20
-3.698899573756442
 10
144.1348540072322
 20
-3.942379245356742
 10
144.7179255691323
 20
-4.133057064956152
 10
145.3474103189325
 20
-4.265731806556222
 10
146.0061375730329
 20
-4.336784184056353
 10
146.6761389444332
 20
-4.34427647245646
 10
147.3391385060328
 20
-4.288003950656376
 10
147.9770513908322
 20
-4.169501695956514
 10
148.572476918433
 20
-3.992002267356528
 10
149.1091736937325
 20
-3.760347339156378
 10
149.5725014492327
 20
-3.48085561605618
 10
149.949822386433
 20
-3.161151210356666
 10
150.2308441544327
 20
-2.809954809956586
 10
150.4079009247325
 20
-2.436845953556312
  0
LWPOLYLINE
  5
15C
330
70
100
AcDbEntity
  8
0
 62
     8
420
  8421504
370
    25
100
AcDbPolyline
 90
       30
 70
     0
 43
0.0
 10
159.4418426380332
 20
-1.827827842956527
 10
160.4118195939333
 20
-2.432996437056626
 10
161.297645263033
 20
-3.079737437956453
 10
162.0939913617323
 20
-3.7641613300563
 10
162.7960696130329
 20
-4.482152016456611
 10
163.3996575940333
 20
-5.229390864956561
 10
163.9011240903325
 20
-6.001385030556448
 10
164.2974519802324
 20
-6.793491311356145
 10
164.5862619426333
 20
-7.600945041056276
 10
164.7658134441326
 20
-8.418891072956133
 10
164.8350277890324
 20
-9.242410011756302
 10
164.793488777133
 20
-10.06654824695646
 10
164.641445996733
 20
-10.88635026705623
 10
164.379814166233
 20
-11.69688565185657
 10
164.0101658899328
 20
-12.49327910585622
 10
163.5347267189329
 20
-13.27074220205661
 10
162.9563527608326
 20
-14.02459771325661
 10
162.2785237647325
 20
-14.7503124965564
 10
161.5053172736334
 20
-15.44352229935616
 10
160.6413822002322
 20
-16.10005765855644
 10
159.6919156953323
 20
-16.7159709399564
 10
158.6626256112333
 20
-17.28755648745666
 10
157.5597043242325
 20
-17.81137789995674
 10
156.3897843654328
 20
-18.28428452155668
 10
155.1599006363332
 20
-18.70343173275634
 10
153.8774520493327
 20
-19.06630005435625
 10
152.5501493373331
 20
-19.37070550655661
 10
151.1859763646328
 20
-19.61481890315659
 10
149.7931369495333
 20
-19.79717069845662
 10
148.7622013274325
 20
-19.89070840005627
  0
LWPOLYLINE
  5
15D
330
70
100
AcDbEntity
  8
0
 62
     8
420
  8421504
370
    25
100
AcDbPolyline
 90
       35
 70
     0
 43
0.0
 10
140.5174512853326
 20
-19.41634145175618
 10
139.9531533867326
 20
-19.30019106915624
 10
138.6363254837331
 20
-18.98098409175625
 10
137.3663062657334
 20
-18.60382823435662
 10
136.1507338613328
 20
-18.17099177925614
 10
134.9969181144325
 20
-17.68507812815646
 10
133.9117999197334
 20
-17.14900840975666
 10
132.9019038067324
 20
-16.56600779325666
 10
131.9733032023334
 20
-15.93958239335664
 10
131.1315848687334
 20
-15.27349874065621
 10
130.3818088973328
 20
-14.57176372845676
 10
129.7284850009329
 20
-13.83859723975617
 10
129.1755423853325
 20
-13.0784086723565
 10
128.7263067003333
 20
-12.29576994655632
 10
128.3834796247323
 20
-11.4953885129565
 10
128.1491227321329
 20
-10.68207674915665
 10
128.0246466248326
 20
-9.860726678156716
 10
128.0107980923334
 20
-9.036278224556598
 10
128.107662086933
 20
-8.213689180656537
 10
128.3146551381328
 20
-7.397907074456579
 10
128.6305319383324
 20
-6.593837995256298
 10
129.0533945621327
 20
-5.806317700956605
 10
129.5806974058333
 20
-5.040082155056698
 10
130.2092718825323
 20
-4.299740344456638
 10
130.9353348186333
 20
-3.589743580356498
 10
131.7545218751325
 20
-2.914363163956578
 10
132.6619054926329
 20
-2.2776602576563
 10
133.6520279835331
 20
-1.683463739856721
 10
134.7189366818324
 20
-1.135348393556282
 10
135.8562125070331
 20
-0.6366092916566678
 10
137.0570172155332
 20
-0.1902466854567288
 10
138.3141283026327
 20
0.2010556648432368
 10
139.6199858420322
 20
0.534943843943413
 10
140.9667373489324
 20
0.8094090351433504
 10
141.7905356987327
 20
0.9447866880434292
  0
SPLINE
  5
15E
330
70
100
AcDbEntity
  8
0
 62
     8
420
  8421504
370
    25
100
AcDbSpline
210
0.0
220
0.0
230
1.0
 70
     8
 71
     3
 72
     8
 73
     4
 74
     0
 42
0.0000000001
 43
0.0000000001
 40
0.0
 40
0.0
 40
0.0
 40
0.0
 40
1.0
 40
1.0
 40
1.0
 40
1.0
 10
159.4418426380755
 20
-1.827827843011071
 30
0.0
 10
156.8689541435144
 20
-0.4018055689483515
 30
0.0
 10
154.0534843024961
 20
0.5337122127617779
 30
0.0
 10
151.1387995532381
 20
0.9310880349012505
 30
0.0
  0
LWPOLYLINE
  5
15F
330
70
100
AcDbEntity
  8
0
 62
     8
420
  8421504
370
    25
100
AcDbPolyline
 90
       34
 70
     0
 43
0.0
 10
163.9468428842324
 20
-13.25804207445663
 10
163.8630957791324
 20
-13.38744346035656
 10
163.3032493122327
 20
-14.14703877295671
 10
162.644322189833
 20
-14.87966561075647
 10
161.8901805622333
 20
-15.5810239699562
 10
161.0452496839329
 20
-16.24699746845643
 10
160.1144898766323
 20
-16.87367938785676
 10
159.1033619562327
 20
-17.45739111175633
 10
158.0177994085325
 20
-17.99470731135662
 10
156.8641744749331
 20
-18.48247552495625
 10
155.6492545235328
 20
-18.91783221975619
 10
154.3801701094334
 20
-19.29822275065649
 10
153.0643698651324
 20
-19.62141523665653
 10
151.7095745662328
 20
-19.88551339155618
 10
150.3237335036327
 20
-20.08896650345642
 10
148.9149823361326
 20
-20.23058159975672
 10
147.4915851388327
 20
-20.30952648925637
 10
146.0618968658323
 20
-20.32533850545664
 10
144.6343067155333
 20
-20.27792526705628
 10
143.2171926913333
 20
-20.16756429805666
 10
141.8188702347323
 20
-19.99490378755659
 10
140.4475461272324
 20
-19.76095650755618
 10
139.1112667950333
 20
-19.46709582095673
 10
137.8178758324329
 20
-19.11504560705656
 10
136.574961977133
 20
-18.70687227795627
 10
135.3898195973333
 20
-18.24497109265647
 10
134.2694038285325
 20
-17.73205242295673
 10
133.2202888383332
 20
-17.17112678505671
 10
132.2486318530322
 20
-16.56548559265661
 10
131.3601343865328
 20
-15.91868333685671
 10
130.5600113704334
 20
-15.23451520395675
 10
129.852957815433
 20
-14.51699630805618
 10
129.2431228812329
 20
-13.77033759845668
 10
128.8919253757334
 20
-13.25783488195656
  0
LWPOLYLINE
  5
160
330
70
100
AcDbEntity
  8
0
 62
     8
420
  8421504
370
    25
100
AcDbPolyline
 90
       34
 70
     0
 43
0.0
 10
163.9174645551324
 20
-16.91284627035656
 10
163.8263983864328
 20
-17.05380861535639
 10
163.2677290678328
 20
-17.81180588485615
 10
162.6101875231327
 20
-18.54289075455635
 10
161.8576324938323
 20
-19.24277358025627
 10
161.0144798503329
 20
-19.90734643875626
 10
160.0856778547326
 20
-20.53270957345652
 10
159.0766771153333
 20
-21.11519330175629
 10
157.9933990174327
 20
-21.65137928075666
 10
156.8422003264326
 20
-22.13812094125648
 10
155.6298363509326
 20
-22.57256171235615
 10
154.3634229933324
 20
-22.95215236625661
 10
153.0503909408322
 20
-23.27466529905658
 10
151.6984451640327
 20
-23.53820726575628
 10
150.3155207951327
 20
-23.74123268675667
 10
148.9097324193323
 20
-23.88254934985643
 10
147.4893302824333
 20
-23.96132848535629
 10
146.0626495821334
 20
-23.97710742685634
 10
144.6380623949323
 20
-23.92979379285639
 10
143.2239296016332
 20
-23.81966510755674
 10
141.828549521933
 20
-23.64736727885655
 10
140.4601098393332
 20
-23.41391269875651
 10
139.1266421629332
 20
-23.12066997795624
 10
137.8359723062333
 20
-22.76936033455623
 10
136.5956732019328
 20
-22.36204561865631
 10
135.4130235777324
 20
-21.90111662215646
 10
134.2949646574332
 20
-21.38927720655642
 10
133.248057026033
 20
-20.82953156775666
 10
132.2784440806328
 20
-20.22516465645652
 10
131.3918161396323
 20
-19.57972298035672
 10
130.5933771864332
 20
-18.89699388455664
 10
129.8878109542331
 20
-18.18098445235643
 10
129.2792588647325
 20
-17.43589660375616
 10
128.9378950750332
 20
-16.93877270005627
  0
LWPOLYLINE
  5
161
330
70
100
AcDbEntity
  8
0
 62
     8
420
  8421504
370
    25
100
AcDbPolyline
 90
       39
 70
     0
 43
0.0
 10
161.921653227533
 20
-54.69445605475645
 10
161.9054793743328
 20
-54.93389982755675
 10
161.7832554893331
 20
-55.68032758405646
 10
161.553265405333
 20
-56.41823383785654
 10
161.2171232150332
 20
-57.14244181875642
 10
160.7771855199325
 20
-57.84787227005661
 10
160.2365385888328
 20
-58.52957671355671
 10
159.5989748150325
 20
-59.18277385055652
 10
158.8689667033331
 20
-59.8028820665562
 10
158.0516330381324
 20
-60.38555112755677
 10
157.1527087541323
 20
-60.92669478025664
 10
156.1784982625328
 20
-61.42251693545667
 10
155.135834950533
 20
-61.86953961125677
 10
154.0320328602334
 20
-62.26462778595645
 10
152.8748335117334
 20
-62.60500945275655
 10
151.6723546184323
 20
-62.88829762125661
 10
150.4330301600334
 20
-63.1125051448564
 10
149.1655525945326
 20
-63.27605907145649
 10
147.8788139193328
 20
-63.37781261945672
 10
146.5818388282332
 20
-63.41705183005629
 10
145.2837251137325
 20
-63.39350108045662
 10
143.9935771536322
 20
-63.30732650475638
 10
142.7204446664322
 20
-63.15913181215668
 10
141.4732585036331
 20
-62.94995695705654
 10
140.2607664411327
 20
-62.68126844365674
 10
139.0914729227332
 20
-62.35495191355621
 10
137.9735796264333
 20
-61.97329532265625
 10
136.914928747033
 20
-61.53897596825641
 10
135.9229448388324
 20
-61.05504060135615
 10
135.0045863302334
 20
-60.52488351895654
 10
134.1662948564322
 20
-59.95222339825653
 10
133.4139501498326
 20
-59.34107725415671
 10
132.7528299096322
 20
-58.69573119075624
 10
132.1875718532333
 20
-58.0207124107566
 10
131.7221392660322
 20
-57.32075564205647
 10
131.3597985288327
 20
-56.60077039555632
 10
131.1030899771325
 20
-55.86580665495645
 10
130.9538150593326
 20
-55.12102009075645
 10
130.912542099333
 20
-54.52742965845617
  0
LINE
  5
162
330
70
100
AcDbEntity
  8
0
 62
    18
420
        0
370
    25
100
AcDbLine
 10
121.8928450604334
 20
95.79137082514346
 30
0.0
 11
119.712920082833
 21
95.79137082514346
 31
0.0
  0
LINE
  5
163
330
70
100
AcDbEntity
  8
0
 62
    18
420
        0
370
    25
100
AcDbLine
 10
119.712920082833
 20
68.29137082514346
 30
0.0
 11
121.8928450604334
 21
68.29137082514346
 31
0.0
  0
SPLINE
  5
164
330
70
100
AcDbEntity
  8
0
 62
    18
420
        0
370
    25
100
AcDbSpline
210
0.0
220
0.0
230
1.0
 70
     8
 71
     3
 72
     8
 73
     4
 74
     0
 42
0.0000000001
 43
0.0000000001
 40
0.0
 40
0.0
 40
0.0
 40
0.0
 40
1.0
 40
1.0
 40
1.0
 40
1.0
 10
121.8928450604334
 20
68.29137082514346
 30
0.0
 10
122.1586690858203
 20
68.29137082514346
 30
0.0
 10
122.3780225880009
 20
68.49936880594556
 30
0.0
 10
122.3921394951604
 20
68.76481771893146
 30
0.0
  0
SPLINE
  5
165
330
70
100
AcDbEntity
  8
0
 62
    18
420
        0
370
    25
100
AcDbSpline
210
0.0
220
0.0
230
1.0
 70
     8
 71
     3
 72
     8
 73
     4
 74
     0
 42
0.0000000001
 43
0.0000000001
 40
0.0
 40
0.0
 40
0.0
 40
0.0
 40
1.0
 40
1.0
 40
1.0
 40
1.0
 10
122.3921394951604
 20
95.31792393135544
 30
0.0
 10
122.3780225880009
 20
95.58337284434134
 30
0.0
 10
122.1586690858203
 20
95.79137082514346
 30
0.0
 10
121.8928450604334
 20
95.79137082514346
 30
0.0
  0
SPLINE
  5
166
330
70
100
AcDbEntity
  8
0
 62
    18
420
        0
370
    25
100
AcDbSpline
210
0.0
220
0.0
230
1.0
 70
     8
 71
     3
 72
     8
 73
     4
 74
     0
 42
0.0000000001
 43
0.0000000001
 40
0.0
 40
0.0
 40
0.0
 40
0.0
 40
1.0
 40
1.0
 40
1.0
 40
1.0
 10
122.392139495204
 20
68.76481771914708
 30
0.0
 10
122.556466005094
 20
71.85475044535042
 30
0.0
 10
122.6634112958942
 20
74.94746773464612
 30
0.0
 10
122.7129200828735
 20
78.04137082529507
 30
0.0
  0
SPLINE
  5
167
330
70
100
AcDbEntity
  8
0
 62
    18
420
        0
370
    25
100
AcDbSpline
210
0.0
220
0.0
230
1.0
 70
     8
 71
     3
 72
     8
 73
     4
 74
     0
 42
0.0000000001
 43
0.0000000001
 40
0.0
 40
0.0
 40
0.0
 40
0.0
 40
1.0
 40
1.0
 40
1.0
 40
1.0
 10
122.7129200828735
 20
86.04137082499184
 30
0.0
 10
122.6634112958942
 20
89.13527391564079
 30
0.0
 10
122.556466005094
 20
92.22799120493682
 30
0.0
 10
122.392139495204
 20
95.31792393114015
 30
0.0
  0
SPLINE
  5
168
330
70
100
AcDbEntity
  8
0
 62
    18
420
        0
370
    25
100
AcDbSpline
210
0.0
220
0.0
230
1.0
 70
     8
 71
     3
 72
    11
 73
     7
 74
     0
 42
0.0000000001
 43
0.0000000001
 40
0.0
 40
0.0
 40
0.0
 40
0.0
 40
1.0
 40
1.0
 40
1.0
 40
2.0
 40
2.0
 40
2.0
 40
2.0
 10
173.9940000297324
 20
78.04137082514363
 30
0.0
 10
174.13207121719
 20
78.04137082514363
 30
0.0
 10
174.2440000297332
 20
78.15329963768623
 30
0.0
 10
174.2440000297332
 20
78.2913708251438
 30
0.0
 10
174.2440000297332
 20
78.29209804681906
 30
0.0
 10
174.2439968566252
 20
78.292825265033
 30
0.0
 10
174.2439905104989
 20
78.29355245901767
 30
0.0
  0
LINE
  5
169
330
70
100
AcDbEntity
  8
0
 62
    18
420
        0
370
    25
100
AcDbLine
 10
174.2439905105323
 20
78.29355245904334
 30
0.0
 11
174.2129200828327
 21
81.85387082514349
 31
0.0
  0
SPLINE
  5
16A
330
70
100
AcDbEntity
  8
0
 62
    18
420
        0
370
    25
100
AcDbSpline
210
0.0
220
0.0
230
1.0
 70
     8
 71
     3
 72
     8
 73
     4
 74
     0
 42
0.0000000001
 43
0.0000000001
 40
0.0
 40
0.0
 40
0.0
 40
0.0
 40
1.0
 40
1.0
 40
1.0
 40
1.0
 10
174.2129200828378
 20
81.85387082514349
 30
0.0
 10
174.2129200828378
 20
83.17144645433122
 30
0.0
 10
174.1781999731101
 20
84.48879331197323
 30
0.0
 10
174.1087959056874
 20
85.80453972145125
 30
0.0
  0
SPLINE
  5
16B
330
70
100
AcDbEntity
  8
0
 62
    18
420
        0
370
    25
100
AcDbSpline
210
0.0
220
0.0
230
1.0
 70
     8
 71
     3
 72
     8
 73
     4
 74
     0
 42
0.0000000001
 43
0.0000000001
 40
0.0
 40
0.0
 40
0.0
 40
0.0
 40
1.0
 40
1.0
 40
1.0
 40
1.0
 10
174.1087959056425
 20
85.80453972146472
 30
0.0
 10
174.1017924935835
 20
85.93730880276286
 30
0.0
 10
173.992096650075
 20
86.04137082514327
 30
0.0
 10
173.8591429862331
 20
86.04137082514327
 30
0.0
  0
LINE
  5
16C
330
70
100
AcDbEntity
  8
0
 62
    18
420
        0
370
    25
100
AcDbLine
 10
122.7129200828325
 20
78.04137082514363
 30
0.0
 11
136.4318401359329
 21
78.04137082514363
 31
0.0
  0
LINE
  5
16D
330
70
100
AcDbEntity
  8
0
 62
    18
420
        0
370
    25
100
AcDbLine
 10
136.5666971794322
 20
86.04137082514327
 30
0.0
 11
122.7129200828325
 21
86.04137082514327
 31
0.0
  0
LINE
  5
16E
330
70
100
AcDbEntity
  8
0
 62
    18
420
        0
370
    25
100
AcDbLine
 10
137.2129200828333
 20
86.16637082514369
 30
0.0
 11
137.2129200828333
 21
86.04137082514327
 31
0.0
  0
LINE
  5
16F
330
70
100
AcDbEntity
  8
0
 62
    18
420
        0
370
    25
100
AcDbLine
 10
173.2129200828333
 20
86.04137082514327
 30
0.0
 11
173.2129200828333
 21
86.16637082514369
 31
0.0
  0
LINE
  5
170
330
70
100
AcDbEntity
  8
0
 62
    18
420
        0
370
    25
100
AcDbLine
 10
160.1254495290331
 20
115.5972624924436
 30
0.0
 11
160.1110805746331
 21
117.2437815792436
 31
0.0
  0
LINE
  5
171
330
70
100
AcDbEntity
  8
0
 62
    18
420
        0
370
    25
100
AcDbLine
 10
160.2129200828322
 20
105.5741298049435
 30
0.0
 11
160.1520319436324
 21
112.5512194807434
 31
0.0
  0
LINE
  5
172
330
70
100
AcDbEntity
  8
0
 62
    18
420
        0
370
    25
100
AcDbLine
 10
150.3147595910322
 20
117.2437815792436
 30
0.0
 11
150.2129200828331
 21
105.5741298049435
 31
0.0
  0
SPLINE
  5
173
330
70
100
AcDbEntity
  8
0
 62
    18
420
        0
370
    25
100
AcDbSpline
210
0.0
220
0.0
230
1.0
 70
     8
 71
     3
 72
     8
 73
     4
 74
     0
 42
0.0000000001
 43
0.0000000001
 40
0.0
 40
0.0
 40
0.0
 40
0.0
 40
1.0
 40
1.0
 40
1.0
 40
1.0
 10
150.4051402236141
 20
117.3424455572483
 30
0.0
 10
150.354207362437
 20
117.337525278544
 30
0.0
 10
150.3152061275567
 20
117.2949495975798
 30
0.0
 10
150.3147595910258
 20
117.2437815792934
 30
0.0
  0
SPLINE
  5
174
330
70
100
AcDbEntity
  8
0
 62
    18
420
        0
370
    25
100
AcDbSpline
210
0.0
220
0.0
230
1.0
 70
     8
 71
     3
 72
     8
 73
     4
 74
     0
 42
0.0000000001
 43
0.0000000001
 40
0.0
 40
0.0
 40
0.0
 40
0.0
 40
1.0
 40
1.0
 40
1.0
 40
1.0
 10
160.1110805746395
 20
117.2437815792934
 30
0.0
 10
160.1106340381086
 20
117.2949495975798
 30
0.0
 10
160.0716328032284
 20
117.337525278544
 30
0.0
 10
160.0206999420512
 20
117.3424455572483
 30
0.0
  0
SPLINE
  5
175
330
70
100
AcDbEntity
  8
0
 62
    18
420
        0
370
    25
100
AcDbSpline
210
0.0
220
0.0
230
1.0
 70
     8
 71
     3
 72
     8
 73
     4
 74
     0
 42
0.0000000001
 43
0.0000000001
 40
0.0
 40
0.0
 40
0.0
 40
0.0
 40
1.0
 40
1.0
 40
1.0
 40
1.0
 10
160.0206999420717
 20
117.3424455572884
 30
0.0
 10
156.8229565262649
 20
117.6513578874952
 30
0.0
 10
153.6028836394004
 20
117.6513578874952
 30
0.0
 10
150.4051402235949
 20
117.3424455572884
 30
0.0
  0
LINE
  5
176
330
70
100
AcDbEntity
  8
0
 62
    18
420
        0
370
    25
100
AcDbLine
 10
160.1518320083332
 20
112.5741298049434
 30
0.0
 11
179.4379200828323
 21
112.5741298049434
 31
0.0
  0
LINE
  5
177
330
70
100
AcDbEntity
  8
0
 62
    18
420
        0
370
    25
100
AcDbLine
 10
179.4379200828323
 20
115.5741298049435
 30
0.0
 11
160.1256514049327
 21
115.5741298049435
 31
0.0
  0
SPLINE
  5
178
330
70
100
AcDbEntity
  8
0
 62
    18
420
        0
370
    25
100
AcDbSpline
210
0.0
220
0.0
230
1.0
 70
     8
 71
     3
 72
     8
 73
     4
 74
     0
 42
0.0000000001
 43
0.0000000001
 40
0.0
 40
0.0
 40
0.0
 40
0.0
 40
1.0
 40
1.0
 40
1.0
 40
1.0
 10
138.4458499400794
 20
91.93242189734409
 30
0.0
 10
138.3147107858157
 20
91.92344669430642
 30
0.0
 10
138.2129200828327
 20
91.814451285982
 30
0.0
 10
138.2129200828327
 20
91.68300535774372
 30
0.0
  0
SPLINE
  5
179
330
70
100
AcDbEntity
  8
0
 62
    18
420
        0
370
    25
100
AcDbSpline
210
0.0
220
0.0
230
1.0
 70
     8
 71
     3
 72
     8
 73
     4
 74
     0
 42
0.0000000001
 43
0.0000000001
 40
0.0
 40
0.0
 40
0.0
 40
0.0
 40
1.0
 40
1.0
 40
1.0
 40
1.0
 10
172.2129200828326
 20
91.68300535774372
 30
0.0
 10
172.2129200828326
 20
91.814451285982
 30
0.0
 10
172.1111293798497
 20
91.92344669430642
 30
0.0
 10
171.9799902255872
 20
91.93242189734409
 30
0.0
  0
LINE
  5
17A
330
70
100
AcDbEntity
  8
0
 62
    18
420
        0
370
    25
100
AcDbLine
 10
172.2129200828326
 20
91.26637082514355
 30
0.0
 11
172.2129200828326
 21
91.68300535774372
 31
0.0
  0
LINE
  5
17B
330
70
100
AcDbEntity
  8
0
 62
    18
420
        0
370
    25
100
AcDbLine
 10
138.2129200828327
 20
91.68300535774372
 30
0.0
 11
138.2129200828327
 21
91.26637082514355
 31
0.0
  0
SPLINE
  5
17C
330
70
100
AcDbEntity
  8
0
 62
    18
420
        0
370
    25
100
AcDbSpline
210
0.0
220
0.0
230
1.0
 70
     8
 71
     3
 72
     8
 73
     4
 74
     0
 42
0.0000000001
 43
0.0000000001
 40
0.0
 40
0.0
 40
0.0
 40
0.0
 40
1.0
 40
1.0
 40
1.0
 40
1.0
 10
138.2129200828327
 20
91.26637082514355
 30
0.0
 10
138.2129200828327
 20
91.21114235016044
 30
0.0
 10
138.2576916078503
 20
91.16637082514355
 30
0.0
 10
138.312920082833
 20
91.16637082514355
 30
0.0
  0
SPLINE
  5
17D
330
70
100
AcDbEntity
  8
0
 62
    18
420
        0
370
    25
100
AcDbSpline
210
0.0
220
0.0
230
1.0
 70
     8
 71
     3
 72
     8
 73
     4
 74
     0
 42
0.0000000001
 43
0.0000000001
 40
0.0
 40
0.0
 40
0.0
 40
0.0
 40
1.0
 40
1.0
 40
1.0
 40
1.0
 10
172.1129200828323
 20
91.16637082514355
 30
0.0
 10
172.1681485578164
 20
91.16637082514355
 30
0.0
 10
172.2129200828326
 20
91.21114235016044
 30
0.0
 10
172.2129200828326
 20
91.26637082514355
 30
0.0
  0
SPLINE
  5
17E
330
70
100
AcDbEntity
  8
0
 62
    18
420
        0
370
    25
100
AcDbSpline
210
0.0
220
0.0
230
1.0
 70
     8
 71
     3
 72
     8
 73
     4
 74
     0
 42
0.0000000001
 43
0.0000000001
 40
0.0
 40
0.0
 40
0.0
 40
0.0
 40
1.0
 40
1.0
 40
1.0
 40
1.0
 10
148.4629200829738
 20
92.41637082516685
 30
0.0
 10
145.1209966662863
 20
92.32204996706448
 30
0.0
 10
141.7813014995955
 20
92.16070120221075
 30
0.0
 10
138.4458499400204
 20
91.93242189739029
 30
0.0
  0
SPLINE
  5
17F
330
70
100
AcDbEntity
  8
0
 62
    18
420
        0
370
    25
100
AcDbSpline
210
0.0
220
0.0
230
1.0
 70
     8
 71
     3
 72
     8
 73
     4
 74
     0
 42
0.0000000001
 43
0.0000000001
 40
0.0
 40
0.0
 40
0.0
 40
0.0
 40
1.0
 40
1.0
 40
1.0
 40
1.0
 10
171.9799902255448
 20
91.93242189739029
 30
0.0
 10
168.644538665971
 20
92.16070120221075
 30
0.0
 10
165.3048434992789
 20
92.32204996706448
 30
0.0
 10
161.9629200825915
 20
92.41637082516685
 30
0.0
  0
LINE
  5
180
330
70
100
AcDbEntity
  8
0
 62
    18
420
        0
370
    25
100
AcDbLine
 10
161.9629200828327
 20
92.41637082514342
 30
0.0
 11
161.9629200828327
 21
92.56637082514359
 31
0.0
  0
LINE
  5
181
330
70
100
AcDbEntity
  8
0
 62
    18
420
        0
370
    25
100
AcDbLine
 10
148.4629200828326
 20
92.56637082514359
 30
0.0
 11
148.4629200828326
 21
92.41637082514342
 31
0.0
  0
LINE
  5
182
330
70
100
AcDbEntity
  8
0
 62
    18
420
        0
370
    25
100
AcDbLine
 10
162.9616110526332
 20
92.56637082514359
 30
0.0
 11
162.9027682111323
 21
99.30909259944359
 31
0.0
  0
LINE
  5
183
330
70
100
AcDbEntity
  8
0
 62
    18
420
        0
370
    25
100
AcDbLine
 10
147.5230719544329
 20
99.30909259944359
 30
0.0
 11
147.4642291130322
 21
92.56637082514359
 31
0.0
  0
SPLINE
  5
184
330
70
100
AcDbEntity
  8
0
 62
    18
420
        0
370
    25
100
AcDbSpline
210
0.0
220
0.0
230
1.0
 70
     8
 71
     3
 72
     8
 73
     4
 74
     0
 42
0.0000000001
 43
0.0000000001
 40
0.0
 40
0.0
 40
0.0
 40
0.0
 40
1.0
 40
1.0
 40
1.0
 40
1.0
 10
147.7606613865064
 20
99.55660320409021
 30
0.0
 10
147.6284162731604
 20
99.55003520620609
 30
0.0
 10
147.5242274185721
 20
99.44149567152313
 30
0.0
 10
147.5230719544663
 20
99.30909259941824
 30
0.0
  0
SPLINE
  5
185
330
70
100
AcDbEntity
  8
0
 62
    18
420
        0
370
    25
100
AcDbSpline
210
0.0
220
0.0
230
1.0
 70
     8
 71
     3
 72
     8
 73
     4
 74
     0
 42
0.0000000001
 43
0.0000000001
 40
0.0
 40
0.0
 40
0.0
 40
0.0
 40
1.0
 40
1.0
 40
1.0
 40
1.0
 10
162.902768211199
 20
99.30909259941824
 30
0.0
 10
162.9016127470932
 20
99.44149567152313
 30
0.0
 10
162.7974238925062
 20
99.55003520620609
 30
0.0
 10
162.6651787791602
 20
99.55660320409021
 30
0.0
  0
SPLINE
  5
186
330
70
100
AcDbEntity
  8
0
 62
    18
420
        0
370
    25
100
AcDbSpline
210
0.0
220
0.0
230
1.0
 70
     8
 71
     3
 72
     8
 73
     4
 74
     0
 42
0.0000000001
 43
0.0000000001
 40
0.0
 40
0.0
 40
0.0
 40
0.0
 40
1.0
 40
1.0
 40
1.0
 40
1.0
 10
162.665178779046
 20
99.55660320413448
 30
0.0
 10
161.6973637919267
 20
99.60467005989128
 30
0.0
 10
160.7289012675658
 20
99.63866707154927
 30
0.0
 10
159.7600980836697
 20
99.65858346644113
 30
0.0
  0
SPLINE
  5
187
330
70
100
AcDbEntity
  8
0
 62
    18
420
        0
370
    25
100
AcDbSpline
210
0.0
220
0.0
230
1.0
 70
     8
 71
     3
 72
     8
 73
     4
 74
     0
 42
0.0000000001
 43
0.0000000001
 40
0.0
 40
0.0
 40
0.0
 40
0.0
 40
1.0
 40
1.0
 40
1.0
 40
1.0
 10
150.6657420819957
 20
99.65858346644113
 30
0.0
 10
149.6969388980995
 20
99.63866707154927
 30
0.0
 10
148.7284763737386
 20
99.60467005989128
 30
0.0
 10
147.7606613866206
 20
99.5566032041348
 30
0.0
  0
SPLINE
  5
188
330
70
100
AcDbEntity
  8
0
 62
    18
420
        0
370
    25
100
AcDbSpline
210
0.0
220
0.0
230
1.0
 70
     8
 71
     3
 72
     8
 73
     4
 74
     0
 42
0.0000000001
 43
0.0000000001
 40
0.0
 40
0.0
 40
0.0
 40
0.0
 40
1.0
 40
1.0
 40
1.0
 40
1.0
 10
159.2703938161004
 20
100.1541145770942
 30
0.0
 10
159.2727538377512
 20
99.88368288185549
 30
0.0
 10
159.4897132198443
 20
99.66414196563643
 30
0.0
 10
159.7600980836555
 20
99.65858346643855
 30
0.0
  0
SPLINE
  5
189
330
70
100
AcDbEntity
  8
0
 62
    18
420
        0
370
    25
100
AcDbSpline
210
0.0
220
0.0
230
1.0
 70
     8
 71
     3
 72
     8
 73
     4
 74
     0
 42
0.0000000001
 43
0.0000000001
 40
0.0
 40
0.0
 40
0.0
 40
0.0
 40
1.0
 40
1.0
 40
1.0
 40
1.0
 10
150.6657420820098
 20
99.65858346643855
 30
0.0
 10
150.936126945821
 20
99.66414196563643
 30
0.0
 10
151.1530863279141
 20
99.88368288185549
 30
0.0
 10
151.1554463495649
 20
100.1541145770942
 30
0.0
  0
LINE
  5
18A
330
70
100
AcDbEntity
  8
0
 62
    18
420
        0
370
    25
100
AcDbLine
 10
159.2703938161325
 20
100.1541145770435
 30
0.0
 11
159.2230940598323
 21
105.5741298049435
 31
0.0
  0
LINE
  5
18B
330
70
100
AcDbEntity
  8
0
 62
    18
420
        0
370
    25
100
AcDbLine
 10
151.202746105833
 20
105.5741298049435
 30
0.0
 11
151.1554463495328
 21
100.1541145770435
 31
0.0
  0
SPLINE
  5
18C
330
70
100
AcDbEntity
  8
0
 62
    18
420
        0
370
    25
100
AcDbSpline
210
0.0
220
0.0
230
1.0
 70
     8
 71
     3
 72
    11
 73
     7
 74
     0
 42
0.0000000001
 43
0.0000000001
 40
0.0
 40
0.0
 40
0.0
 40
0.0
 40
1.0
 40
1.0
 40
1.0
 40
2.0
 40
2.0
 40
2.0
 40
2.0
 10
173.8793536659985
 20
90.91418919126885
 30
0.0
 10
173.8805585491172
 20
91.05225512139883
 30
0.0
 10
173.7696107492375
 20
91.16515642279086
 30
0.0
 10
173.6315448191072
 20
91.16636130590952
 30
0.0
 10
173.6308176251226
 20
91.16636765203548
 30
0.0
 10
173.6300904069086
 20
91.16637082514355
 30
0.0
 10
173.6293631852333
 20
91.16637082514355
 30
0.0
  0
SPLINE
  5
18D
330
70
100
AcDbEntity
  8
0
 62
    18
420
        0
370
    25
100
AcDbSpline
210
0.0
220
0.0
230
1.0
 70
     8
 71
     3
 72
    11
 73
     7
 74
     0
 42
0.0000000001
 43
0.0000000001
 40
0.0
 40
0.0
 40
0.0
 40
0.0
 40
1.0
 40
1.0
 40
1.0
 40
2.0
 40
2.0
 40
2.0
 40
2.0
 10
136.7964769804333
 20
91.16637082514355
 30
0.0
 10
136.6584057929757
 20
91.16637082514355
 30
0.0
 10
136.5464769804325
 20
91.05444201260127
 30
0.0
 10
136.5464769804325
 20
90.91637082514369
 30
0.0
 10
136.5464769804325
 20
90.91564360346811
 30
0.0
 10
136.5464801535405
 20
90.91491638525416
 30
0.0
 10
136.5464864996668
 20
90.91418919126885
 30
0.0
  0
LINE
  5
18E
330
70
100
AcDbEntity
  8
0
 62
    18
420
        0
370
    25
100
AcDbLine
 10
136.5464864996322
 20
90.9141891912435
 30
0.0
 11
136.5857574047323
 21
86.41418919124367
 31
0.0
  0
LINE
  5
18F
330
70
100
AcDbEntity
  8
0
 62
    18
420
        0
370
    25
100
AcDbLine
 10
173.840082760933
 20
86.41418919124367
 30
0.0
 11
173.8793536660332
 21
90.9141891912435
 31
0.0
  0
SPLINE
  5
190
330
70
100
AcDbEntity
  8
0
 62
    18
420
        0
370
    25
100
AcDbSpline
210
0.0
220
0.0
230
1.0
 70
     8
 71
     3
 72
     8
 73
     4
 74
     0
 42
0.0000000001
 43
0.0000000001
 40
0.0
 40
0.0
 40
0.0
 40
0.0
 40
1.0
 40
1.0
 40
1.0
 40
1.0
 10
173.5900922801332
 20
86.16637082514369
 30
0.0
 10
173.7273122436312
 20
86.16637082514369
 30
0.0
 10
173.838885306016
 20
86.27697445268575
 30
0.0
 10
173.8400827608984
 20
86.4141891912687
 30
0.0
  0
SPLINE
  5
191
330
70
100
AcDbEntity
  8
0
 62
    18
420
        0
370
    25
100
AcDbSpline
210
0.0
220
0.0
230
1.0
 70
     8
 71
     3
 72
     8
 73
     4
 74
     0
 42
0.0000000001
 43
0.0000000001
 40
0.0
 40
0.0
 40
0.0
 40
0.0
 40
1.0
 40
1.0
 40
1.0
 40
1.0
 10
136.5857574046668
 20
86.4141891912687
 30
0.0
 10
136.5869548595493
 20
86.27697445268575
 30
0.0
 10
136.698527921934
 20
86.16637082514369
 30
0.0
 10
136.8357478854333
 20
86.16637082514369
 30
0.0
  0
LINE
  5
192
330
70
100
AcDbEntity
  8
0
 62
    18
420
        0
370
    25
100
AcDbLine
 10
139.2925769455328
 20
78.04137082514363
 30
0.0
 11
139.7056392258333
 21
35.90901823734397
 31
0.0
  0
LINE
  5
193
330
70
100
AcDbEntity
  8
0
 62
    18
420
        0
370
    25
100
AcDbLine
 10
170.7202009398334
 20
35.90901823734397
 30
0.0
 11
171.1332632200324
 21
78.04137082514363
 31
0.0
  0
SPLINE
  5
194
330
70
100
AcDbEntity
  8
0
 62
    18
420
        0
370
    25
100
AcDbSpline
210
0.0
220
0.0
230
1.0
 70
     8
 71
     3
 72
     8
 73
     4
 74
     0
 42
0.0000000001
 43
0.0000000001
 40
0.0
 40
0.0
 40
0.0
 40
0.0
 40
1.0
 40
1.0
 40
1.0
 40
1.0
 10
169.9702369810333
 20
35.16637082514317
 30
0.0
 10
170.3815820396071
 20
35.16637082514317
 30
0.0
 10
170.716168338905
 20
35.49769294591377
 30
0.0
 10
170.7202009398013
 20
35.90901823731189
 30
0.0
  0
SPLINE
  5
195
330
70
100
AcDbEntity
  8
0
 62
    18
420
        0
370
    25
100
AcDbSpline
210
0.0
220
0.0
230
1.0
 70
     8
 71
     3
 72
     8
 73
     4
 74
     0
 42
0.0000000001
 43
0.0000000001
 40
0.0
 40
0.0
 40
0.0
 40
0.0
 40
1.0
 40
1.0
 40
1.0
 40
1.0
 10
139.705639225864
 20
35.90901823731189
 30
0.0
 10
139.7096718267603
 20
35.49769294591377
 30
0.0
 10
140.0442581260582
 20
35.16637082514317
 30
0.0
 10
140.4556031846333
 20
35.16637082514317
 30
0.0
  0
LINE
  5
196
330
70
100
AcDbEntity
  8
0
 62
    18
420
        0
370
    25
100
AcDbLine
 10
119.712920082833
 20
95.79137082514346
 30
0.0
 11
119.712920082833
 21
68.29137082514346
 31
0.0
  0
LINE
  5
197
330
70
100
AcDbEntity
  8
0
 62
    18
420
        0
370
    25
100
AcDbLine
 10
122.7129200828325
 20
86.04137082514327
 30
0.0
 11
122.7129200828325
 21
78.04137082514363
 31
0.0
  0
LINE
  5
198
330
70
100
AcDbEntity
  8
0
 62
    18
420
        0
370
    25
100
AcDbLine
 10
173.9940000261325
 20
78.04137082514363
 30
0.0
 11
136.4318401359329
 21
78.04137082514363
 31
0.0
  0
LWPOLYLINE
  5
199
330
70
100
AcDbEntity
  8
0
 62
    18
420
        0
370
    25
100
AcDbPolyline
 90
        6
 70
     0
 43
0.0
 10
136.2853520641326
 20
78.29355245904334
 10
136.2738201036331
 20
78.1440982693439
 10
136.3241794266334
 20
78.07291855194351
 10
136.4062008225334
 20
78.0427540949438
 10
136.4302801298331
 20
78.04137570624343
 10
136.4318401359329
 20
78.04137082514363
  0
SPLINE
  5
19A
330
70
100
AcDbEntity
  8
0
 62
    18
420
        0
370
    25
100
AcDbSpline
210
0.0
220
0.0
230
1.0
 70
     8
 71
     3
 72
     8
 73
     4
 74
     0
 42
0.0000000001
 43
0.0000000001
 40
0.0
 40
0.0
 40
0.0
 40
0.0
 40
1.0
 40
1.0
 40
1.0
 40
1.0
 10
136.2853520641172
 20
78.29355245902665
 30
0.0
 10
136.5237347045187
 20
79.46605627598501
 30
0.0
 10
136.6561064677967
 20
80.65763569923035
 30
0.0
 10
136.6808654564803
 20
81.85387082515825
 30
0.0
  0
LINE
  5
19B
330
70
100
AcDbEntity
  8
0
 62
    18
420
        0
370
    25
100
AcDbLine
 10
136.6808436096325
 20
81.85387082514349
 30
0.0
 11
136.680865456533
 21
81.85387082514349
 31
0.0
  0
SPLINE
  5
19C
330
70
100
AcDbEntity
  8
0
 62
    18
420
        0
370
    25
100
AcDbSpline
210
0.0
220
0.0
230
1.0
 70
     8
 71
     3
 72
     8
 73
     4
 74
     0
 42
0.0000000001
 43
0.0000000001
 40
0.0
 40
0.0
 40
0.0
 40
0.0
 40
1.0
 40
1.0
 40
1.0
 40
1.0
 10
136.6808436096915
 20
81.85387082514413
 30
0.0
 10
136.6930521063565
 20
83.1756011416288
 30
0.0
 10
136.604276364815
 20
84.49633305614261
 30
0.0
 10
136.4152911860707
 20
85.80453972143649
 30
0.0
  0
LWPOLYLINE
  5
19D
330
70
100
AcDbEntity
  8
0
 62
    18
420
        0
370
    25
100
AcDbPolyline
 90
        5
 70
     0
 43
0.0
 10
136.5666971794322
 20
86.04137082514327
 10
136.5651371884329
 20
86.0413659440435
 10
136.5178719558324
 20
86.03606757294336
 10
136.414461735333
 20
85.95342369194392
 10
136.4152911860323
 20
85.80453972144354
  0
LINE
  5
19E
330
70
100
AcDbEntity
  8
0
 62
    18
420
        0
370
    25
100
AcDbLine
 10
136.5666971794322
 20
86.04137082514327
 30
0.0
 11
173.8591429862331
 21
86.04137082514327
 31
0.0
  0
SPLINE
  5
19F
330
70
100
AcDbEntity
  8
0
 62
    18
420
        0
370
    25
100
AcDbSpline
210
0.0
220
0.0
230
1.0
 70
     8
 71
     3
 72
     8
 73
     4
 74
     0
 42
0.0000000001
 43
0.0000000001
 40
0.0
 40
0.0
 40
0.0
 40
0.0
 40
1.0
 40
1.0
 40
1.0
 40
1.0
 10
136.2853520641596
 20
78.29355245904077
 30
0.0
 10
136.271068576406
 20
78.42013206409397
 30
0.0
 10
136.1641039608096
 20
78.51586047633816
 30
0.0
 10
136.0367211820085
 20
78.51606566540056
 30
0.0
  0
SPLINE
  5
1A0
330
70
100
AcDbEntity
  8
0
 62
    18
420
        0
370
    25
100
AcDbSpline
210
0.0
220
0.0
230
1.0
 70
     8
 71
     3
 72
     8
 73
     4
 74
     0
 42
0.0000000001
 43
0.0000000001
 40
0.0
 40
0.0
 40
0.0
 40
0.0
 40
1.0
 40
1.0
 40
1.0
 40
1.0
 10
136.0367211820227
 20
78.51606566532549
 30
0.0
 10
136.2779163930602
 20
79.61715646906816
 30
0.0
 10
136.4119714639625
 20
80.7390075823932
 30
0.0
 10
136.4370113769671
 20
81.8659277617634
 30
0.0
  0
SPLINE
  5
1A1
330
70
100
AcDbEntity
  8
0
 62
    18
420
        0
370
    25
100
AcDbSpline
210
0.0
220
0.0
230
1.0
 70
     8
 71
     3
 72
     8
 73
     4
 74
     0
 42
0.0000000001
 43
0.0000000001
 40
0.0
 40
0.0
 40
0.0
 40
0.0
 40
1.0
 40
1.0
 40
1.0
 40
1.0
 10
136.6808436321536
 20
81.85387309838352
 30
0.0
 10
136.5998281697485
 20
81.86208938440184
 30
0.0
 10
136.5184421954478
 20
81.86611297235399
 30
0.0
 10
136.4370113769465
 20
81.86592776176725
 30
0.0
  0
SPLINE
  5
1A2
330
70
100
AcDbEntity
  8
0
 62
    18
420
        0
370
    25
100
AcDbSpline
210
0.0
220
0.0
230
1.0
 70
     8
 71
     3
 72
     8
 73
     4
 74
     0
 42
0.0000000001
 43
0.0000000001
 40
0.0
 40
0.0
 40
0.0
 40
0.0
 40
1.0
 40
1.0
 40
1.0
 40
1.0
 10
136.4370113769491
 20
81.86592776178523
 30
0.0
 10
136.4488887107151
 20
83.11442837800909
 30
0.0
 10
136.3585621626112
 20
84.36180678283978
 30
0.0
 10
136.1669363081917
 20
85.59557110056221
 30
0.0
  0
SPLINE
  5
1A3
330
70
100
AcDbEntity
  8
0
 62
    18
420
        0
370
    25
100
AcDbSpline
210
0.0
220
0.0
230
1.0
 70
     8
 71
     3
 72
     8
 73
     4
 74
     0
 42
0.0000000001
 43
0.0000000001
 40
0.0
 40
0.0
 40
0.0
 40
0.0
 40
1.0
 40
1.0
 40
1.0
 40
1.0
 10
136.1669363081827
 20
85.59557110057955
 30
0.0
 10
136.2899610195137
 20
85.59435419235329
 30
0.0
 10
136.3954555795261
 20
85.68311851583768
 30
0.0
 10
136.4152911860438
 20
85.80453972147306
 30
0.0
  0
SPLINE
  5
1A4
330
70
100
AcDbEntity
  8
0
 62
    18
420
        0
370
    25
100
AcDbSpline
210
0.0
220
0.0
230
1.0
 70
     8
 71
     3
 72
    11
 73
     7
 74
     0
 42
0.0000000001
 43
0.0000000001
 40
0.0
 40
0.0
 40
0.0
 40
0.0
 40
1.0
 40
1.0
 40
1.0
 40
2.0
 40
2.0
 40
2.0
 40
2.0
 10
136.5666971793835
 20
86.04137082515098
 30
0.0
 10
136.3528648693549
 20
86.050584833672
 30
0.0
 10
136.1720501024451
 20
85.88470892622252
 30
0.0
 10
136.1628360939254
 20
85.67087661619401
 30
0.0
 10
136.1617512870569
 20
85.64570117185908
 30
0.0
 10
136.1631245260057
 20
85.62047993676753
 30
0.0
 10
136.1669363081583
 20
85.59557110057955
 30
0.0
  0
SPLINE
  5
1A5
330
70
100
AcDbEntity
  8
0
 62
    18
420
        0
370
    25
100
AcDbSpline
210
0.0
220
0.0
230
1.0
 70
     8
 71
     3
 72
    11
 73
     7
 74
     0
 42
0.0000000001
 43
0.0000000001
 40
0.0
 40
0.0
 40
0.0
 40
0.0
 40
1.0
 40
1.0
 40
1.0
 40
2.0
 40
2.0
 40
2.0
 40
2.0
 10
136.0367211819944
 20
78.51606566532227
 30
0.0
 10
135.9891781818664
 20
78.30659141645461
 30
0.0
 10
136.1204493957853
 20
78.09823776923315
 30
0.0
 10
136.3299236446543
 20
78.05069476910452
 30
0.0
 10
136.3633368115363
 20
78.04311120116768
 30
0.0
 10
136.3976055784959
 20
78.03997608475367
 30
0.0
 10
136.4318401359368
 20
78.04137082508844
 30
0.0
  0
LWPOLYLINE
  5
1A6
330
70
100
AcDbEntity
  8
0
 62
    18
420
        0
370
    25
100
AcDbPolyline
 90
        8
 70
     0
 43
0.0
 10
160.0200185183324
 20
113.0345886096436
 10
160.0743535217325
 20
112.8143626283435
 10
160.0991345814326
 20
112.7247419691437
 10
160.119583484533
 20
112.6546030429435
 10
160.1359140801326
 20
112.6007201570435
 10
160.1469556410329
 20
112.5652509183436
 10
160.1517068401331
 20
112.5502115744436
 10
160.1513890905331
 20
112.5512138706437
  0
LWPOLYLINE
  5
1A7
330
70
100
AcDbEntity
  8
0
 62
    18
420
        0
370
    25
100
AcDbPolyline
 90
       24
 70
     0
 43
0.0
 10
160.1248690896333
 20
115.5972574270434
 10
160.1252461097329
 20
115.5985094666435
 10
160.1212696823326
 20
115.5852707732436
 10
160.1120611806327
 20
115.5541870403434
 10
160.0978579665323
 20
115.5049987878436
 10
160.0800768441332
 20
115.4410604721435
 10
160.0587207060325
 20
115.3602627744435
 10
160.0347560930327
 20
115.2633057115435
 10
160.0094702188333
 20
115.1517949962434
 10
159.9836815456329
 20
115.0247788071435
 10
159.9588604300328
 20
114.8837027872434
 10
159.9475602388325
 20
114.8103197587435
 10
159.937060436833
 20
114.7345494514434
 10
159.9186946372332
 20
114.5732411216437
 10
159.9052059858327
 20
114.4022360891437
 10
159.898111809033
 20
114.2386637528437
 10
159.8967782333324
 20
114.0693529531435
 10
159.9016809198329
 20
113.8975034506437
 10
159.9117277738322
 20
113.7395728869436
 10
159.9269317713333
 20
113.5826619209435
 10
159.9467109447328
 20
113.4297315269437
 10
159.9630875090334
 20
113.3247772100434
 10
160.0001540124325
 20
113.1265136895435
 10
160.0200185183324
 20
113.0345886096436
  0
LINE
  5
1A8
330
70
100
AcDbEntity
  8
0
 62
    18
420
        0
370
    25
100
AcDbLine
 10
155.2129200828327
 20
105.5741298049435
 30
0.0
 11
160.2129200828322
 21
105.5741298049435
 31
0.0
  0
LINE
  5
1A9
330
70
100
AcDbEntity
  8
0
 62
    18
420
        0
370
    25
100
AcDbLine
 10
150.2129200828331
 20
105.5741298049435
 30
0.0
 11
155.2129200828327
 21
105.5741298049435
 31
0.0
  0
LINE
  5
1AA
330
70
100
AcDbEntity
  8
0
 62
    18
420
        0
370
    25
100
AcDbLine
 10
179.4379200828323
 20
115.5741298049435
 30
0.0
 11
179.4379200828323
 21
112.5741298049434
 31
0.0
  0
LINE
  5
1AB
330
70
100
AcDbEntity
  8
0
 62
    18
420
        0
370
    25
100
AcDbLine
 10
161.9629200828327
 20
92.41637082514342
 30
0.0
 11
148.4629200828326
 21
92.41637082514342
 31
0.0
  0
LINE
  5
1AC
330
70
100
AcDbEntity
  8
0
 62
    18
420
        0
370
    25
100
AcDbLine
 10
159.592527955133
 20
92.56637082514359
 30
0.0
 11
147.4642291130322
 21
92.56637082514359
 31
0.0
  0
LINE
  5
1AD
330
70
100
AcDbEntity
  8
0
 62
    18
420
        0
370
    25
100
AcDbLine
 10
162.9616110526332
 20
92.56637082514359
 30
0.0
 11
159.592527955133
 21
92.56637082514359
 31
0.0
  0
LINE
  5
1AE
330
70
100
AcDbEntity
  8
0
 62
    18
420
        0
370
    25
100
AcDbLine
 10
173.6293631846327
 20
91.16637082514355
 30
0.0
 11
136.7964769804333
 21
91.16637082514355
 31
0.0
  0
LINE
  5
1AF
330
70
100
AcDbEntity
  8
0
 62
    18
420
        0
370
    25
100
AcDbLine
 10
173.5900922789332
 20
86.16637082514369
 30
0.0
 11
136.8357478854333
 21
86.16637082514369
 31
0.0
  0
LINE
  5
1B0
330
70
100
AcDbEntity
  8
0
 62
    18
420
        0
370
    25
100
AcDbLine
 10
169.9702369717325
 20
35.16637082514317
 30
0.0
 11
140.4556031846333
 21
35.16637082514317
 31
0.0
  0
LINE
  5
1B1
330
70
100
AcDbEntity
  8
0
 62
     8
420
  8421504
370
    25
100
AcDbLine
 10
121.8928450604334
 20
82.04137082514312
 30
0.0
 11
121.8928450604334
 21
95.79137082514346
 31
0.0
  0
LINE
  5
1B2
330
70
100
AcDbEntity
  8
0
 62
     8
420
  8421504
370
    25
100
AcDbLine
 10
121.8928450604334
 20
68.29137082514346
 30
0.0
 11
121.8928450604334
 21
82.04137082514312
 31
0.0
  0
LINE
  5
1B3
330
70
100
AcDbEntity
  8
0
 62
     8
420
  8421504
370
    25
100
AcDbLine
 10
122.3921394951334
 20
82.04137082514312
 30
0.0
 11
122.3921394951334
 21
68.76481771894366
 31
0.0
  0
LINE
  5
1B4
330
70
100
AcDbEntity
  8
0
 62
     8
420
  8421504
370
    25
100
AcDbLine
 10
122.3921394951334
 20
95.31792393134358
 30
0.0
 11
122.3921394951334
 21
82.04137082514312
 31
0.0
  0
LINE
  5
1B5
330
70
100
AcDbEntity
  8
0
 62
     8
420
  8421504
370
    25
100
AcDbLine
 10
136.2853520641326
 20
78.29355245904334
 30
0.0
 11
174.2439905105323
 21
78.29355245904334
 31
0.0
  0
LINE
  5
1B6
330
70
100
AcDbEntity
  8
0
 62
     8
420
  8421504
370
    25
100
AcDbLine
 10
136.680865456533
 20
81.85387082514349
 30
0.0
 11
174.2129200828327
 21
81.85387082514349
 31
0.0
  0
LINE
  5
1B7
330
70
100
AcDbEntity
  8
0
 62
     8
420
  8421504
370
    25
100
AcDbLine
 10
174.1087959056322
 20
85.80453972144354
 30
0.0
 11
136.4152911860323
 21
85.80453972144354
 31
0.0
  0
LINE
  5
1B8
330
70
100
AcDbEntity
  8
0
 62
     8
420
  8421504
370
    25
100
AcDbLine
 10
155.2129200828327
 20
117.2437815792436
 30
0.0
 11
160.1110805746331
 21
117.2437815792436
 31
0.0
  0
LINE
  5
1B9
330
70
100
AcDbEntity
  8
0
 62
     8
420
  8421504
370
    25
100
AcDbLine
 10
150.3147595910322
 20
117.2437815792436
 30
0.0
 11
155.2129200828327
 21
117.2437815792436
 31
0.0
  0
LINE
  5
1BA
330
70
100
AcDbEntity
  8
0
 62
     8
420
  8421504
370
    25
100
AcDbLine
 10
155.2129200828327
 20
117.3424455572435
 30
0.0
 11
160.0206999420332
 21
117.3424455572435
 31
0.0
  0
LINE
  5
1BB
330
70
100
AcDbEntity
  8
0
 62
     8
420
  8421504
370
    25
100
AcDbLine
 10
150.4051402236334
 20
117.3424455572435
 30
0.0
 11
155.2129200828327
 21
117.3424455572435
 31
0.0
  0
LINE
  5
1BC
330
70
100
AcDbEntity
  8
0
 62
     8
420
  8421504
370
    25
100
AcDbLine
 10
145.5727941010334
 20
91.68300535774372
 30
0.0
 11
138.2129200828327
 21
91.68300535774372
 31
0.0
  0
LINE
  5
1BD
330
70
100
AcDbEntity
  8
0
 62
     8
420
  8421504
370
    25
100
AcDbLine
 10
172.2129200828326
 20
91.68300535774372
 30
0.0
 11
145.5727941010334
 21
91.68300535774372
 31
0.0
  0
LINE
  5
1BE
330
70
100
AcDbEntity
  8
0
 62
     8
420
  8421504
370
    25
100
AcDbLine
 10
138.4458499400333
 20
91.93242189734345
 30
0.0
 11
171.9799902255333
 21
91.93242189734345
 31
0.0
  0
LINE
  5
1BF
330
70
100
AcDbEntity
  8
0
 62
     8
420
  8421504
370
    25
100
AcDbLine
 10
145.5727941010334
 20
91.26637082514355
 30
0.0
 11
172.2129200828326
 21
91.26637082514355
 31
0.0
  0
LINE
  5
1C0
330
70
100
AcDbEntity
  8
0
 62
     8
420
  8421504
370
    25
100
AcDbLine
 10
138.2129200828327
 20
91.26637082514355
 30
0.0
 11
145.5727941010334
 21
91.26637082514355
 31
0.0
  0
LINE
  5
1C1
330
70
100
AcDbEntity
  8
0
 62
     8
420
  8421504
370
    25
100
AcDbLine
 10
159.5592696186324
 20
99.30909259944359
 30
0.0
 11
147.5230719544329
 21
99.30909259944359
 31
0.0
  0
LINE
  5
1C2
330
70
100
AcDbEntity
  8
0
 62
     8
420
  8421504
370
    25
100
AcDbLine
 10
162.9027682111323
 20
99.30909259944359
 30
0.0
 11
159.5592696186324
 21
99.30909259944359
 31
0.0
  0
LINE
  5
1C3
330
70
100
AcDbEntity
  8
0
 62
     8
420
  8421504
370
    25
100
AcDbLine
 10
147.7606613865334
 20
99.55660320404369
 30
0.0
 11
162.6651787791332
 21
99.55660320404369
 31
0.0
  0
LINE
  5
1C4
330
70
100
AcDbEntity
  8
0
 62
     8
420
  8421504
370
    25
100
AcDbLine
 10
159.7600980836324
 20
99.6585834664437
 30
0.0
 11
150.6657420820329
 21
99.6585834664437
 31
0.0
  0
LINE
  5
1C5
330
70
100
AcDbEntity
  8
0
 62
     8
420
  8421504
370
    25
100
AcDbLine
 10
151.1554463495328
 20
100.1541145770435
 30
0.0
 11
159.2703938161325
 21
100.1541145770435
 31
0.0
  0
LINE
  5
1C6
330
70
100
AcDbEntity
  8
0
 62
     8
420
  8421504
370
    25
100
AcDbLine
 10
173.8793536660332
 20
90.9141891912435
 30
0.0
 11
136.5464864996322
 21
90.9141891912435
 31
0.0
  0
LINE
  5
1C7
330
70
100
AcDbEntity
  8
0
 62
     8
420
  8421504
370
    25
100
AcDbLine
 10
173.840082760933
 20
86.41418919124367
 30
0.0
 11
136.5857574047323
 21
86.41418919124367
 31
0.0
  0
LINE
  5
1C8
330
70
100
AcDbEntity
  8
0
 62
     8
420
  8421504
370
    25
100
AcDbLine
 10
170.7202009398334
 20
35.90901823734397
 30
0.0
 11
139.7056392258333
 21
35.90901823734397
 31
0.0
  0
INSERT
  5
1CB
330
70
100
AcDbEntity
  8
CAPA_BASE
100
AcDbBlockReference
  2
Block_0
 10
0.0
 20
0.0
 30
0.0
  0
INSERT
  5
1D8
330
70
100
AcDbEntity
  8
CAPA_BASE
100
AcDbBlockReference
  2
Block_1
 10
0.0
 20
0.0
 30
0.0
  0
INSERT
  5
1E4
330
70
100
AcDbEntity
  8
CAPA_BASE
100
AcDbBlockReference
  2
Block_2
 10
0.0
 20
0.0
 30
0.0
  0
ENDSEC
  0
SECTION
  2
OBJECTS
  0
DICTIONARY
  5
C
330
0
100
AcDbDictionary
281
     1
  3
ACAD_COLOR
350
63
  3
ACAD_DETAILVIEWSTYLE
350
6A
  3
ACAD_GROUP
350
D
  3
ACAD_LAYOUT
350
62
  3
ACAD_MATERIAL
350
10
  3
ACAD_MLEADERSTYLE
350
66
  3
ACAD_MLINESTYLE
350
5F
  3
ACAD_PLOTSETTINGS
350
61
  3
ACAD_PLOTSTYLENAME
350
E
  3
ACAD_SCALELIST
350
42
  3
ACAD_SECTIONVIEWSTYLE
350
68
  3
ACAD_TABLESTYLE
350
64
  3
ACAD_VISUALSTYLE
350
29
  3
ACDB_RECOMPOSE_DATA
350
1F7
  3
AcDbVariableDictionary
350
1EF
  0
DICTIONARY
  5
63
102
{ACAD_REACTORS
330
C
102
}
330
C
100
AcDbDictionary
281
     1
  0
DICTIONARY
  5
6A
102
{ACAD_REACTORS
330
C
102
}
330
C
100
AcDbDictionary
281
     1
  3
Imperial24
350
6B
  0
DICTIONARY
  5
D
102
{ACAD_REACTORS
330
C
102
}
330
C
100
AcDbDictionary
281
     1
  0
DICTIONARY
  5
62
102
{ACAD_REACTORS
330
C
102
}
330
C
100
AcDbDictionary
281
     1
  3
Layout1
350
6F
  3
Layout2
350
77
  3
Model
350
73
  0
DICTIONARY
  5
10
102
{ACAD_REACTORS
330
C
102
}
330
C
100
AcDbDictionary
281
     1
  3
ByBlock
350
19
  3
ByLayer
350
11
  3
Global
350
21
  0
DICTIONARY
  5
66
102
{ACAD_REACTORS
330
C
102
}
330
C
100
AcDbDictionary
281
     1
  3
Standard
350
67
  0
DICTIONARY
  5
5F
102
{ACAD_REACTORS
330
C
102
}
330
C
100
AcDbDictionary
281
     1
  3
Standard
350
60
  0
DICTIONARY
  5
61
102
{ACAD_REACTORS
330
C
102
}
330
C
100
AcDbDictionary
281
     1
  0
ACDBDICTIONARYWDFLT
  5
E
102
{ACAD_REACTORS
330
C
102
}
330
C
100
AcDbDictionary
281
     1
  3
Normal
350
F
100
AcDbDictionaryWithDefault
340
F
  0
DICTIONARY
  5
42
102
{ACAD_REACTORS
330
C
102
}
330
C
100
AcDbDictionary
281
     1
  3
A0
350
43
  3
A1
350
44
  3
A2
350
45
  3
A3
350
46
  3
A4
350
47
  3
A5
350
48
  3
A6
350
49
  3
A7
350
4A
  3
A8
350
4B
  3
A9
350
4C
  3
B0
350
4D
  3
B1
350
4E
  3
B2
350
4F
  3
B3
350
50
  3
B4
350
51
  3
B5
350
52
  3
B6
350
53
  0
DICTIONARY
  5
68
102
{ACAD_REACTORS
330
C
102
}
330
C
100
AcDbDictionary
281
     1
  3
Imperial24
350
69
  0
DICTIONARY
  5
64
102
{ACAD_REACTORS
330
C
102
}
330
C
100
AcDbDictionary
281
     1
  3
Standard
350
65
  0
DICTIONARY
  5
29
102
{ACAD_REACTORS
330
C
102
}
330
C
100
AcDbDictionary
281
     1
  3
2dWireframe
350
2F
  3
Basic
350
2E
  3
Brighten
350
35
  3
ColorChange
350
39
  3
Conceptual
350
32
  3
Dim
350
34
  3
EdgeColorOff
350
41
  3
Facepattern
350
38
  3
Flat
350
2A
  3
FlatWithEdges
350
2B
  3
Gouraud
350
2C
  3
GouraudWithEdges
350
2D
  3
Hidden
350
31
  3
JitterOff
350
3F
  3
Linepattern
350
37
  3
OverhangOff
350
40
  3
Realistic
350
33
  3
Shaded
350
3E
  3
Shaded with edges
350
3D
  3
Shades of Gray
350
3A
  3
Sketchy
350
3B
  3
Thicken
350
36
  3
Wireframe
350
30
  3
X-Ray
350
3C
  0
XRECORD
  5
1F7
102
{ACAD_REACTORS
330
C
102
}
330
C
100
AcDbXrecord
280
     1
 90
        1
330
65
  0
DICTIONARY
  5
1EF
102
{ACAD_REACTORS
330
C
102
}
330
C
100
AcDbDictionary
281
     1
  3
CANNOSCALE
350
1F4
  3
CMLEADERSTYLE
350
1F1
  3
CTABLESTYLE
350
1F0
  3
CVIEWDETAILSTYLE
350
1F2
  3
CVIEWSECTIONSTYLE
350
1F3
  0
ACDBDETAILVIEWSTYLE
  5
6B
102
{ACAD_REACTORS
330
6A
102
}
330
6A
100
AcDbModelDocViewStyle
 70
     0
  3
Imperial24
290
     1
300
Imperial24
 90
        0
100
AcDbDetailViewStyle
 70
     0
 71
     0
 90
        3
 71
     1
340
55
 62
   256
 40
0.24
340
0
 62
   256
 40
0.24
300

 40
0.36
280
     3
 71
     2
340
5D
 90
       25
 62
   256
 71
     3
340
55
 62
   256
 40
0.24
 90
        1
 40
0.75
 90
        1
300
%<\AcVar ViewType \f "%tc1">% %<\AcVar ViewDetailId>%\PSCALE %<\AcVar ViewScale \f "%sn">%
 71
     4
340
5D
 90
       25
 62
   256
340
5D
 90
       25
 62
   256
280
     0
  0
LAYOUT
  5
6F
102
{ACAD_REACTORS
330
62
102
}
330
62
100
AcDbPlotSettings
  1

  2

  4

  6

 40
0.0
 41
0.0
 42
0.0
 43
0.0
 44
0.0
 45
0.0
 46
0.0
 47
0.0
 48
0.0
 49
0.0
140
0.0
141
0.0
142
1.0
143
1.0
 70
   688
 72
     0
 73
     0
 74
     5
  7

 75
    16
147
1.0
 76
     0
 77
     2
 78
   300
148
0.0
149
0.0
100
AcDbLayout
  1
Layout1
 70
     1
 71
     1
 10
0.0
 20
0.0
 11
12.0
 21
9.0
 12
0.0
 22
0.0
 32
0.0
 14
0.0
 24
0.0
 34
0.0
 15
0.0
 25
0.0
 35
0.0
146
0.0
 13
0.0
 23
0.0
 33
0.0
 16
1.0
 26
0.0
 36
0.0
 17
0.0
 27
1.0
 37
0.0
 76
     0
330
6C
  0
LAYOUT
  5
77
102
{ACAD_REACTORS
330
62
102
}
330
62
100
AcDbPlotSettings
  1

  2

  4

  6

 40
0.0
 41
0.0
 42
0.0
 43
0.0
 44
0.0
 45
0.0
 46
0.0
 47
0.0
 48
0.0
 49
0.0
140
0.0
141
0.0
142
1.0
143
1.0
 70
   688
 72
     0
 73
     0
 74
     5
  7

 75
    16
147
1.0
 76
     0
 77
     2
 78
   300
148
0.0
149
0.0
100
AcDbLayout
  1
Layout2
 70
     1
 71
     2
 10
0.0
 20
0.0
 11
12.0
 21
9.0
 12
0.0
 22
0.0
 32
0.0
 14
0.0
 24
0.0
 34
0.0
 15
0.0
 25
0.0
 35
0.0
146
0.0
 13
0.0
 23
0.0
 33
0.0
 16
1.0
 26
0.0
 36
0.0
 17
0.0
 27
1.0
 37
0.0
 76
     0
330
74
  0
LAYOUT
  5
73
102
{ACAD_REACTORS
330
62
102
}
330
62
100
AcDbPlotSettings
  1

  2

  4

  6

 40
0.0
 41
0.0
 42
0.0
 43
0.0
 44
0.0
 45
0.0
 46
0.0
 47
0.0
 48
0.0
 49
0.0
140
0.0
141
0.0
142
1.0
143
1.0
 70
  1712
 72
     0
 73
     0
 74
     0
  7

 75
     0
147
1.0
 76
     0
 77
     2
 78
   300
148
0.0
149
0.0
100
AcDbLayout
  1
Model
 70
     1
 71
     0
 10
0.0
 20
0.0
 11
12.0
 21
9.0
 12
0.0
 22
0.0
 32
0.0
 14
0.0
 24
0.0
 34
0.0
 15
0.0
 25
0.0
 35
0.0
146
0.0
 13
0.0
 23
0.0
 33
0.0
 16
1.0
 26
0.0
 36
0.0
 17
0.0
 27
1.0
 37
0.0
 76
     0
330
70
  0
MATERIAL
  5
19
102
{ACAD_XDICTIONARY
360
1A
102
}
102
{ACAD_REACTORS
330
10
102
}
330
10
100
AcDbMaterial
  1
ByBlock
 72
     0
 43
0.0208333333333333
 43
0.0
 43
0.0
 43
0.0
 43
0.0
 43
0.0208333333333333
 43
0.0
 43
0.0
 43
0.0
 43
0.0
 43
1.0
 43
0.0
 43
0.0
 43
0.0
 43
0.0
 43
1.0
 77
     0
 47
0.0208333333333333
 47
0.0
 47
0.0
 47
0.0
 47
0.0
 47
0.0208333333333333
 47
0.0
 47
0.0
 47
0.0
 47
0.0
 47
1.0
 47
0.0
 47
0.0
 47
0.0
 47
0.0
 47
1.0
171
     0
 49
0.0208333333333333
 49
0.0
 49
0.0
 49
0.0
 49
0.0
 49
0.0208333333333333
 49
0.0
 49
0.0
 49
0.0
 49
0.0
 49
1.0
 49
0.0
 49
0.0
 49
0.0
 49
0.0
 49
1.0
175
     0
142
0.0208333333333333
142
0.0
142
0.0
142
0.0
142
0.0
142
0.0208333333333333
142
0.0
142
0.0
142
0.0
142
0.0
142
1.0
142
0.0
142
0.0
142
0.0
142
0.0
142
1.0
179
     0
144
0.0208333333333333
144
0.0
144
0.0
144
0.0
144
0.0
144
0.0208333333333333
144
0.0
144
0.0
144
0.0
144
0.0
144
1.0
144
0.0
144
0.0
144
0.0
144
0.0
144
1.0
147
0.0208333333333333
147
0.0
147
0.0
147
0.0
147
0.0
147
0.0208333333333333
147
0.0
147
0.0
147
0.0
147
0.0
147
1.0
147
0.0
147
0.0
147
0.0
147
0.0
147
1.0
  0
MATERIAL
  5
11
102
{ACAD_XDICTIONARY
360
12
102
}
102
{ACAD_REACTORS
330
10
102
}
330
10
100
AcDbMaterial
  1
ByLayer
 72
     0
 43
0.0208333333333333
 43
0.0
 43
0.0
 43
0.0
 43
0.0
 43
0.0208333333333333
 43
0.0
 43
0.0
 43
0.0
 43
0.0
 43
1.0
 43
0.0
 43
0.0
 43
0.0
 43
0.0
 43
1.0
 77
     0
 47
0.0208333333333333
 47
0.0
 47
0.0
 47
0.0
 47
0.0
 47
0.0208333333333333
 47
0.0
 47
0.0
 47
0.0
 47
0.0
 47
1.0
 47
0.0
 47
0.0
 47
0.0
 47
0.0
 47
1.0
171
     0
 49
0.0208333333333333
 49
0.0
 49
0.0
 49
0.0
 49
0.0
 49
0.0208333333333333
 49
0.0
 49
0.0
 49
0.0
 49
0.0
 49
1.0
 49
0.0
 49
0.0
 49
0.0
 49
0.0
 49
1.0
175
     0
142
0.0208333333333333
142
0.0
142
0.0
142
0.0
142
0.0
142
0.0208333333333333
142
0.0
142
0.0
142
0.0
142
0.0
142
1.0
142
0.0
142
0.0
142
0.0
142
0.0
142
1.0
179
     0
144
0.0208333333333333
144
0.0
144
0.0
144
0.0
144
0.0
144
0.0208333333333333
144
0.0
144
0.0
144
0.0
144
0.0
144
1.0
144
0.0
144
0.0
144
0.0
144
0.0
144
1.0
147
0.0208333333333333
147
0.0
147
0.0
147
0.0
147
0.0
147
0.0208333333333333
147
0.0
147
0.0
147
0.0
147
0.0
147
1.0
147
0.0
147
0.0
147
0.0
147
0.0
147
1.0
  0
MATERIAL
  5
21
102
{ACAD_XDICTIONARY
360
22
102
}
102
{ACAD_REACTORS
330
10
102
}
330
10
100
AcDbMaterial
  1
Global
 72
     0
 43
0.0208333333333333
 43
0.0
 43
0.0
 43
0.0
 43
0.0
 43
0.0208333333333333
 43
0.0
 43
0.0
 43
0.0
 43
0.0
 43
1.0
 43
0.0
 43
0.0
 43
0.0
 43
0.0
 43
1.0
 77
     0
 47
0.0208333333333333
 47
0.0
 47
0.0
 47
0.0
 47
0.0
 47
0.0208333333333333
 47
0.0
 47
0.0
 47
0.0
 47
0.0
 47
1.0
 47
0.0
 47
0.0
 47
0.0
 47
0.0
 47
1.0
171
     0
 49
0.0208333333333333
 49
0.0
 49
0.0
 49
0.0
 49
0.0
 49
0.0208333333333333
 49
0.0
 49
0.0
 49
0.0
 49
0.0
 49
1.0
 49
0.0
 49
0.0
 49
0.0
 49
0.0
 49
1.0
175
     0
142
0.0208333333333333
142
0.0
142
0.0
142
0.0
142
0.0
142
0.0208333333333333
142
0.0
142
0.0
142
0.0
142
0.0
142
1.0
142
0.0
142
0.0
142
0.0
142
0.0
142
1.0
179
     0
144
0.0208333333333333
144
0.0
144
0.0
144
0.0
144
0.0
144
0.0208333333333333
144
0.0
144
0.0
144
0.0
144
0.0
144
1.0
144
0.0
144
0.0
144
0.0
144
0.0
144
1.0
147
0.0208333333333333
147
0.0
147
0.0
147
0.0
147
0.0
147
0.0208333333333333
147
0.0
147
0.0
147
0.0
147
0.0
147
1.0
147
0.0
147
0.0
147
0.0
147
0.0
147
1.0
  0
MLEADERSTYLE
  5
67
102
{ACAD_REACTORS
330
66
102
}
330
66
100
AcDbMLeaderStyle
179
     2
170
     2
171
     1
172
     0
 90
        2
 40
0.0
 41
0.0
173
     1
 91
-1056964608
340
5B
 92
       -2
290
     1
 42
0.09
291
     1
 43
0.36
  3
Standard
 44
0.18
300

342
55
174
     1
178
     6
175
     1
176
     0
 93
-1056964608
 45
0.18
292
     0
297
     0
 46
0.18
 94
-1056964608
 47
1.0
 49
1.0
140
1.0
293
     1
141
0.0
294
     1
177
     0
142
1.0
295
     1
296
     0
143
0.125
271
     0
272
     9
273
     9
298
     1
  0
MLINESTYLE
  5
60
102
{ACAD_REACTORS
330
5F
102
}
330
5F
100
AcDbMlineStyle
  2
STANDARD
 70
     0
  3

 62
   256
 51
90.0
 52
90.0
 71
     2
 49
0.5
 62
   256
  6
BYLAYER
 49
-0.5
 62
   256
  6
BYLAYER
  0
ACDBPLACEHOLDER
  5
F
102
{ACAD_REACTORS
330
E
102
}
330
E
  0
SCALE
  5
43
102
{ACAD_REACTORS
330
42
102
}
330
42
100
AcDbScale
 70
     0
300
1:1
140
1.0
141
1.0
290
     1
  0
SCALE
  5
44
102
{ACAD_REACTORS
330
42
102
}
330
42
100
AcDbScale
 70
     0
300
1/128" = 1'-0"
140
0.0078125
141
12.0
290
     0
  0
SCALE
  5
45
102
{ACAD_REACTORS
330
42
102
}
330
42
100
AcDbScale
 70
     0
300
1/64" = 1'-0"
140
0.015625
141
12.0
290
     0
  0
SCALE
  5
46
102
{ACAD_REACTORS
330
42
102
}
330
42
100
AcDbScale
 70
     0
300
1/32" = 1'-0"
140
0.03125
141
12.0
290
     0
  0
SCALE
  5
47
102
{ACAD_REACTORS
330
42
102
}
330
42
100
AcDbScale
 70
     0
300
1/16" = 1'-0"
140
0.0625
141
12.0
290
     0
  0
SCALE
  5
48
102
{ACAD_REACTORS
330
42
102
}
330
42
100
AcDbScale
 70
     0
300
3/32" = 1'-0"
140
0.09375
141
12.0
290
     0
  0
SCALE
  5
49
102
{ACAD_REACTORS
330
42
102
}
330
42
100
AcDbScale
 70
     0
300
1/8" = 1'-0"
140
0.125
141
12.0
290
     0
  0
SCALE
  5
4A
102
{ACAD_REACTORS
330
42
102
}
330
42
100
AcDbScale
 70
     0
300
3/16" = 1'-0"
140
0.1875
141
12.0
290
     0
  0
SCALE
  5
4B
102
{ACAD_REACTORS
330
42
102
}
330
42
100
AcDbScale
 70
     0
300
1/4" = 1'-0"
140
0.25
141
12.0
290
     0
  0
SCALE
  5
4C
102
{ACAD_REACTORS
330
42
102
}
330
42
100
AcDbScale
 70
     0
300
3/8" = 1'-0"
140
0.375
141
12.0
290
     0
  0
SCALE
  5
4D
102
{ACAD_REACTORS
330
42
102
}
330
42
100
AcDbScale
 70
     0
300
1/2" = 1'-0"
140
0.5
141
12.0
290
     0
  0
SCALE
  5
4E
102
{ACAD_REACTORS
330
42
102
}
330
42
100
AcDbScale
 70
     0
300
3/4" = 1'-0"
140
0.75
141
12.0
290
     0
  0
SCALE
  5
4F
102
{ACAD_REACTORS
330
42
102
}
330
42
100
AcDbScale
 70
     0
300
1" = 1'-0"
140
1.0
141
12.0
290
     0
  0
SCALE
  5
50
102
{ACAD_REACTORS
330
42
102
}
330
42
100
AcDbScale
 70
     0
300
1-1/2" = 1'-0"
140
1.5
141
12.0
290
     0
  0
SCALE
  5
51
102
{ACAD_REACTORS
330
42
102
}
330
42
100
AcDbScale
 70
     0
300
3" = 1'-0"
140
3.0
141
12.0
290
     0
  0
SCALE
  5
52
102
{ACAD_REACTORS
330
42
102
}
330
42
100
AcDbScale
 70
     0
300
6" = 1'-0"
140
6.0
141
12.0
290
     0
  0
SCALE
  5
53
102
{ACAD_REACTORS
330
42
102
}
330
42
100
AcDbScale
 70
     0
300
1'-0" = 1'-0"
140
12.0
141
12.0
290
     0
  0
ACDBSECTIONVIEWSTYLE
  5
69
102
{ACAD_REACTORS
330
68
102
}
330
68
100
AcDbModelDocViewStyle
 70
     0
  3
Imperial24
290
     1
300
Imperial24
 90
        0
100
AcDbSectionViewStyle
 70
     0
 71
     0
 90
       78
 71
     1
340
55
 62
   256
 40
0.24
340
0
340
0
 62
   256
 40
0.24
300
I, O, Q, S, X, Z
 40
0.48
 90
        3
 40
0.18
 90
        1
 71
     2
340
5D
 90
       25
 62
   256
340
5D
 90
       50
 62
   256
 40
0.24
 40
0.0
 40
0.24
 71
     3
340
55
 62
   256
 40
0.24
 90
        1
 40
0.75
 90
        1
300
%<\AcVar ViewType \f "%tc1">% %<\AcVar ViewSectionStartId>%-%<\AcVar ViewSectionEndId>%\PSCALE %<\AcVar ViewScale \f "%sn">%
 71
     4
 62
   256
 62
   257
300
ANSI31
 40
1.0
 90
        0
290
     0
290
     0
 90
        6
 40
0.0
 40
1.570796326794896
 40
0.2617993877991494
 40
1.308996938995747
 40
-0.2617993877991494
 40
1.832595714594046
  0
TABLESTYLE
  5
65
102
{ACAD_XDICTIONARY
360
1F5
102
}
102
{ACAD_REACTORS
330
64
102
}
330
64
100
AcDbTableStyle
280
     0
  3
Standard
 70
     0
 71
     0
 40
0.06
 41
0.06
280
     0
281
     0
  7
Standard
140
0.18
170
     2
 62
     0
 63
     7
283
     0
 90
      512
 91
        0
  1

274
    -2
284
     1
 64
     0
275
    -2
285
     1
 65
     0
276
    -2
286
     1
 66
     0
277
    -2
287
     1
 67
     0
278
    -2
288
     1
 68
     0
279
    -2
289
     1
 69
     0
  7
Standard
140
0.25
170
     5
 62
     0
 63
     7
283
     0
 90
      512
 91
        0
  1

274
    -2
284
     1
 64
     0
275
    -2
285
     1
 65
     0
276
    -2
286
     1
 66
     0
277
    -2
287
     1
 67
     0
278
    -2
288
     1
 68
     0
279
    -2
289
     1
 69
     0
  7
Standard
140
0.18
170
     5
 62
     0
 63
     7
283
     0
 90
      512
 91
        0
  1

274
    -2
284
     1
 64
     0
275
    -2
285
     1
 65
     0
276
    -2
286
     1
 66
     0
277
    -2
287
     1
 67
     0
278
    -2
288
     1
 68
     0
279
    -2
289
     1
 69
     0
  0
VISUALSTYLE
  5
2F
102
{ACAD_REACTORS
330
29
102
}
330
29
100
AcDbVisualStyle
  2
2dWireframe
 70
     4
177
     3
291
     0
 70
    58
 90
        0
176
     1
 90
        2
176
     1
 90
        0
176
     1
 90
        0
176
     1
 40
0.6
176
     1
 40
30.0
176
     1
 62
     7
420
 16777215
176
     1
 90
        1
176
     1
 90
        4
176
     1
 62
     7
176
     1
 62
   257
176
     1
 90
        1
176
     1
 90
        1
176
     1
 40
1.0
176
     1
 90
        0
176
     1
 62
   257
176
     1
 40
1.0
176
     1
 90
        1
176
     1
 90
        6
176
     1
 90
        2
176
     1
 62
     7
176
     1
 90
        5
176
     1
 90
        0
176
     1
 90
        0
176
     1
290
     0
176
     1
 90
        1
176
     1
 40
0.0
176
     1
 90
        0
176
     1
290
     1
176
     1
290
     1
176
     1
290
     0
176
     1
290
     0
176
     1
290
     0
176
     1
290
     0
176
     1
290
     0
176
     1
290
     0
176
     1
290
     0
176
     1
 90
       50
176
     1
 40
0.0
176
     1
 40
1.0
176
     1
 90
        0
176
     1
 62
    18
420
        0
176
     1
 90
       50
176
     1
 90
        3
176
     1
 62
     5
420
      255
176
     1
290
     0
176
     1
 90
       50
176
     1
 90
       50
176
     1
 90
       50
176
     1
290
     0
176
     1
 90
       50
176
     1
 62
   256
176
     0
 40
1.0
176
     0
 90
        2
176
     1
  1
strokes_ogs.tif
176
     1
290
     0
176
     1
 40
1.0
176
     1
 40
1.0
176
     1
  0
VISUALSTYLE
  5
2E
102
{ACAD_REACTORS
330
29
102
}
330
29
100
AcDbVisualStyle
  2
Basic
 70
     7
177
     3
291
     1
 70
    58
 90
        1
176
     1
 90
        0
176
     1
 90
        1
176
     1
 90
        0
176
     1
 40
0.6
176
     1
 40
30.0
176
     1
 62
     7
420
 16777215
176
     1
 90
        0
176
     1
 90
        4
176
     1
 62
     7
176
     1
 62
   257
176
     1
 90
        1
176
     1
 90
        1
176
     1
 40
1.0
176
     1
 90
        8
176
     1
 62
     7
176
     1
 40
1.0
176
     1
 90
        1
176
     1
 90
        6
176
     1
 90
        2
176
     1
 62
     7
176
     1
 90
        5
176
     1
 90
        0
176
     1
 90
        0
176
     1
290
     0
176
     1
 90
        1
176
     1
 40
0.0
176
     1
 90
        0
176
     1
290
     0
176
     1
290
     1
176
     1
290
     1
176
     1
290
     0
176
     1
290
     0
176
     1
290
     0
176
     1
290
     0
176
     1
290
     0
176
     1
290
     0
176
     1
 90
       50
176
     1
 40
0.0
176
     1
 40
1.0
176
     1
 90
        0
176
     1
 62
    18
420
        0
176
     1
 90
       50
176
     1
 90
        3
176
     1
 62
     5
420
      255
176
     1
290
     0
176
     1
 90
       50
176
     1
 90
       50
176
     1
 90
       50
176
     1
290
     0
176
     1
 90
       50
176
     1
 62
   256
176
     0
 40
1.0
176
     0
 90
        2
176
     1
  1
strokes_ogs.tif
176
     1
290
     0
176
     1
 40
1.0
176
     1
 40
1.0
176
     1
  0
VISUALSTYLE
  5
35
102
{ACAD_REACTORS
330
29
102
}
330
29
100
AcDbVisualStyle
  2
Brighten
 70
    12
177
     3
291
     1
 70
    58
 90
        2
176
     1
 90
        2
176
     1
 90
        0
176
     1
 90
        0
176
     1
 40
0.6
176
     1
 40
30.0
176
     1
 62
     7
420
 16777215
176
     1
 90
        1
176
     1
 90
        4
176
     1
 62
     7
176
     1
 62
   257
176
     1
 90
        1
176
     1
 90
        1
176
     1
 40
1.0
176
     1
 90
        8
176
     1
 62
     7
176
     1
 40
1.0
176
     1
 90
        1
176
     1
 90
        6
176
     1
 90
        2
176
     1
 62
     7
176
     1
 90
        5
176
     1
 90
        0
176
     1
 90
        0
176
     1
290
     0
176
     1
 90
        1
176
     1
 40
50.0
176
     1
 90
        0
176
     1
290
     0
176
     1
290
     1
176
     1
290
     1
176
     1
290
     0
176
     1
290
     0
176
     1
290
     0
176
     1
290
     0
176
     1
290
     0
176
     1
290
     0
176
     1
 90
       50
176
     1
 40
0.0
176
     1
 40
1.0
176
     1
 90
        0
176
     1
 62
    18
420
        0
176
     1
 90
       50
176
     1
 90
        3
176
     1
 62
     5
420
      255
176
     1
290
     0
176
     1
 90
       50
176
     1
 90
       50
176
     1
 90
       50
176
     1
290
     0
176
     1
 90
       50
176
     1
 62
   256
176
     0
 40
1.0
176
     0
 90
        2
176
     1
  1
strokes_ogs.tif
176
     1
290
     0
176
     1
 40
1.0
176
     1
 40
1.0
176
     1
  0
VISUALSTYLE
  5
39
102
{ACAD_REACTORS
330
29
102
}
330
29
100
AcDbVisualStyle
  2
ColorChange
 70
    16
177
     3
291
     1
 70
    58
 90
        2
176
     1
 90
        2
176
     1
 90
        3
176
     1
 90
        0
176
     1
 40
0.6
176
     1
 40
30.0
176
     1
 62
     8
420
  8421504
176
     1
 90
        1
176
     1
 90
        4
176
     1
 62
     7
176
     1
 62
   257
176
     1
 90
        1
176
     1
 90
        1
176
     1
 40
1.0
176
     1
 90
        8
176
     1
 62
     8
420
  8421504
176
     1
 40
1.0
176
     1
 90
        1
176
     1
 90
        6
176
     1
 90
        2
176
     1
 62
     7
176
     1
 90
        5
176
     1
 90
        0
176
     1
 90
        0
176
     1
290
     0
176
     1
 90
        1
176
     1
 40
0.0
176
     1
 90
        0
176
     1
290
     0
176
     1
290
     1
176
     1
290
     1
176
     1
290
     0
176
     1
290
     0
176
     1
290
     0
176
     1
290
     0
176
     1
290
     0
176
     1
290
     0
176
     1
 90
       50
176
     1
 40
0.0
176
     1
 40
1.0
176
     1
 90
        0
176
     1
 62
    18
420
        0
176
     1
 90
       50
176
     1
 90
        3
176
     1
 62
     5
420
      255
176
     1
290
     0
176
     1
 90
       50
176
     1
 90
       50
176
     1
 90
       50
176
     1
290
     0
176
     1
 90
       50
176
     1
 62
   256
176
     0
 40
1.0
176
     0
 90
        2
176
     1
  1
strokes_ogs.tif
176
     1
290
     0
176
     1
 40
1.0
176
     1
 40
1.0
176
     1
  0
VISUALSTYLE
  5
32
102
{ACAD_REACTORS
330
29
102
}
330
29
100
AcDbVisualStyle
  2
Conceptual
 70
     9
177
     3
291
     0
 70
    58
 90
        3
176
     1
 90
        2
176
     1
 90
        0
176
     1
 90
        0
176
     1
 40
0.6
176
     1
 40
30.0
176
     1
 62
     7
420
 16777215
176
     1
 90
        2
176
     1
 90
        2
176
     1
 62
     7
176
     1
 62
   257
176
     1
 90
        1
176
     1
 90
        1
176
     1
 40
179.0
176
     1
 90
        8
176
     1
 62
     7
176
     1
 40
1.0
176
     1
 90
        1
176
     1
 90
        6
176
     1
 90
        2
176
     1
 62
     7
176
     1
 90
        3
176
     1
 90
        0
176
     1
 90
        0
176
     1
290
     0
176
     1
 90
        1
176
     1
 40
0.0
176
     1
 90
        0
176
     1
290
     0
176
     1
290
     1
176
     1
290
     1
176
     1
290
     0
176
     1
290
     0
176
     1
290
     0
176
     1
290
     0
176
     1
290
     0
176
     1
290
     0
176
     1
 90
       50
176
     1
 40
0.0
176
     1
 40
1.0
176
     1
 90
        0
176
     1
 62
    18
420
        0
176
     1
 90
       50
176
     1
 90
        3
176
     1
 62
     5
420
      255
176
     1
290
     0
176
     1
 90
       50
176
     1
 90
       50
176
     1
 90
       50
176
     1
290
     0
176
     1
 90
       50
176
     1
 62
   256
176
     0
 40
1.0
176
     0
 90
        2
176
     1
  1
strokes_ogs.tif
176
     1
290
     0
176
     1
 40
1.0
176
     1
 40
1.0
176
     1
  0
VISUALSTYLE
  5
34
102
{ACAD_REACTORS
330
29
102
}
330
29
100
AcDbVisualStyle
  2
Dim
 70
    11
177
     3
291
     1
 70
    58
 90
        2
176
     1
 90
        2
176
     1
 90
        0
176
     1
 90
        0
176
     1
 40
0.6
176
     1
 40
30.0
176
     1
 62
     7
420
 16777215
176
     1
 90
        1
176
     1
 90
        4
176
     1
 62
     7
176
     1
 62
   257
176
     1
 90
        1
176
     1
 90
        1
176
     1
 40
1.0
176
     1
 90
        8
176
     1
 62
     7
176
     1
 40
1.0
176
     1
 90
        1
176
     1
 90
        6
176
     1
 90
        2
176
     1
 62
     7
176
     1
 90
        5
176
     1
 90
        0
176
     1
 90
        0
176
     1
290
     0
176
     1
 90
        1
176
     1
 40
-50.0
176
     1
 90
        0
176
     1
290
     0
176
     1
290
     1
176
     1
290
     1
176
     1
290
     0
176
     1
290
     0
176
     1
290
     0
176
     1
290
     0
176
     1
290
     0
176
     1
290
     0
176
     1
 90
       50
176
     1
 40
0.0
176
     1
 40
1.0
176
     1
 90
        0
176
     1
 62
    18
420
        0
176
     1
 90
       50
176
     1
 90
        3
176
     1
 62
     5
420
      255
176
     1
290
     0
176
     1
 90
       50
176
     1
 90
       50
176
     1
 90
       50
176
     1
290
     0
176
     1
 90
       50
176
     1
 62
   256
176
     0
 40
1.0
176
     0
 90
        2
176
     1
  1
strokes_ogs.tif
176
     1
290
     0
176
     1
 40
1.0
176
     1
 40
1.0
176
     1
  0
VISUALSTYLE
  5
41
102
{ACAD_REACTORS
330
29
102
}
330
29
100
AcDbVisualStyle
  2
EdgeColorOff
 70
    22
177
     3
291
     1
 70
    58
 90
        2
176
     0
 90
        2
176
     0
 90
        0
176
     0
 90
        0
176
     0
 40
0.6
176
     0
 40
30.0
176
     0
 62
     7
420
 16777215
176
     0
 90
        1
176
     0
 90
        4
176
     0
 62
     7
176
     0
 62
   257
176
     0
 90
        1
176
     0
 90
        1
176
     0
 40
1.0
176
     0
 90
        8
176
     2
 62
     7
176
     0
 40
1.0
176
     0
 90
        1
176
     0
 90
        6
176
     0
 90
        2
176
     0
 62
     7
176
     0
 90
        5
176
     0
 90
        0
176
     0
 90
        0
176
     0
290
     0
176
     0
 90
        1
176
     0
 40
0.0
176
     0
 90
        0
176
     0
290
     0
176
     0
290
     1
176
     0
290
     1
176
     0
290
     0
176
     0
290
     0
176
     0
290
     0
176
     0
290
     0
176
     0
290
     0
176
     0
290
     0
176
     0
 90
       50
176
     0
 40
0.0
176
     0
 40
1.0
176
     0
 90
        0
176
     0
 62
    18
420
        0
176
     0
 90
       50
176
     0
 90
        3
176
     0
 62
     5
420
      255
176
     0
290
     0
176
     0
 90
       50
176
     0
 90
       50
176
     0
 90
       50
176
     0
290
     0
176
     0
 90
       50
176
     0
 62
   256
176
     0
 40
1.0
176
     0
 90
        2
176
     0
  1
strokes_ogs.tif
176
     0
290
     0
176
     0
 40
1.0
176
     0
 40
1.0
176
     0
  0
VISUALSTYLE
  5
38
102
{ACAD_REACTORS
330
29
102
}
330
29
100
AcDbVisualStyle
  2
Facepattern
 70
    15
177
     3
291
     1
 70
    58
 90
        2
176
     1
 90
        2
176
     1
 90
        0
176
     1
 90
        0
176
     1
 40
0.6
176
     1
 40
30.0
176
     1
 62
     7
420
 16777215
176
     1
 90
        1
176
     1
 90
        4
176
     1
 62
     7
176
     1
 62
   257
176
     1
 90
        1
176
     1
 90
        1
176
     1
 40
1.0
176
     1
 90
        8
176
     1
 62
     7
176
     1
 40
1.0
176
     1
 90
        1
176
     1
 90
        6
176
     1
 90
        2
176
     1
 62
     7
176
     1
 90
        5
176
     1
 90
        0
176
     1
 90
        0
176
     1
290
     0
176
     1
 90
        1
176
     1
 40
0.0
176
     1
 90
        0
176
     1
290
     0
176
     1
290
     1
176
     1
290
     1
176
     1
290
     0
176
     1
290
     0
176
     1
290
     0
176
     1
290
     0
176
     1
290
     0
176
     1
290
     0
176
     1
 90
       50
176
     1
 40
0.0
176
     1
 40
1.0
176
     1
 90
        0
176
     1
 62
    18
420
        0
176
     1
 90
       50
176
     1
 90
        3
176
     1
 62
     5
420
      255
176
     1
290
     0
176
     1
 90
       50
176
     1
 90
       50
176
     1
 90
       50
176
     1
290
     0
176
     1
 90
       50
176
     1
 62
   256
176
     0
 40
1.0
176
     0
 90
        2
176
     1
  1
strokes_ogs.tif
176
     1
290
     0
176
     1
 40
1.0
176
     1
 40
1.0
176
     1
  0
VISUALSTYLE
  5
2A
102
{ACAD_REACTORS
330
29
102
}
330
29
100
AcDbVisualStyle
  2
Flat
 70
     0
177
     3
291
     1
 70
    58
 90
        2
176
     1
 90
        1
176
     1
 90
        1
176
     1
 90
        2
176
     1
 40
0.6
176
     1
 40
30.0
176
     1
 62
     7
420
 16777215
176
     1
 90
        0
176
     1
 90
        0
176
     1
 62
     7
176
     1
 62
   257
176
     1
 90
        1
176
     1
 90
        1
176
     1
 40
1.0
176
     1
 90
        8
176
     1
 62
     7
176
     1
 40
1.0
176
     1
 90
        1
176
     1
 90
        6
176
     1
 90
        2
176
     1
 62
     7
176
     1
 90
        5
176
     1
 90
        0
176
     1
 90
        0
176
     1
290
     0
176
     1
 90
       13
176
     1
 40
0.0
176
     1
 90
        0
176
     1
290
     0
176
     1
290
     1
176
     1
290
     1
176
     1
290
     0
176
     1
290
     0
176
     1
290
     0
176
     1
290
     0
176
     1
290
     0
176
     1
290
     0
176
     1
 90
       50
176
     1
 40
0.0
176
     1
 40
1.0
176
     1
 90
        0
176
     1
 62
    18
420
        0
176
     1
 90
       50
176
     1
 90
        3
176
     1
 62
     5
420
      255
176
     1
290
     0
176
     1
 90
       50
176
     1
 90
       50
176
     1
 90
       50
176
     1
290
     0
176
     1
 90
       50
176
     1
 62
   256
176
     0
 40
1.0
176
     0
 90
        2
176
     1
  1
strokes_ogs.tif
176
     1
290
     0
176
     1
 40
1.0
176
     1
 40
1.0
176
     1
  0
VISUALSTYLE
  5
2B
102
{ACAD_REACTORS
330
29
102
}
330
29
100
AcDbVisualStyle
  2
FlatWithEdges
 70
     1
177
     3
291
     1
 70
    58
 90
        2
176
     1
 90
        1
176
     1
 90
        1
176
     1
 90
        2
176
     1
 40
0.6
176
     1
 40
30.0
176
     1
 62
     7
420
 16777215
176
     1
 90
        1
176
     1
 90
        0
176
     1
 62
     7
176
     1
 62
   257
176
     1
 90
        1
176
     1
 90
        1
176
     1
 40
1.0
176
     1
 90
        0
176
     1
 62
   257
176
     1
 40
1.0
176
     1
 90
        1
176
     1
 90
        6
176
     1
 90
        2
176
     1
 62
     7
176
     1
 90
        5
176
     1
 90
        0
176
     1
 90
        0
176
     1
290
     0
176
     1
 90
       13
176
     1
 40
0.0
176
     1
 90
        0
176
     1
290
     0
176
     1
290
     1
176
     1
290
     1
176
     1
290
     0
176
     1
290
     0
176
     1
290
     0
176
     1
290
     0
176
     1
290
     0
176
     1
290
     0
176
     1
 90
       50
176
     1
 40
0.0
176
     1
 40
1.0
176
     1
 90
        0
176
     1
 62
    18
420
        0
176
     1
 90
       50
176
     1
 90
        3
176
     1
 62
     5
420
      255
176
     1
290
     0
176
     1
 90
       50
176
     1
 90
       50
176
     1
 90
       50
176
     1
290
     0
176
     1
 90
       50
176
     1
 62
   256
176
     0
 40
1.0
176
     0
 90
        2
176
     1
  1
strokes_ogs.tif
176
     1
290
     0
176
     1
 40
1.0
176
     1
 40
1.0
176
     1
  0
VISUALSTYLE
  5
2C
102
{ACAD_REACTORS
330
29
102
}
330
29
100
AcDbVisualStyle
  2
Gouraud
 70
     2
177
     3
291
     1
 70
    58
 90
        2
176
     1
 90
        2
176
     1
 90
        1
176
     1
 90
        2
176
     1
 40
0.6
176
     1
 40
30.0
176
     1
 62
     7
420
 16777215
176
     1
 90
        0
176
     1
 90
        0
176
     1
 62
     7
176
     1
 62
   257
176
     1
 90
        1
176
     1
 90
        1
176
     1
 40
1.0
176
     1
 90
        0
176
     1
 62
     7
176
     1
 40
1.0
176
     1
 90
        1
176
     1
 90
        6
176
     1
 90
        2
176
     1
 62
     7
176
     1
 90
        5
176
     1
 90
        0
176
     1
 90
        0
176
     1
290
     0
176
     1
 90
       13
176
     1
 40
0.0
176
     1
 90
        0
176
     1
290
     0
176
     1
290
     1
176
     1
290
     1
176
     1
290
     0
176
     1
290
     0
176
     1
290
     0
176
     1
290
     0
176
     1
290
     0
176
     1
290
     0
176
     1
 90
       50
176
     1
 40
0.0
176
     1
 40
1.0
176
     1
 90
        0
176
     1
 62
    18
420
        0
176
     1
 90
       50
176
     1
 90
        3
176
     1
 62
     5
420
      255
176
     1
290
     0
176
     1
 90
       50
176
     1
 90
       50
176
     1
 90
       50
176
     1
290
     0
176
     1
 90
       50
176
     1
 62
   256
176
     0
 40
1.0
176
     0
 90
        2
176
     1
  1
strokes_ogs.tif
176
     1
290
     0
176
     1
 40
1.0
176
     1
 40
1.0
176
     1
  0
VISUALSTYLE
  5
2D
102
{ACAD_REACTORS
330
29
102
}
330
29
100
AcDbVisualStyle
  2
GouraudWithEdges
 70
     3
177
     3
291
     1
 70
    58
 90
        2
176
     1
 90
        2
176
     1
 90
        1
176
     1
 90
        2
176
     1
 40
0.6
176
     1
 40
30.0
176
     1
 62
     7
420
 16777215
176
     1
 90
        1
176
     1
 90
        0
176
     1
 62
     7
176
     1
 62
   257
176
     1
 90
        1
176
     1
 90
        1
176
     1
 40
1.0
176
     1
 90
        0
176
     1
 62
   257
176
     1
 40
1.0
176
     1
 90
        1
176
     1
 90
        6
176
     1
 90
        2
176
     1
 62
     7
176
     1
 90
        5
176
     1
 90
        0
176
     1
 90
        0
176
     1
290
     0
176
     1
 90
       13
176
     1
 40
0.0
176
     1
 90
        0
176
     1
290
     0
176
     1
290
     1
176
     1
290
     1
176
     1
290
     0
176
     1
290
     0
176
     1
290
     0
176
     1
290
     0
176
     1
290
     0
176
     1
290
     0
176
     1
 90
       50
176
     1
 40
0.0
176
     1
 40
1.0
176
     1
 90
        0
176
     1
 62
    18
420
        0
176
     1
 90
       50
176
     1
 90
        3
176
     1
 62
     5
420
      255
176
     1
290
     0
176
     1
 90
       50
176
     1
 90
       50
176
     1
 90
       50
176
     1
290
     0
176
     1
 90
       50
176
     1
 62
   256
176
     0
 40
1.0
176
     0
 90
        2
176
     1
  1
strokes_ogs.tif
176
     1
290
     0
176
     1
 40
1.0
176
     1
 40
1.0
176
     1
  0
VISUALSTYLE
  5
31
102
{ACAD_REACTORS
330
29
102
}
330
29
100
AcDbVisualStyle
  2
Hidden
 70
     6
177
     3
291
     0
 70
    58
 90
        1
176
     1
 90
        2
176
     1
 90
        2
176
     1
 90
        0
176
     1
 40
0.6
176
     1
 40
30.0
176
     1
 62
     7
420
 16777215
176
     1
 90
        2
176
     1
 90
        2
176
     1
 62
     7
176
     1
 62
   257
176
     1
 90
        2
176
     1
 90
        1
176
     1
 40
40.0
176
     1
 90
        0
176
     1
 62
   257
176
     1
 40
1.0
176
     1
 90
        1
176
     1
 90
        6
176
     1
 90
        2
176
     1
 62
     7
176
     1
 90
        3
176
     1
 90
        0
176
     1
 90
        0
176
     1
290
     0
176
     1
 90
        1
176
     1
 40
0.0
176
     1
 90
        0
176
     1
290
     0
176
     1
290
     1
176
     1
290
     1
176
     1
290
     0
176
     1
290
     0
176
     1
290
     0
176
     1
290
     0
176
     1
290
     0
176
     1
290
     0
176
     1
 90
       50
176
     1
 40
0.0
176
     1
 40
1.0
176
     1
 90
        0
176
     1
 62
    18
420
        0
176
     1
 90
       50
176
     1
 90
        3
176
     1
 62
     5
420
      255
176
     1
290
     0
176
     1
 90
       50
176
     1
 90
       50
176
     1
 90
       50
176
     1
290
     0
176
     1
 90
       50
176
     1
 62
   256
176
     0
 40
1.0
176
     0
 90
        2
176
     1
  1
strokes_ogs.tif
176
     1
290
     0
176
     1
 40
1.0
176
     1
 40
1.0
176
     1
  0
VISUALSTYLE
  5
3F
102
{ACAD_REACTORS
330
29
102
}
330
29
100
AcDbVisualStyle
  2
JitterOff
 70
    20
177
     3
291
     1
 70
    58
 90
        2
176
     0
 90
        2
176
     0
 90
        0
176
     0
 90
        0
176
     0
 40
0.6
176
     0
 40
30.0
176
     0
 62
     7
420
 16777215
176
     0
 90
        1
176
     0
 90
        4
176
     0
 62
     7
176
     0
 62
   257
176
     0
 90
        1
176
     0
 90
        1
176
     0
 40
1.0
176
     0
 90
       10
176
     2
 62
     7
176
     0
 40
1.0
176
     0
 90
        1
176
     0
 90
        6
176
     0
 90
        2
176
     0
 62
     7
176
     0
 90
        5
176
     0
 90
        0
176
     0
 90
        0
176
     0
290
     0
176
     0
 90
        1
176
     0
 40
0.0
176
     0
 90
        0
176
     0
290
     0
176
     0
290
     1
176
     0
290
     1
176
     0
290
     0
176
     0
290
     0
176
     0
290
     0
176
     0
290
     0
176
     0
290
     0
176
     0
290
     0
176
     0
 90
       50
176
     0
 40
0.0
176
     0
 40
1.0
176
     0
 90
        0
176
     0
 62
    18
420
        0
176
     0
 90
       50
176
     0
 90
        3
176
     0
 62
     5
420
      255
176
     0
290
     0
176
     0
 90
       50
176
     0
 90
       50
176
     0
 90
       50
176
     0
290
     0
176
     0
 90
       50
176
     0
 62
   256
176
     0
 40
1.0
176
     0
 90
        2
176
     0
  1
strokes_ogs.tif
176
     0
290
     0
176
     0
 40
1.0
176
     0
 40
1.0
176
     0
  0
VISUALSTYLE
  5
37
102
{ACAD_REACTORS
330
29
102
}
330
29
100
AcDbVisualStyle
  2
Linepattern
 70
    14
177
     3
291
     1
 70
    58
 90
        2
176
     1
 90
        2
176
     1
 90
        0
176
     1
 90
        0
176
     1
 40
0.6
176
     1
 40
30.0
176
     1
 62
     7
420
 16777215
176
     1
 90
        1
176
     1
 90
        4
176
     1
 62
     7
176
     1
 62
   257
176
     1
 90
        7
176
     1
 90
        7
176
     1
 40
1.0
176
     1
 90
        8
176
     1
 62
     7
176
     1
 40
1.0
176
     1
 90
        1
176
     1
 90
        6
176
     1
 90
        2
176
     1
 62
     7
176
     1
 90
        5
176
     1
 90
        0
176
     1
 90
        0
176
     1
290
     0
176
     1
 90
        1
176
     1
 40
0.0
176
     1
 90
        0
176
     1
290
     0
176
     1
290
     1
176
     1
290
     1
176
     1
290
     0
176
     1
290
     0
176
     1
290
     0
176
     1
290
     0
176
     1
290
     0
176
     1
290
     0
176
     1
 90
       50
176
     1
 40
0.0
176
     1
 40
1.0
176
     1
 90
        0
176
     1
 62
    18
420
        0
176
     1
 90
       50
176
     1
 90
        3
176
     1
 62
     5
420
      255
176
     1
290
     0
176
     1
 90
       50
176
     1
 90
       50
176
     1
 90
       50
176
     1
290
     0
176
     1
 90
       50
176
     1
 62
   256
176
     0
 40
1.0
176
     0
 90
        2
176
     1
  1
strokes_ogs.tif
176
     1
290
     0
176
     1
 40
1.0
176
     1
 40
1.0
176
     1
  0
VISUALSTYLE
  5
40
102
{ACAD_REACTORS
330
29
102
}
330
29
100
AcDbVisualStyle
  2
OverhangOff
 70
    21
177
     3
291
     1
 70
    58
 90
        2
176
     0
 90
        2
176
     0
 90
        0
176
     0
 90
        0
176
     0
 40
0.6
176
     0
 40
30.0
176
     0
 62
     7
420
 16777215
176
     0
 90
        1
176
     0
 90
        4
176
     0
 62
     7
176
     0
 62
   257
176
     0
 90
        1
176
     0
 90
        1
176
     0
 40
1.0
176
     0
 90
        9
176
     2
 62
     7
176
     0
 40
1.0
176
     0
 90
        1
176
     0
 90
        6
176
     0
 90
        2
176
     0
 62
     7
176
     0
 90
        5
176
     0
 90
        0
176
     0
 90
        0
176
     0
290
     0
176
     0
 90
        1
176
     0
 40
0.0
176
     0
 90
        0
176
     0
290
     0
176
     0
290
     1
176
     0
290
     1
176
     0
290
     0
176
     0
290
     0
176
     0
290
     0
176
     0
290
     0
176
     0
290
     0
176
     0
290
     0
176
     0
 90
       50
176
     0
 40
0.0
176
     0
 40
1.0
176
     0
 90
        0
176
     0
 62
    18
420
        0
176
     0
 90
       50
176
     0
 90
        3
176
     0
 62
     5
420
      255
176
     0
290
     0
176
     0
 90
       50
176
     0
 90
       50
176
     0
 90
       50
176
     0
290
     0
176
     0
 90
       50
176
     0
 62
   256
176
     0
 40
1.0
176
     0
 90
        2
176
     0
  1
strokes_ogs.tif
176
     0
290
     0
176
     0
 40
1.0
176
     0
 40
1.0
176
     0
  0
VISUALSTYLE
  5
33
102
{ACAD_REACTORS
330
29
102
}
330
29
100
AcDbVisualStyle
  2
Realistic
 70
     8
177
     3
291
     0
 70
    58
 90
        2
176
     1
 90
        3
176
     1
 90
        0
176
     1
 90
        2
176
     1
 40
0.6
176
     1
 40
30.0
176
     1
 62
     7
420
 16777215
176
     1
 90
        0
176
     1
 90
        0
176
     1
 62
     7
176
     1
 62
   257
176
     1
 90
        1
176
     1
 90
        1
176
     1
 40
1.0
176
     1
 90
        8
176
     1
 62
   257
176
     1
 40
1.0
176
     1
 90
        1
176
     1
 90
        6
176
     1
 90
        2
176
     1
 62
     7
176
     1
 90
        3
176
     1
 90
        0
176
     1
 90
        0
176
     1
290
     0
176
     1
 90
       13
176
     1
 40
0.0
176
     1
 90
        0
176
     1
290
     0
176
     1
290
     1
176
     1
290
     1
176
     1
290
     0
176
     1
290
     0
176
     1
290
     0
176
     1
290
     0
176
     1
290
     0
176
     1
290
     0
176
     1
 90
       50
176
     1
 40
0.0
176
     1
 40
1.0
176
     1
 90
        0
176
     1
 62
    18
420
        0
176
     1
 90
       50
176
     1
 90
        3
176
     1
 62
     5
420
      255
176
     1
290
     0
176
     1
 90
       50
176
     1
 90
       50
176
     1
 90
       50
176
     1
290
     0
176
     1
 90
       50
176
     1
 62
   256
176
     0
 40
1.0
176
     0
 90
        2
176
     1
  1
strokes_ogs.tif
176
     1
290
     0
176
     1
 40
1.0
176
     1
 40
1.0
176
     1
  0
VISUALSTYLE
  5
3E
102
{ACAD_REACTORS
330
29
102
}
330
29
100
AcDbVisualStyle
  2
Shaded
 70
    27
177
     3
291
     0
 70
    58
 90
        2
176
     1
 90
        2
176
     1
 90
        1
176
     1
 90
        2
176
     1
 40
0.6
176
     1
 40
30.0
176
     1
 62
     7
420
 16777215
176
     1
 90
        0
176
     1
 90
        4
176
     1
 62
     7
176
     1
 62
   257
176
     1
 90
        1
176
     1
 90
        1
176
     1
 40
1.0
176
     1
 90
        8
176
     1
 62
   257
176
     1
 40
1.0
176
     1
 90
        1
176
     1
 90
        6
176
     1
 90
        2
176
     1
 62
     8
420
  7895160
176
     1
 90
        3
176
     1
 90
        0
176
     1
 90
        0
176
     1
290
     0
176
     1
 90
        5
176
     1
 40
0.0
176
     1
 90
        0
176
     1
290
     0
176
     1
290
     1
176
     1
290
     1
176
     1
290
     0
176
     1
290
     0
176
     1
290
     0
176
     1
290
     0
176
     1
290
     0
176
     1
290
     0
176
     1
 90
       50
176
     1
 40
0.0
176
     1
 40
1.0
176
     1
 90
        0
176
     1
 62
    18
420
        0
176
     1
 90
       50
176
     1
 90
        3
176
     1
 62
     5
420
      255
176
     1
290
     0
176
     1
 90
       50
176
     1
 90
       50
176
     1
 90
       50
176
     1
290
     0
176
     1
 90
       50
176
     1
 62
   256
176
     0
 40
1.0
176
     0
 90
        2
176
     1
  1
strokes_ogs.tif
176
     1
290
     0
176
     1
 40
1.0
176
     1
 40
1.0
176
     1
  0
VISUALSTYLE
  5
3D
102
{ACAD_REACTORS
330
29
102
}
330
29
100
AcDbVisualStyle
  2
Shaded with edges
 70
    26
177
     3
291
     0
 70
    58
 90
        2
176
     1
 90
        2
176
     1
 90
        1
176
     1
 90
        2
176
     1
 40
0.6
176
     1
 40
30.0
176
     1
 62
     7
420
 16777215
176
     1
 90
        1
176
     1
 90
        2
176
     1
 62
     7
176
     1
 62
   257
176
     1
 90
        2
176
     1
 90
        1
176
     1
 40
1.0
176
     1
 90
        8
176
     1
 62
   257
176
     1
 40
1.0
176
     1
 90
        1
176
     1
 90
        6
176
     1
 90
        2
176
     1
 62
     7
176
     1
 90
        3
176
     1
 90
        0
176
     1
 90
        0
176
     1
290
     0
176
     1
 90
        5
176
     1
 40
0.0
176
     1
 90
        0
176
     1
290
     0
176
     1
290
     1
176
     1
290
     1
176
     1
290
     0
176
     1
290
     0
176
     1
290
     0
176
     1
290
     0
176
     1
290
     0
176
     1
290
     0
176
     1
 90
       50
176
     1
 40
0.0
176
     1
 40
1.0
176
     1
 90
        0
176
     1
 62
    18
420
        0
176
     1
 90
       50
176
     1
 90
        3
176
     1
 62
     5
420
      255
176
     1
290
     0
176
     1
 90
       50
176
     1
 90
       50
176
     1
 90
       50
176
     1
290
     0
176
     1
 90
       50
176
     1
 62
   256
176
     0
 40
1.0
176
     0
 90
        2
176
     1
  1
strokes_ogs.tif
176
     1
290
     0
176
     1
 40
1.0
176
     1
 40
1.0
176
     1
  0
VISUALSTYLE
  5
3A
102
{ACAD_REACTORS
330
29
102
}
330
29
100
AcDbVisualStyle
  2
Shades of Gray
 70
    23
177
     3
291
     0
 70
    58
 90
        2
176
     1
 90
        2
176
     1
 90
        3
176
     1
 90
        0
176
     1
 40
0.6
176
     1
 40
30.0
176
     1
 62
     7
420
 16777215
176
     1
 90
        2
176
     1
 90
        2
176
     1
 62
     7
176
     1
 62
     7
176
     1
 90
        1
176
     1
 90
        1
176
     1
 40
40.0
176
     1
 90
        8
176
     1
 62
     7
176
     1
 40
1.0
176
     1
 90
        1
176
     1
 90
        6
176
     1
 90
        2
176
     1
 62
     7
176
     1
 90
        3
176
     1
 90
        0
176
     1
 90
        0
176
     1
290
     0
176
     1
 90
        1
176
     1
 40
0.0
176
     1
 90
        0
176
     1
290
     0
176
     1
290
     1
176
     1
290
     1
176
     1
290
     0
176
     1
290
     0
176
     1
290
     0
176
     1
290
     0
176
     1
290
     0
176
     1
290
     0
176
     1
 90
       50
176
     1
 40
0.0
176
     1
 40
1.0
176
     1
 90
        0
176
     1
 62
    18
420
        0
176
     1
 90
       50
176
     1
 90
        3
176
     1
 62
     5
420
      255
176
     1
290
     0
176
     1
 90
       50
176
     1
 90
       50
176
     1
 90
       50
176
     1
290
     0
176
     1
 90
       50
176
     1
 62
   256
176
     0
 40
1.0
176
     0
 90
        2
176
     1
  1
strokes_ogs.tif
176
     1
290
     0
176
     1
 40
1.0
176
     1
 40
1.0
176
     1
  0
VISUALSTYLE
  5
3B
102
{ACAD_REACTORS
330
29
102
}
330
29
100
AcDbVisualStyle
  2
Sketchy
 70
    24
177
     3
291
     0
 70
    58
 90
        1
176
     1
 90
        2
176
     1
 90
        2
176
     1
 90
        0
176
     1
 40
0.6
176
     1
 40
30.0
176
     1
 62
     7
420
 16777215
176
     1
 90
        2
176
     1
 90
        2
176
     1
 62
     7
176
     1
 62
     7
176
     1
 90
        1
176
     1
 90
        1
176
     1
 40
40.0
176
     1
 90
       11
176
     1
 62
     7
176
     1
 40
1.0
176
     1
 90
        1
176
     1
 90
        6
176
     1
 90
        2
176
     1
 62
     7
176
     1
 90
        6
176
     1
 90
        0
176
     1
 90
        0
176
     1
290
     0
176
     1
 90
        1
176
     1
 40
0.0
176
     1
 90
        0
176
     1
290
     0
176
     1
290
     1
176
     1
290
     1
176
     1
290
     0
176
     1
290
     0
176
     1
290
     0
176
     1
290
     0
176
     1
290
     0
176
     1
290
     0
176
     1
 90
       50
176
     1
 40
0.0
176
     1
 40
1.0
176
     1
 90
        0
176
     1
 62
    18
420
        0
176
     1
 90
       50
176
     1
 90
        3
176
     1
 62
     5
420
      255
176
     1
290
     0
176
     1
 90
       50
176
     1
 90
       50
176
     1
 90
       50
176
     1
290
     0
176
     1
 90
       50
176
     1
 62
   256
176
     0
 40
1.0
176
     0
 90
        2
176
     1
  1
strokes_ogs.tif
176
     1
290
     0
176
     1
 40
1.0
176
     1
 40
1.0
176
     1
  0
VISUALSTYLE
  5
36
102
{ACAD_REACTORS
330
29
102
}
330
29
100
AcDbVisualStyle
  2
Thicken
 70
    13
177
     3
291
     1
 70
    58
 90
        2
176
     1
 90
        2
176
     1
 90
        0
176
     1
 90
        0
176
     1
 40
0.6
176
     1
 40
30.0
176
     1
 62
     7
420
 16777215
176
     1
 90
        1
176
     1
 90
        4
176
     1
 62
     7
176
     1
 62
   257
176
     1
 90
        1
176
     1
 90
        1
176
     1
 40
1.0
176
     1
 90
       12
176
     1
 62
     7
176
     1
 40
1.0
176
     1
 90
        1
176
     1
 90
        6
176
     1
 90
        2
176
     1
 62
     7
176
     1
 90
        5
176
     1
 90
        0
176
     1
 90
        0
176
     1
290
     0
176
     1
 90
        1
176
     1
 40
0.0
176
     1
 90
        0
176
     1
290
     0
176
     1
290
     1
176
     1
290
     1
176
     1
290
     0
176
     1
290
     0
176
     1
290
     0
176
     1
290
     0
176
     1
290
     0
176
     1
290
     0
176
     1
 90
       50
176
     1
 40
0.0
176
     1
 40
1.0
176
     1
 90
        0
176
     1
 62
    18
420
        0
176
     1
 90
       50
176
     1
 90
        3
176
     1
 62
     5
420
      255
176
     1
290
     0
176
     1
 90
       50
176
     1
 90
       50
176
     1
 90
       50
176
     1
290
     0
176
     1
 90
       50
176
     1
 62
   256
176
     0
 40
1.0
176
     0
 90
        2
176
     1
  1
strokes_ogs.tif
176
     1
290
     0
176
     1
 40
1.0
176
     1
 40
1.0
176
     1
  0
VISUALSTYLE
  5
30
102
{ACAD_REACTORS
330
29
102
}
330
29
100
AcDbVisualStyle
  2
Wireframe
 70
     5
177
     3
291
     0
 70
    58
 90
        0
176
     1
 90
        2
176
     1
 90
        0
176
     1
 90
        0
176
     1
 40
0.6
176
     1
 40
30.0
176
     1
 62
     7
420
 16777215
176
     1
 90
        1
176
     1
 90
        4
176
     1
 62
     7
176
     1
 62
   257
176
     1
 90
        1
176
     1
 90
        1
176
     1
 40
1.0
176
     1
 90
        0
176
     1
 62
   257
176
     1
 40
1.0
176
     1
 90
        1
176
     1
 90
        6
176
     1
 90
        2
176
     1
 62
     7
176
     1
 90
        3
176
     1
 90
        0
176
     1
 90
        0
176
     1
290
     0
176
     1
 90
        1
176
     1
 40
0.0
176
     1
 90
        0
176
     1
290
     0
176
     1
290
     1
176
     1
290
     1
176
     1
290
     0
176
     1
290
     0
176
     1
290
     0
176
     1
290
     0
176
     1
290
     0
176
     1
290
     0
176
     1
 90
       50
176
     1
 40
0.0
176
     1
 40
1.0
176
     1
 90
        0
176
     1
 62
    18
420
        0
176
     1
 90
       50
176
     1
 90
        3
176
     1
 62
     5
420
      255
176
     1
290
     0
176
     1
 90
       50
176
     1
 90
       50
176
     1
 90
       50
176
     1
290
     0
176
     1
 90
       50
176
     1
 62
   256
176
     0
 40
1.0
176
     0
 90
        2
176
     1
  1
strokes_ogs.tif
176
     1
290
     0
176
     1
 40
1.0
176
     1
 40
1.0
176
     1
  0
VISUALSTYLE
  5
3C
102
{ACAD_REACTORS
330
29
102
}
330
29
100
AcDbVisualStyle
  2
X-Ray
 70
    25
177
     3
291
     0
 70
    58
 90
        2
176
     1
 90
        2
176
     1
 90
        1
176
     1
 90
        1
176
     1
 40
0.5
176
     1
 40
30.0
176
     1
 62
     7
420
 16777215
176
     1
 90
        1
176
     1
 90
        0
176
     1
 62
     7
176
     1
 62
   257
176
     1
 90
        1
176
     1
 90
        1
176
     1
 40
1.0
176
     1
 90
        8
176
     1
 62
     7
176
     1
 40
1.0
176
     1
 90
        1
176
     1
 90
        6
176
     1
 90
        2
176
     1
 62
     7
176
     1
 90
        3
176
     1
 90
        0
176
     1
 90
        0
176
     1
290
     0
176
     1
 90
       13
176
     1
 40
0.0
176
     1
 90
        0
176
     1
290
     0
176
     1
290
     1
176
     1
290
     1
176
     1
290
     0
176
     1
290
     0
176
     1
290
     0
176
     1
290
     0
176
     1
290
     0
176
     1
290
     0
176
     1
 90
       50
176
     1
 40
0.0
176
     1
 40
1.0
176
     1
 90
        0
176
     1
 62
    18
420
        0
176
     1
 90
       50
176
     1
 90
        3
176
     1
 62
     5
420
      255
176
     1
290
     0
176
     1
 90
       50
176
     1
 90
       50
176
     1
 90
       50
176
     1
290
     0
176
     1
 90
       50
176
     1
 62
   256
176
     0
 40
1.0
176
     0
 90
        2
176
     1
  1
strokes_ogs.tif
176
     1
290
     0
176
     1
 40
1.0
176
     1
 40
1.0
176
     1
  0
DICTIONARYVAR
  5
1F4
102
{ACAD_REACTORS
330
1EF
102
}
330
1EF
100
DictionaryVariables
280
     0
  1
1:1
  0
DICTIONARYVAR
  5
1F1
102
{ACAD_REACTORS
330
1EF
102
}
330
1EF
100
DictionaryVariables
280
     0
  1
STANDARD
  0
DICTIONARYVAR
  5
1F0
102
{ACAD_REACTORS
330
1EF
102
}
330
1EF
100
DictionaryVariables
280
     0
  1
STANDARD
  0
DICTIONARYVAR
  5
1F2
102
{ACAD_REACTORS
330
1EF
102
}
330
1EF
100
DictionaryVariables
280
     0
  1
Imperial24
  0
DICTIONARYVAR
  5
1F3
102
{ACAD_REACTORS
330
1EF
102
}
330
1EF
100
DictionaryVariables
280
     0
  1
Imperial24
  0
DICTIONARY
  5
1A
330
19
100
AcDbDictionary
280
     1
281
     1
  3
BUMPTILE
360
1C
  3
DIFFUSETILE
360
1B
  3
OPACITYTILE
360
1F
  3
REFLECTIONTILE
360
1E
  3
REFRACTIONTILE
360
20
  3
SPECULARTILE
360
1D
  0
DICTIONARY
  5
12
330
11
100
AcDbDictionary
280
     1
281
     1
  3
BUMPTILE
360
14
  3
DIFFUSETILE
360
13
  3
OPACITYTILE
360
17
  3
REFLECTIONTILE
360
16
  3
REFRACTIONTILE
360
18
  3
SPECULARTILE
360
15
  0
DICTIONARY
  5
22
330
21
100
AcDbDictionary
280
     1
281
     1
  3
BUMPTILE
360
24
  3
DIFFUSETILE
360
23
  3
OPACITYTILE
360
27
  3
REFLECTIONTILE
360
26
  3
REFRACTIONTILE
360
28
  3
SPECULARTILE
360
25
  0
DICTIONARY
  5
1F5
330
65
100
AcDbDictionary
280
     1
281
     1
  3
ACAD_ROUNDTRIP_2008_TABLESTYLE_CELLSTYLEMAP
360
1F6
  0
XRECORD
  5
1C
102
{ACAD_REACTORS
330
1A
102
}
330
1A
100
AcDbXrecord
280
     1
270
     1
271
     1
  0
XRECORD
  5
1B
102
{ACAD_REACTORS
330
1A
102
}
330
1A
100
AcDbXrecord
280
     1
270
     1
271
     1
  0
XRECORD
  5
1F
102
{ACAD_REACTORS
330
1A
102
}
330
1A
100
AcDbXrecord
280
     1
270
     1
271
     1
  0
XRECORD
  5
1E
102
{ACAD_REACTORS
330
1A
102
}
330
1A
100
AcDbXrecord
280
     1
270
     1
271
     1
  0
XRECORD
  5
20
102
{ACAD_REACTORS
330
1A
102
}
330
1A
100
AcDbXrecord
280
     1
270
     1
271
     1
  0
XRECORD
  5
1D
102
{ACAD_REACTORS
330
1A
102
}
330
1A
100
AcDbXrecord
280
     1
270
     1
271
     1
  0
XRECORD
  5
14
102
{ACAD_REACTORS
330
12
102
}
330
12
100
AcDbXrecord
280
     1
270
     1
271
     1
  0
XRECORD
  5
13
102
{ACAD_REACTORS
330
12
102
}
330
12
100
AcDbXrecord
280
     1
270
     1
271
     1
  0
XRECORD
  5
17
102
{ACAD_REACTORS
330
12
102
}
330
12
100
AcDbXrecord
280
     1
270
     1
271
     1
  0
XRECORD
  5
16
102
{ACAD_REACTORS
330
12
102
}
330
12
100
AcDbXrecord
280
     1
270
     1
271
     1
  0
XRECORD
  5
18
102
{ACAD_REACTORS
330
12
102
}
330
12
100
AcDbXrecord
280
     1
270
     1
271
     1
  0
XRECORD
  5
15
102
{ACAD_REACTORS
330
12
102
}
330
12
100
AcDbXrecord
280
     1
270
     1
271
     1
  0
XRECORD
  5
24
102
{ACAD_REACTORS
330
22
102
}
330
22
100
AcDbXrecord
280
     1
270
     1
271
     1
  0
XRECORD
  5
23
102
{ACAD_REACTORS
330
22
102
}
330
22
100
AcDbXrecord
280
     1
270
     1
271
     1
  0
XRECORD
  5
27
102
{ACAD_REACTORS
330
22
102
}
330
22
100
AcDbXrecord
280
     1
270
     1
271
     1
  0
XRECORD
  5
26
102
{ACAD_REACTORS
330
22
102
}
330
22
100
AcDbXrecord
280
     1
270
     1
271
     1
  0
XRECORD
  5
28
102
{ACAD_REACTORS
330
22
102
}
330
22
100
AcDbXrecord
280
     1
270
     1
271
     1
  0
XRECORD
  5
25
102
{ACAD_REACTORS
330
22
102
}
330
22
100
AcDbXrecord
280
     1
270
     1
271
     1
  0
CELLSTYLEMAP
  5
1F6
102
{ACAD_REACTORS
330
1F5
102
}
330
1F5
100
AcDbCellStyleMap
 90
        3
300
CELLSTYLE
  1
TABLEFORMAT_BEGIN
 90
        5
170
     1
 91
        0
 92
    32768
 62
   257
 93
        1
300
CONTENTFORMAT
  1
CONTENTFORMAT_BEGIN
 90
        0
 91
        0
 92
      512
 93
        0
300

 40
0.0
140
1.0
 94
        5
 62
     0
340
55
144
0.25
309
CONTENTFORMAT_END
171
     0
 94
        0
309
TABLEFORMAT_END
  1
CELLSTYLE_BEGIN
 90
        1
 91
        1
300
_TITLE
309
CELLSTYLE_END
300
CELLSTYLE
  1
TABLEFORMAT_BEGIN
 90
        5
170
     1
 91
        0
 92
        0
 62
   257
 93
        1
300
CONTENTFORMAT
  1
CONTENTFORMAT_BEGIN
 90
        0
 91
        0
 92
      512
 93
        0
300

 40
0.0
140
1.0
 94
        5
 62
     0
340
55
144
0.18
309
CONTENTFORMAT_END
171
     0
 94
        0
309
TABLEFORMAT_END
  1
CELLSTYLE_BEGIN
 90
        2
 91
        1
300
_HEADER
309
CELLSTYLE_END
300
CELLSTYLE
  1
TABLEFORMAT_BEGIN
 90
        5
170
     1
 91
        0
 92
        0
 62
   257
 93
        1
300
CONTENTFORMAT
  1
CONTENTFORMAT_BEGIN
 90
        0
 91
        0
 92
      512
 93
        0
300

 40
0.0
140
1.0
 94
        2
 62
     0
340
55
144
0.18
309
CONTENTFORMAT_END
171
     0
 94
        0
309
TABLEFORMAT_END
  1
CELLSTYLE_BEGIN
 90
        3
 91
        2
300
_DATA
309
CELLSTYLE_END
  0
ENDSEC
  0
EOF
