  0
SECTION
  2
HEADER
  9
$ACADVER
  1
AC1032
  9
$ACADMAINTVER
 90
      251
  9
$DWGCODEPAGE
  3
ANSI_1252
  9
$REQUIREDVERSIONS
160
                 0
  9
$INSBASE
 10
0.0
 20
0.0
 30
0.0
  9
$EXTMIN
 10
1.000000000000000E+20
 20
1.000000000000000E+20
 30
1.000000000000000E+20
  9
$EXTMAX
 10
-1.000000000000000E+20
 20
-1.000000000000000E+20
 30
-1.000000000000000E+20
  9
$LIMMIN
 10
0.0
 20
0.0
  9
$LIMMAX
 10
12.0
 20
9.0
  9
$ORTHOMODE
 70
     0
  9
$REGENMODE
 70
     1
  9
$FILLMODE
 70
     1
  9
$QTEXTMODE
 70
     0
  9
$MIRRTEXT
 70
     0
  9
$LTSCALE
 40
1.0
  9
$ATTMODE
 70
     1
  9
$TEXTSIZE
 40
0.2
  9
$TRACEWID
 40
0.05
  9
$TEXTSTYLE
  7
Standard
  9
$CLAYER
  8
0
  9
$CELTYPE
  6
ByLayer
  9
$CECOLOR
 62
   256
  9
$CELTSCALE
 40
1.0
  9
$DISPSILH
 70
     0
  9
$DIMSCALE
 40
1.0
  9
$DIMASZ
 40
0.18
  9
$DIMEXO
 40
0.0625
  9
$DIMDLI
 40
0.38
  9
$DIMRND
 40
0.0
  9
$DIMDLE
 40
0.0
  9
$DIMEXE
 40
0.18
  9
$DIMTP
 40
0.0
  9
$DIMTM
 40
0.0
  9
$DIMTXT
 40
0.18
  9
$DIMCEN
 40
0.09
  9
$DIMTSZ
 40
0.0
  9
$DIMTOL
 70
     0
  9
$DIMLIM
 70
     0
  9
$DIMTIH
 70
     1
  9
$DIMTOH
 70
     1
  9
$DIMSE1
 70
     0
  9
$DIMSE2
 70
     0
  9
$DIMTAD
 70
     0
  9
$DIMZIN
 70
     0
  9
$DIMBLK
  1

  9
$DIMASO
 70
     1
  9
$DIMSHO
 70
     1
  9
$DIMPOST
  1

  9
$DIMAPOST
  1

  9
$DIMALT
 70
     0
  9
$DIMALTD
 70
     2
  9
$DIMALTF
 40
25.4
  9
$DIMLFAC
 40
1.0
  9
$DIMTOFL
 70
     0
  9
$DIMTVP
 40
0.0
  9
$DIMTIX
 70
     0
  9
$DIMSOXD
 70
     0
  9
$DIMSAH
 70
     0
  9
$DIMBLK1
  1

  9
$DIMBLK2
  1

  9
$DIMSTYLE
  2
Standard
  9
$DIMCLRD
 70
     0
  9
$DIMCLRE
 70
     0
  9
$DIMCLRT
 70
     0
  9
$DIMTFAC
 40
1.0
  9
$DIMGAP
 40
0.09
  9
$DIMJUST
 70
     0
  9
$DIMSD1
 70
     0
  9
$DIMSD2
 70
     0
  9
$DIMTOLJ
 70
     1
  9
$DIMTZIN
 70
     0
  9
$DIMALTZ
 70
     0
  9
$DIMALTTZ
 70
     0
  9
$DIMUPT
 70
     0
  9
$DIMDEC
 70
     4
  9
$DIMTDEC
 70
     4
  9
$DIMALTU
 70
     2
  9
$DIMALTTD
 70
     2
  9
$DIMTXSTY
  7
Standard
  9
$DIMAUNIT
 70
     0
  9
$DIMADEC
 70
     0
  9
$DIMALTRND
 40
0.0
  9
$DIMAZIN
 70
     0
  9
$DIMDSEP
 70
    46
  9
$DIMATFIT
 70
     3
  9
$DIMFRAC
 70
     0
  9
$DIMLDRBLK
  1

  9
$DIMLUNIT
 70
     2
  9
$DIMLWD
 70
    -2
  9
$DIMLWE
 70
    -2
  9
$DIMTMOVE
 70
     0
  9
$DIMFXL
 40
1.0
  9
$DIMFXLON
 70
     0
  9
$DIMJOGANG
 40
0.7853981633974483
  9
$DIMTFILL
 70
     0
  9
$DIMTFILLCLR
 70
     0
  9
$DIMARCSYM
 70
     0
  9
$DIMLTYPE
  6

  9
$DIMLTEX1
  6

  9
$DIMLTEX2
  6

  9
$DIMTXTDIRECTION
 70
     0
  9
$LUNITS
 70
     2
  9
$LUPREC
 70
     4
  9
$SKETCHINC
 40
0.1
  9
$FILLETRAD
 40
0.0
  9
$AUNITS
 70
     0
  9
$AUPREC
 70
     0
  9
$MENU
  1
.
  9
$ELEVATION
 40
0.0
  9
$PELEVATION
 40
0.0
  9
$THICKNESS
 40
0.0
  9
$LIMCHECK
 70
     0
  9
$CHAMFERA
 40
0.0
  9
$CHAMFERB
 40
0.0
  9
$CHAMFERC
 40
0.0
  9
$CHAMFERD
 40
0.0
  9
$SKPOLY
 70
     0
  9
$TDCREATE
 40
2460035.463831019
  9
$TDUCREATE
 40
2460035.380497685
  9
$TDUPDATE
 40
2460035.463831019
  9
$TDUUPDATE
 40
2460035.380497685
  9
$TDINDWG
 40
0.0000000000
  9
$TDUSRTIMER
 40
0.0000000000
  9
$USRTIMER
 70
     1
  9
$ANGBASE
 50
0.0
  9
$ANGDIR
 70
     0
  9
$PDMODE
 70
     0
  9
$PDSIZE
 40
0.0
  9
$PLINEWID
 40
0.0
  9
$SPLFRAME
 70
     0
  9
$SPLINETYPE
 70
     6
  9
$SPLINESEGS
 70
     8
  9
$HANDSEED
  5
116
  9
$SURFTAB1
 70
     6
  9
$SURFTAB2
 70
     6
  9
$SURFTYPE
 70
     6
  9
$SURFU
 70
     6
  9
$SURFV
 70
     6
  9
$UCSBASE
  2

  9
$UCSNAME
  2

  9
$UCSORG
 10
0.0
 20
0.0
 30
0.0
  9
$UCSXDIR
 10
1.0
 20
0.0
 30
0.0
  9
$UCSYDIR
 10
0.0
 20
1.0
 30
0.0
  9
$UCSORTHOREF
  2

  9
$UCSORTHOVIEW
 70
     0
  9
$UCSORGTOP
 10
0.0
 20
0.0
 30
0.0
  9
$UCSORGBOTTOM
 10
0.0
 20
0.0
 30
0.0
  9
$UCSORGLEFT
 10
0.0
 20
0.0
 30
0.0
  9
$UCSORGRIGHT
 10
0.0
 20
0.0
 30
0.0
  9
$UCSORGFRONT
 10
0.0
 20
0.0
 30
0.0
  9
$UCSORGBACK
 10
0.0
 20
0.0
 30
0.0
  9
$PUCSBASE
  2

  9
$PUCSNAME
  2

  9
$PUCSORG
 10
0.0
 20
0.0
 30
0.0
  9
$PUCSXDIR
 10
1.0
 20
0.0
 30
0.0
  9
$PUCSYDIR
 10
0.0
 20
1.0
 30
0.0
  9
$PUCSORTHOREF
  2

  9
$PUCSORTHOVIEW
 70
     0
  9
$PUCSORGTOP
 10
0.0
 20
0.0
 30
0.0
  9
$PUCSORGBOTTOM
 10
0.0
 20
0.0
 30
0.0
  9
$PUCSORGLEFT
 10
0.0
 20
0.0
 30
0.0
  9
$PUCSORGRIGHT
 10
0.0
 20
0.0
 30
0.0
  9
$PUCSORGFRONT
 10
0.0
 20
0.0
 30
0.0
  9
$PUCSORGBACK
 10
0.0
 20
0.0
 30
0.0
  9
$USERI1
 70
     0
  9
$USERI2
 70
     0
  9
$USERI3
 70
     0
  9
$USERI4
 70
     0
  9
$USERI5
 70
     0
  9
$USERR1
 40
0.0
  9
$USERR2
 40
0.0
  9
$USERR3
 40
0.0
  9
$USERR4
 40
0.0
  9
$USERR5
 40
0.0
  9
$WORLDVIEW
 70
     1
  9
$SHADEDGE
 70
     3
  9
$SHADEDIF
 70
    70
  9
$TILEMODE
 70
     1
  9
$MAXACTVP
 70
    64
  9
$PINSBASE
 10
0.0
 20
0.0
 30
0.0
  9
$PLIMCHECK
 70
     0
  9
$PEXTMIN
 10
1.000000000000000E+20
 20
1.000000000000000E+20
 30
1.000000000000000E+20
  9
$PEXTMAX
 10
-1.000000000000000E+20
 20
-1.000000000000000E+20
 30
-1.000000000000000E+20
  9
$PLIMMIN
 10
0.0
 20
0.0
  9
$PLIMMAX
 10
12.0
 20
9.0
  9
$UNITMODE
 70
     0
  9
$VISRETAIN
 70
     1
  9
$PLINEGEN
 70
     0
  9
$PSLTSCALE
 70
     1
  9
$TREEDEPTH
 70
  3020
  9
$CMLSTYLE
  2
Standard
  9
$CMLJUST
 70
     0
  9
$CMLSCALE
 40
1.0
  9
$PROXYGRAPHICS
 70
     1
  9
$MEASUREMENT
 70
     0
  9
$CELWEIGHT
370
    -1
  9
$ENDCAPS
280
     0
  9
$JOINSTYLE
280
     0
  9
$LWDISPLAY
290
     1
  9
$INSUNITS
 70
     4
  9
$HYPERLINKBASE
  1

  9
$STYLESHEET
  1

  9
$XEDIT
290
     1
  9
$CEPSNTYPE
380
     0
  9
$PSTYLEMODE
290
     1
  9
$FINGERPRINTGUID
  2
{1023A66B-869D-3140-BEEB-CBA8231D3AA4}
  9
$VERSIONGUID
  2
{7EA86AA9-61A2-2249-9BA8-BF15F60CCE10}
  9
$EXTNAMES
290
     1
  9
$PSVPSCALE
 40
0.0
  9
$OLESTARTUP
290
     0
  9
$SORTENTS
280
   127
  9
$INDEXCTL
280
     0
  9
$HIDETEXT
280
     1
  9
$XCLIPFRAME
280
     2
  9
$HALOGAP
280
     0
  9
$OBSCOLOR
 70
   257
  9
$OBSLTYPE
280
     0
  9
$INTERSECTIONDISPLAY
280
     0
  9
$INTERSECTIONCOLOR
 70
   257
  9
$DIMASSOC
280
     2
  9
$PROJECTNAME
  1

  9
$CAMERADISPLAY
290
     0
  9
$LENSLENGTH
 40
50.0
  9
$CAMERAHEIGHT
 40
0.0
  9
$STEPSPERSEC
 40
2.0
  9
$STEPSIZE
 40
6.0
  9
$3DDWFPREC
 40
2.0
  9
$PSOLWIDTH
 40
0.25
  9
$PSOLHEIGHT
 40
4.0
  9
$LOFTANG1
 40
1.570796326794896
  9
$LOFTANG2
 40
1.570796326794896
  9
$LOFTMAG1
 40
0.0
  9
$LOFTMAG2
 40
0.0
  9
$LOFTPARAM
 70
     7
  9
$LOFTNORMALS
280
     1
  9
$LATITUDE
 40
37.795
  9
$LONGITUDE
 40
-122.394
  9
$NORTHDIRECTION
 40
0.0
  9
$TIMEZONE
 70
 -8000
  9
$LIGHTGLYPHDISPLAY
280
     1
  9
$TILEMODELIGHTSYNCH
280
     1
  9
$CMATERIAL
347
11
  9
$SOLIDHIST
280
     0
  9
$SHOWHIST
280
     1
  9
$DWFFRAME
280
     2
  9
$DGNFRAME
280
     0
  9
$REALWORLDSCALE
290
     1
  9
$INTERFERECOLOR
 62
     1
  9
$INTERFEREOBJVS
345
33
  9
$INTERFEREVPVS
346
30
  9
$CSHADOW
280
     0
  9
$SHADOWPLANELOCATION
 40
0.0
  0
ENDSEC
  0
SECTION
  2
CLASSES
  0
CLASS
  1
ACDBDICTIONARYWDFLT
  2
AcDbDictionaryWithDefault
  3
ObjectDBX Classes
 90
        0
 91
        1
280
     0
281
     0
  0
CLASS
  1
MATERIAL
  2
AcDbMaterial
  3
ObjectDBX Classes
 90
     1153
 91
        3
280
     0
281
     0
  0
CLASS
  1
VISUALSTYLE
  2
AcDbVisualStyle
  3
ObjectDBX Classes
 90
     4095
 91
       24
280
     0
281
     0
  0
CLASS
  1
SCALE
  2
AcDbScale
  3
ObjectDBX Classes
 90
     1153
 91
       17
280
     0
281
     0
  0
CLASS
  1
TABLESTYLE
  2
AcDbTableStyle
  3
ObjectDBX Classes
 90
     4095
 91
        1
280
     0
281
     0
  0
CLASS
  1
MLEADERSTYLE
  2
AcDbMLeaderStyle
  3
ACDB_MLEADERSTYLE_CLASS
 90
     4095
 91
        1
280
     0
281
     0
  0
CLASS
  1
ACDBSECTIONVIEWSTYLE
  2
AcDbSectionViewStyle
  3
ObjectDBX Classes
 90
     1025
 91
        1
280
     0
281
     0
  0
CLASS
  1
ACDBDETAILVIEWSTYLE
  2
AcDbDetailViewStyle
  3
ObjectDBX Classes
 90
     1025
 91
        1
280
     0
281
     0
  0
CLASS
  1
DICTIONARYVAR
  2
AcDbDictionaryVar
  3
ObjectDBX Classes
 90
        0
 91
        5
280
     0
281
     0
  0
CLASS
  1
CELLSTYLEMAP
  2
AcDbCellStyleMap
  3
ObjectDBX Classes
 90
     1152
 91
        1
280
     0
281
     0
  0
ENDSEC
  0
SECTION
  2
TABLES
  0
TABLE
  2
VPORT
  5
8
330
0
100
AcDbSymbolTable
 70
     1
  0
VPORT
  5
57
330
8
100
AcDbSymbolTableRecord
100
AcDbViewportTableRecord
  2
*Active
 70
     0
 10
0.0
 20
0.0
 11
1.0
 21
1.0
 12
0.0
 22
0.0
 13
0.0
 23
0.0
 14
1.0
 24
1.0
 15
0.0
 25
0.0
 16
0.0
 26
0.0
 36
1.0
 17
104.9999999737499
 27
31.49999999212523
 37
0.0
 40
302.9399999242649
 41
0.7070707070707066
 42
50.0
 43
0.0
 44
0.0
 50
0.0
 51
0.0
 71
     0
 72
   100
 73
     1
 74
     1
 75
     0
 76
     0
 77
     0
 78
     0
281
     0
 65
     1
110
0.0
120
0.0
130
0.0
111
1.0
121
0.0
131
0.0
112
0.0
122
1.0
132
0.0
 79
     0
146
0.0
 60
     3
 61
     5
292
     1
282
     1
141
0.0
142
0.0
 63
   250
421
  3355443
  0
ENDTAB
  0
TABLE
  2
LTYPE
  5
5
330
0
100
AcDbSymbolTable
 70
     1
  0
LTYPE
  5
5B
330
5
100
AcDbSymbolTableRecord
100
AcDbLinetypeTableRecord
  2
ByBlock
 70
     0
  3

 72
    65
 73
     0
 40
0.0
  0
LTYPE
  5
5C
330
5
100
AcDbSymbolTableRecord
100
AcDbLinetypeTableRecord
  2
ByLayer
 70
     0
  3

 72
    65
 73
     0
 40
0.0
  0
LTYPE
  5
5D
330
5
100
AcDbSymbolTableRecord
100
AcDbLinetypeTableRecord
  2
Continuous
 70
     0
  3
Solid line
 72
    65
 73
     0
 40
0.0
  0
ENDTAB
  0
TABLE
  2
LAYER
  5
2
330
0
100
AcDbSymbolTable
 70
     2
  0
LAYER
  5
54
330
2
100
AcDbSymbolTableRecord
100
AcDbLayerTableRecord
  2
0
 70
     0
 62
     7
  6
Continuous
370
     0
390
F
347
21
348
0
  0
LAYER
  5
E6
330
2
100
AcDbSymbolTableRecord
100
AcDbLayerTableRecord
  2
CAPA_BASE
 70
     0
 62
     7
  6
Continuous
370
     0
390
F
347
21
348
0
  0
ENDTAB
  0
TABLE
  2
STYLE
  5
3
330
0
100
AcDbSymbolTable
 70
     2
  0
STYLE
  5
55
330
3
100
AcDbSymbolTableRecord
100
AcDbTextStyleTableRecord
  2
Standard
 70
     0
 40
0.0
 41
1.0
 50
0.0
 71
     0
 42
0.2
  3
txt
  4

  0
STYLE
  5
5A
330
3
100
AcDbSymbolTableRecord
100
AcDbTextStyleTableRecord
  2
Annotative
 70
     0
 40
0.0
 41
1.0
 50
0.0
 71
     0
 42
0.2
  3
txt
  4

1001
AcadAnnotative
1000
AnnotativeData
1002
{
1070
     1
1070
     1
1002
}
  0
ENDTAB
  0
TABLE
  2
VIEW
  5
6
330
0
100
AcDbSymbolTable
 70
     0
  0
ENDTAB
  0
TABLE
  2
UCS
  5
7
330
0
100
AcDbSymbolTable
 70
     0
  0
ENDTAB
  0
TABLE
  2
APPID
  5
9
330
0
100
AcDbSymbolTable
 70
     2
  0
APPID
  5
56
330
9
100
AcDbSymbolTableRecord
100
AcDbRegAppTableRecord
  2
ACAD
 70
     0
  0
APPID
  5
5E
330
9
100
AcDbSymbolTableRecord
100
AcDbRegAppTableRecord
  2
AcadAnnotative
 70
     0
  0
ENDTAB
  0
TABLE
  2
DIMSTYLE
  5
A
330
0
100
AcDbSymbolTable
 70
     2
100
AcDbDimStyleTable
 71
     0
  0
DIMSTYLE
105
58
330
A
100
AcDbSymbolTableRecord
100
AcDbDimStyleTableRecord
  2
Standard
 70
     0
340
55
  0
DIMSTYLE
105
59
330
A
100
AcDbSymbolTableRecord
100
AcDbDimStyleTableRecord
  2
Annotative
 70
     0
340
55
1001
AcadAnnotative
1000
AnnotativeData
1002
{
1070
     1
1070
     1
1002
}
  0
ENDTAB
  0
TABLE
  2
BLOCK_RECORD
  5
1
330
0
100
AcDbSymbolTable
 70
     4
  0
BLOCK_RECORD
  5
70
330
1
100
AcDbSymbolTableRecord
100
AcDbBlockTableRecord
  2
*Model_Space
340
73
 70
     0
280
     1
281
     0
  0
BLOCK_RECORD
  5
6C
330
1
100
AcDbSymbolTableRecord
100
AcDbBlockTableRecord
  2
*Paper_Space
340
6F
 70
     0
280
     1
281
     0
  0
BLOCK_RECORD
  5
74
330
1
100
AcDbSymbolTableRecord
100
AcDbBlockTableRecord
  2
*Paper_Space0
340
77
 70
     0
280
     1
281
     0
  0
BLOCK_RECORD
  5
E7
330
1
100
AcDbSymbolTableRecord
100
AcDbBlockTableRecord
  2
Block_0
340
0
102
{BLKREFS
331
E8
102
}
 70
     0
280
     1
281
     0
  0
BLOCK_RECORD
  5
F4
330
1
100
AcDbSymbolTableRecord
100
AcDbBlockTableRecord
  2
Block_1
340
0
102
{BLKREFS
331
F5
102
}
 70
     0
280
     1
281
     0
  0
BLOCK_RECORD
  5
100
330
1
100
AcDbSymbolTableRecord
100
AcDbBlockTableRecord
  2
Block_2
340
0
102
{BLKREFS
331
101
102
}
 70
     0
280
     1
281
     0
  0
ENDTAB
  0
ENDSEC
  0
SECTION
  2
BLOCKS
  0
BLOCK
  5
71
330
70
100
AcDbEntity
  8
0
100
AcDbBlockBegin
  2
*Model_Space
 70
     0
 10
0.0
 20
0.0
 30
0.0
  3
*Model_Space
  1

  0
ENDBLK
  5
72
330
70
100
AcDbEntity
  8
0
100
AcDbBlockEnd
  0
BLOCK
  5
6D
330
6C
100
AcDbEntity
 67
     1
  8
0
100
AcDbBlockBegin
  2
*Paper_Space
 70
     0
 10
0.0
 20
0.0
 30
0.0
  3
*Paper_Space
  1

  0
ENDBLK
  5
6E
330
6C
100
AcDbEntity
 67
     1
  8
0
100
AcDbBlockEnd
  0
BLOCK
  5
75
330
74
100
AcDbEntity
 67
     1
  8
0
100
AcDbBlockBegin
  2
*Paper_Space0
 70
     0
 10
0.0
 20
0.0
 30
0.0
  3
*Paper_Space0
  1

  0
ENDBLK
  5
76
330
74
100
AcDbEntity
 67
     1
  8
0
100
AcDbBlockEnd
  0
BLOCK
  5
E9
330
E7
100
AcDbEntity
  8
0
100
AcDbBlockBegin
  2
Block_0
 70
     0
 10
0.0
 20
0.0
 30
0.0
  3
Block_0
  1

  0
LWPOLYLINE
  5
EB
330
E7
100
AcDbEntity
  8
CAPA_BASE
100
AcDbPolyline
 90
        4
 70
     1
 43
0.0
 10
77.38527235043903
 20
76.08814710514984
 10
74.88527235043862
 20
76.39814710514958
 10
74.88527235043862
 20
75.77814710514949
 10
74.88527235043862
 20
75.77814710514949
  0
HATCH
  5
EC
330
E7
100
AcDbEntity
  8
CAPA_BASE
 62
    18
420
        0
440
 33554687
100
AcDbHatch
 10
0.0
 20
0.0
 30
0.0
210
0.0
220
0.0
230
1.0
  2
SOLID
 70
     1
 71
     1
 91
        1
 92
        1
 93
        3
 72
     1
 10
77.38527235043903
 20
76.08814710514984
 11
74.88527235043862
 21
76.39814710514958
 72
     1
 10
74.88527235043862
 20
76.39814710514958
 11
74.88527235043862
 21
75.77814710514949
 72
     1
 10
74.88527235043862
 20
75.77814710514949
 11
77.38527235043903
 21
76.08814710514984
 97
        1
330
EB
 75
     2
 76
     1
 98
        1
 10
0.0
 20
0.0
450
        0
451
        0
460
0.0
461
0.0
452
        0
462
0.0
453
        0
470

  0
LWPOLYLINE
  5
ED
330
E7
100
AcDbEntity
  8
CAPA_BASE
100
AcDbPolyline
 90
        4
 70
     1
 43
0.0
 10
22.3852723504387
 20
76.08814710514984
 10
24.88527235043879
 20
75.77814710514949
 10
24.88527235043879
 20
76.39814710514958
 10
24.88527235043879
 20
76.39814710514958
  0
HATCH
  5
EE
330
E7
100
AcDbEntity
  8
CAPA_BASE
 62
    18
420
        0
440
 33554687
100
AcDbHatch
 10
0.0
 20
0.0
 30
0.0
210
0.0
220
0.0
230
1.0
  2
SOLID
 70
     1
 71
     1
 91
        1
 92
        1
 93
        3
 72
     1
 10
22.3852723504387
 20
76.08814710514984
 11
24.88527235043879
 21
75.77814710514949
 72
     1
 10
24.88527235043879
 20
75.77814710514949
 11
24.88527235043879
 21
76.39814710514958
 72
     1
 10
24.88527235043879
 20
76.39814710514958
 11
22.3852723504387
 21
76.08814710514984
 97
        1
330
ED
 75
     2
 76
     1
 98
        1
 10
0.0
 20
0.0
450
        0
451
        0
460
0.0
461
0.0
452
        0
462
0.0
453
        0
470

  0
LINE
  5
EF
330
E7
100
AcDbEntity
  8
CAPA_BASE
 62
    18
420
        0
370
    25
100
AcDbLine
 10
77.38527235043903
 20
107.9631471051496
 30
0.0
 11
77.38527235043903
 21
75.08814710514918
 31
0.0
  0
LINE
  5
F0
330
E7
100
AcDbEntity
  8
CAPA_BASE
 62
    18
420
        0
370
    25
100
AcDbLine
 10
22.3852723504387
 20
107.9631471051496
 30
0.0
 11
22.3852723504387
 21
75.08814710514918
 31
0.0
  0
LINE
  5
F1
330
E7
100
AcDbEntity
  8
CAPA_BASE
 62
    18
420
        0
370
    25
100
AcDbLine
 10
77.38527235043903
 20
76.08814710514984
 30
0.0
 11
22.3852723504387
 21
76.08814710514984
 31
0.0
  0
MTEXT
  5
F2
330
E7
100
AcDbEntity
  8
CAPA_BASE
100
AcDbMText
 10
45.55327028619198
 20
76.88189203671486
 30
0.0
 40
0.2
 41
0.0
 46
0.0
 71
     7
 72
     1
  1
\C18;\c0;\FArial Bold|b1|i0|c1;\H2.997200;\W0.700000;Ø
 73
     1
 44
1.0
  0
MTEXT
  5
F3
330
E7
100
AcDbEntity
  8
CAPA_BASE
100
AcDbMText
 10
48.925604278201
 20
76.88189203671486
 30
0.0
 40
0.2
 41
0.0
 46
0.0
 71
     7
 72
     1
  1
\C18;\c0;\FArial Bold|b1|i0|c1;\H2.997200;\W0.700000;110
 73
     1
 44
1.0
  0
ENDBLK
  5
EA
330
E7
100
AcDbEntity
  8
0
100
AcDbBlockEnd
  0
BLOCK
  5
F6
330
F4
100
AcDbEntity
  8
0
100
AcDbBlockBegin
  2
Block_1
 70
     0
 10
0.0
 20
0.0
 30
0.0
  3
Block_1
  1

  0
LWPOLYLINE
  5
F8
330
F4
100
AcDbEntity
  8
CAPA_BASE
100
AcDbPolyline
 90
        4
 70
     1
 43
0.0
 10
87.38527235043875
 20
25.90021041644989
 10
87.07527235043839
 20
23.40021041644948
 10
87.69527235043911
 20
23.40021041644948
 10
87.69527235043911
 20
23.40021041644948
  0
HATCH
  5
F9
330
F4
100
AcDbEntity
  8
CAPA_BASE
 62
    18
420
        0
440
 33554687
100
AcDbHatch
 10
0.0
 20
0.0
 30
0.0
210
0.0
220
0.0
230
1.0
  2
SOLID
 70
     1
 71
     1
 91
        1
 92
        1
 93
        3
 72
     1
 10
87.38527235043875
 20
25.90021041644989
 11
87.07527235043839
 21
23.40021041644948
 72
     1
 10
87.07527235043839
 20
23.40021041644948
 11
87.69527235043911
 21
23.40021041644948
 72
     1
 10
87.69527235043911
 20
23.40021041644948
 11
87.38527235043875
 21
25.90021041644989
 97
        1
330
F8
 75
     2
 76
     1
 98
        1
 10
0.0
 20
0.0
450
        0
451
        0
460
0.0
461
0.0
452
        0
462
0.0
453
        0
470

  0
LWPOLYLINE
  5
FA
330
F4
100
AcDbEntity
  8
CAPA_BASE
100
AcDbPolyline
 90
        4
 70
     1
 43
0.0
 10
87.38527235043875
 20
-37.09978958355041
 10
87.69527235043911
 20
-34.59978958355065
 10
87.07527235043839
 20
-34.59978958355065
 10
87.07527235043839
 20
-34.59978958355065
  0
HATCH
  5
FB
330
F4
100
AcDbEntity
  8
CAPA_BASE
 62
    18
420
        0
440
 33554687
100
AcDbHatch
 10
0.0
 20
0.0
 30
0.0
210
0.0
220
0.0
230
1.0
  2
SOLID
 70
     1
 71
     1
 91
        1
 92
        1
 93
        3
 72
     1
 10
87.38527235043875
 20
-37.09978958355041
 11
87.69527235043911
 21
-34.59978958355065
 72
     1
 10
87.69527235043911
 20
-34.59978958355065
 11
87.07527235043839
 21
-34.59978958355065
 72
     1
 10
87.07527235043839
 20
-34.59978958355065
 11
87.38527235043875
 21
-37.09978958355041
 97
        1
330
FA
 75
     2
 76
     1
 98
        1
 10
0.0
 20
0.0
450
        0
451
        0
460
0.0
461
0.0
452
        0
462
0.0
453
        0
470

  0
LINE
  5
FC
330
F4
100
AcDbEntity
  8
CAPA_BASE
 62
    18
420
        0
370
    25
100
AcDbLine
 10
64.63527235043875
 20
25.90021041644989
 30
0.0
 11
88.38527235043878
 21
25.90021041644989
 31
0.0
  0
LINE
  5
FD
330
F4
100
AcDbEntity
  8
CAPA_BASE
 62
    18
420
        0
370
    25
100
AcDbLine
 10
50.88527235043875
 20
-37.09978958355041
 30
0.0
 11
88.38527235043878
 21
-37.09978958355041
 31
0.0
  0
LINE
  5
FE
330
F4
100
AcDbEntity
  8
CAPA_BASE
 62
    18
420
        0
370
    25
100
AcDbLine
 10
87.38527235043875
 20
25.90021041644989
 30
0.0
 11
87.38527235043875
 21
-37.09978958355041
 31
0.0
  0
MTEXT
  5
FF
330
F4
100
AcDbEntity
  8
CAPA_BASE
100
AcDbMText
 10
86.59152223753515
 20
-8.245491534397602
 30
0.0
 40
0.2
 41
0.0
 46
0.0
 71
     7
 72
     1
  1
\C18;\c0;\FArial Bold|b1|i0|c1;\H2.997200;\W0.700000;126
 11
0.0000000000000003
 21
1.0
 31
0.0
 73
     1
 44
1.0
  0
ENDBLK
  5
F7
330
F4
100
AcDbEntity
  8
0
100
AcDbBlockEnd
  0
BLOCK
  5
102
330
100
100
AcDbEntity
  8
0
100
AcDbBlockBegin
  2
Block_2
 70
     0
 10
0.0
 20
0.0
 30
0.0
  3
Block_2
  1

  0
LWPOLYLINE
  5
104
330
100
100
AcDbEntity
  8
CAPA_BASE
100
AcDbPolyline
 90
        4
 70
     1
 43
0.0
 10
112.4517733618389
 20
113.5881471051495
 10
112.1417733618386
 20
111.0881471051494
 10
112.7617733618387
 20
111.0881471051494
 10
112.7617733618387
 20
111.0881471051494
  0
HATCH
  5
105
330
100
100
AcDbEntity
  8
CAPA_BASE
 62
    18
420
        0
440
 33554687
100
AcDbHatch
 10
0.0
 20
0.0
 30
0.0
210
0.0
220
0.0
230
1.0
  2
SOLID
 70
     1
 71
     1
 91
        1
 92
        1
 93
        3
 72
     1
 10
112.4517733618389
 20
113.5881471051495
 11
112.1417733618386
 21
111.0881471051494
 72
     1
 10
112.1417733618386
 20
111.0881471051494
 11
112.7617733618387
 21
111.0881471051494
 72
     1
 10
112.7617733618387
 20
111.0881471051494
 11
112.4517733618389
 21
113.5881471051495
 97
        1
330
104
 75
     2
 76
     1
 98
        1
 10
0.0
 20
0.0
450
        0
451
        0
460
0.0
461
0.0
452
        0
462
0.0
453
        0
470

  0
LWPOLYLINE
  5
106
330
100
100
AcDbEntity
  8
CAPA_BASE
100
AcDbPolyline
 90
        4
 70
     1
 43
0.0
 10
112.4517733618389
 20
86.08814710514955
 10
112.7617733618387
 20
88.58814710514932
 10
112.1417733618386
 20
88.58814710514932
 10
112.1417733618386
 20
88.58814710514932
  0
HATCH
  5
107
330
100
100
AcDbEntity
  8
CAPA_BASE
 62
    18
420
        0
440
 33554687
100
AcDbHatch
 10
0.0
 20
0.0
 30
0.0
210
0.0
220
0.0
230
1.0
  2
SOLID
 70
     1
 71
     1
 91
        1
 92
        1
 93
        3
 72
     1
 10
112.4517733618389
 20
86.08814710514955
 11
112.7617733618387
 21
88.58814710514932
 72
     1
 10
112.7617733618387
 20
88.58814710514932
 11
112.1417733618386
 21
88.58814710514932
 72
     1
 10
112.1417733618386
 20
88.58814710514932
 11
112.4517733618389
 21
86.08814710514955
 97
        1
330
106
 75
     2
 76
     1
 98
        1
 10
0.0
 20
0.0
450
        0
451
        0
460
0.0
461
0.0
452
        0
462
0.0
453
        0
470

  0
LINE
  5
108
330
100
100
AcDbEntity
  8
CAPA_BASE
 62
    18
420
        0
370
    25
100
AcDbLine
 10
121.4517733618386
 20
113.5881471051495
 30
0.0
 11
111.4517733618389
 21
113.5881471051495
 31
0.0
  0
LINE
  5
109
330
100
100
AcDbEntity
  8
CAPA_BASE
 62
    18
420
        0
370
    25
100
AcDbLine
 10
121.4517733618386
 20
86.08814710514955
 30
0.0
 11
111.4517733618389
 21
86.08814710514955
 31
0.0
  0
LINE
  5
10A
330
100
100
AcDbEntity
  8
CAPA_BASE
 62
    18
420
        0
370
    25
100
AcDbLine
 10
112.4517733618389
 20
113.5881471051495
 30
0.0
 11
112.4517733618389
 21
86.08814710514955
 31
0.0
  0
MTEXT
  5
10B
330
100
100
AcDbEntity
  8
CAPA_BASE
100
AcDbMText
 10
111.6580208393279
 20
96.38825952451341
 30
0.0
 40
0.2
 41
0.0
 46
0.0
 71
     7
 72
     1
  1
\C18;\c0;\FArial Bold|b1|i0|c1;\H2.997200;\W0.700000;Ø
 11
0.0000000000000003
 21
1.0
 31
0.0
 73
     1
 44
1.0
  0
MTEXT
  5
10C
330
100
100
AcDbEntity
  8
CAPA_BASE
100
AcDbMText
 10
111.6580208393279
 20
99.76066349502447
 30
0.0
 40
0.2
 41
0.0
 46
0.0
 71
     7
 72
     1
  1
\C18;\c0;\FArial Bold|b1|i0|c1;\H2.997200;\W0.700000;55
 11
0.0000000000000003
 21
1.0
 31
0.0
 73
     1
 44
1.0
  0
ENDBLK
  5
103
330
100
100
AcDbEntity
  8
0
100
AcDbBlockEnd
  0
ENDSEC
  0
SECTION
  2
ENTITIES
  0
LINE
  5
78
330
70
100
AcDbEntity
  8
0
 62
    18
420
        0
370
    25
100
AcDbLine
 10
31.88527235043872
 20
103.9631471051494
 30
0.0
 11
31.88527235043872
 21
103.8381471051497
 31
0.0
  0
LINE
  5
79
330
70
100
AcDbEntity
  8
0
 62
    18
420
        0
370
    25
100
AcDbLine
 10
67.88527235043902
 20
103.8381471051497
 30
0.0
 11
67.88527235043902
 21
103.9631471051494
 31
0.0
  0
SPLINE
  5
7A
330
70
100
AcDbEntity
  8
0
 62
    18
420
        0
370
    25
100
AcDbSpline
210
0.0
220
0.0
230
1.0
 70
     8
 71
     3
 72
    11
 73
     7
 74
     0
 42
0.0000000001
 43
0.0000000001
 40
0.0
 40
0.0
 40
0.0
 40
0.0
 40
1.0
 40
1.0
 40
1.0
 40
2.0
 40
2.0
 40
2.0
 40
2.0
 10
30.85420192277249
 20
96.09032873902378
 30
0.0
 10
30.85299703965416
 20
95.95226280889383
 30
0.0
 10
30.96394483953448
 20
95.8393615075021
 30
0.0
 10
31.10201076966445
 20
95.83815662438345
 30
0.0
 10
31.10273796364943
 20
95.8381502782578
 30
0.0
 10
31.10346518186337
 20
95.83814710514975
 30
0.0
 10
31.10419240353863
 20
95.83814710514975
 30
0.0
  0
SPLINE
  5
7B
330
70
100
AcDbEntity
  8
0
 62
    18
420
        0
370
    25
100
AcDbSpline
210
0.0
220
0.0
230
1.0
 70
     8
 71
     3
 72
    11
 73
     7
 74
     0
 42
0.0000000001
 43
0.0000000001
 40
0.0
 40
0.0
 40
0.0
 40
0.0
 40
1.0
 40
1.0
 40
1.0
 40
2.0
 40
2.0
 40
2.0
 40
2.0
 10
68.66635229743825
 20
95.83814710514975
 30
0.0
 10
68.80442348489648
 20
95.83814710514975
 30
0.0
 10
68.91635229743906
 20
95.95007591769201
 30
0.0
 10
68.91635229743906
 20
96.08814710514959
 30
0.0
 10
68.91635229743906
 20
96.08887432682486
 30
0.0
 10
68.91634912433035
 20
96.08960154503879
 30
0.0
 10
68.91634277820471
 20
96.09032873902378
 30
0.0
  0
LINE
  5
7C
330
70
100
AcDbEntity
  8
0
 62
    18
420
        0
370
    25
100
AcDbLine
 10
68.91634277813861
 20
96.09032873904945
 30
0.0
 11
68.88527235043842
 21
99.6506471051496
 31
0.0
  0
LINE
  5
7D
330
70
100
AcDbEntity
  8
0
 62
    18
420
        0
370
    25
100
AcDbLine
 10
30.88527235043868
 20
99.6506471051496
 30
0.0
 11
30.85420192283859
 21
96.09032873904945
 31
0.0
  0
SPLINE
  5
7E
330
70
100
AcDbEntity
  8
0
 62
    18
420
        0
370
    25
100
AcDbSpline
210
0.0
220
0.0
230
1.0
 70
     8
 71
     3
 72
     8
 73
     4
 74
     0
 42
0.0000000001
 43
0.0000000001
 40
0.0
 40
0.0
 40
0.0
 40
0.0
 40
1.0
 40
1.0
 40
1.0
 40
1.0
 10
68.88527235044356
 20
99.6506471051496
 30
0.0
 10
68.88527235044356
 20
100.9682227343373
 30
0.0
 10
68.85055224071646
 20
102.2855695919793
 30
0.0
 10
68.7811481732931
 20
103.6013160014573
 30
0.0
  0
SPLINE
  5
7F
330
70
100
AcDbEntity
  8
0
 62
    18
420
        0
370
    25
100
AcDbSpline
210
0.0
220
0.0
230
1.0
 70
     8
 71
     3
 72
     8
 73
     4
 74
     0
 42
0.0000000001
 43
0.0000000001
 40
0.0
 40
0.0
 40
0.0
 40
0.0
 40
1.0
 40
1.0
 40
1.0
 40
1.0
 10
30.98939652758432
 20
103.6013160014573
 30
0.0
 10
30.91999246016097
 20
102.2855695919793
 30
0.0
 10
30.88527235043419
 20
100.9682227343373
 30
0.0
 10
30.88527235043419
 20
99.6506471051496
 30
0.0
  0
SPLINE
  5
80
330
70
100
AcDbEntity
  8
0
 62
    18
420
        0
370
    25
100
AcDbSpline
210
0.0
220
0.0
230
1.0
 70
     8
 71
     3
 72
     8
 73
     4
 74
     0
 42
0.0000000001
 43
0.0000000001
 40
0.0
 40
0.0
 40
0.0
 40
0.0
 40
1.0
 40
1.0
 40
1.0
 40
1.0
 10
68.7811481733483
 20
103.6013160014705
 30
0.0
 10
68.77414476128932
 20
103.7340850827683
 30
0.0
 10
68.66444891778077
 20
103.8381471051497
 30
0.0
 10
68.53149525393892
 20
103.8381471051497
 30
0.0
  0
SPLINE
  5
81
330
70
100
AcDbEntity
  8
0
 62
    18
420
        0
370
    25
100
AcDbSpline
210
0.0
220
0.0
230
1.0
 70
     8
 71
     3
 72
     8
 73
     4
 74
     0
 42
0.0000000001
 43
0.0000000001
 40
0.0
 40
0.0
 40
0.0
 40
0.0
 40
1.0
 40
1.0
 40
1.0
 40
1.0
 10
31.2390494470386
 20
103.8381471051497
 30
0.0
 10
31.10609578319611
 20
103.8381471051497
 30
0.0
 10
30.99639993968788
 20
103.7340850827683
 30
0.0
 10
30.98939652762923
 20
103.6013160014705
 30
0.0
  0
LINE
  5
82
330
70
100
AcDbEntity
  8
0
 62
    18
420
        0
370
    25
100
AcDbLine
 10
22.3852723504387
 20
108.9631471051496
 30
0.0
 11
22.63527235043855
 21
103.9631471051494
 31
0.0
  0
LINE
  5
83
330
70
100
AcDbEntity
  8
0
 62
    18
420
        0
370
    25
100
AcDbLine
 10
77.13527235043887
 20
103.9631471051494
 30
0.0
 11
77.38527235043903
 21
108.9631471051496
 31
0.0
  0
SPLINE
  5
84
330
70
100
AcDbEntity
  8
0
 62
    18
420
        0
370
    25
100
AcDbSpline
210
0.0
220
0.0
230
1.0
 70
     8
 71
     3
 72
     8
 73
     4
 74
     0
 42
0.0000000001
 43
0.0000000001
 40
0.0
 40
0.0
 40
0.0
 40
0.0
 40
1.0
 40
1.0
 40
1.0
 40
1.0
 10
63.7232515791386
 20
94.96170647704955
 30
0.0
 10
64.31033067056924
 20
94.96170647704955
 30
0.0
 10
64.84344753748427
 20
95.30419929586184
 30
0.0
 10
65.08749998382855
 20
95.83814710513562
 30
0.0
  0
SPLINE
  5
85
330
70
100
AcDbEntity
  8
0
 62
    18
420
        0
370
    25
100
AcDbSpline
210
0.0
220
0.0
230
1.0
 70
     8
 71
     3
 72
     8
 73
     4
 74
     0
 42
0.0000000001
 43
0.0000000001
 40
0.0
 40
0.0
 40
0.0
 40
0.0
 40
1.0
 40
1.0
 40
1.0
 40
1.0
 10
34.68304471714898
 20
95.83814710513562
 30
0.0
 10
34.92709716349326
 20
95.30419929586184
 30
0.0
 10
35.46021403040797
 20
94.96170647704955
 30
0.0
 10
36.0472931218386
 20
94.96170647704955
 30
0.0
  0
LINE
  5
86
330
70
100
AcDbEntity
  8
0
 62
    18
420
        0
370
    25
100
AcDbLine
 10
68.66635229743825
 20
95.83814710514975
 30
0.0
 11
31.10419240353863
 21
95.83814710514975
 31
0.0
  0
LINE
  5
87
330
70
100
AcDbEntity
  8
0
 62
    18
420
        0
370
    25
100
AcDbLine
 10
31.2390494470386
 20
103.8381471051497
 30
0.0
 11
68.53149525393892
 21
103.8381471051497
 31
0.0
  0
SPLINE
  5
88
330
70
100
AcDbEntity
  8
0
 62
    18
420
        0
370
    25
100
AcDbSpline
210
0.0
220
0.0
230
1.0
 70
     8
 71
     3
 72
    11
 73
     7
 74
     0
 42
0.0000000001
 43
0.0000000001
 40
0.0
 40
0.0
 40
0.0
 40
0.0
 40
1.0
 40
1.0
 40
1.0
 40
2.0
 40
2.0
 40
2.0
 40
2.0
 10
60.17103313902559
 20
108.9631471051477
 30
0.0
 10
55.13143479682077
 20
114.6438159290918
 30
0.0
 10
46.4409411743847
 20
115.1635062359416
 30
0.0
 10
40.76027235044055
 20
110.1239078937364
 30
0.0
 10
40.3505802500751
 20
109.7604500520976
 30
0.0
 10
39.96296940349065
 20
109.3728392055135
 30
0.0
 10
39.59951156185183
 20
108.9631471051477
 30
0.0
  0
SPLINE
  5
89
330
70
100
AcDbEntity
  8
0
 62
    18
420
        0
370
    25
100
AcDbSpline
210
0.0
220
0.0
230
1.0
 70
     8
 71
     3
 72
    11
 73
     7
 74
     0
 42
0.0000000001
 43
0.0000000001
 40
0.0
 40
0.0
 40
0.0
 40
0.0
 40
1.0
 40
1.0
 40
1.0
 40
2.0
 40
2.0
 40
2.0
 40
2.0
 10
37.02903546709194
 20
94.9617064770611
 30
0.0
 10
39.72221925944066
 20
87.86140290617652
 30
0.0
 10
47.66140940764261
 20
84.28872642945409
 30
0.0
 10
54.76171297852718
 20
86.9819102218028
 30
0.0
 10
58.4409439352067
 20
88.37746255022283
 30
0.0
 10
61.34595690536544
 20
91.28247552038159
 30
0.0
 10
62.74150923378548
 20
94.9617064770611
 30
0.0
  0
LINE
  5
8A
330
70
100
AcDbEntity
  8
0
 62
    18
420
        0
370
    25
100
AcDbLine
 10
77.38527235043903
 20
108.9631471051496
 30
0.0
 11
22.3852723504387
 21
108.9631471051496
 31
0.0
  0
LINE
  5
8B
330
70
100
AcDbEntity
  8
0
 62
    18
420
        0
370
    25
100
AcDbLine
 10
77.13527235043887
 20
103.9631471051494
 30
0.0
 11
22.63527235043855
 21
103.9631471051494
 31
0.0
  0
LINE
  5
8C
330
70
100
AcDbEntity
  8
0
 62
    18
420
        0
370
    25
100
AcDbLine
 10
63.7232515791386
 20
94.96170647704955
 30
0.0
 11
36.0472931218386
 21
94.96170647704955
 31
0.0
  0
LINE
  5
8D
330
70
100
AcDbEntity
  8
0
 62
     8
420
  8421504
370
    25
100
AcDbLine
 10
30.85420192283859
 20
96.09032873904945
 30
0.0
 11
68.91634277813861
 21
96.09032873904945
 31
0.0
  0
LINE
  5
8E
330
70
100
AcDbEntity
  8
0
 62
     8
420
  8421504
370
    25
100
AcDbLine
 10
30.88527235043868
 20
99.6506471051496
 30
0.0
 11
68.88527235043842
 21
99.6506471051496
 31
0.0
  0
LINE
  5
8F
330
70
100
AcDbEntity
  8
0
 62
     8
420
  8421504
370
    25
100
AcDbLine
 10
68.78114817333866
 20
103.6013160014496
 30
0.0
 11
30.98939652763886
 21
103.6013160014496
 31
0.0
  0
SPLINE
  5
90
330
70
100
AcDbEntity
  8
0
 62
     8
420
  8421504
370
    25
100
AcDbSpline
210
0.0
220
0.0
230
1.0
 70
     8
 71
     3
 72
    11
 73
     7
 74
     0
 42
0.0000000001
 43
0.0000000001
 40
0.0
 40
0.0
 40
0.0
 40
0.0
 40
1.0
 40
1.0
 40
1.0
 40
2.0
 40
2.0
 40
2.0
 40
2.0
 10
37.53670202092696
 20
94.96170647707073
 30
0.0
 10
40.22988581327021
 20
88.14177940186782
 30
0.0
 10
47.94178590331529
 20
84.79639298329455
 30
0.0
 10
54.76171297851756
 20
87.48957677563813
 30
0.0
 10
58.17904008429743
 20
88.83907653904211
 30
0.0
 10
60.88434291654617
 20
91.54437937129085
 30
0.0
 10
62.23384267995046
 20
94.96170647707073
 30
0.0
  0
SPLINE
  5
91
330
70
100
AcDbEntity
  8
0
 62
     8
420
  8421504
370
    25
100
AcDbSpline
210
0.0
220
0.0
230
1.0
 70
     8
 71
     3
 72
    11
 73
     7
 74
     0
 42
0.0000000001
 43
0.0000000001
 40
0.0
 40
0.0
 40
0.0
 40
0.0
 40
1.0
 40
1.0
 40
1.0
 40
2.0
 40
2.0
 40
2.0
 40
2.0
 10
59.52898726649055
 20
108.9631471051493
 30
0.0
 10
54.48938892428477
 20
114.2892237850007
 30
0.0
 10
46.08634903029006
 20
114.5214603634075
 30
0.0
 10
40.76027235043894
 20
109.4818620212014
 30
0.0
 10
40.58262268380686
 20
109.3137677523301
 30
0.0
 10
40.40965170325814
 20
109.1407967717814
 30
0.0
 10
40.24155743438686
 20
108.9631471051493
 30
0.0
  0
LINE
  5
92
330
70
100
AcDbEntity
  8
0
 62
    18
420
        0
370
    25
100
AcDbLine
 10
45.88527235043857
 20
22.90021041644978
 30
0.0
 11
45.88527235043857
 21
17.60774613724974
 31
0.0
  0
LINE
  5
93
330
70
100
AcDbEntity
  8
0
 62
    18
420
        0
370
    25
100
AcDbLine
 10
53.88527235043885
 20
17.60774613724974
 30
0.0
 11
53.88527235043885
 21
22.90021041644978
 31
0.0
  0
LINE
  5
94
330
70
100
AcDbEntity
  8
0
 62
    18
420
        0
370
    25
100
AcDbLine
 10
63.63527235043871
 20
23.72028543884947
 30
0.0
 11
63.63527235043871
 21
25.90021041644989
 31
0.0
  0
LINE
  5
95
330
70
100
AcDbEntity
  8
0
 62
    18
420
        0
370
    25
100
AcDbLine
 10
36.1352723504387
 20
25.90021041644989
 30
0.0
 11
36.1352723504387
 21
23.72028543884947
 31
0.0
  0
SPLINE
  5
96
330
70
100
AcDbEntity
  8
0
 62
    18
420
        0
370
    25
100
AcDbSpline
210
0.0
220
0.0
230
1.0
 70
     8
 71
     3
 72
     8
 73
     4
 74
     0
 42
0.0000000001
 43
0.0000000001
 40
0.0
 40
0.0
 40
0.0
 40
0.0
 40
1.0
 40
1.0
 40
1.0
 40
1.0
 10
36.1352723504387
 20
23.72028543884947
 30
0.0
 10
36.1352723504387
 20
23.45446141346198
 30
0.0
 10
36.34327033124082
 20
23.23510791128075
 30
0.0
 10
36.60871924422672
 20
23.22099100412126
 30
0.0
  0
SPLINE
  5
97
330
70
100
AcDbEntity
  8
0
 62
    18
420
        0
370
    25
100
AcDbSpline
210
0.0
220
0.0
230
1.0
 70
     8
 71
     3
 72
     8
 73
     4
 74
     0
 42
0.0000000001
 43
0.0000000001
 40
0.0
 40
0.0
 40
0.0
 40
0.0
 40
1.0
 40
1.0
 40
1.0
 40
1.0
 10
63.1618254566507
 20
23.22099100412126
 30
0.0
 10
63.42727436963659
 20
23.23510791128075
 30
0.0
 10
63.63527235043871
 20
23.45446141346198
 30
0.0
 10
63.63527235043871
 20
23.72028543884947
 30
0.0
  0
SPLINE
  5
98
330
70
100
AcDbEntity
  8
0
 62
    18
420
        0
370
    25
100
AcDbSpline
210
0.0
220
0.0
230
1.0
 70
     8
 71
     3
 72
     8
 73
     4
 74
     0
 42
0.0000000001
 43
0.0000000001
 40
0.0
 40
0.0
 40
0.0
 40
0.0
 40
1.0
 40
1.0
 40
1.0
 40
1.0
 10
36.60871924444233
 20
23.22099100407891
 30
0.0
 10
39.69865197064534
 20
23.05666449418765
 30
0.0
 10
42.79136925994137
 20
22.94971920338806
 30
0.0
 10
45.88527235059033
 20
22.90021041640935
 30
0.0
  0
SPLINE
  5
99
330
70
100
AcDbEntity
  8
0
 62
    18
420
        0
370
    25
100
AcDbSpline
210
0.0
220
0.0
230
1.0
 70
     8
 71
     3
 72
     8
 73
     4
 74
     0
 42
0.0000000001
 43
0.0000000001
 40
0.0
 40
0.0
 40
0.0
 40
0.0
 40
1.0
 40
1.0
 40
1.0
 40
1.0
 10
53.88527235028709
 20
22.90021041640935
 30
0.0
 10
56.97917544108139
 20
22.94971920339063
 30
0.0
 10
60.07189273052276
 20
23.05666449419792
 30
0.0
 10
63.1618254568708
 20
23.22099100410201
 30
0.0
  0
LINE
  5
9A
330
70
100
AcDbEntity
  8
0
 62
    18
420
        0
370
    25
100
AcDbLine
 10
53.88527235043885
 20
22.90021041644978
 30
0.0
 11
45.88527235043857
 21
22.90021041644978
 31
0.0
  0
LINE
  5
9B
330
70
100
AcDbEntity
  8
0
 62
    18
420
        0
370
    25
100
AcDbLine
 10
63.63527235043871
 20
25.90021041644989
 30
0.0
 11
36.1352723504387
 21
25.90021041644989
 31
0.0
  0
CIRCLE
  5
9C
330
70
100
AcDbEntity
  8
0
 62
    18
420
        0
370
    25
100
AcDbCircle
 10
49.88527235043871
 20
-9.599789583550402
 30
0.0
 40
25.00000000000008
  0
CIRCLE
  5
9D
330
70
100
AcDbEntity
  8
0
 62
    18
420
        0
370
    25
100
AcDbCircle
 10
49.88527235043878
 20
-9.599789583550402
 30
0.0
 40
27.50000000000005
  0
CIRCLE
  5
9E
330
70
100
AcDbEntity
  8
0
 62
    18
420
        0
370
    25
100
AcDbCircle
 10
49.88527235043871
 20
-9.599789583550402
 30
0.0
 40
12.50000000000012
  0
LINE
  5
9F
330
70
100
AcDbEntity
  8
0
 62
     8
420
  8421504
370
    25
100
AcDbLine
 10
36.1352723504387
 20
23.72028543884947
 30
0.0
 11
63.63527235043871
 21
23.72028543884947
 31
0.0
  0
LINE
  5
A0
330
70
100
AcDbEntity
  8
0
 62
     8
420
  8421504
370
    25
100
AcDbLine
 10
63.16182545673861
 20
23.22099100404939
 30
0.0
 11
36.60871924423859
 21
23.22099100404939
 31
0.0
  0
LWPOLYLINE
  5
A1
330
70
100
AcDbEntity
  8
0
 62
    18
420
        0
370
    25
100
AcDbPolyline
 90
       32
 70
     0
 43
0.0
 10
130.9145188263387
 20
-22.06966429585055
 10
131.6192892542385
 20
-22.6024412084502
 10
132.4330254348389
 20
-23.14121190765043
 10
132.9072872489388
 20
-23.42499462275033
 10
133.3756786112386
 20
-23.68629600975053
 10
134.3056587758386
 20
-24.15593832795045
 10
135.285666066139
 20
-24.58936276615038
 10
136.3115069390388
 20
-24.98480507905032
 10
137.3788815138388
 20
-25.3406931323501
 10
138.4833329006385
 20
-25.65561458185042
 10
139.6202616425384
 20
-25.92832023945057
 10
140.7849414891389
 20
-26.15772803575034
 10
141.9725364564389
 20
-26.34292708535008
 10
143.1781190312385
 20
-26.48318149585048
 10
144.3966893291388
 20
-26.57793365965054
 10
145.6231949972388
 20
-26.62680685445029
 10
146.8525516601389
 20
-26.62960703435016
 10
148.0796637121386
 20
-26.58632373645053
 10
149.2994330662389
 20
-26.49713118605059
 10
150.5068041911389
 20
-26.36238653915016
 10
151.6967741077386
 20
-26.18262755655059
 10
152.8644119432384
 20
-25.95856972745034
 10
154.0048787106386
 20
-25.69110248165022
 10
155.1134462940385
 20
-25.38128457615056
 10
156.1855154066387
 20
-25.03033878285017
 10
157.2166322685387
 20
-24.63964608485019
 10
158.2025037514388
 20
-24.21073969815036
 10
159.1390107661389
 20
-23.74529939915012
 10
160.0222197699386
 20
-23.24514685495016
 10
160.848392498739
 20
-22.71224290135046
 10
161.6139944715384
 20
-22.14868795645035
 10
161.7223862047385
 20
-22.05724915885022
  0
SPLINE
  5
A2
330
70
100
AcDbEntity
  8
0
 62
    18
420
        0
370
    25
100
AcDbSpline
210
0.0
220
0.0
230
1.0
 70
     8
 71
     3
 72
     8
 73
     4
 74
     0
 42
0.0000000001
 43
0.0000000001
 40
0.0
 40
0.0
 40
0.0
 40
0.0
 40
1.0
 40
1.0
 40
1.0
 40
1.0
 10
163.0346434602713
 20
13.0410314145552
 30
0.0
 10
161.4864659764189
 20
12.06623880829148
 30
0.0
 10
160.4490024268598
 20
10.45632587415567
 30
0.0
 10
160.2009204750256
 20
8.643722913794634
 30
0.0
  0
SPLINE
  5
A3
330
70
100
AcDbEntity
  8
0
 62
    18
420
        0
370
    25
100
AcDbSpline
210
0.0
220
0.0
230
1.0
 70
     8
 71
     3
 72
     8
 73
     4
 74
     0
 42
0.0000000001
 43
0.0000000001
 40
0.0
 40
0.0
 40
0.0
 40
0.0
 40
1.0
 40
1.0
 40
1.0
 40
1.0
 10
173.2264316345147
 20
-11.41299933881031
 30
0.0
 10
174.4906864911943
 20
-11.63243668568192
 30
0.0
 10
175.7914487613292
 20
-11.37734804660435
 30
0.0
 10
176.8791844170819
 20
-10.69666880125846
 30
0.0
  0
LINE
  5
A4
330
70
100
AcDbEntity
  8
0
 62
    18
420
        0
370
    25
100
AcDbLine
 10
176.7477983638386
 20
-10.78672344415031
 30
0.0
 11
178.2892380980385
 21
-9.896869226750148
 31
0.0
  0
LINE
  5
A5
330
70
100
AcDbEntity
  8
0
 62
    18
420
        0
370
    25
100
AcDbLine
 10
164.5403555242386
 20
13.91947448874971
 30
0.0
 11
162.9989157901388
 21
13.02962027124944
 31
0.0
  0
LINE
  5
A6
330
70
100
AcDbEntity
  8
0
 62
    18
420
        0
370
    25
100
AcDbLine
 10
118.8296933639386
 20
-5.590195805850444
 30
0.0
 11
119.0795371159389
 21
-9.667798143750227
 31
0.0
  0
LINE
  5
A7
330
70
100
AcDbEntity
  8
0
 62
    18
420
        0
370
    25
100
AcDbLine
 10
173.5454750421384
 20
-9.667798143750227
 30
0.0
 11
173.7953187940387
 21
-5.590195805850444
 31
0.0
  0
SPLINE
  5
A8
330
70
100
AcDbEntity
  8
0
 62
    18
420
        0
370
    25
100
AcDbSpline
210
0.0
220
0.0
230
1.0
 70
     8
 71
     3
 72
     8
 73
     4
 74
     0
 42
0.0000000001
 43
0.0000000001
 40
0.0
 40
0.0
 40
0.0
 40
0.0
 40
1.0
 40
1.0
 40
1.0
 40
1.0
 10
171.7367040122871
 20
1.021788367001216
 30
0.0
 10
171.2222744074936
 20
2.594609586990756
 30
0.0
 10
170.0069772222545
 20
3.8395875582028
 30
0.0
 10
168.4470241159346
 20
4.391810986193569
 30
0.0
  0
LINE
  5
A9
330
70
100
AcDbEntity
  8
0
 62
    18
420
        0
370
    25
100
AcDbLine
 10
162.9989157901388
 20
13.02962027124944
 30
0.0
 11
163.0284258360385
 21
13.04651044574948
 31
0.0
  0
LINE
  5
AA
330
70
100
AcDbEntity
  8
0
 62
    18
420
        0
370
    25
100
AcDbLine
 10
176.8749782321389
 20
-10.7105362645505
 30
0.0
 11
176.7477983638386
 21
-10.78672344415031
 31
0.0
  0
LWPOLYLINE
  5
AB
330
70
100
AcDbEntity
  8
0
 62
    18
420
        0
370
    25
100
AcDbPolyline
 90
       31
 70
     0
 43
0.0
 10
181.1375150524384
 20
-3.601503137750512
 10
181.1059872731387
 20
-2.679869274650619
 10
181.0116084047386
 20
-1.727811361550373
 10
180.8549905306386
 20
-0.7515038593504469
 10
180.6371493778386
 20
0.2427215031495185
 10
180.3594977296389
 20
1.24841679284942
 10
180.0238362636389
 20
2.25905968994936
 10
179.6323418732385
 20
3.268095787549702
 10
179.1875535497388
 20
4.268981099149425
 10
178.6923559162389
 20
5.255224499549603
 10
178.1499605192385
 20
6.22042982184982
 10
177.5638850010388
 20
7.158337339149545
 10
176.9379302864389
 20
8.06286436134974
 10
176.2761559318383
 20
8.928144683449868
 10
175.5828537978386
 20
9.748566630749413
 10
174.8625202148387
 20
10.51880945184956
 10
174.1198268226384
 20
11.23387782664985
 10
173.3595902727385
 20
11.88913426234959
 10
172.5867409910389
 20
12.48032916954951
 10
171.8062912015386
 20
13.00362842224942
 10
171.0233024207385
 20
13.45563822404983
 10
170.2428526312387
 20
13.83342711804981
 10
169.4700033495385
 20
14.13454499824942
 10
168.7097667996386
 20
14.35703899954966
 10
167.967073407439
 20
14.49946616314933
 10
167.2467398244384
 20
14.56090279404934
 10
166.5534376904387
 20
14.54095045224957
 10
165.8916633358387
 20
14.43973853634976
 10
165.2657086212389
 20
14.25792344434967
 10
164.6796331030385
 20
13.99668431694938
 10
164.5403555242386
 20
13.91947448874971
  0
LWPOLYLINE
  5
AC
330
70
100
AcDbEntity
  8
0
 62
    18
420
        0
370
    25
100
AcDbPolyline
 90
       11
 70
     0
 43
0.0
 10
178.2892380980385
 20
-9.896869226750148
 10
178.6923559162389
 20
-9.635110128250349
 10
179.1875535497388
 20
-9.220609745650262
 10
179.6323418732385
 20
-8.733266101250224
 10
180.0238362636389
 20
-8.176239805550402
 10
180.3594977296389
 20
-7.553143387950662
 10
180.6371493778386
 20
-6.868017867650628
 10
180.8549905306386
 20
-6.125306546750117
 10
181.0116084047386
 20
-5.329826192950591
 10
181.1059872731387
 20
-4.486735801750517
 10
181.1375150524384
 20
-3.601503137750512
  0
LWPOLYLINE
  5
AD
330
70
100
AcDbEntity
  8
0
 62
    18
420
        0
370
    25
100
AcDbPolyline
 90
      106
 70
     0
 43
0.0
 10
163.5749552440388
 20
5.002023711049331
 10
164.6255176461386
 20
4.38736641504984
 10
165.6105242196388
 20
3.737539445849819
 10
166.5264488967387
 20
3.054869015549806
 10
167.3700129048385
 20
2.341798907049544
 10
168.1381965036387
 20
1.60088172624946
 10
168.8282497952389
 20
0.8347697644494941
 10
169.4377025679387
 20
0.0462055035493644
 10
169.9643731390388
 20
-0.7619882009501722
 10
170.4063761646385
 20
-1.586918225450105
 10
170.7621293884387
 20
-2.425631534550547
 10
171.0303593064389
 20
-3.275125752250552
 10
171.2101057249389
 20
-4.132359909750564
 10
171.3007251985387
 20
-4.994265331250328
 10
171.3018933331389
 20
-5.857756618950254
 10
171.2136059468386
 20
-6.719742698250575
 10
171.0361790858384
 20
-7.577137882650662
 10
170.7702478921386
 20
-8.426872919950513
 10
170.4167643303389
 20
-9.26590597915027
 10
169.976993779939
 20
-10.09123353985062
 10
169.4525105053384
 20
-10.89990114335036
 10
168.8451920205385
 20
-11.68901396975054
 10
168.1572123681386
 20
-12.45574719975047
 10
167.3910343366384
 20
-13.19735612745054
 10
166.5494006446389
 20
-13.91118598535037
 10
165.6353241222389
 20
-14.59468144785062
 10
164.6520769262388
 20
-15.24539577855021
 10
163.6031788264384
 20
-15.86099958905066
 10
162.4923846056385
 20
-16.43928917755016
 10
161.3236706190388
 20
-16.97819441725053
 10
160.1012205593387
 20
-17.47578616735032
 10
158.8294104803386
 20
-17.93028317855042
 10
157.5127931322388
 20
-18.34005846945055
 10
156.1560816633384
 20
-18.70364515085043
 10
154.7641327486388
 20
-19.01974167685063
 10
153.3419292039389
 20
-19.28721650395013
 10
151.8945621488385
 20
-19.50511214165032
 10
150.4272127817388
 20
-19.6726485800505
 10
148.9451338326387
 20
-19.78922608225015
 10
147.4536307593389
 20
-19.85442733115039
 10
145.9580427558388
 20
-19.86801892295018
 10
144.4637236391388
 20
-19.82995220355029
 10
142.976022683639
 20
-19.74036344175044
 10
141.5002654728384
 20
-19.59957334205019
 10
140.0417348344388
 20
-19.4080858965506
 10
138.6056519295385
 20
-19.16658658065047
 10
137.1971575623385
 20
-18.8759398991501
 10
135.8212937771389
 20
-18.5371862917501
 10
134.4829858090385
 20
-18.15153840845044
 10
133.1870244533385
 20
-17.72037676855018
 10
131.9380489154387
 20
-17.24524481885061
 10
130.7405302033384
 20
-16.72784340835066
 10
129.5987551235387
 20
-16.17002469995071
 10
128.5168109342387
 20
-15.57378553985028
 10
127.4985707150388
 20
-14.94126030935053
 10
126.5476795015387
 20
-14.27471328465012
 10
125.6675412374384
 20
-13.5765305311506
 10
124.861306589439
 20
-12.8492113619507
 10
124.1318616682384
 20
-12.09535939085029
 10
123.4818176973388
 20
-11.31767321235011
 10
122.9135016655384
 20
-10.51893674095035
 10
122.4289479966388
 20
-9.702009246050389
 10
122.0298912670386
 20
-8.869815115950688
 10
121.7177599962384
 20
-8.025333389850398
 10
121.4936715332384
 20
-7.171587092950489
 10
121.3584280565388
 20
-6.311632415550224
 10
121.312513702639
 20
-5.448547772150412
 10
121.3560928331389
 20
-4.585422781750237
 10
121.4890094459385
 20
-3.725347207850524
 10
121.7107877341387
 20
-2.871399897750491
 10
122.0206337890385
 20
-2.026637761250599
 10
122.4174384420385
 20
-1.19408482745018
 10
122.8997812356386
 20
-0.3767214198506158
 10
123.4659355076389
 20
0.4225265126496815
 10
124.113874572939
 20
1.200797869949438
 10
124.8412789775387
 20
1.955306642649421
 10
125.6455448027386
 20
2.683351884949393
 10
126.5237929854386
 20
3.382327384049667
 10
127.4728796251384
 20
4.049730988949706
 10
128.4894072380385
 20
4.68317356804951
 10
129.5697369190384
 20
5.280387561149715
 10
130.7100013682388
 20
5.839235097349355
 10
131.9061187349384
 20
6.357715647449366
 10
133.1538072294385
 20
6.833973185549366
 10
134.4486004505388
 20
7.266302833449772
 10
135.7858633747384
 20
7.653156963049887
 10
137.1608089478388
 20
7.993150736949377
 10
138.5685152214384
 20
8.285067065849277
 10
140.0039429724387
 20
8.527860964949889
 10
141.4619537420385
 20
8.720663295049744
 10
142.9373282302386
 20
8.862783873949824
 10
144.4247849790386
 20
8.953713946849838
 10
145.9189992795388
 20
8.993128007649868
 10
147.4146222321388
 20
8.980884964249534
 10
148.9062998950386
 20
8.917028643649823
 10
150.3886924492389
 20
8.801787634749668
 10
151.8564933141387
 20
8.635574470549297
 10
153.3044481436388
 20
8.418984151049508
 10
154.7273736351387
 20
8.152792013249795
 10
156.1201760847384
 20
7.837950956149723
 10
157.4778696212389
 20
7.475588028849888
 10
158.7955940540387
 20
7.067000396549422
 10
160.0686322716386
 20
6.613650697049381
 10
161.2924271277387
 20
6.117161804649655
 10
162.4625977542388
 20
5.579311020549816
 10
163.5749552440388
 20
5.002023711049331
  0
LWPOLYLINE
  5
AE
330
70
100
AcDbEntity
  8
0
 62
    18
420
        0
370
    25
100
AcDbPolyline
 90
      112
 70
     0
 43
0.0
 10
165.3012001605388
 20
6.454224173249787
 10
166.3961604809385
 20
5.815659767349904
 10
167.4267868014385
 20
5.142356626049591
 10
168.3897777153386
 20
4.436471542449702
 10
169.2820484725388
 20
3.700265679349635
 10
170.1007408606385
 20
2.936097325849326
 10
170.8432323612386
 20
2.146414343749426
 10
171.5071445500389
 20
1.333746325649583
 10
172.0903507163388
 20
0.5006964921498595
 10
172.5909826748389
 20
-0.3500666468505359
 10
173.0074367505389
 20
-1.215817840650312
 10
173.3383789153385
 20
-2.093783827150318
 10
173.5827490619384
 20
-2.981152216550443
 10
173.7397643989388
 20
-3.875080500450554
 10
173.8089219588389
 20
-4.772705156950253
 10
173.7900002092385
 20
-5.671150823850225
 10
173.6830597621385
 20
-6.567539508650534
 10
173.4884431800386
 20
-7.458999808250127
 10
173.2067738785389
 20
-8.342676106550717
 10
172.8389541292389
 20
-9.215737721950384
 10
172.3861621699387
 20
-10.07538797475056
 10
171.8498484294386
 20
-10.91887314625068
 10
171.2317308826389
 20
-11.7434912990503
 10
170.5337895462387
 20
-12.54660093265025
 10
169.7582601367385
 20
-13.32562944465042
 10
168.907626908739
 20
-14.07808137205006
 10
167.9846146968389
 20
-14.80154638435052
 10
166.9921801873386
 20
-15.49370700505041
 10
165.9335024473386
 20
-16.15234603495046
 10
164.8119727407386
 20
-16.77535365485059
 10
163.6311836652386
 20
-17.36073418335055
 10
162.3949176443388
 20
-17.9066124701507
 10
161.1071348107386
 20
-18.4112399025501
 10
159.7719603210384
 20
-18.87300000685027
 10
158.3936711417388
 20
-19.29041362615026
 10
156.9766823486388
 20
-19.66214365875061
 10
155.5255329838385
 20
-19.98699934135063
 10
154.0448715164385
 20
-20.2639400632504
 10
152.5394409514388
 20
-20.49207869985024
 10
151.0140636367385
 20
-20.67068445425061
 10
149.4736258157384
 20
-20.79918519835054
 10
147.9230619753385
 20
-20.87716930565044
 10
146.3673390387389
 20
-20.90438696945018
 10
144.8114404557386
 20
-20.88075100345013
 10
143.2603502384387
 20
-20.80633712065025
 10
141.7190369964386
 20
-20.68138369125048
 10
140.1924380206385
 20
-20.50629097875044
 10
138.685443467939
 20
-20.28161985785015
 10
137.2028806962388
 20
-20.00809001795062
 10
135.7494988008389
 20
-19.68657765755044
 10
134.3299534023389
 20
-19.31811267755042
 10
132.9487917324387
 20
-18.90387538255025
 10
131.6104380684389
 20
-18.44519269945019
 10
130.3191795606385
 20
-17.94353392705033
 10
129.0791524991388
 20
-17.40050602975022
 10
127.8943290647387
 20
-16.81784848965057
 10
126.7685046038389
 20
-16.19742773435063
 10
125.7052854717388
 20
-15.54123115865022
 10
124.7080774797387
 20
-14.85136075805012
 10
123.7800749858386
 20
-14.13002639545027
 10
122.9242506616388
 20
-13.37953872215059
 10
122.1433459705389
 20
-12.60230177655065
 10
121.4398623856388
 20
-11.80080528275059
 10
120.8160533770384
 20
-10.97761667575032
 10
120.2739171929385
 20
-10.13537287695009
 10
119.8151904590385
 20
-9.276771846850708
 10
119.4413426154386
 20
-8.40456394375071
 10
119.1535712092387
 20
-7.521543112250239
 10
118.9527980593388
 20
-6.630537934350464
 10
118.8396663024384
 20
-5.734402568250522
 10
118.814538333639
 20
-4.836007605750086
 10
118.8774946456384
 20
-3.938230876750256
 10
119.0283335701389
 20
-3.043948230650077
 10
119.2665719246384
 20
-2.156024324550198
 10
119.591446560039
 20
-1.277303446250105
 10
120.0019168047384
 20
-0.4106004037503848
 10
120.4966677988386
 20
0.4413084919496565
 10
121.0741147058385
 20
1.275694319649473
 10
121.7324077892385
 20
2.089884290149548
 10
122.4694383376389
 20
2.881270307349497
 10
123.2828454201385
 20
3.647317323449351
 10
124.1700234486388
 20
4.385571458849409
 10
125.128130524339
 20
5.093667862849899
 10
126.1540975415389
 20
5.769338289349619
 10
127.2446380185384
 20
6.410418362249741
 10
128.3962586254389
 20
7.014854508849576
 10
129.6052703742389
 20
7.58071053774942
 10
130.8678004358386
 20
8.106173841749617
 10
132.1798045457386
 20
8.589561203349894
 10
133.537079959439
 20
9.029324187049704
 10
134.9352789143386
 20
9.424054099549607
 10
136.3699225578389
 20
9.772486501849732
 10
137.8364152938387
 20
10.07350525994929
 10
139.3300595039384
 20
10.32614612004966
 10
140.8460705954389
 20
10.52959979724953
 10
142.3795923278384
 20
10.68321456814955
 10
143.9257123686388
 20
10.78649835824986
 10
145.4794780291387
 20
10.83912031854948
 10
147.0359121297389
 20
10.84091188494971
 10
148.5900289426385
 20
10.7918673185493
 10
150.1368501632384
 20
10.69214372384948
 10
151.6714208567385
 20
10.54206054564968
 10
153.1888253306385
 20
10.34209854564992
 10
154.6842028809385
 20
10.09289826224984
 10
156.1527633624389
 20
9.79525795924933
 10
157.5898025334388
 20
9.450131068249808
 10
158.9907171239388
 20
9.058623134649371
 10
160.3510195823389
 20
8.621988276349638
 10
161.6663524497385
 20
8.141625166649806
 10
162.9325023183387
 20
7.619072553249439
 10
164.1454133285387
 20
7.05600432964947
 10
165.3012001605388
 20
6.454224173249787
  0
LWPOLYLINE
  5
AF
330
70
100
AcDbEntity
  8
0
 62
    18
420
        0
370
    25
100
AcDbPolyline
 90
       56
 70
     0
 43
0.0
 10
173.5454750421384
 20
-9.667798143750227
 10
173.5308857214388
 20
-9.869324396750691
 10
173.4115738472385
 20
-10.76511593605063
 10
173.203870446539
 20
-11.65551441055012
 10
172.9084530047384
 20
-12.53761552535007
 10
172.5262851120384
 20
-13.40854205015039
 10
172.0586133207384
 20
-14.26545320345034
 10
171.5069630790386
 20
-15.10555391935065
 10
170.8731337552386
 20
-15.92610396385028
 10
170.1591927690388
 20
-16.72442687335022
 10
169.3674688474384
 20
-17.49791868425018
 10
168.5005444292388
 20
-18.24405642725036
 10
167.5612472418384
 20
-18.96040635605008
 10
166.552641077339
 20
-19.64463188595036
 10
165.4780157994384
 20
-20.29450121565025
 10
164.3408766124386
 20
-20.90789460645042
 10
163.1449326280388
 20
-21.48281129655067
 10
161.8940847668387
 20
-22.01737602725041
 10
160.5924130346388
 20
-22.50984515945007
 10
159.2441632140384
 20
-22.95861236125036
 10
157.8537330157387
 20
-23.36221384725041
 10
156.4256577340388
 20
-23.71933315345023
 10
154.9645954537389
 20
-24.02880543075053
 10
153.475311856139
 20
-24.28962124495068
 10
151.9626646750384
 20
-24.50092986905045
 10
150.431587850939
 20
-24.66204205835066
 10
148.8870754382384
 20
-24.77243229825047
 10
147.334165315439
 20
-24.83174051875043
 10
145.7779227525389
 20
-24.83977326885031
 10
144.2234238893386
 20
-24.79650434725062
 10
142.6757391780384
 20
-24.70207488835063
 10
141.1399168444388
 20
-24.55679290125046
 10
139.620966421839
 20
-24.36113226565058
 10
138.1238424107385
 20
-24.11573118595069
 10
136.6534281184386
 20
-23.82139010945039
 10
135.214519730839
 20
-23.47906911545026
 10
133.8118106679385
 20
-23.08988478395054
 10
132.4498762751386
 20
-22.65510655335066
 10
131.1331588994384
 20
-22.1761525798503
 10
129.8659533991388
 20
-21.65458511175027
 10
128.6523931352388
 20
-21.0921053938501
 10
127.4964364891385
 20
-20.49054811795063
 10
126.4018539509389
 20
-19.85187543885009
 10
125.3722158216387
 20
-19.17817057405009
 10
124.4108805665387
 20
-18.47163100885062
 10
123.5209838616388
 20
-17.73456132855066
 10
122.7054283649388
 20
-16.96936570105044
 10
121.9668742489387
 20
-16.17854003555037
 10
121.3077305237387
 20
-15.36466384095017
 10
120.7301471790388
 20
-14.53039181235051
 10
120.2360081717385
 20
-13.67844517155041
 10
119.8269252805387
 20
-12.81160279145045
 10
119.5042328488388
 20
-11.93269213175033
 10
119.268983432239
 20
-11.04458001635019
 10
119.1219443654385
 20
-10.15016328235047
 10
119.0795371159389
 20
-9.667798143750227
  0
LWPOLYLINE
  5
B0
330
70
100
AcDbEntity
  8
0
 62
    18
420
        0
370
    25
100
AcDbPolyline
 90
       15
 70
     0
 43
0.0
 10
163.5749552440388
 20
4.185482899249652
 10
164.6255176461386
 20
3.570825603149415
 10
165.6105242196388
 20
2.920998633949394
 10
166.5264488967387
 20
2.238328203649381
 10
167.3700129048385
 20
1.52525809514976
 10
168.1381965036387
 20
0.7843409144497823
 10
168.8282497952389
 20
0.0182289525497106
 10
169.4377025679387
 20
-0.7703353082503142
 10
169.9643731390388
 20
-1.578529012850597
 10
170.4063761646385
 20
-2.40345903735053
 10
170.7621293884387
 20
-3.242172346450331
 10
171.0303593064389
 20
-4.091666564150336
 10
171.2101057249389
 20
-4.948900721650348
 10
171.3007251985387
 20
-5.810806143150112
 10
171.3025008258387
 20
-5.845547257150489
  0
LWPOLYLINE
  5
B1
330
70
100
AcDbEntity
  8
0
 62
    18
420
        0
370
    25
100
AcDbPolyline
 90
       40
 70
     0
 43
0.0
 10
121.3225113322387
 20
-5.845547257250593
 10
121.3560928331389
 20
-5.401963593650663
 10
121.4890094459385
 20
-4.541888019750308
 10
121.7107877341387
 20
-3.687940709650274
 10
122.0206337890385
 20
-2.843178573050278
 10
122.4174384420385
 20
-2.010625639350606
 10
122.8997812356386
 20
-1.193262231750399
 10
123.4659355076389
 20
-0.3940142992501021
 10
124.113874572939
 20
0.3842570581497599
 10
124.8412789775387
 20
1.138765830749637
 10
125.6455448027386
 20
1.86681107304961
 10
126.5237929854386
 20
2.565786572149884
 10
127.4728796251384
 20
3.233190177049922
 10
128.4894072380385
 20
3.866632756149726
 10
129.5697369190384
 20
4.46384674924929
 10
130.7100013682388
 20
5.022694285449572
 10
131.9061187349384
 20
5.541174835549583
 10
133.1538072294385
 20
6.017432373649582
 10
134.4486004505388
 20
6.449762021549347
 10
135.7858633747384
 20
6.836616151149462
 10
137.1608089478388
 20
7.176609925049593
 10
138.5685152214384
 20
7.468526253949494
 10
140.0039429724387
 20
7.711320153049464
 10
141.4619537420385
 20
7.904122483149319
 10
142.9373282302386
 20
8.046243062149505
 10
144.4247849790386
 20
8.137173134949412
 10
145.9189992795388
 20
8.176587195749444
 10
147.4146222321388
 20
8.164344152449855
 10
148.9062998950386
 20
8.100487831749397
 10
150.3886924492389
 20
7.985246822849886
 10
151.8564933141387
 20
7.819033658649513
 10
153.3044481436388
 20
7.602443339149725
 10
154.7273736351387
 20
7.336251201449476
 10
156.1201760847384
 20
7.021410144249297
 10
157.4778696212389
 20
6.659047216949463
 10
158.7955940540387
 20
6.250459584649639
 10
160.0686322716386
 20
5.797109885149597
 10
161.2924271277387
 20
5.300620992749871
 10
162.4625977542388
 20
4.76277020864939
 10
163.5749552440388
 20
4.185482899249652
  0
LWPOLYLINE
  5
B2
330
70
100
AcDbEntity
  8
0
 62
    18
420
        0
370
    25
100
AcDbPolyline
 90
       75
 70
     0
 43
0.0
 10
154.9437306615389
 20
-1.034167382050334
 10
155.6794245368389
 20
-1.475533702650068
 10
156.3476295501388
 20
-1.951327668750461
 10
156.9435312687387
 20
-2.458121173850259
 10
157.4628362072389
 20
-2.992262759050218
 10
157.9018027617385
 20
-3.549903922150314
 10
158.2572681680385
 20
-4.12702684575015
 10
158.5266712897386
 20
-4.71947334585067
 10
158.7080710712385
 20
-5.322974831950663
 10
158.800160522939
 20
-5.933183061950425
 10
158.8022761382388
 20
-6.5457014716507
 10
158.7144026739385
 20
-7.156116851750259
 10
158.5371732606385
 20
-7.760031145550283
 10
158.2718648400384
 20
-8.353093136750459
 10
157.9203889656387
 20
-8.931029800050188
 10
157.485278028939
 20
-9.489677088450351
 10
156.9696670143385
 20
-10.02500993565061
 10
156.3772709110384
 20
-10.53317125605059
 10
155.7123579464385
 20
-11.01049973575023
 10
154.9797188337388
 20
-11.45355621215051
 10
154.1846322545385
 20
-11.85914845315028
 10
153.3328268259385
 20
-12.22435415745071
 10
152.4304398254386
 20
-12.54654200935016
 10
151.4839729720389
 20
-12.82339063825057
 10
150.5002455812389
 20
-13.05290534325048
 10
149.4863454313384
 20
-13.23343246575013
 10
148.4495776961388
 20
-13.36367130365029
 10
147.3974123110386
 20
-13.44268348315055
 10
146.3374301516385
 20
-13.46989971965056
 10
145.2772684137389
 20
-13.44512391955066
 10
144.2245655869389
 20
-13.36853459315053
 10
143.1869064192387
 20
-13.24068356825061
 10
142.1717672686385
 20
-13.06249201435033
 10
141.1864622361389
 20
-12.8352438058502
 10
140.2380904669389
 20
-12.56057627105018
 10
139.333485001439
 20
-12.24046839595023
 10
138.4791635427385
 20
-11.87722656525047
 10
137.6812814964383
 20
-11.4734679444501
 10
136.945587621139
 20
-11.03210162385036
 10
136.2773826079386
 20
-10.55630765775061
 10
135.6814808893387
 20
-10.04951415265017
 10
135.162175950739
 20
-9.515372567450217
 10
134.7232093963389
 20
-8.95773140435012
 10
134.3677439900389
 20
-8.380608480750284
 10
134.0983408682386
 20
-7.788161980650406
 10
133.9169410867387
 20
-7.184660494550413
 10
133.8248516351384
 20
-6.57445226455065
 10
133.8227360198386
 20
-5.961933854850376
 10
133.9106094840387
 20
-5.351518474750175
 10
134.0878388974388
 20
-4.747604180950151
 10
134.3531473179388
 20
-4.154542189750618
 10
134.7046231924387
 20
-3.576605526450246
 10
135.1397341291384
 20
-3.017958238050082
 10
135.6553451436388
 20
-2.482625390850462
 10
136.2477412470389
 20
-1.974464070450486
 10
136.9126542115388
 20
-1.497135590650096
 10
137.6452933242384
 20
-1.054079114250454
 10
138.4403799034388
 20
-0.6484868732506845
 10
139.2921853321388
 20
-0.2832811690503645
 10
140.1945723326387
 20
0.0389066828497308
 10
141.1410391859384
 20
0.3157553117494952
 10
142.1247665768385
 20
0.5452700167494092
 10
143.1386667267389
 20
0.7257971392496934
 10
144.1754344618384
 20
0.856035977149855
 10
145.2275998470387
 20
0.9350481566494719
 10
146.2875820064389
 20
0.9622643931494877
 10
147.3477437443385
 20
0.9374885931496866
 10
148.4004465711385
 20
0.8608992667495607
 10
149.4381057388386
 20
0.7330482417495318
 10
150.4532448893388
 20
0.5548566879493632
 10
151.4385499219384
 20
0.3276084793497707
 10
152.3869216911385
 20
0.0529409445497428
 10
153.2915271566384
 20
-0.2671669304500943
 10
154.1458486153389
 20
-0.6304087612506041
 10
154.9437306615389
 20
-1.034167382050334
  0
LWPOLYLINE
  5
B3
330
70
100
AcDbEntity
  8
0
 62
     8
420
  8421504
370
    25
100
AcDbPolyline
 90
       29
 70
     0
 43
0.0
 10
131.1577991356386
 20
-22.18568231255032
 10
131.5506582588384
 20
-22.47411975315026
 10
132.4041923795385
 20
-23.03916319935026
 10
133.3224925432386
 20
-23.56928659985028
 10
134.301282554439
 20
-24.06202135965059
 10
135.3360045381384
 20
-24.51507298895026
 10
136.4218401641388
 20
-24.92633178865026
 10
137.5537330841389
 20
-25.29388267335012
 10
138.7264124776388
 20
-25.61601409005025
 10
139.9344175961389
 20
-25.89122598805068
 10
141.1721231917387
 20
-26.11823680395046
 10
142.4337657121387
 20
-26.29598942955067
 10
143.7134701393389
 20
-26.42365613435024
 10
145.0052773474385
 20
-26.50064242025008
 10
146.3031718521385
 20
-26.52658978965018
 10
147.6011098231385
 20
-26.5013774148502
 10
148.8930472272387
 20
-26.42512270095046
 10
150.1729679741388
 20
-26.29818073885035
 10
151.4349119305386
 20
-26.12114265195053
 10
152.6730026747386
 20
-25.89483284315043
 10
153.8814748610389
 20
-25.62030515645047
 10
155.054701066439
 20
-25.2988379689502
 10
156.1872179962386
 20
-24.93192823855016
 10
157.2737519240388
 20
-24.52128453245063
 10
158.309243249839
 20
-24.06881907175013
 10
159.2888700609386
 20
-23.57663882615011
 10
160.2080705856389
 20
-23.04703570315064
 10
161.0625644358385
 20
-22.4824758749506
 10
161.4672130223386
 20
-22.18568231255032
  0
LWPOLYLINE
  5
B4
330
70
100
AcDbEntity
  8
0
 62
     8
420
  8421504
370
    25
100
AcDbPolyline
 90
       52
 70
     0
 43
0.0
 10
173.3238013717389
 20
-11.1893389538504
 10
173.7652656627384
 20
-11.20221644385061
 10
174.4336502084387
 20
-11.15634034735058
 10
175.0693372365389
 20
-11.03011394095014
 10
175.6680963545386
 20
-10.82437724055033
 10
176.2259429194384
 20
-10.54049939005068
 10
176.7391645542387
 20
-10.18036954955013
 10
177.2043458538388
 20
-9.746384323850685
 10
177.6183911133389
 20
-9.241431812950093
 10
177.9785449298389
 20
-8.668872392550536
 10
178.2824105390388
 20
-8.032516351150617
 10
178.5279657656387
 20
-7.33659853315059
 10
178.7135764799384
 20
-6.585750156750545
 10
178.8380074733385
 20
-5.784967994150425
 10
178.9004306781387
 20
-4.939581118450417
 10
178.9004306781387
 20
-4.055215439850655
 10
178.8380074733385
 20
-3.137756266050595
 10
178.7135764799384
 20
-2.193309136450389
 10
178.5279657656387
 20
-1.228159190950358
 10
178.2824105390388
 20
-0.2487293430501842
 10
177.9785449298389
 20
0.7384624631497817
 10
177.6183911133389
 20
1.726846628949306
 10
177.2043458538388
 20
2.709845620949697
 10
176.7391645542387
 20
3.680917742949529
 10
176.225942919339
 20
4.63360067014991
 10
175.6680963545386
 20
5.561554454949471
 10
175.0693372365389
 20
6.4586037180498
 10
174.4336502084387
 20
7.318778744449493
 10
173.7652656627384
 20
8.136355211349323
 10
173.0686315881384
 20
8.905892282349411
 10
172.3483839695386
 20
9.622268815049297
 10
171.6093159360384
 20
10.28071744184948
 10
170.8563458634387
 20
10.87685629584967
 10
170.0944846432388
 20
11.40671817134982
 10
169.3288023363388
 20
11.86677692484948
 10
168.5643944320387
 20
12.25397094134969
 10
167.8063479388388
 20
12.56572350844945
 10
167.0597075311389
 20
12.79995996444936
 10
166.3294419776386
 20
12.95512150424971
 10
165.6204110750389
 20
13.0301755533498
 10
164.9373333071388
 20
13.02462263954946
 10
164.2847544437387
 20
12.93849971654966
 10
163.6670172894387
 20
12.77237991814972
 10
163.088232783139
 20
12.52736874424932
 10
162.552252640239
 20
12.20509670374986
 10
162.0626437201388
 20
11.80770846384971
 10
161.6226642894388
 20
11.33784857784972
 10
161.2352423386388
 20
10.79864388574979
 10
160.9029560969385
 20
10.1936827057496
 10
160.6280168744386
 20
9.526990954649713
 10
160.412254346239
 20
8.803005356249881
 10
160.3682847458386
 20
8.616066209149792
  0
LWPOLYLINE
  5
B5
330
70
100
AcDbEntity
  8
0
 62
     8
420
  8421504
370
    25
100
AcDbPolyline
 90
       41
 70
     0
 43
0.0
 10
163.0284258360385
 20
13.04651044574948
 10
163.1381933689388
 20
13.10683009954986
 10
163.7242688870384
 20
13.3680692269495
 10
164.350223601739
 20
13.54988431884949
 10
165.0119979563389
 20
13.65109623484941
 10
165.7053000903386
 20
13.67104857664982
 10
166.4256336733386
 20
13.6096119456497
 10
167.1683270655388
 20
13.4671847821495
 10
167.9285636154387
 20
13.2446907808499
 10
168.7014128971384
 20
12.94357290064965
 10
169.4818626866387
 20
12.56578400664967
 10
170.2648514674388
 20
12.11377420474979
 10
171.0453012568384
 20
11.59047495204989
 10
171.8181505386388
 20
10.99928004494943
 10
172.5783870884385
 20
10.34402360924968
 10
173.3210804807389
 20
9.628955234449401
 10
174.0414140636388
 20
8.858712413249786
 10
174.7347161976385
 20
8.038290466049705
 10
175.3964905523385
 20
7.173010143949577
 10
176.022445266939
 20
6.268483121749381
 10
176.6085207850386
 20
5.330575604449656
 10
177.150916182039
 20
4.365370282149439
 10
177.6461138156384
 20
3.379126881749903
 10
178.0909021391388
 20
2.378241570049433
 10
178.4823965295385
 20
1.369205472549838
 10
178.8180579955385
 20
0.3585625754498982
 10
179.0957096436387
 20
-0.6471327143501093
 10
179.3135507965388
 20
-1.641358076750611
 10
179.4701686706388
 20
-2.617665578950538
 10
179.5645475389388
 20
-3.569723492050142
 10
179.5960753183386
 20
-4.49135735525014
 10
179.5645475389388
 20
-5.376590019150682
 10
179.4701686706388
 20
-6.219680410350113
 10
179.3135507965388
 20
-7.015160764150281
 10
179.0957096436387
 20
-7.757872085150256
 10
178.8180579955385
 20
-8.442997605350184
 10
178.4823965295385
 20
-9.066094023050672
 10
178.0909021391388
 20
-9.623120318650389
 10
177.6461138156384
 20
-10.11046396305042
 10
177.150916182039
 20
-10.52496434575062
 10
176.8749782321389
 20
-10.7105362645505
  0
SPLINE
  5
B6
330
70
100
AcDbEntity
  8
0
 62
     8
420
  8421504
370
    25
100
AcDbSpline
210
0.0
220
0.0
230
1.0
 70
     8
 71
     3
 72
     8
 73
     4
 74
     0
 42
0.0000000001
 43
0.0000000001
 40
0.0
 40
0.0
 40
0.0
 40
0.0
 40
1.0
 40
1.0
 40
1.0
 40
1.0
 10
171.7367040122871
 20
1.021788367001216
 30
0.0
 10
171.2222744074936
 20
2.594609586990756
 30
0.0
 10
170.0069772222545
 20
3.8395875582028
 30
0.0
 10
168.4470241159346
 20
4.391810986193569
 30
0.0
  0
LINE
  5
B7
330
70
100
AcDbEntity
  8
0
 62
    18
420
        0
370
    25
100
AcDbLine
 10
139.9517733618389
 20
103.9631471051494
 30
0.0
 11
139.9517733618389
 21
103.8381471051497
 31
0.0
  0
LINE
  5
B8
330
70
100
AcDbEntity
  8
0
 62
    18
420
        0
370
    25
100
AcDbLine
 10
175.9517733618389
 20
103.8381471051497
 30
0.0
 11
175.9517733618389
 21
103.9631471051494
 31
0.0
  0
SPLINE
  5
B9
330
70
100
AcDbEntity
  8
0
 62
    18
420
        0
370
    25
100
AcDbSpline
210
0.0
220
0.0
230
1.0
 70
     8
 71
     3
 72
    11
 73
     7
 74
     0
 42
0.0000000001
 43
0.0000000001
 40
0.0
 40
0.0
 40
0.0
 40
0.0
 40
1.0
 40
1.0
 40
1.0
 40
2.0
 40
2.0
 40
2.0
 40
2.0
 10
176.7328533087387
 20
95.83814710514975
 30
0.0
 10
176.8709244961963
 20
95.83814710514975
 30
0.0
 10
176.9828533087389
 20
95.95007591769201
 30
0.0
 10
176.9828533087389
 20
96.08814710514959
 30
0.0
 10
176.9828533087389
 20
96.08887432682486
 30
0.0
 10
176.9828501356308
 20
96.08960154503879
 30
0.0
 10
176.9828437895045
 20
96.09032873902378
 30
0.0
  0
LINE
  5
BA
330
70
100
AcDbEntity
  8
0
 62
    18
420
        0
370
    25
100
AcDbLine
 10
176.9828437895385
 20
96.09032873904945
 30
0.0
 11
176.951773361839
 21
99.6506471051496
 31
0.0
  0
SPLINE
  5
BB
330
70
100
AcDbEntity
  8
0
 62
    18
420
        0
370
    25
100
AcDbSpline
210
0.0
220
0.0
230
1.0
 70
     8
 71
     3
 72
     8
 73
     4
 74
     0
 42
0.0000000001
 43
0.0000000001
 40
0.0
 40
0.0
 40
0.0
 40
0.0
 40
1.0
 40
1.0
 40
1.0
 40
1.0
 10
176.9517733618435
 20
99.6506471051496
 30
0.0
 10
176.9517733618435
 20
100.9682227343373
 30
0.0
 10
176.9170532521163
 20
102.2855695919793
 30
0.0
 10
176.847649184693
 20
103.6013160014573
 30
0.0
  0
SPLINE
  5
BC
330
70
100
AcDbEntity
  8
0
 62
    18
420
        0
370
    25
100
AcDbSpline
210
0.0
220
0.0
230
1.0
 70
     8
 71
     3
 72
     8
 73
     4
 74
     0
 42
0.0000000001
 43
0.0000000001
 40
0.0
 40
0.0
 40
0.0
 40
0.0
 40
1.0
 40
1.0
 40
1.0
 40
1.0
 10
176.8476491847482
 20
103.6013160014705
 30
0.0
 10
176.8406457726899
 20
103.7340850827683
 30
0.0
 10
176.7309499291813
 20
103.8381471051497
 30
0.0
 10
176.5979962653388
 20
103.8381471051497
 30
0.0
  0
LINE
  5
BD
330
70
100
AcDbEntity
  8
0
 62
    18
420
        0
370
    25
100
AcDbLine
 10
125.4517733618388
 20
95.83814710514975
 30
0.0
 11
139.1706934149385
 21
95.83814710514975
 31
0.0
  0
LINE
  5
BE
330
70
100
AcDbEntity
  8
0
 62
    18
420
        0
370
    25
100
AcDbLine
 10
139.3055504584385
 20
103.8381471051497
 30
0.0
 11
125.4517733618388
 21
103.8381471051497
 31
0.0
  0
LINE
  5
BF
330
70
100
AcDbEntity
  8
0
 62
    18
420
        0
370
    25
100
AcDbLine
 10
124.6316983394384
 20
113.5881471051495
 30
0.0
 11
122.4517733618387
 21
113.5881471051495
 31
0.0
  0
LINE
  5
C0
330
70
100
AcDbEntity
  8
0
 62
    18
420
        0
370
    25
100
AcDbLine
 10
122.4517733618387
 20
86.08814710514955
 30
0.0
 11
124.6316983394384
 21
86.08814710514955
 31
0.0
  0
SPLINE
  5
C1
330
70
100
AcDbEntity
  8
0
 62
    18
420
        0
370
    25
100
AcDbSpline
210
0.0
220
0.0
230
1.0
 70
     8
 71
     3
 72
     8
 73
     4
 74
     0
 42
0.0000000001
 43
0.0000000001
 40
0.0
 40
0.0
 40
0.0
 40
0.0
 40
1.0
 40
1.0
 40
1.0
 40
1.0
 10
124.6316983394384
 20
86.08814710514955
 30
0.0
 10
124.8975223648259
 20
86.08814710514955
 30
0.0
 10
125.1168758670071
 20
86.29614508595167
 30
0.0
 10
125.1309927741667
 20
86.56159399893757
 30
0.0
  0
SPLINE
  5
C2
330
70
100
AcDbEntity
  8
0
 62
    18
420
        0
370
    25
100
AcDbSpline
210
0.0
220
0.0
230
1.0
 70
     8
 71
     3
 72
     8
 73
     4
 74
     0
 42
0.0000000001
 43
0.0000000001
 40
0.0
 40
0.0
 40
0.0
 40
0.0
 40
1.0
 40
1.0
 40
1.0
 40
1.0
 10
125.1309927741667
 20
113.1147002113615
 30
0.0
 10
125.1168758670071
 20
113.3801491243474
 30
0.0
 10
124.8975223648259
 20
113.5881471051495
 30
0.0
 10
124.6316983394384
 20
113.5881471051495
 30
0.0
  0
SPLINE
  5
C3
330
70
100
AcDbEntity
  8
0
 62
    18
420
        0
370
    25
100
AcDbSpline
210
0.0
220
0.0
230
1.0
 70
     8
 71
     3
 72
     8
 73
     4
 74
     0
 42
0.0000000001
 43
0.0000000001
 40
0.0
 40
0.0
 40
0.0
 40
0.0
 40
1.0
 40
1.0
 40
1.0
 40
1.0
 10
125.1309927742096
 20
86.56159399915319
 30
0.0
 10
125.2953192841002
 20
89.65152672535651
 30
0.0
 10
125.4022645748998
 20
92.74424401465223
 30
0.0
 10
125.4517733618792
 20
95.83814710530118
 30
0.0
  0
SPLINE
  5
C4
330
70
100
AcDbEntity
  8
0
 62
    18
420
        0
370
    25
100
AcDbSpline
210
0.0
220
0.0
230
1.0
 70
     8
 71
     3
 72
     8
 73
     4
 74
     0
 42
0.0000000001
 43
0.0000000001
 40
0.0
 40
0.0
 40
0.0
 40
0.0
 40
1.0
 40
1.0
 40
1.0
 40
1.0
 10
125.4517733618792
 20
103.8381471049979
 30
0.0
 10
125.4022645748998
 20
106.9320501956469
 30
0.0
 10
125.2953192841002
 20
110.0247674849429
 30
0.0
 10
125.1309927742096
 20
113.1147002111462
 30
0.0
  0
LINE
  5
C5
330
70
100
AcDbEntity
  8
0
 62
    18
420
        0
370
    25
100
AcDbLine
 10
130.4517733618389
 20
108.9631471051496
 30
0.0
 11
130.7017733618385
 21
103.9631471051494
 31
0.0
  0
LINE
  5
C6
330
70
100
AcDbEntity
  8
0
 62
    18
420
        0
370
    25
100
AcDbLine
 10
185.2017733618388
 20
103.9631471051494
 30
0.0
 11
185.451773361839
 21
108.9631471051496
 31
0.0
  0
SPLINE
  5
C7
330
70
100
AcDbEntity
  8
0
 62
    18
420
        0
370
    25
100
AcDbSpline
210
0.0
220
0.0
230
1.0
 70
     8
 71
     3
 72
     8
 73
     4
 74
     0
 42
0.0000000001
 43
0.0000000001
 40
0.0
 40
0.0
 40
0.0
 40
0.0
 40
1.0
 40
1.0
 40
1.0
 40
1.0
 10
171.7897525904387
 20
94.96170647704955
 30
0.0
 10
172.3768316818694
 20
94.96170647704955
 30
0.0
 10
172.9099485487841
 20
95.30419929586184
 30
0.0
 10
173.1540009951287
 20
95.83814710513562
 30
0.0
  0
SPLINE
  5
C8
330
70
100
AcDbEntity
  8
0
 62
    18
420
        0
370
    25
100
AcDbSpline
210
0.0
220
0.0
230
1.0
 70
     8
 71
     3
 72
     8
 73
     4
 74
     0
 42
0.0000000001
 43
0.0000000001
 40
0.0
 40
0.0
 40
0.0
 40
0.0
 40
1.0
 40
1.0
 40
1.0
 40
1.0
 10
142.7495457285492
 20
95.83814710513562
 30
0.0
 10
142.9935981748932
 20
95.30419929586184
 30
0.0
 10
143.5267150418079
 20
94.96170647704955
 30
0.0
 10
144.1137941332385
 20
94.96170647704955
 30
0.0
  0
LINE
  5
C9
330
70
100
AcDbEntity
  8
0
 62
    18
420
        0
370
    25
100
AcDbLine
 10
176.7328533076388
 20
95.83814710514975
 30
0.0
 11
139.1706934149385
 21
95.83814710514975
 31
0.0
  0
LWPOLYLINE
  5
CA
330
70
100
AcDbEntity
  8
0
 62
    18
420
        0
370
    25
100
AcDbPolyline
 90
        5
 70
     0
 43
0.0
 10
139.0242053431389
 20
96.09032873904945
 10
139.0126733827388
 20
95.94087454934969
 10
139.1450541015384
 20
95.83953037494959
 10
139.1691334088388
 20
95.83815198624952
 10
139.1706934149385
 20
95.83814710514975
  0
SPLINE
  5
CB
330
70
100
AcDbEntity
  8
0
 62
    18
420
        0
370
    25
100
AcDbSpline
210
0.0
220
0.0
230
1.0
 70
     8
 71
     3
 72
     8
 73
     4
 74
     0
 42
0.0000000001
 43
0.0000000001
 40
0.0
 40
0.0
 40
0.0
 40
0.0
 40
1.0
 40
1.0
 40
1.0
 40
1.0
 10
139.0242053431165
 20
96.09032873903469
 30
0.0
 10
139.2625879835166
 20
97.26283255599176
 30
0.0
 10
139.3949597467952
 20
98.45441197923678
 30
0.0
 10
139.4197187354783
 20
99.65064710516436
 30
0.0
  0
LINE
  5
CC
330
70
100
AcDbEntity
  8
0
 62
    18
420
        0
370
    25
100
AcDbLine
 10
139.4196968886387
 20
99.6506471051496
 30
0.0
 11
139.4197187355386
 21
99.6506471051496
 31
0.0
  0
SPLINE
  5
CD
330
70
100
AcDbEntity
  8
0
 62
    18
420
        0
370
    25
100
AcDbSpline
210
0.0
220
0.0
230
1.0
 70
     8
 71
     3
 72
     8
 73
     4
 74
     0
 42
0.0000000001
 43
0.0000000001
 40
0.0
 40
0.0
 40
0.0
 40
0.0
 40
1.0
 40
1.0
 40
1.0
 40
1.0
 10
139.4196968886978
 20
99.65064710515056
 30
0.0
 10
139.4319053853628
 20
100.9723774216346
 30
0.0
 10
139.3431296438213
 20
102.2931093361487
 30
0.0
 10
139.154144465077
 20
103.6013160014422
 30
0.0
  0
LWPOLYLINE
  5
CE
330
70
100
AcDbEntity
  8
0
 62
    18
420
        0
370
    25
100
AcDbPolyline
 90
        5
 70
     0
 43
0.0
 10
139.3055504584385
 20
103.8381471051497
 10
139.3039904674385
 20
103.8381422240496
 10
139.2567252348387
 20
103.8328438529495
 10
139.1533150143387
 20
103.7501999719497
 10
139.1541444650385
 20
103.6013160014496
  0
LINE
  5
CF
330
70
100
AcDbEntity
  8
0
 62
    18
420
        0
370
    25
100
AcDbLine
 10
139.3055504584385
 20
103.8381471051497
 30
0.0
 11
176.5979962619385
 21
103.8381471051497
 31
0.0
  0
SPLINE
  5
D0
330
70
100
AcDbEntity
  8
0
 62
    18
420
        0
370
    25
100
AcDbSpline
210
0.0
220
0.0
230
1.0
 70
     8
 71
     3
 72
     8
 73
     4
 74
     0
 42
0.0000000001
 43
0.0000000001
 40
0.0
 40
0.0
 40
0.0
 40
0.0
 40
1.0
 40
1.0
 40
1.0
 40
1.0
 10
139.0242053431659
 20
96.09032873904688
 30
0.0
 10
139.0099218554116
 20
96.2169083441001
 30
0.0
 10
138.9029572398159
 20
96.31263675634395
 30
0.0
 10
138.7755744610142
 20
96.31284194540667
 30
0.0
  0
SPLINE
  5
D1
330
70
100
AcDbEntity
  8
0
 62
    18
420
        0
370
    25
100
AcDbSpline
210
0.0
220
0.0
230
1.0
 70
     8
 71
     3
 72
     8
 73
     4
 74
     0
 42
0.0000000001
 43
0.0000000001
 40
0.0
 40
0.0
 40
0.0
 40
0.0
 40
1.0
 40
1.0
 40
1.0
 40
1.0
 10
138.7755744610251
 20
96.31284194533222
 30
0.0
 10
139.0167696720626
 20
97.41393274907427
 30
0.0
 10
139.1508247429649
 20
98.53578386239963
 30
0.0
 10
139.1758646559695
 20
99.66270404176889
 30
0.0
  0
SPLINE
  5
D2
330
70
100
AcDbEntity
  8
0
 62
    18
420
        0
370
    25
100
AcDbSpline
210
0.0
220
0.0
230
1.0
 70
     8
 71
     3
 72
     8
 73
     4
 74
     0
 42
0.0000000001
 43
0.0000000001
 40
0.0
 40
0.0
 40
0.0
 40
0.0
 40
1.0
 40
1.0
 40
1.0
 40
1.0
 10
139.419696911156
 20
99.65064937844834
 30
0.0
 10
139.3386814487515
 20
99.65886566446666
 30
0.0
 10
139.2572954744521
 20
99.66288925241851
 30
0.0
 10
139.1758646559522
 20
99.66270404183177
 30
0.0
  0
SPLINE
  5
D3
330
70
100
AcDbEntity
  8
0
 62
    18
420
        0
370
    25
100
AcDbSpline
210
0.0
220
0.0
230
1.0
 70
     8
 71
     3
 72
     8
 73
     4
 74
     0
 42
0.0000000001
 43
0.0000000001
 40
0.0
 40
0.0
 40
0.0
 40
0.0
 40
1.0
 40
1.0
 40
1.0
 40
1.0
 10
139.1758646559811
 20
99.66270404179102
 30
0.0
 10
139.1877419897464
 20
100.9112046580158
 30
0.0
 10
139.0974154416418
 20
102.1585830628481
 30
0.0
 10
138.9057895872236
 20
103.3923473805725
 30
0.0
  0
SPLINE
  5
D4
330
70
100
AcDbEntity
  8
0
 62
    18
420
        0
370
    25
100
AcDbSpline
210
0.0
220
0.0
230
1.0
 70
     8
 71
     3
 72
     8
 73
     4
 74
     0
 42
0.0000000001
 43
0.0000000001
 40
0.0
 40
0.0
 40
0.0
 40
0.0
 40
1.0
 40
1.0
 40
1.0
 40
1.0
 10
138.9057895871883
 20
103.3923473805856
 30
0.0
 10
139.0288142985194
 20
103.3911304723594
 30
0.0
 10
139.1343088585317
 20
103.4798947958438
 30
0.0
 10
139.1541444650494
 20
103.6013160014788
 30
0.0
  0
LINE
  5
D5
330
70
100
AcDbEntity
  8
0
 62
    18
420
        0
370
    25
100
AcDbLine
 10
125.4517733618388
 20
103.8381471051497
 30
0.0
 11
125.4517733618388
 21
95.83814710514975
 31
0.0
  0
LWPOLYLINE
  5
D6
330
70
100
AcDbEntity
  8
0
 62
    18
420
        0
370
    25
100
AcDbPolyline
 90
        5
 70
     0
 43
0.0
 10
138.905789587239
 20
103.3923473805497
 10
138.9633352654389
 20
103.6725995602496
 10
139.2471356459384
 20
103.8348354112495
 10
139.3024896552389
 20
103.8381382753497
 10
139.3055504584385
 20
103.8381471051497
  0
LWPOLYLINE
  5
D7
330
70
100
AcDbEntity
  8
0
 62
    18
420
        0
370
    25
100
AcDbPolyline
 90
        6
 70
     0
 43
0.0
 10
139.1706934149385
 20
95.83814710514975
 10
139.1676325983389
 20
95.8381559349497
 10
139.1187924229384
 20
95.84075090714966
 10
138.9434322696388
 20
95.89641861474962
 10
138.8111247765386
 20
96.03151641194951
 10
138.7755744610386
 20
96.31284194534956
  0
LINE
  5
D8
330
70
100
AcDbEntity
  8
0
 62
    18
420
        0
370
    25
100
AcDbLine
 10
122.4517733618387
 20
113.5881471051495
 30
0.0
 11
122.4517733618387
 21
86.08814710514955
 31
0.0
  0
LINE
  5
D9
330
70
100
AcDbEntity
  8
0
 62
    18
420
        0
370
    25
100
AcDbLine
 10
130.459187171839
 20
108.9631471051496
 30
0.0
 11
130.4517733618389
 21
108.9631471051496
 31
0.0
  0
LINE
  5
DA
330
70
100
AcDbEntity
  8
0
 62
    18
420
        0
370
    25
100
AcDbLine
 10
185.451773361839
 20
108.9631471051496
 30
0.0
 11
130.459187171839
 21
108.9631471051496
 31
0.0
  0
LINE
  5
DB
330
70
100
AcDbEntity
  8
0
 62
    18
420
        0
370
    25
100
AcDbLine
 10
130.7091197735384
 20
103.9631471051494
 30
0.0
 11
130.7017733618385
 21
103.9631471051494
 31
0.0
  0
LINE
  5
DC
330
70
100
AcDbEntity
  8
0
 62
    18
420
        0
370
    25
100
AcDbLine
 10
185.2017733618388
 20
103.9631471051494
 30
0.0
 11
130.7091197735384
 21
103.9631471051494
 31
0.0
  0
LINE
  5
DD
330
70
100
AcDbEntity
  8
0
 62
    18
420
        0
370
    25
100
AcDbLine
 10
144.1175247568388
 20
94.96170647704955
 30
0.0
 11
144.1137941332385
 21
94.96170647704955
 31
0.0
  0
LINE
  5
DE
330
70
100
AcDbEntity
  8
0
 62
    18
420
        0
370
    25
100
AcDbLine
 10
171.7897525904387
 20
94.96170647704955
 30
0.0
 11
144.1175247568388
 21
94.96170647704955
 31
0.0
  0
LINE
  5
DF
330
70
100
AcDbEntity
  8
0
 62
     8
420
  8421504
370
    25
100
AcDbLine
 10
139.0242053431389
 20
96.09032873904945
 30
0.0
 11
176.9828437895385
 21
96.09032873904945
 31
0.0
  0
LINE
  5
E0
330
70
100
AcDbEntity
  8
0
 62
     8
420
  8421504
370
    25
100
AcDbLine
 10
139.4197187355386
 20
99.6506471051496
 30
0.0
 11
176.951773361839
 21
99.6506471051496
 31
0.0
  0
LINE
  5
E1
330
70
100
AcDbEntity
  8
0
 62
     8
420
  8421504
370
    25
100
AcDbLine
 10
176.8476491847386
 20
103.6013160014496
 30
0.0
 11
139.1541444650385
 21
103.6013160014496
 31
0.0
  0
LINE
  5
E2
330
70
100
AcDbEntity
  8
0
 62
     8
420
  8421504
370
    25
100
AcDbLine
 10
124.6316983394384
 20
99.83814710514955
 30
0.0
 11
124.6316983394384
 21
113.5881471051495
 31
0.0
  0
LINE
  5
E3
330
70
100
AcDbEntity
  8
0
 62
     8
420
  8421504
370
    25
100
AcDbLine
 10
124.6316983394384
 20
86.08814710514955
 30
0.0
 11
124.6316983394384
 21
99.83814710514955
 31
0.0
  0
LINE
  5
E4
330
70
100
AcDbEntity
  8
0
 62
     8
420
  8421504
370
    25
100
AcDbLine
 10
125.1309927741384
 20
99.83814710514955
 30
0.0
 11
125.1309927741384
 21
86.56159399894976
 31
0.0
  0
LINE
  5
E5
330
70
100
AcDbEntity
  8
0
 62
     8
420
  8421504
370
    25
100
AcDbLine
 10
125.1309927741384
 20
113.1147002113497
 30
0.0
 11
125.1309927741384
 21
99.83814710514955
 31
0.0
  0
INSERT
  5
E8
330
70
100
AcDbEntity
  8
CAPA_BASE
100
AcDbBlockReference
  2
Block_0
 10
0.0
 20
0.0
 30
0.0
  0
INSERT
  5
F5
330
70
100
AcDbEntity
  8
CAPA_BASE
100
AcDbBlockReference
  2
Block_1
 10
0.0
 20
0.0
 30
0.0
  0
INSERT
  5
101
330
70
100
AcDbEntity
  8
CAPA_BASE
100
AcDbBlockReference
  2
Block_2
 10
0.0
 20
0.0
 30
0.0
  0
ENDSEC
  0
SECTION
  2
OBJECTS
  0
DICTIONARY
  5
C
330
0
100
AcDbDictionary
281
     1
  3
ACAD_COLOR
350
63
  3
ACAD_DETAILVIEWSTYLE
350
6A
  3
ACAD_GROUP
350
D
  3
ACAD_LAYOUT
350
62
  3
ACAD_MATERIAL
350
10
  3
ACAD_MLEADERSTYLE
350
66
  3
ACAD_MLINESTYLE
350
5F
  3
ACAD_PLOTSETTINGS
350
61
  3
ACAD_PLOTSTYLENAME
350
E
  3
ACAD_SCALELIST
350
42
  3
ACAD_SECTIONVIEWSTYLE
350
68
  3
ACAD_TABLESTYLE
350
64
  3
ACAD_VISUALSTYLE
350
29
  3
ACDB_RECOMPOSE_DATA
350
115
  3
AcDbVariableDictionary
350
10D
  0
DICTIONARY
  5
63
102
{ACAD_REACTORS
330
C
102
}
330
C
100
AcDbDictionary
281
     1
  0
DICTIONARY
  5
6A
102
{ACAD_REACTORS
330
C
102
}
330
C
100
AcDbDictionary
281
     1
  3
Imperial24
350
6B
  0
DICTIONARY
  5
D
102
{ACAD_REACTORS
330
C
102
}
330
C
100
AcDbDictionary
281
     1
  0
DICTIONARY
  5
62
102
{ACAD_REACTORS
330
C
102
}
330
C
100
AcDbDictionary
281
     1
  3
Layout1
350
6F
  3
Layout2
350
77
  3
Model
350
73
  0
DICTIONARY
  5
10
102
{ACAD_REACTORS
330
C
102
}
330
C
100
AcDbDictionary
281
     1
  3
ByBlock
350
19
  3
ByLayer
350
11
  3
Global
350
21
  0
DICTIONARY
  5
66
102
{ACAD_REACTORS
330
C
102
}
330
C
100
AcDbDictionary
281
     1
  3
Standard
350
67
  0
DICTIONARY
  5
5F
102
{ACAD_REACTORS
330
C
102
}
330
C
100
AcDbDictionary
281
     1
  3
Standard
350
60
  0
DICTIONARY
  5
61
102
{ACAD_REACTORS
330
C
102
}
330
C
100
AcDbDictionary
281
     1
  0
ACDBDICTIONARYWDFLT
  5
E
102
{ACAD_REACTORS
330
C
102
}
330
C
100
AcDbDictionary
281
     1
  3
Normal
350
F
100
AcDbDictionaryWithDefault
340
F
  0
DICTIONARY
  5
42
102
{ACAD_REACTORS
330
C
102
}
330
C
100
AcDbDictionary
281
     1
  3
A0
350
43
  3
A1
350
44
  3
A2
350
45
  3
A3
350
46
  3
A4
350
47
  3
A5
350
48
  3
A6
350
49
  3
A7
350
4A
  3
A8
350
4B
  3
A9
350
4C
  3
B0
350
4D
  3
B1
350
4E
  3
B2
350
4F
  3
B3
350
50
  3
B4
350
51
  3
B5
350
52
  3
B6
350
53
  0
DICTIONARY
  5
68
102
{ACAD_REACTORS
330
C
102
}
330
C
100
AcDbDictionary
281
     1
  3
Imperial24
350
69
  0
DICTIONARY
  5
64
102
{ACAD_REACTORS
330
C
102
}
330
C
100
AcDbDictionary
281
     1
  3
Standard
350
65
  0
DICTIONARY
  5
29
102
{ACAD_REACTORS
330
C
102
}
330
C
100
AcDbDictionary
281
     1
  3
2dWireframe
350
2F
  3
Basic
350
2E
  3
Brighten
350
35
  3
ColorChange
350
39
  3
Conceptual
350
32
  3
Dim
350
34
  3
EdgeColorOff
350
41
  3
Facepattern
350
38
  3
Flat
350
2A
  3
FlatWithEdges
350
2B
  3
Gouraud
350
2C
  3
GouraudWithEdges
350
2D
  3
Hidden
350
31
  3
JitterOff
350
3F
  3
Linepattern
350
37
  3
OverhangOff
350
40
  3
Realistic
350
33
  3
Shaded
350
3E
  3
Shaded with edges
350
3D
  3
Shades of Gray
350
3A
  3
Sketchy
350
3B
  3
Thicken
350
36
  3
Wireframe
350
30
  3
X-Ray
350
3C
  0
XRECORD
  5
115
102
{ACAD_REACTORS
330
C
102
}
330
C
100
AcDbXrecord
280
     1
 90
        1
330
65
  0
DICTIONARY
  5
10D
102
{ACAD_REACTORS
330
C
102
}
330
C
100
AcDbDictionary
281
     1
  3
CANNOSCALE
350
112
  3
CMLEADERSTYLE
350
10F
  3
CTABLESTYLE
350
10E
  3
CVIEWDETAILSTYLE
350
110
  3
CVIEWSECTIONSTYLE
350
111
  0
ACDBDETAILVIEWSTYLE
  5
6B
102
{ACAD_REACTORS
330
6A
102
}
330
6A
100
AcDbModelDocViewStyle
 70
     0
  3
Imperial24
290
     1
300
Imperial24
 90
        0
100
AcDbDetailViewStyle
 70
     0
 71
     0
 90
        3
 71
     1
340
55
 62
   256
 40
0.24
340
0
 62
   256
 40
0.24
300

 40
0.36
280
     3
 71
     2
340
5D
 90
       25
 62
   256
 71
     3
340
55
 62
   256
 40
0.24
 90
        1
 40
0.75
 90
        1
300
%<\AcVar ViewType \f "%tc1">% %<\AcVar ViewDetailId>%\PSCALE %<\AcVar ViewScale \f "%sn">%
 71
     4
340
5D
 90
       25
 62
   256
340
5D
 90
       25
 62
   256
280
     0
  0
LAYOUT
  5
6F
102
{ACAD_REACTORS
330
62
102
}
330
62
100
AcDbPlotSettings
  1

  2

  4

  6

 40
0.0
 41
0.0
 42
0.0
 43
0.0
 44
0.0
 45
0.0
 46
0.0
 47
0.0
 48
0.0
 49
0.0
140
0.0
141
0.0
142
1.0
143
1.0
 70
   688
 72
     0
 73
     0
 74
     5
  7

 75
    16
147
1.0
 76
     0
 77
     2
 78
   300
148
0.0
149
0.0
100
AcDbLayout
  1
Layout1
 70
     1
 71
     1
 10
0.0
 20
0.0
 11
12.0
 21
9.0
 12
0.0
 22
0.0
 32
0.0
 14
0.0
 24
0.0
 34
0.0
 15
0.0
 25
0.0
 35
0.0
146
0.0
 13
0.0
 23
0.0
 33
0.0
 16
1.0
 26
0.0
 36
0.0
 17
0.0
 27
1.0
 37
0.0
 76
     0
330
6C
  0
LAYOUT
  5
77
102
{ACAD_REACTORS
330
62
102
}
330
62
100
AcDbPlotSettings
  1

  2

  4

  6

 40
0.0
 41
0.0
 42
0.0
 43
0.0
 44
0.0
 45
0.0
 46
0.0
 47
0.0
 48
0.0
 49
0.0
140
0.0
141
0.0
142
1.0
143
1.0
 70
   688
 72
     0
 73
     0
 74
     5
  7

 75
    16
147
1.0
 76
     0
 77
     2
 78
   300
148
0.0
149
0.0
100
AcDbLayout
  1
Layout2
 70
     1
 71
     2
 10
0.0
 20
0.0
 11
12.0
 21
9.0
 12
0.0
 22
0.0
 32
0.0
 14
0.0
 24
0.0
 34
0.0
 15
0.0
 25
0.0
 35
0.0
146
0.0
 13
0.0
 23
0.0
 33
0.0
 16
1.0
 26
0.0
 36
0.0
 17
0.0
 27
1.0
 37
0.0
 76
     0
330
74
  0
LAYOUT
  5
73
102
{ACAD_REACTORS
330
62
102
}
330
62
100
AcDbPlotSettings
  1

  2

  4

  6

 40
0.0
 41
0.0
 42
0.0
 43
0.0
 44
0.0
 45
0.0
 46
0.0
 47
0.0
 48
0.0
 49
0.0
140
0.0
141
0.0
142
1.0
143
1.0
 70
  1712
 72
     0
 73
     0
 74
     0
  7

 75
     0
147
1.0
 76
     0
 77
     2
 78
   300
148
0.0
149
0.0
100
AcDbLayout
  1
Model
 70
     1
 71
     0
 10
0.0
 20
0.0
 11
12.0
 21
9.0
 12
0.0
 22
0.0
 32
0.0
 14
0.0
 24
0.0
 34
0.0
 15
0.0
 25
0.0
 35
0.0
146
0.0
 13
0.0
 23
0.0
 33
0.0
 16
1.0
 26
0.0
 36
0.0
 17
0.0
 27
1.0
 37
0.0
 76
     0
330
70
  0
MATERIAL
  5
19
102
{ACAD_XDICTIONARY
360
1A
102
}
102
{ACAD_REACTORS
330
10
102
}
330
10
100
AcDbMaterial
  1
ByBlock
 72
     0
 43
0.0208333333333333
 43
0.0
 43
0.0
 43
0.0
 43
0.0
 43
0.0208333333333333
 43
0.0
 43
0.0
 43
0.0
 43
0.0
 43
1.0
 43
0.0
 43
0.0
 43
0.0
 43
0.0
 43
1.0
 77
     0
 47
0.0208333333333333
 47
0.0
 47
0.0
 47
0.0
 47
0.0
 47
0.0208333333333333
 47
0.0
 47
0.0
 47
0.0
 47
0.0
 47
1.0
 47
0.0
 47
0.0
 47
0.0
 47
0.0
 47
1.0
171
     0
 49
0.0208333333333333
 49
0.0
 49
0.0
 49
0.0
 49
0.0
 49
0.0208333333333333
 49
0.0
 49
0.0
 49
0.0
 49
0.0
 49
1.0
 49
0.0
 49
0.0
 49
0.0
 49
0.0
 49
1.0
175
     0
142
0.0208333333333333
142
0.0
142
0.0
142
0.0
142
0.0
142
0.0208333333333333
142
0.0
142
0.0
142
0.0
142
0.0
142
1.0
142
0.0
142
0.0
142
0.0
142
0.0
142
1.0
179
     0
144
0.0208333333333333
144
0.0
144
0.0
144
0.0
144
0.0
144
0.0208333333333333
144
0.0
144
0.0
144
0.0
144
0.0
144
1.0
144
0.0
144
0.0
144
0.0
144
0.0
144
1.0
147
0.0208333333333333
147
0.0
147
0.0
147
0.0
147
0.0
147
0.0208333333333333
147
0.0
147
0.0
147
0.0
147
0.0
147
1.0
147
0.0
147
0.0
147
0.0
147
0.0
147
1.0
  0
MATERIAL
  5
11
102
{ACAD_XDICTIONARY
360
12
102
}
102
{ACAD_REACTORS
330
10
102
}
330
10
100
AcDbMaterial
  1
ByLayer
 72
     0
 43
0.0208333333333333
 43
0.0
 43
0.0
 43
0.0
 43
0.0
 43
0.0208333333333333
 43
0.0
 43
0.0
 43
0.0
 43
0.0
 43
1.0
 43
0.0
 43
0.0
 43
0.0
 43
0.0
 43
1.0
 77
     0
 47
0.0208333333333333
 47
0.0
 47
0.0
 47
0.0
 47
0.0
 47
0.0208333333333333
 47
0.0
 47
0.0
 47
0.0
 47
0.0
 47
1.0
 47
0.0
 47
0.0
 47
0.0
 47
0.0
 47
1.0
171
     0
 49
0.0208333333333333
 49
0.0
 49
0.0
 49
0.0
 49
0.0
 49
0.0208333333333333
 49
0.0
 49
0.0
 49
0.0
 49
0.0
 49
1.0
 49
0.0
 49
0.0
 49
0.0
 49
0.0
 49
1.0
175
     0
142
0.0208333333333333
142
0.0
142
0.0
142
0.0
142
0.0
142
0.0208333333333333
142
0.0
142
0.0
142
0.0
142
0.0
142
1.0
142
0.0
142
0.0
142
0.0
142
0.0
142
1.0
179
     0
144
0.0208333333333333
144
0.0
144
0.0
144
0.0
144
0.0
144
0.0208333333333333
144
0.0
144
0.0
144
0.0
144
0.0
144
1.0
144
0.0
144
0.0
144
0.0
144
0.0
144
1.0
147
0.0208333333333333
147
0.0
147
0.0
147
0.0
147
0.0
147
0.0208333333333333
147
0.0
147
0.0
147
0.0
147
0.0
147
1.0
147
0.0
147
0.0
147
0.0
147
0.0
147
1.0
  0
MATERIAL
  5
21
102
{ACAD_XDICTIONARY
360
22
102
}
102
{ACAD_REACTORS
330
10
102
}
330
10
100
AcDbMaterial
  1
Global
 72
     0
 43
0.0208333333333333
 43
0.0
 43
0.0
 43
0.0
 43
0.0
 43
0.0208333333333333
 43
0.0
 43
0.0
 43
0.0
 43
0.0
 43
1.0
 43
0.0
 43
0.0
 43
0.0
 43
0.0
 43
1.0
 77
     0
 47
0.0208333333333333
 47
0.0
 47
0.0
 47
0.0
 47
0.0
 47
0.0208333333333333
 47
0.0
 47
0.0
 47
0.0
 47
0.0
 47
1.0
 47
0.0
 47
0.0
 47
0.0
 47
0.0
 47
1.0
171
     0
 49
0.0208333333333333
 49
0.0
 49
0.0
 49
0.0
 49
0.0
 49
0.0208333333333333
 49
0.0
 49
0.0
 49
0.0
 49
0.0
 49
1.0
 49
0.0
 49
0.0
 49
0.0
 49
0.0
 49
1.0
175
     0
142
0.0208333333333333
142
0.0
142
0.0
142
0.0
142
0.0
142
0.0208333333333333
142
0.0
142
0.0
142
0.0
142
0.0
142
1.0
142
0.0
142
0.0
142
0.0
142
0.0
142
1.0
179
     0
144
0.0208333333333333
144
0.0
144
0.0
144
0.0
144
0.0
144
0.0208333333333333
144
0.0
144
0.0
144
0.0
144
0.0
144
1.0
144
0.0
144
0.0
144
0.0
144
0.0
144
1.0
147
0.0208333333333333
147
0.0
147
0.0
147
0.0
147
0.0
147
0.0208333333333333
147
0.0
147
0.0
147
0.0
147
0.0
147
1.0
147
0.0
147
0.0
147
0.0
147
0.0
147
1.0
  0
MLEADERSTYLE
  5
67
102
{ACAD_REACTORS
330
66
102
}
330
66
100
AcDbMLeaderStyle
179
     2
170
     2
171
     1
172
     0
 90
        2
 40
0.0
 41
0.0
173
     1
 91
-1056964608
340
5B
 92
       -2
290
     1
 42
0.09
291
     1
 43
0.36
  3
Standard
 44
0.18
300

342
55
174
     1
178
     6
175
     1
176
     0
 93
-1056964608
 45
0.18
292
     0
297
     0
 46
0.18
 94
-1056964608
 47
1.0
 49
1.0
140
1.0
293
     1
141
0.0
294
     1
177
     0
142
1.0
295
     1
296
     0
143
0.125
271
     0
272
     9
273
     9
298
     1
  0
MLINESTYLE
  5
60
102
{ACAD_REACTORS
330
5F
102
}
330
5F
100
AcDbMlineStyle
  2
STANDARD
 70
     0
  3

 62
   256
 51
90.0
 52
90.0
 71
     2
 49
0.5
 62
   256
  6
BYLAYER
 49
-0.5
 62
   256
  6
BYLAYER
  0
ACDBPLACEHOLDER
  5
F
102
{ACAD_REACTORS
330
E
102
}
330
E
  0
SCALE
  5
43
102
{ACAD_REACTORS
330
42
102
}
330
42
100
AcDbScale
 70
     0
300
1:1
140
1.0
141
1.0
290
     1
  0
SCALE
  5
44
102
{ACAD_REACTORS
330
42
102
}
330
42
100
AcDbScale
 70
     0
300
1/128" = 1'-0"
140
0.0078125
141
12.0
290
     0
  0
SCALE
  5
45
102
{ACAD_REACTORS
330
42
102
}
330
42
100
AcDbScale
 70
     0
300
1/64" = 1'-0"
140
0.015625
141
12.0
290
     0
  0
SCALE
  5
46
102
{ACAD_REACTORS
330
42
102
}
330
42
100
AcDbScale
 70
     0
300
1/32" = 1'-0"
140
0.03125
141
12.0
290
     0
  0
SCALE
  5
47
102
{ACAD_REACTORS
330
42
102
}
330
42
100
AcDbScale
 70
     0
300
1/16" = 1'-0"
140
0.0625
141
12.0
290
     0
  0
SCALE
  5
48
102
{ACAD_REACTORS
330
42
102
}
330
42
100
AcDbScale
 70
     0
300
3/32" = 1'-0"
140
0.09375
141
12.0
290
     0
  0
SCALE
  5
49
102
{ACAD_REACTORS
330
42
102
}
330
42
100
AcDbScale
 70
     0
300
1/8" = 1'-0"
140
0.125
141
12.0
290
     0
  0
SCALE
  5
4A
102
{ACAD_REACTORS
330
42
102
}
330
42
100
AcDbScale
 70
     0
300
3/16" = 1'-0"
140
0.1875
141
12.0
290
     0
  0
SCALE
  5
4B
102
{ACAD_REACTORS
330
42
102
}
330
42
100
AcDbScale
 70
     0
300
1/4" = 1'-0"
140
0.25
141
12.0
290
     0
  0
SCALE
  5
4C
102
{ACAD_REACTORS
330
42
102
}
330
42
100
AcDbScale
 70
     0
300
3/8" = 1'-0"
140
0.375
141
12.0
290
     0
  0
SCALE
  5
4D
102
{ACAD_REACTORS
330
42
102
}
330
42
100
AcDbScale
 70
     0
300
1/2" = 1'-0"
140
0.5
141
12.0
290
     0
  0
SCALE
  5
4E
102
{ACAD_REACTORS
330
42
102
}
330
42
100
AcDbScale
 70
     0
300
3/4" = 1'-0"
140
0.75
141
12.0
290
     0
  0
SCALE
  5
4F
102
{ACAD_REACTORS
330
42
102
}
330
42
100
AcDbScale
 70
     0
300
1" = 1'-0"
140
1.0
141
12.0
290
     0
  0
SCALE
  5
50
102
{ACAD_REACTORS
330
42
102
}
330
42
100
AcDbScale
 70
     0
300
1-1/2" = 1'-0"
140
1.5
141
12.0
290
     0
  0
SCALE
  5
51
102
{ACAD_REACTORS
330
42
102
}
330
42
100
AcDbScale
 70
     0
300
3" = 1'-0"
140
3.0
141
12.0
290
     0
  0
SCALE
  5
52
102
{ACAD_REACTORS
330
42
102
}
330
42
100
AcDbScale
 70
     0
300
6" = 1'-0"
140
6.0
141
12.0
290
     0
  0
SCALE
  5
53
102
{ACAD_REACTORS
330
42
102
}
330
42
100
AcDbScale
 70
     0
300
1'-0" = 1'-0"
140
12.0
141
12.0
290
     0
  0
ACDBSECTIONVIEWSTYLE
  5
69
102
{ACAD_REACTORS
330
68
102
}
330
68
100
AcDbModelDocViewStyle
 70
     0
  3
Imperial24
290
     1
300
Imperial24
 90
        0
100
AcDbSectionViewStyle
 70
     0
 71
     0
 90
       78
 71
     1
340
55
 62
   256
 40
0.24
340
0
340
0
 62
   256
 40
0.24
300
I, O, Q, S, X, Z
 40
0.48
 90
        3
 40
0.18
 90
        1
 71
     2
340
5D
 90
       25
 62
   256
340
5D
 90
       50
 62
   256
 40
0.24
 40
0.0
 40
0.24
 71
     3
340
55
 62
   256
 40
0.24
 90
        1
 40
0.75
 90
        1
300
%<\AcVar ViewType \f "%tc1">% %<\AcVar ViewSectionStartId>%-%<\AcVar ViewSectionEndId>%\PSCALE %<\AcVar ViewScale \f "%sn">%
 71
     4
 62
   256
 62
   257
300
ANSI31
 40
1.0
 90
        0
290
     0
290
     0
 90
        6
 40
0.0
 40
1.570796326794896
 40
0.2617993877991494
 40
1.308996938995747
 40
-0.2617993877991494
 40
1.832595714594046
  0
TABLESTYLE
  5
65
102
{ACAD_XDICTIONARY
360
113
102
}
102
{ACAD_REACTORS
330
64
102
}
330
64
100
AcDbTableStyle
280
     0
  3
Standard
 70
     0
 71
     0
 40
0.06
 41
0.06
280
     0
281
     0
  7
Standard
140
0.18
170
     2
 62
     0
 63
     7
283
     0
 90
      512
 91
        0
  1

274
    -2
284
     1
 64
     0
275
    -2
285
     1
 65
     0
276
    -2
286
     1
 66
     0
277
    -2
287
     1
 67
     0
278
    -2
288
     1
 68
     0
279
    -2
289
     1
 69
     0
  7
Standard
140
0.25
170
     5
 62
     0
 63
     7
283
     0
 90
      512
 91
        0
  1

274
    -2
284
     1
 64
     0
275
    -2
285
     1
 65
     0
276
    -2
286
     1
 66
     0
277
    -2
287
     1
 67
     0
278
    -2
288
     1
 68
     0
279
    -2
289
     1
 69
     0
  7
Standard
140
0.18
170
     5
 62
     0
 63
     7
283
     0
 90
      512
 91
        0
  1

274
    -2
284
     1
 64
     0
275
    -2
285
     1
 65
     0
276
    -2
286
     1
 66
     0
277
    -2
287
     1
 67
     0
278
    -2
288
     1
 68
     0
279
    -2
289
     1
 69
     0
  0
VISUALSTYLE
  5
2F
102
{ACAD_REACTORS
330
29
102
}
330
29
100
AcDbVisualStyle
  2
2dWireframe
 70
     4
177
     3
291
     0
 70
    58
 90
        0
176
     1
 90
        2
176
     1
 90
        0
176
     1
 90
        0
176
     1
 40
0.6
176
     1
 40
30.0
176
     1
 62
     7
420
 16777215
176
     1
 90
        1
176
     1
 90
        4
176
     1
 62
     7
176
     1
 62
   257
176
     1
 90
        1
176
     1
 90
        1
176
     1
 40
1.0
176
     1
 90
        0
176
     1
 62
   257
176
     1
 40
1.0
176
     1
 90
        1
176
     1
 90
        6
176
     1
 90
        2
176
     1
 62
     7
176
     1
 90
        5
176
     1
 90
        0
176
     1
 90
        0
176
     1
290
     0
176
     1
 90
        1
176
     1
 40
0.0
176
     1
 90
        0
176
     1
290
     1
176
     1
290
     1
176
     1
290
     0
176
     1
290
     0
176
     1
290
     0
176
     1
290
     0
176
     1
290
     0
176
     1
290
     0
176
     1
290
     0
176
     1
 90
       50
176
     1
 40
0.0
176
     1
 40
1.0
176
     1
 90
        0
176
     1
 62
    18
420
        0
176
     1
 90
       50
176
     1
 90
        3
176
     1
 62
     5
420
      255
176
     1
290
     0
176
     1
 90
       50
176
     1
 90
       50
176
     1
 90
       50
176
     1
290
     0
176
     1
 90
       50
176
     1
 62
   256
176
     0
 40
1.0
176
     0
 90
        2
176
     1
  1
strokes_ogs.tif
176
     1
290
     0
176
     1
 40
1.0
176
     1
 40
1.0
176
     1
  0
VISUALSTYLE
  5
2E
102
{ACAD_REACTORS
330
29
102
}
330
29
100
AcDbVisualStyle
  2
Basic
 70
     7
177
     3
291
     1
 70
    58
 90
        1
176
     1
 90
        0
176
     1
 90
        1
176
     1
 90
        0
176
     1
 40
0.6
176
     1
 40
30.0
176
     1
 62
     7
420
 16777215
176
     1
 90
        0
176
     1
 90
        4
176
     1
 62
     7
176
     1
 62
   257
176
     1
 90
        1
176
     1
 90
        1
176
     1
 40
1.0
176
     1
 90
        8
176
     1
 62
     7
176
     1
 40
1.0
176
     1
 90
        1
176
     1
 90
        6
176
     1
 90
        2
176
     1
 62
     7
176
     1
 90
        5
176
     1
 90
        0
176
     1
 90
        0
176
     1
290
     0
176
     1
 90
        1
176
     1
 40
0.0
176
     1
 90
        0
176
     1
290
     0
176
     1
290
     1
176
     1
290
     1
176
     1
290
     0
176
     1
290
     0
176
     1
290
     0
176
     1
290
     0
176
     1
290
     0
176
     1
290
     0
176
     1
 90
       50
176
     1
 40
0.0
176
     1
 40
1.0
176
     1
 90
        0
176
     1
 62
    18
420
        0
176
     1
 90
       50
176
     1
 90
        3
176
     1
 62
     5
420
      255
176
     1
290
     0
176
     1
 90
       50
176
     1
 90
       50
176
     1
 90
       50
176
     1
290
     0
176
     1
 90
       50
176
     1
 62
   256
176
     0
 40
1.0
176
     0
 90
        2
176
     1
  1
strokes_ogs.tif
176
     1
290
     0
176
     1
 40
1.0
176
     1
 40
1.0
176
     1
  0
VISUALSTYLE
  5
35
102
{ACAD_REACTORS
330
29
102
}
330
29
100
AcDbVisualStyle
  2
Brighten
 70
    12
177
     3
291
     1
 70
    58
 90
        2
176
     1
 90
        2
176
     1
 90
        0
176
     1
 90
        0
176
     1
 40
0.6
176
     1
 40
30.0
176
     1
 62
     7
420
 16777215
176
     1
 90
        1
176
     1
 90
        4
176
     1
 62
     7
176
     1
 62
   257
176
     1
 90
        1
176
     1
 90
        1
176
     1
 40
1.0
176
     1
 90
        8
176
     1
 62
     7
176
     1
 40
1.0
176
     1
 90
        1
176
     1
 90
        6
176
     1
 90
        2
176
     1
 62
     7
176
     1
 90
        5
176
     1
 90
        0
176
     1
 90
        0
176
     1
290
     0
176
     1
 90
        1
176
     1
 40
50.0
176
     1
 90
        0
176
     1
290
     0
176
     1
290
     1
176
     1
290
     1
176
     1
290
     0
176
     1
290
     0
176
     1
290
     0
176
     1
290
     0
176
     1
290
     0
176
     1
290
     0
176
     1
 90
       50
176
     1
 40
0.0
176
     1
 40
1.0
176
     1
 90
        0
176
     1
 62
    18
420
        0
176
     1
 90
       50
176
     1
 90
        3
176
     1
 62
     5
420
      255
176
     1
290
     0
176
     1
 90
       50
176
     1
 90
       50
176
     1
 90
       50
176
     1
290
     0
176
     1
 90
       50
176
     1
 62
   256
176
     0
 40
1.0
176
     0
 90
        2
176
     1
  1
strokes_ogs.tif
176
     1
290
     0
176
     1
 40
1.0
176
     1
 40
1.0
176
     1
  0
VISUALSTYLE
  5
39
102
{ACAD_REACTORS
330
29
102
}
330
29
100
AcDbVisualStyle
  2
ColorChange
 70
    16
177
     3
291
     1
 70
    58
 90
        2
176
     1
 90
        2
176
     1
 90
        3
176
     1
 90
        0
176
     1
 40
0.6
176
     1
 40
30.0
176
     1
 62
     8
420
  8421504
176
     1
 90
        1
176
     1
 90
        4
176
     1
 62
     7
176
     1
 62
   257
176
     1
 90
        1
176
     1
 90
        1
176
     1
 40
1.0
176
     1
 90
        8
176
     1
 62
     8
420
  8421504
176
     1
 40
1.0
176
     1
 90
        1
176
     1
 90
        6
176
     1
 90
        2
176
     1
 62
     7
176
     1
 90
        5
176
     1
 90
        0
176
     1
 90
        0
176
     1
290
     0
176
     1
 90
        1
176
     1
 40
0.0
176
     1
 90
        0
176
     1
290
     0
176
     1
290
     1
176
     1
290
     1
176
     1
290
     0
176
     1
290
     0
176
     1
290
     0
176
     1
290
     0
176
     1
290
     0
176
     1
290
     0
176
     1
 90
       50
176
     1
 40
0.0
176
     1
 40
1.0
176
     1
 90
        0
176
     1
 62
    18
420
        0
176
     1
 90
       50
176
     1
 90
        3
176
     1
 62
     5
420
      255
176
     1
290
     0
176
     1
 90
       50
176
     1
 90
       50
176
     1
 90
       50
176
     1
290
     0
176
     1
 90
       50
176
     1
 62
   256
176
     0
 40
1.0
176
     0
 90
        2
176
     1
  1
strokes_ogs.tif
176
     1
290
     0
176
     1
 40
1.0
176
     1
 40
1.0
176
     1
  0
VISUALSTYLE
  5
32
102
{ACAD_REACTORS
330
29
102
}
330
29
100
AcDbVisualStyle
  2
Conceptual
 70
     9
177
     3
291
     0
 70
    58
 90
        3
176
     1
 90
        2
176
     1
 90
        0
176
     1
 90
        0
176
     1
 40
0.6
176
     1
 40
30.0
176
     1
 62
     7
420
 16777215
176
     1
 90
        2
176
     1
 90
        2
176
     1
 62
     7
176
     1
 62
   257
176
     1
 90
        1
176
     1
 90
        1
176
     1
 40
179.0
176
     1
 90
        8
176
     1
 62
     7
176
     1
 40
1.0
176
     1
 90
        1
176
     1
 90
        6
176
     1
 90
        2
176
     1
 62
     7
176
     1
 90
        3
176
     1
 90
        0
176
     1
 90
        0
176
     1
290
     0
176
     1
 90
        1
176
     1
 40
0.0
176
     1
 90
        0
176
     1
290
     0
176
     1
290
     1
176
     1
290
     1
176
     1
290
     0
176
     1
290
     0
176
     1
290
     0
176
     1
290
     0
176
     1
290
     0
176
     1
290
     0
176
     1
 90
       50
176
     1
 40
0.0
176
     1
 40
1.0
176
     1
 90
        0
176
     1
 62
    18
420
        0
176
     1
 90
       50
176
     1
 90
        3
176
     1
 62
     5
420
      255
176
     1
290
     0
176
     1
 90
       50
176
     1
 90
       50
176
     1
 90
       50
176
     1
290
     0
176
     1
 90
       50
176
     1
 62
   256
176
     0
 40
1.0
176
     0
 90
        2
176
     1
  1
strokes_ogs.tif
176
     1
290
     0
176
     1
 40
1.0
176
     1
 40
1.0
176
     1
  0
VISUALSTYLE
  5
34
102
{ACAD_REACTORS
330
29
102
}
330
29
100
AcDbVisualStyle
  2
Dim
 70
    11
177
     3
291
     1
 70
    58
 90
        2
176
     1
 90
        2
176
     1
 90
        0
176
     1
 90
        0
176
     1
 40
0.6
176
     1
 40
30.0
176
     1
 62
     7
420
 16777215
176
     1
 90
        1
176
     1
 90
        4
176
     1
 62
     7
176
     1
 62
   257
176
     1
 90
        1
176
     1
 90
        1
176
     1
 40
1.0
176
     1
 90
        8
176
     1
 62
     7
176
     1
 40
1.0
176
     1
 90
        1
176
     1
 90
        6
176
     1
 90
        2
176
     1
 62
     7
176
     1
 90
        5
176
     1
 90
        0
176
     1
 90
        0
176
     1
290
     0
176
     1
 90
        1
176
     1
 40
-50.0
176
     1
 90
        0
176
     1
290
     0
176
     1
290
     1
176
     1
290
     1
176
     1
290
     0
176
     1
290
     0
176
     1
290
     0
176
     1
290
     0
176
     1
290
     0
176
     1
290
     0
176
     1
 90
       50
176
     1
 40
0.0
176
     1
 40
1.0
176
     1
 90
        0
176
     1
 62
    18
420
        0
176
     1
 90
       50
176
     1
 90
        3
176
     1
 62
     5
420
      255
176
     1
290
     0
176
     1
 90
       50
176
     1
 90
       50
176
     1
 90
       50
176
     1
290
     0
176
     1
 90
       50
176
     1
 62
   256
176
     0
 40
1.0
176
     0
 90
        2
176
     1
  1
strokes_ogs.tif
176
     1
290
     0
176
     1
 40
1.0
176
     1
 40
1.0
176
     1
  0
VISUALSTYLE
  5
41
102
{ACAD_REACTORS
330
29
102
}
330
29
100
AcDbVisualStyle
  2
EdgeColorOff
 70
    22
177
     3
291
     1
 70
    58
 90
        2
176
     0
 90
        2
176
     0
 90
        0
176
     0
 90
        0
176
     0
 40
0.6
176
     0
 40
30.0
176
     0
 62
     7
420
 16777215
176
     0
 90
        1
176
     0
 90
        4
176
     0
 62
     7
176
     0
 62
   257
176
     0
 90
        1
176
     0
 90
        1
176
     0
 40
1.0
176
     0
 90
        8
176
     2
 62
     7
176
     0
 40
1.0
176
     0
 90
        1
176
     0
 90
        6
176
     0
 90
        2
176
     0
 62
     7
176
     0
 90
        5
176
     0
 90
        0
176
     0
 90
        0
176
     0
290
     0
176
     0
 90
        1
176
     0
 40
0.0
176
     0
 90
        0
176
     0
290
     0
176
     0
290
     1
176
     0
290
     1
176
     0
290
     0
176
     0
290
     0
176
     0
290
     0
176
     0
290
     0
176
     0
290
     0
176
     0
290
     0
176
     0
 90
       50
176
     0
 40
0.0
176
     0
 40
1.0
176
     0
 90
        0
176
     0
 62
    18
420
        0
176
     0
 90
       50
176
     0
 90
        3
176
     0
 62
     5
420
      255
176
     0
290
     0
176
     0
 90
       50
176
     0
 90
       50
176
     0
 90
       50
176
     0
290
     0
176
     0
 90
       50
176
     0
 62
   256
176
     0
 40
1.0
176
     0
 90
        2
176
     0
  1
strokes_ogs.tif
176
     0
290
     0
176
     0
 40
1.0
176
     0
 40
1.0
176
     0
  0
VISUALSTYLE
  5
38
102
{ACAD_REACTORS
330
29
102
}
330
29
100
AcDbVisualStyle
  2
Facepattern
 70
    15
177
     3
291
     1
 70
    58
 90
        2
176
     1
 90
        2
176
     1
 90
        0
176
     1
 90
        0
176
     1
 40
0.6
176
     1
 40
30.0
176
     1
 62
     7
420
 16777215
176
     1
 90
        1
176
     1
 90
        4
176
     1
 62
     7
176
     1
 62
   257
176
     1
 90
        1
176
     1
 90
        1
176
     1
 40
1.0
176
     1
 90
        8
176
     1
 62
     7
176
     1
 40
1.0
176
     1
 90
        1
176
     1
 90
        6
176
     1
 90
        2
176
     1
 62
     7
176
     1
 90
        5
176
     1
 90
        0
176
     1
 90
        0
176
     1
290
     0
176
     1
 90
        1
176
     1
 40
0.0
176
     1
 90
        0
176
     1
290
     0
176
     1
290
     1
176
     1
290
     1
176
     1
290
     0
176
     1
290
     0
176
     1
290
     0
176
     1
290
     0
176
     1
290
     0
176
     1
290
     0
176
     1
 90
       50
176
     1
 40
0.0
176
     1
 40
1.0
176
     1
 90
        0
176
     1
 62
    18
420
        0
176
     1
 90
       50
176
     1
 90
        3
176
     1
 62
     5
420
      255
176
     1
290
     0
176
     1
 90
       50
176
     1
 90
       50
176
     1
 90
       50
176
     1
290
     0
176
     1
 90
       50
176
     1
 62
   256
176
     0
 40
1.0
176
     0
 90
        2
176
     1
  1
strokes_ogs.tif
176
     1
290
     0
176
     1
 40
1.0
176
     1
 40
1.0
176
     1
  0
VISUALSTYLE
  5
2A
102
{ACAD_REACTORS
330
29
102
}
330
29
100
AcDbVisualStyle
  2
Flat
 70
     0
177
     3
291
     1
 70
    58
 90
        2
176
     1
 90
        1
176
     1
 90
        1
176
     1
 90
        2
176
     1
 40
0.6
176
     1
 40
30.0
176
     1
 62
     7
420
 16777215
176
     1
 90
        0
176
     1
 90
        0
176
     1
 62
     7
176
     1
 62
   257
176
     1
 90
        1
176
     1
 90
        1
176
     1
 40
1.0
176
     1
 90
        8
176
     1
 62
     7
176
     1
 40
1.0
176
     1
 90
        1
176
     1
 90
        6
176
     1
 90
        2
176
     1
 62
     7
176
     1
 90
        5
176
     1
 90
        0
176
     1
 90
        0
176
     1
290
     0
176
     1
 90
       13
176
     1
 40
0.0
176
     1
 90
        0
176
     1
290
     0
176
     1
290
     1
176
     1
290
     1
176
     1
290
     0
176
     1
290
     0
176
     1
290
     0
176
     1
290
     0
176
     1
290
     0
176
     1
290
     0
176
     1
 90
       50
176
     1
 40
0.0
176
     1
 40
1.0
176
     1
 90
        0
176
     1
 62
    18
420
        0
176
     1
 90
       50
176
     1
 90
        3
176
     1
 62
     5
420
      255
176
     1
290
     0
176
     1
 90
       50
176
     1
 90
       50
176
     1
 90
       50
176
     1
290
     0
176
     1
 90
       50
176
     1
 62
   256
176
     0
 40
1.0
176
     0
 90
        2
176
     1
  1
strokes_ogs.tif
176
     1
290
     0
176
     1
 40
1.0
176
     1
 40
1.0
176
     1
  0
VISUALSTYLE
  5
2B
102
{ACAD_REACTORS
330
29
102
}
330
29
100
AcDbVisualStyle
  2
FlatWithEdges
 70
     1
177
     3
291
     1
 70
    58
 90
        2
176
     1
 90
        1
176
     1
 90
        1
176
     1
 90
        2
176
     1
 40
0.6
176
     1
 40
30.0
176
     1
 62
     7
420
 16777215
176
     1
 90
        1
176
     1
 90
        0
176
     1
 62
     7
176
     1
 62
   257
176
     1
 90
        1
176
     1
 90
        1
176
     1
 40
1.0
176
     1
 90
        0
176
     1
 62
   257
176
     1
 40
1.0
176
     1
 90
        1
176
     1
 90
        6
176
     1
 90
        2
176
     1
 62
     7
176
     1
 90
        5
176
     1
 90
        0
176
     1
 90
        0
176
     1
290
     0
176
     1
 90
       13
176
     1
 40
0.0
176
     1
 90
        0
176
     1
290
     0
176
     1
290
     1
176
     1
290
     1
176
     1
290
     0
176
     1
290
     0
176
     1
290
     0
176
     1
290
     0
176
     1
290
     0
176
     1
290
     0
176
     1
 90
       50
176
     1
 40
0.0
176
     1
 40
1.0
176
     1
 90
        0
176
     1
 62
    18
420
        0
176
     1
 90
       50
176
     1
 90
        3
176
     1
 62
     5
420
      255
176
     1
290
     0
176
     1
 90
       50
176
     1
 90
       50
176
     1
 90
       50
176
     1
290
     0
176
     1
 90
       50
176
     1
 62
   256
176
     0
 40
1.0
176
     0
 90
        2
176
     1
  1
strokes_ogs.tif
176
     1
290
     0
176
     1
 40
1.0
176
     1
 40
1.0
176
     1
  0
VISUALSTYLE
  5
2C
102
{ACAD_REACTORS
330
29
102
}
330
29
100
AcDbVisualStyle
  2
Gouraud
 70
     2
177
     3
291
     1
 70
    58
 90
        2
176
     1
 90
        2
176
     1
 90
        1
176
     1
 90
        2
176
     1
 40
0.6
176
     1
 40
30.0
176
     1
 62
     7
420
 16777215
176
     1
 90
        0
176
     1
 90
        0
176
     1
 62
     7
176
     1
 62
   257
176
     1
 90
        1
176
     1
 90
        1
176
     1
 40
1.0
176
     1
 90
        0
176
     1
 62
     7
176
     1
 40
1.0
176
     1
 90
        1
176
     1
 90
        6
176
     1
 90
        2
176
     1
 62
     7
176
     1
 90
        5
176
     1
 90
        0
176
     1
 90
        0
176
     1
290
     0
176
     1
 90
       13
176
     1
 40
0.0
176
     1
 90
        0
176
     1
290
     0
176
     1
290
     1
176
     1
290
     1
176
     1
290
     0
176
     1
290
     0
176
     1
290
     0
176
     1
290
     0
176
     1
290
     0
176
     1
290
     0
176
     1
 90
       50
176
     1
 40
0.0
176
     1
 40
1.0
176
     1
 90
        0
176
     1
 62
    18
420
        0
176
     1
 90
       50
176
     1
 90
        3
176
     1
 62
     5
420
      255
176
     1
290
     0
176
     1
 90
       50
176
     1
 90
       50
176
     1
 90
       50
176
     1
290
     0
176
     1
 90
       50
176
     1
 62
   256
176
     0
 40
1.0
176
     0
 90
        2
176
     1
  1
strokes_ogs.tif
176
     1
290
     0
176
     1
 40
1.0
176
     1
 40
1.0
176
     1
  0
VISUALSTYLE
  5
2D
102
{ACAD_REACTORS
330
29
102
}
330
29
100
AcDbVisualStyle
  2
GouraudWithEdges
 70
     3
177
     3
291
     1
 70
    58
 90
        2
176
     1
 90
        2
176
     1
 90
        1
176
     1
 90
        2
176
     1
 40
0.6
176
     1
 40
30.0
176
     1
 62
     7
420
 16777215
176
     1
 90
        1
176
     1
 90
        0
176
     1
 62
     7
176
     1
 62
   257
176
     1
 90
        1
176
     1
 90
        1
176
     1
 40
1.0
176
     1
 90
        0
176
     1
 62
   257
176
     1
 40
1.0
176
     1
 90
        1
176
     1
 90
        6
176
     1
 90
        2
176
     1
 62
     7
176
     1
 90
        5
176
     1
 90
        0
176
     1
 90
        0
176
     1
290
     0
176
     1
 90
       13
176
     1
 40
0.0
176
     1
 90
        0
176
     1
290
     0
176
     1
290
     1
176
     1
290
     1
176
     1
290
     0
176
     1
290
     0
176
     1
290
     0
176
     1
290
     0
176
     1
290
     0
176
     1
290
     0
176
     1
 90
       50
176
     1
 40
0.0
176
     1
 40
1.0
176
     1
 90
        0
176
     1
 62
    18
420
        0
176
     1
 90
       50
176
     1
 90
        3
176
     1
 62
     5
420
      255
176
     1
290
     0
176
     1
 90
       50
176
     1
 90
       50
176
     1
 90
       50
176
     1
290
     0
176
     1
 90
       50
176
     1
 62
   256
176
     0
 40
1.0
176
     0
 90
        2
176
     1
  1
strokes_ogs.tif
176
     1
290
     0
176
     1
 40
1.0
176
     1
 40
1.0
176
     1
  0
VISUALSTYLE
  5
31
102
{ACAD_REACTORS
330
29
102
}
330
29
100
AcDbVisualStyle
  2
Hidden
 70
     6
177
     3
291
     0
 70
    58
 90
        1
176
     1
 90
        2
176
     1
 90
        2
176
     1
 90
        0
176
     1
 40
0.6
176
     1
 40
30.0
176
     1
 62
     7
420
 16777215
176
     1
 90
        2
176
     1
 90
        2
176
     1
 62
     7
176
     1
 62
   257
176
     1
 90
        2
176
     1
 90
        1
176
     1
 40
40.0
176
     1
 90
        0
176
     1
 62
   257
176
     1
 40
1.0
176
     1
 90
        1
176
     1
 90
        6
176
     1
 90
        2
176
     1
 62
     7
176
     1
 90
        3
176
     1
 90
        0
176
     1
 90
        0
176
     1
290
     0
176
     1
 90
        1
176
     1
 40
0.0
176
     1
 90
        0
176
     1
290
     0
176
     1
290
     1
176
     1
290
     1
176
     1
290
     0
176
     1
290
     0
176
     1
290
     0
176
     1
290
     0
176
     1
290
     0
176
     1
290
     0
176
     1
 90
       50
176
     1
 40
0.0
176
     1
 40
1.0
176
     1
 90
        0
176
     1
 62
    18
420
        0
176
     1
 90
       50
176
     1
 90
        3
176
     1
 62
     5
420
      255
176
     1
290
     0
176
     1
 90
       50
176
     1
 90
       50
176
     1
 90
       50
176
     1
290
     0
176
     1
 90
       50
176
     1
 62
   256
176
     0
 40
1.0
176
     0
 90
        2
176
     1
  1
strokes_ogs.tif
176
     1
290
     0
176
     1
 40
1.0
176
     1
 40
1.0
176
     1
  0
VISUALSTYLE
  5
3F
102
{ACAD_REACTORS
330
29
102
}
330
29
100
AcDbVisualStyle
  2
JitterOff
 70
    20
177
     3
291
     1
 70
    58
 90
        2
176
     0
 90
        2
176
     0
 90
        0
176
     0
 90
        0
176
     0
 40
0.6
176
     0
 40
30.0
176
     0
 62
     7
420
 16777215
176
     0
 90
        1
176
     0
 90
        4
176
     0
 62
     7
176
     0
 62
   257
176
     0
 90
        1
176
     0
 90
        1
176
     0
 40
1.0
176
     0
 90
       10
176
     2
 62
     7
176
     0
 40
1.0
176
     0
 90
        1
176
     0
 90
        6
176
     0
 90
        2
176
     0
 62
     7
176
     0
 90
        5
176
     0
 90
        0
176
     0
 90
        0
176
     0
290
     0
176
     0
 90
        1
176
     0
 40
0.0
176
     0
 90
        0
176
     0
290
     0
176
     0
290
     1
176
     0
290
     1
176
     0
290
     0
176
     0
290
     0
176
     0
290
     0
176
     0
290
     0
176
     0
290
     0
176
     0
290
     0
176
     0
 90
       50
176
     0
 40
0.0
176
     0
 40
1.0
176
     0
 90
        0
176
     0
 62
    18
420
        0
176
     0
 90
       50
176
     0
 90
        3
176
     0
 62
     5
420
      255
176
     0
290
     0
176
     0
 90
       50
176
     0
 90
       50
176
     0
 90
       50
176
     0
290
     0
176
     0
 90
       50
176
     0
 62
   256
176
     0
 40
1.0
176
     0
 90
        2
176
     0
  1
strokes_ogs.tif
176
     0
290
     0
176
     0
 40
1.0
176
     0
 40
1.0
176
     0
  0
VISUALSTYLE
  5
37
102
{ACAD_REACTORS
330
29
102
}
330
29
100
AcDbVisualStyle
  2
Linepattern
 70
    14
177
     3
291
     1
 70
    58
 90
        2
176
     1
 90
        2
176
     1
 90
        0
176
     1
 90
        0
176
     1
 40
0.6
176
     1
 40
30.0
176
     1
 62
     7
420
 16777215
176
     1
 90
        1
176
     1
 90
        4
176
     1
 62
     7
176
     1
 62
   257
176
     1
 90
        7
176
     1
 90
        7
176
     1
 40
1.0
176
     1
 90
        8
176
     1
 62
     7
176
     1
 40
1.0
176
     1
 90
        1
176
     1
 90
        6
176
     1
 90
        2
176
     1
 62
     7
176
     1
 90
        5
176
     1
 90
        0
176
     1
 90
        0
176
     1
290
     0
176
     1
 90
        1
176
     1
 40
0.0
176
     1
 90
        0
176
     1
290
     0
176
     1
290
     1
176
     1
290
     1
176
     1
290
     0
176
     1
290
     0
176
     1
290
     0
176
     1
290
     0
176
     1
290
     0
176
     1
290
     0
176
     1
 90
       50
176
     1
 40
0.0
176
     1
 40
1.0
176
     1
 90
        0
176
     1
 62
    18
420
        0
176
     1
 90
       50
176
     1
 90
        3
176
     1
 62
     5
420
      255
176
     1
290
     0
176
     1
 90
       50
176
     1
 90
       50
176
     1
 90
       50
176
     1
290
     0
176
     1
 90
       50
176
     1
 62
   256
176
     0
 40
1.0
176
     0
 90
        2
176
     1
  1
strokes_ogs.tif
176
     1
290
     0
176
     1
 40
1.0
176
     1
 40
1.0
176
     1
  0
VISUALSTYLE
  5
40
102
{ACAD_REACTORS
330
29
102
}
330
29
100
AcDbVisualStyle
  2
OverhangOff
 70
    21
177
     3
291
     1
 70
    58
 90
        2
176
     0
 90
        2
176
     0
 90
        0
176
     0
 90
        0
176
     0
 40
0.6
176
     0
 40
30.0
176
     0
 62
     7
420
 16777215
176
     0
 90
        1
176
     0
 90
        4
176
     0
 62
     7
176
     0
 62
   257
176
     0
 90
        1
176
     0
 90
        1
176
     0
 40
1.0
176
     0
 90
        9
176
     2
 62
     7
176
     0
 40
1.0
176
     0
 90
        1
176
     0
 90
        6
176
     0
 90
        2
176
     0
 62
     7
176
     0
 90
        5
176
     0
 90
        0
176
     0
 90
        0
176
     0
290
     0
176
     0
 90
        1
176
     0
 40
0.0
176
     0
 90
        0
176
     0
290
     0
176
     0
290
     1
176
     0
290
     1
176
     0
290
     0
176
     0
290
     0
176
     0
290
     0
176
     0
290
     0
176
     0
290
     0
176
     0
290
     0
176
     0
 90
       50
176
     0
 40
0.0
176
     0
 40
1.0
176
     0
 90
        0
176
     0
 62
    18
420
        0
176
     0
 90
       50
176
     0
 90
        3
176
     0
 62
     5
420
      255
176
     0
290
     0
176
     0
 90
       50
176
     0
 90
       50
176
     0
 90
       50
176
     0
290
     0
176
     0
 90
       50
176
     0
 62
   256
176
     0
 40
1.0
176
     0
 90
        2
176
     0
  1
strokes_ogs.tif
176
     0
290
     0
176
     0
 40
1.0
176
     0
 40
1.0
176
     0
  0
VISUALSTYLE
  5
33
102
{ACAD_REACTORS
330
29
102
}
330
29
100
AcDbVisualStyle
  2
Realistic
 70
     8
177
     3
291
     0
 70
    58
 90
        2
176
     1
 90
        3
176
     1
 90
        0
176
     1
 90
        2
176
     1
 40
0.6
176
     1
 40
30.0
176
     1
 62
     7
420
 16777215
176
     1
 90
        0
176
     1
 90
        0
176
     1
 62
     7
176
     1
 62
   257
176
     1
 90
        1
176
     1
 90
        1
176
     1
 40
1.0
176
     1
 90
        8
176
     1
 62
   257
176
     1
 40
1.0
176
     1
 90
        1
176
     1
 90
        6
176
     1
 90
        2
176
     1
 62
     7
176
     1
 90
        3
176
     1
 90
        0
176
     1
 90
        0
176
     1
290
     0
176
     1
 90
       13
176
     1
 40
0.0
176
     1
 90
        0
176
     1
290
     0
176
     1
290
     1
176
     1
290
     1
176
     1
290
     0
176
     1
290
     0
176
     1
290
     0
176
     1
290
     0
176
     1
290
     0
176
     1
290
     0
176
     1
 90
       50
176
     1
 40
0.0
176
     1
 40
1.0
176
     1
 90
        0
176
     1
 62
    18
420
        0
176
     1
 90
       50
176
     1
 90
        3
176
     1
 62
     5
420
      255
176
     1
290
     0
176
     1
 90
       50
176
     1
 90
       50
176
     1
 90
       50
176
     1
290
     0
176
     1
 90
       50
176
     1
 62
   256
176
     0
 40
1.0
176
     0
 90
        2
176
     1
  1
strokes_ogs.tif
176
     1
290
     0
176
     1
 40
1.0
176
     1
 40
1.0
176
     1
  0
VISUALSTYLE
  5
3E
102
{ACAD_REACTORS
330
29
102
}
330
29
100
AcDbVisualStyle
  2
Shaded
 70
    27
177
     3
291
     0
 70
    58
 90
        2
176
     1
 90
        2
176
     1
 90
        1
176
     1
 90
        2
176
     1
 40
0.6
176
     1
 40
30.0
176
     1
 62
     7
420
 16777215
176
     1
 90
        0
176
     1
 90
        4
176
     1
 62
     7
176
     1
 62
   257
176
     1
 90
        1
176
     1
 90
        1
176
     1
 40
1.0
176
     1
 90
        8
176
     1
 62
   257
176
     1
 40
1.0
176
     1
 90
        1
176
     1
 90
        6
176
     1
 90
        2
176
     1
 62
     8
420
  7895160
176
     1
 90
        3
176
     1
 90
        0
176
     1
 90
        0
176
     1
290
     0
176
     1
 90
        5
176
     1
 40
0.0
176
     1
 90
        0
176
     1
290
     0
176
     1
290
     1
176
     1
290
     1
176
     1
290
     0
176
     1
290
     0
176
     1
290
     0
176
     1
290
     0
176
     1
290
     0
176
     1
290
     0
176
     1
 90
       50
176
     1
 40
0.0
176
     1
 40
1.0
176
     1
 90
        0
176
     1
 62
    18
420
        0
176
     1
 90
       50
176
     1
 90
        3
176
     1
 62
     5
420
      255
176
     1
290
     0
176
     1
 90
       50
176
     1
 90
       50
176
     1
 90
       50
176
     1
290
     0
176
     1
 90
       50
176
     1
 62
   256
176
     0
 40
1.0
176
     0
 90
        2
176
     1
  1
strokes_ogs.tif
176
     1
290
     0
176
     1
 40
1.0
176
     1
 40
1.0
176
     1
  0
VISUALSTYLE
  5
3D
102
{ACAD_REACTORS
330
29
102
}
330
29
100
AcDbVisualStyle
  2
Shaded with edges
 70
    26
177
     3
291
     0
 70
    58
 90
        2
176
     1
 90
        2
176
     1
 90
        1
176
     1
 90
        2
176
     1
 40
0.6
176
     1
 40
30.0
176
     1
 62
     7
420
 16777215
176
     1
 90
        1
176
     1
 90
        2
176
     1
 62
     7
176
     1
 62
   257
176
     1
 90
        2
176
     1
 90
        1
176
     1
 40
1.0
176
     1
 90
        8
176
     1
 62
   257
176
     1
 40
1.0
176
     1
 90
        1
176
     1
 90
        6
176
     1
 90
        2
176
     1
 62
     7
176
     1
 90
        3
176
     1
 90
        0
176
     1
 90
        0
176
     1
290
     0
176
     1
 90
        5
176
     1
 40
0.0
176
     1
 90
        0
176
     1
290
     0
176
     1
290
     1
176
     1
290
     1
176
     1
290
     0
176
     1
290
     0
176
     1
290
     0
176
     1
290
     0
176
     1
290
     0
176
     1
290
     0
176
     1
 90
       50
176
     1
 40
0.0
176
     1
 40
1.0
176
     1
 90
        0
176
     1
 62
    18
420
        0
176
     1
 90
       50
176
     1
 90
        3
176
     1
 62
     5
420
      255
176
     1
290
     0
176
     1
 90
       50
176
     1
 90
       50
176
     1
 90
       50
176
     1
290
     0
176
     1
 90
       50
176
     1
 62
   256
176
     0
 40
1.0
176
     0
 90
        2
176
     1
  1
strokes_ogs.tif
176
     1
290
     0
176
     1
 40
1.0
176
     1
 40
1.0
176
     1
  0
VISUALSTYLE
  5
3A
102
{ACAD_REACTORS
330
29
102
}
330
29
100
AcDbVisualStyle
  2
Shades of Gray
 70
    23
177
     3
291
     0
 70
    58
 90
        2
176
     1
 90
        2
176
     1
 90
        3
176
     1
 90
        0
176
     1
 40
0.6
176
     1
 40
30.0
176
     1
 62
     7
420
 16777215
176
     1
 90
        2
176
     1
 90
        2
176
     1
 62
     7
176
     1
 62
     7
176
     1
 90
        1
176
     1
 90
        1
176
     1
 40
40.0
176
     1
 90
        8
176
     1
 62
     7
176
     1
 40
1.0
176
     1
 90
        1
176
     1
 90
        6
176
     1
 90
        2
176
     1
 62
     7
176
     1
 90
        3
176
     1
 90
        0
176
     1
 90
        0
176
     1
290
     0
176
     1
 90
        1
176
     1
 40
0.0
176
     1
 90
        0
176
     1
290
     0
176
     1
290
     1
176
     1
290
     1
176
     1
290
     0
176
     1
290
     0
176
     1
290
     0
176
     1
290
     0
176
     1
290
     0
176
     1
290
     0
176
     1
 90
       50
176
     1
 40
0.0
176
     1
 40
1.0
176
     1
 90
        0
176
     1
 62
    18
420
        0
176
     1
 90
       50
176
     1
 90
        3
176
     1
 62
     5
420
      255
176
     1
290
     0
176
     1
 90
       50
176
     1
 90
       50
176
     1
 90
       50
176
     1
290
     0
176
     1
 90
       50
176
     1
 62
   256
176
     0
 40
1.0
176
     0
 90
        2
176
     1
  1
strokes_ogs.tif
176
     1
290
     0
176
     1
 40
1.0
176
     1
 40
1.0
176
     1
  0
VISUALSTYLE
  5
3B
102
{ACAD_REACTORS
330
29
102
}
330
29
100
AcDbVisualStyle
  2
Sketchy
 70
    24
177
     3
291
     0
 70
    58
 90
        1
176
     1
 90
        2
176
     1
 90
        2
176
     1
 90
        0
176
     1
 40
0.6
176
     1
 40
30.0
176
     1
 62
     7
420
 16777215
176
     1
 90
        2
176
     1
 90
        2
176
     1
 62
     7
176
     1
 62
     7
176
     1
 90
        1
176
     1
 90
        1
176
     1
 40
40.0
176
     1
 90
       11
176
     1
 62
     7
176
     1
 40
1.0
176
     1
 90
        1
176
     1
 90
        6
176
     1
 90
        2
176
     1
 62
     7
176
     1
 90
        6
176
     1
 90
        0
176
     1
 90
        0
176
     1
290
     0
176
     1
 90
        1
176
     1
 40
0.0
176
     1
 90
        0
176
     1
290
     0
176
     1
290
     1
176
     1
290
     1
176
     1
290
     0
176
     1
290
     0
176
     1
290
     0
176
     1
290
     0
176
     1
290
     0
176
     1
290
     0
176
     1
 90
       50
176
     1
 40
0.0
176
     1
 40
1.0
176
     1
 90
        0
176
     1
 62
    18
420
        0
176
     1
 90
       50
176
     1
 90
        3
176
     1
 62
     5
420
      255
176
     1
290
     0
176
     1
 90
       50
176
     1
 90
       50
176
     1
 90
       50
176
     1
290
     0
176
     1
 90
       50
176
     1
 62
   256
176
     0
 40
1.0
176
     0
 90
        2
176
     1
  1
strokes_ogs.tif
176
     1
290
     0
176
     1
 40
1.0
176
     1
 40
1.0
176
     1
  0
VISUALSTYLE
  5
36
102
{ACAD_REACTORS
330
29
102
}
330
29
100
AcDbVisualStyle
  2
Thicken
 70
    13
177
     3
291
     1
 70
    58
 90
        2
176
     1
 90
        2
176
     1
 90
        0
176
     1
 90
        0
176
     1
 40
0.6
176
     1
 40
30.0
176
     1
 62
     7
420
 16777215
176
     1
 90
        1
176
     1
 90
        4
176
     1
 62
     7
176
     1
 62
   257
176
     1
 90
        1
176
     1
 90
        1
176
     1
 40
1.0
176
     1
 90
       12
176
     1
 62
     7
176
     1
 40
1.0
176
     1
 90
        1
176
     1
 90
        6
176
     1
 90
        2
176
     1
 62
     7
176
     1
 90
        5
176
     1
 90
        0
176
     1
 90
        0
176
     1
290
     0
176
     1
 90
        1
176
     1
 40
0.0
176
     1
 90
        0
176
     1
290
     0
176
     1
290
     1
176
     1
290
     1
176
     1
290
     0
176
     1
290
     0
176
     1
290
     0
176
     1
290
     0
176
     1
290
     0
176
     1
290
     0
176
     1
 90
       50
176
     1
 40
0.0
176
     1
 40
1.0
176
     1
 90
        0
176
     1
 62
    18
420
        0
176
     1
 90
       50
176
     1
 90
        3
176
     1
 62
     5
420
      255
176
     1
290
     0
176
     1
 90
       50
176
     1
 90
       50
176
     1
 90
       50
176
     1
290
     0
176
     1
 90
       50
176
     1
 62
   256
176
     0
 40
1.0
176
     0
 90
        2
176
     1
  1
strokes_ogs.tif
176
     1
290
     0
176
     1
 40
1.0
176
     1
 40
1.0
176
     1
  0
VISUALSTYLE
  5
30
102
{ACAD_REACTORS
330
29
102
}
330
29
100
AcDbVisualStyle
  2
Wireframe
 70
     5
177
     3
291
     0
 70
    58
 90
        0
176
     1
 90
        2
176
     1
 90
        0
176
     1
 90
        0
176
     1
 40
0.6
176
     1
 40
30.0
176
     1
 62
     7
420
 16777215
176
     1
 90
        1
176
     1
 90
        4
176
     1
 62
     7
176
     1
 62
   257
176
     1
 90
        1
176
     1
 90
        1
176
     1
 40
1.0
176
     1
 90
        0
176
     1
 62
   257
176
     1
 40
1.0
176
     1
 90
        1
176
     1
 90
        6
176
     1
 90
        2
176
     1
 62
     7
176
     1
 90
        3
176
     1
 90
        0
176
     1
 90
        0
176
     1
290
     0
176
     1
 90
        1
176
     1
 40
0.0
176
     1
 90
        0
176
     1
290
     0
176
     1
290
     1
176
     1
290
     1
176
     1
290
     0
176
     1
290
     0
176
     1
290
     0
176
     1
290
     0
176
     1
290
     0
176
     1
290
     0
176
     1
 90
       50
176
     1
 40
0.0
176
     1
 40
1.0
176
     1
 90
        0
176
     1
 62
    18
420
        0
176
     1
 90
       50
176
     1
 90
        3
176
     1
 62
     5
420
      255
176
     1
290
     0
176
     1
 90
       50
176
     1
 90
       50
176
     1
 90
       50
176
     1
290
     0
176
     1
 90
       50
176
     1
 62
   256
176
     0
 40
1.0
176
     0
 90
        2
176
     1
  1
strokes_ogs.tif
176
     1
290
     0
176
     1
 40
1.0
176
     1
 40
1.0
176
     1
  0
VISUALSTYLE
  5
3C
102
{ACAD_REACTORS
330
29
102
}
330
29
100
AcDbVisualStyle
  2
X-Ray
 70
    25
177
     3
291
     0
 70
    58
 90
        2
176
     1
 90
        2
176
     1
 90
        1
176
     1
 90
        1
176
     1
 40
0.5
176
     1
 40
30.0
176
     1
 62
     7
420
 16777215
176
     1
 90
        1
176
     1
 90
        0
176
     1
 62
     7
176
     1
 62
   257
176
     1
 90
        1
176
     1
 90
        1
176
     1
 40
1.0
176
     1
 90
        8
176
     1
 62
     7
176
     1
 40
1.0
176
     1
 90
        1
176
     1
 90
        6
176
     1
 90
        2
176
     1
 62
     7
176
     1
 90
        3
176
     1
 90
        0
176
     1
 90
        0
176
     1
290
     0
176
     1
 90
       13
176
     1
 40
0.0
176
     1
 90
        0
176
     1
290
     0
176
     1
290
     1
176
     1
290
     1
176
     1
290
     0
176
     1
290
     0
176
     1
290
     0
176
     1
290
     0
176
     1
290
     0
176
     1
290
     0
176
     1
 90
       50
176
     1
 40
0.0
176
     1
 40
1.0
176
     1
 90
        0
176
     1
 62
    18
420
        0
176
     1
 90
       50
176
     1
 90
        3
176
     1
 62
     5
420
      255
176
     1
290
     0
176
     1
 90
       50
176
     1
 90
       50
176
     1
 90
       50
176
     1
290
     0
176
     1
 90
       50
176
     1
 62
   256
176
     0
 40
1.0
176
     0
 90
        2
176
     1
  1
strokes_ogs.tif
176
     1
290
     0
176
     1
 40
1.0
176
     1
 40
1.0
176
     1
  0
DICTIONARYVAR
  5
112
102
{ACAD_REACTORS
330
10D
102
}
330
10D
100
DictionaryVariables
280
     0
  1
1:1
  0
DICTIONARYVAR
  5
10F
102
{ACAD_REACTORS
330
10D
102
}
330
10D
100
DictionaryVariables
280
     0
  1
STANDARD
  0
DICTIONARYVAR
  5
10E
102
{ACAD_REACTORS
330
10D
102
}
330
10D
100
DictionaryVariables
280
     0
  1
STANDARD
  0
DICTIONARYVAR
  5
110
102
{ACAD_REACTORS
330
10D
102
}
330
10D
100
DictionaryVariables
280
     0
  1
Imperial24
  0
DICTIONARYVAR
  5
111
102
{ACAD_REACTORS
330
10D
102
}
330
10D
100
DictionaryVariables
280
     0
  1
Imperial24
  0
DICTIONARY
  5
1A
330
19
100
AcDbDictionary
280
     1
281
     1
  3
BUMPTILE
360
1C
  3
DIFFUSETILE
360
1B
  3
OPACITYTILE
360
1F
  3
REFLECTIONTILE
360
1E
  3
REFRACTIONTILE
360
20
  3
SPECULARTILE
360
1D
  0
DICTIONARY
  5
12
330
11
100
AcDbDictionary
280
     1
281
     1
  3
BUMPTILE
360
14
  3
DIFFUSETILE
360
13
  3
OPACITYTILE
360
17
  3
REFLECTIONTILE
360
16
  3
REFRACTIONTILE
360
18
  3
SPECULARTILE
360
15
  0
DICTIONARY
  5
22
330
21
100
AcDbDictionary
280
     1
281
     1
  3
BUMPTILE
360
24
  3
DIFFUSETILE
360
23
  3
OPACITYTILE
360
27
  3
REFLECTIONTILE
360
26
  3
REFRACTIONTILE
360
28
  3
SPECULARTILE
360
25
  0
DICTIONARY
  5
113
330
65
100
AcDbDictionary
280
     1
281
     1
  3
ACAD_ROUNDTRIP_2008_TABLESTYLE_CELLSTYLEMAP
360
114
  0
XRECORD
  5
1C
102
{ACAD_REACTORS
330
1A
102
}
330
1A
100
AcDbXrecord
280
     1
270
     1
271
     1
  0
XRECORD
  5
1B
102
{ACAD_REACTORS
330
1A
102
}
330
1A
100
AcDbXrecord
280
     1
270
     1
271
     1
  0
XRECORD
  5
1F
102
{ACAD_REACTORS
330
1A
102
}
330
1A
100
AcDbXrecord
280
     1
270
     1
271
     1
  0
XRECORD
  5
1E
102
{ACAD_REACTORS
330
1A
102
}
330
1A
100
AcDbXrecord
280
     1
270
     1
271
     1
  0
XRECORD
  5
20
102
{ACAD_REACTORS
330
1A
102
}
330
1A
100
AcDbXrecord
280
     1
270
     1
271
     1
  0
XRECORD
  5
1D
102
{ACAD_REACTORS
330
1A
102
}
330
1A
100
AcDbXrecord
280
     1
270
     1
271
     1
  0
XRECORD
  5
14
102
{ACAD_REACTORS
330
12
102
}
330
12
100
AcDbXrecord
280
     1
270
     1
271
     1
  0
XRECORD
  5
13
102
{ACAD_REACTORS
330
12
102
}
330
12
100
AcDbXrecord
280
     1
270
     1
271
     1
  0
XRECORD
  5
17
102
{ACAD_REACTORS
330
12
102
}
330
12
100
AcDbXrecord
280
     1
270
     1
271
     1
  0
XRECORD
  5
16
102
{ACAD_REACTORS
330
12
102
}
330
12
100
AcDbXrecord
280
     1
270
     1
271
     1
  0
XRECORD
  5
18
102
{ACAD_REACTORS
330
12
102
}
330
12
100
AcDbXrecord
280
     1
270
     1
271
     1
  0
XRECORD
  5
15
102
{ACAD_REACTORS
330
12
102
}
330
12
100
AcDbXrecord
280
     1
270
     1
271
     1
  0
XRECORD
  5
24
102
{ACAD_REACTORS
330
22
102
}
330
22
100
AcDbXrecord
280
     1
270
     1
271
     1
  0
XRECORD
  5
23
102
{ACAD_REACTORS
330
22
102
}
330
22
100
AcDbXrecord
280
     1
270
     1
271
     1
  0
XRECORD
  5
27
102
{ACAD_REACTORS
330
22
102
}
330
22
100
AcDbXrecord
280
     1
270
     1
271
     1
  0
XRECORD
  5
26
102
{ACAD_REACTORS
330
22
102
}
330
22
100
AcDbXrecord
280
     1
270
     1
271
     1
  0
XRECORD
  5
28
102
{ACAD_REACTORS
330
22
102
}
330
22
100
AcDbXrecord
280
     1
270
     1
271
     1
  0
XRECORD
  5
25
102
{ACAD_REACTORS
330
22
102
}
330
22
100
AcDbXrecord
280
     1
270
     1
271
     1
  0
CELLSTYLEMAP
  5
114
102
{ACAD_REACTORS
330
113
102
}
330
113
100
AcDbCellStyleMap
 90
        3
300
CELLSTYLE
  1
TABLEFORMAT_BEGIN
 90
        5
170
     1
 91
        0
 92
    32768
 62
   257
 93
        1
300
CONTENTFORMAT
  1
CONTENTFORMAT_BEGIN
 90
        0
 91
        0
 92
      512
 93
        0
300

 40
0.0
140
1.0
 94
        5
 62
     0
340
55
144
0.25
309
CONTENTFORMAT_END
171
     0
 94
        0
309
TABLEFORMAT_END
  1
CELLSTYLE_BEGIN
 90
        1
 91
        1
300
_TITLE
309
CELLSTYLE_END
300
CELLSTYLE
  1
TABLEFORMAT_BEGIN
 90
        5
170
     1
 91
        0
 92
        0
 62
   257
 93
        1
300
CONTENTFORMAT
  1
CONTENTFORMAT_BEGIN
 90
        0
 91
        0
 92
      512
 93
        0
300

 40
0.0
140
1.0
 94
        5
 62
     0
340
55
144
0.18
309
CONTENTFORMAT_END
171
     0
 94
        0
309
TABLEFORMAT_END
  1
CELLSTYLE_BEGIN
 90
        2
 91
        1
300
_HEADER
309
CELLSTYLE_END
300
CELLSTYLE
  1
TABLEFORMAT_BEGIN
 90
        5
170
     1
 91
        0
 92
        0
 62
   257
 93
        1
300
CONTENTFORMAT
  1
CONTENTFORMAT_BEGIN
 90
        0
 91
        0
 92
      512
 93
        0
300

 40
0.0
140
1.0
 94
        2
 62
     0
340
55
144
0.18
309
CONTENTFORMAT_END
171
     0
 94
        0
309
TABLEFORMAT_END
  1
CELLSTYLE_BEGIN
 90
        3
 91
        2
300
_DATA
309
CELLSTYLE_END
  0
ENDSEC
  0
EOF
