  0
SECTION
  2
HEADER
  9
$ACADVER
  1
AC1032
  9
$ACADMAINTVER
 90
      251
  9
$DWGCODEPAGE
  3
ANSI_1252
  9
$REQUIREDVERSIONS
160
                 0
  9
$INSBASE
 10
0.0
 20
0.0
 30
0.0
  9
$EXTMIN
 10
1.000000000000000E+20
 20
1.000000000000000E+20
 30
1.000000000000000E+20
  9
$EXTMAX
 10
-1.000000000000000E+20
 20
-1.000000000000000E+20
 30
-1.000000000000000E+20
  9
$LIMMIN
 10
0.0
 20
0.0
  9
$LIMMAX
 10
12.0
 20
9.0
  9
$ORTHOMODE
 70
     0
  9
$REGENMODE
 70
     1
  9
$FILLMODE
 70
     1
  9
$QTEXTMODE
 70
     0
  9
$MIRRTEXT
 70
     0
  9
$LTSCALE
 40
1.0
  9
$ATTMODE
 70
     1
  9
$TEXTSIZE
 40
0.2
  9
$TRACEWID
 40
0.05
  9
$TEXTSTYLE
  7
Standard
  9
$CLAYER
  8
0
  9
$CELTYPE
  6
ByLayer
  9
$CECOLOR
 62
   256
  9
$CELTSCALE
 40
1.0
  9
$DISPSILH
 70
     0
  9
$DIMSCALE
 40
1.0
  9
$DIMASZ
 40
0.18
  9
$DIMEXO
 40
0.0625
  9
$DIMDLI
 40
0.38
  9
$DIMRND
 40
0.0
  9
$DIMDLE
 40
0.0
  9
$DIMEXE
 40
0.18
  9
$DIMTP
 40
0.0
  9
$DIMTM
 40
0.0
  9
$DIMTXT
 40
0.18
  9
$DIMCEN
 40
0.09
  9
$DIMTSZ
 40
0.0
  9
$DIMTOL
 70
     0
  9
$DIMLIM
 70
     0
  9
$DIMTIH
 70
     1
  9
$DIMTOH
 70
     1
  9
$DIMSE1
 70
     0
  9
$DIMSE2
 70
     0
  9
$DIMTAD
 70
     0
  9
$DIMZIN
 70
     0
  9
$DIMBLK
  1

  9
$DIMASO
 70
     1
  9
$DIMSHO
 70
     1
  9
$DIMPOST
  1

  9
$DIMAPOST
  1

  9
$DIMALT
 70
     0
  9
$DIMALTD
 70
     2
  9
$DIMALTF
 40
25.4
  9
$DIMLFAC
 40
1.0
  9
$DIMTOFL
 70
     0
  9
$DIMTVP
 40
0.0
  9
$DIMTIX
 70
     0
  9
$DIMSOXD
 70
     0
  9
$DIMSAH
 70
     0
  9
$DIMBLK1
  1

  9
$DIMBLK2
  1

  9
$DIMSTYLE
  2
Standard
  9
$DIMCLRD
 70
     0
  9
$DIMCLRE
 70
     0
  9
$DIMCLRT
 70
     0
  9
$DIMTFAC
 40
1.0
  9
$DIMGAP
 40
0.09
  9
$DIMJUST
 70
     0
  9
$DIMSD1
 70
     0
  9
$DIMSD2
 70
     0
  9
$DIMTOLJ
 70
     1
  9
$DIMTZIN
 70
     0
  9
$DIMALTZ
 70
     0
  9
$DIMALTTZ
 70
     0
  9
$DIMUPT
 70
     0
  9
$DIMDEC
 70
     4
  9
$DIMTDEC
 70
     4
  9
$DIMALTU
 70
     2
  9
$DIMALTTD
 70
     2
  9
$DIMTXSTY
  7
Standard
  9
$DIMAUNIT
 70
     0
  9
$DIMADEC
 70
     0
  9
$DIMALTRND
 40
0.0
  9
$DIMAZIN
 70
     0
  9
$DIMDSEP
 70
    46
  9
$DIMATFIT
 70
     3
  9
$DIMFRAC
 70
     0
  9
$DIMLDRBLK
  1

  9
$DIMLUNIT
 70
     2
  9
$DIMLWD
 70
    -2
  9
$DIMLWE
 70
    -2
  9
$DIMTMOVE
 70
     0
  9
$DIMFXL
 40
1.0
  9
$DIMFXLON
 70
     0
  9
$DIMJOGANG
 40
0.7853981633974483
  9
$DIMTFILL
 70
     0
  9
$DIMTFILLCLR
 70
     0
  9
$DIMARCSYM
 70
     0
  9
$DIMLTYPE
  6

  9
$DIMLTEX1
  6

  9
$DIMLTEX2
  6

  9
$DIMTXTDIRECTION
 70
     0
  9
$LUNITS
 70
     2
  9
$LUPREC
 70
     4
  9
$SKETCHINC
 40
0.1
  9
$FILLETRAD
 40
0.0
  9
$AUNITS
 70
     0
  9
$AUPREC
 70
     0
  9
$MENU
  1
.
  9
$ELEVATION
 40
0.0
  9
$PELEVATION
 40
0.0
  9
$THICKNESS
 40
0.0
  9
$LIMCHECK
 70
     0
  9
$CHAMFERA
 40
0.0
  9
$CHAMFERB
 40
0.0
  9
$CHAMFERC
 40
0.0
  9
$CHAMFERD
 40
0.0
  9
$SKPOLY
 70
     0
  9
$TDCREATE
 40
2460035.465613426
  9
$TDUCREATE
 40
2460035.382280093
  9
$TDUPDATE
 40
2460035.465613426
  9
$TDUUPDATE
 40
2460035.382280093
  9
$TDINDWG
 40
0.0000000000
  9
$TDUSRTIMER
 40
0.0000000000
  9
$USRTIMER
 70
     1
  9
$ANGBASE
 50
0.0
  9
$ANGDIR
 70
     0
  9
$PDMODE
 70
     0
  9
$PDSIZE
 40
0.0
  9
$PLINEWID
 40
0.0
  9
$SPLFRAME
 70
     0
  9
$SPLINETYPE
 70
     6
  9
$SPLINESEGS
 70
     8
  9
$HANDSEED
  5
322
  9
$SURFTAB1
 70
     6
  9
$SURFTAB2
 70
     6
  9
$SURFTYPE
 70
     6
  9
$SURFU
 70
     6
  9
$SURFV
 70
     6
  9
$UCSBASE
  2

  9
$UCSNAME
  2

  9
$UCSORG
 10
0.0
 20
0.0
 30
0.0
  9
$UCSXDIR
 10
1.0
 20
0.0
 30
0.0
  9
$UCSYDIR
 10
0.0
 20
1.0
 30
0.0
  9
$UCSORTHOREF
  2

  9
$UCSORTHOVIEW
 70
     0
  9
$UCSORGTOP
 10
0.0
 20
0.0
 30
0.0
  9
$UCSORGBOTTOM
 10
0.0
 20
0.0
 30
0.0
  9
$UCSORGLEFT
 10
0.0
 20
0.0
 30
0.0
  9
$UCSORGRIGHT
 10
0.0
 20
0.0
 30
0.0
  9
$UCSORGFRONT
 10
0.0
 20
0.0
 30
0.0
  9
$UCSORGBACK
 10
0.0
 20
0.0
 30
0.0
  9
$PUCSBASE
  2

  9
$PUCSNAME
  2

  9
$PUCSORG
 10
0.0
 20
0.0
 30
0.0
  9
$PUCSXDIR
 10
1.0
 20
0.0
 30
0.0
  9
$PUCSYDIR
 10
0.0
 20
1.0
 30
0.0
  9
$PUCSORTHOREF
  2

  9
$PUCSORTHOVIEW
 70
     0
  9
$PUCSORGTOP
 10
0.0
 20
0.0
 30
0.0
  9
$PUCSORGBOTTOM
 10
0.0
 20
0.0
 30
0.0
  9
$PUCSORGLEFT
 10
0.0
 20
0.0
 30
0.0
  9
$PUCSORGRIGHT
 10
0.0
 20
0.0
 30
0.0
  9
$PUCSORGFRONT
 10
0.0
 20
0.0
 30
0.0
  9
$PUCSORGBACK
 10
0.0
 20
0.0
 30
0.0
  9
$USERI1
 70
     0
  9
$USERI2
 70
     0
  9
$USERI3
 70
     0
  9
$USERI4
 70
     0
  9
$USERI5
 70
     0
  9
$USERR1
 40
0.0
  9
$USERR2
 40
0.0
  9
$USERR3
 40
0.0
  9
$USERR4
 40
0.0
  9
$USERR5
 40
0.0
  9
$WORLDVIEW
 70
     1
  9
$SHADEDGE
 70
     3
  9
$SHADEDIF
 70
    70
  9
$TILEMODE
 70
     1
  9
$MAXACTVP
 70
    64
  9
$PINSBASE
 10
0.0
 20
0.0
 30
0.0
  9
$PLIMCHECK
 70
     0
  9
$PEXTMIN
 10
1.000000000000000E+20
 20
1.000000000000000E+20
 30
1.000000000000000E+20
  9
$PEXTMAX
 10
-1.000000000000000E+20
 20
-1.000000000000000E+20
 30
-1.000000000000000E+20
  9
$PLIMMIN
 10
0.0
 20
0.0
  9
$PLIMMAX
 10
12.0
 20
9.0
  9
$UNITMODE
 70
     0
  9
$VISRETAIN
 70
     1
  9
$PLINEGEN
 70
     0
  9
$PSLTSCALE
 70
     1
  9
$TREEDEPTH
 70
  3020
  9
$CMLSTYLE
  2
Standard
  9
$CMLJUST
 70
     0
  9
$CMLSCALE
 40
1.0
  9
$PROXYGRAPHICS
 70
     1
  9
$MEASUREMENT
 70
     0
  9
$CELWEIGHT
370
    -1
  9
$ENDCAPS
280
     0
  9
$JOINSTYLE
280
     0
  9
$LWDISPLAY
290
     1
  9
$INSUNITS
 70
     4
  9
$HYPERLINKBASE
  1

  9
$STYLESHEET
  1

  9
$XEDIT
290
     1
  9
$CEPSNTYPE
380
     0
  9
$PSTYLEMODE
290
     1
  9
$FINGERPRINTGUID
  2
{08337882-22C3-3945-8CE1-4529C5BCFB11}
  9
$VERSIONGUID
  2
{F448597C-61C9-FC4F-B45D-84446F9D7F32}
  9
$EXTNAMES
290
     1
  9
$PSVPSCALE
 40
0.0
  9
$OLESTARTUP
290
     0
  9
$SORTENTS
280
   127
  9
$INDEXCTL
280
     0
  9
$HIDETEXT
280
     1
  9
$XCLIPFRAME
280
     2
  9
$HALOGAP
280
     0
  9
$OBSCOLOR
 70
   257
  9
$OBSLTYPE
280
     0
  9
$INTERSECTIONDISPLAY
280
     0
  9
$INTERSECTIONCOLOR
 70
   257
  9
$DIMASSOC
280
     2
  9
$PROJECTNAME
  1

  9
$CAMERADISPLAY
290
     0
  9
$LENSLENGTH
 40
50.0
  9
$CAMERAHEIGHT
 40
0.0
  9
$STEPSPERSEC
 40
2.0
  9
$STEPSIZE
 40
6.0
  9
$3DDWFPREC
 40
2.0
  9
$PSOLWIDTH
 40
0.25
  9
$PSOLHEIGHT
 40
4.0
  9
$LOFTANG1
 40
1.570796326794896
  9
$LOFTANG2
 40
1.570796326794896
  9
$LOFTMAG1
 40
0.0
  9
$LOFTMAG2
 40
0.0
  9
$LOFTPARAM
 70
     7
  9
$LOFTNORMALS
280
     1
  9
$LATITUDE
 40
37.795
  9
$LONGITUDE
 40
-122.394
  9
$NORTHDIRECTION
 40
0.0
  9
$TIMEZONE
 70
 -8000
  9
$LIGHTGLYPHDISPLAY
280
     1
  9
$TILEMODELIGHTSYNCH
280
     1
  9
$CMATERIAL
347
11
  9
$SOLIDHIST
280
     0
  9
$SHOWHIST
280
     1
  9
$DWFFRAME
280
     2
  9
$DGNFRAME
280
     0
  9
$REALWORLDSCALE
290
     1
  9
$INTERFERECOLOR
 62
     1
  9
$INTERFEREOBJVS
345
33
  9
$INTERFEREVPVS
346
30
  9
$CSHADOW
280
     0
  9
$SHADOWPLANELOCATION
 40
0.0
  0
ENDSEC
  0
SECTION
  2
CLASSES
  0
CLASS
  1
ACDBDICTIONARYWDFLT
  2
AcDbDictionaryWithDefault
  3
ObjectDBX Classes
 90
        0
 91
        1
280
     0
281
     0
  0
CLASS
  1
MATERIAL
  2
AcDbMaterial
  3
ObjectDBX Classes
 90
     1153
 91
        3
280
     0
281
     0
  0
CLASS
  1
VISUALSTYLE
  2
AcDbVisualStyle
  3
ObjectDBX Classes
 90
     4095
 91
       24
280
     0
281
     0
  0
CLASS
  1
SCALE
  2
AcDbScale
  3
ObjectDBX Classes
 90
     1153
 91
       17
280
     0
281
     0
  0
CLASS
  1
TABLESTYLE
  2
AcDbTableStyle
  3
ObjectDBX Classes
 90
     4095
 91
        1
280
     0
281
     0
  0
CLASS
  1
MLEADERSTYLE
  2
AcDbMLeaderStyle
  3
ACDB_MLEADERSTYLE_CLASS
 90
     4095
 91
        1
280
     0
281
     0
  0
CLASS
  1
ACDBSECTIONVIEWSTYLE
  2
AcDbSectionViewStyle
  3
ObjectDBX Classes
 90
     1025
 91
        1
280
     0
281
     0
  0
CLASS
  1
ACDBDETAILVIEWSTYLE
  2
AcDbDetailViewStyle
  3
ObjectDBX Classes
 90
     1025
 91
        1
280
     0
281
     0
  0
CLASS
  1
DICTIONARYVAR
  2
AcDbDictionaryVar
  3
ObjectDBX Classes
 90
        0
 91
        5
280
     0
281
     0
  0
CLASS
  1
CELLSTYLEMAP
  2
AcDbCellStyleMap
  3
ObjectDBX Classes
 90
     1152
 91
        1
280
     0
281
     0
  0
ENDSEC
  0
SECTION
  2
TABLES
  0
TABLE
  2
VPORT
  5
8
330
0
100
AcDbSymbolTable
 70
     1
  0
VPORT
  5
57
330
8
100
AcDbSymbolTableRecord
100
AcDbViewportTableRecord
  2
*Active
 70
     0
 10
0.0
 20
0.0
 11
1.0
 21
1.0
 12
0.0
 22
0.0
 13
0.0
 23
0.0
 14
1.0
 24
1.0
 15
0.0
 25
0.0
 16
0.0
 26
0.0
 36
1.0
 17
104.9999999737499
 27
31.49999999212523
 37
0.0
 40
302.9399999242649
 41
0.7070707070707066
 42
50.0
 43
0.0
 44
0.0
 50
0.0
 51
0.0
 71
     0
 72
   100
 73
     1
 74
     1
 75
     0
 76
     0
 77
     0
 78
     0
281
     0
 65
     1
110
0.0
120
0.0
130
0.0
111
1.0
121
0.0
131
0.0
112
0.0
122
1.0
132
0.0
 79
     0
146
0.0
 60
     3
 61
     5
292
     1
282
     1
141
0.0
142
0.0
 63
   250
421
  3355443
  0
ENDTAB
  0
TABLE
  2
LTYPE
  5
5
330
0
100
AcDbSymbolTable
 70
     1
  0
LTYPE
  5
5B
330
5
100
AcDbSymbolTableRecord
100
AcDbLinetypeTableRecord
  2
ByBlock
 70
     0
  3

 72
    65
 73
     0
 40
0.0
  0
LTYPE
  5
5C
330
5
100
AcDbSymbolTableRecord
100
AcDbLinetypeTableRecord
  2
ByLayer
 70
     0
  3

 72
    65
 73
     0
 40
0.0
  0
LTYPE
  5
5D
330
5
100
AcDbSymbolTableRecord
100
AcDbLinetypeTableRecord
  2
Continuous
 70
     0
  3
Solid line
 72
    65
 73
     0
 40
0.0
  0
ENDTAB
  0
TABLE
  2
LAYER
  5
2
330
0
100
AcDbSymbolTable
 70
     2
  0
LAYER
  5
54
330
2
100
AcDbSymbolTableRecord
100
AcDbLayerTableRecord
  2
0
 70
     0
 62
     7
  6
Continuous
370
     0
390
F
347
21
348
0
  0
LAYER
  5
2F4
330
2
100
AcDbSymbolTableRecord
100
AcDbLayerTableRecord
  2
CAPA_BASE
 70
     0
 62
     7
  6
Continuous
370
     0
390
F
347
21
348
0
  0
ENDTAB
  0
TABLE
  2
STYLE
  5
3
330
0
100
AcDbSymbolTable
 70
     2
  0
STYLE
  5
55
330
3
100
AcDbSymbolTableRecord
100
AcDbTextStyleTableRecord
  2
Standard
 70
     0
 40
0.0
 41
1.0
 50
0.0
 71
     0
 42
0.2
  3
txt
  4

  0
STYLE
  5
5A
330
3
100
AcDbSymbolTableRecord
100
AcDbTextStyleTableRecord
  2
Annotative
 70
     0
 40
0.0
 41
1.0
 50
0.0
 71
     0
 42
0.2
  3
txt
  4

1001
AcadAnnotative
1000
AnnotativeData
1002
{
1070
     1
1070
     1
1002
}
  0
ENDTAB
  0
TABLE
  2
VIEW
  5
6
330
0
100
AcDbSymbolTable
 70
     0
  0
ENDTAB
  0
TABLE
  2
UCS
  5
7
330
0
100
AcDbSymbolTable
 70
     0
  0
ENDTAB
  0
TABLE
  2
APPID
  5
9
330
0
100
AcDbSymbolTable
 70
     2
  0
APPID
  5
56
330
9
100
AcDbSymbolTableRecord
100
AcDbRegAppTableRecord
  2
ACAD
 70
     0
  0
APPID
  5
5E
330
9
100
AcDbSymbolTableRecord
100
AcDbRegAppTableRecord
  2
AcadAnnotative
 70
     0
  0
ENDTAB
  0
TABLE
  2
DIMSTYLE
  5
A
330
0
100
AcDbSymbolTable
 70
     2
100
AcDbDimStyleTable
 71
     0
  0
DIMSTYLE
105
58
330
A
100
AcDbSymbolTableRecord
100
AcDbDimStyleTableRecord
  2
Standard
 70
     0
340
55
  0
DIMSTYLE
105
59
330
A
100
AcDbSymbolTableRecord
100
AcDbDimStyleTableRecord
  2
Annotative
 70
     0
340
55
1001
AcadAnnotative
1000
AnnotativeData
1002
{
1070
     1
1070
     1
1002
}
  0
ENDTAB
  0
TABLE
  2
BLOCK_RECORD
  5
1
330
0
100
AcDbSymbolTable
 70
     4
  0
BLOCK_RECORD
  5
70
330
1
100
AcDbSymbolTableRecord
100
AcDbBlockTableRecord
  2
*Model_Space
340
73
 70
     0
280
     1
281
     0
  0
BLOCK_RECORD
  5
6C
330
1
100
AcDbSymbolTableRecord
100
AcDbBlockTableRecord
  2
*Paper_Space
340
6F
 70
     0
280
     1
281
     0
  0
BLOCK_RECORD
  5
74
330
1
100
AcDbSymbolTableRecord
100
AcDbBlockTableRecord
  2
*Paper_Space0
340
77
 70
     0
280
     1
281
     0
  0
BLOCK_RECORD
  5
2F5
330
1
100
AcDbSymbolTableRecord
100
AcDbBlockTableRecord
  2
Block_0
340
0
102
{BLKREFS
331
2F6
102
}
 70
     0
280
     1
281
     0
  0
BLOCK_RECORD
  5
301
330
1
100
AcDbSymbolTableRecord
100
AcDbBlockTableRecord
  2
Block_1
340
0
102
{BLKREFS
331
302
102
}
 70
     0
280
     1
281
     0
  0
BLOCK_RECORD
  5
30D
330
1
100
AcDbSymbolTableRecord
100
AcDbBlockTableRecord
  2
Block_2
340
0
102
{BLKREFS
331
30E
102
}
 70
     0
280
     1
281
     0
  0
ENDTAB
  0
ENDSEC
  0
SECTION
  2
BLOCKS
  0
BLOCK
  5
71
330
70
100
AcDbEntity
  8
0
100
AcDbBlockBegin
  2
*Model_Space
 70
     0
 10
0.0
 20
0.0
 30
0.0
  3
*Model_Space
  1

  0
ENDBLK
  5
72
330
70
100
AcDbEntity
  8
0
100
AcDbBlockEnd
  0
BLOCK
  5
6D
330
6C
100
AcDbEntity
 67
     1
  8
0
100
AcDbBlockBegin
  2
*Paper_Space
 70
     0
 10
0.0
 20
0.0
 30
0.0
  3
*Paper_Space
  1

  0
ENDBLK
  5
6E
330
6C
100
AcDbEntity
 67
     1
  8
0
100
AcDbBlockEnd
  0
BLOCK
  5
75
330
74
100
AcDbEntity
 67
     1
  8
0
100
AcDbBlockBegin
  2
*Paper_Space0
 70
     0
 10
0.0
 20
0.0
 30
0.0
  3
*Paper_Space0
  1

  0
ENDBLK
  5
76
330
74
100
AcDbEntity
 67
     1
  8
0
100
AcDbBlockEnd
  0
BLOCK
  5
2F7
330
2F5
100
AcDbEntity
  8
0
100
AcDbBlockBegin
  2
Block_0
 70
     0
 10
0.0
 20
0.0
 30
0.0
  3
Block_0
  1

  0
LWPOLYLINE
  5
2F9
330
2F5
100
AcDbEntity
  8
CAPA_BASE
100
AcDbPolyline
 90
        4
 70
     1
 43
0.0
 10
115.1742305223975
 20
80.35351037524629
 10
112.6742305223978
 20
80.66351037524603
 10
112.6742305223978
 20
80.04351037524592
 10
112.6742305223978
 20
80.04351037524592
  0
HATCH
  5
2FA
330
2F5
100
AcDbEntity
  8
CAPA_BASE
 62
    18
420
        0
440
 33554687
100
AcDbHatch
 10
0.0
 20
0.0
 30
0.0
210
0.0
220
0.0
230
1.0
  2
SOLID
 70
     1
 71
     1
 91
        1
 92
        1
 93
        3
 72
     1
 10
115.1742305223975
 20
80.35351037524629
 11
112.6742305223978
 21
80.66351037524603
 72
     1
 10
112.6742305223978
 20
80.66351037524603
 11
112.6742305223978
 21
80.04351037524592
 72
     1
 10
112.6742305223978
 20
80.04351037524592
 11
115.1742305223975
 21
80.35351037524629
 97
        1
330
2F9
 75
     2
 76
     1
 98
        1
 10
0.0
 20
0.0
450
        0
451
        0
460
0.0
461
0.0
452
        0
462
0.0
453
        0
470

  0
LWPOLYLINE
  5
2FB
330
2F5
100
AcDbEntity
  8
CAPA_BASE
100
AcDbPolyline
 90
        4
 70
     1
 43
0.0
 10
15.17423052239756
 20
80.35351037524629
 10
17.67423052239765
 20
80.04351037524592
 10
17.67423052239765
 20
80.66351037524603
 10
17.67423052239765
 20
80.66351037524603
  0
HATCH
  5
2FC
330
2F5
100
AcDbEntity
  8
CAPA_BASE
 62
    18
420
        0
440
 33554687
100
AcDbHatch
 10
0.0
 20
0.0
 30
0.0
210
0.0
220
0.0
230
1.0
  2
SOLID
 70
     1
 71
     1
 91
        1
 92
        1
 93
        3
 72
     1
 10
15.17423052239756
 20
80.35351037524629
 11
17.67423052239765
 21
80.04351037524592
 72
     1
 10
17.67423052239765
 20
80.04351037524592
 11
17.67423052239765
 21
80.66351037524603
 72
     1
 10
17.67423052239765
 20
80.66351037524603
 11
15.17423052239756
 21
80.35351037524629
 97
        1
330
2FB
 75
     2
 76
     1
 98
        1
 10
0.0
 20
0.0
450
        0
451
        0
460
0.0
461
0.0
452
        0
462
0.0
453
        0
470

  0
LINE
  5
2FD
330
2F5
100
AcDbEntity
  8
CAPA_BASE
 62
    18
420
        0
370
    25
100
AcDbLine
 10
115.1742305223975
 20
101.1868437085457
 30
0.0
 11
115.1742305223975
 21
79.35351037524561
 31
0.0
  0
LINE
  5
2FE
330
2F5
100
AcDbEntity
  8
CAPA_BASE
 62
    18
420
        0
370
    25
100
AcDbLine
 10
15.17423052239756
 20
101.1868437085457
 30
0.0
 11
15.17423052239756
 21
79.35351037524561
 31
0.0
  0
LINE
  5
2FF
330
2F5
100
AcDbEntity
  8
CAPA_BASE
 62
    18
420
        0
370
    25
100
AcDbLine
 10
115.1742305223975
 20
80.35351037524629
 30
0.0
 11
15.17423052239756
 21
80.35351037524629
 31
0.0
  0
MTEXT
  5
300
330
2F5
100
AcDbEntity
  8
CAPA_BASE
100
AcDbMText
 10
62.52839692989741
 20
81.14726475700269
 30
0.0
 40
0.2
 41
0.0
 46
0.0
 71
     7
 72
     1
  1
\C18;\c0;\FArial Bold|b1|i0|c1;\H2.997200;\W0.700000;300
 73
     1
 44
1.0
  0
ENDBLK
  5
2F8
330
2F5
100
AcDbEntity
  8
0
100
AcDbBlockEnd
  0
BLOCK
  5
303
330
301
100
AcDbEntity
  8
0
100
AcDbBlockBegin
  2
Block_1
 70
     0
 10
0.0
 20
0.0
 30
0.0
  3
Block_1
  1

  0
LWPOLYLINE
  5
305
330
301
100
AcDbEntity
  8
CAPA_BASE
100
AcDbPolyline
 90
        4
 70
     1
 43
0.0
 10
125.1742305223979
 20
52.15794490494577
 10
124.8642305223975
 20
49.65794490494601
 10
125.4842305223976
 20
49.65794490494601
 10
125.4842305223976
 20
49.65794490494601
  0
HATCH
  5
306
330
301
100
AcDbEntity
  8
CAPA_BASE
 62
    18
420
        0
440
 33554687
100
AcDbHatch
 10
0.0
 20
0.0
 30
0.0
210
0.0
220
0.0
230
1.0
  2
SOLID
 70
     1
 71
     1
 91
        1
 92
        1
 93
        3
 72
     1
 10
125.1742305223979
 20
52.15794490494577
 11
124.8642305223975
 21
49.65794490494601
 72
     1
 10
124.8642305223975
 20
49.65794490494601
 11
125.4842305223976
 21
49.65794490494601
 72
     1
 10
125.4842305223976
 20
49.65794490494601
 11
125.1742305223979
 21
52.15794490494577
 97
        1
330
305
 75
     2
 76
     1
 98
        1
 10
0.0
 20
0.0
450
        0
451
        0
460
0.0
461
0.0
452
        0
462
0.0
453
        0
470

  0
LWPOLYLINE
  5
307
330
301
100
AcDbEntity
  8
CAPA_BASE
100
AcDbPolyline
 90
        4
 70
     1
 43
0.0
 10
125.1742305223979
 20
8.46994353944574
 10
125.4842305223976
 20
10.96994353944615
 10
124.8642305223975
 20
10.96994353944615
 10
124.8642305223975
 20
10.96994353944615
  0
HATCH
  5
308
330
301
100
AcDbEntity
  8
CAPA_BASE
 62
    18
420
        0
440
 33554687
100
AcDbHatch
 10
0.0
 20
0.0
 30
0.0
210
0.0
220
0.0
230
1.0
  2
SOLID
 70
     1
 71
     1
 91
        1
 92
        1
 93
        3
 72
     1
 10
125.1742305223979
 20
8.46994353944574
 11
125.4842305223976
 21
10.96994353944615
 72
     1
 10
125.4842305223976
 20
10.96994353944615
 11
124.8642305223975
 21
10.96994353944615
 72
     1
 10
124.8642305223975
 20
10.96994353944615
 11
125.1742305223979
 21
8.46994353944574
 97
        1
330
307
 75
     2
 76
     1
 98
        1
 10
0.0
 20
0.0
450
        0
451
        0
460
0.0
461
0.0
452
        0
462
0.0
453
        0
470

  0
LINE
  5
309
330
301
100
AcDbEntity
  8
CAPA_BASE
 62
    18
420
        0
370
    25
100
AcDbLine
 10
103.6742305223975
 20
52.15794490494577
 30
0.0
 11
126.1742305223979
 21
52.15794490494577
 31
0.0
  0
LINE
  5
30A
330
301
100
AcDbEntity
  8
CAPA_BASE
 62
    18
420
        0
370
    25
100
AcDbLine
 10
116.1742305223976
 20
8.46994353944574
 30
0.0
 11
126.1742305223979
 21
8.46994353944574
 31
0.0
  0
LINE
  5
30B
330
301
100
AcDbEntity
  8
CAPA_BASE
 62
    18
420
        0
370
    25
100
AcDbLine
 10
125.1742305223979
 20
52.15794490494577
 30
0.0
 11
125.1742305223979
 21
8.46994353944574
 31
0.0
  0
MTEXT
  5
30C
330
301
100
AcDbEntity
  8
CAPA_BASE
100
AcDbMText
 10
124.3804812438282
 20
27.66790635158933
 30
0.0
 40
0.2
 41
0.0
 46
0.0
 71
     7
 72
     1
  1
\C18;\c0;\FArial Bold|b1|i0|c1;\H2.997200;\W0.700000;131
 11
0.0000000000000003
 21
1.0
 31
0.0
 73
     1
 44
1.0
  0
ENDBLK
  5
304
330
301
100
AcDbEntity
  8
0
100
AcDbBlockEnd
  0
BLOCK
  5
30F
330
30D
100
AcDbEntity
  8
0
100
AcDbBlockBegin
  2
Block_2
 70
     0
 10
0.0
 20
0.0
 30
0.0
  3
Block_2
  1

  0
LWPOLYLINE
  5
311
330
30D
100
AcDbEntity
  8
CAPA_BASE
100
AcDbPolyline
 90
        4
 70
     1
 43
0.0
 10
140.7777576367978
 20
112.8535103752458
 10
140.4677576367975
 20
110.3535103752457
 10
141.0877576367976
 20
110.3535103752457
 10
141.0877576367976
 20
110.3535103752457
  0
HATCH
  5
312
330
30D
100
AcDbEntity
  8
CAPA_BASE
 62
    18
420
        0
440
 33554687
100
AcDbHatch
 10
0.0
 20
0.0
 30
0.0
210
0.0
220
0.0
230
1.0
  2
SOLID
 70
     1
 71
     1
 91
        1
 92
        1
 93
        3
 72
     1
 10
140.7777576367978
 20
112.8535103752458
 11
140.4677576367975
 21
110.3535103752457
 72
     1
 10
140.4677576367975
 20
110.3535103752457
 11
141.0877576367976
 21
110.3535103752457
 72
     1
 10
141.0877576367976
 20
110.3535103752457
 11
140.7777576367978
 21
112.8535103752458
 97
        1
330
311
 75
     2
 76
     1
 98
        1
 10
0.0
 20
0.0
450
        0
451
        0
460
0.0
461
0.0
452
        0
462
0.0
453
        0
470

  0
LWPOLYLINE
  5
313
330
30D
100
AcDbEntity
  8
CAPA_BASE
100
AcDbPolyline
 90
        4
 70
     1
 43
0.0
 10
140.7777576367978
 20
90.353510375246
 10
141.0877576367976
 20
92.85351037524577
 10
140.4677576367975
 20
92.85351037524577
 10
140.4677576367975
 20
92.85351037524577
  0
HATCH
  5
314
330
30D
100
AcDbEntity
  8
CAPA_BASE
 62
    18
420
        0
440
 33554687
100
AcDbHatch
 10
0.0
 20
0.0
 30
0.0
210
0.0
220
0.0
230
1.0
  2
SOLID
 70
     1
 71
     1
 91
        1
 92
        1
 93
        3
 72
     1
 10
140.7777576367978
 20
90.353510375246
 11
141.0877576367976
 21
92.85351037524577
 72
     1
 10
141.0877576367976
 20
92.85351037524577
 11
140.4677576367975
 21
92.85351037524577
 72
     1
 10
140.4677576367975
 20
92.85351037524577
 11
140.7777576367978
 21
90.353510375246
 97
        1
330
313
 75
     2
 76
     1
 98
        1
 10
0.0
 20
0.0
450
        0
451
        0
460
0.0
461
0.0
452
        0
462
0.0
453
        0
470

  0
LINE
  5
315
330
30D
100
AcDbEntity
  8
CAPA_BASE
 62
    18
420
        0
370
    25
100
AcDbLine
 10
149.7777576367975
 20
112.8535103752458
 30
0.0
 11
139.7777576367978
 21
112.8535103752458
 31
0.0
  0
LINE
  5
316
330
30D
100
AcDbEntity
  8
CAPA_BASE
 62
    18
420
        0
370
    25
100
AcDbLine
 10
157.9657590022979
 20
90.353510375246
 30
0.0
 11
139.7777576367978
 21
90.353510375246
 31
0.0
  0
LINE
  5
317
330
30D
100
AcDbEntity
  8
CAPA_BASE
 62
    18
420
        0
370
    25
100
AcDbLine
 10
140.7777576367978
 20
112.8535103752458
 30
0.0
 11
140.7777576367978
 21
90.353510375246
 31
0.0
  0
MTEXT
  5
318
330
30D
100
AcDbEntity
  8
CAPA_BASE
100
AcDbMText
 10
139.9840077156218
 20
99.83955618163669
 30
0.0
 40
0.2
 41
0.0
 46
0.0
 71
     7
 72
     1
  1
\C18;\c0;\FArial Bold|b1|i0|c1;\H2.997200;\W0.700000;68
 11
0.0000000000000003
 21
1.0
 31
0.0
 73
     1
 44
1.0
  0
ENDBLK
  5
310
330
30D
100
AcDbEntity
  8
0
100
AcDbBlockEnd
  0
ENDSEC
  0
SECTION
  2
ENTITIES
  0
LINE
  5
78
330
70
100
AcDbEntity
  8
0
 62
    18
420
        0
370
    25
100
AcDbLine
 10
113.7575642133973
 20
102.0201770791457
 30
0.0
 11
113.7575642133973
 21
97.3535105788458
 31
0.0
  0
LINE
  5
79
330
70
100
AcDbEntity
  8
0
 62
    18
420
        0
370
    25
100
AcDbLine
 10
114.7575662399978
 20
97.3535105788458
 30
0.0
 11
114.7575662399978
 21
102.0201770791457
 31
0.0
  0
LINE
  5
7A
330
70
100
AcDbEntity
  8
0
 62
    18
420
        0
370
    25
100
AcDbLine
 10
112.7575621867975
 20
96.35351041494589
 30
0.0
 11
17.59089885799758
 21
96.35351041494589
 31
0.0
  0
LINE
  5
7B
330
70
100
AcDbEntity
  8
0
 62
    18
420
        0
370
    25
100
AcDbLine
 10
17.59089885799758
 20
95.35351025104597
 30
0.0
 11
112.7575621867975
 21
95.35351025104597
 31
0.0
  0
SPLINE
  5
7C
330
70
100
AcDbEntity
  8
0
 62
    18
420
        0
370
    25
100
AcDbSpline
210
0.0
220
0.0
230
1.0
 70
     8
 71
     3
 72
     8
 73
     4
 74
     0
 42
0.0000000001
 43
0.0000000001
 40
0.0
 40
0.0
 40
0.0
 40
0.0
 40
1.0
 40
1.0
 40
1.0
 40
1.0
 10
112.7575638557977
 20
96.35351037524589
 30
0.0
 10
113.3098486056286
 20
96.35351037524589
 30
0.0
 10
113.7575638557977
 20
96.80122562541498
 30
0.0
 10
113.7575638557977
 20
97.35351037524594
 30
0.0
  0
SPLINE
  5
7D
330
70
100
AcDbEntity
  8
0
 62
    18
420
        0
370
    25
100
AcDbSpline
210
0.0
220
0.0
230
1.0
 70
     8
 71
     3
 72
     8
 73
     4
 74
     0
 42
0.0000000001
 43
0.0000000001
 40
0.0
 40
0.0
 40
0.0
 40
0.0
 40
1.0
 40
1.0
 40
1.0
 40
1.0
 10
112.7575638557977
 20
95.35351037524586
 30
0.0
 10
113.862133355459
 20
95.35351037524586
 30
0.0
 10
114.7575638557978
 20
96.24894087558434
 30
0.0
 10
114.7575638557978
 20
97.35351037524594
 30
0.0
  0
LINE
  5
7E
330
70
100
AcDbEntity
  8
0
 62
    18
420
        0
370
    25
100
AcDbLine
 10
15.59089480489772
 20
102.0201770791457
 30
0.0
 11
15.59089480489772
 21
97.3535105788458
 31
0.0
  0
LINE
  5
7F
330
70
100
AcDbEntity
  8
0
 62
    18
420
        0
370
    25
100
AcDbLine
 10
16.59089683149786
 20
97.3535105788458
 30
0.0
 11
16.59089683149786
 21
102.0201770791457
 31
0.0
  0
SPLINE
  5
80
330
70
100
AcDbEntity
  8
0
 62
    18
420
        0
370
    25
100
AcDbSpline
210
0.0
220
0.0
230
1.0
 70
     8
 71
     3
 72
     8
 73
     4
 74
     0
 42
0.0000000001
 43
0.0000000001
 40
0.0
 40
0.0
 40
0.0
 40
0.0
 40
1.0
 40
1.0
 40
1.0
 40
1.0
 10
16.59089718909781
 20
97.35351037524594
 30
0.0
 10
16.59089718909781
 20
96.80122562541498
 30
0.0
 10
17.03861243926689
 20
96.35351037524589
 30
0.0
 10
17.59089718909784
 20
96.35351037524589
 30
0.0
  0
SPLINE
  5
81
330
70
100
AcDbEntity
  8
0
 62
    18
420
        0
370
    25
100
AcDbSpline
210
0.0
220
0.0
230
1.0
 70
     8
 71
     3
 72
     8
 73
     4
 74
     0
 42
0.0000000001
 43
0.0000000001
 40
0.0
 40
0.0
 40
0.0
 40
0.0
 40
1.0
 40
1.0
 40
1.0
 40
1.0
 10
15.59089718909777
 20
97.35351037524594
 30
0.0
 10
15.59089718909777
 20
96.24894087558434
 30
0.0
 10
16.48632768943625
 20
95.35351037524586
 30
0.0
 10
17.59089718909784
 20
95.35351037524586
 30
0.0
  0
SPLINE
  5
82
330
70
100
AcDbEntity
  8
0
 62
    18
420
        0
370
    25
100
AcDbSpline
210
0.0
220
0.0
230
1.0
 70
     8
 71
     3
 72
     8
 73
     4
 74
     0
 42
0.0000000001
 43
0.0000000001
 40
0.0
 40
0.0
 40
0.0
 40
0.0
 40
1.0
 40
1.0
 40
1.0
 40
1.0
 10
112.7575638557977
 20
91.35351037524571
 30
0.0
 10
113.3098486056286
 20
91.35351037524571
 30
0.0
 10
113.7575638557977
 20
91.80122562541511
 30
0.0
 10
113.7575638557977
 20
92.35351037524575
 30
0.0
  0
SPLINE
  5
83
330
70
100
AcDbEntity
  8
0
 62
    18
420
        0
370
    25
100
AcDbSpline
210
0.0
220
0.0
230
1.0
 70
     8
 71
     3
 72
     8
 73
     4
 74
     0
 42
0.0000000001
 43
0.0000000001
 40
0.0
 40
0.0
 40
0.0
 40
0.0
 40
1.0
 40
1.0
 40
1.0
 40
1.0
 10
112.7575638557977
 20
90.353510375246
 30
0.0
 10
113.862133355459
 20
90.353510375246
 30
0.0
 10
114.7575638557978
 20
91.24894087558416
 30
0.0
 10
114.7575638557978
 20
92.35351037524575
 30
0.0
  0
LINE
  5
84
330
70
100
AcDbEntity
  8
0
 62
    18
420
        0
370
    25
100
AcDbLine
 10
112.7575621867975
 20
91.35351021624584
 30
0.0
 11
17.59089885799758
 21
91.35351021624584
 31
0.0
  0
LINE
  5
85
330
70
100
AcDbEntity
  8
0
 62
    18
420
        0
370
    25
100
AcDbLine
 10
17.59089885799758
 20
90.3535106732459
 30
0.0
 11
112.7575621867975
 21
90.3535106732459
 31
0.0
  0
LINE
  5
86
330
70
100
AcDbEntity
  8
0
 62
    18
420
        0
370
    25
100
AcDbLine
 10
113.7575642133973
 20
95.6214598272458
 30
0.0
 11
113.7575642133973
 21
92.3535097592458
 31
0.0
  0
LINE
  5
87
330
70
100
AcDbEntity
  8
0
 62
    18
420
        0
370
    25
100
AcDbLine
 10
114.7575662399978
 20
92.3535097592458
 30
0.0
 11
114.7575662399978
 21
97.3535105788458
 31
0.0
  0
LINE
  5
88
330
70
100
AcDbEntity
  8
0
 62
    18
420
        0
370
    25
100
AcDbLine
 10
15.59089480489772
 20
97.3535105788458
 30
0.0
 11
15.59089480489772
 21
92.3535097592458
 31
0.0
  0
LINE
  5
89
330
70
100
AcDbEntity
  8
0
 62
    18
420
        0
370
    25
100
AcDbLine
 10
16.59089683149786
 20
92.3535097592458
 30
0.0
 11
16.59089683149786
 21
95.6214598272458
 31
0.0
  0
SPLINE
  5
8A
330
70
100
AcDbEntity
  8
0
 62
    18
420
        0
370
    25
100
AcDbSpline
210
0.0
220
0.0
230
1.0
 70
     8
 71
     3
 72
     8
 73
     4
 74
     0
 42
0.0000000001
 43
0.0000000001
 40
0.0
 40
0.0
 40
0.0
 40
0.0
 40
1.0
 40
1.0
 40
1.0
 40
1.0
 10
16.59089718909781
 20
92.35351037524575
 30
0.0
 10
16.59089718909781
 20
91.80122562541511
 30
0.0
 10
17.03861243926689
 20
91.35351037524571
 30
0.0
 10
17.59089718909784
 20
91.35351037524571
 30
0.0
  0
SPLINE
  5
8B
330
70
100
AcDbEntity
  8
0
 62
    18
420
        0
370
    25
100
AcDbSpline
210
0.0
220
0.0
230
1.0
 70
     8
 71
     3
 72
     8
 73
     4
 74
     0
 42
0.0000000001
 43
0.0000000001
 40
0.0
 40
0.0
 40
0.0
 40
0.0
 40
1.0
 40
1.0
 40
1.0
 40
1.0
 10
15.59089718909777
 20
92.35351037524575
 30
0.0
 10
15.59089718909777
 20
91.24894087558416
 30
0.0
 10
16.48632768943625
 20
90.353510375246
 30
0.0
 10
17.59089718909784
 20
90.353510375246
 30
0.0
  0
SPLINE
  5
8C
330
70
100
AcDbEntity
  8
0
 62
    18
420
        0
370
    25
100
AcDbSpline
210
0.0
220
0.0
230
1.0
 70
     8
 71
     3
 72
     8
 73
     4
 74
     0
 42
0.0000000001
 43
0.0000000001
 40
0.0
 40
0.0
 40
0.0
 40
0.0
 40
1.0
 40
1.0
 40
1.0
 40
1.0
 10
15.34089802359512
 20
105.3535103379285
 30
0.0
 10
15.24885014170774
 20
105.3535102329943
 30
0.0
 10
15.17423018363565
 20
105.2788915258157
 30
0.0
 10
15.17422853564183
 20
105.1868436439428
 30
0.0
  0
LINE
  5
8D
330
70
100
AcDbEntity
  8
0
 62
    18
420
        0
370
    25
100
AcDbLine
 10
16.84089857989787
 20
105.3535103379458
 30
0.0
 11
15.34089802359769
 21
105.3535103379458
 31
0.0
  0
SPLINE
  5
8E
330
70
100
AcDbEntity
  8
0
 62
    18
420
        0
370
    25
100
AcDbSpline
210
0.0
220
0.0
230
1.0
 70
     8
 71
     3
 72
    11
 73
     7
 74
     0
 42
0.0000000001
 43
0.0000000001
 40
0.0
 40
0.0
 40
0.0
 40
0.0
 40
1.0
 40
1.0
 40
1.0
 40
2.0
 40
2.0
 40
2.0
 40
2.0
 10
17.00756310076498
 20
105.1868436439608
 30
0.0
 10
17.0075650978187
 20
105.2788891202821
 30
0.0
 10
16.93294911510425
 20
105.3535083408597
 30
0.0
 10
16.84090363878294
 20
105.3535103379131
 30
0.0
 10
16.84090195247711
 20
105.3535103379497
 30
0.0
 10
16.84090026617129
 20
105.3535103379609
 30
0.0
 10
16.84089857986546
 20
105.3535103379461
 30
0.0
  0
SPLINE
  5
8F
330
70
100
AcDbEntity
  8
0
 62
    18
420
        0
370
    25
100
AcDbSpline
210
0.0
220
0.0
230
1.0
 70
     8
 71
     3
 72
    11
 73
     7
 74
     0
 42
0.0000000001
 43
0.0000000001
 40
0.0
 40
0.0
 40
0.0
 40
0.0
 40
1.0
 40
1.0
 40
1.0
 40
2.0
 40
2.0
 40
2.0
 40
2.0
 10
16.84089857985583
 20
102.020177079071
 30
0.0
 10
16.93294473643043
 20
102.0201769624056
 30
0.0
 10
17.00756298410667
 20
102.0947950209295
 30
0.0
 10
17.00756310077236
 20
102.1868411775041
 30
0.0
 10
17.00756310077332
 20
102.1868420426886
 30
0.0
 10
17.00756310076787
 20
102.1868429078722
 30
0.0
 10
17.00756310075536
 20
102.1868437730567
 30
0.0
  0
LINE
  5
90
330
70
100
AcDbEntity
  8
0
 62
    18
420
        0
370
    25
100
AcDbLine
 10
16.84089857989787
 20
102.0201770791457
 30
0.0
 11
15.34089802359769
 21
102.0201770791457
 31
0.0
  0
SPLINE
  5
91
330
70
100
AcDbEntity
  8
0
 62
    18
420
        0
370
    25
100
AcDbSpline
210
0.0
220
0.0
230
1.0
 70
     8
 71
     3
 72
     8
 73
     4
 74
     0
 42
0.0000000001
 43
0.0000000001
 40
0.0
 40
0.0
 40
0.0
 40
0.0
 40
1.0
 40
1.0
 40
1.0
 40
1.0
 10
15.17422853564247
 20
102.1868437731324
 30
0.0
 10
15.17423074335925
 20
102.0947961231143
 30
0.0
 10
15.24885037355328
 20
102.0201777438083
 30
0.0
 10
15.34089802359544
 20
102.020177079147
 30
0.0
  0
LINE
  5
92
330
70
100
AcDbEntity
  8
0
 62
    18
420
        0
370
    25
100
AcDbLine
 10
17.00756310079771
 20
102.1868437731459
 30
0.0
 11
17.00756310079771
 21
105.1868436439457
 31
0.0
  0
LINE
  5
93
330
70
100
AcDbEntity
  8
0
 62
    18
420
        0
370
    25
100
AcDbLine
 10
15.17422853559755
 20
105.1868436439457
 30
0.0
 11
15.17422853559755
 21
102.1868437731459
 31
0.0
  0
SPLINE
  5
94
330
70
100
AcDbEntity
  8
0
 62
    18
420
        0
370
    25
100
AcDbSpline
210
0.0
220
0.0
230
1.0
 70
     8
 71
     3
 72
    11
 73
     7
 74
     0
 42
0.0000000001
 43
0.0000000001
 40
0.0
 40
0.0
 40
0.0
 40
0.0
 40
1.0
 40
1.0
 40
1.0
 40
2.0
 40
2.0
 40
2.0
 40
2.0
 10
113.3408979441306
 20
102.1868437731308
 30
0.0
 10
113.3408959470765
 20
102.0947982968098
 30
0.0
 10
113.4155119297913
 20
102.0201790762318
 30
0.0
 10
113.5075574061126
 20
102.0201770791784
 30
0.0
 10
113.5075590924181
 20
102.0201770791419
 30
0.0
 10
113.5075607787243
 20
102.0201770791306
 30
0.0
 10
113.5075624650297
 20
102.0201770791454
 30
0.0
  0
SPLINE
  5
95
330
70
100
AcDbEntity
  8
0
 62
    18
420
        0
370
    25
100
AcDbSpline
210
0.0
220
0.0
230
1.0
 70
     8
 71
     3
 72
    11
 73
     7
 74
     0
 42
0.0000000001
 43
0.0000000001
 40
0.0
 40
0.0
 40
0.0
 40
0.0
 40
1.0
 40
1.0
 40
1.0
 40
2.0
 40
2.0
 40
2.0
 40
2.0
 10
113.5075624650394
 20
105.3535103379205
 30
0.0
 10
113.4155163084651
 20
105.3535104545862
 30
0.0
 10
113.3408980607889
 20
105.278892396062
 30
0.0
 10
113.3408979441228
 20
105.1868462394877
 30
0.0
 10
113.3408979441222
 20
105.1868453743032
 30
0.0
 10
113.3408979441273
 20
105.1868445091193
 30
0.0
 10
113.3408979441402
 20
105.1868436439348
 30
0.0
  0
LINE
  5
96
330
70
100
AcDbEntity
  8
0
 62
    18
420
        0
370
    25
100
AcDbLine
 10
115.0075630212978
 20
105.3535103379458
 30
0.0
 11
113.5075624649977
 21
105.3535103379458
 31
0.0
  0
SPLINE
  5
97
330
70
100
AcDbEntity
  8
0
 62
    18
420
        0
370
    25
100
AcDbSpline
210
0.0
220
0.0
230
1.0
 70
     8
 71
     3
 72
     8
 73
     4
 74
     0
 42
0.0000000001
 43
0.0000000001
 40
0.0
 40
0.0
 40
0.0
 40
0.0
 40
1.0
 40
1.0
 40
1.0
 40
1.0
 10
115.1742325092531
 20
105.1868436439591
 30
0.0
 10
115.1742303015363
 20
105.2788912939772
 30
0.0
 10
115.0996106713419
 20
105.3535096732833
 30
0.0
 10
115.0075630212998
 20
105.3535103379446
 30
0.0
  0
SPLINE
  5
98
330
70
100
AcDbEntity
  8
0
 62
    18
420
        0
370
    25
100
AcDbSpline
210
0.0
220
0.0
230
1.0
 70
     8
 71
     3
 72
     8
 73
     4
 74
     0
 42
0.0000000001
 43
0.0000000001
 40
0.0
 40
0.0
 40
0.0
 40
0.0
 40
1.0
 40
1.0
 40
1.0
 40
1.0
 10
115.0075630213004
 20
102.0201770791634
 30
0.0
 10
115.0996109031878
 20
102.0201771840975
 30
0.0
 10
115.1742308612595
 20
102.0947958912761
 30
0.0
 10
115.1742325092537
 20
102.1868437731488
 30
0.0
  0
LINE
  5
99
330
70
100
AcDbEntity
  8
0
 62
    18
420
        0
370
    25
100
AcDbLine
 10
115.0075630212978
 20
102.0201770791457
 30
0.0
 11
113.5075624649977
 21
102.0201770791457
 31
0.0
  0
LINE
  5
9A
330
70
100
AcDbEntity
  8
0
 62
    18
420
        0
370
    25
100
AcDbLine
 10
115.174232509298
 20
105.1868436439457
 30
0.0
 11
115.174232509298
 21
102.1868437731459
 31
0.0
  0
LINE
  5
9B
330
70
100
AcDbEntity
  8
0
 62
    18
420
        0
370
    25
100
AcDbLine
 10
113.3408979440978
 20
105.1868436439457
 30
0.0
 11
113.3408979440978
 21
102.1868437731459
 31
0.0
  0
LINE
  5
9C
330
70
100
AcDbEntity
  8
0
 62
    18
420
        0
370
    25
100
AcDbLine
 10
20.17422873429759
 20
105.1868436439457
 30
0.0
 11
17.00756310079771
 21
105.1868436439457
 31
0.0
  0
LINE
  5
9D
330
70
100
AcDbEntity
  8
0
 62
    18
420
        0
370
    25
100
AcDbLine
 10
20.17422873429759
 20
105.1868436439457
 30
0.0
 11
20.17422873429759
 21
102.1868437731459
 31
0.0
  0
LINE
  5
9E
330
70
100
AcDbEntity
  8
0
 62
    18
420
        0
370
    25
100
AcDbLine
 10
17.00756310079771
 20
102.1868437731459
 30
0.0
 11
20.17422873429759
 21
102.1868437731459
 31
0.0
  0
LINE
  5
9F
330
70
100
AcDbEntity
  8
0
 62
    18
420
        0
370
    25
100
AcDbLine
 10
20.17422873429759
 20
102.1868437731459
 30
0.0
 11
20.17422873429759
 21
102.0201770791457
 31
0.0
  0
LINE
  5
A0
330
70
100
AcDbEntity
  8
0
 62
    18
420
        0
370
    25
100
AcDbLine
 10
20.17422873429759
 20
102.0201770791457
 30
0.0
 11
16.84089857989787
 21
102.0201770791457
 31
0.0
  0
LINE
  5
A1
330
70
100
AcDbEntity
  8
0
 62
    18
420
        0
370
    25
100
AcDbLine
 10
20.17422873429759
 20
105.3535103379458
 30
0.0
 11
20.17422873429759
 21
105.1868436439457
 31
0.0
  0
LINE
  5
A2
330
70
100
AcDbEntity
  8
0
 62
    18
420
        0
370
    25
100
AcDbLine
 10
16.84089857989787
 20
105.3535103379458
 30
0.0
 11
20.17422873429759
 21
105.3535103379458
 31
0.0
  0
LINE
  5
A3
330
70
100
AcDbEntity
  8
0
 62
    18
420
        0
370
    25
100
AcDbLine
 10
113.3408979440978
 20
105.1868436439457
 30
0.0
 11
110.1742323105976
 21
105.1868436439457
 31
0.0
  0
LINE
  5
A4
330
70
100
AcDbEntity
  8
0
 62
    18
420
        0
370
    25
100
AcDbLine
 10
110.1742323105976
 20
105.3535103379458
 30
0.0
 11
110.1742323105976
 21
105.1868436439457
 31
0.0
  0
LINE
  5
A5
330
70
100
AcDbEntity
  8
0
 62
    18
420
        0
370
    25
100
AcDbLine
 10
110.1742323105976
 20
105.3535103379458
 30
0.0
 11
113.5075624649977
 21
105.3535103379458
 31
0.0
  0
LINE
  5
A6
330
70
100
AcDbEntity
  8
0
 62
    18
420
        0
370
    25
100
AcDbLine
 10
110.1742323105976
 20
102.1868437731459
 30
0.0
 11
113.3408979440978
 21
102.1868437731459
 31
0.0
  0
LINE
  5
A7
330
70
100
AcDbEntity
  8
0
 62
    18
420
        0
370
    25
100
AcDbLine
 10
110.1742323105976
 20
105.1868436439457
 30
0.0
 11
110.1742323105976
 21
102.1868437731459
 31
0.0
  0
LINE
  5
A8
330
70
100
AcDbEntity
  8
0
 62
    18
420
        0
370
    25
100
AcDbLine
 10
110.1742323105976
 20
102.1868437731459
 30
0.0
 11
110.1742323105976
 21
102.0201770791457
 31
0.0
  0
LINE
  5
A9
330
70
100
AcDbEntity
  8
0
 62
    18
420
        0
370
    25
100
AcDbLine
 10
113.5075624649977
 20
102.0201770791457
 30
0.0
 11
110.1742323105976
 21
102.0201770791457
 31
0.0
  0
CIRCLE
  5
AA
330
70
100
AcDbEntity
  8
0
 62
    18
420
        0
370
    25
100
AcDbCircle
 10
93.50756385579751
 20
103.6868437085458
 30
0.0
 40
1.33333333333338
  0
CIRCLE
  5
AB
330
70
100
AcDbEntity
  8
0
 62
    18
420
        0
370
    25
100
AcDbCircle
 10
93.50756385579751
 20
103.6868437085458
 30
0.0
 40
0.749999999999866
  0
LINE
  5
AC
330
70
100
AcDbEntity
  8
0
 62
    18
420
        0
370
    25
100
AcDbLine
 10
110.1742323105976
 20
105.1868436439457
 30
0.0
 11
20.17422873429759
 21
105.1868436439457
 31
0.0
  0
LINE
  5
AD
330
70
100
AcDbEntity
  8
0
 62
    18
420
        0
370
    25
100
AcDbLine
 10
20.17422873429759
 20
102.1868437731459
 30
0.0
 11
110.1742323105976
 21
102.1868437731459
 31
0.0
  0
CIRCLE
  5
AE
330
70
100
AcDbEntity
  8
0
 62
    18
420
        0
370
    25
100
AcDbCircle
 10
36.84089718909773
 20
103.6868437085458
 30
0.0
 40
1.33333333333338
  0
CIRCLE
  5
AF
330
70
100
AcDbEntity
  8
0
 62
    18
420
        0
370
    25
100
AcDbCircle
 10
36.84089718909773
 20
103.6868437085458
 30
0.0
 40
0.749999999999866
  0
LINE
  5
B0
330
70
100
AcDbEntity
  8
0
 62
    18
420
        0
370
    25
100
AcDbLine
 10
20.17422873429759
 20
105.3535103379458
 30
0.0
 11
110.1742323105976
 21
105.3535103379458
 31
0.0
  0
LINE
  5
B1
330
70
100
AcDbEntity
  8
0
 62
    18
420
        0
370
    25
100
AcDbLine
 10
110.1742323105976
 20
102.0201770791457
 30
0.0
 11
20.17422873429759
 21
102.0201770791457
 31
0.0
  0
LINE
  5
B2
330
70
100
AcDbEntity
  8
0
 62
    18
420
        0
370
    25
100
AcDbLine
 10
38.59089671229759
 20
105.7201770026457
 30
0.0
 11
38.59089671229759
 21
105.6989597669459
 31
0.0
  0
SPLINE
  5
B3
330
70
100
AcDbEntity
  8
0
 62
    18
420
        0
370
    25
100
AcDbSpline
210
0.0
220
0.0
230
1.0
 70
     8
 71
     3
 72
     8
 73
     4
 74
     0
 42
0.0000000001
 43
0.0000000001
 40
0.0
 40
0.0
 40
0.0
 40
0.0
 40
1.0
 40
1.0
 40
1.0
 40
1.0
 10
38.59089671231941
 20
105.7201770025825
 30
0.0
 10
38.59089653429798
 20
105.8122245234708
 30
0.0
 10
38.51627722878184
 20
105.8868436899982
 30
0.0
 10
38.42422970789316
 20
105.8868436965679
 30
0.0
  0
LINE
  5
B4
330
70
100
AcDbEntity
  8
0
 62
    18
420
        0
370
    25
100
AcDbLine
 10
38.34791837779775
 20
105.8868436966459
 30
0.0
 11
38.42422970779787
 21
105.8868436966459
 31
0.0
  0
SPLINE
  5
B5
330
70
100
AcDbEntity
  8
0
 62
    18
420
        0
370
    25
100
AcDbSpline
210
0.0
220
0.0
230
1.0
 70
     8
 71
     3
 72
     8
 73
     4
 74
     0
 42
0.0000000001
 43
0.0000000001
 40
0.0
 40
0.0
 40
0.0
 40
0.0
 40
1.0
 40
1.0
 40
1.0
 40
1.0
 10
38.34791779649318
 20
105.8868437085449
 30
0.0
 10
37.43957660847425
 20
106.5090659307683
 30
0.0
 10
36.2422177697212
 20
106.5090659307683
 30
0.0
 10
35.33387658170227
 20
105.8868437085449
 30
0.0
  0
LINE
  5
B6
330
70
100
AcDbEntity
  8
0
 62
    18
420
        0
370
    25
100
AcDbLine
 10
35.25756407429767
 20
105.8868436966459
 30
0.0
 11
35.33387540429778
 21
105.8868436966459
 31
0.0
  0
LINE
  5
B7
330
70
100
AcDbEntity
  8
0
 62
    18
420
        0
370
    25
100
AcDbLine
 10
35.09089706989774
 20
105.6989597669459
 30
0.0
 11
35.09089706989774
 21
105.7201770026457
 31
0.0
  0
LINE
  5
B8
330
70
100
AcDbEntity
  8
0
 62
    18
420
        0
370
    25
100
AcDbLine
 10
35.09089706989774
 20
101.6535104144459
 30
0.0
 11
35.09089706989774
 21
101.674727650146
 31
0.0
  0
SPLINE
  5
B9
330
70
100
AcDbEntity
  8
0
 62
    18
420
        0
370
    25
100
AcDbSpline
210
0.0
220
0.0
230
1.0
 70
     8
 71
     3
 72
     8
 73
     4
 74
     0
 42
0.0000000001
 43
0.0000000001
 40
0.0
 40
0.0
 40
0.0
 40
0.0
 40
1.0
 40
1.0
 40
1.0
 40
1.0
 10
35.09089706987591
 20
101.6535104144093
 30
0.0
 10
35.09089724789735
 20
101.5614628935206
 30
0.0
 10
35.16551655341348
 20
101.4868437269933
 30
0.0
 10
35.25756407430248
 20
101.4868437204239
 30
0.0
  0
LINE
  5
BA
330
70
100
AcDbEntity
  8
0
 62
    18
420
        0
370
    25
100
AcDbLine
 10
35.33387540429778
 20
101.4868437204457
 30
0.0
 11
35.25756407429767
 21
101.4868437204457
 31
0.0
  0
SPLINE
  5
BB
330
70
100
AcDbEntity
  8
0
 62
    18
420
        0
370
    25
100
AcDbSpline
210
0.0
220
0.0
230
1.0
 70
     8
 71
     3
 72
     8
 73
     4
 74
     0
 42
0.0000000001
 43
0.0000000001
 40
0.0
 40
0.0
 40
0.0
 40
0.0
 40
1.0
 40
1.0
 40
1.0
 40
1.0
 10
35.33387658170227
 20
101.4868437085467
 30
0.0
 10
36.2422177697212
 20
100.8646214863232
 30
0.0
 10
37.43957660847425
 20
100.8646214863232
 30
0.0
 10
38.34791779649318
 20
101.4868437085467
 30
0.0
  0
LINE
  5
BC
330
70
100
AcDbEntity
  8
0
 62
    18
420
        0
370
    25
100
AcDbLine
 10
38.42422970779787
 20
101.4868437204457
 30
0.0
 11
38.34791837779775
 21
101.4868437204457
 31
0.0
  0
LINE
  5
BD
330
70
100
AcDbEntity
  8
0
 62
    18
420
        0
370
    25
100
AcDbLine
 10
38.59089671229759
 20
101.674727650146
 30
0.0
 11
38.59089671229759
 21
101.6535104144459
 31
0.0
  0
SPLINE
  5
BE
330
70
100
AcDbEntity
  8
0
 62
    18
420
        0
370
    25
100
AcDbSpline
210
0.0
220
0.0
230
1.0
 70
     8
 71
     3
 72
     8
 73
     4
 74
     0
 42
0.0000000001
 43
0.0000000001
 40
0.0
 40
0.0
 40
0.0
 40
0.0
 40
1.0
 40
1.0
 40
1.0
 40
1.0
 10
38.42422970783156
 20
101.4868437204851
 30
0.0
 10
38.51627721258375
 20
101.4868437660121
 30
0.0
 10
38.59089649527947
 20
101.5614629097187
 30
0.0
 10
38.59089671225813
 20
101.6535104144705
 30
0.0
  0
SPLINE
  5
BF
330
70
100
AcDbEntity
  8
0
 62
    18
420
        0
370
    25
100
AcDbSpline
210
0.0
220
0.0
230
1.0
 70
     8
 71
     3
 72
     8
 73
     4
 74
     0
 42
0.0000000001
 43
0.0000000001
 40
0.0
 40
0.0
 40
0.0
 40
0.0
 40
1.0
 40
1.0
 40
1.0
 40
1.0
 10
35.25756407436376
 20
105.8868436966064
 30
0.0
 10
35.16551656961158
 20
105.8868436510798
 30
0.0
 10
35.09089728691586
 20
105.8122245073729
 30
0.0
 10
35.09089706993752
 20
105.720177002621
 30
0.0
  0
LINE
  5
C0
330
70
100
AcDbEntity
  8
0
 62
    18
420
        0
370
    25
100
AcDbLine
 10
35.33387540429778
 20
105.8868436966459
 30
0.0
 11
38.34791837779775
 21
105.8868436966459
 31
0.0
  0
SPLINE
  5
C1
330
70
100
AcDbEntity
  8
0
 62
    18
420
        0
370
    25
100
AcDbSpline
210
0.0
220
0.0
230
1.0
 70
     8
 71
     3
 72
     8
 73
     4
 74
     0
 42
0.0000000001
 43
0.0000000001
 40
0.0
 40
0.0
 40
0.0
 40
0.0
 40
1.0
 40
1.0
 40
1.0
 40
1.0
 10
35.25756385579786
 20
102.0201770419124
 30
0.0
 10
35.16551639749249
 20
102.0201770419124
 30
0.0
 10
35.09089718913119
 20
101.9455578335508
 30
0.0
 10
35.09089718913119
 20
101.8535103752457
 30
0.0
  0
LINE
  5
C2
330
70
100
AcDbEntity
  8
0
 62
    18
420
        0
370
    25
100
AcDbLine
 10
35.09089706989774
 20
101.8535103851459
 30
0.0
 11
35.09089706989774
 21
101.674727650146
 31
0.0
  0
LINE
  5
C3
330
70
100
AcDbEntity
  8
0
 62
    18
420
        0
370
    25
100
AcDbLine
 10
35.09089706989774
 20
105.5201770319457
 30
0.0
 11
35.09089706989774
 21
105.6989597669459
 31
0.0
  0
SPLINE
  5
C4
330
70
100
AcDbEntity
  8
0
 62
    18
420
        0
370
    25
100
AcDbSpline
210
0.0
220
0.0
230
1.0
 70
     8
 71
     3
 72
     8
 73
     4
 74
     0
 42
0.0000000001
 43
0.0000000001
 40
0.0
 40
0.0
 40
0.0
 40
0.0
 40
1.0
 40
1.0
 40
1.0
 40
1.0
 10
35.09089718913119
 20
105.5201770418458
 30
0.0
 10
35.09089718913119
 20
105.4281295835407
 30
0.0
 10
35.16551639749249
 20
105.3535103751791
 30
0.0
 10
35.25756385579786
 20
105.3535103751791
 30
0.0
  0
LINE
  5
C5
330
70
100
AcDbEntity
  8
0
 62
    18
420
        0
370
    25
100
AcDbLine
 10
38.59089671229759
 20
105.5201770319457
 30
0.0
 11
38.59089671229759
 21
105.6989597669459
 31
0.0
  0
LINE
  5
C6
330
70
100
AcDbEntity
  8
0
 62
    18
420
        0
370
    25
100
AcDbLine
 10
38.59089671229759
 20
101.8535103851459
 30
0.0
 11
38.59089671229759
 21
101.674727650146
 31
0.0
  0
SPLINE
  5
C7
330
70
100
AcDbEntity
  8
0
 62
    18
420
        0
370
    25
100
AcDbSpline
210
0.0
220
0.0
230
1.0
 70
     8
 71
     3
 72
     8
 73
     4
 74
     0
 42
0.0000000001
 43
0.0000000001
 40
0.0
 40
0.0
 40
0.0
 40
0.0
 40
1.0
 40
1.0
 40
1.0
 40
1.0
 10
38.59089718906426
 20
101.8535103752457
 30
0.0
 10
38.59089718906426
 20
101.9455578335508
 30
0.0
 10
38.51627798070296
 20
102.0201770419124
 30
0.0
 10
38.42423052239759
 20
102.0201770419124
 30
0.0
  0
CIRCLE
  5
C8
330
70
100
AcDbEntity
  8
0
 62
    18
420
        0
370
    25
100
AcDbCircle
 10
36.84089718909773
 20
103.6868437085459
 30
0.0
 40
0.7166666666666519
  0
SPLINE
  5
C9
330
70
100
AcDbEntity
  8
0
 62
    18
420
        0
370
    25
100
AcDbSpline
210
0.0
220
0.0
230
1.0
 70
     8
 71
     3
 72
     8
 73
     4
 74
     0
 42
0.0000000001
 43
0.0000000001
 40
0.0
 40
0.0
 40
0.0
 40
0.0
 40
1.0
 40
1.0
 40
1.0
 40
1.0
 10
38.42423052239759
 20
105.3535103751791
 30
0.0
 10
38.51627798070296
 20
105.3535103751791
 30
0.0
 10
38.59089718906426
 20
105.4281295835407
 30
0.0
 10
38.59089718906426
 20
105.5201770418458
 30
0.0
  0
LINE
  5
CA
330
70
100
AcDbEntity
  8
0
 62
    18
420
        0
370
    25
100
AcDbLine
 10
38.34791837779775
 20
101.4868437204457
 30
0.0
 11
35.33387540429778
 21
101.4868437204457
 31
0.0
  0
CIRCLE
  5
CB
330
70
100
AcDbEntity
  8
0
 62
    18
420
        0
370
    25
100
AcDbCircle
 10
36.84089718909773
 20
103.6868437085458
 30
0.0
 40
0.549999999999859
  0
SPLINE
  5
CC
330
70
100
AcDbEntity
  8
0
 62
    18
420
        0
370
    25
100
AcDbSpline
210
0.0
220
0.0
230
1.0
 70
     8
 71
     3
 72
     8
 73
     4
 74
     0
 42
0.0000000001
 43
0.0000000001
 40
0.0
 40
0.0
 40
0.0
 40
0.0
 40
1.0
 40
1.0
 40
1.0
 40
1.0
 10
42.34089718909213
 20
96.35351037520836
 30
0.0
 10
44.18199556367179
 20
97.7343341561407
 30
0.0
 10
45.43634392898915
 20
99.75716297617896
 30
0.0
 10
45.85477537775744
 20
102.0201770418774
 30
0.0
  0
SPLINE
  5
CD
330
70
100
AcDbEntity
  8
0
 62
    18
420
        0
370
    25
100
AcDbSpline
210
0.0
220
0.0
230
1.0
 70
     8
 71
     3
 72
     8
 73
     4
 74
     0
 42
0.0000000001
 43
0.0000000001
 40
0.0
 40
0.0
 40
0.0
 40
0.0
 40
1.0
 40
1.0
 40
1.0
 40
1.0
 10
33.02208410996148
 20
95.35351037521538
 30
0.0
 10
35.44672733480955
 20
94.24239926410027
 30
0.0
 10
38.2350670433859
 20
94.24239926410027
 30
0.0
 10
40.65971026823397
 20
95.35351037521538
 30
0.0
  0
SPLINE
  5
CE
330
70
100
AcDbEntity
  8
0
 62
    18
420
        0
370
    25
100
AcDbSpline
210
0.0
220
0.0
230
1.0
 70
     8
 71
     3
 72
     8
 73
     4
 74
     0
 42
0.0000000001
 43
0.0000000001
 40
0.0
 40
0.0
 40
0.0
 40
0.0
 40
1.0
 40
1.0
 40
1.0
 40
1.0
 10
27.827019000438
 20
102.0201770418774
 30
0.0
 10
28.2454504492063
 20
99.75716297617896
 30
0.0
 10
29.49979881452366
 20
97.7343341561407
 30
0.0
 10
31.34089718910331
 20
96.35351037520836
 30
0.0
  0
SPLINE
  5
CF
330
70
100
AcDbEntity
  8
0
 62
    18
420
        0
370
    25
100
AcDbSpline
210
0.0
220
0.0
230
1.0
 70
     8
 71
     3
 72
    11
 73
     7
 74
     0
 42
0.0000000001
 43
0.0000000001
 40
0.0
 40
0.0
 40
0.0
 40
0.0
 40
1.0
 40
1.0
 40
1.0
 40
2.0
 40
2.0
 40
2.0
 40
2.0
 10
45.85477537775744
 20
105.3535103752141
 30
0.0
 10
44.93430079470532
 20
110.3317378356432
 30
0.0
 10
40.15245798285851
 20
113.6211964802576
 30
0.0
 10
35.17423052242939
 20
112.7007218972055
 30
0.0
 10
31.43958912933457
 20
112.0101864593447
 30
0.0
 10
28.51755443829876
 20
109.0881517683089
 30
0.0
 10
27.827019000438
 20
105.3535103752141
 30
0.0
  0
LINE
  5
D0
330
70
100
AcDbEntity
  8
0
 62
    18
420
        0
370
    25
100
AcDbLine
 10
91.75756433259733
 20
101.6535104144459
 30
0.0
 11
91.75756433259733
 21
101.674727650146
 31
0.0
  0
SPLINE
  5
D1
330
70
100
AcDbEntity
  8
0
 62
    18
420
        0
370
    25
100
AcDbSpline
210
0.0
220
0.0
230
1.0
 70
     8
 71
     3
 72
     8
 73
     4
 74
     0
 42
0.0000000001
 43
0.0000000001
 40
0.0
 40
0.0
 40
0.0
 40
0.0
 40
1.0
 40
1.0
 40
1.0
 40
1.0
 10
91.75756433257616
 20
101.6535104144093
 30
0.0
 10
91.75756451059694
 20
101.5614628935206
 30
0.0
 10
91.83218381611339
 20
101.4868437269933
 30
0.0
 10
91.92423133700271
 20
101.4868437204239
 30
0.0
  0
LINE
  5
D2
330
70
100
AcDbEntity
  8
0
 62
    18
420
        0
370
    25
100
AcDbLine
 10
92.00054266699801
 20
101.4868437204457
 30
0.0
 11
91.92423133699758
 21
101.4868437204457
 31
0.0
  0
SPLINE
  5
D3
330
70
100
AcDbEntity
  8
0
 62
    18
420
        0
370
    25
100
AcDbSpline
210
0.0
220
0.0
230
1.0
 70
     8
 71
     3
 72
     8
 73
     4
 74
     0
 42
0.0000000001
 43
0.0000000001
 40
0.0
 40
0.0
 40
0.0
 40
0.0
 40
1.0
 40
1.0
 40
1.0
 40
1.0
 10
92.00054324840174
 20
101.4868437085467
 30
0.0
 10
92.90888443642129
 20
100.8646214863232
 30
0.0
 10
94.10624327517435
 20
100.8646214863232
 30
0.0
 10
95.01458446319329
 20
101.4868437085467
 30
0.0
  0
LINE
  5
D4
330
70
100
AcDbEntity
  8
0
 62
    18
420
        0
370
    25
100
AcDbLine
 10
95.09089697059724
 20
101.4868437204457
 30
0.0
 11
95.01458564059808
 21
101.4868437204457
 31
0.0
  0
SPLINE
  5
D5
330
70
100
AcDbEntity
  8
0
 62
    18
420
        0
370
    25
100
AcDbSpline
210
0.0
220
0.0
230
1.0
 70
     8
 71
     3
 72
     8
 73
     4
 74
     0
 42
0.0000000001
 43
0.0000000001
 40
0.0
 40
0.0
 40
0.0
 40
0.0
 40
1.0
 40
1.0
 40
1.0
 40
1.0
 10
95.09089697053179
 20
101.4868437204851
 30
0.0
 10
95.18294447528367
 20
101.4868437660121
 30
0.0
 10
95.25756375797937
 20
101.5614629097187
 30
0.0
 10
95.25756397495772
 20
101.6535104144705
 30
0.0
  0
LINE
  5
D6
330
70
100
AcDbEntity
  8
0
 62
    18
420
        0
370
    25
100
AcDbLine
 10
95.25756397499749
 20
101.674727650146
 30
0.0
 11
95.25756397499749
 21
101.6535104144459
 31
0.0
  0
LINE
  5
D7
330
70
100
AcDbEntity
  8
0
 62
    18
420
        0
370
    25
100
AcDbLine
 10
95.25756397499749
 20
105.7201770026457
 30
0.0
 11
95.25756397499749
 21
105.6989597669459
 31
0.0
  0
SPLINE
  5
D8
330
70
100
AcDbEntity
  8
0
 62
    18
420
        0
370
    25
100
AcDbSpline
210
0.0
220
0.0
230
1.0
 70
     8
 71
     3
 72
     8
 73
     4
 74
     0
 42
0.0000000001
 43
0.0000000001
 40
0.0
 40
0.0
 40
0.0
 40
0.0
 40
1.0
 40
1.0
 40
1.0
 40
1.0
 10
95.25756397501933
 20
105.7201770025825
 30
0.0
 10
95.25756379699789
 20
105.8122245234712
 30
0.0
 10
95.18294449148207
 20
105.8868436899982
 30
0.0
 10
95.09089697059339
 20
105.8868436965679
 30
0.0
  0
LINE
  5
D9
330
70
100
AcDbEntity
  8
0
 62
    18
420
        0
370
    25
100
AcDbLine
 10
95.01458564059808
 20
105.8868436966459
 30
0.0
 11
95.09089697059724
 21
105.8868436966459
 31
0.0
  0
SPLINE
  5
DA
330
70
100
AcDbEntity
  8
0
 62
    18
420
        0
370
    25
100
AcDbSpline
210
0.0
220
0.0
230
1.0
 70
     8
 71
     3
 72
     8
 73
     4
 74
     0
 42
0.0000000001
 43
0.0000000001
 40
0.0
 40
0.0
 40
0.0
 40
0.0
 40
1.0
 40
1.0
 40
1.0
 40
1.0
 10
95.01458446319329
 20
105.8868437085449
 30
0.0
 10
94.10624327517435
 20
106.5090659307683
 30
0.0
 10
92.90888443642129
 20
106.5090659307683
 30
0.0
 10
92.00054324840174
 20
105.8868437085449
 30
0.0
  0
LINE
  5
DB
330
70
100
AcDbEntity
  8
0
 62
    18
420
        0
370
    25
100
AcDbLine
 10
91.92423133699758
 20
105.8868436966459
 30
0.0
 11
92.00054266699801
 21
105.8868436966459
 31
0.0
  0
LINE
  5
DC
330
70
100
AcDbEntity
  8
0
 62
    18
420
        0
370
    25
100
AcDbLine
 10
91.75756433259733
 20
105.6989597669459
 30
0.0
 11
91.75756433259733
 21
105.7201770026457
 31
0.0
  0
SPLINE
  5
DD
330
70
100
AcDbEntity
  8
0
 62
    18
420
        0
370
    25
100
AcDbSpline
210
0.0
220
0.0
230
1.0
 70
     8
 71
     3
 72
     8
 73
     4
 74
     0
 42
0.0000000001
 43
0.0000000001
 40
0.0
 40
0.0
 40
0.0
 40
0.0
 40
1.0
 40
1.0
 40
1.0
 40
1.0
 10
91.92423133706432
 20
105.8868436966064
 30
0.0
 10
91.8321838323118
 20
105.8868436510798
 30
0.0
 10
91.75756454961609
 20
105.8122245073729
 30
0.0
 10
91.7575643326371
 20
105.720177002621
 30
0.0
  0
CIRCLE
  5
DE
330
70
100
AcDbEntity
  8
0
 62
    18
420
        0
370
    25
100
AcDbCircle
 10
93.50756385579767
 20
103.6868437085458
 30
0.0
 40
0.5499999999999393
  0
CIRCLE
  5
DF
330
70
100
AcDbEntity
  8
0
 62
    18
420
        0
370
    25
100
AcDbCircle
 10
93.50756385579751
 20
103.6868437085459
 30
0.0
 40
0.7166666666668124
  0
LINE
  5
E0
330
70
100
AcDbEntity
  8
0
 62
    18
420
        0
370
    25
100
AcDbLine
 10
95.25756397499749
 20
101.8535103851459
 30
0.0
 11
95.25756397499749
 21
101.674727650146
 31
0.0
  0
SPLINE
  5
E1
330
70
100
AcDbEntity
  8
0
 62
    18
420
        0
370
    25
100
AcDbSpline
210
0.0
220
0.0
230
1.0
 70
     8
 71
     3
 72
     8
 73
     4
 74
     0
 42
0.0000000001
 43
0.0000000001
 40
0.0
 40
0.0
 40
0.0
 40
0.0
 40
1.0
 40
1.0
 40
1.0
 40
1.0
 10
91.92423052239787
 20
102.0201770419124
 30
0.0
 10
91.83218306409282
 20
102.0201770419124
 30
0.0
 10
91.75756385573087
 20
101.9455578335511
 30
0.0
 10
91.75756385573087
 20
101.8535103752457
 30
0.0
  0
LINE
  5
E2
330
70
100
AcDbEntity
  8
0
 62
    18
420
        0
370
    25
100
AcDbLine
 10
95.25756397499749
 20
105.5201770319457
 30
0.0
 11
95.25756397499749
 21
105.6989597669459
 31
0.0
  0
LINE
  5
E3
330
70
100
AcDbEntity
  8
0
 62
    18
420
        0
370
    25
100
AcDbLine
 10
91.75756433259733
 20
105.5201770319457
 30
0.0
 11
91.75756433259733
 21
105.6989597669459
 31
0.0
  0
SPLINE
  5
E4
330
70
100
AcDbEntity
  8
0
 62
    18
420
        0
370
    25
100
AcDbSpline
210
0.0
220
0.0
230
1.0
 70
     8
 71
     3
 72
     8
 73
     4
 74
     0
 42
0.0000000001
 43
0.0000000001
 40
0.0
 40
0.0
 40
0.0
 40
0.0
 40
1.0
 40
1.0
 40
1.0
 40
1.0
 10
95.25756385576469
 20
101.8535103752457
 30
0.0
 10
95.25756385576469
 20
101.9455578335508
 30
0.0
 10
95.18294464740275
 20
102.0201770419124
 30
0.0
 10
95.09089718909768
 20
102.0201770419124
 30
0.0
  0
SPLINE
  5
E5
330
70
100
AcDbEntity
  8
0
 62
    18
420
        0
370
    25
100
AcDbSpline
210
0.0
220
0.0
230
1.0
 70
     8
 71
     3
 72
     8
 73
     4
 74
     0
 42
0.0000000001
 43
0.0000000001
 40
0.0
 40
0.0
 40
0.0
 40
0.0
 40
1.0
 40
1.0
 40
1.0
 40
1.0
 10
91.75756385573087
 20
105.5201770418458
 30
0.0
 10
91.75756385573087
 20
105.4281295835407
 30
0.0
 10
91.83218306409282
 20
105.3535103751791
 30
0.0
 10
91.92423052239787
 20
105.3535103751791
 30
0.0
  0
SPLINE
  5
E6
330
70
100
AcDbEntity
  8
0
 62
    18
420
        0
370
    25
100
AcDbSpline
210
0.0
220
0.0
230
1.0
 70
     8
 71
     3
 72
     8
 73
     4
 74
     0
 42
0.0000000001
 43
0.0000000001
 40
0.0
 40
0.0
 40
0.0
 40
0.0
 40
1.0
 40
1.0
 40
1.0
 40
1.0
 10
95.09089718909768
 20
105.3535103751791
 30
0.0
 10
95.18294464740275
 20
105.3535103751791
 30
0.0
 10
95.25756385576469
 20
105.4281295835407
 30
0.0
 10
95.25756385576469
 20
105.5201770418458
 30
0.0
  0
LINE
  5
E7
330
70
100
AcDbEntity
  8
0
 62
    18
420
        0
370
    25
100
AcDbLine
 10
91.75756433259733
 20
101.8535103851459
 30
0.0
 11
91.75756433259733
 21
101.674727650146
 31
0.0
  0
LINE
  5
E8
330
70
100
AcDbEntity
  8
0
 62
    18
420
        0
370
    25
100
AcDbLine
 10
92.00054266699801
 20
105.8868436966459
 30
0.0
 11
95.01458564059808
 21
105.8868436966459
 31
0.0
  0
LINE
  5
E9
330
70
100
AcDbEntity
  8
0
 62
    18
420
        0
370
    25
100
AcDbLine
 10
95.01458564059808
 20
101.4868437204457
 30
0.0
 11
92.00054266699801
 21
101.4868437204457
 31
0.0
  0
SPLINE
  5
EA
330
70
100
AcDbEntity
  8
0
 62
    18
420
        0
370
    25
100
AcDbSpline
210
0.0
220
0.0
230
1.0
 70
     8
 71
     3
 72
    11
 73
     7
 74
     0
 42
0.0000000001
 43
0.0000000001
 40
0.0
 40
0.0
 40
0.0
 40
0.0
 40
1.0
 40
1.0
 40
1.0
 40
2.0
 40
2.0
 40
2.0
 40
2.0
 10
102.5214420444572
 20
105.3535103752141
 30
0.0
 10
101.6009674614054
 20
110.3317378356432
 30
0.0
 10
96.81912464955894
 20
113.6211964802576
 30
0.0
 10
91.8408971891295
 20
112.7007218972055
 30
0.0
 10
88.10625579603467
 20
112.0101864593447
 30
0.0
 10
85.18422110499853
 20
109.0881517683089
 30
0.0
 10
84.49368566713777
 20
105.3535103752141
 30
0.0
  0
SPLINE
  5
EB
330
70
100
AcDbEntity
  8
0
 62
    18
420
        0
370
    25
100
AcDbSpline
210
0.0
220
0.0
230
1.0
 70
     8
 71
     3
 72
     8
 73
     4
 74
     0
 42
0.0000000001
 43
0.0000000001
 40
0.0
 40
0.0
 40
0.0
 40
0.0
 40
1.0
 40
1.0
 40
1.0
 40
1.0
 10
99.00756385579226
 20
96.35351037520836
 30
0.0
 10
100.8486622303712
 20
97.7343341561407
 30
0.0
 10
102.1030105956896
 20
99.75716297617896
 30
0.0
 10
102.5214420444572
 20
102.0201770418774
 30
0.0
  0
SPLINE
  5
EC
330
70
100
AcDbEntity
  8
0
 62
    18
420
        0
370
    25
100
AcDbSpline
210
0.0
220
0.0
230
1.0
 70
     8
 71
     3
 72
     8
 73
     4
 74
     0
 42
0.0000000001
 43
0.0000000001
 40
0.0
 40
0.0
 40
0.0
 40
0.0
 40
1.0
 40
1.0
 40
1.0
 40
1.0
 10
89.6887507766619
 20
95.35351037521538
 30
0.0
 10
92.11339400150933
 20
94.24239926410027
 30
0.0
 10
94.90173371008568
 20
94.24239926410027
 30
0.0
 10
97.32637693493376
 20
95.35351037521538
 30
0.0
  0
SPLINE
  5
ED
330
70
100
AcDbEntity
  8
0
 62
    18
420
        0
370
    25
100
AcDbSpline
210
0.0
220
0.0
230
1.0
 70
     8
 71
     3
 72
     8
 73
     4
 74
     0
 42
0.0000000001
 43
0.0000000001
 40
0.0
 40
0.0
 40
0.0
 40
0.0
 40
1.0
 40
1.0
 40
1.0
 40
1.0
 10
84.49368566713777
 20
102.0201770418774
 30
0.0
 10
84.91211711590674
 20
99.75716297617896
 30
0.0
 10
86.16646548122377
 20
97.7343341561407
 30
0.0
 10
88.0075638558034
 20
96.35351037520836
 30
0.0
  0
LINE
  5
EE
330
70
100
AcDbEntity
  8
0
 62
     8
420
  8421504
370
    25
100
AcDbLine
 10
114.2575627431978
 20
97.3535105788458
 30
0.0
 11
114.7575662399978
 21
97.3535105788458
 31
0.0
  0
LINE
  5
EF
330
70
100
AcDbEntity
  8
0
 62
     8
420
  8421504
370
    25
100
AcDbLine
 10
113.7575642133973
 20
97.3535105788458
 30
0.0
 11
114.2575627431978
 21
97.3535105788458
 31
0.0
  0
LINE
  5
F0
330
70
100
AcDbEntity
  8
0
 62
     8
420
  8421504
370
    25
100
AcDbLine
 10
112.7575621867975
 20
95.85351064344591
 30
0.0
 11
112.7575621867975
 21
95.35351025104597
 31
0.0
  0
LINE
  5
F1
330
70
100
AcDbEntity
  8
0
 62
     8
420
  8421504
370
    25
100
AcDbLine
 10
112.7575621867975
 20
96.35351041494589
 30
0.0
 11
112.7575621867975
 21
95.85351064344591
 31
0.0
  0
LINE
  5
F2
330
70
100
AcDbEntity
  8
0
 62
     8
420
  8421504
370
    25
100
AcDbLine
 10
17.59089885799758
 20
95.85351064344591
 30
0.0
 11
17.59089885799758
 21
95.35351025104597
 31
0.0
  0
LINE
  5
F3
330
70
100
AcDbEntity
  8
0
 62
     8
420
  8421504
370
    25
100
AcDbLine
 10
17.59089885799758
 20
96.35351041494589
 30
0.0
 11
17.59089885799758
 21
95.85351064344591
 31
0.0
  0
LINE
  5
F4
330
70
100
AcDbEntity
  8
0
 62
     8
420
  8421504
370
    25
100
AcDbLine
 10
16.09089830169773
 20
97.3535105788458
 30
0.0
 11
15.59089480489772
 21
97.3535105788458
 31
0.0
  0
LINE
  5
F5
330
70
100
AcDbEntity
  8
0
 62
     8
420
  8421504
370
    25
100
AcDbLine
 10
16.59089683149786
 20
97.3535105788458
 30
0.0
 11
16.09089830169773
 21
97.3535105788458
 31
0.0
  0
LINE
  5
F6
330
70
100
AcDbEntity
  8
0
 62
     8
420
  8421504
370
    25
100
AcDbLine
 10
114.2575627431978
 20
92.3535097592458
 30
0.0
 11
114.7575662399978
 21
92.3535097592458
 31
0.0
  0
LINE
  5
F7
330
70
100
AcDbEntity
  8
0
 62
     8
420
  8421504
370
    25
100
AcDbLine
 10
113.7575642133973
 20
92.3535097592458
 30
0.0
 11
114.2575627431978
 21
92.3535097592458
 31
0.0
  0
LINE
  5
F8
330
70
100
AcDbEntity
  8
0
 62
     8
420
  8421504
370
    25
100
AcDbLine
 10
112.7575621867975
 20
90.85351044474588
 30
0.0
 11
112.7575621867975
 21
90.3535106732459
 31
0.0
  0
LINE
  5
F9
330
70
100
AcDbEntity
  8
0
 62
     8
420
  8421504
370
    25
100
AcDbLine
 10
112.7575621867975
 20
91.35351021624584
 30
0.0
 11
112.7575621867975
 21
90.85351044474588
 31
0.0
  0
LINE
  5
FA
330
70
100
AcDbEntity
  8
0
 62
     8
420
  8421504
370
    25
100
AcDbLine
 10
17.59089885799758
 20
90.85351044474588
 30
0.0
 11
17.59089885799758
 21
90.3535106732459
 31
0.0
  0
LINE
  5
FB
330
70
100
AcDbEntity
  8
0
 62
     8
420
  8421504
370
    25
100
AcDbLine
 10
17.59089885799758
 20
91.35351021624584
 30
0.0
 11
17.59089885799758
 21
90.85351044474588
 31
0.0
  0
LINE
  5
FC
330
70
100
AcDbEntity
  8
0
 62
     8
420
  8421504
370
    25
100
AcDbLine
 10
16.09089830169773
 20
92.3535097592458
 30
0.0
 11
15.59089480489772
 21
92.3535097592458
 31
0.0
  0
LINE
  5
FD
330
70
100
AcDbEntity
  8
0
 62
     8
420
  8421504
370
    25
100
AcDbLine
 10
16.59089683149786
 20
92.3535097592458
 30
0.0
 11
16.09089830169773
 21
92.3535097592458
 31
0.0
  0
LINE
  5
FE
330
70
100
AcDbEntity
  8
0
 62
     8
420
  8421504
370
    25
100
AcDbLine
 10
35.09089706989774
 20
105.6989597669459
 30
0.0
 11
34.75923199109779
 21
105.3535103379458
 31
0.0
  0
LINE
  5
FF
330
70
100
AcDbEntity
  8
0
 62
     8
420
  8421504
370
    25
100
AcDbLine
 10
34.75923199109779
 20
102.0201770791457
 30
0.0
 11
35.09089706989774
 21
101.674727650146
 31
0.0
  0
LINE
  5
100
330
70
100
AcDbEntity
  8
0
 62
     8
420
  8421504
370
    25
100
AcDbLine
 10
38.59089671229759
 20
101.674727650146
 30
0.0
 11
38.92256427459763
 21
102.0201770791457
 31
0.0
  0
LINE
  5
101
330
70
100
AcDbEntity
  8
0
 62
     8
420
  8421504
370
    25
100
AcDbLine
 10
38.92256427459763
 20
105.3535103379458
 30
0.0
 11
38.59089671229759
 21
105.6989597669459
 31
0.0
  0
SPLINE
  5
102
330
70
100
AcDbEntity
  8
0
 62
     8
420
  8421504
370
    25
100
AcDbSpline
210
0.0
220
0.0
230
1.0
 70
     8
 71
     3
 72
    11
 73
     7
 74
     0
 42
0.0000000001
 43
0.0000000001
 40
0.0
 40
0.0
 40
0.0
 40
0.0
 40
1.0
 40
1.0
 40
1.0
 40
2.0
 40
2.0
 40
2.0
 40
2.0
 10
45.53359814723297
 20
105.3535103752196
 30
0.0
 10
44.61312356417763
 20
110.1543565492373
 30
0.0
 10
39.97507669644131
 20
113.3000192497364
 30
0.0
 10
35.17423052242394
 20
112.379544666681
 30
0.0
 10
31.61454324619118
 20
111.6970396368114
 30
0.0
 10
28.83070126083213
 20
108.9131976514523
 30
0.0
 10
28.14819623096247
 20
105.3535103752196
 30
0.0
  0
SPLINE
  5
103
330
70
100
AcDbEntity
  8
0
 62
     8
420
  8421504
370
    25
100
AcDbSpline
210
0.0
220
0.0
230
1.0
 70
     8
 71
     3
 72
     8
 73
     4
 74
     0
 42
0.0000000001
 43
0.0000000001
 40
0.0
 40
0.0
 40
0.0
 40
0.0
 40
1.0
 40
1.0
 40
1.0
 40
1.0
 10
28.14819623096247
 20
102.020177041872
 30
0.0
 10
28.591172853074
 20
99.70977905740461
 30
0.0
 10
29.93568766935231
 20
97.67077552840049
 30
0.0
 10
31.88478480663537
 20
96.35351037521285
 30
0.0
  0
SPLINE
  5
104
330
70
100
AcDbEntity
  8
0
 62
     8
420
  8421504
370
    25
100
AcDbSpline
210
0.0
220
0.0
230
1.0
 70
     8
 71
     3
 72
     8
 73
     4
 74
     0
 42
0.0000000001
 43
0.0000000001
 40
0.0
 40
0.0
 40
0.0
 40
0.0
 40
1.0
 40
1.0
 40
1.0
 40
1.0
 10
33.85821663615057
 20
95.3535103752128
 30
0.0
 10
35.78676551327478
 20
94.6632409474679
 30
0.0
 10
37.89502886492067
 20
94.6632409474679
 30
0.0
 10
39.82357774204487
 20
95.3535103752128
 30
0.0
  0
SPLINE
  5
105
330
70
100
AcDbEntity
  8
0
 62
     8
420
  8421504
370
    25
100
AcDbSpline
210
0.0
220
0.0
230
1.0
 70
     8
 71
     3
 72
     8
 73
     4
 74
     0
 42
0.0000000001
 43
0.0000000001
 40
0.0
 40
0.0
 40
0.0
 40
0.0
 40
1.0
 40
1.0
 40
1.0
 40
1.0
 10
41.79700957156008
 20
96.35351037521285
 30
0.0
 10
43.74610670884313
 20
97.67077552840049
 30
0.0
 10
45.09062152512145
 20
99.70977905740461
 30
0.0
 10
45.53359814723297
 20
102.020177041872
 30
0.0
  0
LINE
  5
106
330
70
100
AcDbEntity
  8
0
 62
     8
420
  8421504
370
    25
100
AcDbLine
 10
95.25756397499749
 20
101.674727650146
 30
0.0
 11
95.58922905379743
 21
102.0201770791457
 31
0.0
  0
LINE
  5
107
330
70
100
AcDbEntity
  8
0
 62
     8
420
  8421504
370
    25
100
AcDbLine
 10
95.58922905379743
 20
105.3535103379458
 30
0.0
 11
95.25756397499749
 21
105.6989597669459
 31
0.0
  0
LINE
  5
108
330
70
100
AcDbEntity
  8
0
 62
     8
420
  8421504
370
    25
100
AcDbLine
 10
91.75756433259733
 20
105.6989597669459
 30
0.0
 11
91.42589677029761
 21
105.3535103379458
 31
0.0
  0
LINE
  5
109
330
70
100
AcDbEntity
  8
0
 62
     8
420
  8421504
370
    25
100
AcDbLine
 10
91.42589677029761
 20
102.0201770791457
 30
0.0
 11
91.75756433259733
 21
101.674727650146
 31
0.0
  0
SPLINE
  5
10A
330
70
100
AcDbEntity
  8
0
 62
     8
420
  8421504
370
    25
100
AcDbSpline
210
0.0
220
0.0
230
1.0
 70
     8
 71
     3
 72
     8
 73
     4
 74
     0
 42
0.0000000001
 43
0.0000000001
 40
0.0
 40
0.0
 40
0.0
 40
0.0
 40
1.0
 40
1.0
 40
1.0
 40
1.0
 10
84.81486289766193
 20
102.020177041872
 30
0.0
 10
85.25783951977411
 20
99.70977905740461
 30
0.0
 10
86.6023543360521
 20
97.67077552840049
 30
0.0
 10
88.55145147333548
 20
96.35351037521285
 30
0.0
  0
SPLINE
  5
10B
330
70
100
AcDbEntity
  8
0
 62
     8
420
  8421504
370
    25
100
AcDbSpline
210
0.0
220
0.0
230
1.0
 70
     8
 71
     3
 72
     8
 73
     4
 74
     0
 42
0.0000000001
 43
0.0000000001
 40
0.0
 40
0.0
 40
0.0
 40
0.0
 40
1.0
 40
1.0
 40
1.0
 40
1.0
 10
90.52488330285004
 20
95.3535103752128
 30
0.0
 10
92.45343217997488
 20
94.6632409474679
 30
0.0
 10
94.56169553162077
 20
94.6632409474679
 30
0.0
 10
96.49024440874498
 20
95.3535103752128
 30
0.0
  0
SPLINE
  5
10C
330
70
100
AcDbEntity
  8
0
 62
     8
420
  8421504
370
    25
100
AcDbSpline
210
0.0
220
0.0
230
1.0
 70
     8
 71
     3
 72
     8
 73
     4
 74
     0
 42
0.0000000001
 43
0.0000000001
 40
0.0
 40
0.0
 40
0.0
 40
0.0
 40
1.0
 40
1.0
 40
1.0
 40
1.0
 10
98.46367623826019
 20
96.35351037521285
 30
0.0
 10
100.4127733755429
 20
97.67077552840049
 30
0.0
 10
101.7572881918209
 20
99.70977905740461
 30
0.0
 10
102.2002648139331
 20
102.020177041872
 30
0.0
  0
SPLINE
  5
10D
330
70
100
AcDbEntity
  8
0
 62
     8
420
  8421504
370
    25
100
AcDbSpline
210
0.0
220
0.0
230
1.0
 70
     8
 71
     3
 72
    11
 73
     7
 74
     0
 42
0.0000000001
 43
0.0000000001
 40
0.0
 40
0.0
 40
0.0
 40
0.0
 40
1.0
 40
1.0
 40
1.0
 40
2.0
 40
2.0
 40
2.0
 40
2.0
 10
102.2002648139331
 20
105.3535103752199
 30
0.0
 10
101.2797902308774
 20
110.1543565492373
 30
0.0
 10
96.64174336314175
 20
113.3000192497364
 30
0.0
 10
91.84089718912373
 20
112.379544666681
 30
0.0
 10
88.28120991289065
 20
111.6970396368114
 30
0.0
 10
85.49736792753192
 20
108.9131976514523
 30
0.0
 10
84.81486289766193
 20
105.3535103752199
 30
0.0
  0
LINE
  5
10E
330
70
100
AcDbEntity
  8
0
 62
    18
420
        0
370
    25
100
AcDbLine
 10
113.3408979440978
 20
11.13661064324558
 30
0.0
 11
112.7575621867975
 21
11.13661064324558
 31
0.0
  0
LINE
  5
10F
330
70
100
AcDbEntity
  8
0
 62
    18
420
        0
370
    25
100
AcDbLine
 10
112.7575621867975
 20
10.1366098584457
 30
0.0
 11
113.3408979440978
 21
10.1366098584457
 31
0.0
  0
LINE
  5
110
330
70
100
AcDbEntity
  8
0
 62
    18
420
        0
370
    25
100
AcDbLine
 10
17.59089885799758
 20
11.13661064324558
 30
0.0
 11
17.00756310079771
 21
11.13661064324558
 31
0.0
  0
LINE
  5
111
330
70
100
AcDbEntity
  8
0
 62
    18
420
        0
370
    25
100
AcDbLine
 10
17.00756310079771
 20
10.1366098584457
 30
0.0
 11
17.59089885799758
 21
10.1366098584457
 31
0.0
  0
LINE
  5
112
330
70
100
AcDbEntity
  8
0
 62
    18
420
        0
370
    25
100
AcDbLine
 10
112.7575621867975
 20
11.13661064324558
 30
0.0
 11
17.59089885799758
 21
11.13661064324558
 31
0.0
  0
LINE
  5
113
330
70
100
AcDbEntity
  8
0
 62
    18
420
        0
370
    25
100
AcDbLine
 10
17.59089885799758
 20
10.1366098584457
 30
0.0
 11
112.7575621867975
 21
10.1366098584457
 31
0.0
  0
LINE
  5
114
330
70
100
AcDbEntity
  8
0
 62
    18
420
        0
370
    25
100
AcDbLine
 10
113.3408979440978
 20
17.8032771608458
 30
0.0
 11
112.7575621867975
 21
17.8032771608458
 31
0.0
  0
LINE
  5
115
330
70
100
AcDbEntity
  8
0
 62
    18
420
        0
370
    25
100
AcDbLine
 10
112.7575621867975
 20
16.80327637604591
 30
0.0
 11
113.3408979440978
 21
16.80327637604591
 31
0.0
  0
LINE
  5
116
330
70
100
AcDbEntity
  8
0
 62
    18
420
        0
370
    25
100
AcDbLine
 10
17.59089885799758
 20
17.8032771608458
 30
0.0
 11
17.00756310079771
 21
17.8032771608458
 31
0.0
  0
LINE
  5
117
330
70
100
AcDbEntity
  8
0
 62
    18
420
        0
370
    25
100
AcDbLine
 10
17.00756310079771
 20
16.80327637604591
 30
0.0
 11
17.59089885799758
 21
16.80327637604591
 31
0.0
  0
LINE
  5
118
330
70
100
AcDbEntity
  8
0
 62
    18
420
        0
370
    25
100
AcDbLine
 10
112.7575621867975
 20
17.8032771608458
 30
0.0
 11
17.59089885799758
 21
17.8032771608458
 31
0.0
  0
LINE
  5
119
330
70
100
AcDbEntity
  8
0
 62
    18
420
        0
370
    25
100
AcDbLine
 10
17.59089885799758
 20
16.80327637604591
 30
0.0
 11
112.7575621867975
 21
16.80327637604591
 31
0.0
  0
LINE
  5
11A
330
70
100
AcDbEntity
  8
0
 62
    18
420
        0
370
    25
100
AcDbLine
 10
112.7575621867975
 20
23.46994351464589
 30
0.0
 11
113.3408979440978
 21
23.46994351464589
 31
0.0
  0
LINE
  5
11B
330
70
100
AcDbEntity
  8
0
 62
    18
420
        0
370
    25
100
AcDbLine
 10
113.3408979440978
 20
24.46994367854613
 30
0.0
 11
112.7575621867975
 21
24.46994367854613
 31
0.0
  0
LINE
  5
11C
330
70
100
AcDbEntity
  8
0
 62
    18
420
        0
370
    25
100
AcDbLine
 10
17.00756310079771
 20
23.46994351464589
 30
0.0
 11
17.59089885799758
 21
23.46994351464589
 31
0.0
  0
LINE
  5
11D
330
70
100
AcDbEntity
  8
0
 62
    18
420
        0
370
    25
100
AcDbLine
 10
17.59089885799758
 20
24.46994367854613
 30
0.0
 11
17.00756310079771
 21
24.46994367854613
 31
0.0
  0
LINE
  5
11E
330
70
100
AcDbEntity
  8
0
 62
    18
420
        0
370
    25
100
AcDbLine
 10
17.59089885799758
 20
23.46994351464589
 30
0.0
 11
112.7575621867975
 21
23.46994351464589
 31
0.0
  0
LINE
  5
11F
330
70
100
AcDbEntity
  8
0
 62
    18
420
        0
370
    25
100
AcDbLine
 10
112.7575621867975
 20
24.46994367854613
 30
0.0
 11
17.59089885799758
 21
24.46994367854613
 31
0.0
  0
LINE
  5
120
330
70
100
AcDbEntity
  8
0
 62
    18
420
        0
370
    25
100
AcDbLine
 10
112.7575621867975
 20
30.13661018744551
 30
0.0
 11
113.3408979440978
 21
30.13661018744551
 31
0.0
  0
LINE
  5
121
330
70
100
AcDbEntity
  8
0
 62
    18
420
        0
370
    25
100
AcDbLine
 10
113.3408979440978
 20
31.1366101961457
 30
0.0
 11
112.7575621867975
 21
31.1366101961457
 31
0.0
  0
LINE
  5
122
330
70
100
AcDbEntity
  8
0
 62
    18
420
        0
370
    25
100
AcDbLine
 10
17.00756310079771
 20
30.13661018744551
 30
0.0
 11
17.59089885799758
 21
30.13661018744551
 31
0.0
  0
LINE
  5
123
330
70
100
AcDbEntity
  8
0
 62
    18
420
        0
370
    25
100
AcDbLine
 10
17.59089885799758
 20
31.1366101961457
 30
0.0
 11
17.00756310079771
 21
31.1366101961457
 31
0.0
  0
LINE
  5
124
330
70
100
AcDbEntity
  8
0
 62
    18
420
        0
370
    25
100
AcDbLine
 10
17.59089885799758
 20
30.13661018744551
 30
0.0
 11
112.7575621867975
 21
30.13661018744551
 31
0.0
  0
LINE
  5
125
330
70
100
AcDbEntity
  8
0
 62
    18
420
        0
370
    25
100
AcDbLine
 10
112.7575621867975
 20
31.1366101961457
 30
0.0
 11
17.59089885799758
 21
31.1366101961457
 31
0.0
  0
LINE
  5
126
330
70
100
AcDbEntity
  8
0
 62
    18
420
        0
370
    25
100
AcDbLine
 10
112.7575621867975
 20
36.80327717084607
 30
0.0
 11
113.3408979440978
 21
36.80327717084607
 31
0.0
  0
LINE
  5
127
330
70
100
AcDbEntity
  8
0
 62
    18
420
        0
370
    25
100
AcDbLine
 10
113.3408979440978
 20
37.80327671384537
 30
0.0
 11
112.7575621867975
 21
37.80327671384537
 31
0.0
  0
LINE
  5
128
330
70
100
AcDbEntity
  8
0
 62
    18
420
        0
370
    25
100
AcDbLine
 10
17.00756310079771
 20
36.80327717084607
 30
0.0
 11
17.59089885799758
 21
36.80327717084607
 31
0.0
  0
LINE
  5
129
330
70
100
AcDbEntity
  8
0
 62
    18
420
        0
370
    25
100
AcDbLine
 10
17.59089885799758
 20
37.80327671384537
 30
0.0
 11
17.00756310079771
 21
37.80327671384537
 31
0.0
  0
LINE
  5
12A
330
70
100
AcDbEntity
  8
0
 62
    18
420
        0
370
    25
100
AcDbLine
 10
17.59089885799758
 20
36.80327717084607
 30
0.0
 11
112.7575621867975
 21
36.80327717084607
 31
0.0
  0
LINE
  5
12B
330
70
100
AcDbEntity
  8
0
 62
    18
420
        0
370
    25
100
AcDbLine
 10
112.7575621867975
 20
37.80327671384537
 30
0.0
 11
17.59089885799758
 21
37.80327671384537
 31
0.0
  0
LINE
  5
12C
330
70
100
AcDbEntity
  8
0
 62
    18
420
        0
370
    25
100
AcDbLine
 10
112.7575621867975
 20
43.46994368844629
 30
0.0
 11
113.3408979440978
 21
43.46994368844629
 31
0.0
  0
LINE
  5
12D
330
70
100
AcDbEntity
  8
0
 62
    18
420
        0
370
    25
100
AcDbLine
 10
113.3408979440978
 20
44.46994323144559
 30
0.0
 11
112.7575621867975
 21
44.46994323144559
 31
0.0
  0
LINE
  5
12E
330
70
100
AcDbEntity
  8
0
 62
    18
420
        0
370
    25
100
AcDbLine
 10
17.00756310079771
 20
43.46994368844629
 30
0.0
 11
17.59089885799758
 21
43.46994368844629
 31
0.0
  0
LINE
  5
12F
330
70
100
AcDbEntity
  8
0
 62
    18
420
        0
370
    25
100
AcDbLine
 10
17.59089885799758
 20
44.46994323144559
 30
0.0
 11
17.00756310079771
 21
44.46994323144559
 31
0.0
  0
LINE
  5
130
330
70
100
AcDbEntity
  8
0
 62
    18
420
        0
370
    25
100
AcDbLine
 10
17.59089885799758
 20
43.46994368844629
 30
0.0
 11
112.7575621867975
 21
43.46994368844629
 31
0.0
  0
LINE
  5
131
330
70
100
AcDbEntity
  8
0
 62
    18
420
        0
370
    25
100
AcDbLine
 10
112.7575621867975
 20
44.46994323144559
 30
0.0
 11
17.59089885799758
 21
44.46994323144559
 31
0.0
  0
LINE
  5
132
330
70
100
AcDbEntity
  8
0
 62
    18
420
        0
370
    25
100
AcDbLine
 10
113.3408979440978
 20
8.46994353944574
 30
0.0
 11
115.174232509298
 21
8.46994353944574
 31
0.0
  0
LINE
  5
133
330
70
100
AcDbEntity
  8
0
 62
    18
420
        0
370
    25
100
AcDbLine
 10
15.17422853559755
 20
8.46994353944574
 30
0.0
 11
17.00756310079771
 21
8.46994353944574
 31
0.0
  0
LINE
  5
134
330
70
100
AcDbEntity
  8
0
 62
    18
420
        0
370
    25
100
AcDbLine
 10
46.00756350809763
 20
50.68332635974573
 30
0.0
 11
46.00756350809763
 21
52.13660929214586
 31
0.0
  0
LINE
  5
135
330
70
100
AcDbEntity
  8
0
 62
    18
420
        0
370
    25
100
AcDbLine
 10
27.67423151589764
 20
52.13660929214586
 30
0.0
 11
27.67423151589764
 21
50.68332635974573
 31
0.0
  0
SPLINE
  5
136
330
70
100
AcDbEntity
  8
0
 62
    18
420
        0
370
    25
100
AcDbSpline
210
0.0
220
0.0
230
1.0
 70
     8
 71
     3
 72
     8
 73
     4
 74
     0
 42
0.0000000001
 43
0.0000000001
 40
0.0
 40
0.0
 40
0.0
 40
0.0
 40
1.0
 40
1.0
 40
1.0
 40
1.0
 10
27.67423052246443
 20
50.68332688774596
 30
0.0
 10
27.67423052246443
 20
50.5061108708214
 30
0.0
 10
27.81289584299927
 20
50.35987520269973
 30
0.0
 10
27.98986178498966
 20
50.35046393126028
 30
0.0
  0
SPLINE
  5
137
330
70
100
AcDbEntity
  8
0
 62
    18
420
        0
370
    25
100
AcDbSpline
210
0.0
220
0.0
230
1.0
 70
     8
 71
     3
 72
     8
 73
     4
 74
     0
 42
0.0000000001
 43
0.0000000001
 40
0.0
 40
0.0
 40
0.0
 40
0.0
 40
1.0
 40
1.0
 40
1.0
 40
1.0
 10
45.69193259320579
 20
50.35046393126028
 30
0.0
 10
45.86889853519617
 20
50.35987520269973
 30
0.0
 10
46.00756385573101
 20
50.5061108708214
 30
0.0
 10
46.00756385573101
 20
50.68332688774596
 30
0.0
  0
SPLINE
  5
138
330
70
100
AcDbEntity
  8
0
 62
    18
420
        0
370
    25
100
AcDbSpline
210
0.0
220
0.0
230
1.0
 70
     8
 71
     3
 72
     8
 73
     4
 74
     0
 42
0.0000000001
 43
0.0000000001
 40
0.0
 40
0.0
 40
0.0
 40
0.0
 40
1.0
 40
1.0
 40
1.0
 40
1.0
 10
27.98986178510003
 20
50.35046393123204
 30
0.0
 10
30.04981693590226
 20
50.2409129246383
 30
0.0
 10
32.1116284620995
 20
50.16961606410546
 30
0.0
 10
34.17423052253203
 20
50.13661020611901
 30
0.0
  0
SPLINE
  5
139
330
70
100
AcDbEntity
  8
0
 62
    18
420
        0
370
    25
100
AcDbSpline
210
0.0
220
0.0
230
1.0
 70
     8
 71
     3
 72
     8
 73
     4
 74
     0
 42
0.0000000001
 43
0.0000000001
 40
0.0
 40
0.0
 40
0.0
 40
0.0
 40
1.0
 40
1.0
 40
1.0
 40
1.0
 10
39.50756385566342
 20
50.13661020611901
 30
0.0
 10
41.57016591619284
 20
50.16961606410674
 30
0.0
 10
43.6319774424873
 20
50.24091292464472
 30
0.0
 10
45.69193259338578
 20
50.35046393124744
 30
0.0
  0
LINE
  5
13A
330
70
100
AcDbEntity
  8
0
 62
    18
420
        0
370
    25
100
AcDbLine
 10
102.6742295289979
 20
50.70466233904563
 30
0.0
 11
102.6742295289979
 21
52.15794527144576
 31
0.0
  0
LINE
  5
13B
330
70
100
AcDbEntity
  8
0
 62
    18
420
        0
370
    25
100
AcDbLine
 10
84.34089753679762
 20
52.15794527144576
 30
0.0
 11
84.34089753679762
 21
50.70466233904563
 31
0.0
  0
SPLINE
  5
13C
330
70
100
AcDbEntity
  8
0
 62
    18
420
        0
370
    25
100
AcDbSpline
210
0.0
220
0.0
230
1.0
 70
     8
 71
     3
 72
     8
 73
     4
 74
     0
 42
0.0000000001
 43
0.0000000001
 40
0.0
 40
0.0
 40
0.0
 40
0.0
 40
1.0
 40
1.0
 40
1.0
 40
1.0
 10
84.34089718906475
 20
50.7046615865457
 30
0.0
 10
84.34089718906475
 20
50.52744556962114
 30
0.0
 10
84.47956250959864
 20
50.38120990150011
 30
0.0
 10
84.65652845158967
 20
50.37179863006066
 30
0.0
  0
SPLINE
  5
13D
330
70
100
AcDbEntity
  8
0
 62
    18
420
        0
370
    25
100
AcDbSpline
210
0.0
220
0.0
230
1.0
 70
     8
 71
     3
 72
     8
 73
     4
 74
     0
 42
0.0000000001
 43
0.0000000001
 40
0.0
 40
0.0
 40
0.0
 40
0.0
 40
1.0
 40
1.0
 40
1.0
 40
1.0
 10
102.3585992599052
 20
50.37179863006066
 30
0.0
 10
102.5355652018963
 20
50.38120990150011
 30
0.0
 10
102.6742305224314
 20
50.52744556962114
 30
0.0
 10
102.6742305224314
 20
50.7046615865457
 30
0.0
  0
SPLINE
  5
13E
330
70
100
AcDbEntity
  8
0
 62
    18
420
        0
370
    25
100
AcDbSpline
210
0.0
220
0.0
230
1.0
 70
     8
 71
     3
 72
     8
 73
     4
 74
     0
 42
0.0000000001
 43
0.0000000001
 40
0.0
 40
0.0
 40
0.0
 40
0.0
 40
1.0
 40
1.0
 40
1.0
 40
1.0
 10
84.65652845180015
 20
50.37179863003243
 30
0.0
 10
86.71648360260236
 20
50.26224762343804
 30
0.0
 10
88.77829512879994
 20
50.19095076290519
 30
0.0
 10
90.84089718923214
 20
50.15794490491939
 30
0.0
  0
SPLINE
  5
13F
330
70
100
AcDbEntity
  8
0
 62
    18
420
        0
370
    25
100
AcDbSpline
210
0.0
220
0.0
230
1.0
 70
     8
 71
     3
 72
     8
 73
     4
 74
     0
 42
0.0000000001
 43
0.0000000001
 40
0.0
 40
0.0
 40
0.0
 40
0.0
 40
1.0
 40
1.0
 40
1.0
 40
1.0
 10
96.1742305223629
 20
50.15794490491939
 30
0.0
 10
98.23683258289264
 20
50.19095076290648
 30
0.0
 10
100.2986441091871
 20
50.2622476234451
 30
0.0
 10
102.3585992600862
 20
50.37179863004783
 30
0.0
  0
SPLINE
  5
140
330
70
100
AcDbEntity
  8
0
 62
    18
420
        0
370
    25
100
AcDbSpline
210
0.0
220
0.0
230
1.0
 70
     8
 71
     3
 72
     8
 73
     4
 74
     0
 42
0.0000000001
 43
0.0000000001
 40
0.0
 40
0.0
 40
0.0
 40
0.0
 40
1.0
 40
1.0
 40
1.0
 40
1.0
 10
115.1742305223975
 20
45.13661020614578
 30
0.0
 10
115.1742305223975
 20
47.89803395529992
 30
0.0
 10
112.9356542715515
 20
50.13661020614596
 30
0.0
 10
110.174230522398
 20
50.13661020614596
 30
0.0
  0
LINE
  5
141
330
70
100
AcDbEntity
  8
0
 62
    18
420
        0
370
    25
100
AcDbLine
 10
115.174232509298
 20
45.13661000744624
 30
0.0
 11
115.0075630212978
 21
45.13661000744624
 31
0.0
  0
SPLINE
  5
142
330
70
100
AcDbEntity
  8
0
 62
    18
420
        0
370
    25
100
AcDbSpline
210
0.0
220
0.0
230
1.0
 70
     8
 71
     3
 72
     8
 73
     4
 74
     0
 42
0.0000000001
 43
0.0000000001
 40
0.0
 40
0.0
 40
0.0
 40
0.0
 40
1.0
 40
1.0
 40
1.0
 40
1.0
 10
115.0075638557312
 20
45.13661020614578
 30
0.0
 10
115.0075638557312
 20
47.80598649699487
 30
0.0
 10
112.8436068132464
 20
49.96994353947897
 30
0.0
 10
110.174230522398
 20
49.96994353947897
 30
0.0
  0
LINE
  5
143
330
70
100
AcDbEntity
  8
0
 62
    18
420
        0
370
    25
100
AcDbLine
 10
110.1742323105976
 20
50.13661020614596
 30
0.0
 11
110.1742323105976
 21
49.96994320164624
 31
0.0
  0
SPLINE
  5
144
330
70
100
AcDbEntity
  8
0
 62
    18
420
        0
370
    25
100
AcDbSpline
210
0.0
220
0.0
230
1.0
 70
     8
 71
     3
 72
     8
 73
     4
 74
     0
 42
0.0000000001
 43
0.0000000001
 40
0.0
 40
0.0
 40
0.0
 40
0.0
 40
1.0
 40
1.0
 40
1.0
 40
1.0
 10
113.5075638557308
 20
45.13661020614578
 30
0.0
 10
113.5075638557308
 20
46.97755937224811
 30
0.0
 10
112.0151796885003
 20
48.46994353947923
 30
0.0
 10
110.174230522398
 20
48.46994353947923
 30
0.0
  0
LINE
  5
145
330
70
100
AcDbEntity
  8
0
 62
    18
420
        0
370
    25
100
AcDbLine
 10
110.1742323105976
 20
48.46994388714536
 30
0.0
 11
110.1742323105976
 21
49.96994320164624
 31
0.0
  0
LINE
  5
146
330
70
100
AcDbEntity
  8
0
 62
    18
420
        0
370
    25
100
AcDbLine
 10
115.0075630212978
 20
45.13661000744624
 30
0.0
 11
113.5075624649977
 21
45.13661000744624
 31
0.0
  0
LINE
  5
147
330
70
100
AcDbEntity
  8
0
 62
    18
420
        0
370
    25
100
AcDbLine
 10
20.17422873429759
 20
50.13661020614596
 30
0.0
 11
34.63610369619767
 21
50.13661020614596
 31
0.0
  0
LINE
  5
148
330
70
100
AcDbEntity
  8
0
 62
    18
420
        0
370
    25
100
AcDbLine
 10
39.04569008599766
 20
50.13661020614596
 30
0.0
 11
110.1742323105976
 21
50.13661020614596
 31
0.0
  0
LINE
  5
149
330
70
100
AcDbEntity
  8
0
 62
    18
420
        0
370
    25
100
AcDbLine
 10
110.1742323105976
 20
49.96994320164624
 30
0.0
 11
20.17422873429759
 21
49.96994320164624
 31
0.0
  0
LINE
  5
14A
330
70
100
AcDbEntity
  8
0
 62
    18
420
        0
370
    25
100
AcDbLine
 10
20.17422873429759
 20
50.13661020614596
 30
0.0
 11
20.17422873429759
 21
49.96994320164624
 31
0.0
  0
LINE
  5
14B
330
70
100
AcDbEntity
  8
0
 62
    18
420
        0
370
    25
100
AcDbLine
 10
20.17422873429759
 20
48.46994388714536
 30
0.0
 11
110.1742323105976
 21
48.46994388714536
 31
0.0
  0
LINE
  5
14C
330
70
100
AcDbEntity
  8
0
 62
    18
420
        0
370
    25
100
AcDbLine
 10
20.17422873429759
 20
49.96994320164624
 30
0.0
 11
20.17422873429759
 21
48.46994388714536
 31
0.0
  0
LINE
  5
14D
330
70
100
AcDbEntity
  8
0
 62
    18
420
        0
370
    25
100
AcDbLine
 10
113.5075624649977
 20
45.13661000744624
 30
0.0
 11
113.3408979440978
 21
45.13661000744624
 31
0.0
  0
SPLINE
  5
14E
330
70
100
AcDbEntity
  8
0
 62
    18
420
        0
370
    25
100
AcDbSpline
210
0.0
220
0.0
230
1.0
 70
     8
 71
     3
 72
     8
 73
     4
 74
     0
 42
0.0000000001
 43
0.0000000001
 40
0.0
 40
0.0
 40
0.0
 40
0.0
 40
1.0
 40
1.0
 40
1.0
 40
1.0
 10
113.3408971890645
 20
45.13661020614578
 30
0.0
 10
113.3408971890645
 20
46.88551191394306
 30
0.0
 10
111.9231322301953
 20
48.30327687281289
 30
0.0
 10
110.174230522398
 20
48.30327687281289
 30
0.0
  0
LINE
  5
14F
330
70
100
AcDbEntity
  8
0
 62
    18
420
        0
370
    25
100
AcDbLine
 10
110.1742323105976
 20
48.46994388714536
 30
0.0
 11
110.1742323105976
 21
48.30327688274574
 31
0.0
  0
LINE
  5
150
330
70
100
AcDbEntity
  8
0
 62
    18
420
        0
370
    25
100
AcDbLine
 10
110.1742323105976
 20
48.30327688274574
 30
0.0
 11
20.17422873429759
 21
48.30327688274574
 31
0.0
  0
LINE
  5
151
330
70
100
AcDbEntity
  8
0
 62
    18
420
        0
370
    25
100
AcDbLine
 10
20.17422873429759
 20
48.46994388714536
 30
0.0
 11
20.17422873429759
 21
48.30327688274574
 31
0.0
  0
LINE
  5
152
330
70
100
AcDbEntity
  8
0
 62
    18
420
        0
370
    25
100
AcDbLine
 10
115.0075630212978
 20
8.803276306545777
 30
0.0
 11
115.0075630212978
 21
45.13661000744624
 31
0.0
  0
LINE
  5
153
330
70
100
AcDbEntity
  8
0
 62
    18
420
        0
370
    25
100
AcDbLine
 10
115.174232509298
 20
45.13661000744624
 30
0.0
 11
115.174232509298
 21
8.737840340645904
 31
0.0
  0
LWPOLYLINE
  5
154
330
70
100
AcDbEntity
  8
0
 62
    18
420
        0
370
    25
100
AcDbPolyline
 90
        6
 70
     0
 43
0.0
 10
115.174232509298
 20
8.737840340645904
 10
115.1636725529976
 20
8.759858048145646
 10
115.1328768198976
 20
8.780087616145832
 10
115.0860921407978
 20
8.795141514245601
 10
115.0321449701974
 20
8.802517589045747
 10
115.0075630212978
 20
8.803276306545777
  0
LINE
  5
155
330
70
100
AcDbEntity
  8
0
 62
    18
420
        0
370
    25
100
AcDbLine
 10
113.3408979440978
 20
8.737840340645904
 30
0.0
 11
113.3408979440978
 21
45.13661000744624
 31
0.0
  0
LINE
  5
156
330
70
100
AcDbEntity
  8
0
 62
    18
420
        0
370
    25
100
AcDbLine
 10
113.5075624649977
 20
45.13661000744624
 30
0.0
 11
113.5075624649977
 21
8.803276306545777
 31
0.0
  0
LWPOLYLINE
  5
157
330
70
100
AcDbEntity
  8
0
 62
    18
420
        0
370
    25
100
AcDbPolyline
 90
        6
 70
     0
 43
0.0
 10
113.5075624649977
 20
8.803276306545777
 10
113.4554580713975
 20
8.799806819546144
 10
113.4092793727977
 20
8.790067668945983
 10
113.3722648883975
 20
8.775084551345644
 10
113.347866720498
 20
8.755755261746164
 10
113.3408979440978
 20
8.737840340645904
  0
LINE
  5
158
330
70
100
AcDbEntity
  8
0
 62
    18
420
        0
370
    25
100
AcDbLine
 10
115.0075630212978
 20
8.803276306545777
 30
0.0
 11
113.5075624649977
 21
8.803276306545777
 31
0.0
  0
SPLINE
  5
159
330
70
100
AcDbEntity
  8
0
 62
    18
420
        0
370
    25
100
AcDbSpline
210
0.0
220
0.0
230
1.0
 70
     8
 71
     3
 72
     8
 73
     4
 74
     0
 42
0.0000000001
 43
0.0000000001
 40
0.0
 40
0.0
 40
0.0
 40
0.0
 40
1.0
 40
1.0
 40
1.0
 40
1.0
 10
20.17423052239774
 20
50.13661020614596
 30
0.0
 10
17.4128067732436
 20
50.13661020614596
 30
0.0
 10
15.17423052239756
 20
47.89803395529992
 30
0.0
 10
15.17423052239756
 20
45.13661020614578
 30
0.0
  0
SPLINE
  5
15A
330
70
100
AcDbEntity
  8
0
 62
    18
420
        0
370
    25
100
AcDbSpline
210
0.0
220
0.0
230
1.0
 70
     8
 71
     3
 72
     8
 73
     4
 74
     0
 42
0.0000000001
 43
0.0000000001
 40
0.0
 40
0.0
 40
0.0
 40
0.0
 40
1.0
 40
1.0
 40
1.0
 40
1.0
 10
20.17423052239774
 20
49.96994353947897
 30
0.0
 10
17.50485423154898
 20
49.96994353947897
 30
0.0
 10
15.34089718906424
 20
47.80598649699487
 30
0.0
 10
15.34089718906424
 20
45.13661020614578
 30
0.0
  0
LINE
  5
15B
330
70
100
AcDbEntity
  8
0
 62
    18
420
        0
370
    25
100
AcDbLine
 10
15.17422853559755
 20
45.13661000744624
 30
0.0
 11
15.34089802359769
 21
45.13661000744624
 31
0.0
  0
SPLINE
  5
15C
330
70
100
AcDbEntity
  8
0
 62
    18
420
        0
370
    25
100
AcDbSpline
210
0.0
220
0.0
230
1.0
 70
     8
 71
     3
 72
     8
 73
     4
 74
     0
 42
0.0000000001
 43
0.0000000001
 40
0.0
 40
0.0
 40
0.0
 40
0.0
 40
1.0
 40
1.0
 40
1.0
 40
1.0
 10
20.17423052239774
 20
48.46994353947923
 30
0.0
 10
18.33328135629509
 20
48.46994353947923
 30
0.0
 10
16.84089718906429
 20
46.97755937224811
 30
0.0
 10
16.84089718906429
 20
45.13661020614578
 30
0.0
  0
LINE
  5
15D
330
70
100
AcDbEntity
  8
0
 62
    18
420
        0
370
    25
100
AcDbLine
 10
16.84089857989787
 20
45.13661000744624
 30
0.0
 11
15.34089802359769
 21
45.13661000744624
 31
0.0
  0
SPLINE
  5
15E
330
70
100
AcDbEntity
  8
0
 62
    18
420
        0
370
    25
100
AcDbSpline
210
0.0
220
0.0
230
1.0
 70
     8
 71
     3
 72
     8
 73
     4
 74
     0
 42
0.0000000001
 43
0.0000000001
 40
0.0
 40
0.0
 40
0.0
 40
0.0
 40
1.0
 40
1.0
 40
1.0
 40
1.0
 10
20.17423052239774
 20
48.30327687281289
 30
0.0
 10
18.42532881460014
 20
48.30327687281289
 30
0.0
 10
17.00756385573096
 20
46.88551191394306
 30
0.0
 10
17.00756385573096
 20
45.13661020614578
 30
0.0
  0
LINE
  5
15F
330
70
100
AcDbEntity
  8
0
 62
    18
420
        0
370
    25
100
AcDbLine
 10
16.84089857989787
 20
45.13661000744624
 30
0.0
 11
17.00756310079771
 21
45.13661000744624
 31
0.0
  0
LINE
  5
160
330
70
100
AcDbEntity
  8
0
 62
    18
420
        0
370
    25
100
AcDbLine
 10
16.84089857989787
 20
8.803276306545777
 30
0.0
 11
16.84089857989787
 21
45.13661000744624
 31
0.0
  0
LINE
  5
161
330
70
100
AcDbEntity
  8
0
 62
    18
420
        0
370
    25
100
AcDbLine
 10
17.00756310079771
 20
45.13661000744624
 30
0.0
 11
17.00756310079771
 21
8.737840340645904
 31
0.0
  0
LWPOLYLINE
  5
162
330
70
100
AcDbEntity
  8
0
 62
    18
420
        0
370
    25
100
AcDbPolyline
 90
        6
 70
     0
 43
0.0
 10
17.00756310079771
 20
8.737840340645904
 10
16.99700811159764
 20
8.759858048145646
 10
16.9662123784976
 20
8.780087616145832
 10
16.91942769939783
 20
8.795141514245601
 10
16.86547556169777
 20
8.802517589045747
 10
16.84089857989787
 20
8.803276306545777
  0
LINE
  5
163
330
70
100
AcDbEntity
  8
0
 62
    18
420
        0
370
    25
100
AcDbLine
 10
16.84089857989787
 20
8.803276306545777
 30
0.0
 11
15.34089802359769
 21
8.803276306545777
 31
0.0
  0
LINE
  5
164
330
70
100
AcDbEntity
  8
0
 62
    18
420
        0
370
    25
100
AcDbLine
 10
15.34089802359769
 20
45.13661000744624
 30
0.0
 11
15.34089802359769
 21
8.803276306545777
 31
0.0
  0
LINE
  5
165
330
70
100
AcDbEntity
  8
0
 62
    18
420
        0
370
    25
100
AcDbLine
 10
15.17422853559755
 20
8.737840340645904
 30
0.0
 11
15.17422853559755
 21
45.13661000744624
 31
0.0
  0
LWPOLYLINE
  5
166
330
70
100
AcDbEntity
  8
0
 62
    18
420
        0
370
    25
100
AcDbPolyline
 90
        6
 70
     0
 43
0.0
 10
15.34089802359769
 20
8.803276306545777
 10
15.2887936298977
 20
8.799806819546144
 10
15.24261493139772
 20
8.790067668945983
 10
15.20560044699755
 20
8.775084551345644
 10
15.18119731199771
 20
8.755755261746164
 10
15.17422853559755
 20
8.737840340645904
  0
LINE
  5
167
330
70
100
AcDbEntity
  8
0
 62
    18
420
        0
370
    25
100
AcDbLine
 10
113.3408979440978
 20
8.737840340645904
 30
0.0
 11
113.3408979440978
 21
8.46994353944574
 31
0.0
  0
LINE
  5
168
330
70
100
AcDbEntity
  8
0
 62
    18
420
        0
370
    25
100
AcDbLine
 10
115.174232509298
 20
8.737840340645904
 30
0.0
 11
115.174232509298
 21
8.46994353944574
 31
0.0
  0
LINE
  5
169
330
70
100
AcDbEntity
  8
0
 62
    18
420
        0
370
    25
100
AcDbLine
 10
17.00756310079771
 20
8.46994353944574
 30
0.0
 11
17.00756310079771
 21
8.737840340645904
 31
0.0
  0
LINE
  5
16A
330
70
100
AcDbEntity
  8
0
 62
    18
420
        0
370
    25
100
AcDbLine
 10
15.17422853559755
 20
8.737840340645904
 30
0.0
 11
15.17422853559755
 21
8.46994353944574
 31
0.0
  0
LINE
  5
16B
330
70
100
AcDbEntity
  8
0
 62
    18
420
        0
370
    25
100
AcDbLine
 10
46.00756350809763
 20
52.13660929214586
 30
0.0
 11
27.67423151589764
 21
52.13660929214586
 31
0.0
  0
LINE
  5
16C
330
70
100
AcDbEntity
  8
0
 62
    18
420
        0
370
    25
100
AcDbLine
 10
38.59089671229759
 20
50.13686849294574
 30
0.0
 11
38.59089671229759
 21
50.13661020614596
 31
0.0
  0
SPLINE
  5
16D
330
70
100
AcDbEntity
  8
0
 62
    18
420
        0
370
    25
100
AcDbSpline
210
0.0
220
0.0
230
1.0
 70
     8
 71
     3
 72
     8
 73
     4
 74
     0
 42
0.0000000001
 43
0.0000000001
 40
0.0
 40
0.0
 40
0.0
 40
0.0
 40
1.0
 40
1.0
 40
1.0
 40
1.0
 10
38.59089671228957
 20
50.13686849293098
 30
0.0
 10
38.53535690406833
 20
50.13861973822726
 30
0.0
 10
38.47977815456901
 20
50.13876963993461
 30
0.0
 10
38.4242297078614
 20
50.13731801129361
 30
0.0
  0
LWPOLYLINE
  5
16E
330
70
100
AcDbEntity
  8
0
 62
    18
420
        0
370
    25
100
AcDbPolyline
 90
        9
 70
     0
 43
0.0
 10
38.34791837779775
 20
50.13661020614596
 10
38.35745760449763
 20
50.13669712954599
 10
38.36699683119783
 20
50.13678405294602
 10
38.37653605789771
 20
50.13687097644616
 10
38.38607528459759
 20
50.13696038344543
 10
38.3956145112978
 20
50.1370473068461
 10
38.40515125449758
 20
50.13713671384536
 10
38.41469048119778
 20
50.13722860434569
 10
38.42422970779755
 20
50.13731801124613
  0
LINE
  5
16F
330
70
100
AcDbEntity
  8
0
 62
    18
420
        0
370
    25
100
AcDbLine
 10
38.34791837779775
 20
50.13661020614596
 30
0.0
 11
35.33387540429778
 21
50.13661020614596
 31
0.0
  0
LWPOLYLINE
  5
170
330
70
100
AcDbEntity
  8
0
 62
    18
420
        0
370
    25
100
AcDbPolyline
 90
        9
 70
     0
 43
0.0
 10
35.25756407429767
 20
50.13731801124613
 10
35.26710330099787
 20
50.13722860434569
 10
35.27664252769775
 20
50.13713671384536
 10
35.28618175439762
 20
50.1370473068461
 10
35.29572098109783
 20
50.13696038344543
 10
35.30526020779771
 20
50.13687097644616
 10
35.31479943449759
 20
50.13678405294602
 10
35.32433866119779
 20
50.13669712954599
 10
35.33387540429778
 20
50.13661020614596
  0
SPLINE
  5
171
330
70
100
AcDbEntity
  8
0
 62
    18
420
        0
370
    25
100
AcDbSpline
210
0.0
220
0.0
230
1.0
 70
     8
 71
     3
 72
     8
 73
     4
 74
     0
 42
0.0000000001
 43
0.0000000001
 40
0.0
 40
0.0
 40
0.0
 40
0.0
 40
1.0
 40
1.0
 40
1.0
 40
1.0
 10
35.25756407433264
 20
50.13731801122303
 30
0.0
 10
35.20201144050382
 20
50.13834199571195
 30
0.0
 10
35.14644337197785
 20
50.13819212281238
 30
0.0
 10
35.09089706991121
 20
50.1368684928604
 30
0.0
  0
LINE
  5
172
330
70
100
AcDbEntity
  8
0
 62
    18
420
        0
370
    25
100
AcDbLine
 10
35.09089706989774
 20
50.13661020614596
 30
0.0
 11
35.09089706989774
 21
50.13686849294574
 31
0.0
  0
LINE
  5
173
330
70
100
AcDbEntity
  8
0
 62
    18
420
        0
370
    25
100
AcDbLine
 10
35.09089706989774
 20
50.13661020614596
 30
0.0
 11
34.63610369619767
 21
50.13661020614596
 31
0.0
  0
LINE
  5
174
330
70
100
AcDbEntity
  8
0
 62
    18
420
        0
370
    25
100
AcDbLine
 10
39.04569008599766
 20
50.13661020614596
 30
0.0
 11
38.59089671229759
 21
50.13661020614596
 31
0.0
  0
LINE
  5
175
330
70
100
AcDbEntity
  8
0
 62
    18
420
        0
370
    25
100
AcDbLine
 10
38.59089671229759
 20
50.13661020614596
 30
0.0
 11
38.42422970779787
 21
50.13661020614596
 31
0.0
  0
LINE
  5
176
330
70
100
AcDbEntity
  8
0
 62
    18
420
        0
370
    25
100
AcDbLine
 10
35.25756407429767
 20
50.13661020614596
 30
0.0
 11
35.09089706989774
 21
50.13661020614596
 31
0.0
  0
LINE
  5
177
330
70
100
AcDbEntity
  8
0
 62
    18
420
        0
370
    25
100
AcDbLine
 10
35.25756407429767
 20
50.13661020614596
 30
0.0
 11
35.33387540429778
 21
50.13661020614596
 31
0.0
  0
LINE
  5
178
330
70
100
AcDbEntity
  8
0
 62
    18
420
        0
370
    25
100
AcDbLine
 10
38.34791837779775
 20
50.13661020614596
 30
0.0
 11
38.42422970779787
 21
50.13661020614596
 31
0.0
  0
LINE
  5
179
330
70
100
AcDbEntity
  8
0
 62
    18
420
        0
370
    25
100
AcDbLine
 10
102.6742295289979
 20
52.15794527144576
 30
0.0
 11
84.34089753679762
 21
52.15794527144576
 31
0.0
  0
LINE
  5
17A
330
70
100
AcDbEntity
  8
0
 62
    18
420
        0
370
    25
100
AcDbLine
 10
96.17423125759726
 20
50.15794370184599
 30
0.0
 11
95.25756397499749
 21
50.15794370184599
 31
0.0
  0
LINE
  5
17B
330
70
100
AcDbEntity
  8
0
 62
    18
420
        0
370
    25
100
AcDbLine
 10
95.25756397499749
 20
50.15820198864577
 30
0.0
 11
95.25756397499749
 21
50.15794370184599
 31
0.0
  0
SPLINE
  5
17C
330
70
100
AcDbEntity
  8
0
 62
    18
420
        0
370
    25
100
AcDbSpline
210
0.0
220
0.0
230
1.0
 70
     8
 71
     3
 72
     8
 73
     4
 74
     0
 42
0.0000000001
 43
0.0000000001
 40
0.0
 40
0.0
 40
0.0
 40
0.0
 40
1.0
 40
1.0
 40
1.0
 40
1.0
 10
95.25756397498723
 20
50.15820198870674
 30
0.0
 10
95.20202416676728
 20
50.15995323400301
 30
0.0
 10
95.14644541727021
 20
50.16010313570973
 30
0.0
 10
95.09089697056451
 20
50.15865150706936
 30
0.0
  0
LWPOLYLINE
  5
17D
330
70
100
AcDbEntity
  8
0
 62
    18
420
        0
370
    25
100
AcDbPolyline
 90
        9
 70
     0
 43
0.0
 10
95.01458564059808
 20
50.15794370184599
 10
95.02412238369776
 20
50.15803062534613
 10
95.03366161039734
 20
50.15811754874551
 10
95.04320083709817
 20
50.15820695574607
 10
95.05274006379773
 20
50.15829387914545
 10
95.06227929049728
 20
50.158383286146
 10
95.07181851719812
 20
50.15847269314591
 10
95.08135774389769
 20
50.15856210004571
 10
95.09089697059724
 20
50.15865150704627
  0
LINE
  5
17E
330
70
100
AcDbEntity
  8
0
 62
    18
420
        0
370
    25
100
AcDbLine
 10
95.01458564059808
 20
50.15794370184599
 30
0.0
 11
92.00054266699801
 21
50.15794370184599
 31
0.0
  0
LWPOLYLINE
  5
17F
330
70
100
AcDbEntity
  8
0
 62
    18
420
        0
370
    25
100
AcDbPolyline
 90
        9
 70
     0
 43
0.0
 10
91.92423133699758
 20
50.15865150704627
 10
91.93377056369778
 20
50.15856210004571
 10
91.94330979039797
 20
50.15847269314591
 10
91.95284653359776
 20
50.158383286146
 10
91.96238576029733
 20
50.15829387914545
 10
91.97192498699816
 20
50.15820695574607
 10
91.98146421369772
 20
50.15811754874551
 10
91.99100344039727
 20
50.15803062534613
 10
92.00054266699801
 20
50.15794370184599
  0
SPLINE
  5
180
330
70
100
AcDbEntity
  8
0
 62
    18
420
        0
370
    25
100
AcDbSpline
210
0.0
220
0.0
230
1.0
 70
     8
 71
     3
 72
     8
 73
     4
 74
     0
 42
0.0000000001
 43
0.0000000001
 40
0.0
 40
0.0
 40
0.0
 40
0.0
 40
1.0
 40
1.0
 40
1.0
 40
1.0
 10
91.9242313370348
 20
50.15865150702188
 30
0.0
 10
91.86867871458298
 20
50.15967693644185
 30
0.0
 10
91.81311061550925
 20
50.15952706346015
 30
0.0
 10
91.75756433261273
 20
50.15820198865925
 30
0.0
  0
LINE
  5
181
330
70
100
AcDbEntity
  8
0
 62
    18
420
        0
370
    25
100
AcDbLine
 10
91.75756433259733
 20
50.15794370184599
 30
0.0
 11
91.75756433259733
 21
50.15820198864577
 31
0.0
  0
LINE
  5
182
330
70
100
AcDbEntity
  8
0
 62
    18
420
        0
370
    25
100
AcDbLine
 10
91.75756433259733
 20
50.15794370184599
 30
0.0
 11
90.84089704999756
 21
50.15794370184599
 31
0.0
  0
LINE
  5
183
330
70
100
AcDbEntity
  8
0
 62
    18
420
        0
370
    25
100
AcDbLine
 10
95.25756397499749
 20
50.15794370184599
 30
0.0
 11
95.09089697059724
 21
50.15794370184599
 31
0.0
  0
LINE
  5
184
330
70
100
AcDbEntity
  8
0
 62
    18
420
        0
370
    25
100
AcDbLine
 10
91.92423133699758
 20
50.15794370184599
 30
0.0
 11
91.75756433259733
 21
50.15794370184599
 31
0.0
  0
LINE
  5
185
330
70
100
AcDbEntity
  8
0
 62
    18
420
        0
370
    25
100
AcDbLine
 10
91.92423133699758
 20
50.15794370184599
 30
0.0
 11
92.00054266699801
 21
50.15794370184599
 31
0.0
  0
LINE
  5
186
330
70
100
AcDbEntity
  8
0
 62
    18
420
        0
370
    25
100
AcDbLine
 10
95.01458564059808
 20
50.15794370184599
 30
0.0
 11
95.09089697059724
 21
50.15794370184599
 31
0.0
  0
LINE
  5
187
330
70
100
AcDbEntity
  8
0
 62
     8
420
  8421504
370
    25
100
AcDbLine
 10
112.7575621867975
 20
11.13661064324558
 30
0.0
 11
112.7575621867975
 21
10.1366098584457
 31
0.0
  0
LINE
  5
188
330
70
100
AcDbEntity
  8
0
 62
     8
420
  8421504
370
    25
100
AcDbLine
 10
17.59089885799758
 20
11.13661064324558
 30
0.0
 11
17.59089885799758
 21
10.1366098584457
 31
0.0
  0
LINE
  5
189
330
70
100
AcDbEntity
  8
0
 62
     8
420
  8421504
370
    25
100
AcDbLine
 10
112.7575621867975
 20
17.8032771608458
 30
0.0
 11
112.7575621867975
 21
16.80327637604591
 31
0.0
  0
LINE
  5
18A
330
70
100
AcDbEntity
  8
0
 62
     8
420
  8421504
370
    25
100
AcDbLine
 10
17.59089885799758
 20
17.8032771608458
 30
0.0
 11
17.59089885799758
 21
16.80327637604591
 31
0.0
  0
LINE
  5
18B
330
70
100
AcDbEntity
  8
0
 62
     8
420
  8421504
370
    25
100
AcDbLine
 10
112.7575621867975
 20
23.46994351464589
 30
0.0
 11
112.7575621867975
 21
24.46994367854613
 31
0.0
  0
LINE
  5
18C
330
70
100
AcDbEntity
  8
0
 62
     8
420
  8421504
370
    25
100
AcDbLine
 10
17.59089885799758
 20
23.46994351464589
 30
0.0
 11
17.59089885799758
 21
24.46994367854613
 31
0.0
  0
LINE
  5
18D
330
70
100
AcDbEntity
  8
0
 62
     8
420
  8421504
370
    25
100
AcDbLine
 10
112.7575621867975
 20
30.13661018744551
 30
0.0
 11
112.7575621867975
 21
31.1366101961457
 31
0.0
  0
LINE
  5
18E
330
70
100
AcDbEntity
  8
0
 62
     8
420
  8421504
370
    25
100
AcDbLine
 10
17.59089885799758
 20
30.13661018744551
 30
0.0
 11
17.59089885799758
 21
31.1366101961457
 31
0.0
  0
LINE
  5
18F
330
70
100
AcDbEntity
  8
0
 62
     8
420
  8421504
370
    25
100
AcDbLine
 10
112.7575621867975
 20
36.80327717084607
 30
0.0
 11
112.7575621867975
 21
37.80327671384537
 31
0.0
  0
LINE
  5
190
330
70
100
AcDbEntity
  8
0
 62
     8
420
  8421504
370
    25
100
AcDbLine
 10
17.59089885799758
 20
36.80327717084607
 30
0.0
 11
17.59089885799758
 21
37.80327671384537
 31
0.0
  0
LINE
  5
191
330
70
100
AcDbEntity
  8
0
 62
     8
420
  8421504
370
    25
100
AcDbLine
 10
112.7575621867975
 20
43.46994368844629
 30
0.0
 11
112.7575621867975
 21
44.46994323144559
 31
0.0
  0
LINE
  5
192
330
70
100
AcDbEntity
  8
0
 62
     8
420
  8421504
370
    25
100
AcDbLine
 10
17.59089885799758
 20
43.46994368844629
 30
0.0
 11
17.59089885799758
 21
44.46994323144559
 31
0.0
  0
LINE
  5
193
330
70
100
AcDbEntity
  8
0
 62
     8
420
  8421504
370
    25
100
AcDbLine
 10
27.67423151589764
 20
50.68332635974573
 30
0.0
 11
46.00756350809763
 21
50.68332635974573
 31
0.0
  0
LINE
  5
194
330
70
100
AcDbEntity
  8
0
 62
     8
420
  8421504
370
    25
100
AcDbLine
 10
45.69193207869759
 20
50.35046422094569
 30
0.0
 11
27.98986294519756
 21
50.35046422094569
 31
0.0
  0
LINE
  5
195
330
70
100
AcDbEntity
  8
0
 62
     8
420
  8421504
370
    25
100
AcDbLine
 10
84.34089753679762
 20
50.70466233904563
 30
0.0
 11
102.6742295289979
 21
50.70466233904563
 31
0.0
  0
LINE
  5
196
330
70
100
AcDbEntity
  8
0
 62
     8
420
  8421504
370
    25
100
AcDbLine
 10
102.358598099698
 20
50.37179771674582
 30
0.0
 11
84.65652896619763
 21
50.37179771674582
 31
0.0
  0
LINE
  5
197
330
70
100
AcDbEntity
  8
0
 62
    18
420
        0
370
    25
100
AcDbLine
 10
167.8179409332976
 20
-63.80113149025442
 30
0.0
 11
167.8179409332976
 21
-66.65435048835431
 31
0.0
  0
LINE
  5
198
330
70
100
AcDbEntity
  8
0
 62
    18
420
        0
370
    25
100
AcDbLine
 10
168.8179390125974
 20
-66.65434998145442
 30
0.0
 11
168.8179390125974
 21
-63.22384332365449
 31
0.0
  0
SPLINE
  5
199
330
70
100
AcDbEntity
  8
0
 62
    18
420
        0
370
    25
100
AcDbSpline
210
0.0
220
0.0
230
1.0
 70
     8
 71
     3
 72
    11
 73
     7
 74
     0
 42
0.0000000001
 43
0.0000000001
 40
0.0
 40
0.0
 40
0.0
 40
0.0
 40
1.0
 40
1.0
 40
1.0
 40
2.0
 40
2.0
 40
2.0
 40
2.0
 10
167.0072981077124
 20
-67.69987849370372
 30
0.0
 10
167.5302184668203
 20
-68.06463450390324
 30
0.0
 10
168.249822344848
 20
-67.93641696564737
 30
0.0
 10
168.6145783550475
 20
-67.41349660653947
 30
0.0
 10
168.7690661549457
 20
-67.19202029486334
 30
0.0
 10
168.8410256505613
 20
-66.92339504107376
 30
0.0
 10
168.8179390125711
 20
-66.65434998146982
 30
0.0
  0
LWPOLYLINE
  5
19A
330
70
100
AcDbEntity
  8
0
 62
    18
420
        0
370
    25
100
AcDbPolyline
 90
        8
 70
     0
 43
0.0
 10
167.8179409332976
 20
-66.65435048835431
 10
167.8122212546976
 20
-66.75102837665409
 10
167.7818579625975
 20
-66.86990406695425
 10
167.7588984668977
 20
-66.90670033985448
 10
167.7545968541975
 20
-66.90900523215448
 10
167.7068945241977
 20
-66.90976124015411
 10
167.5915666976977
 20
-66.87624889595443
 10
167.5072571955976
 20
-66.83383016385438
  0
LINE
  5
19B
330
70
100
AcDbEntity
  8
0
 62
    18
420
        0
370
    25
100
AcDbLine
 10
167.5072571955976
 20
-66.83383016385438
 30
0.0
 11
100.2142642128974
 21
-27.98641220545398
 31
0.0
  0
LINE
  5
19C
330
70
100
AcDbEntity
  8
0
 62
    18
420
        0
370
    25
100
AcDbLine
 10
99.71430512499756
 20
-28.85246053535401
 30
0.0
 11
167.0072981076977
 21
-67.69987849375441
 31
0.0
  0
LINE
  5
19D
330
70
100
AcDbEntity
  8
0
 62
    18
420
        0
370
    25
100
AcDbLine
 10
98.40362330809782
 20
-23.72909888245392
 30
0.0
 11
98.40362330809782
 21
-26.58231788055445
 31
0.0
  0
LINE
  5
19E
330
70
100
AcDbEntity
  8
0
 62
    18
420
        0
370
    25
100
AcDbLine
 10
99.40362138729756
 20
-26.58231737365392
 30
0.0
 11
99.40362138729756
 21
-23.15181071575389
 31
0.0
  0
SPLINE
  5
19F
330
70
100
AcDbEntity
  8
0
 62
    18
420
        0
370
    25
100
AcDbSpline
210
0.0
220
0.0
230
1.0
 70
     8
 71
     3
 72
     8
 73
     4
 74
     0
 42
0.0000000001
 43
0.0000000001
 40
0.0
 40
0.0
 40
0.0
 40
0.0
 40
1.0
 40
1.0
 40
1.0
 40
1.0
 10
98.40362330802339
 20
-26.58231788050632
 30
0.0
 10
98.43299923980699
 20
-27.51071407885055
 30
0.0
 10
98.92497375762479
 20
-28.36282961410564
 30
0.0
 10
99.71430512495455
 20
-28.85246053532834
 30
0.0
  0
SPLINE
  5
1A0
330
70
100
AcDbEntity
  8
0
 62
    18
420
        0
370
    25
100
AcDbSpline
210
0.0
220
0.0
230
1.0
 70
     8
 71
     3
 72
     8
 73
     4
 74
     0
 42
0.0000000001
 43
0.0000000001
 40
0.0
 40
0.0
 40
0.0
 40
0.0
 40
1.0
 40
1.0
 40
1.0
 40
1.0
 10
99.40362138732901
 20
-26.58231737368537
 30
0.0
 10
99.43133536653029
 20
-27.15376647545857
 30
0.0
 10
99.73323563595497
 20
-27.67668063029995
 30
0.0
 10
100.214264212934
 20
-27.98641220552392
 30
0.0
  0
LINE
  5
1A1
330
70
100
AcDbEntity
  8
0
 62
    18
420
        0
370
    25
100
AcDbLine
 10
172.5319860357974
 20
-61.0797711783541
 30
0.0
 11
172.5319860357974
 21
-68.01569490515388
 31
0.0
  0
LINE
  5
1A2
330
70
100
AcDbEntity
  8
0
 62
    18
420
        0
370
    25
100
AcDbLine
 10
173.531984115098
 20
-68.01569439825399
 30
0.0
 11
173.531984115098
 21
-60.50248301175418
 31
0.0
  0
SPLINE
  5
1A3
330
70
100
AcDbEntity
  8
0
 62
    18
420
        0
370
    25
100
AcDbSpline
210
0.0
220
0.0
230
1.0
 70
     8
 71
     3
 72
    11
 73
     7
 74
     0
 42
0.0000000001
 43
0.0000000001
 40
0.0
 40
0.0
 40
0.0
 40
0.0
 40
1.0
 40
1.0
 40
1.0
 40
2.0
 40
2.0
 40
2.0
 40
2.0
 10
171.7213432102104
 20
-69.06122240351999
 30
0.0
 10
172.2442638343137
 20
-69.42597824543908
 30
0.0
 10
172.9638677907441
 20
-69.29776035594409
 30
0.0
 10
173.3286236326632
 20
-68.77483973184144
 30
0.0
 10
173.483111059819
 20
-68.55336374012224
 30
0.0
 10
173.5550704771839
 20
-68.28473900411896
 30
0.0
 10
173.5319841150684
 20
-68.01569439826041
 30
0.0
  0
LWPOLYLINE
  5
1A4
330
70
100
AcDbEntity
  8
0
 62
    18
420
        0
370
    25
100
AcDbPolyline
 90
        8
 70
     0
 43
0.0
 10
172.5319860357974
 20
-68.01569490515388
 10
172.5262672352978
 20
-68.11237177945432
 10
172.4959030651976
 20
-68.23124797675447
 10
172.4729435693976
 20
-68.26804424955397
 10
172.4686428347977
 20
-68.27034914195407
 10
172.4209396266976
 20
-68.27110464295434
 10
172.3056118002977
 20
-68.23759280565392
 10
172.2213022981976
 20
-68.19517356665397
  0
LINE
  5
1A5
330
70
100
AcDbEntity
  8
0
 62
    18
420
        0
370
    25
100
AcDbLine
 10
172.2213022981976
 20
-68.19517356665397
 30
0.0
 11
168.8179372563974
 21
-66.23045274825386
 31
0.0
  0
LINE
  5
1A6
330
70
100
AcDbEntity
  8
0
 62
    18
420
        0
370
    25
100
AcDbLine
 10
167.817938299098
 20
-65.65316563815429
 30
0.0
 11
104.9283093154975
 21
-29.34775560825421
 31
0.0
  0
LINE
  5
1A7
330
70
100
AcDbEntity
  8
0
 62
    18
420
        0
370
    25
100
AcDbLine
 10
104.4283502274981
 20
-30.21380444515424
 30
0.0
 11
167.8003130138978
 21
-66.79765985245426
 31
0.0
  0
LINE
  5
1A8
330
70
100
AcDbEntity
  8
0
 62
    18
420
        0
370
    25
100
AcDbLine
 10
168.6732831258976
 20
-67.30161477115427
 30
0.0
 11
171.7213432101976
 21
-69.06122240345389
 31
0.0
  0
LINE
  5
1A9
330
70
100
AcDbEntity
  8
0
 62
    18
420
        0
370
    25
100
AcDbLine
 10
103.1176684105977
 20
-21.00773857045414
 30
0.0
 11
103.1176684105977
 21
-27.94366229725393
 31
0.0
  0
LINE
  5
1AA
330
70
100
AcDbEntity
  8
0
 62
    18
420
        0
370
    25
100
AcDbLine
 10
104.1176664898975
 20
-27.94366179035403
 30
0.0
 11
104.1176664898975
 21
-20.43045040385422
 31
0.0
  0
SPLINE
  5
1AB
330
70
100
AcDbEntity
  8
0
 62
    18
420
        0
370
    25
100
AcDbSpline
210
0.0
220
0.0
230
1.0
 70
     8
 71
     3
 72
     8
 73
     4
 74
     0
 42
0.0000000001
 43
0.0000000001
 40
0.0
 40
0.0
 40
0.0
 40
0.0
 40
1.0
 40
1.0
 40
1.0
 40
1.0
 10
103.1176684105804
 20
-27.94366229722954
 30
0.0
 10
103.1470449944797
 20
-28.87205817558027
 30
0.0
 10
103.6390193686634
 20
-29.72417327175793
 30
0.0
 10
104.4283502275135
 20
-30.21380444507788
 30
0.0
  0
SPLINE
  5
1AC
330
70
100
AcDbEntity
  8
0
 62
    18
420
        0
370
    25
100
AcDbSpline
210
0.0
220
0.0
230
1.0
 70
     8
 71
     3
 72
     8
 73
     4
 74
     0
 42
0.0000000001
 43
0.0000000001
 40
0.0
 40
0.0
 40
0.0
 40
0.0
 40
1.0
 40
1.0
 40
1.0
 40
1.0
 10
104.1176664898834
 20
-27.9436617903566
 30
0.0
 10
104.1453810570292
 20
-28.51511044919063
 30
0.0
 10
104.4472812223806
 20
-29.03802404615362
 30
0.0
 10
104.9283093154897
 20
-29.34775560824459
 30
0.0
  0
LINE
  5
1AD
330
70
100
AcDbEntity
  8
0
 62
    18
420
        0
370
    25
100
AcDbLine
 10
177.2460311383975
 20
-58.35841086645443
 30
0.0
 11
177.2460311383975
 21
-65.2943345931541
 31
0.0
  0
LINE
  5
1AE
330
70
100
AcDbEntity
  8
0
 62
    18
420
        0
370
    25
100
AcDbLine
 10
178.2460296566978
 20
-65.29433383285432
 30
0.0
 11
178.2460296566978
 21
-57.78112244635386
 31
0.0
  0
LWPOLYLINE
  5
1AF
330
70
100
AcDbEntity
  8
0
 62
    18
420
        0
370
    25
100
AcDbPolyline
 90
        8
 70
     0
 43
0.0
 10
177.2460311383975
 20
-65.2943345931541
 10
177.2403118988974
 20
-65.39101172105401
 10
177.2099486066979
 20
-65.50988741135416
 10
177.1869886719976
 20
-65.54668393765429
 10
177.1826874982978
 20
-65.54898908345428
 10
177.1349849487978
 20
-65.54974420435439
 10
177.0196566832973
 20
-65.51623262045386
 10
176.9353476201977
 20
-65.47381312795393
  0
SPLINE
  5
1B0
330
70
100
AcDbEntity
  8
0
 62
    18
420
        0
370
    25
100
AcDbSpline
210
0.0
220
0.0
230
1.0
 70
     8
 71
     3
 72
    11
 73
     7
 74
     0
 42
0.0000000001
 43
0.0000000001
 40
0.0
 40
0.0
 40
0.0
 40
0.0
 40
1.0
 40
1.0
 40
1.0
 40
2.0
 40
2.0
 40
2.0
 40
2.0
 10
176.4353883128316
 20
-66.33986209160555
 30
0.0
 10
176.958309437849
 20
-66.70461780593562
 30
0.0
 10
177.6779136969195
 20
-66.57639940693801
 30
0.0
 10
178.0426694112495
 20
-66.0534782819206
 30
0.0
 10
178.1971565058647
 20
-65.83200247731186
 30
0.0
 10
178.269115824345
 20
-65.56337811047163
 30
0.0
 10
178.2460296567202
 20
-65.29433383289988
 30
0.0
  0
LINE
  5
1B1
330
70
100
AcDbEntity
  8
0
 62
    18
420
        0
370
    25
100
AcDbLine
 10
109.1423953300974
 20
-27.49244413315446
 30
0.0
 11
166.4121336792979
 21
-60.55356035655426
 31
0.0
  0
LINE
  5
1B2
330
70
100
AcDbEntity
  8
0
 62
    18
420
        0
370
    25
100
AcDbLine
 10
169.927820072298
 20
-62.58312291075434
 30
0.0
 11
172.5319825235977
 21
-64.08647389415445
 31
0.0
  0
LINE
  5
1B3
330
70
100
AcDbEntity
  8
0
 62
    18
420
        0
370
    25
100
AcDbLine
 10
173.5319832369976
 20
-64.6637620181539
 30
0.0
 11
176.4353883127976
 21
-66.33986209155422
 31
0.0
  0
LINE
  5
1B4
330
70
100
AcDbEntity
  8
0
 62
    18
420
        0
370
    25
100
AcDbLine
 10
176.9353476201977
 20
-65.47381312795393
 30
0.0
 11
173.5319825784976
 21
-63.50909230965392
 31
0.0
  0
LINE
  5
1B5
330
70
100
AcDbEntity
  8
0
 62
    18
420
        0
370
    25
100
AcDbLine
 10
172.5319836211976
 20
-62.93180519955435
 30
0.0
 11
170.9279009085974
 21
-62.0057879603544
 31
0.0
  0
LINE
  5
1B6
330
70
100
AcDbEntity
  8
0
 62
    18
420
        0
370
    25
100
AcDbLine
 10
167.4122145155974
 20
-59.97622540615433
 30
0.0
 11
109.6423546374976
 21
-26.62639516965427
 31
0.0
  0
LINE
  5
1B7
330
70
100
AcDbEntity
  8
0
 62
    18
420
        0
370
    25
100
AcDbLine
 10
107.8317135131977
 20
-18.28637825855446
 30
0.0
 11
107.8317135131977
 21
-25.22230198535425
 31
0.0
  0
LINE
  5
1B8
330
70
100
AcDbEntity
  8
0
 62
    18
420
        0
370
    25
100
AcDbLine
 10
108.8317120313979
 20
-25.22230122505447
 30
0.0
 11
108.8317120313979
 21
-17.70908983855401
 31
0.0
  0
SPLINE
  5
1B9
330
70
100
AcDbEntity
  8
0
 62
    18
420
        0
370
    25
100
AcDbSpline
210
0.0
220
0.0
230
1.0
 70
     8
 71
     3
 72
     8
 73
     4
 74
     0
 42
0.0000000001
 43
0.0000000001
 40
0.0
 40
0.0
 40
0.0
 40
0.0
 40
1.0
 40
1.0
 40
1.0
 40
1.0
 10
108.8317120314062
 20
-25.22230122500506
 30
0.0
 10
108.8594246043779
 20
-25.79375044836227
 30
0.0
 10
109.1613251552377
 20
-26.31666490184973
 30
0.0
 10
109.6423546374976
 20
-26.62639516961962
 30
0.0
  0
SPLINE
  5
1BA
330
70
100
AcDbEntity
  8
0
 62
    18
420
        0
370
    25
100
AcDbSpline
210
0.0
220
0.0
230
1.0
 70
     8
 71
     3
 72
     8
 73
     4
 74
     0
 42
0.0000000001
 43
0.0000000001
 40
0.0
 40
0.0
 40
0.0
 40
0.0
 40
1.0
 40
1.0
 40
1.0
 40
1.0
 10
107.8317135131714
 20
-25.22230198536195
 30
0.0
 10
107.8610897963834
 20
-26.15069794940068
 30
0.0
 10
108.3530642467035
 20
-27.00281317745006
 30
0.0
 10
109.1423953301032
 20
-27.49244413320772
 30
0.0
  0
LINE
  5
1BB
330
70
100
AcDbEntity
  8
0
 62
    18
420
        0
370
    25
100
AcDbLine
 10
181.9600762408974
 20
-55.63705055455411
 30
0.0
 11
181.9600762408974
 21
-62.57297428125443
 31
0.0
  0
LINE
  5
1BC
330
70
100
AcDbEntity
  8
0
 62
    18
420
        0
370
    25
100
AcDbLine
 10
182.9600748689975
 20
-62.57297345755414
 30
0.0
 11
182.9600748689975
 21
-55.05976207105433
 31
0.0
  0
LWPOLYLINE
  5
1BD
330
70
100
AcDbEntity
  8
0
 62
    18
420
        0
370
    25
100
AcDbPolyline
 90
        8
 70
     0
 43
0.0
 10
181.9600762408974
 20
-62.57297428125443
 10
181.9543572757974
 20
-62.66965125075413
 10
181.9239938189976
 20
-62.78852703605398
 10
181.9010340488976
 20
-62.82532346735441
 10
181.8967328202979
 20
-62.82762864485434
 10
181.8490300512977
 20
-62.82838389235398
 10
181.7337020052974
 20
-62.79487218185392
 10
181.6493929422979
 20
-62.75245268935399
  0
SPLINE
  5
1BE
330
70
100
AcDbEntity
  8
0
 62
    18
420
        0
370
    25
100
AcDbSpline
210
0.0
220
0.0
230
1.0
 70
     8
 71
     3
 72
    11
 73
     7
 74
     0
 42
0.0000000001
 43
0.0000000001
 40
0.0
 40
0.0
 40
0.0
 40
0.0
 40
1.0
 40
1.0
 40
1.0
 40
2.0
 40
2.0
 40
2.0
 40
2.0
 10
181.1494335799773
 20
-63.61850168457913
 30
0.0
 10
181.672354688025
 20
-63.98325738850084
 30
0.0
 10
182.391958924901
 20
-63.85503899482228
 30
0.0
 10
182.7567146288228
 20
-63.33211788677459
 30
0.0
 10
182.9112017198655
 20
-63.11064208815483
 30
0.0
 10
182.9831610365132
 20
-62.84201772815318
 30
0.0
 10
182.9600748689866
 20
-62.57297345755414
 30
0.0
  0
LINE
  5
1BF
330
70
100
AcDbEntity
  8
0
 62
    18
420
        0
370
    25
100
AcDbLine
 10
113.8564405972977
 20
-24.77108372625445
 30
0.0
 11
171.1261789464976
 21
-57.83219994955415
 31
0.0
  0
LINE
  5
1C0
330
70
100
AcDbEntity
  8
0
 62
    18
420
        0
370
    25
100
AcDbLine
 10
174.6418653394976
 20
-59.86176250385432
 30
0.0
 11
177.246027790798
 21
-61.36511348725445
 31
0.0
  0
LINE
  5
1C1
330
70
100
AcDbEntity
  8
0
 62
    18
420
        0
370
    25
100
AcDbLine
 10
178.2460285041979
 20
-61.94240161115444
 30
0.0
 11
181.1494335799979
 21
-63.61850168465421
 31
0.0
  0
LINE
  5
1C2
330
70
100
AcDbEntity
  8
0
 62
    18
420
        0
370
    25
100
AcDbLine
 10
181.6493929422979
 20
-62.75245268935399
 30
0.0
 11
178.2460279005978
 21
-60.78773187105398
 31
0.0
  0
LINE
  5
1C3
330
70
100
AcDbEntity
  8
0
 62
    18
420
        0
370
    25
100
AcDbLine
 10
177.2460289431977
 20
-60.21044476085431
 30
0.0
 11
175.6419462306976
 21
-59.28442752175445
 31
0.0
  0
LINE
  5
1C4
330
70
100
AcDbEntity
  8
0
 62
    18
420
        0
370
    25
100
AcDbLine
 10
172.1262598376976
 20
-57.2548649675544
 30
0.0
 11
114.3563999595978
 21
-23.90503473095422
 31
0.0
  0
LINE
  5
1C5
330
70
100
AcDbEntity
  8
0
 62
    18
420
        0
370
    25
100
AcDbLine
 10
112.5457586156976
 20
-15.56501794665415
 30
0.0
 11
112.5457586156976
 21
-22.50094167345393
 31
0.0
  0
LINE
  5
1C6
330
70
100
AcDbEntity
  8
0
 62
    18
420
        0
370
    25
100
AcDbLine
 10
113.5457572436976
 20
-22.50094084975429
 30
0.0
 11
113.5457572436976
 21
-14.98772946325447
 31
0.0
  0
SPLINE
  5
1C7
330
70
100
AcDbEntity
  8
0
 62
    18
420
        0
370
    25
100
AcDbSpline
210
0.0
220
0.0
230
1.0
 70
     8
 71
     3
 72
     8
 73
     4
 74
     0
 42
0.0000000001
 43
0.0000000001
 40
0.0
 40
0.0
 40
0.0
 40
0.0
 40
1.0
 40
1.0
 40
1.0
 40
1.0
 10
113.5457572437066
 20
-22.50094084974466
 30
0.0
 10
113.5734699701297
 20
-23.07239003894487
 30
0.0
 10
113.8753705351807
 20
-23.59530442261484
 30
0.0
 10
114.3563999595548
 20
-23.90503473099529
 30
0.0
  0
SPLINE
  5
1C8
330
70
100
AcDbEntity
  8
0
 62
    18
420
        0
370
    25
100
AcDbSpline
210
0.0
220
0.0
230
1.0
 70
     8
 71
     3
 72
     8
 73
     4
 74
     0
 42
0.0000000001
 43
0.0000000001
 40
0.0
 40
0.0
 40
0.0
 40
0.0
 40
1.0
 40
1.0
 40
1.0
 40
1.0
 10
112.5457586157323
 20
-22.50094167345457
 30
0.0
 10
112.5751351805988
 20
-23.42933757428787
 30
0.0
 10
113.067109638446
 20
-24.28145267266464
 30
0.0
 10
113.8564405972997
 20
-24.77108372625766
 30
0.0
  0
LINE
  5
1C9
330
70
100
AcDbEntity
  8
0
 62
    18
420
        0
370
    25
100
AcDbLine
 10
186.6741213434974
 20
-52.91569024255434
 30
0.0
 11
186.6741213434974
 21
-59.85161396935411
 31
0.0
  0
LINE
  5
1CA
330
70
100
AcDbEntity
  8
0
 62
    18
420
        0
370
    25
100
AcDbLine
 10
187.6741198617976
 20
-59.85161320905433
 30
0.0
 11
187.6741198617976
 21
-52.33840182255388
 31
0.0
  0
LWPOLYLINE
  5
1CB
330
70
100
AcDbEntity
  8
0
 62
    18
420
        0
370
    25
100
AcDbPolyline
 90
        8
 70
     0
 43
0.0
 10
186.6741213434974
 20
-59.85161396935411
 10
186.6684025429977
 20
-59.94829084375402
 10
186.6380392508977
 20
-60.06716653405417
 10
186.6150793160979
 20
-60.1039630603543
 10
186.6107781423975
 20
-60.10626820625439
 10
186.563075373398
 20
-60.10702345375404
 10
186.4477471078975
 20
-60.07351186995425
 10
186.3634380447978
 20
-60.03109237745431
  0
SPLINE
  5
1CC
330
70
100
AcDbEntity
  8
0
 62
    18
420
        0
370
    25
100
AcDbSpline
210
0.0
220
0.0
230
1.0
 70
     8
 71
     3
 72
    11
 73
     7
 74
     0
 42
0.0000000001
 43
0.0000000001
 40
0.0
 40
0.0
 40
0.0
 40
0.0
 40
1.0
 40
1.0
 40
1.0
 40
2.0
 40
2.0
 40
2.0
 40
2.0
 10
185.8634789569351
 20
-60.89714121426578
 30
0.0
 10
186.3863997700554
 20
-61.26189694704021
 30
0.0
 10
187.1060037912345
 20
-61.13367881583709
 30
0.0
 10
187.470759524009
 20
-60.61075800271685
 30
0.0
 10
187.6252467642371
 20
-60.38928213265351
 30
0.0
 10
187.6972061228275
 20
-60.12065761605613
 30
0.0
 10
187.6741198617938
 20
-59.85161320900556
 30
0.0
  0
LINE
  5
1CD
330
70
100
AcDbEntity
  8
0
 62
    18
420
        0
370
    25
100
AcDbLine
 10
118.5704859741978
 20
-22.04972325595393
 30
0.0
 11
175.8402243233976
 21
-55.11083947925428
 31
0.0
  0
LINE
  5
1CE
330
70
100
AcDbEntity
  8
0
 62
    18
420
        0
370
    25
100
AcDbLine
 10
179.3559107163977
 20
-57.14040203345434
 30
0.0
 11
181.9600731676974
 21
-58.64375301695393
 31
0.0
  0
LINE
  5
1CF
330
70
100
AcDbEntity
  8
0
 62
    18
420
        0
370
    25
100
AcDbLine
 10
182.9600738811974
 20
-59.22104114085392
 30
0.0
 11
185.8634789568979
 21
-60.89714121425423
 31
0.0
  0
LINE
  5
1D0
330
70
100
AcDbEntity
  8
0
 62
    18
420
        0
370
    25
100
AcDbLine
 10
186.3634380447978
 20
-60.03109237745431
 30
0.0
 11
182.9600730030977
 21
-58.06637155915431
 31
0.0
  0
LINE
  5
1D1
330
70
100
AcDbEntity
  8
0
 62
    18
420
        0
370
    25
100
AcDbLine
 10
181.9600740457977
 20
-57.48908444895399
 30
0.0
 11
180.3559913331976
 21
-56.56306720985415
 31
0.0
  0
LINE
  5
1D2
330
70
100
AcDbEntity
  8
0
 62
    18
420
        0
370
    25
100
AcDbLine
 10
176.8403049401975
 20
-54.53350465555398
 30
0.0
 11
119.0704450620977
 21
-21.18367441905391
 31
0.0
  0
LINE
  5
1D3
330
70
100
AcDbEntity
  8
0
 62
    18
420
        0
370
    25
100
AcDbLine
 10
117.2598037181975
 20
-12.84365763475448
 30
0.0
 11
117.2598037181975
 21
-19.77958136155425
 31
0.0
  0
LINE
  5
1D4
330
70
100
AcDbEntity
  8
0
 62
    18
420
        0
370
    25
100
AcDbLine
 10
118.2598022364978
 20
-19.77958060115437
 30
0.0
 11
118.2598022364978
 21
-12.26636921465391
 31
0.0
  0
SPLINE
  5
1D5
330
70
100
AcDbEntity
  8
0
 62
    18
420
        0
370
    25
100
AcDbSpline
210
0.0
220
0.0
230
1.0
 70
     8
 71
     3
 72
     8
 73
     4
 74
     0
 42
0.0000000001
 43
0.0000000001
 40
0.0
 40
0.0
 40
0.0
 40
0.0
 40
1.0
 40
1.0
 40
1.0
 40
1.0
 10
118.2598022365459
 20
-19.77958060122752
 30
0.0
 10
118.287515400602
 20
-20.3510296726965
 30
0.0
 10
118.5894159101338
 20
-20.87394386580624
 30
0.0
 10
119.0704450621509
 20
-21.18367441911743
 30
0.0
  0
SPLINE
  5
1D6
330
70
100
AcDbEntity
  8
0
 62
    18
420
        0
370
    25
100
AcDbSpline
210
0.0
220
0.0
230
1.0
 70
     8
 71
     3
 72
     8
 73
     4
 74
     0
 42
0.0000000001
 43
0.0000000001
 40
0.0
 40
0.0
 40
0.0
 40
0.0
 40
1.0
 40
1.0
 40
1.0
 40
1.0
 10
117.2598037182129
 20
-19.7795813614811
 30
0.0
 10
117.2891805731024
 20
-20.70797720809853
 30
0.0
 10
117.7811550889226
 20
-21.56009216903684
 30
0.0
 10
118.5704859741753
 20
-22.04972325588399
 30
0.0
  0
LINE
  5
1D7
330
70
100
AcDbEntity
  8
0
 62
    18
420
        0
370
    25
100
AcDbLine
 10
191.3881664459979
 20
-50.19432993065401
 30
0.0
 11
191.3881664459979
 21
-57.13025365745444
 31
0.0
  0
LINE
  5
1D8
330
70
100
AcDbEntity
  8
0
 62
    18
420
        0
370
    25
100
AcDbLine
 10
192.3881654032973
 20
-57.13025264365402
 30
0.0
 11
192.3881654032973
 21
-49.61704125715421
 31
0.0
  0
LWPOLYLINE
  5
1D9
330
70
100
AcDbEntity
  8
0
 62
    18
420
        0
370
    25
100
AcDbPolyline
 90
        8
 70
     0
 43
0.0
 10
191.3881664459979
 20
-57.13025365745444
 10
191.3824476454976
 20
-57.22693053185434
 10
191.3520843533976
 20
-57.34580622215386
 10
191.3291248576977
 20
-57.38260249505409
 10
191.3248232448974
 20
-57.38490789425398
 10
191.2771209149978
 20
-57.38566288835436
 10
191.1617922103974
 20
-57.35215155805393
 10
191.0774835863976
 20
-57.309731812054
  0
SPLINE
  5
1DA
330
70
100
AcDbEntity
  8
0
 62
    18
420
        0
370
    25
100
AcDbSpline
210
0.0
220
0.0
230
1.0
 70
     8
 71
     3
 72
    11
 73
     7
 74
     0
 42
0.0000000001
 43
0.0000000001
 40
0.0
 40
0.0
 40
0.0
 40
0.0
 40
1.0
 40
1.0
 40
1.0
 40
2.0
 40
2.0
 40
2.0
 40
2.0
 10
190.5775236204526
 20
-58.17578115579231
 30
0.0
 10
191.1004452463854
 20
-58.54053674253272
 30
0.0
 10
191.8200498080952
 20
-58.41231783403184
 30
0.0
 10
192.1848053948357
 20
-57.88939620809903
 30
0.0
 10
192.3392921569108
 20
-57.66792059060138
 30
0.0
 10
192.4112513765073
 20
-57.39929659292483
 30
0.0
 10
192.3881654033711
 20
-57.13025264364055
 30
0.0
  0
LINE
  5
1DB
330
70
100
AcDbEntity
  8
0
 62
    18
420
        0
370
    25
100
AcDbLine
 10
123.2845306376979
 20
-19.32836319745415
 30
0.0
 11
180.5542689868977
 21
-52.38947942075386
 31
0.0
  0
LINE
  5
1DC
330
70
100
AcDbEntity
  8
0
 62
    18
420
        0
370
    25
100
AcDbLine
 10
184.0699553798978
 20
-54.41904197505403
 30
0.0
 11
186.6741178311975
 21
-55.92239295845415
 31
0.0
  0
LINE
  5
1DD
330
70
100
AcDbEntity
  8
0
 62
    18
420
        0
370
    25
100
AcDbLine
 10
187.6741185446975
 20
-56.49968108235413
 30
0.0
 11
190.5775236203974
 21
-58.17578115585392
 31
0.0
  0
LINE
  5
1DE
330
70
100
AcDbEntity
  8
0
 62
    18
420
        0
370
    25
100
AcDbLine
 10
191.0774835863976
 20
-57.309731812054
 30
0.0
 11
187.6741185446975
 21
-55.345010993754
 31
0.0
  0
LINE
  5
1DF
330
70
100
AcDbEntity
  8
0
 62
    18
420
        0
370
    25
100
AcDbLine
 10
186.6741195873975
 20
-54.76772388355432
 30
0.0
 11
185.070036874798
 21
-53.84170664445448
 31
0.0
  0
LINE
  5
1E0
330
70
100
AcDbEntity
  8
0
 62
    18
420
        0
370
    25
100
AcDbLine
 10
181.5543504817979
 20
-51.8121440902544
 30
0.0
 11
123.7844906036975
 21
-18.46231385375434
 31
0.0
  0
LINE
  5
1E1
330
70
100
AcDbEntity
  8
0
 62
    18
420
        0
370
    25
100
AcDbLine
 10
121.9738488207975
 20
-10.12229732285416
 30
0.0
 11
121.9738488207975
 21
-17.05822104965394
 31
0.0
  0
LINE
  5
1E2
330
70
100
AcDbEntity
  8
0
 62
    18
420
        0
370
    25
100
AcDbLine
 10
122.9738477780976
 20
-17.05822003585416
 30
0.0
 11
122.9738477780976
 21
-9.545008649354349
 31
0.0
  0
SPLINE
  5
1E3
330
70
100
AcDbEntity
  8
0
 62
    18
420
        0
370
    25
100
AcDbSpline
210
0.0
220
0.0
230
1.0
 70
     8
 71
     3
 72
     8
 73
     4
 74
     0
 42
0.0000000001
 43
0.0000000001
 40
0.0
 40
0.0
 40
0.0
 40
0.0
 40
1.0
 40
1.0
 40
1.0
 40
1.0
 10
122.9738477780764
 20
-17.05822003577844
 30
0.0
 10
123.0015595390511
 20
-17.6296695198785
 30
0.0
 10
123.3034603927634
 20
-18.15258430913371
 30
0.0
 10
123.7844906036827
 20
-18.46231385366771
 30
0.0
  0
SPLINE
  5
1E4
330
70
100
AcDbEntity
  8
0
 62
    18
420
        0
370
    25
100
AcDbSpline
210
0.0
220
0.0
230
1.0
 70
     8
 71
     3
 72
     8
 73
     4
 74
     0
 42
0.0000000001
 43
0.0000000001
 40
0.0
 40
0.0
 40
0.0
 40
0.0
 40
1.0
 40
1.0
 40
1.0
 40
1.0
 10
121.9738488207802
 20
-17.05822104962956
 30
0.0
 10
122.0032254046795
 20
-17.98661692798028
 30
0.0
 10
122.4951997788626
 20
-18.83873202415795
 30
0.0
 10
123.2845306377133
 20
-19.32836319747789
 30
0.0
  0
LINE
  5
1E5
330
70
100
AcDbEntity
  8
0
 62
    18
420
        0
370
    25
100
AcDbLine
 10
192.0994673935974
 20
-45.72457988975408
 30
0.0
 11
166.3934055514975
 21
-60.56437351725428
 31
0.0
  0
LINE
  5
1E6
330
70
100
AcDbEntity
  8
0
 62
    18
420
        0
370
    25
100
AcDbLine
 10
167.620718267898
 20
-63.91498459715427
 30
0.0
 11
193.3267801099979
 21
-49.07519096965407
 31
0.0
  0
LWPOLYLINE
  5
1E7
330
70
100
AcDbEntity
  8
0
 62
    18
420
        0
370
    25
100
AcDbPolyline
 90
        3
 70
     0
 43
0.0
 10
193.6488259355974
 20
-42.59780663435414
 10
193.6265170817978
 20
-42.57998026505442
 10
193.3267809879975
 20
-42.39091326685403
  0
LINE
  5
1E8
330
70
100
AcDbEntity
  8
0
 62
    18
420
        0
370
    25
100
AcDbLine
 10
194.8257714118977
 20
-46.95786353685414
 30
0.0
 11
194.8257714118977
 21
-44.50824120665396
 31
0.0
  0
SPLINE
  5
1E9
330
70
100
AcDbEntity
  8
0
 62
    18
420
        0
370
    25
100
AcDbSpline
210
0.0
220
0.0
230
1.0
 70
     8
 71
     3
 72
     8
 73
     4
 74
     0
 42
0.0000000001
 43
0.0000000001
 40
0.0
 40
0.0
 40
0.0
 40
0.0
 40
1.0
 40
1.0
 40
1.0
 40
1.0
 10
192.0994673935333
 20
-45.72457988978937
 30
0.0
 10
192.2571674339422
 20
-45.6417766954464
 30
0.0
 10
192.4022452775702
 20
-45.53689451895212
 30
0.0
 10
192.5303144304959
 20
-45.41310452013421
 30
0.0
  0
SPLINE
  5
1EA
330
70
100
AcDbEntity
  8
0
 62
    18
420
        0
370
    25
100
AcDbSpline
210
0.0
220
0.0
230
1.0
 70
     8
 71
     3
 72
     8
 73
     4
 74
     0
 42
0.0000000001
 43
0.0000000001
 40
0.0
 40
0.0
 40
0.0
 40
0.0
 40
1.0
 40
1.0
 40
1.0
 40
1.0
 10
192.5303144305248
 20
-45.41310452009121
 30
0.0
 10
192.794559997097
 20
-45.20041853098648
 30
0.0
 10
192.9601110047905
 20
-44.8887426826466
 30
0.0
 10
192.9883839413277
 20
-44.55071651431922
 30
0.0
  0
LWPOLYLINE
  5
1EB
330
70
100
AcDbEntity
  8
0
 62
    18
420
        0
370
    25
100
AcDbPolyline
 90
        3
 70
     0
 43
0.0
 10
193.3267801099979
 20
-49.07519096965407
 10
193.585089363898
 20
-48.91432368435398
 10
193.6391119649974
 20
-48.87223781395421
  0
LINE
  5
1EC
330
70
100
AcDbEntity
  8
0
 62
    18
420
        0
370
    25
100
AcDbLine
 10
193.3267809879975
 20
-42.39091326685403
 30
0.0
 11
129.6871681523979
 21
-5.652546775054337
 31
0.0
  0
LINE
  5
1ED
330
70
100
AcDbEntity
  8
0
 62
    18
420
        0
370
    25
100
AcDbLine
 10
128.4598545579979
 20
-9.003158361754111
 30
0.0
 11
192.0847897535977
 21
-45.73305163245419
 31
0.0
  0
LINE
  5
1EE
330
70
100
AcDbEntity
  8
0
 62
    18
420
        0
370
    25
100
AcDbLine
 10
122.6851497682976
 20
-5.652547281954226
 30
0.0
 11
96.97908792629775
 21
-20.49234090945443
 31
0.0
  0
LINE
  5
1EF
330
70
100
AcDbEntity
  8
0
 62
    18
420
        0
370
    25
100
AcDbLine
 10
98.20640064269758
 20
-23.84295198935442
 30
0.0
 11
123.9124624846974
 21
-9.003158361754111
 31
0.0
  0
SPLINE
  5
1F0
330
70
100
AcDbEntity
  8
0
 62
    18
420
        0
370
    25
100
AcDbSpline
210
0.0
220
0.0
230
1.0
 70
     8
 71
     3
 72
     8
 73
     4
 74
     0
 42
0.0000000001
 43
0.0000000001
 40
0.0
 40
0.0
 40
0.0
 40
0.0
 40
1.0
 40
1.0
 40
1.0
 40
1.0
 10
124.0394228414027
 20
-5.098668636777458
 30
0.0
 10
123.5659862162002
 20
-5.224073871755446
 30
0.0
 10
123.1107781896099
 20
-5.410247554171169
 30
0.0
 10
122.6851497683386
 20
-5.652547281882997
 30
0.0
  0
SPLINE
  5
1F1
330
70
100
AcDbEntity
  8
0
 62
    18
420
        0
370
    25
100
AcDbSpline
210
0.0
220
0.0
230
1.0
 70
     8
 71
     3
 72
     8
 73
     4
 74
     0
 42
0.0000000001
 43
0.0000000001
 40
0.0
 40
0.0
 40
0.0
 40
0.0
 40
1.0
 40
1.0
 40
1.0
 40
1.0
 10
129.6871681524659
 20
-5.652546774972199
 30
0.0
 10
129.3311741870946
 20
-5.445033076889399
 30
0.0
 10
128.9504661039674
 20
-5.283173383197856
 30
0.0
 10
128.554028178769
 20
-5.170787397694522
 30
0.0
  0
LINE
  5
1F2
330
70
100
AcDbEntity
  8
0
 62
    18
420
        0
370
    25
100
AcDbLine
 10
128.3912790012975
 20
-8.966737049553964
 30
0.0
 11
128.4598545579979
 21
-9.003158361754111
 31
0.0
  0
LWPOLYLINE
  5
1F3
330
70
100
AcDbEntity
  8
0
 62
    18
420
        0
370
    25
100
AcDbPolyline
 90
        3
 70
     0
 43
0.0
 10
123.9124624846974
 20
-9.003158361754111
 10
124.1253743144979
 20
-8.890969919754036
 10
124.2375630787977
 20
-8.845983391354439
  0
SPLINE
  5
1F4
330
70
100
AcDbEntity
  8
0
 62
    18
420
        0
370
    25
100
AcDbSpline
210
0.0
220
0.0
230
1.0
 70
     8
 71
     3
 72
     8
 73
     4
 74
     0
 42
0.0000000001
 43
0.0000000001
 40
0.0
 40
0.0
 40
0.0
 40
0.0
 40
1.0
 40
1.0
 40
1.0
 40
1.0
 10
136.2623548649289
 20
-6.554723889668742
 30
0.0
 10
135.7577438978377
 20
-7.254443014643445
 30
0.0
 10
135.4516981401573
 20
-8.07757385474755
 30
0.0
 10
135.3766107455754
 20
-8.936992824249502
 30
0.0
  0
LWPOLYLINE
  5
1F5
330
70
100
AcDbEntity
  8
0
 62
    18
420
        0
370
    25
100
AcDbPolyline
 90
       20
 70
     0
 43
0.0
 10
135.8801953404977
 20
-13.28683075985426
 10
136.0869063151975
 20
-13.90969248565389
 10
136.4415176056976
 20
-14.78369894555395
 10
136.8552503879978
 20
-15.64395235845403
 10
137.323570363598
 20
-16.48123835745448
 10
137.8414269350979
 20
-17.28656823655435
 10
138.4032654991975
 20
-18.05121747935395
 10
139.003141594098
 20
-18.76691332805427
 10
139.6347911442974
 20
-19.42587635295438
 10
140.2916954374977
 20
-20.02087874865434
 10
140.9671531244975
 20
-20.54528590385408
 10
141.6543241231977
 20
-20.99308326835412
 10
142.3462735208974
 20
-21.35887889005436
 10
143.0359030857974
 20
-21.63789784395406
 10
143.7155139935975
 20
-21.82597060425401
 10
144.3770000002977
 20
-21.91996595895416
 10
145.0116367084976
 20
-21.91818338005399
 10
145.6104415709977
 20
-21.82096180135406
 10
146.1651573175978
 20
-21.63089849875388
 10
146.2927814871975
 20
-21.5603399832544
  0
LINE
  5
1F6
330
70
100
AcDbEntity
  8
0
 62
    18
420
        0
370
    25
100
AcDbLine
 10
146.4763538419978
 20
-21.472676565754
 30
0.0
 11
147.5039800584978
 21
-20.87944057835403
 31
0.0
  0
LINE
  5
1F7
330
70
100
AcDbEntity
  8
0
 62
    18
420
        0
370
    25
100
AcDbLine
 10
138.3380590561979
 20
-5.001878062854323
 30
0.0
 11
137.3104328396979
 21
-5.595114050254287
 31
0.0
  0
LWPOLYLINE
  5
1F8
330
70
100
AcDbEntity
  8
0
 62
    18
420
        0
370
    25
100
AcDbPolyline
 90
        8
 70
     0
 43
0.0
 10
177.5784766988977
 20
-28.63030461095444
 10
177.2019349980979
 20
-28.83847492335439
 10
176.752795350898
 20
-29.20141852565443
 10
176.3626595353977
 20
-29.64384578445433
 10
176.0343171461977
 20
-30.1620483722539
 10
175.7708765134974
 20
-30.75204123925442
 10
175.5756610917975
 20
-31.40834794605388
 10
175.4596597937975
 20
-32.07644475565423
  0
LWPOLYLINE
  5
1F9
330
70
100
AcDbEntity
  8
0
 62
    18
420
        0
370
    25
100
AcDbPolyline
 90
       18
 70
     0
 43
0.0
 10
175.9730751411975
 20
-36.43195764455439
 10
176.1284969133977
 20
-36.91467854065419
 10
176.4748544460976
 20
-37.78982188525387
 10
176.8809024529975
 20
-38.65246005125403
 10
177.3421786365974
 20
-39.49335686395389
 10
177.8536973756978
 20
-40.30348837495442
 10
178.4099690435976
 20
-41.07409153045392
 10
179.0050948373978
 20
-41.79682208435412
 10
179.6328528285974
 20
-42.46383368025398
 10
180.2867559148974
 20
-43.06782094155424
 10
180.9601150401979
 20
-43.60206813625444
 10
181.6461164637976
 20
-44.06047756615411
 10
182.3378322976976
 20
-44.43757159615418
 10
183.0281941640979
 20
-44.72849316555435
 10
183.7096086056978
 20
-44.92898452365434
 10
184.3740220623974
 20
-45.03574766265399
 10
185.0127874055979
 20
-45.04685594765397
 10
185.1862392483976
 20
-45.02259108785423
  0
LINE
  5
1FA
330
70
100
AcDbEntity
  8
0
 62
    18
420
        0
370
    25
100
AcDbLine
 10
186.5608253462978
 20
-44.59553054405401
 30
0.0
 11
187.5884515627978
 21
-44.00229455665405
 31
0.0
  0
LINE
  5
1FB
330
70
100
AcDbEntity
  8
0
 62
    18
420
        0
370
    25
100
AcDbLine
 10
178.4225305605974
 20
-28.12473204115434
 30
0.0
 11
177.394904343998
 21
-28.7179680285543
 31
0.0
  0
LINE
  5
1FC
330
70
100
AcDbEntity
  8
0
 62
    18
420
        0
370
    25
100
AcDbLine
 10
167.5072571955976
 20
-66.83383016385438
 30
0.0
 11
167.5020801576975
 21
-66.83096222605392
 31
0.0
  0
LINE
  5
1FD
330
70
100
AcDbEntity
  8
0
 62
    18
420
        0
370
    25
100
AcDbLine
 10
172.2213022981976
 20
-68.19517356665397
 30
0.0
 11
172.2161252602975
 21
-68.19230562875404
 31
0.0
  0
SPLINE
  5
1FE
330
70
100
AcDbEntity
  8
0
 62
    18
420
        0
370
    25
100
AcDbSpline
210
0.0
220
0.0
230
1.0
 70
     8
 71
     3
 72
     8
 73
     4
 74
     0
 42
0.0000000001
 43
0.0000000001
 40
0.0
 40
0.0
 40
0.0
 40
0.0
 40
1.0
 40
1.0
 40
1.0
 40
1.0
 10
166.3271252419127
 20
-63.10863470031729
 30
0.0
 10
166.36303912114
 20
-63.18273118802446
 30
0.0
 10
166.4201639837499
 20
-63.24448265291034
 30
0.0
 10
166.4912450700142
 20
-63.28604676468091
 30
0.0
  0
SPLINE
  5
1FF
330
70
100
AcDbEntity
  8
0
 62
    18
420
        0
370
    25
100
AcDbSpline
210
0.0
220
0.0
230
1.0
 70
     8
 71
     3
 72
     8
 73
     4
 74
     0
 42
0.0000000001
 43
0.0000000001
 40
0.0
 40
0.0
 40
0.0
 40
0.0
 40
1.0
 40
1.0
 40
1.0
 40
1.0
 10
166.3271252420006
 20
-60.65901237005358
 30
0.0
 10
166.0725678941878
 20
-61.45571352420734
 30
0.0
 10
166.0725678941878
 20
-62.31193354610064
 30
0.0
 10
166.3271252420006
 20
-63.10863470025504
 30
0.0
  0
LWPOLYLINE
  5
200
330
70
100
AcDbEntity
  8
0
 62
    18
420
        0
370
    25
100
AcDbPolyline
 90
        6
 70
     0
 43
0.0
 10
166.4912450700976
 20
-60.56424411915442
 10
166.4519484021979
 20
-60.5512122517539
 10
166.4124085118974
 20
-60.55569709125393
 10
166.3756406548975
 20
-60.57714424025432
 10
166.3447206730976
 20
-60.61560169195436
 10
166.3271252419974
 20
-60.65901237005422
  0
LINE
  5
201
330
70
100
AcDbEntity
  8
0
 62
    18
420
        0
370
    25
100
AcDbLine
 10
167.5519056351975
 20
-61.17655043015414
 30
0.0
 11
166.4912450700976
 21
-60.56424411915442
 31
0.0
  0
SPLINE
  5
202
330
70
100
AcDbEntity
  8
0
 62
    18
420
        0
370
    25
100
AcDbSpline
210
0.0
220
0.0
230
1.0
 70
     8
 71
     3
 72
     8
 73
     4
 74
     0
 42
0.0000000001
 43
0.0000000001
 40
0.0
 40
0.0
 40
0.0
 40
0.0
 40
1.0
 40
1.0
 40
1.0
 40
1.0
 10
167.6234885451173
 20
-61.40738697544721
 30
0.0
 10
167.6532003049814
 20
-61.32307611672861
 30
0.0
 10
167.6241070417543
 20
-61.22925779643899
 30
0.0
 10
167.551905635159
 20
-61.17655043018238
 30
0.0
  0
SPLINE
  5
203
330
70
100
AcDbEntity
  8
0
 62
    18
420
        0
370
    25
100
AcDbSpline
210
0.0
220
0.0
230
1.0
 70
     8
 71
     3
 72
     8
 73
     4
 74
     0
 42
0.0000000001
 43
0.0000000001
 40
0.0
 40
0.0
 40
0.0
 40
0.0
 40
1.0
 40
1.0
 40
1.0
 40
1.0
 10
167.6234885452008
 20
-61.40738697545362
 30
0.0
 10
167.3689311973886
 20
-62.20408812960739
 30
0.0
 10
167.3689311973886
 20
-63.06030815150069
 30
0.0
 10
167.6234885452008
 20
-63.85700930565445
 30
0.0
  0
LWPOLYLINE
  5
204
330
70
100
AcDbEntity
  8
0
 62
    18
420
        0
370
    25
100
AcDbPolyline
 90
        6
 70
     0
 43
0.0
 10
167.5519056351975
 20
-63.89835307565433
 10
167.5862957074977
 20
-63.9142174604544
 10
167.6120623588973
 20
-63.91768374245416
 10
167.6276408877974
 20
-63.90846893215394
 10
167.6312286382975
 20
-63.88579409685398
 10
167.6234885451975
 20
-63.85700930565445
  0
LINE
  5
205
330
70
100
AcDbEntity
  8
0
 62
    18
420
        0
370
    25
100
AcDbLine
 10
167.5519056351975
 20
-63.89835307565433
 30
0.0
 11
166.4912450700976
 21
-63.28604676465396
 31
0.0
  0
LINE
  5
206
330
70
100
AcDbEntity
  8
0
 62
    18
420
        0
370
    25
100
AcDbLine
 10
193.3613054033978
 20
-46.54926156725427
 30
0.0
 11
167.6234885451975
 21
-61.40738697545426
 31
0.0
  0
LINE
  5
207
330
70
100
AcDbEntity
  8
0
 62
    18
420
        0
370
    25
100
AcDbLine
 10
193.3613054033978
 20
-46.54926156725427
 30
0.0
 11
193.3613054033978
 21
-48.99888389745445
 31
0.0
  0
LINE
  5
208
330
70
100
AcDbEntity
  8
0
 62
    18
420
        0
370
    25
100
AcDbLine
 10
167.6234885451975
 20
-63.85700930565445
 30
0.0
 11
193.3613054033978
 21
-48.99888389745445
 31
0.0
  0
LINE
  5
209
330
70
100
AcDbEntity
  8
0
 62
    18
420
        0
370
    25
100
AcDbLine
 10
167.5519056351975
 20
-61.17655043015414
 30
0.0
 11
193.2434522781976
 21
-46.34513624865439
 31
0.0
  0
SPLINE
  5
20A
330
70
100
AcDbEntity
  8
0
 62
    18
420
        0
370
    25
100
AcDbSpline
210
0.0
220
0.0
230
1.0
 70
     8
 71
     3
 72
     8
 73
     4
 74
     0
 42
0.0000000001
 43
0.0000000001
 40
0.0
 40
0.0
 40
0.0
 40
0.0
 40
1.0
 40
1.0
 40
1.0
 40
1.0
 10
193.3613054033342
 20
-46.54926156723631
 30
0.0
 10
193.3575200734316
 20
-46.46611286831216
 30
0.0
 10
193.3135689330346
 20
-46.38998811111901
 30
0.0
 10
193.2434522781861
 20
-46.34513624863642
 30
0.0
  0
LINE
  5
20B
330
70
100
AcDbEntity
  8
0
 62
    18
420
        0
370
    25
100
AcDbLine
 10
192.1827917130978
 20
-45.73282993775412
 30
0.0
 11
166.4912450700976
 21
-60.56424411915442
 31
0.0
  0
LINE
  5
20C
330
70
100
AcDbEntity
  8
0
 62
    18
420
        0
370
    25
100
AcDbLine
 10
193.2434522781976
 20
-46.34513624865439
 30
0.0
 11
192.1827917130978
 21
-45.73282993775412
 31
0.0
  0
LWPOLYLINE
  5
20D
330
70
100
AcDbEntity
  8
0
 62
    18
420
        0
370
    25
100
AcDbPolyline
 90
       11
 70
     0
 43
0.0
 10
193.6847306601974
 20
-42.6728262248543
 10
193.8708564115977
 20
-42.81163478215392
 10
194.2808021238975
 20
-43.19782378725441
 10
194.5810510042977
 20
-43.61628108565442
 10
194.7642133053976
 20
-44.05670255895404
 10
194.8257714118977
 20
-44.50824120665396
 10
194.764212427398
 20
-44.959779347454
 10
194.5810518823974
 20
-45.40019879315406
 10
194.2808012458979
 20
-45.81865507765419
 10
193.8708546554978
 20
-46.20484560355443
 10
193.7679487344977
 20
-46.28373688905401
  0
LWPOLYLINE
  5
20E
330
70
100
AcDbEntity
  8
0
 62
    18
420
        0
370
    25
100
AcDbPolyline
 90
       11
 70
     0
 43
0.0
 10
193.2434522781976
 20
-46.34513624865439
 10
193.7360189844979
 20
-46.01220292905408
 10
194.1323003373978
 20
-45.63888494765398
 10
194.4225437315978
 20
-45.23437683425405
 10
194.599598251898
 20
-44.80863801985432
 10
194.6591034555979
 20
-44.37215003525423
 10
194.5995973737977
 20
-43.93566357125434
 10
194.4225428534975
 20
-43.50992374305419
 10
194.1323003373978
 20
-43.10541410895395
 10
193.7360198625976
 20
-42.73209866195449
 10
193.2434540342975
 20
-42.39916483555439
  0
SPLINE
  5
20F
330
70
100
AcDbEntity
  8
0
 62
    18
420
        0
370
    25
100
AcDbSpline
210
0.0
220
0.0
230
1.0
 70
     8
 71
     3
 72
     8
 73
     4
 74
     0
 42
0.0000000001
 43
0.0000000001
 40
0.0
 40
0.0
 40
0.0
 40
0.0
 40
1.0
 40
1.0
 40
1.0
 40
1.0
 10
193.6775692082158
 20
-48.7982835787087
 30
0.0
 10
194.3353493016404
 20
-48.40653131648631
 30
0.0
 10
194.7631043142899
 20
-47.72089520136532
 30
0.0
 10
194.8257714119022
 20
-46.95786353679317
 30
0.0
  0
LWPOLYLINE
  5
210
330
70
100
AcDbEntity
  8
0
 62
    18
420
        0
370
    25
100
AcDbPolyline
 90
        9
 70
     0
 43
0.0
 10
192.1827943472974
 20
-43.01147063955412
 10
192.5973375782978
 20
-43.30307140765416
 10
192.9053678206978
 20
-43.63575533595437
 10
193.0950558587977
 20
-43.99674061385399
 10
193.1591032634978
 20
-44.37215054205402
 10
193.0950532245975
 20
-44.74755996345424
 10
192.9053695767977
 20
-45.1085457482544
 10
192.5973340660974
 20
-45.4412286627542
 10
192.1827917130978
 20
-45.73282993775412
  0
LINE
  5
211
330
70
100
AcDbEntity
  8
0
 62
    18
420
        0
370
    25
100
AcDbLine
 10
192.1827943472974
 20
-43.01147063955412
 30
0.0
 11
193.2434540342975
 21
-42.39916483555439
 31
0.0
  0
LINE
  5
212
330
70
100
AcDbEntity
  8
0
 62
    18
420
        0
370
    25
100
AcDbLine
 10
192.991379001798
 20
-44.55549984265444
 30
0.0
 11
192.9924353070979
 21
-44.50823968595429
 31
0.0
  0
SPLINE
  5
213
330
70
100
AcDbEntity
  8
0
 62
    18
420
        0
370
    25
100
AcDbSpline
210
0.0
220
0.0
230
1.0
 70
     8
 71
     3
 72
     8
 73
     4
 74
     0
 42
0.0000000001
 43
0.0000000001
 40
0.0
 40
0.0
 40
0.0
 40
0.0
 40
1.0
 40
1.0
 40
1.0
 40
1.0
 10
192.1827943472723
 20
-43.01147063955669
 30
0.0
 10
192.112677449791
 20
-43.05632155416446
 30
0.0
 10
192.0687266505693
 20
-43.13244647669264
 30
0.0
 10
192.0649429782427
 20
-43.21559494437155
 30
0.0
  0
LINE
  5
214
330
70
100
AcDbEntity
  8
0
 62
    18
420
        0
370
    25
100
AcDbLine
 10
192.0649429781978
 20
-43.21559494435423
 30
0.0
 11
192.0649429781978
 21
-45.66521727465388
 31
0.0
  0
LINE
  5
215
330
70
100
AcDbEntity
  8
0
 62
    18
420
        0
370
    25
100
AcDbLine
 10
128.5431815116978
 20
-6.273104147754425
 30
0.0
 11
192.1827943472974
 21
-43.01147063955412
 31
0.0
  0
LINE
  5
216
330
70
100
AcDbEntity
  8
0
 62
    18
420
        0
370
    25
100
AcDbLine
 10
192.0649429781978
 20
-43.21559494435423
 30
0.0
 11
128.4253301425976
 21
-6.477228452553894
 31
0.0
  0
SPLINE
  5
217
330
70
100
AcDbEntity
  8
0
 62
    18
420
        0
370
    25
100
AcDbSpline
210
0.0
220
0.0
230
1.0
 70
     8
 71
     3
 72
     8
 73
     4
 74
     0
 42
0.0000000001
 43
0.0000000001
 40
0.0
 40
0.0
 40
0.0
 40
0.0
 40
1.0
 40
1.0
 40
1.0
 40
1.0
 10
128.5431815116728
 20
-6.273104147756351
 30
0.0
 10
128.4730646141915
 20
-6.317955062364753
 30
0.0
 10
128.4291138149691
 20
-6.394079984892948
 30
0.0
 10
128.4253301426425
 20
-6.477228452571219
 30
0.0
  0
LINE
  5
218
330
70
100
AcDbEntity
  8
0
 62
    18
420
        0
370
    25
100
AcDbLine
 10
128.4253301425976
 20
-8.926850782754073
 30
0.0
 11
192.0649429781978
 21
-45.66521727465388
 31
0.0
  0
LINE
  5
219
330
70
100
AcDbEntity
  8
0
 62
    18
420
        0
370
    25
100
AcDbLine
 10
128.4253301425976
 20
-6.477228452553894
 30
0.0
 11
128.4253301425976
 21
-8.926850782754073
 31
0.0
  0
LWPOLYLINE
  5
21A
330
70
100
AcDbEntity
  8
0
 62
    18
420
        0
370
    25
100
AcDbPolyline
 90
       22
 70
     0
 43
0.0
 10
181.2226381008977
 20
-38.18127673315391
 10
181.1807511578976
 20
-37.83618973285412
 10
181.0588133006976
 20
-37.47340425975433
 10
180.8676597814975
 20
-37.12515566755398
 10
180.6242757802974
 20
-36.82238765725418
 10
180.3502843864975
 20
-36.59200090545414
 10
180.0700341856977
 20
-36.4544680837539
 10
179.8084234286974
 20
-36.42200787485445
 10
179.5887013706976
 20
-36.49750671535413
 10
179.4303872708979
 20
-36.67425397025449
 10
179.3475493962974
 20
-36.9365456002539
 10
179.3475493962974
 20
-37.26107652955425
 10
179.4303872708979
 20
-37.6190107338542
 10
179.5887013706976
 20
-37.97854355755418
 10
179.8084234286974
 20
-38.30772808635435
 10
180.0700341856977
 20
-38.57731722825431
 10
180.3502843864975
 20
-38.76335440105414
 10
180.6242757802974
 20
-38.84931137895425
 10
180.8676597814975
 20
-38.82754855505413
 10
181.0588133006976
 20
-38.70000111845424
 10
181.1807511578976
 20
-38.47800209855434
 10
181.2226381008977
 20
-38.18127673315391
  0
LWPOLYLINE
  5
21B
330
70
100
AcDbEntity
  8
0
 62
    18
420
        0
370
    25
100
AcDbPolyline
 90
       22
 70
     0
 43
0.0
 10
141.1532534121974
 20
-15.04971332155417
 10
141.1113664691974
 20
-14.70462632125438
 10
140.9894303680978
 20
-14.34184186185426
 10
140.7982768489978
 20
-13.99359326975401
 10
140.5548910915978
 20
-13.69082424565445
 10
140.2809014538978
 20
-13.46043850765418
 10
140.0006494969974
 20
-13.32290467215416
 10
139.7390404960977
 20
-13.29044547695439
 10
139.5193166818979
 20
-13.3659433037544
 10
139.3610025821976
 20
-13.5426905586541
 10
139.2781664636976
 20
-13.80498320245394
 10
139.2781664636976
 20
-14.12951413165418
 10
139.3610025821976
 20
-14.48744732225446
 10
139.5193166818979
 20
-14.84698014585434
 10
139.7390404960977
 20
-15.17616568855439
 10
140.000649496998
 20
-15.44575381665393
 10
140.2809014538978
 20
-15.63179200315408
 10
140.5548910915978
 20
-15.71774796735387
 10
140.7982768489978
 20
-15.69598615725417
 10
140.9894303680978
 20
-15.56843872055417
 10
141.1113664691974
 20
-15.34643868695396
 10
141.1532534121974
 20
-15.04971332155417
  0
LINE
  5
21C
330
70
100
AcDbEntity
  8
0
 62
    18
420
        0
370
    25
100
AcDbLine
 10
129.603841198698
 20
-5.660798343653944
 30
0.0
 11
128.5431815116978
 21
-6.273104147754425
 31
0.0
  0
LINE
  5
21D
330
70
100
AcDbEntity
  8
0
 62
    18
420
        0
370
    25
100
AcDbLine
 10
193.2434540342975
 20
-42.39916483555439
 30
0.0
 11
129.603841198698
 21
-5.660798343653944
 31
0.0
  0
LWPOLYLINE
  5
21E
330
70
100
AcDbEntity
  8
0
 62
    18
420
        0
370
    25
100
AcDbPolyline
 90
       11
 70
     0
 43
0.0
 10
180.4651020604978
 20
-36.67646752845407
 10
180.3964026974977
 20
-36.70370621425403
 10
180.2814418997978
 20
-36.83601943595429
 10
180.2410722433979
 20
-37.04707200275417
 10
180.2814418997978
 20
-37.30473438285429
 10
180.3964026974977
 20
-37.56977851625395
 10
180.568453157598
 20
-37.80185399895413
 10
180.7714025259978
 20
-37.96563074085396
 10
180.9743501382978
 20
-38.03617333825413
 10
181.1464023544979
 20
-38.00274410225402
 10
181.2042647090979
 20
-37.95693044795386
  0
LWPOLYLINE
  5
21F
330
70
100
AcDbEntity
  8
0
 62
    18
420
        0
370
    25
100
AcDbPolyline
 90
        6
 70
     0
 43
0.0
 10
97.07693095709768
 20
-20.49221353895412
 10
97.03763428919735
 20
-20.47918167145414
 10
96.99809439889746
 20
-20.48366651095417
 10
96.9613265418976
 20
-20.50511365995392
 10
96.93040304789784
 20
-20.54356908415387
 10
96.91280761669755
 20
-20.58697976225436
  0
LINE
  5
220
330
70
100
AcDbEntity
  8
0
 62
    18
420
        0
370
    25
100
AcDbLine
 10
98.13759152219818
 20
-21.10451984985438
 30
0.0
 11
97.07693095709768
 21
-20.49221353895412
 31
0.0
  0
SPLINE
  5
221
330
70
100
AcDbEntity
  8
0
 62
    18
420
        0
370
    25
100
AcDbSpline
210
0.0
220
0.0
230
1.0
 70
     8
 71
     3
 72
     8
 73
     4
 74
     0
 42
0.0000000001
 43
0.0000000001
 40
0.0
 40
0.0
 40
0.0
 40
0.0
 40
1.0
 40
1.0
 40
1.0
 40
1.0
 10
98.209170919976
 20
-21.33535436758704
 30
0.0
 10
98.23888570324299
 20
-21.25104493227819
 30
0.0
 10
98.20979341519242
 20
-21.15722597745923
 30
0.0
 10
98.13759152225529
 20
-21.10451984989353
 30
0.0
  0
SPLINE
  5
222
330
70
100
AcDbEntity
  8
0
 62
    18
420
        0
370
    25
100
AcDbSpline
210
0.0
220
0.0
230
1.0
 70
     8
 71
     3
 72
     8
 73
     4
 74
     0
 42
0.0000000001
 43
0.0000000001
 40
0.0
 40
0.0
 40
0.0
 40
0.0
 40
1.0
 40
1.0
 40
1.0
 40
1.0
 10
98.20917091990027
 20
-21.33535436755367
 30
0.0
 10
97.95461357208813
 20
-22.13205552170743
 30
0.0
 10
97.95461357208813
 20
-22.98827554360073
 30
0.0
 10
98.20917091990027
 20
-23.78497669775513
 30
0.0
  0
LWPOLYLINE
  5
223
330
70
100
AcDbEntity
  8
0
 62
    18
420
        0
370
    25
100
AcDbPolyline
 90
        6
 70
     0
 43
0.0
 10
98.13759152219818
 20
-23.82632249535393
 10
98.17198159449775
 20
-23.84218688015399
 10
98.19774824589742
 20
-23.84565316215441
 10
98.21332677479812
 20
-23.83643835185418
 10
98.21691101299769
 20
-23.81376148905412
 10
98.2091709198977
 20
-23.78497669775449
  0
LINE
  5
224
330
70
100
AcDbEntity
  8
0
 62
    18
420
        0
370
    25
100
AcDbLine
 10
98.13759152219818
 20
-23.82632249535393
 30
0.0
 11
97.07693095709768
 21
-23.2140161843542
 31
0.0
  0
SPLINE
  5
225
330
70
100
AcDbEntity
  8
0
 62
    18
420
        0
370
    25
100
AcDbSpline
210
0.0
220
0.0
230
1.0
 70
     8
 71
     3
 72
     8
 73
     4
 74
     0
 42
0.0000000001
 43
0.0000000001
 40
0.0
 40
0.0
 40
0.0
 40
0.0
 40
1.0
 40
1.0
 40
1.0
 40
1.0
 10
96.91280761676431
 20
-23.03660209239358
 30
0.0
 10
96.94872338131691
 20
-23.1106989465616
 30
0.0
 10
97.0058492387913
 20
-23.17245087111383
 30
0.0
 10
97.07693095710345
 20
-23.21401618432917
 30
0.0
  0
SPLINE
  5
226
330
70
100
AcDbEntity
  8
0
 62
    18
420
        0
370
    25
100
AcDbSpline
210
0.0
220
0.0
230
1.0
 70
     8
 71
     3
 72
     8
 73
     4
 74
     0
 42
0.0000000001
 43
0.0000000001
 40
0.0
 40
0.0
 40
0.0
 40
0.0
 40
1.0
 40
1.0
 40
1.0
 40
1.0
 10
96.91280761670013
 20
-20.58697976225372
 30
0.0
 10
96.65825026888798
 20
-21.38368091640749
 30
0.0
 10
96.65825026888798
 20
-22.23990093830078
 30
0.0
 10
96.91280761670013
 20
-23.03660209245519
 30
0.0
  0
LINE
  5
227
330
70
100
AcDbEntity
  8
0
 62
    18
420
        0
370
    25
100
AcDbLine
 10
123.9469877780979
 20
-6.477228959454424
 30
0.0
 11
98.2091709198977
 21
-21.33535436755431
 31
0.0
  0
LINE
  5
228
330
70
100
AcDbEntity
  8
0
 62
    18
420
        0
370
    25
100
AcDbLine
 10
123.9469877780979
 20
-6.477228959454424
 30
0.0
 11
123.9469877780979
 21
-8.92685128965396
 31
0.0
  0
LINE
  5
229
330
70
100
AcDbEntity
  8
0
 62
    18
420
        0
370
    25
100
AcDbLine
 10
98.2091709198977
 20
-23.78497669775449
 30
0.0
 11
123.9469877780979
 21
-8.92685128965396
 31
0.0
  0
LINE
  5
22A
330
70
100
AcDbEntity
  8
0
 62
    18
420
        0
370
    25
100
AcDbLine
 10
98.13759152219818
 20
-21.10451984985438
 30
0.0
 11
123.8291381651977
 21
-6.273105668353987
 31
0.0
  0
SPLINE
  5
22B
330
70
100
AcDbEntity
  8
0
 62
    18
420
        0
370
    25
100
AcDbSpline
210
0.0
220
0.0
230
1.0
 70
     8
 71
     3
 72
     8
 73
     4
 74
     0
 42
0.0000000001
 43
0.0000000001
 40
0.0
 40
0.0
 40
0.0
 40
0.0
 40
1.0
 40
1.0
 40
1.0
 40
1.0
 10
123.9469877781505
 20
-6.477228959435815
 30
0.0
 10
123.9432041253271
 20
-6.394081202104263
 30
0.0
 10
123.8992540714099
 20
-6.317956814209548
 30
0.0
 10
123.8291381652394
 20
-6.273105668406606
 30
0.0
  0
LINE
  5
22C
330
70
100
AcDbEntity
  8
0
 62
    18
420
        0
370
    25
100
AcDbLine
 10
122.7684776000978
 20
-5.660799357454363
 30
0.0
 11
97.07693095709768
 21
-20.49221353895412
 31
0.0
  0
LINE
  5
22D
330
70
100
AcDbEntity
  8
0
 62
    18
420
        0
370
    25
100
AcDbLine
 10
123.8291381651977
 20
-6.273105668353987
 30
0.0
 11
122.7684776000978
 21
-5.660799357454363
 31
0.0
  0
LWPOLYLINE
  5
22E
330
70
100
AcDbEntity
  8
0
 62
    18
420
        0
370
    25
100
AcDbPolyline
 90
       11
 70
     0
 43
0.0
 10
140.3957173717976
 20
-13.54490411685433
 10
140.3270180087975
 20
-13.57214280265429
 10
140.2120572110975
 20
-13.7044560243539
 10
140.1716875546976
 20
-13.91550859115442
 10
140.2120572110975
 20
-14.17317097115444
 10
140.3270180087975
 20
-14.43821510465421
 10
140.4990702249977
 20
-14.67029160105406
 10
140.7020178372976
 20
-14.83406732925422
 10
140.9049672056974
 20
-14.90461094045417
 10
141.0770176657976
 20
-14.87118069065428
 10
141.1349010937979
 20
-14.82534510765434
  0
SPLINE
  5
22F
330
70
100
AcDbEntity
  8
0
 62
    18
420
        0
370
    25
100
AcDbSpline
210
0.0
220
0.0
230
1.0
 70
     8
 71
     3
 72
     8
 73
     4
 74
     0
 42
0.0000000001
 43
0.0000000001
 40
0.0
 40
0.0
 40
0.0
 40
0.0
 40
1.0
 40
1.0
 40
1.0
 40
1.0
 10
128.5431815116619
 20
-6.273104147678705
 30
0.0
 10
127.0651434187505
 20
-5.5072786353157
 30
0.0
 10
125.3071757640598
 20
-5.507279202409526
 30
0.0
 10
123.8291381652355
 20
-6.273105668357196
 30
0.0
  0
SPLINE
  5
230
330
70
100
AcDbEntity
  8
0
 62
    18
420
        0
370
    25
100
AcDbSpline
210
0.0
220
0.0
230
1.0
 70
     8
 71
     3
 72
     8
 73
     4
 74
     0
 42
0.0000000001
 43
0.0000000001
 40
0.0
 40
0.0
 40
0.0
 40
0.0
 40
1.0
 40
1.0
 40
1.0
 40
1.0
 10
128.4983917044725
 20
-5.183561241188437
 30
0.0
 10
127.0842828804608
 20
-4.7548081373897
 30
0.0
 10
125.5789145239452
 20
-4.727006884528525
 30
0.0
 10
124.1499389026303
 20
-5.103253696940622
 30
0.0
  0
SPLINE
  5
231
330
70
100
AcDbEntity
  8
0
 62
    18
420
        0
370
    25
100
AcDbSpline
210
0.0
220
0.0
230
1.0
 70
     8
 71
     3
 72
     8
 73
     4
 74
     0
 42
0.0000000001
 43
0.0000000001
 40
0.0
 40
0.0
 40
0.0
 40
0.0
 40
1.0
 40
1.0
 40
1.0
 40
1.0
 10
128.4253301425886
 20
-6.477228452542984
 30
0.0
 10
127.0211930733197
 20
-5.749696444544731
 30
0.0
 10
125.3511246826811
 20
-5.749696633575151
 30
0.0
 10
123.9469877781069
 20
-6.477228959433889
 30
0.0
  0
SPLINE
  5
232
330
70
100
AcDbEntity
  8
0
 62
    18
420
        0
370
    25
100
AcDbSpline
210
0.0
220
0.0
230
1.0
 70
     8
 71
     3
 72
     8
 73
     4
 74
     0
 42
0.0000000001
 43
0.0000000001
 40
0.0
 40
0.0
 40
0.0
 40
0.0
 40
1.0
 40
1.0
 40
1.0
 40
1.0
 10
128.4253301425886
 20
-8.926850782743162
 30
0.0
 10
127.0211930733197
 20
-8.199318774744909
 30
0.0
 10
125.3511246826811
 20
-8.199318963775329
 30
0.0
 10
123.9469877781075
 20
-8.926851289634068
 30
0.0
  0
SPLINE
  5
233
330
70
100
AcDbEntity
  8
0
 62
    18
420
        0
370
    25
100
AcDbSpline
210
0.0
220
0.0
230
1.0
 70
     8
 71
     3
 72
     8
 73
     4
 74
     0
 42
0.0000000001
 43
0.0000000001
 40
0.0
 40
0.0
 40
0.0
 40
0.0
 40
1.0
 40
1.0
 40
1.0
 40
1.0
 10
128.4600336820923
 20
-8.948543836806365
 30
0.0
 10
127.1169909162802
 20
-8.295955252093213
 30
0.0
 10
125.5589707971681
 20
-8.248906074064398
 30
0.0
 10
124.1789973986157
 20
-8.819264865515005
 30
0.0
  0
LINE
  5
234
330
70
100
AcDbEntity
  8
0
 62
    18
420
        0
370
    25
100
AcDbLine
 10
146.4763538419978
 20
-21.472676565754
 30
0.0
 11
146.3093329057978
 21
-21.56231228255403
 31
0.0
  0
SPLINE
  5
235
330
70
100
AcDbEntity
  8
0
 62
    18
420
        0
370
    25
100
AcDbSpline
210
0.0
220
0.0
230
1.0
 70
     8
 71
     3
 72
     8
 73
     4
 74
     0
 42
0.0000000001
 43
0.0000000001
 40
0.0
 40
0.0
 40
0.0
 40
0.0
 40
1.0
 40
1.0
 40
1.0
 40
1.0
 10
138.5950810750875
 20
-5.186384628864965
 30
0.0
 10
137.6864193940204
 20
-5.276715175629839
 30
0.0
 10
136.8597344528567
 20
-5.751239942581216
 30
0.0
 10
136.3234590146414
 20
-6.490316604832525
 30
0.0
  0
SPLINE
  5
236
330
70
100
AcDbEntity
  8
0
 62
    18
420
        0
370
    25
100
AcDbSpline
210
0.0
220
0.0
230
1.0
 70
     8
 71
     3
 72
     8
 73
     4
 74
     0
 42
0.0000000001
 43
0.0000000001
 40
0.0
 40
0.0
 40
0.0
 40
0.0
 40
1.0
 40
1.0
 40
1.0
 40
1.0
 10
147.5039800584965
 20
-20.87944057833735
 30
0.0
 10
147.7432980314864
 20
-20.74079654910294
 30
0.0
 10
147.9631725079436
 20
-20.5710270046371
 30
0.0
 10
148.1578532907728
 20
-20.37457178878553
 30
0.0
  0
LWPOLYLINE
  5
237
330
70
100
AcDbEntity
  8
0
 62
    18
420
        0
370
    25
100
AcDbPolyline
 90
       23
 70
     0
 43
0.0
 10
149.3956754993974
 20
-17.03002679075399
 10
149.4028316830979
 20
-16.68252981285406
 10
149.3620756805975
 20
-15.82095256555411
 10
149.2403195816978
 20
-14.92315383295411
 10
149.0390938436979
 20
-14.00042374705399
 10
148.7609307899977
 20
-13.064366924154
 10
148.4093268526974
 20
-12.12675424115441
 10
147.9887039386978
 20
-11.19937676725422
 10
147.5043523555975
 20
-10.29389697195389
 10
146.9623632010974
 20
-9.421701962053878
 10
146.3695519716978
 20
-8.593760014654364
 10
145.7333733913978
 20
-7.82048319525411
 10
145.0618265805974
 20
-7.1115945387543
 10
144.3633584703974
 20
-6.47600993345386
 10
143.6467531662975
 20
-5.921723047954037
 10
142.9210195572978
 20
-5.455701918854283
 10
142.1952877044974
 20
-5.083809872253895
 10
141.4786806442976
 20
-4.810720871154182
 10
140.7802125340976
 20
-4.639871361854331
 10
140.1086674793978
 20
-4.573409588254186
 10
139.4724871429979
 20
-4.612169239554011
 10
138.8796759135976
 20
-4.755665910254366
 10
138.3380590561979
 20
-5.001878062854323
  0
LINE
  5
238
330
70
100
AcDbEntity
  8
0
 62
    18
420
        0
370
    25
100
AcDbLine
 10
142.7444260181977
 20
-12.81101903165408
 30
0.0
 11
142.7442433818977
 21
-12.82844920425393
 31
0.0
  0
SPLINE
  5
239
330
70
100
AcDbEntity
  8
0
 62
    18
420
        0
370
    25
100
AcDbSpline
210
0.0
220
0.0
230
1.0
 70
     8
 71
     3
 72
     8
 73
     4
 74
     0
 42
0.0000000001
 43
0.0000000001
 40
0.0
 40
0.0
 40
0.0
 40
0.0
 40
1.0
 40
1.0
 40
1.0
 40
1.0
 10
142.7444260182272
 20
-12.81101903162392
 30
0.0
 10
142.7421809178311
 20
-12.72746145137456
 30
0.0
 10
142.6979964804701
 20
-12.65065590822229
 30
0.0
 10
142.62689250668
 20
-12.606711231591
 30
0.0
  0
LWPOLYLINE
  5
23A
330
70
100
AcDbEntity
  8
0
 62
    18
420
        0
370
    25
100
AcDbPolyline
 90
        9
 70
     0
 43
0.0
 10
142.5724317538975
 20
-12.5758495661542
 10
142.5792384698976
 20
-12.57970803465387
 10
142.5860451859978
 20
-12.58356650315419
 10
142.592851901998
 20
-12.58742497175397
 10
142.5996603741975
 20
-12.59128242645387
 10
142.6064670901976
 20
-12.59514089495418
 10
142.6132738061978
 20
-12.59899733595441
 10
142.6200840344978
 20
-12.60285377685389
 10
142.6268925066974
 20
-12.60671123165389
  0
LWPOLYLINE
  5
23B
330
70
100
AcDbEntity
  8
0
 62
    18
420
        0
370
    25
100
AcDbPolyline
 90
        9
 70
     0
 43
0.0
 10
142.5724317538975
 20
-12.5758495661542
 10
142.3277429564974
 20
-12.27073425605394
 10
142.0645797904979
 20
-11.9990639363544
 10
141.7888674003976
 20
-11.76695382025419
 10
141.5068066411975
 20
-11.57962479085428
 10
141.2247458819979
 20
-11.4412933995544
 10
140.9490334918976
 20
-11.35507276585427
 10
140.6858720819974
 20
-11.32290237545419
 10
140.4411815284974
 20
-11.3455049996541
  0
LWPOLYLINE
  5
23C
330
70
100
AcDbEntity
  8
0
 62
    18
420
        0
370
    25
100
AcDbPolyline
 90
        9
 70
     0
 43
0.0
 10
140.3877217633979
 20
-11.31406547625405
 10
140.3944037949979
 20
-11.31799592365434
 10
140.4010840704974
 20
-11.32192738475431
 10
140.4077661020974
 20
-11.32585783205386
 10
140.4144498898975
 20
-11.32978726555427
 10
140.4211319214975
 20
-11.33371771285446
 10
140.4278157091975
 20
-11.33764714635423
 10
140.4344994968974
 20
-11.34157657995411
 10
140.4411815284974
 20
-11.3455049996541
  0
LWPOLYLINE
  5
23D
330
70
100
AcDbEntity
  8
0
 62
    18
420
        0
370
    25
100
AcDbPolyline
 90
        6
 70
     0
 43
0.0
 10
140.2695525368974
 20
-11.38230498195403
 10
140.2766086217978
 20
-11.34085701505424
 10
140.2960277822975
 20
-11.31182355295418
 10
140.3256218943977
 20
-11.29847909585437
 10
140.3620525765974
 20
-11.30232536345428
 10
140.3877217633979
 20
-11.31406547625405
  0
LINE
  5
23E
330
70
100
AcDbEntity
  8
0
 62
    18
420
        0
370
    25
100
AcDbLine
 10
140.269369900598
 20
-11.39973515455388
 30
0.0
 11
140.2695525368974
 21
-11.38230498195403
 31
0.0
  0
LINE
  5
23F
330
70
100
AcDbEntity
  8
0
 62
    18
420
        0
370
    25
100
AcDbLine
 10
140.269369900598
 20
-11.54571855415416
 30
0.0
 11
140.269369900598
 21
-11.39973515455388
 31
0.0
  0
SPLINE
  5
240
330
70
100
AcDbEntity
  8
0
 62
    18
420
        0
370
    25
100
AcDbSpline
210
0.0
220
0.0
230
1.0
 70
     8
 71
     3
 72
     8
 73
     4
 74
     0
 42
0.0000000001
 43
0.0000000001
 40
0.0
 40
0.0
 40
0.0
 40
0.0
 40
1.0
 40
1.0
 40
1.0
 40
1.0
 10
140.2693699006057
 20
-11.54571855409448
 30
0.0
 10
140.2731533176753
 20
-11.62886709642866
 30
0.0
 10
140.3171041798727
 20
-11.70499212803286
 30
0.0
 10
140.3872212696359
 20
-11.74984285890935
 30
0.0
  0
LINE
  5
241
330
70
100
AcDbEntity
  8
0
 62
    18
420
        0
370
    25
100
AcDbLine
 10
140.3872212695974
 20
-11.74984285895427
 30
0.0
 11
142.6263920127975
 21
-13.042488614254
 31
0.0
  0
SPLINE
  5
242
330
70
100
AcDbEntity
  8
0
 62
    18
420
        0
370
    25
100
AcDbSpline
210
0.0
220
0.0
230
1.0
 70
     8
 71
     3
 72
    11
 73
     7
 74
     0
 42
0.0000000001
 43
0.0000000001
 40
0.0
 40
0.0
 40
0.0
 40
0.0
 40
1.0
 40
1.0
 40
1.0
 40
2.0
 40
2.0
 40
2.0
 40
2.0
 10
142.6263920128283
 20
-13.04248861420459
 30
0.0
 10
142.6575414586102
 20
-13.06789694017723
 30
0.0
 10
142.7033905915756
 20
-13.06324284300579
 30
0.0
 10
142.7287989175483
 20
-13.03209339722383
 30
0.0
 10
142.7419544121805
 20
-13.01596536237271
 30
0.0
 10
142.7475761459967
 20
-12.99497702468311
 30
0.0
 10
142.7442433818579
 20
-12.97443260377721
 30
0.0
  0
LINE
  5
243
330
70
100
AcDbEntity
  8
0
 62
    18
420
        0
370
    25
100
AcDbLine
 10
142.7442433818977
 20
-12.97443260385421
 30
0.0
 11
142.7442433818977
 21
-12.82844920425393
 31
0.0
  0
LINE
  5
244
330
70
100
AcDbEntity
  8
0
 62
    18
420
        0
370
    25
100
AcDbLine
 10
140.4411815284974
 20
-11.3455049996541
 30
0.0
 11
142.5724317538975
 21
-12.5758495661542
 31
0.0
  0
LINE
  5
245
330
70
100
AcDbEntity
  8
0
 62
    18
420
        0
370
    25
100
AcDbLine
 10
177.394904343998
 20
-28.7179680285543
 30
0.0
 11
177.5619252801979
 21
-28.62833231165417
 31
0.0
  0
SPLINE
  5
246
330
70
100
AcDbEntity
  8
0
 62
    18
420
        0
370
    25
100
AcDbSpline
210
0.0
220
0.0
230
1.0
 70
     8
 71
     3
 72
     8
 73
     4
 74
     0
 42
0.0000000001
 43
0.0000000001
 40
0.0
 40
0.0
 40
0.0
 40
0.0
 40
1.0
 40
1.0
 40
1.0
 40
1.0
 10
185.2761771109076
 20
-45.00425996544398
 30
0.0
 10
186.1848387919747
 20
-44.9139294186791
 30
0.0
 10
187.011523733139
 20
-44.43940465172772
 30
0.0
 10
187.5477991713543
 20
-43.70032798947577
 30
0.0
  0
LWPOLYLINE
  5
247
330
70
100
AcDbEntity
  8
0
 62
    18
420
        0
370
    25
100
AcDbPolyline
 90
       22
 70
     0
 43
0.0
 10
189.4873023093977
 20
-39.80538328425419
 10
189.4465463068979
 20
-38.94380603705434
 10
189.3247910859979
 20
-38.04600781125413
 10
189.1235644699978
 20
-37.12327721855422
 10
188.8454022942978
 20
-36.18722090245402
 10
188.4937974789978
 20
-35.2496077125539
 10
188.0731754430979
 20
-34.32223074555424
 10
187.5888238599977
 20
-33.41675095025391
 10
187.0468347054976
 20
-32.5445559403539
 10
186.4540234760979
 20
-31.71661399295438
 10
185.8178431395979
 20
-30.94333615985445
 10
185.1462980849976
 20
-30.23444851715442
 10
184.4478299746975
 20
-29.59886391175388
 10
183.7312229145977
 20
-29.04457601245427
 10
183.0054910616979
 20
-28.5785558971543
 10
182.2797574526976
 20
-28.20666283685424
 10
181.5631521486977
 20
-27.9335748494542
 10
180.8646840383976
 20
-27.76272534015435
 10
180.1931372276974
 20
-27.69626255275442
 10
179.556958647298
 20
-27.73502321785403
 10
178.9641474178977
 20
-27.87851988865384
 10
178.4225305605974
 20
-28.12473204115434
  0
SPLINE
  5
248
330
70
100
AcDbEntity
  8
0
 62
    18
420
        0
370
    25
100
AcDbSpline
210
0.0
220
0.0
230
1.0
 70
     8
 71
     3
 72
     8
 73
     4
 74
     0
 42
0.0000000001
 43
0.0000000001
 40
0.0
 40
0.0
 40
0.0
 40
0.0
 40
1.0
 40
1.0
 40
1.0
 40
1.0
 10
187.5884515628646
 20
-44.00229455661875
 30
0.0
 10
187.8232503486511
 20
-43.86627775868826
 30
0.0
 10
188.0393450629228
 20
-43.70027588584635
 30
0.0
 10
188.2312893453029
 20
-43.50847277954323
 30
0.0
  0
LINE
  5
249
330
70
100
AcDbEntity
  8
0
 62
    18
420
        0
370
    25
100
AcDbLine
 10
189.4794190925974
 20
-40.16987835545405
 30
0.0
 11
189.4873023093977
 21
-39.80538328425419
 31
0.0
  0
LINE
  5
24A
330
70
100
AcDbEntity
  8
0
 62
    18
420
        0
370
    25
100
AcDbLine
 10
182.8288957663978
 20
-35.93387402375388
 30
0.0
 11
182.8287131300978
 21
-35.95130419635437
 31
0.0
  0
SPLINE
  5
24B
330
70
100
AcDbEntity
  8
0
 62
    18
420
        0
370
    25
100
AcDbSpline
210
0.0
220
0.0
230
1.0
 70
     8
 71
     3
 72
     8
 73
     4
 74
     0
 42
0.0000000001
 43
0.0000000001
 40
0.0
 40
0.0
 40
0.0
 40
0.0
 40
1.0
 40
1.0
 40
1.0
 40
1.0
 10
182.8288957664274
 20
-35.93387402372436
 30
0.0
 10
182.8266506660313
 20
-35.85031644347437
 30
0.0
 10
182.7824662286703
 20
-35.77351090032208
 30
0.0
 10
182.7113622548802
 20
-35.7295662236908
 30
0.0
  0
LWPOLYLINE
  5
24C
330
70
100
AcDbEntity
  8
0
 62
    18
420
        0
370
    25
100
AcDbPolyline
 90
        9
 70
     0
 43
0.0
 10
182.6569015020976
 20
-35.69870455825399
 10
182.663706462098
 20
-35.70256201295389
 10
182.6705131780975
 20
-35.70642048155431
 10
182.6773216501975
 20
-35.71027793625421
 10
182.6841283662978
 20
-35.71413640475388
 10
182.6909368383978
 20
-35.71799385955389
 10
182.697745310598
 20
-35.72185131425442
 10
182.704553782698
 20
-35.72570876895432
 10
182.7113622548975
 20
-35.72956622375432
  0
LWPOLYLINE
  5
24D
330
70
100
AcDbEntity
  8
0
 62
    18
420
        0
370
    25
100
AcDbPolyline
 90
        9
 70
     0
 43
0.0
 10
182.6569015020976
 20
-35.69870455825399
 10
182.4122109485976
 20
-35.39358823445406
 10
182.1490495387976
 20
-35.12191892845419
 10
181.8733371485978
 20
-34.88980881235399
 10
181.5912763894977
 20
-34.70247978295407
 10
181.3092156302976
 20
-34.5641483916542
 10
181.0335032400977
 20
-34.47792775795406
 10
180.7703400741978
 20
-34.44575635375421
 10
180.5256512767977
 20
-34.4683599917539
  0
LWPOLYLINE
  5
24E
330
70
100
AcDbEntity
  8
0
 62
    18
420
        0
370
    25
100
AcDbPolyline
 90
        9
 70
     0
 43
0.0
 10
180.4721915116975
 20
-34.43692046845395
 10
180.4788735432975
 20
-34.44085091575414
 10
180.4855555748976
 20
-34.44478136305433
 10
180.4922358503977
 20
-34.4487107965541
 10
180.4989178819977
 20
-34.45264124385429
 10
180.5056016696977
 20
-34.45657067745417
 10
180.5122837012977
 20
-34.46050112475435
 10
180.5189674889976
 20
-34.46443055825412
 10
180.5256512767977
 20
-34.4683599917539
  0
LWPOLYLINE
  5
24F
330
70
100
AcDbEntity
  8
0
 62
    18
420
        0
370
    25
100
AcDbPolyline
 90
        6
 70
     0
 43
0.0
 10
180.3540222851976
 20
-34.50515997405446
 10
180.3610783700975
 20
-34.46371200715404
 10
180.3804992865976
 20
-34.4346775312542
 10
180.4100933986977
 20
-34.42133307425449
 10
180.4465223247975
 20
-34.42518035555407
 10
180.4721915116975
 20
-34.43692046845395
  0
LINE
  5
250
330
70
100
AcDbEntity
  8
0
 62
    18
420
        0
370
    25
100
AcDbLine
 10
180.3538396487975
 20
-34.52259014665432
 30
0.0
 11
180.3540222851976
 21
-34.50515997405446
 31
0.0
  0
SPLINE
  5
251
330
70
100
AcDbEntity
  8
0
 62
    18
420
        0
370
    25
100
AcDbSpline
210
0.0
220
0.0
230
1.0
 70
     8
 71
     3
 72
    11
 73
     7
 74
     0
 42
0.0000000001
 43
0.0000000001
 40
0.0
 40
0.0
 40
0.0
 40
0.0
 40
1.0
 40
1.0
 40
1.0
 40
2.0
 40
2.0
 40
2.0
 40
2.0
 10
182.7108617610284
 20
-36.16534360640449
 30
0.0
 10
182.7420112068104
 20
-36.19075193237712
 30
0.0
 10
182.7878603397758
 20
-36.18609783520569
 30
0.0
 10
182.8132686657484
 20
-36.15494838942373
 30
0.0
 10
182.8264241603807
 20
-36.13882035457261
 30
0.0
 10
182.8320458941962
 20
-36.11783201688365
 30
0.0
 10
182.828713130058
 20
-36.09728759597711
 30
0.0
  0
LINE
  5
252
330
70
100
AcDbEntity
  8
0
 62
    18
420
        0
370
    25
100
AcDbLine
 10
182.8287131300978
 20
-36.09728759595401
 30
0.0
 11
182.8287131300978
 21
-35.95130419635437
 31
0.0
  0
LINE
  5
253
330
70
100
AcDbEntity
  8
0
 62
    18
420
        0
370
    25
100
AcDbLine
 10
180.3538396487975
 20
-34.66857354625395
 30
0.0
 11
180.3538396487975
 21
-34.52259014665432
 31
0.0
  0
SPLINE
  5
254
330
70
100
AcDbEntity
  8
0
 62
    18
420
        0
370
    25
100
AcDbSpline
210
0.0
220
0.0
230
1.0
 70
     8
 71
     3
 72
     8
 73
     4
 74
     0
 42
0.0000000001
 43
0.0000000001
 40
0.0
 40
0.0
 40
0.0
 40
0.0
 40
1.0
 40
1.0
 40
1.0
 40
1.0
 10
180.3538396488058
 20
-34.66857354619492
 30
0.0
 10
180.3576230658755
 20
-34.75172208852846
 30
0.0
 10
180.4015739280729
 20
-34.8278471201333
 30
0.0
 10
180.4716910178361
 20
-34.87269785100915
 30
0.0
  0
LINE
  5
255
330
70
100
AcDbEntity
  8
0
 62
    18
420
        0
370
    25
100
AcDbLine
 10
180.4716910177976
 20
-34.87269785105406
 30
0.0
 11
182.7108617610977
 21
-36.16534360635444
 31
0.0
  0
LINE
  5
256
330
70
100
AcDbEntity
  8
0
 62
    18
420
        0
370
    25
100
AcDbLine
 10
180.5256512767977
 20
-34.4683599917539
 30
0.0
 11
182.6569015020976
 21
-35.69870455825399
 31
0.0
  0
LWPOLYLINE
  5
257
330
70
100
AcDbEntity
  8
0
 62
     8
420
  8421504
370
    25
100
AcDbPolyline
 90
        7
 70
     0
 43
0.0
 10
167.964384548798
 20
-66.85845140925447
 10
168.1265954757978
 20
-66.92102125135429
 10
168.317939533898
 20
-66.94299353655392
 10
168.5092809577979
 20
-66.92102175825417
 10
168.6714936409977
 20
-66.85845292995414
 10
168.7798786521976
 20
-66.76480903435434
 10
168.8179390125974
 20
-66.65434998145442
  0
LWPOLYLINE
  5
258
330
70
100
AcDbEntity
  8
0
 62
     8
420
  8421504
370
    25
100
AcDbPolyline
 90
        3
 70
     0
 43
0.0
 10
167.8179409332976
 20
-66.65435048835431
 10
167.8559986593977
 20
-66.76480903435434
 10
167.9643845487973
 20
-66.85845140925447
  0
SPLINE
  5
259
330
70
100
AcDbEntity
  8
0
 62
     8
420
  8421504
370
    25
100
AcDbSpline
210
0.0
220
0.0
230
1.0
 70
     8
 71
     3
 72
     8
 73
     4
 74
     0
 42
0.0000000001
 43
0.0000000001
 40
0.0
 40
0.0
 40
0.0
 40
0.0
 40
1.0
 40
1.0
 40
1.0
 40
1.0
 10
166.9037239835583
 20
-67.47095626343088
 30
0.0
 10
166.8907124313406
 20
-67.56094470233486
 30
0.0
 10
166.9311538651123
 20
-67.65029660119019
 30
0.0
 10
167.0073499131565
 20
-67.69990891709987
 30
0.0
  0
LWPOLYLINE
  5
25A
330
70
100
AcDbEntity
  8
0
 62
     8
420
  8421504
370
    25
100
AcDbPolyline
 90
        7
 70
     0
 43
0.0
 10
167.5020801576975
 20
-66.83096222605392
 10
167.3925764988975
 20
-66.8115550774544
 10
167.2572772125974
 20
-66.85858410935407
 10
167.1219788043977
 20
-66.96776780135422
 10
167.0072779122976
 20
-67.12248538125449
 10
166.9306365024976
 20
-67.29918188205442
 10
166.9037239835974
 20
-67.47095626345397
  0
LWPOLYLINE
  5
25B
330
70
100
AcDbEntity
  8
0
 62
     8
420
  8421504
370
    25
100
AcDbPolyline
 90
        4
 70
     0
 43
0.0
 10
99.61073100089729
 20
-28.62353830505421
 10
99.63764351979747
 20
-28.76424066055397
 10
99.71428492959747
 20
-28.85244887305406
 10
99.71430512499756
 20
-28.85246053535401
  0
LWPOLYLINE
  5
25C
330
70
100
AcDbEntity
  8
0
 62
     8
420
  8421504
370
    25
100
AcDbPolyline
 90
        7
 70
     0
 43
0.0
 10
100.2142642128974
 20
-27.98641220545398
 10
100.0995835161974
 20
-27.964137119054
 10
99.96428422989735
 20
-28.01116615105441
 10
99.82898582169761
 20
-28.12034984305393
 10
99.71428492959747
 20
-28.27506742285408
 10
99.63764351979747
 20
-28.45176392365402
 10
99.61073100089729
 20
-28.62353830505421
  0
LWPOLYLINE
  5
25D
330
70
100
AcDbEntity
  8
0
 62
     8
420
  8421504
370
    25
100
AcDbPolyline
 90
        3
 70
     0
 43
0.0
 10
98.55007043579742
 20
-26.78642082905418
 10
98.44168454649725
 20
-26.69277845405395
 10
98.40362330809782
 20
-26.58231788055445
  0
LWPOLYLINE
  5
25E
330
70
100
AcDbEntity
  8
0
 62
     8
420
  8421504
370
    25
100
AcDbPolyline
 90
        7
 70
     0
 43
0.0
 10
99.40362138729756
 20
-26.58231737365392
 10
99.36556453919763
 20
-26.69277845405395
 10
99.25717601579798
 20
-26.78642032215428
 10
99.09496684479794
 20
-26.84899117795441
 10
98.90362190869758
 20
-26.87096092875408
 10
98.71228136279789
 20
-26.84899067105388
 10
98.55007043579742
 20
-26.78642082905418
  0
LWPOLYLINE
  5
25F
330
70
100
AcDbEntity
  8
0
 62
     8
420
  8421504
370
    25
100
AcDbPolyline
 90
        7
 70
     0
 43
0.0
 10
172.6784296512979
 20
-68.21979582605405
 10
172.8406414563974
 20
-68.28236516115386
 10
173.0319846363979
 20
-68.30433795325404
 10
173.2233260602978
 20
-68.28236617495429
 10
173.3855396215979
 20
-68.21979683985446
 10
173.4939237547975
 20
-68.12615345105446
 10
173.531984115098
 20
-68.01569439825399
  0
LWPOLYLINE
  5
260
330
70
100
AcDbEntity
  8
0
 62
     8
420
  8421504
370
    25
100
AcDbPolyline
 90
        3
 70
     0
 43
0.0
 10
172.5319860357974
 20
-68.01569490515388
 10
172.5700446400974
 20
-68.12615294415393
 10
172.6784296512979
 20
-68.21979582605405
  0
LWPOLYLINE
  5
261
330
70
100
AcDbEntity
  8
0
 62
     8
420
  8421504
370
    25
100
AcDbPolyline
 90
        4
 70
     0
 43
0.0
 10
171.6177690860979
 20
-68.83230017315409
 10
171.6446824830978
 20
-68.97300202175397
 10
171.7213230148976
 20
-69.06121074115396
 10
171.7213950156974
 20
-69.06125231985391
  0
LWPOLYLINE
  5
262
330
70
100
AcDbEntity
  8
0
 62
     8
420
  8421504
370
    25
100
AcDbPolyline
 90
        7
 70
     0
 43
0.0
 10
172.2161252602975
 20
-68.19230562875404
 10
172.1066216013974
 20
-68.17289898725398
 10
171.9713231931977
 20
-68.2199275122544
 10
171.8360239069977
 20
-68.32911171115445
 10
171.7213230148976
 20
-68.48382878405408
 10
171.6446824830978
 20
-68.66052477795412
 10
171.6177690860979
 20
-68.83230017315409
  0
LWPOLYLINE
  5
263
330
70
100
AcDbEntity
  8
0
 62
     8
420
  8421504
370
    25
100
AcDbPolyline
 90
        4
 70
     0
 43
0.0
 10
104.3247761033978
 20
-29.98488221485443
 10
104.3516895003977
 20
-30.12558406335421
 10
104.4283300321974
 20
-30.21379278275418
 10
104.4283502274981
 20
-30.21380444515424
  0
LWPOLYLINE
  5
264
330
70
100
AcDbEntity
  8
0
 62
     8
420
  8421504
370
    25
100
AcDbPolyline
 90
        7
 70
     0
 43
0.0
 10
104.9283093154975
 20
-29.34775560825421
 10
104.8136286186973
 20
-29.32548102885423
 10
104.6783302104975
 20
-29.372509553854
 10
104.5430309242976
 20
-29.48169375275405
 10
104.4283300321974
 20
-29.63641082565431
 10
104.3516895003977
 20
-29.81310681955436
 10
104.3247761033978
 20
-29.98488221485443
  0
LWPOLYLINE
  5
265
330
70
100
AcDbEntity
  8
0
 62
     8
420
  8421504
370
    25
100
AcDbPolyline
 90
        3
 70
     0
 43
0.0
 10
103.2641155382973
 20
-28.14776524575429
 10
103.1557305270981
 20
-28.05412236385417
 10
103.1176684105977
 20
-27.94366229725393
  0
LWPOLYLINE
  5
266
330
70
100
AcDbEntity
  8
0
 62
     8
420
  8421504
370
    25
100
AcDbPolyline
 90
        7
 70
     0
 43
0.0
 10
104.1176664898975
 20
-27.94366179035403
 10
104.0796096417976
 20
-28.05412287075406
 10
103.9712219963975
 20
-28.14776423195387
 10
103.8090119472978
 20
-28.21033559465389
 10
103.6176670111981
 20
-28.23230534545419
 10
103.4263273433974
 20
-28.21033458085411
 10
103.2641155382973
 20
-28.14776524575429
  0
LWPOLYLINE
  5
267
330
70
100
AcDbEntity
  8
0
 62
     8
420
  8421504
370
    25
100
AcDbPolyline
 90
        3
 70
     0
 43
0.0
 10
177.3924751928977
 20
-65.49843526065437
 10
177.2840893035975
 20
-65.40479288565414
 10
177.2460311383975
 20
-65.2943345931541
  0
LWPOLYLINE
  5
268
330
70
100
AcDbEntity
  8
0
 62
     8
420
  8421504
370
    25
100
AcDbPolyline
 90
        7
 70
     0
 43
0.0
 10
178.2460296566978
 20
-65.29433383285432
 10
178.2079692962979
 20
-65.40479288565414
 10
178.0995842850974
 20
-65.49843678135404
 10
177.9373711628978
 20
-65.56100586305397
 10
177.7460297389979
 20
-65.58297764135438
 10
177.5546861199976
 20
-65.56100510275419
 10
177.3924751928977
 20
-65.49843526065437
  0
LWPOLYLINE
  5
269
330
70
100
AcDbEntity
  8
0
 62
     8
420
  8421504
370
    25
100
AcDbPolyline
 90
        8
 70
     0
 43
0.0
 10
176.3318146276977
 20
-66.11093960785389
 10
176.3587271465979
 20
-65.93916471945435
 10
176.4353681173975
 20
-65.76246847215441
 10
176.5500690094976
 20
-65.60775139925414
 10
176.6853678566978
 20
-65.49856745375397
 10
176.8206671429979
 20
-65.45153842185432
 10
176.9353680350974
 20
-65.47382466355426
 10
176.9366063182974
 20
-65.47454759975413
  0
LWPOLYLINE
  5
26A
330
70
100
AcDbEntity
  8
0
 62
     8
420
  8421504
370
    25
100
AcDbPolyline
 90
        3
 70
     0
 43
0.0
 10
176.4352882139976
 20
-66.33980428695439
 10
176.3587271465979
 20
-66.25164196325418
 10
176.3318146276977
 20
-66.11093960785389
  0
LWPOLYLINE
  5
26B
330
70
100
AcDbEntity
  8
0
 62
     8
420
  8421504
370
    25
100
AcDbPolyline
 90
        7
 70
     0
 43
0.0
 10
109.0388216449976
 20
-27.26352164945412
 10
109.0657341638978
 20
-27.09174676105394
 10
109.142375134698
 20
-26.915050513754
 10
109.2570760267975
 20
-26.76033344085438
 10
109.3923748740978
 20
-26.65114949535422
 10
109.5276741602977
 20
-26.60412046345391
 10
109.6423546374976
 20
-26.62639516965427
  0
LWPOLYLINE
  5
26C
330
70
100
AcDbEntity
  8
0
 62
     8
420
  8421504
370
    25
100
AcDbPolyline
 90
        4
 70
     0
 43
0.0
 10
109.1423953300974
 20
-27.49244413315446
 10
109.142375134698
 20
-27.49243247085387
 10
109.0657341638978
 20
-27.40422400495388
 10
109.0388216449976
 20
-27.26352164945412
  0
LWPOLYLINE
  5
26D
330
70
100
AcDbEntity
  8
0
 62
     8
420
  8421504
370
    25
100
AcDbPolyline
 90
        7
 70
     0
 43
0.0
 10
107.9781610798977
 20
-25.42640468035398
 10
108.1403720069977
 20
-25.48897452245443
 10
108.3317121137975
 20
-25.51094503355388
 10
108.5230570498978
 20
-25.48897528275421
 10
108.6852666598976
 20
-25.42640417345409
 10
108.7936551833974
 20
-25.33276230535439
 10
108.8317120313979
 20
-25.22230122505447
  0
LWPOLYLINE
  5
26E
330
70
100
AcDbEntity
  8
0
 62
     8
420
  8421504
370
    25
100
AcDbPolyline
 90
        3
 70
     0
 43
0.0
 10
107.8317135131977
 20
-25.22230198535425
 10
107.8697751905975
 20
-25.33276230535439
 10
107.9781610798977
 20
-25.42640468035398
  0
LWPOLYLINE
  5
26F
330
70
100
AcDbEntity
  8
0
 62
     8
420
  8421504
370
    25
100
AcDbPolyline
 90
        3
 70
     0
 43
0.0
 10
182.1065204051975
 20
-62.77707488535419
 10
181.9981346804975
 20
-62.68343241535427
 10
181.9600762408974
 20
-62.57297428125443
  0
LWPOLYLINE
  5
270
330
70
100
AcDbEntity
  8
0
 62
     8
420
  8421504
370
    25
100
AcDbPolyline
 90
        7
 70
     0
 43
0.0
 10
182.9600748689975
 20
-62.57297345755414
 10
182.9220143988979
 20
-62.68343257375447
 10
182.8136297168973
 20
-62.77707627935424
 10
182.6514163751975
 20
-62.83964548775443
 10
182.4600748414978
 20
-62.86161732945405
 10
182.2687314968977
 20
-62.83964463235421
 10
182.1065204051975
 20
-62.77707488535419
  0
LWPOLYLINE
  5
271
330
70
100
AcDbEntity
  8
0
 62
     8
420
  8421504
370
    25
100
AcDbPolyline
 90
        8
 70
     0
 43
0.0
 10
181.0458598399975
 20
-63.38957923255435
 10
181.0727725234979
 20
-63.21780424915448
 10
181.1494132199975
 20
-63.04110816025409
 10
181.264114221798
 20
-62.88639102395396
 10
181.3994132885978
 20
-62.77720695175418
 10
181.5347122454978
 20
-62.730178109954
 10
181.6494132473977
 20
-62.75246428835417
 10
181.6506515305978
 20
-62.75318722445395
  0
LWPOLYLINE
  5
272
330
70
100
AcDbEntity
  8
0
 62
     8
420
  8421504
370
    25
100
AcDbPolyline
 90
        3
 70
     0
 43
0.0
 10
181.1493333165976
 20
-63.61844397505407
 10
181.0727725234979
 20
-63.53028149295432
 10
181.0458598399975
 20
-63.38957923255435
  0
LWPOLYLINE
  5
273
330
70
100
AcDbEntity
  8
0
 62
     8
420
  8421504
370
    25
100
AcDbPolyline
 90
        7
 70
     0
 43
0.0
 10
113.752866857298
 20
-24.54216127415394
 10
113.7797795408979
 20
-24.37038629075406
 10
113.8564202372974
 20
-24.19369020185432
 10
113.9711212390979
 20
-24.0389730655542
 10
114.1064203058977
 20
-23.92978899335441
 10
114.2417192627976
 20
-23.88276015155424
 10
114.3563999595978
 20
-23.90503473095422
  0
LWPOLYLINE
  5
274
330
70
100
AcDbEntity
  8
0
 62
     8
420
  8421504
370
    25
100
AcDbPolyline
 90
        4
 70
     0
 43
0.0
 10
113.8564405972977
 20
-24.77108372625445
 10
113.8564202372974
 20
-24.77107215895419
 10
113.7797795408979
 20
-24.68286353465401
 10
113.752866857298
 20
-24.54216127415394
  0
LWPOLYLINE
  5
275
330
70
100
AcDbEntity
  8
0
 62
     8
420
  8421504
370
    25
100
AcDbPolyline
 90
        7
 70
     0
 43
0.0
 10
112.6922062921975
 20
-22.70504430505444
 10
112.8544173838977
 20
-22.76761405215391
 10
113.045757216298
 20
-22.7895847216542
 10
113.2371022621976
 20
-22.76761490745403
 10
113.3993120916976
 20
-22.70504367145428
 10
113.5077002858979
 20
-22.61140199345407
 10
113.5457572436976
 20
-22.50094084975429
  0
LWPOLYLINE
  5
276
330
70
100
AcDbEntity
  8
0
 62
     8
420
  8421504
370
    25
100
AcDbPolyline
 90
        3
 70
     0
 43
0.0
 10
112.5457586156976
 20
-22.50094167345393
 10
112.5838205674976
 20
-22.61140183505387
 10
112.6922062921975
 20
-22.70504430505444
  0
LWPOLYLINE
  5
277
330
70
100
AcDbEntity
  8
0
 62
     8
420
  8421504
370
    25
100
AcDbPolyline
 90
        3
 70
     0
 43
0.0
 10
186.8205658369974
 20
-60.05571438335439
 10
186.7121799476979
 20
-59.96207200845426
 10
186.6741213434974
 20
-59.85161396935411
  0
LWPOLYLINE
  5
278
330
70
100
AcDbEntity
  8
0
 62
     8
420
  8421504
370
    25
100
AcDbPolyline
 90
        7
 70
     0
 43
0.0
 10
187.6741198617976
 20
-59.85161320905433
 10
187.6360595013978
 20
-59.96207226185416
 10
187.5276749291977
 20
-60.05571590405406
 10
187.3654613679977
 20
-60.11828523925398
 10
187.1741199440978
 20
-60.14025701755438
 10
186.982776764098
 20
-60.1182842254542
 10
186.8205658369974
 20
-60.05571438335439
  0
LWPOLYLINE
  5
279
330
70
100
AcDbEntity
  8
0
 62
     8
420
  8421504
370
    25
100
AcDbPolyline
 90
        8
 70
     0
 43
0.0
 10
185.7599052717974
 20
-60.6682187305539
 10
185.7868177906976
 20
-60.49644384215436
 10
185.8634583224974
 20
-60.31974784825431
 10
185.9781592145975
 20
-60.16503077535404
 10
186.1134585008976
 20
-60.055846576454
 10
186.2487573480978
 20
-60.00881779805433
 10
186.3634582401979
 20
-60.03110403975426
 10
186.3646967428975
 20
-60.03182684925388
  0
LWPOLYLINE
  5
27A
330
70
100
AcDbEntity
  8
0
 62
     8
420
  8421504
370
    25
100
AcDbPolyline
 90
        3
 70
     0
 43
0.0
 10
185.8633784190975
 20
-60.8970836631544
 10
185.7868177906976
 20
-60.8089210860543
 10
185.7599052717974
 20
-60.6682187305539
  0
LWPOLYLINE
  5
27B
330
70
100
AcDbEntity
  8
0
 62
     8
420
  8421504
370
    25
100
AcDbPolyline
 90
        7
 70
     0
 43
0.0
 10
118.4669122890979
 20
-21.82080077215413
 10
118.4938248079975
 20
-21.64902588375395
 10
118.5704653397979
 20
-21.472329889954
 10
118.6851662318974
 20
-21.31761281705438
 10
118.8204655181975
 20
-21.20842861815433
 10
118.9557643653976
 20
-21.16139983965392
 10
119.0704450620977
 20
-21.18367441905391
  0
LWPOLYLINE
  5
27C
330
70
100
AcDbEntity
  8
0
 62
     8
420
  8421504
370
    25
100
AcDbPolyline
 90
        4
 70
     0
 43
0.0
 10
118.5704859741978
 20
-22.04972325595393
 10
118.5704653397979
 20
-22.04971184705388
 10
118.4938248079975
 20
-21.9615031276539
 10
118.4669122890979
 20
-21.82080077215413
  0
LWPOLYLINE
  5
27D
330
70
100
AcDbEntity
  8
0
 62
     8
420
  8421504
370
    25
100
AcDbPolyline
 90
        7
 70
     0
 43
0.0
 10
117.4062517239974
 20
-19.98368380305399
 10
117.568462651098
 20
-20.04625364515444
 10
117.7598023187979
 20
-20.06822440975389
 10
117.9511472549977
 20
-20.04625465895422
 10
118.113357303998
 20
-19.9836832962542
 10
118.2217453883978
 20
-19.8900416815544
 10
118.2598022364978
 20
-19.77958060115437
  0
LWPOLYLINE
  5
27E
330
70
100
AcDbEntity
  8
0
 62
     8
420
  8421504
370
    25
100
AcDbPolyline
 90
        3
 70
     0
 43
0.0
 10
117.2598037181975
 20
-19.77958136155425
 10
117.2978658346979
 20
-19.89004142815386
 10
117.4062517239974
 20
-19.98368380305399
  0
LWPOLYLINE
  5
27F
330
70
100
AcDbEntity
  8
0
 62
     8
420
  8421504
370
    25
100
AcDbPolyline
 90
        3
 70
     0
 43
0.0
 10
191.5346109394979
 20
-57.33435407145408
 10
191.4262250501977
 20
-57.24071169645449
 10
191.3881664459979
 20
-57.13025365745444
  0
LWPOLYLINE
  5
280
330
70
100
AcDbEntity
  8
0
 62
     8
420
  8421504
370
    25
100
AcDbPolyline
 90
        7
 70
     0
 43
0.0
 10
192.3881654032973
 20
-57.13025264365402
 10
192.3501050429976
 20
-57.24071169645449
 10
192.2417200317978
 20
-57.33435559215439
 10
192.0795064704976
 20
-57.3969249273543
 10
191.8881650465977
 20
-57.41889670565406
 10
191.6968218665978
 20
-57.39692391355389
 10
191.5346109394979
 20
-57.33435407145408
  0
LWPOLYLINE
  5
281
330
70
100
AcDbEntity
  8
0
 62
     8
420
  8421504
370
    25
100
AcDbPolyline
 90
        8
 70
     0
 43
0.0
 10
190.4739503743974
 20
-57.94685841865423
 10
190.5008628932976
 20
-57.77508353025404
 10
190.5775034249979
 20
-57.59838753635399
 10
190.6922043171976
 20
-57.44367046345438
 10
190.8275036033975
 20
-57.33448626455432
 10
190.9628028896976
 20
-57.28745723265401
 10
191.0775037817977
 20
-57.30974347435395
 10
191.0787418453974
 20
-57.3104665372541
  0
LWPOLYLINE
  5
282
330
70
100
AcDbEntity
  8
0
 62
     8
420
  8421504
370
    25
100
AcDbPolyline
 90
        3
 70
     0
 43
0.0
 10
190.577423521598
 20
-58.17572335125408
 10
190.5008628932976
 20
-58.08756077405388
 10
190.4739503743974
 20
-57.94685841865423
  0
LWPOLYLINE
  5
283
330
70
100
AcDbEntity
  8
0
 62
     8
420
  8421504
370
    25
100
AcDbPolyline
 90
        7
 70
     0
 43
0.0
 10
123.1809573916979
 20
-19.09944046025446
 10
123.2078699105975
 20
-18.92766557185428
 10
123.2845104423979
 20
-18.75096957805433
 10
123.3992113344974
 20
-18.59625250505396
 10
123.534510620698
 20
-18.48706830625402
 10
123.6698099069974
 20
-18.44003927425425
 10
123.7844906036975
 20
-18.46231385375434
  0
LWPOLYLINE
  5
284
330
70
100
AcDbEntity
  8
0
 62
     8
420
  8421504
370
    25
100
AcDbPolyline
 90
        4
 70
     0
 43
0.0
 10
123.2845306376979
 20
-19.32836319745415
 10
123.2845104423979
 20
-19.3283515351542
 10
123.2078699105975
 20
-19.24014281575422
 10
123.1809573916979
 20
-19.09944046025446
  0
LWPOLYLINE
  5
285
330
70
100
AcDbEntity
  8
0
 62
     8
420
  8421504
370
    25
100
AcDbPolyline
 90
        7
 70
     0
 43
0.0
 10
122.120296826498
 20
-17.26232349115431
 10
122.2825077535979
 20
-17.32489333325412
 10
122.4738474213979
 20
-17.34686409775411
 10
122.6651923574976
 20
-17.3248943470539
 10
122.8274024064979
 20
-17.26232298425442
 10
122.9357909299976
 20
-17.16868111625419
 10
122.9738477780976
 20
-17.05822003585416
  0
LWPOLYLINE
  5
286
330
70
100
AcDbEntity
  8
0
 62
     8
420
  8421504
370
    25
100
AcDbPolyline
 90
        3
 70
     0
 43
0.0
 10
121.9738488207975
 20
-17.05822104965394
 10
122.0119109371978
 20
-17.16868111625419
 10
122.120296826498
 20
-17.26232349115431
  0
SPLINE
  5
287
330
70
100
AcDbEntity
  8
0
 62
     8
420
  8421504
370
    25
100
AcDbSpline
210
0.0
220
0.0
230
1.0
 70
     8
 71
     3
 72
     8
 73
     4
 74
     0
 42
0.0000000001
 43
0.0000000001
 40
0.0
 40
0.0
 40
0.0
 40
0.0
 40
1.0
 40
1.0
 40
1.0
 40
1.0
 10
192.1827917130336
 20
-45.73282993772268
 30
0.0
 10
192.1584780797619
 20
-45.71541076483066
 30
0.0
 10
192.1267248526705
 20
-45.71226683700972
 30
0.0
 10
192.0994673935275
 20
-45.72457988976755
 30
0.0
  0
SPLINE
  5
288
330
70
100
AcDbEntity
  8
0
 62
     8
420
  8421504
370
    25
100
AcDbSpline
210
0.0
220
0.0
230
1.0
 70
     8
 71
     3
 72
     8
 73
     4
 74
     0
 42
0.0000000001
 43
0.0000000001
 40
0.0
 40
0.0
 40
0.0
 40
0.0
 40
1.0
 40
1.0
 40
1.0
 40
1.0
 10
193.3267801099357
 20
-49.07519096962327
 30
0.0
 10
193.3516039762538
 20
-49.05817212070523
 30
0.0
 10
193.3649093109576
 20
-49.02876495177602
 30
0.0
 10
193.3613054033406
 20
-48.99888389745445
 30
0.0
  0
LINE
  5
289
330
70
100
AcDbEntity
  8
0
 62
     8
420
  8421504
370
    25
100
AcDbLine
 10
193.7679487344977
 20
-46.28373688905401
 30
0.0
 11
193.3613054033978
 21
-46.54926156725427
 31
0.0
  0
SPLINE
  5
28A
330
70
100
AcDbEntity
  8
0
 62
     8
420
  8421504
370
    25
100
AcDbSpline
210
0.0
220
0.0
230
1.0
 70
     8
 71
     3
 72
     8
 73
     4
 74
     0
 42
0.0000000001
 43
0.0000000001
 40
0.0
 40
0.0
 40
0.0
 40
0.0
 40
1.0
 40
1.0
 40
1.0
 40
1.0
 10
193.326765182938
 20
-42.39090413982678
 30
0.0
 10
193.2995089603099
 20
-42.37860245946787
 30
0.0
 10
193.2677637381675
 20
-42.38175014886506
 30
0.0
 10
193.2434540343219
 20
-42.39916483549856
 30
0.0
  0
LINE
  5
28B
330
70
100
AcDbEntity
  8
0
 62
     8
420
  8421504
370
    25
100
AcDbLine
 10
193.3613054033978
 20
-48.99888389745445
 30
0.0
 11
193.6775692081979
 21
-48.79828357875426
 31
0.0
  0
SPLINE
  5
28C
330
70
100
AcDbEntity
  8
0
 62
     8
420
  8421504
370
    25
100
AcDbSpline
210
0.0
220
0.0
230
1.0
 70
     8
 71
     3
 72
     8
 73
     4
 74
     0
 42
0.0000000001
 43
0.0000000001
 40
0.0
 40
0.0
 40
0.0
 40
0.0
 40
1.0
 40
1.0
 40
1.0
 40
1.0
 10
192.9924353071383
 20
-44.50823968592414
 30
0.0
 10
192.9360438353885
 20
-43.94273912005649
 30
0.0
 10
192.5825931272411
 20
-43.45013537010575
 30
0.0
 10
192.0649429782138
 20
-43.21559494439081
 30
0.0
  0
SPLINE
  5
28D
330
70
100
AcDbEntity
  8
0
 62
     8
420
  8421504
370
    25
100
AcDbSpline
210
0.0
220
0.0
230
1.0
 70
     8
 71
     3
 72
     8
 73
     4
 74
     0
 42
0.0000000001
 43
0.0000000001
 40
0.0
 40
0.0
 40
0.0
 40
0.0
 40
1.0
 40
1.0
 40
1.0
 40
1.0
 10
192.064942978244
 20
-45.66521727462756
 30
0.0
 10
192.0630872545319
 20
-45.689462159635
 30
0.0
 10
192.0710383683666
 20
-45.71343767284084
 30
0.0
 10
192.0870138779142
 20
-45.73176910088786
 30
0.0
  0
SPLINE
  5
28E
330
70
100
AcDbEntity
  8
0
 62
     8
420
  8421504
370
    25
100
AcDbSpline
210
0.0
220
0.0
230
1.0
 70
     8
 71
     3
 72
     8
 73
     4
 74
     0
 42
0.0000000001
 43
0.0000000001
 40
0.0
 40
0.0
 40
0.0
 40
0.0
 40
1.0
 40
1.0
 40
1.0
 40
1.0
 10
129.6871681524691
 20
-5.652546775037652
 30
0.0
 10
129.6599094259468
 20
-5.64023482438765
 30
0.0
 10
129.6281557693411
 20
-5.643379274835882
 30
0.0
 10
129.6038411987846
 20
-5.660798343671912
 30
0.0
  0
SPLINE
  5
28F
330
70
100
AcDbEntity
  8
0
 62
     8
420
  8421504
370
    25
100
AcDbSpline
210
0.0
220
0.0
230
1.0
 70
     8
 71
     3
 72
     8
 73
     4
 74
     0
 42
0.0000000001
 43
0.0000000001
 40
0.0
 40
0.0
 40
0.0
 40
0.0
 40
1.0
 40
1.0
 40
1.0
 40
1.0
 10
128.4253301426534
 20
-8.926850782734179
 30
0.0
 10
128.4211879535702
 20
-8.956812070828627
 30
0.0
 10
128.434615482036
 20
-8.986490261747562
 30
0.0
 10
128.4598545579991
 20
-9.003158361795822
 30
0.0
  0
SPLINE
  5
290
330
70
100
AcDbEntity
  8
0
 62
     8
420
  8421504
370
    25
100
AcDbSpline
210
0.0
220
0.0
230
1.0
 70
     8
 71
     3
 72
     8
 73
     4
 74
     0
 42
0.0000000001
 43
0.0000000001
 40
0.0
 40
0.0
 40
0.0
 40
0.0
 40
1.0
 40
1.0
 40
1.0
 40
1.0
 10
122.7684776001017
 20
-5.660799357429337
 30
0.0
 10
122.7441626442613
 20
-5.643380516728867
 30
0.0
 10
122.7124089508247
 20
-5.640235902606311
 30
0.0
 10
122.6851497683585
 20
-5.652547281902889
 30
0.0
  0
SPLINE
  5
291
330
70
100
AcDbEntity
  8
0
 62
     8
420
  8421504
370
    25
100
AcDbSpline
210
0.0
220
0.0
230
1.0
 70
     8
 71
     3
 72
     8
 73
     4
 74
     0
 42
0.0000000001
 43
0.0000000001
 40
0.0
 40
0.0
 40
0.0
 40
0.0
 40
1.0
 40
1.0
 40
1.0
 40
1.0
 10
123.9124624847006
 20
-9.003158361797106
 30
0.0
 10
123.9377016433723
 20
-8.986490510647861
 30
0.0
 10
123.9511294868931
 20
-8.956812575326637
 30
0.0
 10
123.9469877781056
 20
-8.926851289628293
 30
0.0
  0
LWPOLYLINE
  5
292
330
70
100
AcDbEntity
  8
0
 62
     8
420
  8421504
370
    25
100
AcDbPolyline
 90
        3
 70
     0
 43
0.0
 10
129.603841198698
 20
-5.660798343653944
 10
129.027120406798
 20
-5.376446143654402
 10
128.4983917044975
 20
-5.18356124125389
  0
SPLINE
  5
293
330
70
100
AcDbEntity
  8
0
 62
     8
420
  8421504
370
    25
100
AcDbSpline
210
0.0
220
0.0
230
1.0
 70
     8
 71
     3
 72
     8
 73
     4
 74
     0
 42
0.0000000001
 43
0.0000000001
 40
0.0
 40
0.0
 40
0.0
 40
0.0
 40
1.0
 40
1.0
 40
1.0
 40
1.0
 10
124.1499389026335
 20
-5.10325369698169
 30
0.0
 10
123.6677005082751
 20
-5.229854937571897
 30
0.0
 10
123.2034978198679
 20
-5.417203069585389
 30
0.0
 10
122.7684776000388
 20
-5.660799357431904
 30
0.0
  0
LWPOLYLINE
  5
294
330
70
100
AcDbEntity
  8
0
 62
     8
420
  8421504
370
    25
100
AcDbPolyline
 90
       27
 70
     0
 43
0.0
 10
147.8428521352977
 20
-16.1335999190541
 10
147.7540021882979
 20
-15.55195946845393
 10
147.5526772296977
 20
-14.64397489405411
 10
147.2745062733975
 20
-13.72328981525441
 10
146.9231174606974
 20
-12.80190817855414
 10
146.5030889928976
 20
-11.89183979825386
 10
146.0198964480975
 20
-11.00494864905443
 10
145.4798425363978
 20
-10.15279875245403
 10
144.8899640251977
 20
-9.346497275854197
 10
144.2579527144979
 20
-8.596556643654206
 10
143.5920465569979
 20
-7.91275259375403
 10
142.9009278033978
 20
-7.304000485453872
 10
142.1936070988977
 20
-6.77823617085419
 10
141.4793023102977
 20
-6.342312583654019
 10
140.7673296473975
 20
-6.001915084054372
 10
140.0669666850978
 20
-5.761478835254494
 10
139.3873469966975
 20
-5.624139636054353
 10
138.7373284449978
 20
-5.591687291854266
 10
138.1253843024977
 20
-5.664544839054277
 10
137.5594961286977
 20
-5.841763991754139
 10
137.0470361098975
 20
-6.121031744254405
 10
136.5946880337976
 20
-6.49870890775386
 10
136.2083489468976
 20
-6.969872706254103
 10
135.8930553976976
 20
-7.528380154853942
 10
135.6529149476978
 20
-8.166948675454481
 10
135.4910622687977
 20
-8.877256228453905
 10
135.4731972733977
 20
-8.992750164554482
  0
LWPOLYLINE
  5
295
330
70
100
AcDbEntity
  8
0
 62
     8
420
  8421504
370
    25
100
AcDbPolyline
 90
       22
 70
     0
 43
0.0
 10
135.945489589498
 20
-13.32452301045424
 10
136.2083489468976
 20
-14.07760806755385
 10
136.5946880337976
 20
-14.99482948115434
 10
137.0470361098975
 20
-15.89477661655427
 10
137.5594961286977
 20
-16.76571811255446
 10
138.1253843024977
 20
-17.5962978435539
 10
138.7373284449978
 20
-18.37569105865395
 10
139.3873469966975
 20
-19.09373415955414
 10
140.0669666850978
 20
-19.74106715025421
 10
140.7673296473975
 20
-20.30925276575412
 10
141.4793023102977
 20
-20.79088140555395
 10
142.1936070988977
 20
-21.1796765725539
 10
142.9009278033978
 20
-21.47056736035446
 10
143.5920465569979
 20
-21.65976398005389
 10
144.2579527144979
 20
-21.74479881445423
 10
144.8899640251977
 20
-21.72456290945399
 10
145.4798425363978
 20
-21.59932066515418
 10
146.0198964480975
 20
-21.37070374265436
 10
146.5030889928976
 20
-21.04169483085421
 10
146.9231174606974
 20
-20.61658099695398
 10
147.2745062733975
 20
-20.10090424775436
 10
147.3705598191974
 20
-19.92007566375448
  0
SPLINE
  5
296
330
70
100
AcDbEntity
  8
0
 62
     8
420
  8421504
370
    25
100
AcDbSpline
210
0.0
220
0.0
230
1.0
 70
     8
 71
     3
 72
     8
 73
     4
 74
     0
 42
0.0000000001
 43
0.0000000001
 40
0.0
 40
0.0
 40
0.0
 40
0.0
 40
1.0
 40
1.0
 40
1.0
 40
1.0
 10
146.4763538419297
 20
-21.47267656570651
 30
0.0
 10
147.0145321748128
 20
-21.15301558634523
 30
0.0
 10
147.4531109840635
 20
-20.68986322837877
 30
0.0
 10
147.7429869338105
 20
-20.13507408512742
 30
0.0
  0
LWPOLYLINE
  5
297
330
70
100
AcDbEntity
  8
0
 62
     8
420
  8421504
370
    25
100
AcDbPolyline
 90
       20
 70
     0
 43
0.0
 10
138.5950810750978
 20
-5.186384628854057
 10
139.0810412628978
 20
-5.166645575654151
 10
139.7525863175976
 20
-5.233107349254296
 10
140.4510544277976
 20
-5.403956858554146
 10
141.1676614879974
 20
-5.677045859653859
 10
141.8933933407978
 20
-6.048937906254248
 10
142.6191269497975
 20
-6.514959035354001
 10
143.3357322538974
 20
-7.069245920854466
 10
144.0342003640974
 20
-7.704830526154265
 10
144.7057471747977
 20
-8.413719182654075
 10
145.3419257551978
 20
-9.186996002054328
 10
145.9347369845974
 20
-10.01493794945448
 10
146.4767261390975
 20
-10.88713295935386
 10
146.9610777221978
 20
-11.79261275465419
 10
147.3817006361974
 20
-12.71999022855438
 10
147.7333045734977
 20
-13.65760291155397
 10
148.0114676271979
 20
-14.59365973445395
 10
148.2126933650977
 20
-15.51638982035407
 10
148.3344494640975
 20
-16.41418855295408
 10
148.3347611750978
 20
-16.4175736609539
  0
LWPOLYLINE
  5
298
330
70
100
AcDbEntity
  8
0
 62
     8
420
  8421504
370
    25
100
AcDbPolyline
 90
        3
 70
     0
 43
0.0
 10
140.269369900598
 20
-11.39973515455388
 10
139.995733242698
 20
-11.58225684205402
 10
139.982140884098
 20
-11.59570817115392
  0
LWPOLYLINE
  5
299
330
70
100
AcDbEntity
  8
0
 62
     8
420
  8421504
370
    25
100
AcDbPolyline
 90
        3
 70
     0
 43
0.0
 10
143.0314723982976
 20
-13.35604978435398
 10
143.0178800396976
 20
-13.32690505205438
 10
142.7442433818977
 20
-12.82844920425393
  0
LINE
  5
29A
330
70
100
AcDbEntity
  8
0
 62
     8
420
  8421504
370
    25
100
AcDbLine
 10
142.6263920127975
 20
-13.042488614254
 30
0.0
 11
142.7442433818977
 21
-12.97445446705449
 31
0.0
  0
LINE
  5
29B
330
70
100
AcDbEntity
  8
0
 62
     8
420
  8421504
370
    25
100
AcDbLine
 10
140.7644057097976
 20
-11.53209891645444
 30
0.0
 11
140.3872212695974
 21
-11.74984285895427
 31
0.0
  0
LINE
  5
29C
330
70
100
AcDbEntity
  8
0
 62
     8
420
  8421504
370
    25
100
AcDbLine
 10
140.3827378985974
 20
-11.31696446345439
 30
0.0
 11
140.2695525368974
 21
-11.38230498195403
 31
0.0
  0
LINE
  5
29D
330
70
100
AcDbEntity
  8
0
 62
     8
420
  8421504
370
    25
100
AcDbLine
 10
140.269369900598
 20
-11.54571855415416
 30
0.0
 11
140.5286836543976
 21
-11.3960199104544
 31
0.0
  0
LWPOLYLINE
  5
29E
330
70
100
AcDbEntity
  8
0
 62
     8
420
  8421504
370
    25
100
AcDbPolyline
 90
       22
 70
     0
 43
0.0
 10
176.0367335655976
 20
-36.46870657655398
 10
176.1260120054978
 20
-36.73910714295438
 10
176.4774008181979
 20
-37.66048877975412
 10
176.8974292859977
 20
-38.5705571600544
 10
177.3806218307978
 20
-39.45744830915437
 10
177.9206757424975
 20
-40.30959820585422
 10
178.5105542536977
 20
-41.11589968235395
 10
179.1425655643975
 20
-41.86584031455395
 10
179.8084717218974
 20
-42.54964436445412
 10
180.4995904753974
 20
-43.15839647275428
 10
181.2069111799976
 20
-43.68416078735396
 10
181.9212159684975
 20
-44.12008437465424
 10
182.6331886314978
 20
-44.46048187415442
 10
183.3335515937975
 20
-44.7009181229543
 10
184.0131712820977
 20
-44.8382573222539
 10
184.6631898338976
 20
-44.87070966635388
 10
185.2751339763976
 20
-44.79785211925398
 10
185.8410221500975
 20
-44.62063296645402
 10
186.3534821689978
 20
-44.3413652140545
 10
186.8058302450977
 20
-43.96368805045429
 10
187.1921693318977
 20
-43.49252425195405
 10
187.4482535834976
 20
-43.05643685915387
  0
LWPOLYLINE
  5
29F
330
70
100
AcDbEntity
  8
0
 62
     8
420
  8421504
370
    25
100
AcDbPolyline
 90
       27
 70
     0
 43
0.0
 10
187.9296408381978
 20
-39.27521151075441
 10
187.9094560099975
 20
-39.12033398355432
 10
187.7476033311975
 20
-38.22315530515402
 10
187.5074628811978
 20
-37.30732652265437
 10
187.1921693318977
 20
-36.38478889075441
 10
186.8058302450977
 20
-35.46756747715392
 10
186.3534821689978
 20
-34.56762034175399
 10
185.8410221500975
 20
-33.69667884565434
 10
185.2751339763976
 20
-32.86609911465426
 10
184.6631898338976
 20
-32.08670589965431
 10
184.0131712820977
 20
-31.36866279865401
 10
183.3335515937975
 20
-30.72132980795395
 10
182.6331886314978
 20
-30.15314419255414
 10
181.9212159684975
 20
-29.67151555275431
 10
181.2069111799976
 20
-29.28272038575436
 10
180.4995904753974
 20
-28.99182959785434
 10
179.8084717218974
 20
-28.80263297815427
 10
179.1425655643975
 20
-28.71759814375393
 10
178.5105542536977
 20
-28.73783404885427
 10
177.9206757424975
 20
-28.86307629315409
 10
177.3806218307978
 20
-29.09169321555443
 10
176.8974292859977
 20
-29.42070212735395
 10
176.4774008181979
 20
-29.84581596135429
 10
176.1260120054978
 20
-30.36149271055391
 10
175.8478410491976
 20
-30.9610084394545
 10
175.6465160905975
 20
-31.63654816435442
 10
175.5553471888977
 20
-32.13168384125447
  0
LWPOLYLINE
  5
2A0
330
70
100
AcDbEntity
  8
0
 62
     8
420
  8421504
370
    25
100
AcDbPolyline
 90
       22
 70
     0
 43
0.0
 10
177.5619252801979
 20
-28.62833231165417
 10
177.9365212013977
 20
-28.47175587605445
 10
178.5293324307973
 20
-28.32825920525399
 10
179.1655110111974
 20
-28.28949854015439
 10
179.8370578218976
 20
-28.35596132755431
 10
180.5355259321977
 20
-28.52681083685416
 10
181.2521312361976
 20
-28.7998988242542
 10
181.9778648451979
 20
-29.17179188455426
 10
182.7035966979976
 20
-29.63781199985424
 10
183.4202037581975
 20
-30.19209989915448
 10
184.1186718683975
 20
-30.82768450455438
 10
184.7902169230979
 20
-31.53657214725442
 10
185.4263972595979
 20
-32.30984998045445
 10
186.0192084888975
 20
-33.1377919277545
 10
186.5611976434977
 20
-34.00998693765387
 10
187.045549226598
 20
-34.91546673295421
 10
187.4661712624979
 20
-35.84284369995386
 10
187.8177760777978
 20
-36.78045688985399
 10
188.0959382534978
 20
-37.71651320595419
 10
188.2971648694979
 20
-38.63924379865409
 10
188.4189200903979
 20
-39.53704202445431
 10
188.4209080166978
 20
-39.55881262305421
  0
LWPOLYLINE
  5
2A1
330
70
100
AcDbEntity
  8
0
 62
     8
420
  8421504
370
    25
100
AcDbPolyline
 90
        3
 70
     0
 43
0.0
 10
187.8202346439976
 20
-43.27117549785405
 10
187.8177760777978
 20
-43.27565967125442
 10
187.5477991712979
 20
-43.70032798945396
  0
LWPOLYLINE
  5
2A2
330
70
100
AcDbEntity
  8
0
 62
     8
420
  8421504
370
    25
100
AcDbPolyline
 90
        3
 70
     0
 43
0.0
 10
183.1268054967974
 20
-36.50259382385419
 10
183.1023497878977
 20
-36.44976004415418
 10
182.8287131300978
 20
-35.95130419635437
  0
LWPOLYLINE
  5
2A3
330
70
100
AcDbEntity
  8
0
 62
     8
420
  8421504
370
    25
100
AcDbPolyline
 90
        3
 70
     0
 43
0.0
 10
180.3538396487975
 20
-34.52259014665432
 10
180.0802029909976
 20
-34.70511183415445
 10
180.0557472820979
 20
-34.7297096534539
  0
LINE
  5
2A4
330
70
100
AcDbEntity
  8
0
 62
     8
420
  8421504
370
    25
100
AcDbLine
 10
182.7108617610977
 20
-36.16534360635444
 30
0.0
 11
182.8287131300978
 21
-36.09730945915428
 31
0.0
  0
LINE
  5
2A5
330
70
100
AcDbEntity
  8
0
 62
     8
420
  8421504
370
    25
100
AcDbLine
 10
180.8488772140977
 20
-34.65495289475445
 30
0.0
 11
180.4716910177976
 21
-34.87269785105406
 31
0.0
  0
LINE
  5
2A6
330
70
100
AcDbEntity
  8
0
 62
     8
420
  8421504
370
    25
100
AcDbLine
 10
180.4712783299978
 20
-34.43746950025423
 30
0.0
 11
180.3540222851976
 21
-34.50515997405446
 31
0.0
  0
LINE
  5
2A7
330
70
100
AcDbEntity
  8
0
 62
     8
420
  8421504
370
    25
100
AcDbLine
 10
180.3538396487975
 20
-34.66857354625395
 30
0.0
 11
180.6131551587977
 21
-34.51887388875441
 31
0.0
  0
LINE
  5
2A8
330
70
100
AcDbEntity
  8
0
 62
    18
420
        0
370
    25
100
AcDbLine
 10
191.7990923355975
 20
97.35351037524594
 30
0.0
 11
191.7990923355975
 21
95.85351037524587
 31
0.0
  0
LINE
  5
2A9
330
70
100
AcDbEntity
  8
0
 62
    18
420
        0
370
    25
100
AcDbLine
 10
192.7990923355975
 20
95.85351037524587
 30
0.0
 11
192.7990923355975
 21
97.35351037524594
 31
0.0
  0
LINE
  5
2AA
330
70
100
AcDbEntity
  8
0
 62
    18
420
        0
370
    25
100
AcDbLine
 10
191.7990923355975
 20
102.0201770418457
 30
0.0
 11
191.7990923355975
 21
97.35351037524594
 31
0.0
  0
LINE
  5
2AB
330
70
100
AcDbEntity
  8
0
 62
    18
420
        0
370
    25
100
AcDbLine
 10
192.7990923355975
 20
97.35351037524594
 30
0.0
 11
192.7990923355975
 21
102.0201770418457
 31
0.0
  0
LINE
  5
2AC
330
70
100
AcDbEntity
  8
0
 62
    18
420
        0
370
    25
100
AcDbLine
 10
185.1324256689979
 20
102.0201770418457
 30
0.0
 11
185.1324256689979
 21
92.35351037524575
 31
0.0
  0
LINE
  5
2AD
330
70
100
AcDbEntity
  8
0
 62
    18
420
        0
370
    25
100
AcDbLine
 10
186.1324256689973
 20
92.35351037524575
 30
0.0
 11
186.1324256689973
 21
102.0201770418457
 31
0.0
  0
LINE
  5
2AE
330
70
100
AcDbEntity
  8
0
 62
    18
420
        0
370
    25
100
AcDbLine
 10
185.1324256689979
 20
92.35351037524575
 30
0.0
 11
185.1324256689979
 21
90.85351037524571
 31
0.0
  0
LINE
  5
2AF
330
70
100
AcDbEntity
  8
0
 62
    18
420
        0
370
    25
100
AcDbLine
 10
186.1324256689973
 20
90.85351037524571
 30
0.0
 11
186.1324256689973
 21
92.35351037524575
 31
0.0
  0
LINE
  5
2B0
330
70
100
AcDbEntity
  8
0
 62
    18
420
        0
370
    25
100
AcDbLine
 10
179.4657590022977
 20
90.85351037524571
 30
0.0
 11
179.4657590022977
 21
92.35351037524575
 31
0.0
  0
LINE
  5
2B1
330
70
100
AcDbEntity
  8
0
 62
    18
420
        0
370
    25
100
AcDbLine
 10
178.4657590022977
 20
92.35351037524575
 30
0.0
 11
178.4657590022977
 21
90.85351037524571
 31
0.0
  0
LINE
  5
2B2
330
70
100
AcDbEntity
  8
0
 62
    18
420
        0
370
    25
100
AcDbLine
 10
178.4657590022977
 20
102.0201770418457
 30
0.0
 11
178.4657590022977
 21
92.35351037524575
 31
0.0
  0
LINE
  5
2B3
330
70
100
AcDbEntity
  8
0
 62
    18
420
        0
370
    25
100
AcDbLine
 10
179.4657590022977
 20
92.35351037524575
 30
0.0
 11
179.4657590022977
 21
102.0201770418457
 31
0.0
  0
LINE
  5
2B4
330
70
100
AcDbEntity
  8
0
 62
    18
420
        0
370
    25
100
AcDbLine
 10
171.7990923355974
 20
102.0201770418457
 30
0.0
 11
171.7990923355974
 21
92.35351037524575
 31
0.0
  0
LINE
  5
2B5
330
70
100
AcDbEntity
  8
0
 62
    18
420
        0
370
    25
100
AcDbLine
 10
172.7990923355974
 20
92.35351037524575
 30
0.0
 11
172.7990923355974
 21
102.0201770418457
 31
0.0
  0
LINE
  5
2B6
330
70
100
AcDbEntity
  8
0
 62
    18
420
        0
370
    25
100
AcDbLine
 10
172.7990923355974
 20
90.85351037524571
 30
0.0
 11
172.7990923355974
 21
92.35351037524575
 31
0.0
  0
LINE
  5
2B7
330
70
100
AcDbEntity
  8
0
 62
    18
420
        0
370
    25
100
AcDbLine
 10
171.7990923355974
 20
92.35351037524575
 30
0.0
 11
171.7990923355974
 21
90.85351037524571
 31
0.0
  0
LINE
  5
2B8
330
70
100
AcDbEntity
  8
0
 62
    18
420
        0
370
    25
100
AcDbLine
 10
166.1324256689979
 20
90.85351037524571
 30
0.0
 11
166.1324256689979
 21
92.35351037524575
 31
0.0
  0
LINE
  5
2B9
330
70
100
AcDbEntity
  8
0
 62
    18
420
        0
370
    25
100
AcDbLine
 10
165.1324256689979
 20
92.35351037524575
 30
0.0
 11
165.1324256689979
 21
90.85351037524571
 31
0.0
  0
LINE
  5
2BA
330
70
100
AcDbEntity
  8
0
 62
    18
420
        0
370
    25
100
AcDbLine
 10
165.1324256689979
 20
102.0201770418457
 30
0.0
 11
165.1324256689979
 21
92.35351037524575
 31
0.0
  0
LINE
  5
2BB
330
70
100
AcDbEntity
  8
0
 62
    18
420
        0
370
    25
100
AcDbLine
 10
166.1324256689979
 20
92.35351037524575
 30
0.0
 11
166.1324256689979
 21
102.0201770418457
 31
0.0
  0
LINE
  5
2BC
330
70
100
AcDbEntity
  8
0
 62
    18
420
        0
370
    25
100
AcDbLine
 10
158.4657590022976
 20
102.0201770418457
 30
0.0
 11
158.4657590022976
 21
92.35351037524575
 31
0.0
  0
LINE
  5
2BD
330
70
100
AcDbEntity
  8
0
 62
    18
420
        0
370
    25
100
AcDbLine
 10
159.4657590022977
 20
92.35351037524575
 30
0.0
 11
159.4657590022977
 21
102.0201770418457
 31
0.0
  0
LINE
  5
2BE
330
70
100
AcDbEntity
  8
0
 62
    18
420
        0
370
    25
100
AcDbLine
 10
159.4657590022977
 20
90.85351037524571
 30
0.0
 11
159.4657590022977
 21
92.35351037524575
 31
0.0
  0
LINE
  5
2BF
330
70
100
AcDbEntity
  8
0
 62
    18
420
        0
370
    25
100
AcDbLine
 10
158.4657590022976
 20
92.35351037524575
 30
0.0
 11
158.4657590022976
 21
90.85351037524571
 31
0.0
  0
LINE
  5
2C0
330
70
100
AcDbEntity
  8
0
 62
    18
420
        0
370
    25
100
AcDbLine
 10
152.2523756539974
 20
112.8535103752458
 30
0.0
 11
150.799092335598
 21
112.8535103752458
 31
0.0
  0
LINE
  5
2C1
330
70
100
AcDbEntity
  8
0
 62
    18
420
        0
370
    25
100
AcDbLine
 10
150.799092335598
 20
94.52017704184575
 30
0.0
 11
152.2523756539974
 21
94.52017704184575
 31
0.0
  0
SPLINE
  5
2C2
330
70
100
AcDbEntity
  8
0
 62
    18
420
        0
370
    25
100
AcDbSpline
210
0.0
220
0.0
230
1.0
 70
     8
 71
     3
 72
     8
 73
     4
 74
     0
 42
0.0000000001
 43
0.0000000001
 40
0.0
 40
0.0
 40
0.0
 40
0.0
 40
1.0
 40
1.0
 40
1.0
 40
1.0
 10
152.2523756539974
 20
94.52017704191248
 30
0.0
 10
152.4295916709226
 20
94.52017704191248
 30
0.0
 10
152.5758273390436
 20
94.65884236244734
 30
0.0
 10
152.5852386104831
 20
94.83580830443774
 30
0.0
  0
SPLINE
  5
2C3
330
70
100
AcDbEntity
  8
0
 62
    18
420
        0
370
    25
100
AcDbSpline
210
0.0
220
0.0
230
1.0
 70
     8
 71
     3
 72
     8
 73
     4
 74
     0
 42
0.0000000001
 43
0.0000000001
 40
0.0
 40
0.0
 40
0.0
 40
0.0
 40
1.0
 40
1.0
 40
1.0
 40
1.0
 10
152.5852386104831
 20
112.5378791126538
 30
0.0
 10
152.5758273390436
 20
112.7148450546445
 30
0.0
 10
152.4295916709226
 20
112.8535103751791
 30
0.0
 10
152.2523756539974
 20
112.8535103751791
 30
0.0
  0
SPLINE
  5
2C4
330
70
100
AcDbEntity
  8
0
 62
    18
420
        0
370
    25
100
AcDbSpline
210
0.0
220
0.0
230
1.0
 70
     8
 71
     3
 72
     8
 73
     4
 74
     0
 42
0.0000000001
 43
0.0000000001
 40
0.0
 40
0.0
 40
0.0
 40
0.0
 40
1.0
 40
1.0
 40
1.0
 40
1.0
 10
152.5852386105113
 20
94.8358083045481
 30
0.0
 10
152.6947896171057
 20
96.89576345535032
 30
0.0
 10
152.7660864776385
 20
98.95757498154758
 30
0.0
 10
152.7990923356243
 20
101.0201770419801
 30
0.0
  0
SPLINE
  5
2C5
330
70
100
AcDbEntity
  8
0
 62
    18
420
        0
370
    25
100
AcDbSpline
210
0.0
220
0.0
230
1.0
 70
     8
 71
     3
 72
     8
 73
     4
 74
     0
 42
0.0000000001
 43
0.0000000001
 40
0.0
 40
0.0
 40
0.0
 40
0.0
 40
1.0
 40
1.0
 40
1.0
 40
1.0
 10
152.7990923356243
 20
106.3535103751115
 30
0.0
 10
152.7660864776385
 20
108.416112435544
 30
0.0
 10
152.6947896171057
 20
110.4779239617412
 30
0.0
 10
152.5852386105113
 20
112.5378791125435
 30
0.0
  0
LINE
  5
2C6
330
70
100
AcDbEntity
  8
0
 62
    18
420
        0
370
    25
100
AcDbLine
 10
150.799092335598
 20
112.8535103752458
 30
0.0
 11
150.7777576367976
 21
112.8535103752458
 31
0.0
  0
LINE
  5
2C7
330
70
100
AcDbEntity
  8
0
 62
    18
420
        0
370
    25
100
AcDbLine
 10
150.7777576367976
 20
94.52017704184575
 30
0.0
 11
150.799092335598
 21
94.52017704184575
 31
0.0
  0
SPLINE
  5
2C8
330
70
100
AcDbEntity
  8
0
 62
    18
420
        0
370
    25
100
AcDbSpline
210
0.0
220
0.0
230
1.0
 70
     8
 71
     3
 72
    11
 73
     7
 74
     0
 42
0.0000000001
 43
0.0000000001
 40
0.0
 40
0.0
 40
0.0
 40
0.0
 40
1.0
 40
1.0
 40
1.0
 40
2.0
 40
2.0
 40
2.0
 40
2.0
 10
191.7990923355975
 20
95.85351037524587
 30
0.0
 10
191.7990923355975
 20
95.57736800033039
 30
0.0
 10
192.022949960682
 20
95.35351037524586
 30
0.0
 10
192.2990923355978
 20
95.35351037524586
 30
0.0
 10
192.575234710513
 20
95.35351037524586
 30
0.0
 10
192.7990923355975
 20
95.57736800033039
 30
0.0
 10
192.7990923355975
 20
95.85351037524587
 30
0.0
  0
SPLINE
  5
2C9
330
70
100
AcDbEntity
  8
0
 62
    18
420
        0
370
    25
100
AcDbSpline
210
0.0
220
0.0
230
1.0
 70
     8
 71
     3
 72
    11
 73
     7
 74
     0
 42
0.0000000001
 43
0.0000000001
 40
0.0
 40
0.0
 40
0.0
 40
0.0
 40
1.0
 40
1.0
 40
1.0
 40
2.0
 40
2.0
 40
2.0
 40
2.0
 10
185.1324256689979
 20
90.85351037524571
 30
0.0
 10
185.1324256689979
 20
90.57736800033053
 30
0.0
 10
185.3562832940825
 20
90.353510375246
 30
0.0
 10
185.6324256689977
 20
90.353510375246
 30
0.0
 10
185.9085680439128
 20
90.353510375246
 30
0.0
 10
186.132425668998
 20
90.57736800033053
 30
0.0
 10
186.132425668998
 20
90.85351037524571
 30
0.0
  0
SPLINE
  5
2CA
330
70
100
AcDbEntity
  8
0
 62
    18
420
        0
370
    25
100
AcDbSpline
210
0.0
220
0.0
230
1.0
 70
     8
 71
     3
 72
    11
 73
     7
 74
     0
 42
0.0000000001
 43
0.0000000001
 40
0.0
 40
0.0
 40
0.0
 40
0.0
 40
1.0
 40
1.0
 40
1.0
 40
2.0
 40
2.0
 40
2.0
 40
2.0
 10
178.4657590022977
 20
90.85351037524571
 30
0.0
 10
178.4657590022977
 20
90.57736800033053
 30
0.0
 10
178.6896166273822
 20
90.353510375246
 30
0.0
 10
178.9657590022974
 20
90.353510375246
 30
0.0
 10
179.2419013772132
 20
90.353510375246
 30
0.0
 10
179.4657590022977
 20
90.57736800033053
 30
0.0
 10
179.4657590022977
 20
90.85351037524571
 30
0.0
  0
SPLINE
  5
2CB
330
70
100
AcDbEntity
  8
0
 62
    18
420
        0
370
    25
100
AcDbSpline
210
0.0
220
0.0
230
1.0
 70
     8
 71
     3
 72
    11
 73
     7
 74
     0
 42
0.0000000001
 43
0.0000000001
 40
0.0
 40
0.0
 40
0.0
 40
0.0
 40
1.0
 40
1.0
 40
1.0
 40
2.0
 40
2.0
 40
2.0
 40
2.0
 10
171.7990923355974
 20
90.85351037524571
 30
0.0
 10
171.7990923355974
 20
90.57736800033053
 30
0.0
 10
172.022949960682
 20
90.353510375246
 30
0.0
 10
172.2990923355977
 20
90.353510375246
 30
0.0
 10
172.5752347105129
 20
90.353510375246
 30
0.0
 10
172.7990923355974
 20
90.57736800033053
 30
0.0
 10
172.7990923355974
 20
90.85351037524571
 30
0.0
  0
SPLINE
  5
2CC
330
70
100
AcDbEntity
  8
0
 62
    18
420
        0
370
    25
100
AcDbSpline
210
0.0
220
0.0
230
1.0
 70
     8
 71
     3
 72
    11
 73
     7
 74
     0
 42
0.0000000001
 43
0.0000000001
 40
0.0
 40
0.0
 40
0.0
 40
0.0
 40
1.0
 40
1.0
 40
1.0
 40
2.0
 40
2.0
 40
2.0
 40
2.0
 10
165.1324256689979
 20
90.85351037524571
 30
0.0
 10
165.1324256689979
 20
90.57736800033053
 30
0.0
 10
165.3562832940824
 20
90.353510375246
 30
0.0
 10
165.6324256689976
 20
90.353510375246
 30
0.0
 10
165.9085680439134
 20
90.353510375246
 30
0.0
 10
166.1324256689979
 20
90.57736800033053
 30
0.0
 10
166.1324256689979
 20
90.85351037524571
 30
0.0
  0
SPLINE
  5
2CD
330
70
100
AcDbEntity
  8
0
 62
    18
420
        0
370
    25
100
AcDbSpline
210
0.0
220
0.0
230
1.0
 70
     8
 71
     3
 72
    11
 73
     7
 74
     0
 42
0.0000000001
 43
0.0000000001
 40
0.0
 40
0.0
 40
0.0
 40
0.0
 40
1.0
 40
1.0
 40
1.0
 40
2.0
 40
2.0
 40
2.0
 40
2.0
 10
158.4657590022976
 20
90.85351037524571
 30
0.0
 10
158.4657590022976
 20
90.57736800033053
 30
0.0
 10
158.6896166273822
 20
90.353510375246
 30
0.0
 10
158.9657590022979
 20
90.353510375246
 30
0.0
 10
159.2419013772131
 20
90.353510375246
 30
0.0
 10
159.4657590022977
 20
90.57736800033053
 30
0.0
 10
159.4657590022977
 20
90.85351037524571
 30
0.0
  0
LINE
  5
2CE
330
70
100
AcDbEntity
  8
0
 62
    18
420
        0
370
    25
100
AcDbLine
 10
157.7990923355976
 20
102.0201770418457
 30
0.0
 11
152.9657590022978
 21
102.0201770418457
 31
0.0
  0
SPLINE
  5
2CF
330
70
100
AcDbEntity
  8
0
 62
    18
420
        0
370
    25
100
AcDbSpline
210
0.0
220
0.0
230
1.0
 70
     8
 71
     3
 72
     8
 73
     4
 74
     0
 42
0.0000000001
 43
0.0000000001
 40
0.0
 40
0.0
 40
0.0
 40
0.0
 40
1.0
 40
1.0
 40
1.0
 40
1.0
 10
152.7990923356307
 20
102.1868437085457
 30
0.0
 10
152.7990923356307
 20
102.0947962502407
 30
0.0
 10
152.8737115439927
 20
102.020177041879
 30
0.0
 10
152.9657590022978
 20
102.020177041879
 30
0.0
  0
LINE
  5
2D0
330
70
100
AcDbEntity
  8
0
 62
    18
420
        0
370
    25
100
AcDbLine
 10
152.7990923355974
 20
102.1868437085457
 30
0.0
 11
157.7990923355976
 21
102.1868437085457
 31
0.0
  0
LINE
  5
2D1
330
70
100
AcDbEntity
  8
0
 62
    18
420
        0
370
    25
100
AcDbLine
 10
157.7990923355976
 20
102.0201770418457
 30
0.0
 11
157.7990923355976
 21
102.1868437085457
 31
0.0
  0
LINE
  5
2D2
330
70
100
AcDbEntity
  8
0
 62
    18
420
        0
370
    25
100
AcDbLine
 10
157.7990923355976
 20
105.1868437085458
 30
0.0
 11
152.7990923355974
 21
105.1868437085458
 31
0.0
  0
SPLINE
  5
2D3
330
70
100
AcDbEntity
  8
0
 62
    18
420
        0
370
    25
100
AcDbSpline
210
0.0
220
0.0
230
1.0
 70
     8
 71
     3
 72
     8
 73
     4
 74
     0
 42
0.0000000001
 43
0.0000000001
 40
0.0
 40
0.0
 40
0.0
 40
0.0
 40
1.0
 40
1.0
 40
1.0
 40
1.0
 10
152.9657590022978
 20
105.3535103752125
 30
0.0
 10
152.8737115439927
 20
105.3535103752125
 30
0.0
 10
152.7990923356307
 20
105.2788911668509
 30
0.0
 10
152.7990923356307
 20
105.1868437085458
 30
0.0
  0
LINE
  5
2D4
330
70
100
AcDbEntity
  8
0
 62
    18
420
        0
370
    25
100
AcDbLine
 10
152.9657590022978
 20
105.3535103752459
 30
0.0
 11
157.7990923355976
 21
105.3535103752459
 31
0.0
  0
LINE
  5
2D5
330
70
100
AcDbEntity
  8
0
 62
    18
420
        0
370
    25
100
AcDbLine
 10
157.7990923355976
 20
105.1868437085458
 30
0.0
 11
157.7990923355976
 21
105.3535103752459
 31
0.0
  0
LINE
  5
2D6
330
70
100
AcDbEntity
  8
0
 62
    18
420
        0
370
    25
100
AcDbLine
 10
157.7990923355976
 20
105.1868437085458
 30
0.0
 11
157.7990923355976
 21
102.1868437085457
 31
0.0
  0
LINE
  5
2D7
330
70
100
AcDbEntity
  8
0
 62
    18
420
        0
370
    25
100
AcDbLine
 10
152.7990923355974
 20
105.1868437085458
 30
0.0
 11
152.7990923355974
 21
102.1868437085457
 31
0.0
  0
LINE
  5
2D8
330
70
100
AcDbEntity
  8
0
 62
    18
420
        0
370
    25
100
AcDbLine
 10
194.1978626414974
 20
105.1868437085458
 30
0.0
 11
157.7990923355976
 21
105.1868437085458
 31
0.0
  0
LINE
  5
2D9
330
70
100
AcDbEntity
  8
0
 62
    18
420
        0
370
    25
100
AcDbLine
 10
157.7990923355976
 20
105.3535103752459
 30
0.0
 11
194.1324256689976
 21
105.3535103752459
 31
0.0
  0
SPLINE
  5
2DA
330
70
100
AcDbEntity
  8
0
 62
    18
420
        0
370
    25
100
AcDbSpline
210
0.0
220
0.0
230
1.0
 70
     8
 71
     3
 72
     8
 73
     4
 74
     0
 42
0.0000000001
 43
0.0000000001
 40
0.0
 40
0.0
 40
0.0
 40
0.0
 40
1.0
 40
1.0
 40
1.0
 40
1.0
 10
194.1978626415449
 20
105.1868437085089
 30
0.0
 10
194.1772005399386
 20
105.2428440230444
 30
0.0
 10
194.1553835596696
 20
105.2984114375565
 30
0.0
 10
194.1324256689951
 20
105.3535103751746
 30
0.0
  0
LINE
  5
2DB
330
70
100
AcDbEntity
  8
0
 62
    18
420
        0
370
    25
100
AcDbLine
 10
194.1324256689976
 20
102.0201770418457
 30
0.0
 11
157.7990923355976
 21
102.0201770418457
 31
0.0
  0
LINE
  5
2DC
330
70
100
AcDbEntity
  8
0
 62
    18
420
        0
370
    25
100
AcDbLine
 10
157.7990923355976
 20
102.1868437085457
 30
0.0
 11
194.1978626414974
 21
102.1868437085457
 31
0.0
  0
SPLINE
  5
2DD
330
70
100
AcDbEntity
  8
0
 62
    18
420
        0
370
    25
100
AcDbSpline
210
0.0
220
0.0
230
1.0
 70
     8
 71
     3
 72
     8
 73
     4
 74
     0
 42
0.0000000001
 43
0.0000000001
 40
0.0
 40
0.0
 40
0.0
 40
0.0
 40
1.0
 40
1.0
 40
1.0
 40
1.0
 10
194.132425668929
 20
102.0201770418447
 30
0.0
 10
194.1553835596035
 20
102.0752759794619
 30
0.0
 10
194.1772005398718
 20
102.1308433939734
 30
0.0
 10
194.1978626414782
 20
102.1868437085082
 30
0.0
  0
SPLINE
  5
2DE
330
70
100
AcDbEntity
  8
0
 62
    18
420
        0
370
    25
100
AcDbSpline
210
0.0
220
0.0
230
1.0
 70
     8
 71
     3
 72
     8
 73
     4
 74
     0
 42
0.0000000001
 43
0.0000000001
 40
0.0
 40
0.0
 40
0.0
 40
0.0
 40
1.0
 40
1.0
 40
1.0
 40
1.0
 10
194.1978626415475
 20
102.1868437085448
 30
0.0
 10
194.555057789259
 20
103.1549466151584
 30
0.0
 10
194.555057789259
 20
104.2187408019332
 30
0.0
 10
194.1978626415475
 20
105.1868437085468
 30
0.0
  0
LINE
  5
2DF
330
70
100
AcDbEntity
  8
0
 62
    18
420
        0
370
    25
100
AcDbLine
 10
150.799092335598
 20
103.6868437085458
 30
0.0
 11
150.799092335598
 21
94.52017704184575
 31
0.0
  0
LINE
  5
2E0
330
70
100
AcDbEntity
  8
0
 62
    18
420
        0
370
    25
100
AcDbLine
 10
150.799092335598
 20
112.8535103752458
 30
0.0
 11
150.799092335598
 21
103.6868437085458
 31
0.0
  0
LINE
  5
2E1
330
70
100
AcDbEntity
  8
0
 62
    18
420
        0
370
    25
100
AcDbLine
 10
152.7990923355974
 20
106.3535103752459
 30
0.0
 11
152.7990923355974
 21
105.8868437085458
 31
0.0
  0
LINE
  5
2E2
330
70
100
AcDbEntity
  8
0
 62
    18
420
        0
370
    25
100
AcDbLine
 10
152.7983847434976
 20
105.8868437085458
 30
0.0
 11
152.7990923355974
 21
105.8868437085458
 31
0.0
  0
SPLINE
  5
2E3
330
70
100
AcDbEntity
  8
0
 62
    18
420
        0
370
    25
100
AcDbSpline
210
0.0
220
0.0
230
1.0
 70
     8
 71
     3
 72
     8
 73
     4
 74
     0
 42
0.0000000001
 43
0.0000000001
 40
0.0
 40
0.0
 40
0.0
 40
0.0
 40
1.0
 40
1.0
 40
1.0
 40
1.0
 10
152.7983847435227
 20
105.8868437084951
 30
0.0
 10
152.7972873364188
 20
105.8312917866157
 30
0.0
 10
152.7974373938735
 20
105.7757222268229
 30
0.0
 10
152.7988348024372
 20
105.7201770418275
 30
0.0
  0
LWPOLYLINE
  5
2E4
330
70
100
AcDbEntity
  8
0
 62
    18
420
        0
370
    25
100
AcDbPolyline
 90
        9
 70
     0
 43
0.0
 10
152.7990923355974
 20
105.6989597864459
 10
152.7990602916975
 20
105.7016119451458
 10
152.7990282055975
 20
105.7042641033458
 10
152.7989960772975
 20
105.7069162610459
 10
152.7989639066979
 20
105.7095684182458
 10
152.7989316939978
 20
105.7122205749458
 10
152.7988994389975
 20
105.7148727311457
 10
152.7988671417978
 20
105.7175248867459
 10
152.7988348024975
 20
105.7201770418458
  0
LINE
  5
2E5
330
70
100
AcDbEntity
  8
0
 62
    18
420
        0
370
    25
100
AcDbLine
 10
152.7990923355974
 20
105.6989597864459
 30
0.0
 11
152.7990923355974
 21
105.1868437085458
 31
0.0
  0
LINE
  5
2E6
330
70
100
AcDbEntity
  8
0
 62
    18
420
        0
370
    25
100
AcDbLine
 10
152.7990923355974
 20
102.1868437085457
 30
0.0
 11
152.7990923355974
 21
101.6747276305459
 31
0.0
  0
LWPOLYLINE
  5
2E7
330
70
100
AcDbEntity
  8
0
 62
    18
420
        0
370
    25
100
AcDbPolyline
 90
        9
 70
     0
 43
0.0
 10
152.7988348024975
 20
101.6535103752457
 10
152.7988671417978
 20
101.6561625303457
 10
152.7988994389975
 20
101.6588146859459
 10
152.7989316939978
 20
101.6614668421457
 10
152.7989639066979
 20
101.6641189988457
 10
152.7989960772975
 20
101.6667711559459
 10
152.7990282055975
 20
101.6694233136457
 10
152.7990602916975
 20
101.6720754718457
 10
152.7990923355974
 20
101.6747276305459
  0
SPLINE
  5
2E8
330
70
100
AcDbEntity
  8
0
 62
    18
420
        0
370
    25
100
AcDbSpline
210
0.0
220
0.0
230
1.0
 70
     8
 71
     3
 72
     8
 73
     4
 74
     0
 42
0.0000000001
 43
0.0000000001
 40
0.0
 40
0.0
 40
0.0
 40
0.0
 40
1.0
 40
1.0
 40
1.0
 40
1.0
 10
152.7988348024442
 20
101.6535103752265
 30
0.0
 10
152.7977697449578
 20
101.5979610585335
 30
0.0
 10
152.7976197049701
 20
101.5423979671639
 30
0.0
 10
152.7983847435304
 20
101.4868437085646
 30
0.0
  0
LINE
  5
2E9
330
70
100
AcDbEntity
  8
0
 62
    18
420
        0
370
    25
100
AcDbLine
 10
152.7990923355974
 20
101.4868437085457
 30
0.0
 11
152.7983847434976
 21
101.4868437085457
 31
0.0
  0
LINE
  5
2EA
330
70
100
AcDbEntity
  8
0
 62
    18
420
        0
370
    25
100
AcDbLine
 10
152.7990923355974
 20
101.4868437085457
 30
0.0
 11
152.7990923355974
 21
101.0201770418456
 31
0.0
  0
LINE
  5
2EB
330
70
100
AcDbEntity
  8
0
 62
    18
420
        0
370
    25
100
AcDbLine
 10
150.7777576367976
 20
112.8535103752458
 30
0.0
 11
150.7777576367976
 21
94.52017704184575
 31
0.0
  0
LINE
  5
2EC
330
70
100
AcDbEntity
  8
0
 62
     8
420
  8421504
370
    25
100
AcDbLine
 10
192.7990923355975
 20
97.35351037524594
 30
0.0
 11
191.7990923355975
 21
97.35351037524594
 31
0.0
  0
LINE
  5
2ED
330
70
100
AcDbEntity
  8
0
 62
     8
420
  8421504
370
    25
100
AcDbLine
 10
186.1324256689973
 20
92.35351037524575
 30
0.0
 11
185.1324256689979
 21
92.35351037524575
 31
0.0
  0
LINE
  5
2EE
330
70
100
AcDbEntity
  8
0
 62
     8
420
  8421504
370
    25
100
AcDbLine
 10
178.4657590022977
 20
92.35351037524575
 30
0.0
 11
179.4657590022977
 21
92.35351037524575
 31
0.0
  0
LINE
  5
2EF
330
70
100
AcDbEntity
  8
0
 62
     8
420
  8421504
370
    25
100
AcDbLine
 10
171.7990923355974
 20
92.35351037524575
 30
0.0
 11
172.7990923355974
 21
92.35351037524575
 31
0.0
  0
LINE
  5
2F0
330
70
100
AcDbEntity
  8
0
 62
     8
420
  8421504
370
    25
100
AcDbLine
 10
165.1324256689979
 20
92.35351037524575
 30
0.0
 11
166.1324256689979
 21
92.35351037524575
 31
0.0
  0
LINE
  5
2F1
330
70
100
AcDbEntity
  8
0
 62
     8
420
  8421504
370
    25
100
AcDbLine
 10
158.4657590022976
 20
92.35351037524575
 30
0.0
 11
159.4657590022977
 21
92.35351037524575
 31
0.0
  0
LINE
  5
2F2
330
70
100
AcDbEntity
  8
0
 62
     8
420
  8421504
370
    25
100
AcDbLine
 10
152.2523756539974
 20
94.52017704184575
 30
0.0
 11
152.2523756539974
 21
112.8535103752458
 31
0.0
  0
LINE
  5
2F3
330
70
100
AcDbEntity
  8
0
 62
     8
420
  8421504
370
    25
100
AcDbLine
 10
152.5852386104978
 20
112.5378791126458
 30
0.0
 11
152.5852386104978
 21
94.83580830434597
 31
0.0
  0
INSERT
  5
2F6
330
70
100
AcDbEntity
  8
CAPA_BASE
100
AcDbBlockReference
  2
Block_0
 10
0.0
 20
0.0
 30
0.0
  0
INSERT
  5
302
330
70
100
AcDbEntity
  8
CAPA_BASE
100
AcDbBlockReference
  2
Block_1
 10
0.0
 20
0.0
 30
0.0
  0
INSERT
  5
30E
330
70
100
AcDbEntity
  8
CAPA_BASE
100
AcDbBlockReference
  2
Block_2
 10
0.0
 20
0.0
 30
0.0
  0
ENDSEC
  0
SECTION
  2
OBJECTS
  0
DICTIONARY
  5
C
330
0
100
AcDbDictionary
281
     1
  3
ACAD_COLOR
350
63
  3
ACAD_DETAILVIEWSTYLE
350
6A
  3
ACAD_GROUP
350
D
  3
ACAD_LAYOUT
350
62
  3
ACAD_MATERIAL
350
10
  3
ACAD_MLEADERSTYLE
350
66
  3
ACAD_MLINESTYLE
350
5F
  3
ACAD_PLOTSETTINGS
350
61
  3
ACAD_PLOTSTYLENAME
350
E
  3
ACAD_SCALELIST
350
42
  3
ACAD_SECTIONVIEWSTYLE
350
68
  3
ACAD_TABLESTYLE
350
64
  3
ACAD_VISUALSTYLE
350
29
  3
ACDB_RECOMPOSE_DATA
350
321
  3
AcDbVariableDictionary
350
319
  0
DICTIONARY
  5
63
102
{ACAD_REACTORS
330
C
102
}
330
C
100
AcDbDictionary
281
     1
  0
DICTIONARY
  5
6A
102
{ACAD_REACTORS
330
C
102
}
330
C
100
AcDbDictionary
281
     1
  3
Imperial24
350
6B
  0
DICTIONARY
  5
D
102
{ACAD_REACTORS
330
C
102
}
330
C
100
AcDbDictionary
281
     1
  0
DICTIONARY
  5
62
102
{ACAD_REACTORS
330
C
102
}
330
C
100
AcDbDictionary
281
     1
  3
Layout1
350
6F
  3
Layout2
350
77
  3
Model
350
73
  0
DICTIONARY
  5
10
102
{ACAD_REACTORS
330
C
102
}
330
C
100
AcDbDictionary
281
     1
  3
ByBlock
350
19
  3
ByLayer
350
11
  3
Global
350
21
  0
DICTIONARY
  5
66
102
{ACAD_REACTORS
330
C
102
}
330
C
100
AcDbDictionary
281
     1
  3
Standard
350
67
  0
DICTIONARY
  5
5F
102
{ACAD_REACTORS
330
C
102
}
330
C
100
AcDbDictionary
281
     1
  3
Standard
350
60
  0
DICTIONARY
  5
61
102
{ACAD_REACTORS
330
C
102
}
330
C
100
AcDbDictionary
281
     1
  0
ACDBDICTIONARYWDFLT
  5
E
102
{ACAD_REACTORS
330
C
102
}
330
C
100
AcDbDictionary
281
     1
  3
Normal
350
F
100
AcDbDictionaryWithDefault
340
F
  0
DICTIONARY
  5
42
102
{ACAD_REACTORS
330
C
102
}
330
C
100
AcDbDictionary
281
     1
  3
A0
350
43
  3
A1
350
44
  3
A2
350
45
  3
A3
350
46
  3
A4
350
47
  3
A5
350
48
  3
A6
350
49
  3
A7
350
4A
  3
A8
350
4B
  3
A9
350
4C
  3
B0
350
4D
  3
B1
350
4E
  3
B2
350
4F
  3
B3
350
50
  3
B4
350
51
  3
B5
350
52
  3
B6
350
53
  0
DICTIONARY
  5
68
102
{ACAD_REACTORS
330
C
102
}
330
C
100
AcDbDictionary
281
     1
  3
Imperial24
350
69
  0
DICTIONARY
  5
64
102
{ACAD_REACTORS
330
C
102
}
330
C
100
AcDbDictionary
281
     1
  3
Standard
350
65
  0
DICTIONARY
  5
29
102
{ACAD_REACTORS
330
C
102
}
330
C
100
AcDbDictionary
281
     1
  3
2dWireframe
350
2F
  3
Basic
350
2E
  3
Brighten
350
35
  3
ColorChange
350
39
  3
Conceptual
350
32
  3
Dim
350
34
  3
EdgeColorOff
350
41
  3
Facepattern
350
38
  3
Flat
350
2A
  3
FlatWithEdges
350
2B
  3
Gouraud
350
2C
  3
GouraudWithEdges
350
2D
  3
Hidden
350
31
  3
JitterOff
350
3F
  3
Linepattern
350
37
  3
OverhangOff
350
40
  3
Realistic
350
33
  3
Shaded
350
3E
  3
Shaded with edges
350
3D
  3
Shades of Gray
350
3A
  3
Sketchy
350
3B
  3
Thicken
350
36
  3
Wireframe
350
30
  3
X-Ray
350
3C
  0
XRECORD
  5
321
102
{ACAD_REACTORS
330
C
102
}
330
C
100
AcDbXrecord
280
     1
 90
        1
330
65
  0
DICTIONARY
  5
319
102
{ACAD_REACTORS
330
C
102
}
330
C
100
AcDbDictionary
281
     1
  3
CANNOSCALE
350
31E
  3
CMLEADERSTYLE
350
31B
  3
CTABLESTYLE
350
31A
  3
CVIEWDETAILSTYLE
350
31C
  3
CVIEWSECTIONSTYLE
350
31D
  0
ACDBDETAILVIEWSTYLE
  5
6B
102
{ACAD_REACTORS
330
6A
102
}
330
6A
100
AcDbModelDocViewStyle
 70
     0
  3
Imperial24
290
     1
300
Imperial24
 90
        0
100
AcDbDetailViewStyle
 70
     0
 71
     0
 90
        3
 71
     1
340
55
 62
   256
 40
0.24
340
0
 62
   256
 40
0.24
300

 40
0.36
280
     3
 71
     2
340
5D
 90
       25
 62
   256
 71
     3
340
55
 62
   256
 40
0.24
 90
        1
 40
0.75
 90
        1
300
%<\AcVar ViewType \f "%tc1">% %<\AcVar ViewDetailId>%\PSCALE %<\AcVar ViewScale \f "%sn">%
 71
     4
340
5D
 90
       25
 62
   256
340
5D
 90
       25
 62
   256
280
     0
  0
LAYOUT
  5
6F
102
{ACAD_REACTORS
330
62
102
}
330
62
100
AcDbPlotSettings
  1

  2

  4

  6

 40
0.0
 41
0.0
 42
0.0
 43
0.0
 44
0.0
 45
0.0
 46
0.0
 47
0.0
 48
0.0
 49
0.0
140
0.0
141
0.0
142
1.0
143
1.0
 70
   688
 72
     0
 73
     0
 74
     5
  7

 75
    16
147
1.0
 76
     0
 77
     2
 78
   300
148
0.0
149
0.0
100
AcDbLayout
  1
Layout1
 70
     1
 71
     1
 10
0.0
 20
0.0
 11
12.0
 21
9.0
 12
0.0
 22
0.0
 32
0.0
 14
0.0
 24
0.0
 34
0.0
 15
0.0
 25
0.0
 35
0.0
146
0.0
 13
0.0
 23
0.0
 33
0.0
 16
1.0
 26
0.0
 36
0.0
 17
0.0
 27
1.0
 37
0.0
 76
     0
330
6C
  0
LAYOUT
  5
77
102
{ACAD_REACTORS
330
62
102
}
330
62
100
AcDbPlotSettings
  1

  2

  4

  6

 40
0.0
 41
0.0
 42
0.0
 43
0.0
 44
0.0
 45
0.0
 46
0.0
 47
0.0
 48
0.0
 49
0.0
140
0.0
141
0.0
142
1.0
143
1.0
 70
   688
 72
     0
 73
     0
 74
     5
  7

 75
    16
147
1.0
 76
     0
 77
     2
 78
   300
148
0.0
149
0.0
100
AcDbLayout
  1
Layout2
 70
     1
 71
     2
 10
0.0
 20
0.0
 11
12.0
 21
9.0
 12
0.0
 22
0.0
 32
0.0
 14
0.0
 24
0.0
 34
0.0
 15
0.0
 25
0.0
 35
0.0
146
0.0
 13
0.0
 23
0.0
 33
0.0
 16
1.0
 26
0.0
 36
0.0
 17
0.0
 27
1.0
 37
0.0
 76
     0
330
74
  0
LAYOUT
  5
73
102
{ACAD_REACTORS
330
62
102
}
330
62
100
AcDbPlotSettings
  1

  2

  4

  6

 40
0.0
 41
0.0
 42
0.0
 43
0.0
 44
0.0
 45
0.0
 46
0.0
 47
0.0
 48
0.0
 49
0.0
140
0.0
141
0.0
142
1.0
143
1.0
 70
  1712
 72
     0
 73
     0
 74
     0
  7

 75
     0
147
1.0
 76
     0
 77
     2
 78
   300
148
0.0
149
0.0
100
AcDbLayout
  1
Model
 70
     1
 71
     0
 10
0.0
 20
0.0
 11
12.0
 21
9.0
 12
0.0
 22
0.0
 32
0.0
 14
0.0
 24
0.0
 34
0.0
 15
0.0
 25
0.0
 35
0.0
146
0.0
 13
0.0
 23
0.0
 33
0.0
 16
1.0
 26
0.0
 36
0.0
 17
0.0
 27
1.0
 37
0.0
 76
     0
330
70
  0
MATERIAL
  5
19
102
{ACAD_XDICTIONARY
360
1A
102
}
102
{ACAD_REACTORS
330
10
102
}
330
10
100
AcDbMaterial
  1
ByBlock
 72
     0
 43
0.0208333333333333
 43
0.0
 43
0.0
 43
0.0
 43
0.0
 43
0.0208333333333333
 43
0.0
 43
0.0
 43
0.0
 43
0.0
 43
1.0
 43
0.0
 43
0.0
 43
0.0
 43
0.0
 43
1.0
 77
     0
 47
0.0208333333333333
 47
0.0
 47
0.0
 47
0.0
 47
0.0
 47
0.0208333333333333
 47
0.0
 47
0.0
 47
0.0
 47
0.0
 47
1.0
 47
0.0
 47
0.0
 47
0.0
 47
0.0
 47
1.0
171
     0
 49
0.0208333333333333
 49
0.0
 49
0.0
 49
0.0
 49
0.0
 49
0.0208333333333333
 49
0.0
 49
0.0
 49
0.0
 49
0.0
 49
1.0
 49
0.0
 49
0.0
 49
0.0
 49
0.0
 49
1.0
175
     0
142
0.0208333333333333
142
0.0
142
0.0
142
0.0
142
0.0
142
0.0208333333333333
142
0.0
142
0.0
142
0.0
142
0.0
142
1.0
142
0.0
142
0.0
142
0.0
142
0.0
142
1.0
179
     0
144
0.0208333333333333
144
0.0
144
0.0
144
0.0
144
0.0
144
0.0208333333333333
144
0.0
144
0.0
144
0.0
144
0.0
144
1.0
144
0.0
144
0.0
144
0.0
144
0.0
144
1.0
147
0.0208333333333333
147
0.0
147
0.0
147
0.0
147
0.0
147
0.0208333333333333
147
0.0
147
0.0
147
0.0
147
0.0
147
1.0
147
0.0
147
0.0
147
0.0
147
0.0
147
1.0
  0
MATERIAL
  5
11
102
{ACAD_XDICTIONARY
360
12
102
}
102
{ACAD_REACTORS
330
10
102
}
330
10
100
AcDbMaterial
  1
ByLayer
 72
     0
 43
0.0208333333333333
 43
0.0
 43
0.0
 43
0.0
 43
0.0
 43
0.0208333333333333
 43
0.0
 43
0.0
 43
0.0
 43
0.0
 43
1.0
 43
0.0
 43
0.0
 43
0.0
 43
0.0
 43
1.0
 77
     0
 47
0.0208333333333333
 47
0.0
 47
0.0
 47
0.0
 47
0.0
 47
0.0208333333333333
 47
0.0
 47
0.0
 47
0.0
 47
0.0
 47
1.0
 47
0.0
 47
0.0
 47
0.0
 47
0.0
 47
1.0
171
     0
 49
0.0208333333333333
 49
0.0
 49
0.0
 49
0.0
 49
0.0
 49
0.0208333333333333
 49
0.0
 49
0.0
 49
0.0
 49
0.0
 49
1.0
 49
0.0
 49
0.0
 49
0.0
 49
0.0
 49
1.0
175
     0
142
0.0208333333333333
142
0.0
142
0.0
142
0.0
142
0.0
142
0.0208333333333333
142
0.0
142
0.0
142
0.0
142
0.0
142
1.0
142
0.0
142
0.0
142
0.0
142
0.0
142
1.0
179
     0
144
0.0208333333333333
144
0.0
144
0.0
144
0.0
144
0.0
144
0.0208333333333333
144
0.0
144
0.0
144
0.0
144
0.0
144
1.0
144
0.0
144
0.0
144
0.0
144
0.0
144
1.0
147
0.0208333333333333
147
0.0
147
0.0
147
0.0
147
0.0
147
0.0208333333333333
147
0.0
147
0.0
147
0.0
147
0.0
147
1.0
147
0.0
147
0.0
147
0.0
147
0.0
147
1.0
  0
MATERIAL
  5
21
102
{ACAD_XDICTIONARY
360
22
102
}
102
{ACAD_REACTORS
330
10
102
}
330
10
100
AcDbMaterial
  1
Global
 72
     0
 43
0.0208333333333333
 43
0.0
 43
0.0
 43
0.0
 43
0.0
 43
0.0208333333333333
 43
0.0
 43
0.0
 43
0.0
 43
0.0
 43
1.0
 43
0.0
 43
0.0
 43
0.0
 43
0.0
 43
1.0
 77
     0
 47
0.0208333333333333
 47
0.0
 47
0.0
 47
0.0
 47
0.0
 47
0.0208333333333333
 47
0.0
 47
0.0
 47
0.0
 47
0.0
 47
1.0
 47
0.0
 47
0.0
 47
0.0
 47
0.0
 47
1.0
171
     0
 49
0.0208333333333333
 49
0.0
 49
0.0
 49
0.0
 49
0.0
 49
0.0208333333333333
 49
0.0
 49
0.0
 49
0.0
 49
0.0
 49
1.0
 49
0.0
 49
0.0
 49
0.0
 49
0.0
 49
1.0
175
     0
142
0.0208333333333333
142
0.0
142
0.0
142
0.0
142
0.0
142
0.0208333333333333
142
0.0
142
0.0
142
0.0
142
0.0
142
1.0
142
0.0
142
0.0
142
0.0
142
0.0
142
1.0
179
     0
144
0.0208333333333333
144
0.0
144
0.0
144
0.0
144
0.0
144
0.0208333333333333
144
0.0
144
0.0
144
0.0
144
0.0
144
1.0
144
0.0
144
0.0
144
0.0
144
0.0
144
1.0
147
0.0208333333333333
147
0.0
147
0.0
147
0.0
147
0.0
147
0.0208333333333333
147
0.0
147
0.0
147
0.0
147
0.0
147
1.0
147
0.0
147
0.0
147
0.0
147
0.0
147
1.0
  0
MLEADERSTYLE
  5
67
102
{ACAD_REACTORS
330
66
102
}
330
66
100
AcDbMLeaderStyle
179
     2
170
     2
171
     1
172
     0
 90
        2
 40
0.0
 41
0.0
173
     1
 91
-1056964608
340
5B
 92
       -2
290
     1
 42
0.09
291
     1
 43
0.36
  3
Standard
 44
0.18
300

342
55
174
     1
178
     6
175
     1
176
     0
 93
-1056964608
 45
0.18
292
     0
297
     0
 46
0.18
 94
-1056964608
 47
1.0
 49
1.0
140
1.0
293
     1
141
0.0
294
     1
177
     0
142
1.0
295
     1
296
     0
143
0.125
271
     0
272
     9
273
     9
298
     1
  0
MLINESTYLE
  5
60
102
{ACAD_REACTORS
330
5F
102
}
330
5F
100
AcDbMlineStyle
  2
STANDARD
 70
     0
  3

 62
   256
 51
90.0
 52
90.0
 71
     2
 49
0.5
 62
   256
  6
BYLAYER
 49
-0.5
 62
   256
  6
BYLAYER
  0
ACDBPLACEHOLDER
  5
F
102
{ACAD_REACTORS
330
E
102
}
330
E
  0
SCALE
  5
43
102
{ACAD_REACTORS
330
42
102
}
330
42
100
AcDbScale
 70
     0
300
1:1
140
1.0
141
1.0
290
     1
  0
SCALE
  5
44
102
{ACAD_REACTORS
330
42
102
}
330
42
100
AcDbScale
 70
     0
300
1/128" = 1'-0"
140
0.0078125
141
12.0
290
     0
  0
SCALE
  5
45
102
{ACAD_REACTORS
330
42
102
}
330
42
100
AcDbScale
 70
     0
300
1/64" = 1'-0"
140
0.015625
141
12.0
290
     0
  0
SCALE
  5
46
102
{ACAD_REACTORS
330
42
102
}
330
42
100
AcDbScale
 70
     0
300
1/32" = 1'-0"
140
0.03125
141
12.0
290
     0
  0
SCALE
  5
47
102
{ACAD_REACTORS
330
42
102
}
330
42
100
AcDbScale
 70
     0
300
1/16" = 1'-0"
140
0.0625
141
12.0
290
     0
  0
SCALE
  5
48
102
{ACAD_REACTORS
330
42
102
}
330
42
100
AcDbScale
 70
     0
300
3/32" = 1'-0"
140
0.09375
141
12.0
290
     0
  0
SCALE
  5
49
102
{ACAD_REACTORS
330
42
102
}
330
42
100
AcDbScale
 70
     0
300
1/8" = 1'-0"
140
0.125
141
12.0
290
     0
  0
SCALE
  5
4A
102
{ACAD_REACTORS
330
42
102
}
330
42
100
AcDbScale
 70
     0
300
3/16" = 1'-0"
140
0.1875
141
12.0
290
     0
  0
SCALE
  5
4B
102
{ACAD_REACTORS
330
42
102
}
330
42
100
AcDbScale
 70
     0
300
1/4" = 1'-0"
140
0.25
141
12.0
290
     0
  0
SCALE
  5
4C
102
{ACAD_REACTORS
330
42
102
}
330
42
100
AcDbScale
 70
     0
300
3/8" = 1'-0"
140
0.375
141
12.0
290
     0
  0
SCALE
  5
4D
102
{ACAD_REACTORS
330
42
102
}
330
42
100
AcDbScale
 70
     0
300
1/2" = 1'-0"
140
0.5
141
12.0
290
     0
  0
SCALE
  5
4E
102
{ACAD_REACTORS
330
42
102
}
330
42
100
AcDbScale
 70
     0
300
3/4" = 1'-0"
140
0.75
141
12.0
290
     0
  0
SCALE
  5
4F
102
{ACAD_REACTORS
330
42
102
}
330
42
100
AcDbScale
 70
     0
300
1" = 1'-0"
140
1.0
141
12.0
290
     0
  0
SCALE
  5
50
102
{ACAD_REACTORS
330
42
102
}
330
42
100
AcDbScale
 70
     0
300
1-1/2" = 1'-0"
140
1.5
141
12.0
290
     0
  0
SCALE
  5
51
102
{ACAD_REACTORS
330
42
102
}
330
42
100
AcDbScale
 70
     0
300
3" = 1'-0"
140
3.0
141
12.0
290
     0
  0
SCALE
  5
52
102
{ACAD_REACTORS
330
42
102
}
330
42
100
AcDbScale
 70
     0
300
6" = 1'-0"
140
6.0
141
12.0
290
     0
  0
SCALE
  5
53
102
{ACAD_REACTORS
330
42
102
}
330
42
100
AcDbScale
 70
     0
300
1'-0" = 1'-0"
140
12.0
141
12.0
290
     0
  0
ACDBSECTIONVIEWSTYLE
  5
69
102
{ACAD_REACTORS
330
68
102
}
330
68
100
AcDbModelDocViewStyle
 70
     0
  3
Imperial24
290
     1
300
Imperial24
 90
        0
100
AcDbSectionViewStyle
 70
     0
 71
     0
 90
       78
 71
     1
340
55
 62
   256
 40
0.24
340
0
340
0
 62
   256
 40
0.24
300
I, O, Q, S, X, Z
 40
0.48
 90
        3
 40
0.18
 90
        1
 71
     2
340
5D
 90
       25
 62
   256
340
5D
 90
       50
 62
   256
 40
0.24
 40
0.0
 40
0.24
 71
     3
340
55
 62
   256
 40
0.24
 90
        1
 40
0.75
 90
        1
300
%<\AcVar ViewType \f "%tc1">% %<\AcVar ViewSectionStartId>%-%<\AcVar ViewSectionEndId>%\PSCALE %<\AcVar ViewScale \f "%sn">%
 71
     4
 62
   256
 62
   257
300
ANSI31
 40
1.0
 90
        0
290
     0
290
     0
 90
        6
 40
0.0
 40
1.570796326794896
 40
0.2617993877991494
 40
1.308996938995747
 40
-0.2617993877991494
 40
1.832595714594046
  0
TABLESTYLE
  5
65
102
{ACAD_XDICTIONARY
360
31F
102
}
102
{ACAD_REACTORS
330
64
102
}
330
64
100
AcDbTableStyle
280
     0
  3
Standard
 70
     0
 71
     0
 40
0.06
 41
0.06
280
     0
281
     0
  7
Standard
140
0.18
170
     2
 62
     0
 63
     7
283
     0
 90
      512
 91
        0
  1

274
    -2
284
     1
 64
     0
275
    -2
285
     1
 65
     0
276
    -2
286
     1
 66
     0
277
    -2
287
     1
 67
     0
278
    -2
288
     1
 68
     0
279
    -2
289
     1
 69
     0
  7
Standard
140
0.25
170
     5
 62
     0
 63
     7
283
     0
 90
      512
 91
        0
  1

274
    -2
284
     1
 64
     0
275
    -2
285
     1
 65
     0
276
    -2
286
     1
 66
     0
277
    -2
287
     1
 67
     0
278
    -2
288
     1
 68
     0
279
    -2
289
     1
 69
     0
  7
Standard
140
0.18
170
     5
 62
     0
 63
     7
283
     0
 90
      512
 91
        0
  1

274
    -2
284
     1
 64
     0
275
    -2
285
     1
 65
     0
276
    -2
286
     1
 66
     0
277
    -2
287
     1
 67
     0
278
    -2
288
     1
 68
     0
279
    -2
289
     1
 69
     0
  0
VISUALSTYLE
  5
2F
102
{ACAD_REACTORS
330
29
102
}
330
29
100
AcDbVisualStyle
  2
2dWireframe
 70
     4
177
     3
291
     0
 70
    58
 90
        0
176
     1
 90
        2
176
     1
 90
        0
176
     1
 90
        0
176
     1
 40
0.6
176
     1
 40
30.0
176
     1
 62
     7
420
 16777215
176
     1
 90
        1
176
     1
 90
        4
176
     1
 62
     7
176
     1
 62
   257
176
     1
 90
        1
176
     1
 90
        1
176
     1
 40
1.0
176
     1
 90
        0
176
     1
 62
   257
176
     1
 40
1.0
176
     1
 90
        1
176
     1
 90
        6
176
     1
 90
        2
176
     1
 62
     7
176
     1
 90
        5
176
     1
 90
        0
176
     1
 90
        0
176
     1
290
     0
176
     1
 90
        1
176
     1
 40
0.0
176
     1
 90
        0
176
     1
290
     1
176
     1
290
     1
176
     1
290
     0
176
     1
290
     0
176
     1
290
     0
176
     1
290
     0
176
     1
290
     0
176
     1
290
     0
176
     1
290
     0
176
     1
 90
       50
176
     1
 40
0.0
176
     1
 40
1.0
176
     1
 90
        0
176
     1
 62
    18
420
        0
176
     1
 90
       50
176
     1
 90
        3
176
     1
 62
     5
420
      255
176
     1
290
     0
176
     1
 90
       50
176
     1
 90
       50
176
     1
 90
       50
176
     1
290
     0
176
     1
 90
       50
176
     1
 62
   256
176
     0
 40
1.0
176
     0
 90
        2
176
     1
  1
strokes_ogs.tif
176
     1
290
     0
176
     1
 40
1.0
176
     1
 40
1.0
176
     1
  0
VISUALSTYLE
  5
2E
102
{ACAD_REACTORS
330
29
102
}
330
29
100
AcDbVisualStyle
  2
Basic
 70
     7
177
     3
291
     1
 70
    58
 90
        1
176
     1
 90
        0
176
     1
 90
        1
176
     1
 90
        0
176
     1
 40
0.6
176
     1
 40
30.0
176
     1
 62
     7
420
 16777215
176
     1
 90
        0
176
     1
 90
        4
176
     1
 62
     7
176
     1
 62
   257
176
     1
 90
        1
176
     1
 90
        1
176
     1
 40
1.0
176
     1
 90
        8
176
     1
 62
     7
176
     1
 40
1.0
176
     1
 90
        1
176
     1
 90
        6
176
     1
 90
        2
176
     1
 62
     7
176
     1
 90
        5
176
     1
 90
        0
176
     1
 90
        0
176
     1
290
     0
176
     1
 90
        1
176
     1
 40
0.0
176
     1
 90
        0
176
     1
290
     0
176
     1
290
     1
176
     1
290
     1
176
     1
290
     0
176
     1
290
     0
176
     1
290
     0
176
     1
290
     0
176
     1
290
     0
176
     1
290
     0
176
     1
 90
       50
176
     1
 40
0.0
176
     1
 40
1.0
176
     1
 90
        0
176
     1
 62
    18
420
        0
176
     1
 90
       50
176
     1
 90
        3
176
     1
 62
     5
420
      255
176
     1
290
     0
176
     1
 90
       50
176
     1
 90
       50
176
     1
 90
       50
176
     1
290
     0
176
     1
 90
       50
176
     1
 62
   256
176
     0
 40
1.0
176
     0
 90
        2
176
     1
  1
strokes_ogs.tif
176
     1
290
     0
176
     1
 40
1.0
176
     1
 40
1.0
176
     1
  0
VISUALSTYLE
  5
35
102
{ACAD_REACTORS
330
29
102
}
330
29
100
AcDbVisualStyle
  2
Brighten
 70
    12
177
     3
291
     1
 70
    58
 90
        2
176
     1
 90
        2
176
     1
 90
        0
176
     1
 90
        0
176
     1
 40
0.6
176
     1
 40
30.0
176
     1
 62
     7
420
 16777215
176
     1
 90
        1
176
     1
 90
        4
176
     1
 62
     7
176
     1
 62
   257
176
     1
 90
        1
176
     1
 90
        1
176
     1
 40
1.0
176
     1
 90
        8
176
     1
 62
     7
176
     1
 40
1.0
176
     1
 90
        1
176
     1
 90
        6
176
     1
 90
        2
176
     1
 62
     7
176
     1
 90
        5
176
     1
 90
        0
176
     1
 90
        0
176
     1
290
     0
176
     1
 90
        1
176
     1
 40
50.0
176
     1
 90
        0
176
     1
290
     0
176
     1
290
     1
176
     1
290
     1
176
     1
290
     0
176
     1
290
     0
176
     1
290
     0
176
     1
290
     0
176
     1
290
     0
176
     1
290
     0
176
     1
 90
       50
176
     1
 40
0.0
176
     1
 40
1.0
176
     1
 90
        0
176
     1
 62
    18
420
        0
176
     1
 90
       50
176
     1
 90
        3
176
     1
 62
     5
420
      255
176
     1
290
     0
176
     1
 90
       50
176
     1
 90
       50
176
     1
 90
       50
176
     1
290
     0
176
     1
 90
       50
176
     1
 62
   256
176
     0
 40
1.0
176
     0
 90
        2
176
     1
  1
strokes_ogs.tif
176
     1
290
     0
176
     1
 40
1.0
176
     1
 40
1.0
176
     1
  0
VISUALSTYLE
  5
39
102
{ACAD_REACTORS
330
29
102
}
330
29
100
AcDbVisualStyle
  2
ColorChange
 70
    16
177
     3
291
     1
 70
    58
 90
        2
176
     1
 90
        2
176
     1
 90
        3
176
     1
 90
        0
176
     1
 40
0.6
176
     1
 40
30.0
176
     1
 62
     8
420
  8421504
176
     1
 90
        1
176
     1
 90
        4
176
     1
 62
     7
176
     1
 62
   257
176
     1
 90
        1
176
     1
 90
        1
176
     1
 40
1.0
176
     1
 90
        8
176
     1
 62
     8
420
  8421504
176
     1
 40
1.0
176
     1
 90
        1
176
     1
 90
        6
176
     1
 90
        2
176
     1
 62
     7
176
     1
 90
        5
176
     1
 90
        0
176
     1
 90
        0
176
     1
290
     0
176
     1
 90
        1
176
     1
 40
0.0
176
     1
 90
        0
176
     1
290
     0
176
     1
290
     1
176
     1
290
     1
176
     1
290
     0
176
     1
290
     0
176
     1
290
     0
176
     1
290
     0
176
     1
290
     0
176
     1
290
     0
176
     1
 90
       50
176
     1
 40
0.0
176
     1
 40
1.0
176
     1
 90
        0
176
     1
 62
    18
420
        0
176
     1
 90
       50
176
     1
 90
        3
176
     1
 62
     5
420
      255
176
     1
290
     0
176
     1
 90
       50
176
     1
 90
       50
176
     1
 90
       50
176
     1
290
     0
176
     1
 90
       50
176
     1
 62
   256
176
     0
 40
1.0
176
     0
 90
        2
176
     1
  1
strokes_ogs.tif
176
     1
290
     0
176
     1
 40
1.0
176
     1
 40
1.0
176
     1
  0
VISUALSTYLE
  5
32
102
{ACAD_REACTORS
330
29
102
}
330
29
100
AcDbVisualStyle
  2
Conceptual
 70
     9
177
     3
291
     0
 70
    58
 90
        3
176
     1
 90
        2
176
     1
 90
        0
176
     1
 90
        0
176
     1
 40
0.6
176
     1
 40
30.0
176
     1
 62
     7
420
 16777215
176
     1
 90
        2
176
     1
 90
        2
176
     1
 62
     7
176
     1
 62
   257
176
     1
 90
        1
176
     1
 90
        1
176
     1
 40
179.0
176
     1
 90
        8
176
     1
 62
     7
176
     1
 40
1.0
176
     1
 90
        1
176
     1
 90
        6
176
     1
 90
        2
176
     1
 62
     7
176
     1
 90
        3
176
     1
 90
        0
176
     1
 90
        0
176
     1
290
     0
176
     1
 90
        1
176
     1
 40
0.0
176
     1
 90
        0
176
     1
290
     0
176
     1
290
     1
176
     1
290
     1
176
     1
290
     0
176
     1
290
     0
176
     1
290
     0
176
     1
290
     0
176
     1
290
     0
176
     1
290
     0
176
     1
 90
       50
176
     1
 40
0.0
176
     1
 40
1.0
176
     1
 90
        0
176
     1
 62
    18
420
        0
176
     1
 90
       50
176
     1
 90
        3
176
     1
 62
     5
420
      255
176
     1
290
     0
176
     1
 90
       50
176
     1
 90
       50
176
     1
 90
       50
176
     1
290
     0
176
     1
 90
       50
176
     1
 62
   256
176
     0
 40
1.0
176
     0
 90
        2
176
     1
  1
strokes_ogs.tif
176
     1
290
     0
176
     1
 40
1.0
176
     1
 40
1.0
176
     1
  0
VISUALSTYLE
  5
34
102
{ACAD_REACTORS
330
29
102
}
330
29
100
AcDbVisualStyle
  2
Dim
 70
    11
177
     3
291
     1
 70
    58
 90
        2
176
     1
 90
        2
176
     1
 90
        0
176
     1
 90
        0
176
     1
 40
0.6
176
     1
 40
30.0
176
     1
 62
     7
420
 16777215
176
     1
 90
        1
176
     1
 90
        4
176
     1
 62
     7
176
     1
 62
   257
176
     1
 90
        1
176
     1
 90
        1
176
     1
 40
1.0
176
     1
 90
        8
176
     1
 62
     7
176
     1
 40
1.0
176
     1
 90
        1
176
     1
 90
        6
176
     1
 90
        2
176
     1
 62
     7
176
     1
 90
        5
176
     1
 90
        0
176
     1
 90
        0
176
     1
290
     0
176
     1
 90
        1
176
     1
 40
-50.0
176
     1
 90
        0
176
     1
290
     0
176
     1
290
     1
176
     1
290
     1
176
     1
290
     0
176
     1
290
     0
176
     1
290
     0
176
     1
290
     0
176
     1
290
     0
176
     1
290
     0
176
     1
 90
       50
176
     1
 40
0.0
176
     1
 40
1.0
176
     1
 90
        0
176
     1
 62
    18
420
        0
176
     1
 90
       50
176
     1
 90
        3
176
     1
 62
     5
420
      255
176
     1
290
     0
176
     1
 90
       50
176
     1
 90
       50
176
     1
 90
       50
176
     1
290
     0
176
     1
 90
       50
176
     1
 62
   256
176
     0
 40
1.0
176
     0
 90
        2
176
     1
  1
strokes_ogs.tif
176
     1
290
     0
176
     1
 40
1.0
176
     1
 40
1.0
176
     1
  0
VISUALSTYLE
  5
41
102
{ACAD_REACTORS
330
29
102
}
330
29
100
AcDbVisualStyle
  2
EdgeColorOff
 70
    22
177
     3
291
     1
 70
    58
 90
        2
176
     0
 90
        2
176
     0
 90
        0
176
     0
 90
        0
176
     0
 40
0.6
176
     0
 40
30.0
176
     0
 62
     7
420
 16777215
176
     0
 90
        1
176
     0
 90
        4
176
     0
 62
     7
176
     0
 62
   257
176
     0
 90
        1
176
     0
 90
        1
176
     0
 40
1.0
176
     0
 90
        8
176
     2
 62
     7
176
     0
 40
1.0
176
     0
 90
        1
176
     0
 90
        6
176
     0
 90
        2
176
     0
 62
     7
176
     0
 90
        5
176
     0
 90
        0
176
     0
 90
        0
176
     0
290
     0
176
     0
 90
        1
176
     0
 40
0.0
176
     0
 90
        0
176
     0
290
     0
176
     0
290
     1
176
     0
290
     1
176
     0
290
     0
176
     0
290
     0
176
     0
290
     0
176
     0
290
     0
176
     0
290
     0
176
     0
290
     0
176
     0
 90
       50
176
     0
 40
0.0
176
     0
 40
1.0
176
     0
 90
        0
176
     0
 62
    18
420
        0
176
     0
 90
       50
176
     0
 90
        3
176
     0
 62
     5
420
      255
176
     0
290
     0
176
     0
 90
       50
176
     0
 90
       50
176
     0
 90
       50
176
     0
290
     0
176
     0
 90
       50
176
     0
 62
   256
176
     0
 40
1.0
176
     0
 90
        2
176
     0
  1
strokes_ogs.tif
176
     0
290
     0
176
     0
 40
1.0
176
     0
 40
1.0
176
     0
  0
VISUALSTYLE
  5
38
102
{ACAD_REACTORS
330
29
102
}
330
29
100
AcDbVisualStyle
  2
Facepattern
 70
    15
177
     3
291
     1
 70
    58
 90
        2
176
     1
 90
        2
176
     1
 90
        0
176
     1
 90
        0
176
     1
 40
0.6
176
     1
 40
30.0
176
     1
 62
     7
420
 16777215
176
     1
 90
        1
176
     1
 90
        4
176
     1
 62
     7
176
     1
 62
   257
176
     1
 90
        1
176
     1
 90
        1
176
     1
 40
1.0
176
     1
 90
        8
176
     1
 62
     7
176
     1
 40
1.0
176
     1
 90
        1
176
     1
 90
        6
176
     1
 90
        2
176
     1
 62
     7
176
     1
 90
        5
176
     1
 90
        0
176
     1
 90
        0
176
     1
290
     0
176
     1
 90
        1
176
     1
 40
0.0
176
     1
 90
        0
176
     1
290
     0
176
     1
290
     1
176
     1
290
     1
176
     1
290
     0
176
     1
290
     0
176
     1
290
     0
176
     1
290
     0
176
     1
290
     0
176
     1
290
     0
176
     1
 90
       50
176
     1
 40
0.0
176
     1
 40
1.0
176
     1
 90
        0
176
     1
 62
    18
420
        0
176
     1
 90
       50
176
     1
 90
        3
176
     1
 62
     5
420
      255
176
     1
290
     0
176
     1
 90
       50
176
     1
 90
       50
176
     1
 90
       50
176
     1
290
     0
176
     1
 90
       50
176
     1
 62
   256
176
     0
 40
1.0
176
     0
 90
        2
176
     1
  1
strokes_ogs.tif
176
     1
290
     0
176
     1
 40
1.0
176
     1
 40
1.0
176
     1
  0
VISUALSTYLE
  5
2A
102
{ACAD_REACTORS
330
29
102
}
330
29
100
AcDbVisualStyle
  2
Flat
 70
     0
177
     3
291
     1
 70
    58
 90
        2
176
     1
 90
        1
176
     1
 90
        1
176
     1
 90
        2
176
     1
 40
0.6
176
     1
 40
30.0
176
     1
 62
     7
420
 16777215
176
     1
 90
        0
176
     1
 90
        0
176
     1
 62
     7
176
     1
 62
   257
176
     1
 90
        1
176
     1
 90
        1
176
     1
 40
1.0
176
     1
 90
        8
176
     1
 62
     7
176
     1
 40
1.0
176
     1
 90
        1
176
     1
 90
        6
176
     1
 90
        2
176
     1
 62
     7
176
     1
 90
        5
176
     1
 90
        0
176
     1
 90
        0
176
     1
290
     0
176
     1
 90
       13
176
     1
 40
0.0
176
     1
 90
        0
176
     1
290
     0
176
     1
290
     1
176
     1
290
     1
176
     1
290
     0
176
     1
290
     0
176
     1
290
     0
176
     1
290
     0
176
     1
290
     0
176
     1
290
     0
176
     1
 90
       50
176
     1
 40
0.0
176
     1
 40
1.0
176
     1
 90
        0
176
     1
 62
    18
420
        0
176
     1
 90
       50
176
     1
 90
        3
176
     1
 62
     5
420
      255
176
     1
290
     0
176
     1
 90
       50
176
     1
 90
       50
176
     1
 90
       50
176
     1
290
     0
176
     1
 90
       50
176
     1
 62
   256
176
     0
 40
1.0
176
     0
 90
        2
176
     1
  1
strokes_ogs.tif
176
     1
290
     0
176
     1
 40
1.0
176
     1
 40
1.0
176
     1
  0
VISUALSTYLE
  5
2B
102
{ACAD_REACTORS
330
29
102
}
330
29
100
AcDbVisualStyle
  2
FlatWithEdges
 70
     1
177
     3
291
     1
 70
    58
 90
        2
176
     1
 90
        1
176
     1
 90
        1
176
     1
 90
        2
176
     1
 40
0.6
176
     1
 40
30.0
176
     1
 62
     7
420
 16777215
176
     1
 90
        1
176
     1
 90
        0
176
     1
 62
     7
176
     1
 62
   257
176
     1
 90
        1
176
     1
 90
        1
176
     1
 40
1.0
176
     1
 90
        0
176
     1
 62
   257
176
     1
 40
1.0
176
     1
 90
        1
176
     1
 90
        6
176
     1
 90
        2
176
     1
 62
     7
176
     1
 90
        5
176
     1
 90
        0
176
     1
 90
        0
176
     1
290
     0
176
     1
 90
       13
176
     1
 40
0.0
176
     1
 90
        0
176
     1
290
     0
176
     1
290
     1
176
     1
290
     1
176
     1
290
     0
176
     1
290
     0
176
     1
290
     0
176
     1
290
     0
176
     1
290
     0
176
     1
290
     0
176
     1
 90
       50
176
     1
 40
0.0
176
     1
 40
1.0
176
     1
 90
        0
176
     1
 62
    18
420
        0
176
     1
 90
       50
176
     1
 90
        3
176
     1
 62
     5
420
      255
176
     1
290
     0
176
     1
 90
       50
176
     1
 90
       50
176
     1
 90
       50
176
     1
290
     0
176
     1
 90
       50
176
     1
 62
   256
176
     0
 40
1.0
176
     0
 90
        2
176
     1
  1
strokes_ogs.tif
176
     1
290
     0
176
     1
 40
1.0
176
     1
 40
1.0
176
     1
  0
VISUALSTYLE
  5
2C
102
{ACAD_REACTORS
330
29
102
}
330
29
100
AcDbVisualStyle
  2
Gouraud
 70
     2
177
     3
291
     1
 70
    58
 90
        2
176
     1
 90
        2
176
     1
 90
        1
176
     1
 90
        2
176
     1
 40
0.6
176
     1
 40
30.0
176
     1
 62
     7
420
 16777215
176
     1
 90
        0
176
     1
 90
        0
176
     1
 62
     7
176
     1
 62
   257
176
     1
 90
        1
176
     1
 90
        1
176
     1
 40
1.0
176
     1
 90
        0
176
     1
 62
     7
176
     1
 40
1.0
176
     1
 90
        1
176
     1
 90
        6
176
     1
 90
        2
176
     1
 62
     7
176
     1
 90
        5
176
     1
 90
        0
176
     1
 90
        0
176
     1
290
     0
176
     1
 90
       13
176
     1
 40
0.0
176
     1
 90
        0
176
     1
290
     0
176
     1
290
     1
176
     1
290
     1
176
     1
290
     0
176
     1
290
     0
176
     1
290
     0
176
     1
290
     0
176
     1
290
     0
176
     1
290
     0
176
     1
 90
       50
176
     1
 40
0.0
176
     1
 40
1.0
176
     1
 90
        0
176
     1
 62
    18
420
        0
176
     1
 90
       50
176
     1
 90
        3
176
     1
 62
     5
420
      255
176
     1
290
     0
176
     1
 90
       50
176
     1
 90
       50
176
     1
 90
       50
176
     1
290
     0
176
     1
 90
       50
176
     1
 62
   256
176
     0
 40
1.0
176
     0
 90
        2
176
     1
  1
strokes_ogs.tif
176
     1
290
     0
176
     1
 40
1.0
176
     1
 40
1.0
176
     1
  0
VISUALSTYLE
  5
2D
102
{ACAD_REACTORS
330
29
102
}
330
29
100
AcDbVisualStyle
  2
GouraudWithEdges
 70
     3
177
     3
291
     1
 70
    58
 90
        2
176
     1
 90
        2
176
     1
 90
        1
176
     1
 90
        2
176
     1
 40
0.6
176
     1
 40
30.0
176
     1
 62
     7
420
 16777215
176
     1
 90
        1
176
     1
 90
        0
176
     1
 62
     7
176
     1
 62
   257
176
     1
 90
        1
176
     1
 90
        1
176
     1
 40
1.0
176
     1
 90
        0
176
     1
 62
   257
176
     1
 40
1.0
176
     1
 90
        1
176
     1
 90
        6
176
     1
 90
        2
176
     1
 62
     7
176
     1
 90
        5
176
     1
 90
        0
176
     1
 90
        0
176
     1
290
     0
176
     1
 90
       13
176
     1
 40
0.0
176
     1
 90
        0
176
     1
290
     0
176
     1
290
     1
176
     1
290
     1
176
     1
290
     0
176
     1
290
     0
176
     1
290
     0
176
     1
290
     0
176
     1
290
     0
176
     1
290
     0
176
     1
 90
       50
176
     1
 40
0.0
176
     1
 40
1.0
176
     1
 90
        0
176
     1
 62
    18
420
        0
176
     1
 90
       50
176
     1
 90
        3
176
     1
 62
     5
420
      255
176
     1
290
     0
176
     1
 90
       50
176
     1
 90
       50
176
     1
 90
       50
176
     1
290
     0
176
     1
 90
       50
176
     1
 62
   256
176
     0
 40
1.0
176
     0
 90
        2
176
     1
  1
strokes_ogs.tif
176
     1
290
     0
176
     1
 40
1.0
176
     1
 40
1.0
176
     1
  0
VISUALSTYLE
  5
31
102
{ACAD_REACTORS
330
29
102
}
330
29
100
AcDbVisualStyle
  2
Hidden
 70
     6
177
     3
291
     0
 70
    58
 90
        1
176
     1
 90
        2
176
     1
 90
        2
176
     1
 90
        0
176
     1
 40
0.6
176
     1
 40
30.0
176
     1
 62
     7
420
 16777215
176
     1
 90
        2
176
     1
 90
        2
176
     1
 62
     7
176
     1
 62
   257
176
     1
 90
        2
176
     1
 90
        1
176
     1
 40
40.0
176
     1
 90
        0
176
     1
 62
   257
176
     1
 40
1.0
176
     1
 90
        1
176
     1
 90
        6
176
     1
 90
        2
176
     1
 62
     7
176
     1
 90
        3
176
     1
 90
        0
176
     1
 90
        0
176
     1
290
     0
176
     1
 90
        1
176
     1
 40
0.0
176
     1
 90
        0
176
     1
290
     0
176
     1
290
     1
176
     1
290
     1
176
     1
290
     0
176
     1
290
     0
176
     1
290
     0
176
     1
290
     0
176
     1
290
     0
176
     1
290
     0
176
     1
 90
       50
176
     1
 40
0.0
176
     1
 40
1.0
176
     1
 90
        0
176
     1
 62
    18
420
        0
176
     1
 90
       50
176
     1
 90
        3
176
     1
 62
     5
420
      255
176
     1
290
     0
176
     1
 90
       50
176
     1
 90
       50
176
     1
 90
       50
176
     1
290
     0
176
     1
 90
       50
176
     1
 62
   256
176
     0
 40
1.0
176
     0
 90
        2
176
     1
  1
strokes_ogs.tif
176
     1
290
     0
176
     1
 40
1.0
176
     1
 40
1.0
176
     1
  0
VISUALSTYLE
  5
3F
102
{ACAD_REACTORS
330
29
102
}
330
29
100
AcDbVisualStyle
  2
JitterOff
 70
    20
177
     3
291
     1
 70
    58
 90
        2
176
     0
 90
        2
176
     0
 90
        0
176
     0
 90
        0
176
     0
 40
0.6
176
     0
 40
30.0
176
     0
 62
     7
420
 16777215
176
     0
 90
        1
176
     0
 90
        4
176
     0
 62
     7
176
     0
 62
   257
176
     0
 90
        1
176
     0
 90
        1
176
     0
 40
1.0
176
     0
 90
       10
176
     2
 62
     7
176
     0
 40
1.0
176
     0
 90
        1
176
     0
 90
        6
176
     0
 90
        2
176
     0
 62
     7
176
     0
 90
        5
176
     0
 90
        0
176
     0
 90
        0
176
     0
290
     0
176
     0
 90
        1
176
     0
 40
0.0
176
     0
 90
        0
176
     0
290
     0
176
     0
290
     1
176
     0
290
     1
176
     0
290
     0
176
     0
290
     0
176
     0
290
     0
176
     0
290
     0
176
     0
290
     0
176
     0
290
     0
176
     0
 90
       50
176
     0
 40
0.0
176
     0
 40
1.0
176
     0
 90
        0
176
     0
 62
    18
420
        0
176
     0
 90
       50
176
     0
 90
        3
176
     0
 62
     5
420
      255
176
     0
290
     0
176
     0
 90
       50
176
     0
 90
       50
176
     0
 90
       50
176
     0
290
     0
176
     0
 90
       50
176
     0
 62
   256
176
     0
 40
1.0
176
     0
 90
        2
176
     0
  1
strokes_ogs.tif
176
     0
290
     0
176
     0
 40
1.0
176
     0
 40
1.0
176
     0
  0
VISUALSTYLE
  5
37
102
{ACAD_REACTORS
330
29
102
}
330
29
100
AcDbVisualStyle
  2
Linepattern
 70
    14
177
     3
291
     1
 70
    58
 90
        2
176
     1
 90
        2
176
     1
 90
        0
176
     1
 90
        0
176
     1
 40
0.6
176
     1
 40
30.0
176
     1
 62
     7
420
 16777215
176
     1
 90
        1
176
     1
 90
        4
176
     1
 62
     7
176
     1
 62
   257
176
     1
 90
        7
176
     1
 90
        7
176
     1
 40
1.0
176
     1
 90
        8
176
     1
 62
     7
176
     1
 40
1.0
176
     1
 90
        1
176
     1
 90
        6
176
     1
 90
        2
176
     1
 62
     7
176
     1
 90
        5
176
     1
 90
        0
176
     1
 90
        0
176
     1
290
     0
176
     1
 90
        1
176
     1
 40
0.0
176
     1
 90
        0
176
     1
290
     0
176
     1
290
     1
176
     1
290
     1
176
     1
290
     0
176
     1
290
     0
176
     1
290
     0
176
     1
290
     0
176
     1
290
     0
176
     1
290
     0
176
     1
 90
       50
176
     1
 40
0.0
176
     1
 40
1.0
176
     1
 90
        0
176
     1
 62
    18
420
        0
176
     1
 90
       50
176
     1
 90
        3
176
     1
 62
     5
420
      255
176
     1
290
     0
176
     1
 90
       50
176
     1
 90
       50
176
     1
 90
       50
176
     1
290
     0
176
     1
 90
       50
176
     1
 62
   256
176
     0
 40
1.0
176
     0
 90
        2
176
     1
  1
strokes_ogs.tif
176
     1
290
     0
176
     1
 40
1.0
176
     1
 40
1.0
176
     1
  0
VISUALSTYLE
  5
40
102
{ACAD_REACTORS
330
29
102
}
330
29
100
AcDbVisualStyle
  2
OverhangOff
 70
    21
177
     3
291
     1
 70
    58
 90
        2
176
     0
 90
        2
176
     0
 90
        0
176
     0
 90
        0
176
     0
 40
0.6
176
     0
 40
30.0
176
     0
 62
     7
420
 16777215
176
     0
 90
        1
176
     0
 90
        4
176
     0
 62
     7
176
     0
 62
   257
176
     0
 90
        1
176
     0
 90
        1
176
     0
 40
1.0
176
     0
 90
        9
176
     2
 62
     7
176
     0
 40
1.0
176
     0
 90
        1
176
     0
 90
        6
176
     0
 90
        2
176
     0
 62
     7
176
     0
 90
        5
176
     0
 90
        0
176
     0
 90
        0
176
     0
290
     0
176
     0
 90
        1
176
     0
 40
0.0
176
     0
 90
        0
176
     0
290
     0
176
     0
290
     1
176
     0
290
     1
176
     0
290
     0
176
     0
290
     0
176
     0
290
     0
176
     0
290
     0
176
     0
290
     0
176
     0
290
     0
176
     0
 90
       50
176
     0
 40
0.0
176
     0
 40
1.0
176
     0
 90
        0
176
     0
 62
    18
420
        0
176
     0
 90
       50
176
     0
 90
        3
176
     0
 62
     5
420
      255
176
     0
290
     0
176
     0
 90
       50
176
     0
 90
       50
176
     0
 90
       50
176
     0
290
     0
176
     0
 90
       50
176
     0
 62
   256
176
     0
 40
1.0
176
     0
 90
        2
176
     0
  1
strokes_ogs.tif
176
     0
290
     0
176
     0
 40
1.0
176
     0
 40
1.0
176
     0
  0
VISUALSTYLE
  5
33
102
{ACAD_REACTORS
330
29
102
}
330
29
100
AcDbVisualStyle
  2
Realistic
 70
     8
177
     3
291
     0
 70
    58
 90
        2
176
     1
 90
        3
176
     1
 90
        0
176
     1
 90
        2
176
     1
 40
0.6
176
     1
 40
30.0
176
     1
 62
     7
420
 16777215
176
     1
 90
        0
176
     1
 90
        0
176
     1
 62
     7
176
     1
 62
   257
176
     1
 90
        1
176
     1
 90
        1
176
     1
 40
1.0
176
     1
 90
        8
176
     1
 62
   257
176
     1
 40
1.0
176
     1
 90
        1
176
     1
 90
        6
176
     1
 90
        2
176
     1
 62
     7
176
     1
 90
        3
176
     1
 90
        0
176
     1
 90
        0
176
     1
290
     0
176
     1
 90
       13
176
     1
 40
0.0
176
     1
 90
        0
176
     1
290
     0
176
     1
290
     1
176
     1
290
     1
176
     1
290
     0
176
     1
290
     0
176
     1
290
     0
176
     1
290
     0
176
     1
290
     0
176
     1
290
     0
176
     1
 90
       50
176
     1
 40
0.0
176
     1
 40
1.0
176
     1
 90
        0
176
     1
 62
    18
420
        0
176
     1
 90
       50
176
     1
 90
        3
176
     1
 62
     5
420
      255
176
     1
290
     0
176
     1
 90
       50
176
     1
 90
       50
176
     1
 90
       50
176
     1
290
     0
176
     1
 90
       50
176
     1
 62
   256
176
     0
 40
1.0
176
     0
 90
        2
176
     1
  1
strokes_ogs.tif
176
     1
290
     0
176
     1
 40
1.0
176
     1
 40
1.0
176
     1
  0
VISUALSTYLE
  5
3E
102
{ACAD_REACTORS
330
29
102
}
330
29
100
AcDbVisualStyle
  2
Shaded
 70
    27
177
     3
291
     0
 70
    58
 90
        2
176
     1
 90
        2
176
     1
 90
        1
176
     1
 90
        2
176
     1
 40
0.6
176
     1
 40
30.0
176
     1
 62
     7
420
 16777215
176
     1
 90
        0
176
     1
 90
        4
176
     1
 62
     7
176
     1
 62
   257
176
     1
 90
        1
176
     1
 90
        1
176
     1
 40
1.0
176
     1
 90
        8
176
     1
 62
   257
176
     1
 40
1.0
176
     1
 90
        1
176
     1
 90
        6
176
     1
 90
        2
176
     1
 62
     8
420
  7895160
176
     1
 90
        3
176
     1
 90
        0
176
     1
 90
        0
176
     1
290
     0
176
     1
 90
        5
176
     1
 40
0.0
176
     1
 90
        0
176
     1
290
     0
176
     1
290
     1
176
     1
290
     1
176
     1
290
     0
176
     1
290
     0
176
     1
290
     0
176
     1
290
     0
176
     1
290
     0
176
     1
290
     0
176
     1
 90
       50
176
     1
 40
0.0
176
     1
 40
1.0
176
     1
 90
        0
176
     1
 62
    18
420
        0
176
     1
 90
       50
176
     1
 90
        3
176
     1
 62
     5
420
      255
176
     1
290
     0
176
     1
 90
       50
176
     1
 90
       50
176
     1
 90
       50
176
     1
290
     0
176
     1
 90
       50
176
     1
 62
   256
176
     0
 40
1.0
176
     0
 90
        2
176
     1
  1
strokes_ogs.tif
176
     1
290
     0
176
     1
 40
1.0
176
     1
 40
1.0
176
     1
  0
VISUALSTYLE
  5
3D
102
{ACAD_REACTORS
330
29
102
}
330
29
100
AcDbVisualStyle
  2
Shaded with edges
 70
    26
177
     3
291
     0
 70
    58
 90
        2
176
     1
 90
        2
176
     1
 90
        1
176
     1
 90
        2
176
     1
 40
0.6
176
     1
 40
30.0
176
     1
 62
     7
420
 16777215
176
     1
 90
        1
176
     1
 90
        2
176
     1
 62
     7
176
     1
 62
   257
176
     1
 90
        2
176
     1
 90
        1
176
     1
 40
1.0
176
     1
 90
        8
176
     1
 62
   257
176
     1
 40
1.0
176
     1
 90
        1
176
     1
 90
        6
176
     1
 90
        2
176
     1
 62
     7
176
     1
 90
        3
176
     1
 90
        0
176
     1
 90
        0
176
     1
290
     0
176
     1
 90
        5
176
     1
 40
0.0
176
     1
 90
        0
176
     1
290
     0
176
     1
290
     1
176
     1
290
     1
176
     1
290
     0
176
     1
290
     0
176
     1
290
     0
176
     1
290
     0
176
     1
290
     0
176
     1
290
     0
176
     1
 90
       50
176
     1
 40
0.0
176
     1
 40
1.0
176
     1
 90
        0
176
     1
 62
    18
420
        0
176
     1
 90
       50
176
     1
 90
        3
176
     1
 62
     5
420
      255
176
     1
290
     0
176
     1
 90
       50
176
     1
 90
       50
176
     1
 90
       50
176
     1
290
     0
176
     1
 90
       50
176
     1
 62
   256
176
     0
 40
1.0
176
     0
 90
        2
176
     1
  1
strokes_ogs.tif
176
     1
290
     0
176
     1
 40
1.0
176
     1
 40
1.0
176
     1
  0
VISUALSTYLE
  5
3A
102
{ACAD_REACTORS
330
29
102
}
330
29
100
AcDbVisualStyle
  2
Shades of Gray
 70
    23
177
     3
291
     0
 70
    58
 90
        2
176
     1
 90
        2
176
     1
 90
        3
176
     1
 90
        0
176
     1
 40
0.6
176
     1
 40
30.0
176
     1
 62
     7
420
 16777215
176
     1
 90
        2
176
     1
 90
        2
176
     1
 62
     7
176
     1
 62
     7
176
     1
 90
        1
176
     1
 90
        1
176
     1
 40
40.0
176
     1
 90
        8
176
     1
 62
     7
176
     1
 40
1.0
176
     1
 90
        1
176
     1
 90
        6
176
     1
 90
        2
176
     1
 62
     7
176
     1
 90
        3
176
     1
 90
        0
176
     1
 90
        0
176
     1
290
     0
176
     1
 90
        1
176
     1
 40
0.0
176
     1
 90
        0
176
     1
290
     0
176
     1
290
     1
176
     1
290
     1
176
     1
290
     0
176
     1
290
     0
176
     1
290
     0
176
     1
290
     0
176
     1
290
     0
176
     1
290
     0
176
     1
 90
       50
176
     1
 40
0.0
176
     1
 40
1.0
176
     1
 90
        0
176
     1
 62
    18
420
        0
176
     1
 90
       50
176
     1
 90
        3
176
     1
 62
     5
420
      255
176
     1
290
     0
176
     1
 90
       50
176
     1
 90
       50
176
     1
 90
       50
176
     1
290
     0
176
     1
 90
       50
176
     1
 62
   256
176
     0
 40
1.0
176
     0
 90
        2
176
     1
  1
strokes_ogs.tif
176
     1
290
     0
176
     1
 40
1.0
176
     1
 40
1.0
176
     1
  0
VISUALSTYLE
  5
3B
102
{ACAD_REACTORS
330
29
102
}
330
29
100
AcDbVisualStyle
  2
Sketchy
 70
    24
177
     3
291
     0
 70
    58
 90
        1
176
     1
 90
        2
176
     1
 90
        2
176
     1
 90
        0
176
     1
 40
0.6
176
     1
 40
30.0
176
     1
 62
     7
420
 16777215
176
     1
 90
        2
176
     1
 90
        2
176
     1
 62
     7
176
     1
 62
     7
176
     1
 90
        1
176
     1
 90
        1
176
     1
 40
40.0
176
     1
 90
       11
176
     1
 62
     7
176
     1
 40
1.0
176
     1
 90
        1
176
     1
 90
        6
176
     1
 90
        2
176
     1
 62
     7
176
     1
 90
        6
176
     1
 90
        0
176
     1
 90
        0
176
     1
290
     0
176
     1
 90
        1
176
     1
 40
0.0
176
     1
 90
        0
176
     1
290
     0
176
     1
290
     1
176
     1
290
     1
176
     1
290
     0
176
     1
290
     0
176
     1
290
     0
176
     1
290
     0
176
     1
290
     0
176
     1
290
     0
176
     1
 90
       50
176
     1
 40
0.0
176
     1
 40
1.0
176
     1
 90
        0
176
     1
 62
    18
420
        0
176
     1
 90
       50
176
     1
 90
        3
176
     1
 62
     5
420
      255
176
     1
290
     0
176
     1
 90
       50
176
     1
 90
       50
176
     1
 90
       50
176
     1
290
     0
176
     1
 90
       50
176
     1
 62
   256
176
     0
 40
1.0
176
     0
 90
        2
176
     1
  1
strokes_ogs.tif
176
     1
290
     0
176
     1
 40
1.0
176
     1
 40
1.0
176
     1
  0
VISUALSTYLE
  5
36
102
{ACAD_REACTORS
330
29
102
}
330
29
100
AcDbVisualStyle
  2
Thicken
 70
    13
177
     3
291
     1
 70
    58
 90
        2
176
     1
 90
        2
176
     1
 90
        0
176
     1
 90
        0
176
     1
 40
0.6
176
     1
 40
30.0
176
     1
 62
     7
420
 16777215
176
     1
 90
        1
176
     1
 90
        4
176
     1
 62
     7
176
     1
 62
   257
176
     1
 90
        1
176
     1
 90
        1
176
     1
 40
1.0
176
     1
 90
       12
176
     1
 62
     7
176
     1
 40
1.0
176
     1
 90
        1
176
     1
 90
        6
176
     1
 90
        2
176
     1
 62
     7
176
     1
 90
        5
176
     1
 90
        0
176
     1
 90
        0
176
     1
290
     0
176
     1
 90
        1
176
     1
 40
0.0
176
     1
 90
        0
176
     1
290
     0
176
     1
290
     1
176
     1
290
     1
176
     1
290
     0
176
     1
290
     0
176
     1
290
     0
176
     1
290
     0
176
     1
290
     0
176
     1
290
     0
176
     1
 90
       50
176
     1
 40
0.0
176
     1
 40
1.0
176
     1
 90
        0
176
     1
 62
    18
420
        0
176
     1
 90
       50
176
     1
 90
        3
176
     1
 62
     5
420
      255
176
     1
290
     0
176
     1
 90
       50
176
     1
 90
       50
176
     1
 90
       50
176
     1
290
     0
176
     1
 90
       50
176
     1
 62
   256
176
     0
 40
1.0
176
     0
 90
        2
176
     1
  1
strokes_ogs.tif
176
     1
290
     0
176
     1
 40
1.0
176
     1
 40
1.0
176
     1
  0
VISUALSTYLE
  5
30
102
{ACAD_REACTORS
330
29
102
}
330
29
100
AcDbVisualStyle
  2
Wireframe
 70
     5
177
     3
291
     0
 70
    58
 90
        0
176
     1
 90
        2
176
     1
 90
        0
176
     1
 90
        0
176
     1
 40
0.6
176
     1
 40
30.0
176
     1
 62
     7
420
 16777215
176
     1
 90
        1
176
     1
 90
        4
176
     1
 62
     7
176
     1
 62
   257
176
     1
 90
        1
176
     1
 90
        1
176
     1
 40
1.0
176
     1
 90
        0
176
     1
 62
   257
176
     1
 40
1.0
176
     1
 90
        1
176
     1
 90
        6
176
     1
 90
        2
176
     1
 62
     7
176
     1
 90
        3
176
     1
 90
        0
176
     1
 90
        0
176
     1
290
     0
176
     1
 90
        1
176
     1
 40
0.0
176
     1
 90
        0
176
     1
290
     0
176
     1
290
     1
176
     1
290
     1
176
     1
290
     0
176
     1
290
     0
176
     1
290
     0
176
     1
290
     0
176
     1
290
     0
176
     1
290
     0
176
     1
 90
       50
176
     1
 40
0.0
176
     1
 40
1.0
176
     1
 90
        0
176
     1
 62
    18
420
        0
176
     1
 90
       50
176
     1
 90
        3
176
     1
 62
     5
420
      255
176
     1
290
     0
176
     1
 90
       50
176
     1
 90
       50
176
     1
 90
       50
176
     1
290
     0
176
     1
 90
       50
176
     1
 62
   256
176
     0
 40
1.0
176
     0
 90
        2
176
     1
  1
strokes_ogs.tif
176
     1
290
     0
176
     1
 40
1.0
176
     1
 40
1.0
176
     1
  0
VISUALSTYLE
  5
3C
102
{ACAD_REACTORS
330
29
102
}
330
29
100
AcDbVisualStyle
  2
X-Ray
 70
    25
177
     3
291
     0
 70
    58
 90
        2
176
     1
 90
        2
176
     1
 90
        1
176
     1
 90
        1
176
     1
 40
0.5
176
     1
 40
30.0
176
     1
 62
     7
420
 16777215
176
     1
 90
        1
176
     1
 90
        0
176
     1
 62
     7
176
     1
 62
   257
176
     1
 90
        1
176
     1
 90
        1
176
     1
 40
1.0
176
     1
 90
        8
176
     1
 62
     7
176
     1
 40
1.0
176
     1
 90
        1
176
     1
 90
        6
176
     1
 90
        2
176
     1
 62
     7
176
     1
 90
        3
176
     1
 90
        0
176
     1
 90
        0
176
     1
290
     0
176
     1
 90
       13
176
     1
 40
0.0
176
     1
 90
        0
176
     1
290
     0
176
     1
290
     1
176
     1
290
     1
176
     1
290
     0
176
     1
290
     0
176
     1
290
     0
176
     1
290
     0
176
     1
290
     0
176
     1
290
     0
176
     1
 90
       50
176
     1
 40
0.0
176
     1
 40
1.0
176
     1
 90
        0
176
     1
 62
    18
420
        0
176
     1
 90
       50
176
     1
 90
        3
176
     1
 62
     5
420
      255
176
     1
290
     0
176
     1
 90
       50
176
     1
 90
       50
176
     1
 90
       50
176
     1
290
     0
176
     1
 90
       50
176
     1
 62
   256
176
     0
 40
1.0
176
     0
 90
        2
176
     1
  1
strokes_ogs.tif
176
     1
290
     0
176
     1
 40
1.0
176
     1
 40
1.0
176
     1
  0
DICTIONARYVAR
  5
31E
102
{ACAD_REACTORS
330
319
102
}
330
319
100
DictionaryVariables
280
     0
  1
1:1
  0
DICTIONARYVAR
  5
31B
102
{ACAD_REACTORS
330
319
102
}
330
319
100
DictionaryVariables
280
     0
  1
STANDARD
  0
DICTIONARYVAR
  5
31A
102
{ACAD_REACTORS
330
319
102
}
330
319
100
DictionaryVariables
280
     0
  1
STANDARD
  0
DICTIONARYVAR
  5
31C
102
{ACAD_REACTORS
330
319
102
}
330
319
100
DictionaryVariables
280
     0
  1
Imperial24
  0
DICTIONARYVAR
  5
31D
102
{ACAD_REACTORS
330
319
102
}
330
319
100
DictionaryVariables
280
     0
  1
Imperial24
  0
DICTIONARY
  5
1A
330
19
100
AcDbDictionary
280
     1
281
     1
  3
BUMPTILE
360
1C
  3
DIFFUSETILE
360
1B
  3
OPACITYTILE
360
1F
  3
REFLECTIONTILE
360
1E
  3
REFRACTIONTILE
360
20
  3
SPECULARTILE
360
1D
  0
DICTIONARY
  5
12
330
11
100
AcDbDictionary
280
     1
281
     1
  3
BUMPTILE
360
14
  3
DIFFUSETILE
360
13
  3
OPACITYTILE
360
17
  3
REFLECTIONTILE
360
16
  3
REFRACTIONTILE
360
18
  3
SPECULARTILE
360
15
  0
DICTIONARY
  5
22
330
21
100
AcDbDictionary
280
     1
281
     1
  3
BUMPTILE
360
24
  3
DIFFUSETILE
360
23
  3
OPACITYTILE
360
27
  3
REFLECTIONTILE
360
26
  3
REFRACTIONTILE
360
28
  3
SPECULARTILE
360
25
  0
DICTIONARY
  5
31F
330
65
100
AcDbDictionary
280
     1
281
     1
  3
ACAD_ROUNDTRIP_2008_TABLESTYLE_CELLSTYLEMAP
360
320
  0
XRECORD
  5
1C
102
{ACAD_REACTORS
330
1A
102
}
330
1A
100
AcDbXrecord
280
     1
270
     1
271
     1
  0
XRECORD
  5
1B
102
{ACAD_REACTORS
330
1A
102
}
330
1A
100
AcDbXrecord
280
     1
270
     1
271
     1
  0
XRECORD
  5
1F
102
{ACAD_REACTORS
330
1A
102
}
330
1A
100
AcDbXrecord
280
     1
270
     1
271
     1
  0
XRECORD
  5
1E
102
{ACAD_REACTORS
330
1A
102
}
330
1A
100
AcDbXrecord
280
     1
270
     1
271
     1
  0
XRECORD
  5
20
102
{ACAD_REACTORS
330
1A
102
}
330
1A
100
AcDbXrecord
280
     1
270
     1
271
     1
  0
XRECORD
  5
1D
102
{ACAD_REACTORS
330
1A
102
}
330
1A
100
AcDbXrecord
280
     1
270
     1
271
     1
  0
XRECORD
  5
14
102
{ACAD_REACTORS
330
12
102
}
330
12
100
AcDbXrecord
280
     1
270
     1
271
     1
  0
XRECORD
  5
13
102
{ACAD_REACTORS
330
12
102
}
330
12
100
AcDbXrecord
280
     1
270
     1
271
     1
  0
XRECORD
  5
17
102
{ACAD_REACTORS
330
12
102
}
330
12
100
AcDbXrecord
280
     1
270
     1
271
     1
  0
XRECORD
  5
16
102
{ACAD_REACTORS
330
12
102
}
330
12
100
AcDbXrecord
280
     1
270
     1
271
     1
  0
XRECORD
  5
18
102
{ACAD_REACTORS
330
12
102
}
330
12
100
AcDbXrecord
280
     1
270
     1
271
     1
  0
XRECORD
  5
15
102
{ACAD_REACTORS
330
12
102
}
330
12
100
AcDbXrecord
280
     1
270
     1
271
     1
  0
XRECORD
  5
24
102
{ACAD_REACTORS
330
22
102
}
330
22
100
AcDbXrecord
280
     1
270
     1
271
     1
  0
XRECORD
  5
23
102
{ACAD_REACTORS
330
22
102
}
330
22
100
AcDbXrecord
280
     1
270
     1
271
     1
  0
XRECORD
  5
27
102
{ACAD_REACTORS
330
22
102
}
330
22
100
AcDbXrecord
280
     1
270
     1
271
     1
  0
XRECORD
  5
26
102
{ACAD_REACTORS
330
22
102
}
330
22
100
AcDbXrecord
280
     1
270
     1
271
     1
  0
XRECORD
  5
28
102
{ACAD_REACTORS
330
22
102
}
330
22
100
AcDbXrecord
280
     1
270
     1
271
     1
  0
XRECORD
  5
25
102
{ACAD_REACTORS
330
22
102
}
330
22
100
AcDbXrecord
280
     1
270
     1
271
     1
  0
CELLSTYLEMAP
  5
320
102
{ACAD_REACTORS
330
31F
102
}
330
31F
100
AcDbCellStyleMap
 90
        3
300
CELLSTYLE
  1
TABLEFORMAT_BEGIN
 90
        5
170
     1
 91
        0
 92
    32768
 62
   257
 93
        1
300
CONTENTFORMAT
  1
CONTENTFORMAT_BEGIN
 90
        0
 91
        0
 92
      512
 93
        0
300

 40
0.0
140
1.0
 94
        5
 62
     0
340
55
144
0.25
309
CONTENTFORMAT_END
171
     0
 94
        0
309
TABLEFORMAT_END
  1
CELLSTYLE_BEGIN
 90
        1
 91
        1
300
_TITLE
309
CELLSTYLE_END
300
CELLSTYLE
  1
TABLEFORMAT_BEGIN
 90
        5
170
     1
 91
        0
 92
        0
 62
   257
 93
        1
300
CONTENTFORMAT
  1
CONTENTFORMAT_BEGIN
 90
        0
 91
        0
 92
      512
 93
        0
300

 40
0.0
140
1.0
 94
        5
 62
     0
340
55
144
0.18
309
CONTENTFORMAT_END
171
     0
 94
        0
309
TABLEFORMAT_END
  1
CELLSTYLE_BEGIN
 90
        2
 91
        1
300
_HEADER
309
CELLSTYLE_END
300
CELLSTYLE
  1
TABLEFORMAT_BEGIN
 90
        5
170
     1
 91
        0
 92
        0
 62
   257
 93
        1
300
CONTENTFORMAT
  1
CONTENTFORMAT_BEGIN
 90
        0
 91
        0
 92
      512
 93
        0
300

 40
0.0
140
1.0
 94
        2
 62
     0
340
55
144
0.18
309
CONTENTFORMAT_END
171
     0
 94
        0
309
TABLEFORMAT_END
  1
CELLSTYLE_BEGIN
 90
        3
 91
        2
300
_DATA
309
CELLSTYLE_END
  0
ENDSEC
  0
EOF
