  0
SECTION
  2
HEADER
  9
$ACADVER
  1
AC1032
  9
$ACADMAINTVER
 90
      251
  9
$DWGCODEPAGE
  3
ANSI_1252
  9
$REQUIREDVERSIONS
160
                 0
  9
$INSBASE
 10
0.0
 20
0.0
 30
0.0
  9
$EXTMIN
 10
1.000000000000000E+20
 20
1.000000000000000E+20
 30
1.000000000000000E+20
  9
$EXTMAX
 10
-1.000000000000000E+20
 20
-1.000000000000000E+20
 30
-1.000000000000000E+20
  9
$LIMMIN
 10
0.0
 20
0.0
  9
$LIMMAX
 10
12.0
 20
9.0
  9
$ORTHOMODE
 70
     0
  9
$REGENMODE
 70
     1
  9
$FILLMODE
 70
     1
  9
$QTEXTMODE
 70
     0
  9
$MIRRTEXT
 70
     0
  9
$LTSCALE
 40
1.0
  9
$ATTMODE
 70
     1
  9
$TEXTSIZE
 40
0.2
  9
$TRACEWID
 40
0.05
  9
$TEXTSTYLE
  7
Standard
  9
$CLAYER
  8
0
  9
$CELTYPE
  6
ByLayer
  9
$CECOLOR
 62
   256
  9
$CELTSCALE
 40
1.0
  9
$DISPSILH
 70
     0
  9
$DIMSCALE
 40
1.0
  9
$DIMASZ
 40
0.18
  9
$DIMEXO
 40
0.0625
  9
$DIMDLI
 40
0.38
  9
$DIMRND
 40
0.0
  9
$DIMDLE
 40
0.0
  9
$DIMEXE
 40
0.18
  9
$DIMTP
 40
0.0
  9
$DIMTM
 40
0.0
  9
$DIMTXT
 40
0.18
  9
$DIMCEN
 40
0.09
  9
$DIMTSZ
 40
0.0
  9
$DIMTOL
 70
     0
  9
$DIMLIM
 70
     0
  9
$DIMTIH
 70
     1
  9
$DIMTOH
 70
     1
  9
$DIMSE1
 70
     0
  9
$DIMSE2
 70
     0
  9
$DIMTAD
 70
     0
  9
$DIMZIN
 70
     0
  9
$DIMBLK
  1

  9
$DIMASO
 70
     1
  9
$DIMSHO
 70
     1
  9
$DIMPOST
  1

  9
$DIMAPOST
  1

  9
$DIMALT
 70
     0
  9
$DIMALTD
 70
     2
  9
$DIMALTF
 40
25.4
  9
$DIMLFAC
 40
1.0
  9
$DIMTOFL
 70
     0
  9
$DIMTVP
 40
0.0
  9
$DIMTIX
 70
     0
  9
$DIMSOXD
 70
     0
  9
$DIMSAH
 70
     0
  9
$DIMBLK1
  1

  9
$DIMBLK2
  1

  9
$DIMSTYLE
  2
Standard
  9
$DIMCLRD
 70
     0
  9
$DIMCLRE
 70
     0
  9
$DIMCLRT
 70
     0
  9
$DIMTFAC
 40
1.0
  9
$DIMGAP
 40
0.09
  9
$DIMJUST
 70
     0
  9
$DIMSD1
 70
     0
  9
$DIMSD2
 70
     0
  9
$DIMTOLJ
 70
     1
  9
$DIMTZIN
 70
     0
  9
$DIMALTZ
 70
     0
  9
$DIMALTTZ
 70
     0
  9
$DIMUPT
 70
     0
  9
$DIMDEC
 70
     4
  9
$DIMTDEC
 70
     4
  9
$DIMALTU
 70
     2
  9
$DIMALTTD
 70
     2
  9
$DIMTXSTY
  7
Standard
  9
$DIMAUNIT
 70
     0
  9
$DIMADEC
 70
     0
  9
$DIMALTRND
 40
0.0
  9
$DIMAZIN
 70
     0
  9
$DIMDSEP
 70
    46
  9
$DIMATFIT
 70
     3
  9
$DIMFRAC
 70
     0
  9
$DIMLDRBLK
  1

  9
$DIMLUNIT
 70
     2
  9
$DIMLWD
 70
    -2
  9
$DIMLWE
 70
    -2
  9
$DIMTMOVE
 70
     0
  9
$DIMFXL
 40
1.0
  9
$DIMFXLON
 70
     0
  9
$DIMJOGANG
 40
0.7853981633974483
  9
$DIMTFILL
 70
     0
  9
$DIMTFILLCLR
 70
     0
  9
$DIMARCSYM
 70
     0
  9
$DIMLTYPE
  6

  9
$DIMLTEX1
  6

  9
$DIMLTEX2
  6

  9
$DIMTXTDIRECTION
 70
     0
  9
$LUNITS
 70
     2
  9
$LUPREC
 70
     4
  9
$SKETCHINC
 40
0.1
  9
$FILLETRAD
 40
0.0
  9
$AUNITS
 70
     0
  9
$AUPREC
 70
     0
  9
$MENU
  1
.
  9
$ELEVATION
 40
0.0
  9
$PELEVATION
 40
0.0
  9
$THICKNESS
 40
0.0
  9
$LIMCHECK
 70
     0
  9
$CHAMFERA
 40
0.0
  9
$CHAMFERB
 40
0.0
  9
$CHAMFERC
 40
0.0
  9
$CHAMFERD
 40
0.0
  9
$SKPOLY
 70
     0
  9
$TDCREATE
 40
2460035.466851852
  9
$TDUCREATE
 40
2460035.383518519
  9
$TDUPDATE
 40
2460035.466851852
  9
$TDUUPDATE
 40
2460035.383518519
  9
$TDINDWG
 40
0.0000000000
  9
$TDUSRTIMER
 40
0.0000000000
  9
$USRTIMER
 70
     1
  9
$ANGBASE
 50
0.0
  9
$ANGDIR
 70
     0
  9
$PDMODE
 70
     0
  9
$PDSIZE
 40
0.0
  9
$PLINEWID
 40
0.0
  9
$SPLFRAME
 70
     0
  9
$SPLINETYPE
 70
     6
  9
$SPLINESEGS
 70
     8
  9
$HANDSEED
  5
3BE
  9
$SURFTAB1
 70
     6
  9
$SURFTAB2
 70
     6
  9
$SURFTYPE
 70
     6
  9
$SURFU
 70
     6
  9
$SURFV
 70
     6
  9
$UCSBASE
  2

  9
$UCSNAME
  2

  9
$UCSORG
 10
0.0
 20
0.0
 30
0.0
  9
$UCSXDIR
 10
1.0
 20
0.0
 30
0.0
  9
$UCSYDIR
 10
0.0
 20
1.0
 30
0.0
  9
$UCSORTHOREF
  2

  9
$UCSORTHOVIEW
 70
     0
  9
$UCSORGTOP
 10
0.0
 20
0.0
 30
0.0
  9
$UCSORGBOTTOM
 10
0.0
 20
0.0
 30
0.0
  9
$UCSORGLEFT
 10
0.0
 20
0.0
 30
0.0
  9
$UCSORGRIGHT
 10
0.0
 20
0.0
 30
0.0
  9
$UCSORGFRONT
 10
0.0
 20
0.0
 30
0.0
  9
$UCSORGBACK
 10
0.0
 20
0.0
 30
0.0
  9
$PUCSBASE
  2

  9
$PUCSNAME
  2

  9
$PUCSORG
 10
0.0
 20
0.0
 30
0.0
  9
$PUCSXDIR
 10
1.0
 20
0.0
 30
0.0
  9
$PUCSYDIR
 10
0.0
 20
1.0
 30
0.0
  9
$PUCSORTHOREF
  2

  9
$PUCSORTHOVIEW
 70
     0
  9
$PUCSORGTOP
 10
0.0
 20
0.0
 30
0.0
  9
$PUCSORGBOTTOM
 10
0.0
 20
0.0
 30
0.0
  9
$PUCSORGLEFT
 10
0.0
 20
0.0
 30
0.0
  9
$PUCSORGRIGHT
 10
0.0
 20
0.0
 30
0.0
  9
$PUCSORGFRONT
 10
0.0
 20
0.0
 30
0.0
  9
$PUCSORGBACK
 10
0.0
 20
0.0
 30
0.0
  9
$USERI1
 70
     0
  9
$USERI2
 70
     0
  9
$USERI3
 70
     0
  9
$USERI4
 70
     0
  9
$USERI5
 70
     0
  9
$USERR1
 40
0.0
  9
$USERR2
 40
0.0
  9
$USERR3
 40
0.0
  9
$USERR4
 40
0.0
  9
$USERR5
 40
0.0
  9
$WORLDVIEW
 70
     1
  9
$SHADEDGE
 70
     3
  9
$SHADEDIF
 70
    70
  9
$TILEMODE
 70
     1
  9
$MAXACTVP
 70
    64
  9
$PINSBASE
 10
0.0
 20
0.0
 30
0.0
  9
$PLIMCHECK
 70
     0
  9
$PEXTMIN
 10
1.000000000000000E+20
 20
1.000000000000000E+20
 30
1.000000000000000E+20
  9
$PEXTMAX
 10
-1.000000000000000E+20
 20
-1.000000000000000E+20
 30
-1.000000000000000E+20
  9
$PLIMMIN
 10
0.0
 20
0.0
  9
$PLIMMAX
 10
12.0
 20
9.0
  9
$UNITMODE
 70
     0
  9
$VISRETAIN
 70
     1
  9
$PLINEGEN
 70
     0
  9
$PSLTSCALE
 70
     1
  9
$TREEDEPTH
 70
  3020
  9
$CMLSTYLE
  2
Standard
  9
$CMLJUST
 70
     0
  9
$CMLSCALE
 40
1.0
  9
$PROXYGRAPHICS
 70
     1
  9
$MEASUREMENT
 70
     0
  9
$CELWEIGHT
370
    -1
  9
$ENDCAPS
280
     0
  9
$JOINSTYLE
280
     0
  9
$LWDISPLAY
290
     1
  9
$INSUNITS
 70
     4
  9
$HYPERLINKBASE
  1

  9
$STYLESHEET
  1

  9
$XEDIT
290
     1
  9
$CEPSNTYPE
380
     0
  9
$PSTYLEMODE
290
     1
  9
$FINGERPRINTGUID
  2
{903D77FB-0342-664A-9E62-3A1182D9BE6A}
  9
$VERSIONGUID
  2
{B9C990BF-1BFA-0847-B092-97496D5D960C}
  9
$EXTNAMES
290
     1
  9
$PSVPSCALE
 40
0.0
  9
$OLESTARTUP
290
     0
  9
$SORTENTS
280
   127
  9
$INDEXCTL
280
     0
  9
$HIDETEXT
280
     1
  9
$XCLIPFRAME
280
     2
  9
$HALOGAP
280
     0
  9
$OBSCOLOR
 70
   257
  9
$OBSLTYPE
280
     0
  9
$INTERSECTIONDISPLAY
280
     0
  9
$INTERSECTIONCOLOR
 70
   257
  9
$DIMASSOC
280
     2
  9
$PROJECTNAME
  1

  9
$CAMERADISPLAY
290
     0
  9
$LENSLENGTH
 40
50.0
  9
$CAMERAHEIGHT
 40
0.0
  9
$STEPSPERSEC
 40
2.0
  9
$STEPSIZE
 40
6.0
  9
$3DDWFPREC
 40
2.0
  9
$PSOLWIDTH
 40
0.25
  9
$PSOLHEIGHT
 40
4.0
  9
$LOFTANG1
 40
1.570796326794896
  9
$LOFTANG2
 40
1.570796326794896
  9
$LOFTMAG1
 40
0.0
  9
$LOFTMAG2
 40
0.0
  9
$LOFTPARAM
 70
     7
  9
$LOFTNORMALS
280
     1
  9
$LATITUDE
 40
37.795
  9
$LONGITUDE
 40
-122.394
  9
$NORTHDIRECTION
 40
0.0
  9
$TIMEZONE
 70
 -8000
  9
$LIGHTGLYPHDISPLAY
280
     1
  9
$TILEMODELIGHTSYNCH
280
     1
  9
$CMATERIAL
347
11
  9
$SOLIDHIST
280
     0
  9
$SHOWHIST
280
     1
  9
$DWFFRAME
280
     2
  9
$DGNFRAME
280
     0
  9
$REALWORLDSCALE
290
     1
  9
$INTERFERECOLOR
 62
     1
  9
$INTERFEREOBJVS
345
33
  9
$INTERFEREVPVS
346
30
  9
$CSHADOW
280
     0
  9
$SHADOWPLANELOCATION
 40
0.0
  0
ENDSEC
  0
SECTION
  2
CLASSES
  0
CLASS
  1
ACDBDICTIONARYWDFLT
  2
AcDbDictionaryWithDefault
  3
ObjectDBX Classes
 90
        0
 91
        1
280
     0
281
     0
  0
CLASS
  1
MATERIAL
  2
AcDbMaterial
  3
ObjectDBX Classes
 90
     1153
 91
        3
280
     0
281
     0
  0
CLASS
  1
VISUALSTYLE
  2
AcDbVisualStyle
  3
ObjectDBX Classes
 90
     4095
 91
       24
280
     0
281
     0
  0
CLASS
  1
SCALE
  2
AcDbScale
  3
ObjectDBX Classes
 90
     1153
 91
       17
280
     0
281
     0
  0
CLASS
  1
TABLESTYLE
  2
AcDbTableStyle
  3
ObjectDBX Classes
 90
     4095
 91
        1
280
     0
281
     0
  0
CLASS
  1
MLEADERSTYLE
  2
AcDbMLeaderStyle
  3
ACDB_MLEADERSTYLE_CLASS
 90
     4095
 91
        1
280
     0
281
     0
  0
CLASS
  1
ACDBSECTIONVIEWSTYLE
  2
AcDbSectionViewStyle
  3
ObjectDBX Classes
 90
     1025
 91
        1
280
     0
281
     0
  0
CLASS
  1
ACDBDETAILVIEWSTYLE
  2
AcDbDetailViewStyle
  3
ObjectDBX Classes
 90
     1025
 91
        1
280
     0
281
     0
  0
CLASS
  1
DICTIONARYVAR
  2
AcDbDictionaryVar
  3
ObjectDBX Classes
 90
        0
 91
        5
280
     0
281
     0
  0
CLASS
  1
CELLSTYLEMAP
  2
AcDbCellStyleMap
  3
ObjectDBX Classes
 90
     1152
 91
        1
280
     0
281
     0
  0
ENDSEC
  0
SECTION
  2
TABLES
  0
TABLE
  2
VPORT
  5
8
330
0
100
AcDbSymbolTable
 70
     1
  0
VPORT
  5
57
330
8
100
AcDbSymbolTableRecord
100
AcDbViewportTableRecord
  2
*Active
 70
     0
 10
0.0
 20
0.0
 11
1.0
 21
1.0
 12
0.0
 22
0.0
 13
0.0
 23
0.0
 14
1.0
 24
1.0
 15
0.0
 25
0.0
 16
0.0
 26
0.0
 36
1.0
 17
104.9999999737499
 27
31.49999999212523
 37
0.0
 40
302.9399999242649
 41
0.7070707070707066
 42
50.0
 43
0.0
 44
0.0
 50
0.0
 51
0.0
 71
     0
 72
   100
 73
     1
 74
     1
 75
     0
 76
     0
 77
     0
 78
     0
281
     0
 65
     1
110
0.0
120
0.0
130
0.0
111
1.0
121
0.0
131
0.0
112
0.0
122
1.0
132
0.0
 79
     0
146
0.0
 60
     3
 61
     5
292
     1
282
     1
141
0.0
142
0.0
 63
   250
421
  3355443
  0
ENDTAB
  0
TABLE
  2
LTYPE
  5
5
330
0
100
AcDbSymbolTable
 70
     1
  0
LTYPE
  5
5B
330
5
100
AcDbSymbolTableRecord
100
AcDbLinetypeTableRecord
  2
ByBlock
 70
     0
  3

 72
    65
 73
     0
 40
0.0
  0
LTYPE
  5
5C
330
5
100
AcDbSymbolTableRecord
100
AcDbLinetypeTableRecord
  2
ByLayer
 70
     0
  3

 72
    65
 73
     0
 40
0.0
  0
LTYPE
  5
5D
330
5
100
AcDbSymbolTableRecord
100
AcDbLinetypeTableRecord
  2
Continuous
 70
     0
  3
Solid line
 72
    65
 73
     0
 40
0.0
  0
ENDTAB
  0
TABLE
  2
LAYER
  5
2
330
0
100
AcDbSymbolTable
 70
     2
  0
LAYER
  5
54
330
2
100
AcDbSymbolTableRecord
100
AcDbLayerTableRecord
  2
0
 70
     0
 62
     7
  6
Continuous
370
     0
390
F
347
21
348
0
  0
LAYER
  5
390
330
2
100
AcDbSymbolTableRecord
100
AcDbLayerTableRecord
  2
CAPA_BASE
 70
     0
 62
     7
  6
Continuous
370
     0
390
F
347
21
348
0
  0
ENDTAB
  0
TABLE
  2
STYLE
  5
3
330
0
100
AcDbSymbolTable
 70
     2
  0
STYLE
  5
55
330
3
100
AcDbSymbolTableRecord
100
AcDbTextStyleTableRecord
  2
Standard
 70
     0
 40
0.0
 41
1.0
 50
0.0
 71
     0
 42
0.2
  3
txt
  4

  0
STYLE
  5
5A
330
3
100
AcDbSymbolTableRecord
100
AcDbTextStyleTableRecord
  2
Annotative
 70
     0
 40
0.0
 41
1.0
 50
0.0
 71
     0
 42
0.2
  3
txt
  4

1001
AcadAnnotative
1000
AnnotativeData
1002
{
1070
     1
1070
     1
1002
}
  0
ENDTAB
  0
TABLE
  2
VIEW
  5
6
330
0
100
AcDbSymbolTable
 70
     0
  0
ENDTAB
  0
TABLE
  2
UCS
  5
7
330
0
100
AcDbSymbolTable
 70
     0
  0
ENDTAB
  0
TABLE
  2
APPID
  5
9
330
0
100
AcDbSymbolTable
 70
     2
  0
APPID
  5
56
330
9
100
AcDbSymbolTableRecord
100
AcDbRegAppTableRecord
  2
ACAD
 70
     0
  0
APPID
  5
5E
330
9
100
AcDbSymbolTableRecord
100
AcDbRegAppTableRecord
  2
AcadAnnotative
 70
     0
  0
ENDTAB
  0
TABLE
  2
DIMSTYLE
  5
A
330
0
100
AcDbSymbolTable
 70
     2
100
AcDbDimStyleTable
 71
     0
  0
DIMSTYLE
105
58
330
A
100
AcDbSymbolTableRecord
100
AcDbDimStyleTableRecord
  2
Standard
 70
     0
340
55
  0
DIMSTYLE
105
59
330
A
100
AcDbSymbolTableRecord
100
AcDbDimStyleTableRecord
  2
Annotative
 70
     0
340
55
1001
AcadAnnotative
1000
AnnotativeData
1002
{
1070
     1
1070
     1
1002
}
  0
ENDTAB
  0
TABLE
  2
BLOCK_RECORD
  5
1
330
0
100
AcDbSymbolTable
 70
     4
  0
BLOCK_RECORD
  5
70
330
1
100
AcDbSymbolTableRecord
100
AcDbBlockTableRecord
  2
*Model_Space
340
73
 70
     0
280
     1
281
     0
  0
BLOCK_RECORD
  5
6C
330
1
100
AcDbSymbolTableRecord
100
AcDbBlockTableRecord
  2
*Paper_Space
340
6F
 70
     0
280
     1
281
     0
  0
BLOCK_RECORD
  5
74
330
1
100
AcDbSymbolTableRecord
100
AcDbBlockTableRecord
  2
*Paper_Space0
340
77
 70
     0
280
     1
281
     0
  0
BLOCK_RECORD
  5
391
330
1
100
AcDbSymbolTableRecord
100
AcDbBlockTableRecord
  2
Block_0
340
0
102
{BLKREFS
331
392
102
}
 70
     0
280
     1
281
     0
  0
BLOCK_RECORD
  5
39D
330
1
100
AcDbSymbolTableRecord
100
AcDbBlockTableRecord
  2
Block_1
340
0
102
{BLKREFS
331
39E
102
}
 70
     0
280
     1
281
     0
  0
BLOCK_RECORD
  5
3A9
330
1
100
AcDbSymbolTableRecord
100
AcDbBlockTableRecord
  2
Block_2
340
0
102
{BLKREFS
331
3AA
102
}
 70
     0
280
     1
281
     0
  0
ENDTAB
  0
ENDSEC
  0
SECTION
  2
BLOCKS
  0
BLOCK
  5
71
330
70
100
AcDbEntity
  8
0
100
AcDbBlockBegin
  2
*Model_Space
 70
     0
 10
0.0
 20
0.0
 30
0.0
  3
*Model_Space
  1

  0
ENDBLK
  5
72
330
70
100
AcDbEntity
  8
0
100
AcDbBlockEnd
  0
BLOCK
  5
6D
330
6C
100
AcDbEntity
 67
     1
  8
0
100
AcDbBlockBegin
  2
*Paper_Space
 70
     0
 10
0.0
 20
0.0
 30
0.0
  3
*Paper_Space
  1

  0
ENDBLK
  5
6E
330
6C
100
AcDbEntity
 67
     1
  8
0
100
AcDbBlockEnd
  0
BLOCK
  5
75
330
74
100
AcDbEntity
 67
     1
  8
0
100
AcDbBlockBegin
  2
*Paper_Space0
 70
     0
 10
0.0
 20
0.0
 30
0.0
  3
*Paper_Space0
  1

  0
ENDBLK
  5
76
330
74
100
AcDbEntity
 67
     1
  8
0
100
AcDbBlockEnd
  0
BLOCK
  5
393
330
391
100
AcDbEntity
  8
0
100
AcDbBlockBegin
  2
Block_0
 70
     0
 10
0.0
 20
0.0
 30
0.0
  3
Block_0
  1

  0
LWPOLYLINE
  5
395
330
391
100
AcDbEntity
  8
CAPA_BASE
100
AcDbPolyline
 90
        4
 70
     1
 43
0.0
 10
78.10825195670162
 20
53.47615452408945
 10
75.60825195670121
 20
53.78615452408916
 10
75.60825195670121
 20
53.16615452408908
 10
75.60825195670121
 20
53.16615452408908
  0
HATCH
  5
396
330
391
100
AcDbEntity
  8
CAPA_BASE
 62
    18
420
        0
440
 33554687
100
AcDbHatch
 10
0.0
 20
0.0
 30
0.0
210
0.0
220
0.0
230
1.0
  2
SOLID
 70
     1
 71
     1
 91
        1
 92
        1
 93
        3
 72
     1
 10
78.10825195670162
 20
53.47615452408945
 11
75.60825195670121
 21
53.78615452408916
 72
     1
 10
75.60825195670121
 20
53.78615452408916
 11
75.60825195670121
 21
53.16615452408908
 72
     1
 10
75.60825195670121
 20
53.16615452408908
 11
78.10825195670162
 21
53.47615452408945
 97
        1
330
395
 75
     2
 76
     1
 98
        1
 10
0.0
 20
0.0
450
        0
451
        0
460
0.0
461
0.0
452
        0
462
0.0
453
        0
470

  0
LWPOLYLINE
  5
397
330
391
100
AcDbEntity
  8
CAPA_BASE
100
AcDbPolyline
 90
        4
 70
     1
 43
0.0
 10
15.60825195670102
 20
53.47615452408945
 10
18.10825195670111
 20
53.16615452408908
 10
18.10825195670111
 20
53.78615452408916
 10
18.10825195670111
 20
53.78615452408916
  0
HATCH
  5
398
330
391
100
AcDbEntity
  8
CAPA_BASE
 62
    18
420
        0
440
 33554687
100
AcDbHatch
 10
0.0
 20
0.0
 30
0.0
210
0.0
220
0.0
230
1.0
  2
SOLID
 70
     1
 71
     1
 91
        1
 92
        1
 93
        3
 72
     1
 10
15.60825195670102
 20
53.47615452408945
 11
18.10825195670111
 21
53.16615452408908
 72
     1
 10
18.10825195670111
 20
53.16615452408908
 11
18.10825195670111
 21
53.78615452408916
 72
     1
 10
18.10825195670111
 20
53.78615452408916
 11
15.60825195670102
 21
53.47615452408945
 97
        1
330
397
 75
     2
 76
     1
 98
        1
 10
0.0
 20
0.0
450
        0
451
        0
460
0.0
461
0.0
452
        0
462
0.0
453
        0
470

  0
LINE
  5
399
330
391
100
AcDbEntity
  8
CAPA_BASE
 62
    18
420
        0
370
    25
100
AcDbLine
 10
78.10825195670162
 20
88.72615452408892
 30
0.0
 11
78.10825195670162
 21
52.47615452408876
 31
0.0
  0
LINE
  5
39A
330
391
100
AcDbEntity
  8
CAPA_BASE
 62
    18
420
        0
370
    25
100
AcDbLine
 10
15.60825195670102
 20
87.60115452408912
 30
0.0
 11
15.60825195670102
 21
52.47615452408876
 31
0.0
  0
LINE
  5
39B
330
391
100
AcDbEntity
  8
CAPA_BASE
 62
    18
420
        0
370
    25
100
AcDbLine
 10
78.10825195670162
 20
53.47615452408945
 30
0.0
 11
15.60825195670102
 21
53.47615452408945
 31
0.0
  0
MTEXT
  5
39C
330
391
100
AcDbEntity
  8
CAPA_BASE
100
AcDbMText
 10
44.21241759148595
 20
54.26991092596703
 30
0.0
 40
0.2
 41
0.0
 46
0.0
 71
     7
 72
     1
  1
\C18;\c0;\FArial Bold|b1|i0|c1;\H2.997200;\W0.700000;250
 73
     1
 44
1.0
  0
ENDBLK
  5
394
330
391
100
AcDbEntity
  8
0
100
AcDbBlockEnd
  0
BLOCK
  5
39F
330
39D
100
AcDbEntity
  8
0
100
AcDbBlockBegin
  2
Block_1
 70
     0
 10
0.0
 20
0.0
 30
0.0
  3
Block_1
  1

  0
LWPOLYLINE
  5
3A1
330
39D
100
AcDbEntity
  8
CAPA_BASE
100
AcDbPolyline
 90
        4
 70
     1
 43
0.0
 10
88.10825195670069
 20
-36.43691609321136
 10
88.41825195670105
 20
-33.93691609321095
 10
87.79825195670097
 20
-33.93691609321095
 10
87.79825195670097
 20
-33.93691609321095
  0
HATCH
  5
3A2
330
39D
100
AcDbEntity
  8
CAPA_BASE
 62
    18
420
        0
440
 33554687
100
AcDbHatch
 10
0.0
 20
0.0
 30
0.0
210
0.0
220
0.0
230
1.0
  2
SOLID
 70
     1
 71
     1
 91
        1
 92
        1
 93
        3
 72
     1
 10
88.10825195670069
 20
-36.43691609321136
 11
88.41825195670105
 21
-33.93691609321095
 72
     1
 10
88.41825195670105
 20
-33.93691609321095
 11
87.79825195670097
 21
-33.93691609321095
 72
     1
 10
87.79825195670097
 20
-33.93691609321095
 11
88.10825195670069
 21
-36.43691609321136
 97
        1
330
3A1
 75
     2
 76
     1
 98
        1
 10
0.0
 20
0.0
450
        0
451
        0
460
0.0
461
0.0
452
        0
462
0.0
453
        0
470

  0
LWPOLYLINE
  5
3A3
330
39D
100
AcDbEntity
  8
CAPA_BASE
100
AcDbPolyline
 90
        4
 70
     1
 43
0.0
 10
88.10825195670069
 20
27.56308390678962
 10
87.79825195670097
 20
25.06308390678921
 10
88.41825195670105
 20
25.06308390678921
 10
88.41825195670105
 20
25.06308390678921
  0
HATCH
  5
3A4
330
39D
100
AcDbEntity
  8
CAPA_BASE
 62
    18
420
        0
440
 33554687
100
AcDbHatch
 10
0.0
 20
0.0
 30
0.0
210
0.0
220
0.0
230
1.0
  2
SOLID
 70
     1
 71
     1
 91
        1
 92
        1
 93
        3
 72
     1
 10
88.10825195670069
 20
27.56308390678962
 11
87.79825195670097
 21
25.06308390678921
 72
     1
 10
87.79825195670097
 20
25.06308390678921
 11
88.41825195670105
 21
25.06308390678921
 72
     1
 10
88.41825195670105
 20
25.06308390678921
 11
88.10825195670069
 21
27.56308390678962
 97
        1
330
3A3
 75
     2
 76
     1
 98
        1
 10
0.0
 20
0.0
450
        0
451
        0
460
0.0
461
0.0
452
        0
462
0.0
453
        0
470

  0
LINE
  5
3A5
330
39D
100
AcDbEntity
  8
CAPA_BASE
 62
    18
420
        0
370
    25
100
AcDbLine
 10
17.98325195670102
 20
-36.43691609321136
 30
0.0
 11
89.10825195670136
 21
-36.43691609321136
 31
0.0
  0
LINE
  5
3A6
330
39D
100
AcDbEntity
  8
CAPA_BASE
 62
    18
420
        0
370
    25
100
AcDbLine
 10
67.48325195670116
 20
27.56308390678962
 30
0.0
 11
89.10825195670136
 21
27.56308390678962
 31
0.0
  0
LINE
  5
3A7
330
39D
100
AcDbEntity
  8
CAPA_BASE
 62
    18
420
        0
370
    25
100
AcDbLine
 10
88.10825195670069
 20
-36.43691609321136
 30
0.0
 11
88.10825195670069
 21
27.56308390678962
 31
0.0
  0
MTEXT
  5
3A8
330
39D
100
AcDbEntity
  8
CAPA_BASE
100
AcDbMText
 10
87.31449705696162
 20
-7.083116317674307
 30
0.0
 40
0.2
 41
0.0
 46
0.0
 71
     7
 72
     1
  1
\C18;\c0;\FArial Bold|b1|i0|c1;\H2.997200;\W0.700000;256
 11
0.0000000000000003
 21
1.0
 31
0.0
 73
     1
 44
1.0
  0
ENDBLK
  5
3A0
330
39D
100
AcDbEntity
  8
0
100
AcDbBlockEnd
  0
BLOCK
  5
3AB
330
3A9
100
AcDbEntity
  8
0
100
AcDbBlockBegin
  2
Block_2
 70
     0
 10
0.0
 20
0.0
 30
0.0
  3
Block_2
  1

  0
LWPOLYLINE
  5
3AD
330
3A9
100
AcDbEntity
  8
CAPA_BASE
100
AcDbPolyline
 90
        4
 70
     1
 43
0.0
 10
107.910444932401
 20
96.60115452408913
 10
107.6004449324013
 20
94.10115452408902
 10
108.2204449324008
 20
94.10115452408902
 10
108.2204449324008
 20
94.10115452408902
  0
HATCH
  5
3AE
330
3A9
100
AcDbEntity
  8
CAPA_BASE
 62
    18
420
        0
440
 33554687
100
AcDbHatch
 10
0.0
 20
0.0
 30
0.0
210
0.0
220
0.0
230
1.0
  2
SOLID
 70
     1
 71
     1
 91
        1
 92
        1
 93
        3
 72
     1
 10
107.910444932401
 20
96.60115452408913
 11
107.6004449324013
 21
94.10115452408902
 72
     1
 10
107.6004449324013
 20
94.10115452408902
 11
108.2204449324008
 21
94.10115452408902
 72
     1
 10
108.2204449324008
 20
94.10115452408902
 11
107.910444932401
 21
96.60115452408913
 97
        1
330
3AD
 75
     2
 76
     1
 98
        1
 10
0.0
 20
0.0
450
        0
451
        0
460
0.0
461
0.0
452
        0
462
0.0
453
        0
470

  0
LWPOLYLINE
  5
3AF
330
3A9
100
AcDbEntity
  8
CAPA_BASE
100
AcDbPolyline
 90
        4
 70
     1
 43
0.0
 10
107.910444932401
 20
63.47615452408915
 10
108.2204449324008
 20
65.97615452408892
 10
107.6004449324013
 20
65.97615452408892
 10
107.6004449324013
 20
65.97615452408892
  0
HATCH
  5
3B0
330
3A9
100
AcDbEntity
  8
CAPA_BASE
 62
    18
420
        0
440
 33554687
100
AcDbHatch
 10
0.0
 20
0.0
 30
0.0
210
0.0
220
0.0
230
1.0
  2
SOLID
 70
     1
 71
     1
 91
        1
 92
        1
 93
        3
 72
     1
 10
107.910444932401
 20
63.47615452408915
 11
108.2204449324008
 21
65.97615452408892
 72
     1
 10
108.2204449324008
 20
65.97615452408892
 11
107.6004449324013
 21
65.97615452408892
 72
     1
 10
107.6004449324013
 20
65.97615452408892
 11
107.910444932401
 21
63.47615452408915
 97
        1
330
3AF
 75
     2
 76
     1
 98
        1
 10
0.0
 20
0.0
450
        0
451
        0
460
0.0
461
0.0
452
        0
462
0.0
453
        0
470

  0
LINE
  5
3B1
330
3A9
100
AcDbEntity
  8
CAPA_BASE
 62
    18
420
        0
370
    25
100
AcDbLine
 10
116.9104449324007
 20
96.60115452408913
 30
0.0
 11
106.9104449324017
 21
96.60115452408913
 31
0.0
  0
LINE
  5
3B2
330
3A9
100
AcDbEntity
  8
CAPA_BASE
 62
    18
420
        0
370
    25
100
AcDbLine
 10
119.893440061201
 20
63.47615452408915
 30
0.0
 11
106.9104449324017
 21
63.47615452408915
 31
0.0
  0
LINE
  5
3B3
330
3A9
100
AcDbEntity
  8
CAPA_BASE
 62
    18
420
        0
370
    25
100
AcDbLine
 10
107.910444932401
 20
96.60115452408913
 30
0.0
 11
107.910444932401
 21
63.47615452408915
 31
0.0
  0
MTEXT
  5
3B4
330
3A9
100
AcDbEntity
  8
CAPA_BASE
100
AcDbMText
 10
107.1166905877098
 20
77.39303654749138
 30
0.0
 40
0.2
 41
0.0
 46
0.0
 71
     7
 72
     1
  1
\C18;\c0;\FArial Bold|b1|i0|c1;\H2.997200;\W0.700000;133
 11
0.0000000000000003
 21
1.0
 31
0.0
 73
     1
 44
1.0
  0
ENDBLK
  5
3AC
330
3A9
100
AcDbEntity
  8
0
100
AcDbBlockEnd
  0
ENDSEC
  0
SECTION
  2
ENTITIES
  0
LWPOLYLINE
  5
78
330
70
100
AcDbEntity
  8
0
 62
    18
420
        0
370
    25
100
AcDbPolyline
 90
        9
 70
     0
 43
0.0
 10
15.92075194970109
 20
79.97615432288917
 10
15.93012093840113
 20
79.78463435468913
 10
15.99465411310118
 20
79.44631280298928
 10
16.11996196480127
 20
79.1322773500889
 10
16.30389200330126
 20
78.86012347338866
 10
16.53939903520103
 20
78.64964177758913
 10
16.77840079690111
 20
78.52940710188952
 10
17.03237420920108
 20
78.47800461498881
 10
17.09124706730104
 20
78.47615407708919
  0
LWPOLYLINE
  5
79
330
70
100
AcDbEntity
  8
0
 62
    18
420
        0
370
    25
100
AcDbPolyline
 90
        7
 70
     0
 43
0.0
 10
17.09124706730104
 20
79.22615466568942
 10
17.05406727310121
 20
79.22982407658903
 10
16.96140172470117
 20
79.26968188878894
 10
16.86157302500104
 20
79.36213986868857
 10
16.76215503870128
 20
79.5259101494889
 10
16.69477815780117
 20
79.73721140918932
 10
16.67075201440123
 20
79.97615432288917
  0
LINE
  5
7A
330
70
100
AcDbEntity
  8
0
 62
    18
420
        0
370
    25
100
AcDbLine
 10
15.92075194970109
 20
88.47615455198917
 30
0.0
 11
15.92075194970109
 21
79.97615432288917
 31
0.0
  0
LINE
  5
7B
330
70
100
AcDbEntity
  8
0
 62
    18
420
        0
370
    25
100
AcDbLine
 10
16.67075201440123
 20
79.97615432288917
 30
0.0
 11
16.67075201440123
 21
88.47615455198917
 31
0.0
  0
LINE
  5
7C
330
70
100
AcDbEntity
  8
0
 62
    18
420
        0
370
    25
100
AcDbLine
 10
75.18859666350152
 20
79.22615466568942
 30
0.0
 11
17.09124706730104
 21
79.22615466568942
 31
0.0
  0
LINE
  5
7D
330
70
100
AcDbEntity
  8
0
 62
    18
420
        0
370
    25
100
AcDbLine
 10
17.09124706730104
 20
78.47615407708855
 30
0.0
 11
75.18859666350152
 21
78.47615407708855
 31
0.0
  0
LWPOLYLINE
  5
7E
330
70
100
AcDbEntity
  8
0
 62
    18
420
        0
370
    25
100
AcDbPolyline
 90
        9
 70
     0
 43
0.0
 10
75.18859666350152
 20
78.47615407708855
 10
75.37040200590117
 20
78.49390042868892
 10
75.62638905400105
 20
78.58256233778885
 10
75.85495796560095
 20
78.73801218268887
 10
76.05075922370075
 20
78.95500661728913
 10
76.20571639890133
 20
79.22729367318916
 10
76.31014746190135
 20
79.54242901798884
 10
76.35685887690117
 20
79.88251449468911
 10
76.35909032580153
 20
79.97615432288917
  0
SPLINE
  5
7F
330
70
100
AcDbEntity
  8
0
 62
    18
420
        0
370
    25
100
AcDbSpline
210
0.0
220
0.0
230
1.0
 70
     8
 71
     3
 72
     8
 73
     4
 74
     0
 42
0.0000000001
 43
0.0000000001
 40
0.0
 40
0.0
 40
0.0
 40
0.0
 40
1.0
 40
1.0
 40
1.0
 40
1.0
 10
75.18859666347586
 20
79.22615466561307
 30
0.0
 10
75.4881449811767
 20
79.34564744179798
 30
0.0
 10
75.66341344656422
 20
79.65826039149401
 30
0.0
 10
75.60908880591438
 20
79.9761543228866
 30
0.0
  0
LINE
  5
80
330
70
100
AcDbEntity
  8
0
 62
    18
420
        0
370
    25
100
AcDbLine
 10
75.60908880590154
 20
88.47615455198917
 30
0.0
 11
75.60908880590154
 21
79.97615432288917
 31
0.0
  0
LINE
  5
81
330
70
100
AcDbEntity
  8
0
 62
    18
420
        0
370
    25
100
AcDbLine
 10
76.35909032580153
 20
79.97615432288917
 30
0.0
 11
76.35909032580153
 21
88.47615455198917
 31
0.0
  0
SPLINE
  5
82
330
70
100
AcDbEntity
  8
0
 62
    18
420
        0
370
    25
100
AcDbSpline
210
0.0
220
0.0
230
1.0
 70
     8
 71
     3
 72
     8
 73
     4
 74
     0
 42
0.0000000001
 43
0.0000000001
 40
0.0
 40
0.0
 40
0.0
 40
0.0
 40
1.0
 40
1.0
 40
1.0
 40
1.0
 10
50.04211601376439
 20
64.22615500088359
 30
0.0
 10
50.15128607456512
 20
64.4607082816277
 30
0.0
 10
50.20403397463351
 20
64.71756038231942
 30
0.0
 10
50.19613814115484
 20
64.97615465815842
 30
0.0
  0
SPLINE
  5
83
330
70
100
AcDbEntity
  8
0
 62
    18
420
        0
370
    25
100
AcDbSpline
210
0.0
220
0.0
230
1.0
 70
     8
 71
     3
 72
     8
 73
     4
 74
     0
 42
0.0000000001
 43
0.0000000001
 40
0.0
 40
0.0
 40
0.0
 40
0.0
 40
1.0
 40
1.0
 40
1.0
 40
1.0
 10
49.02564447882917
 20
64.22615500092724
 30
0.0
 10
49.32519103648046
 20
64.34565014556875
 30
0.0
 10
49.50045964567273
 20
64.65826058223017
 30
0.0
 10
49.44614034655875
 20
64.97615465820077
 30
0.0
  0
LINE
  5
84
330
70
100
AcDbEntity
  8
0
 62
    18
420
        0
370
    25
100
AcDbLine
 10
49.446140346501
 20
88.47615455198917
 30
0.0
 11
49.446140346501
 21
79.22615466568942
 31
0.0
  0
LINE
  5
85
330
70
100
AcDbEntity
  8
0
 62
    18
420
        0
370
    25
100
AcDbLine
 10
49.446140346501
 20
78.47615407708855
 30
0.0
 11
49.446140346501
 21
64.97615465818923
 31
0.0
  0
LINE
  5
86
330
70
100
AcDbEntity
  8
0
 62
    18
420
        0
370
    25
100
AcDbLine
 10
50.19613814110126
 20
64.97615465818923
 30
0.0
 11
50.19613814110126
 21
78.47615407708855
 31
0.0
  0
LINE
  5
87
330
70
100
AcDbEntity
  8
0
 62
    18
420
        0
370
    25
100
AcDbLine
 10
50.19613814110126
 20
79.22615466568942
 30
0.0
 11
50.19613814110126
 21
88.47615455198917
 31
0.0
  0
SPLINE
  5
88
330
70
100
AcDbEntity
  8
0
 62
    18
420
        0
370
    25
100
AcDbSpline
210
0.0
220
0.0
230
1.0
 70
     8
 71
     3
 72
     8
 73
     4
 74
     0
 42
0.0000000001
 43
0.0000000001
 40
0.0
 40
0.0
 40
0.0
 40
0.0
 40
1.0
 40
1.0
 40
1.0
 40
1.0
 10
43.50137983026437
 20
64.22615500088359
 30
0.0
 10
43.61054989106509
 20
64.4607082816277
 30
0.0
 10
43.66329779113349
 20
64.71756038231942
 30
0.0
 10
43.65540195765482
 20
64.97615465815842
 30
0.0
  0
SPLINE
  5
89
330
70
100
AcDbEntity
  8
0
 62
    18
420
        0
370
    25
100
AcDbSpline
210
0.0
220
0.0
230
1.0
 70
     8
 71
     3
 72
     8
 73
     4
 74
     0
 42
0.0000000001
 43
0.0000000001
 40
0.0
 40
0.0
 40
0.0
 40
0.0
 40
1.0
 40
1.0
 40
1.0
 40
1.0
 10
42.48490643262925
 20
64.22615500092724
 30
0.0
 10
42.78445299028052
 20
64.34565014556875
 30
0.0
 10
42.9597215994728
 20
64.65826058223017
 30
0.0
 10
42.90540230035882
 20
64.97615465820077
 30
0.0
  0
LINE
  5
8A
330
70
100
AcDbEntity
  8
0
 62
    18
420
        0
370
    25
100
AcDbLine
 10
42.90540230030106
 20
88.47615455198917
 30
0.0
 11
42.90540230030106
 21
79.22615466568942
 31
0.0
  0
LINE
  5
8B
330
70
100
AcDbEntity
  8
0
 62
    18
420
        0
370
    25
100
AcDbLine
 10
42.90540230030106
 20
78.47615407708855
 30
0.0
 11
42.90540230030106
 21
64.97615465818923
 31
0.0
  0
LINE
  5
8C
330
70
100
AcDbEntity
  8
0
 62
    18
420
        0
370
    25
100
AcDbLine
 10
43.65540195760124
 20
64.97615465818923
 30
0.0
 11
43.65540195760124
 21
78.47615407708855
 31
0.0
  0
LINE
  5
8D
330
70
100
AcDbEntity
  8
0
 62
    18
420
        0
370
    25
100
AcDbLine
 10
43.65540195760124
 20
79.22615466568942
 30
0.0
 11
43.65540195760124
 21
88.47615455198917
 31
0.0
  0
SPLINE
  5
8E
330
70
100
AcDbEntity
  8
0
 62
    18
420
        0
370
    25
100
AcDbSpline
210
0.0
220
0.0
230
1.0
 70
     8
 71
     3
 72
     8
 73
     4
 74
     0
 42
0.0000000001
 43
0.0000000001
 40
0.0
 40
0.0
 40
0.0
 40
0.0
 40
1.0
 40
1.0
 40
1.0
 40
1.0
 10
36.96064178406412
 20
64.22615500088359
 30
0.0
 10
37.06981184486517
 20
64.4607082816277
 30
0.0
 10
37.12255974493356
 20
64.71756038231942
 30
0.0
 10
37.11466391145457
 20
64.97615465815842
 30
0.0
  0
SPLINE
  5
8F
330
70
100
AcDbEntity
  8
0
 62
    18
420
        0
370
    25
100
AcDbSpline
210
0.0
220
0.0
230
1.0
 70
     8
 71
     3
 72
     8
 73
     4
 74
     0
 42
0.0000000001
 43
0.0000000001
 40
0.0
 40
0.0
 40
0.0
 40
0.0
 40
1.0
 40
1.0
 40
1.0
 40
1.0
 10
35.94416838642931
 20
64.22615500092724
 30
0.0
 10
36.24371494408059
 20
64.34565014556875
 30
0.0
 10
36.41898355327287
 20
64.65826058223017
 30
0.0
 10
36.36466425415889
 20
64.97615465820077
 30
0.0
  0
LINE
  5
90
330
70
100
AcDbEntity
  8
0
 62
    18
420
        0
370
    25
100
AcDbLine
 10
36.36466425420124
 20
88.47615455198917
 30
0.0
 11
36.36466425420124
 21
79.22615466568942
 31
0.0
  0
LINE
  5
91
330
70
100
AcDbEntity
  8
0
 62
    18
420
        0
370
    25
100
AcDbLine
 10
36.36466425420124
 20
78.47615407708855
 30
0.0
 11
36.36466425420124
 21
64.97615465818923
 31
0.0
  0
LINE
  5
92
330
70
100
AcDbEntity
  8
0
 62
    18
420
        0
370
    25
100
AcDbLine
 10
37.11466391140131
 20
64.97615465818923
 30
0.0
 11
37.11466391140131
 21
78.47615407708855
 31
0.0
  0
LINE
  5
93
330
70
100
AcDbEntity
  8
0
 62
    18
420
        0
370
    25
100
AcDbLine
 10
37.11466391140131
 20
79.22615466568942
 30
0.0
 11
37.11466391140131
 21
88.47615455198917
 31
0.0
  0
SPLINE
  5
94
330
70
100
AcDbEntity
  8
0
 62
    18
420
        0
370
    25
100
AcDbSpline
210
0.0
220
0.0
230
1.0
 70
     8
 71
     3
 72
     8
 73
     4
 74
     0
 42
0.0000000001
 43
0.0000000001
 40
0.0
 40
0.0
 40
0.0
 40
0.0
 40
1.0
 40
1.0
 40
1.0
 40
1.0
 10
23.87916662304967
 20
79.22615466567018
 30
0.0
 10
23.98831945616911
 20
79.46071363761418
 30
0.0
 10
24.04106650762229
 20
79.71756160603551
 30
0.0
 10
24.03318875044011
 20
79.97615432294629
 30
0.0
  0
SPLINE
  5
95
330
70
100
AcDbEntity
  8
0
 62
    18
420
        0
370
    25
100
AcDbSpline
210
0.0
220
0.0
230
1.0
 70
     8
 71
     3
 72
     8
 73
     4
 74
     0
 42
0.0000000001
 43
0.0000000001
 40
0.0
 40
0.0
 40
0.0
 40
0.0
 40
1.0
 40
1.0
 40
1.0
 40
1.0
 10
22.86269369107082
 20
79.22615466562781
 30
0.0
 10
23.16223959271446
 20
79.3456504685762
 30
0.0
 10
23.33750762341858
 20
79.65826056581668
 30
0.0
 10
23.28318862747755
 20
79.97615432290136
 30
0.0
  0
LINE
  5
96
330
70
100
AcDbEntity
  8
0
 62
    18
420
        0
370
    25
100
AcDbLine
 10
23.2831886275013
 20
88.47615455198917
 30
0.0
 11
23.2831886275013
 21
79.97615432288917
 31
0.0
  0
LINE
  5
97
330
70
100
AcDbEntity
  8
0
 62
    18
420
        0
370
    25
100
AcDbLine
 10
24.03318875040129
 20
79.97615432288917
 30
0.0
 11
24.03318875040129
 21
88.47615455198917
 31
0.0
  0
SPLINE
  5
98
330
70
100
AcDbEntity
  8
0
 62
    18
420
        0
370
    25
100
AcDbSpline
210
0.0
220
0.0
230
1.0
 70
     8
 71
     3
 72
     8
 73
     4
 74
     0
 42
0.0000000001
 43
0.0000000001
 40
0.0
 40
0.0
 40
0.0
 40
0.0
 40
1.0
 40
1.0
 40
1.0
 40
1.0
 10
30.41990466925409
 20
64.22615500087974
 30
0.0
 10
30.52907351394176
 20
64.46070868339034
 30
0.0
 10
30.58182135409664
 20
64.71756049234
 30
0.0
 10
30.57392679664325
 20
64.97615465815329
 30
0.0
  0
SPLINE
  5
99
330
70
100
AcDbEntity
  8
0
 62
    18
420
        0
370
    25
100
AcDbSpline
210
0.0
220
0.0
230
1.0
 70
     8
 71
     3
 72
     8
 73
     4
 74
     0
 42
0.0000000001
 43
0.0000000001
 40
0.0
 40
0.0
 40
0.0
 40
0.0
 40
1.0
 40
1.0
 40
1.0
 40
1.0
 10
29.4034312716366
 20
64.22615500091055
 30
0.0
 10
29.70297736882904
 20
64.34565058076199
 30
0.0
 10
29.87824549633026
 20
64.65826085065096
 30
0.0
 10
29.8239262080427
 20
64.97615465818281
 30
0.0
  0
LINE
  5
9A
330
70
100
AcDbEntity
  8
0
 62
    18
420
        0
370
    25
100
AcDbLine
 10
29.82392620800099
 20
88.47615455198917
 30
0.0
 11
29.82392620800099
 21
79.22615466568942
 31
0.0
  0
LINE
  5
9B
330
70
100
AcDbEntity
  8
0
 62
    18
420
        0
370
    25
100
AcDbLine
 10
29.82392620800099
 20
78.47615407708855
 30
0.0
 11
29.82392620800099
 21
64.97615465818923
 31
0.0
  0
LINE
  5
9C
330
70
100
AcDbEntity
  8
0
 62
    18
420
        0
370
    25
100
AcDbLine
 10
30.57392679660122
 20
64.97615465818923
 30
0.0
 11
30.57392679660122
 21
78.47615407708855
 31
0.0
  0
LINE
  5
9D
330
70
100
AcDbEntity
  8
0
 62
    18
420
        0
370
    25
100
AcDbLine
 10
30.57392679660122
 20
79.22615466568942
 30
0.0
 11
30.57392679660122
 21
88.47615455198917
 31
0.0
  0
LWPOLYLINE
  5
9E
330
70
100
AcDbEntity
  8
0
 62
    18
420
        0
370
    25
100
AcDbPolyline
 90
        9
 70
     0
 43
0.0
 10
15.92075194970109
 20
64.97615465818923
 10
15.93012093840113
 20
64.7846337586888
 10
15.99465411310118
 20
64.44631220698894
 10
16.11996196480127
 20
64.13227768538894
 10
16.30389200330126
 20
63.86012473998909
 10
16.53939903520103
 20
63.6496421128892
 10
16.77840079690111
 20
63.52940650578908
 10
17.03237420920108
 20
63.47800495028949
 10
17.09124706730104
 20
63.47615534368898
  0
LWPOLYLINE
  5
9F
330
70
100
AcDbEntity
  8
0
 62
    18
420
        0
370
    25
100
AcDbPolyline
 90
        7
 70
     0
 43
0.0
 10
17.09124706730104
 20
64.22615500088873
 10
17.05406727310121
 20
64.22982441188906
 10
16.96140172470117
 20
64.26968129278924
 10
16.86157302500104
 20
64.36213927268887
 10
16.76215503870128
 20
64.52591048478895
 10
16.69477815780117
 20
64.73721081318899
 10
16.67075201440123
 20
64.97615465818923
  0
LINE
  5
A0
330
70
100
AcDbEntity
  8
0
 62
    18
420
        0
370
    25
100
AcDbLine
 10
15.92075194970109
 20
79.97615432288917
 30
0.0
 11
15.92075194970109
 21
64.97615465818923
 31
0.0
  0
LINE
  5
A1
330
70
100
AcDbEntity
  8
0
 62
    18
420
        0
370
    25
100
AcDbLine
 10
16.67075201440123
 20
64.97615465818923
 30
0.0
 11
16.67075201440123
 21
78.58356164688856
 31
0.0
  0
LINE
  5
A2
330
70
100
AcDbEntity
  8
0
 62
    18
420
        0
370
    25
100
AcDbLine
 10
68.64785861730095
 20
64.22615500088873
 30
0.0
 11
17.09124706730104
 21
64.22615500088873
 31
0.0
  0
LINE
  5
A3
330
70
100
AcDbEntity
  8
0
 62
    18
420
        0
370
    25
100
AcDbLine
 10
17.09124706730104
 20
63.47615534368898
 30
0.0
 11
68.64785861730095
 21
63.47615534368898
 31
0.0
  0
LWPOLYLINE
  5
A4
330
70
100
AcDbEntity
  8
0
 62
    18
420
        0
370
    25
100
AcDbPolyline
 90
        9
 70
     0
 43
0.0
 10
68.64785861730095
 20
63.47615534368898
 10
68.82966768500094
 20
63.49390076398897
 10
69.08565100790124
 20
63.58256267308954
 10
69.31421991940102
 20
63.73801158668919
 10
69.51002117750146
 20
63.95500602128944
 10
69.66497835280086
 20
64.22729307708873
 10
69.76940941570077
 20
64.54243028458863
 10
69.81612083080135
 20
64.88251389858932
 10
69.81835227970106
 20
64.97615465818923
  0
SPLINE
  5
A5
330
70
100
AcDbEntity
  8
0
 62
    18
420
        0
370
    25
100
AcDbSpline
210
0.0
220
0.0
230
1.0
 70
     8
 71
     3
 72
     8
 73
     4
 74
     0
 42
0.0000000001
 43
0.0000000001
 40
0.0
 40
0.0
 40
0.0
 40
0.0
 40
1.0
 40
1.0
 40
1.0
 40
1.0
 10
68.6478586173433
 20
64.22615500089065
 30
0.0
 10
68.94740419783712
 20
64.3456512603463
 30
0.0
 10
69.12267232333076
 20
64.65826083427993
 30
0.0
 10
69.0683544850732
 20
64.9761546581642
 30
0.0
  0
LINE
  5
A6
330
70
100
AcDbEntity
  8
0
 62
    18
420
        0
370
    25
100
AcDbLine
 10
69.06835448500133
 20
88.47615455198917
 30
0.0
 11
69.06835448500133
 21
79.22615466568942
 31
0.0
  0
LINE
  5
A7
330
70
100
AcDbEntity
  8
0
 62
    18
420
        0
370
    25
100
AcDbLine
 10
69.06835448500133
 20
78.47615407708855
 30
0.0
 11
69.06835448500133
 21
64.97615465818923
 31
0.0
  0
LINE
  5
A8
330
70
100
AcDbEntity
  8
0
 62
    18
420
        0
370
    25
100
AcDbLine
 10
69.81835227970106
 20
64.97615465818923
 30
0.0
 11
69.81835227970106
 21
78.47615407708855
 31
0.0
  0
LINE
  5
A9
330
70
100
AcDbEntity
  8
0
 62
    18
420
        0
370
    25
100
AcDbLine
 10
69.81835227970106
 20
79.22615466568942
 30
0.0
 11
69.81835227970106
 21
88.47615455198917
 31
0.0
  0
SPLINE
  5
AA
330
70
100
AcDbEntity
  8
0
 62
    18
420
        0
370
    25
100
AcDbSpline
210
0.0
220
0.0
230
1.0
 70
     8
 71
     3
 72
     8
 73
     4
 74
     0
 42
0.0000000001
 43
0.0000000001
 40
0.0
 40
0.0
 40
0.0
 40
0.0
 40
1.0
 40
1.0
 40
1.0
 40
1.0
 10
63.12359210606416
 20
64.22615500088359
 30
0.0
 10
63.2327621668652
 20
64.4607082816277
 30
0.0
 10
63.28551006693327
 20
64.71756038231942
 30
0.0
 10
63.2776142334546
 20
64.97615465815842
 30
0.0
  0
SPLINE
  5
AB
330
70
100
AcDbEntity
  8
0
 62
    18
420
        0
370
    25
100
AcDbSpline
210
0.0
220
0.0
230
1.0
 70
     8
 71
     3
 72
     8
 73
     4
 74
     0
 42
0.0000000001
 43
0.0000000001
 40
0.0
 40
0.0
 40
0.0
 40
0.0
 40
1.0
 40
1.0
 40
1.0
 40
1.0
 10
62.10712057112925
 20
64.22615500092724
 30
0.0
 10
62.40666712878054
 20
64.34565014556875
 30
0.0
 10
62.58193573797282
 20
64.65826058223017
 30
0.0
 10
62.52761643885883
 20
64.97615465820077
 30
0.0
  0
LINE
  5
AC
330
70
100
AcDbEntity
  8
0
 62
    18
420
        0
370
    25
100
AcDbLine
 10
62.52761643890118
 20
88.47615455198917
 30
0.0
 11
62.52761643890118
 21
79.22615466568942
 31
0.0
  0
LINE
  5
AD
330
70
100
AcDbEntity
  8
0
 62
    18
420
        0
370
    25
100
AcDbLine
 10
62.52761643890118
 20
78.47615407708855
 30
0.0
 11
62.52761643890118
 21
64.97615465818923
 31
0.0
  0
LINE
  5
AE
330
70
100
AcDbEntity
  8
0
 62
    18
420
        0
370
    25
100
AcDbLine
 10
63.27761423350112
 20
64.97615465818923
 30
0.0
 11
63.27761423350112
 21
78.47615407708855
 31
0.0
  0
LINE
  5
AF
330
70
100
AcDbEntity
  8
0
 62
    18
420
        0
370
    25
100
AcDbLine
 10
63.27761423350112
 20
79.22615466568942
 30
0.0
 11
63.27761423350112
 21
88.47615455198917
 31
0.0
  0
SPLINE
  5
B0
330
70
100
AcDbEntity
  8
0
 62
    18
420
        0
370
    25
100
AcDbSpline
210
0.0
220
0.0
230
1.0
 70
     8
 71
     3
 72
     8
 73
     4
 74
     0
 42
0.0000000001
 43
0.0000000001
 40
0.0
 40
0.0
 40
0.0
 40
0.0
 40
1.0
 40
1.0
 40
1.0
 40
1.0
 10
56.58285405996433
 20
64.22615500088359
 30
0.0
 10
56.69202412076505
 20
64.4607082816277
 30
0.0
 10
56.74477202083345
 20
64.71756038231942
 30
0.0
 10
56.73687618735478
 20
64.97615465815842
 30
0.0
  0
SPLINE
  5
B1
330
70
100
AcDbEntity
  8
0
 62
    18
420
        0
370
    25
100
AcDbSpline
210
0.0
220
0.0
230
1.0
 70
     8
 71
     3
 72
     8
 73
     4
 74
     0
 42
0.0000000001
 43
0.0000000001
 40
0.0
 40
0.0
 40
0.0
 40
0.0
 40
1.0
 40
1.0
 40
1.0
 40
1.0
 10
55.56638252492932
 20
64.22615500092724
 30
0.0
 10
55.86592908258029
 20
64.34565014556875
 30
0.0
 10
56.04119769177287
 20
64.65826058223017
 30
0.0
 10
55.98687839265858
 20
64.97615465820077
 30
0.0
  0
LINE
  5
B2
330
70
100
AcDbEntity
  8
0
 62
    18
420
        0
370
    25
100
AcDbLine
 10
55.98687839270125
 20
88.47615455198917
 30
0.0
 11
55.98687839270125
 21
79.22615466568942
 31
0.0
  0
LINE
  5
B3
330
70
100
AcDbEntity
  8
0
 62
    18
420
        0
370
    25
100
AcDbLine
 10
55.98687839270125
 20
78.47615407708855
 30
0.0
 11
55.98687839270125
 21
64.97615465818923
 31
0.0
  0
LINE
  5
B4
330
70
100
AcDbEntity
  8
0
 62
    18
420
        0
370
    25
100
AcDbLine
 10
56.7368761873012
 20
64.97615465818923
 30
0.0
 11
56.7368761873012
 21
78.47615407708855
 31
0.0
  0
LINE
  5
B5
330
70
100
AcDbEntity
  8
0
 62
    18
420
        0
370
    25
100
AcDbLine
 10
56.7368761873012
 20
79.22615466568942
 30
0.0
 11
56.7368761873012
 21
88.47615455198917
 31
0.0
  0
LINE
  5
B6
330
70
100
AcDbEntity
  8
0
 62
    18
420
        0
370
    25
100
AcDbLine
 10
58.29575371500117
 20
88.20115455348858
 30
0.0
 11
58.29575371500117
 21
88.21706748028949
 31
0.0
  0
SPLINE
  5
B7
330
70
100
AcDbEntity
  8
0
 62
    18
420
        0
370
    25
100
AcDbSpline
210
0.0
220
0.0
230
1.0
 70
     8
 71
     3
 72
    11
 73
     7
 74
     0
 42
0.0000000001
 43
0.0000000001
 40
0.0
 40
0.0
 40
0.0
 40
0.0
 40
1.0
 40
1.0
 40
1.0
 40
2.0
 40
2.0
 40
2.0
 40
2.0
 10
58.29575371507496
 20
88.20115455349757
 30
0.0
 10
58.29575095281825
 20
88.13212171073898
 30
0.0
 10
58.3517108897353
 20
88.0761572953193
 30
0.0
 10
58.42074373249293
 20
88.07615453306224
 30
0.0
 10
58.4207465235783
 20
88.0761545329506
 30
0.0
 10
58.42074931466399
 20
88.07615453293264
 30
0.0
 10
58.42075210574936
 20
88.07615453300835
 30
0.0
  0
LINE
  5
B8
330
70
100
AcDbEntity
  8
0
 62
    18
420
        0
370
    25
100
AcDbLine
 10
58.47798746580105
 20
88.07615453298911
 30
0.0
 11
58.42075210570124
 21
88.07615453298911
 31
0.0
  0
SPLINE
  5
B9
330
70
100
AcDbEntity
  8
0
 62
    18
420
        0
370
    25
100
AcDbSpline
210
0.0
220
0.0
230
1.0
 70
     8
 71
     3
 72
     8
 73
     4
 74
     0
 42
0.0000000001
 43
0.0000000001
 40
0.0
 40
0.0
 40
0.0
 40
0.0
 40
1.0
 40
1.0
 40
1.0
 40
1.0
 10
58.47798650115445
 20
88.07615452409001
 30
0.0
 10
59.15924239216866
 20
87.60948785742206
 30
0.0
 10
60.05726152123361
 20
87.60948785742206
 30
0.0
 10
60.7385174122478
 20
88.07615452409001
 30
0.0
  0
LINE
  5
BA
330
70
100
AcDbEntity
  8
0
 62
    18
420
        0
370
    25
100
AcDbLine
 10
60.7957513308012
 20
88.07615453298911
 30
0.0
 11
60.73851597070107
 21
88.07615453298911
 31
0.0
  0
SPLINE
  5
BB
330
70
100
AcDbEntity
  8
0
 62
    18
420
        0
370
    25
100
AcDbSpline
210
0.0
220
0.0
230
1.0
 70
     8
 71
     3
 72
     8
 73
     4
 74
     0
 42
0.0000000001
 43
0.0000000001
 40
0.0
 40
0.0
 40
0.0
 40
0.0
 40
1.0
 40
1.0
 40
1.0
 40
1.0
 10
60.79575133085286
 20
88.07615453302569
 30
0.0
 10
60.86478687917566
 20
88.07615548831085
 30
0.0
 10
60.92075133424368
 20
88.13211900521777
 30
0.0
 10
60.92075344681767
 20
88.20115455351489
 30
0.0
  0
LINE
  5
BC
330
70
100
AcDbEntity
  8
0
 62
    18
420
        0
370
    25
100
AcDbLine
 10
60.92075344680131
 20
88.21706748028949
 30
0.0
 11
60.92075344680131
 21
88.20115455348858
 31
0.0
  0
LINE
  5
BD
330
70
100
AcDbEntity
  8
0
 62
    18
420
        0
370
    25
100
AcDbLine
 10
60.92075344680131
 20
91.251154494689
 30
0.0
 11
60.92075344680131
 21
91.23524156788908
 31
0.0
  0
SPLINE
  5
BE
330
70
100
AcDbEntity
  8
0
 62
    18
420
        0
370
    25
100
AcDbSpline
210
0.0
220
0.0
230
1.0
 70
     8
 71
     3
 72
     8
 73
     4
 74
     0
 42
0.0000000001
 43
0.0000000001
 40
0.0
 40
0.0
 40
0.0
 40
0.0
 40
1.0
 40
1.0
 40
1.0
 40
1.0
 10
60.92075344683275
 20
91.25115449470602
 30
0.0
 10
60.92075041741747
 20
91.32018966321037
 30
0.0
 10
60.86478649941336
 20
91.37615264306203
 30
0.0
 10
60.79575133086762
 20
91.37615451519492
 30
0.0
  0
LINE
  5
BF
330
70
100
AcDbEntity
  8
0
 62
    18
420
        0
370
    25
100
AcDbLine
 10
60.73851597070107
 20
91.37615451518913
 30
0.0
 11
60.7957513308012
 21
91.37615451518913
 31
0.0
  0
SPLINE
  5
C0
330
70
100
AcDbEntity
  8
0
 62
    18
420
        0
370
    25
100
AcDbSpline
210
0.0
220
0.0
230
1.0
 70
     8
 71
     3
 72
     8
 73
     4
 74
     0
 42
0.0000000001
 43
0.0000000001
 40
0.0
 40
0.0
 40
0.0
 40
0.0
 40
1.0
 40
1.0
 40
1.0
 40
1.0
 10
60.7385174122478
 20
91.37615452408853
 30
0.0
 10
60.05726152123361
 20
91.84282119075586
 30
0.0
 10
59.15924239216866
 20
91.84282119075586
 30
0.0
 10
58.47798650115445
 20
91.37615452408853
 30
0.0
  0
LINE
  5
C1
330
70
100
AcDbEntity
  8
0
 62
    18
420
        0
370
    25
100
AcDbLine
 10
58.42075210570124
 20
91.37615451518913
 30
0.0
 11
58.47798746580105
 21
91.37615451518913
 31
0.0
  0
SPLINE
  5
C2
330
70
100
AcDbEntity
  8
0
 62
    18
420
        0
370
    25
100
AcDbSpline
210
0.0
220
0.0
230
1.0
 70
     8
 71
     3
 72
    11
 73
     7
 74
     0
 42
0.0000000001
 43
0.0000000001
 40
0.0
 40
0.0
 40
0.0
 40
0.0
 40
1.0
 40
1.0
 40
1.0
 40
2.0
 40
2.0
 40
2.0
 40
2.0
 10
58.42075210569225
 20
91.37615451518591
 30
0.0
 10
58.35171751612909
 20
91.37615463055315
 30
0.0
 10
58.29575383037159
 20
91.32019113184322
 30
0.0
 10
58.29575371500438
 20
91.25115654228006
 30
0.0
 10
58.29575371500309
 20
91.25115585975194
 30
0.0
 10
58.29575371500759
 20
91.25115517722482
 30
0.0
 10
58.29575371501753
 20
91.25115449469671
 30
0.0
  0
LINE
  5
C3
330
70
100
AcDbEntity
  8
0
 62
    18
420
        0
370
    25
100
AcDbLine
 10
58.29575371500117
 20
91.23524156788908
 30
0.0
 11
58.29575371500117
 21
91.251154494689
 31
0.0
  0
SPLINE
  5
C4
330
70
100
AcDbEntity
  8
0
 62
    18
420
        0
370
    25
100
AcDbSpline
210
0.0
220
0.0
230
1.0
 70
     8
 71
     3
 72
     8
 73
     4
 74
     0
 42
0.0000000001
 43
0.0000000001
 40
0.0
 40
0.0
 40
0.0
 40
0.0
 40
1.0
 40
1.0
 40
1.0
 40
1.0
 10
60.7957519567013
 20
90.97615452408916
 30
0.0
 10
60.86478755043008
 20
90.97615452408916
 30
0.0
 10
60.92075195670105
 20
91.03211893036014
 30
0.0
 10
60.92075195670105
 20
91.10115452408892
 30
0.0
  0
LINE
  5
C5
330
70
100
AcDbEntity
  8
0
 62
    18
420
        0
370
    25
100
AcDbLine
 10
60.92075344680131
 20
91.10115451658906
 30
0.0
 11
60.92075344680131
 21
91.23524156788908
 31
0.0
  0
LINE
  5
C6
330
70
100
AcDbEntity
  8
0
 62
    18
420
        0
370
    25
100
AcDbLine
 10
60.92075344680131
 20
88.35115453148906
 30
0.0
 11
60.92075344680131
 21
88.21706748028949
 31
0.0
  0
SPLINE
  5
C7
330
70
100
AcDbEntity
  8
0
 62
    18
420
        0
370
    25
100
AcDbSpline
210
0.0
220
0.0
230
1.0
 70
     8
 71
     3
 72
     8
 73
     4
 74
     0
 42
0.0000000001
 43
0.0000000001
 40
0.0
 40
0.0
 40
0.0
 40
0.0
 40
1.0
 40
1.0
 40
1.0
 40
1.0
 10
60.92075195670105
 20
88.35115452408897
 30
0.0
 10
60.92075195670105
 20
88.42019011781777
 30
0.0
 10
60.86478755043008
 20
88.47615452408875
 30
0.0
 10
60.7957519567013
 20
88.47615452408875
 30
0.0
  0
SPLINE
  5
C8
330
70
100
AcDbEntity
  8
0
 62
    18
420
        0
370
    25
100
AcDbSpline
210
0.0
220
0.0
230
1.0
 70
     8
 71
     3
 72
     8
 73
     4
 74
     0
 42
0.0000000001
 43
0.0000000001
 40
0.0
 40
0.0
 40
0.0
 40
0.0
 40
1.0
 40
1.0
 40
1.0
 40
1.0
 10
58.42075195670129
 20
88.47615452408875
 30
0.0
 10
58.35171636297218
 20
88.47615452408875
 30
0.0
 10
58.2957519567012
 20
88.42019011781777
 30
0.0
 10
58.2957519567012
 20
88.35115452408897
 30
0.0
  0
LINE
  5
C9
330
70
100
AcDbEntity
  8
0
 62
    18
420
        0
370
    25
100
AcDbLine
 10
58.29575371500117
 20
88.35115453148906
 30
0.0
 11
58.29575371500117
 21
88.21706748028949
 31
0.0
  0
SPLINE
  5
CA
330
70
100
AcDbEntity
  8
0
 62
    18
420
        0
370
    25
100
AcDbSpline
210
0.0
220
0.0
230
1.0
 70
     8
 71
     3
 72
     8
 73
     4
 74
     0
 42
0.0000000001
 43
0.0000000001
 40
0.0
 40
0.0
 40
0.0
 40
0.0
 40
1.0
 40
1.0
 40
1.0
 40
1.0
 10
58.2957519567012
 20
91.10115452408892
 30
0.0
 10
58.2957519567012
 20
91.03211893036014
 30
0.0
 10
58.35171636297218
 20
90.97615452408916
 30
0.0
 10
58.42075195670129
 20
90.97615452408916
 30
0.0
  0
CIRCLE
  5
CB
330
70
100
AcDbEntity
  8
0
 62
    18
420
        0
370
    25
100
AcDbCircle
 10
59.60825195670121
 20
89.72615452408895
 30
0.0
 40
0.5375000000000992
  0
LINE
  5
CC
330
70
100
AcDbEntity
  8
0
 62
    18
420
        0
370
    25
100
AcDbLine
 10
58.29575371500117
 20
91.10115451658906
 30
0.0
 11
58.29575371500117
 21
91.23524156788908
 31
0.0
  0
LINE
  5
CD
330
70
100
AcDbEntity
  8
0
 62
    18
420
        0
370
    25
100
AcDbLine
 10
58.47798746580105
 20
91.37615451518913
 30
0.0
 11
60.73851597070107
 21
91.37615451518913
 31
0.0
  0
LINE
  5
CE
330
70
100
AcDbEntity
  8
0
 62
    18
420
        0
370
    25
100
AcDbLine
 10
60.73851597070107
 20
88.07615453298911
 30
0.0
 11
58.47798746580105
 21
88.07615453298911
 31
0.0
  0
CIRCLE
  5
CF
330
70
100
AcDbEntity
  8
0
 62
    18
420
        0
370
    25
100
AcDbCircle
 10
59.60825195670121
 20
89.72615452408888
 30
0.0
 40
0.4125000000000547
  0
SPLINE
  5
D0
330
70
100
AcDbEntity
  8
0
 62
    18
420
        0
370
    25
100
AcDbSpline
210
0.0
220
0.0
230
1.0
 70
     8
 71
     3
 72
    11
 73
     7
 74
     0
 42
0.0000000001
 43
0.0000000001
 40
0.0
 40
0.0
 40
0.0
 40
0.0
 40
1.0
 40
1.0
 40
1.0
 40
2.0
 40
2.0
 40
2.0
 40
2.0
 10
66.36866059819545
 20
90.97615452409012
 30
0.0
 10
65.67830466090626
 20
94.70982511941205
 30
0.0
 10
62.09192255202172
 20
97.17691910287292
 30
0.0
 10
58.3582519566998
 20
96.48656316558374
 30
0.0
 10
55.557270911879
 20
95.96866158718817
 30
0.0
 10
53.36574489360206
 20
93.77713556891125
 30
0.0
 10
52.8478433152065
 20
90.97615452409012
 30
0.0
  0
SPLINE
  5
D1
330
70
100
AcDbEntity
  8
0
 62
    18
420
        0
370
    25
100
AcDbSpline
210
0.0
220
0.0
230
1.0
 70
     8
 71
     3
 72
     8
 73
     4
 74
     0
 42
0.0000000001
 43
0.0000000001
 40
0.0
 40
0.0
 40
0.0
 40
0.0
 40
1.0
 40
1.0
 40
1.0
 40
1.0
 10
63.27761517963502
 20
83.912257505894
 30
0.0
 10
64.89942168504569
 20
84.93583895686233
 30
0.0
 10
66.01996881273412
 20
86.59031535636655
 30
0.0
 10
66.36866059819545
 20
88.47615452408746
 30
0.0
  0
SPLINE
  5
D2
330
70
100
AcDbEntity
  8
0
 62
    18
420
        0
370
    25
100
AcDbSpline
210
0.0
220
0.0
230
1.0
 70
     8
 71
     3
 72
     8
 73
     4
 74
     0
 42
0.0000000001
 43
0.0000000001
 40
0.0
 40
0.0
 40
0.0
 40
0.0
 40
1.0
 40
1.0
 40
1.0
 40
1.0
 10
56.73687745365864
 20
83.47948873638426
 30
0.0
 10
58.57626198809976
 20
82.63398778708127
 30
0.0
 10
60.69479201239428
 20
82.64213991172514
 30
0.0
 10
62.52761517963644
 20
83.50177155285578
 30
0.0
  0
SPLINE
  5
D3
330
70
100
AcDbEntity
  8
0
 62
    18
420
        0
370
    25
100
AcDbSpline
210
0.0
220
0.0
230
1.0
 70
     8
 71
     3
 72
     8
 73
     4
 74
     0
 42
0.0000000001
 43
0.0000000001
 40
0.0
 40
0.0
 40
0.0
 40
0.0
 40
1.0
 40
1.0
 40
1.0
 40
1.0
 10
52.8478433152065
 20
88.47615452408746
 30
0.0
 10
53.20011714958566
 20
86.57094246480225
 30
0.0
 10
54.33995248537677
 20
84.90281796879006
 30
0.0
 10
55.98687745365396
 20
83.88224558326179
 30
0.0
  0
LINE
  5
D4
330
70
100
AcDbEntity
  8
0
 62
    18
420
        0
370
    25
100
AcDbLine
 10
34.79575265700129
 20
91.251154494689
 30
0.0
 11
34.79575265700129
 21
91.23524156788908
 31
0.0
  0
SPLINE
  5
D5
330
70
100
AcDbEntity
  8
0
 62
    18
420
        0
370
    25
100
AcDbSpline
210
0.0
220
0.0
230
1.0
 70
     8
 71
     3
 72
     8
 73
     4
 74
     0
 42
0.0000000001
 43
0.0000000001
 40
0.0
 40
0.0
 40
0.0
 40
0.0
 40
1.0
 40
1.0
 40
1.0
 40
1.0
 10
34.79575265705873
 20
91.25115449465917
 30
0.0
 10
34.79575211026344
 20
91.32018996413833
 30
0.0
 10
34.7397878732191
 20
91.37615409694156
 30
0.0
 10
34.67075240373897
 20
91.37615451514838
 30
0.0
  0
LINE
  5
D6
330
70
100
AcDbEntity
  8
0
 62
    18
420
        0
370
    25
100
AcDbLine
 10
34.61351704360129
 20
91.37615451518913
 30
0.0
 11
34.6707524037011
 21
91.37615451518913
 31
0.0
  0
SPLINE
  5
D7
330
70
100
AcDbEntity
  8
0
 62
    18
420
        0
370
    25
100
AcDbSpline
210
0.0
220
0.0
230
1.0
 70
     8
 71
     3
 72
     8
 73
     4
 74
     0
 42
0.0000000001
 43
0.0000000001
 40
0.0
 40
0.0
 40
0.0
 40
0.0
 40
1.0
 40
1.0
 40
1.0
 40
1.0
 10
34.61351741224777
 20
91.37615452408853
 30
0.0
 10
33.93226152123356
 20
91.84282119075586
 30
0.0
 10
33.03424239216893
 20
91.84282119075586
 30
0.0
 10
32.35298650115442
 20
91.37615452408853
 30
0.0
  0
LINE
  5
D8
330
70
100
AcDbEntity
  8
0
 62
    18
420
        0
370
    25
100
AcDbLine
 10
32.29575131590123
 20
91.37615451518913
 30
0.0
 11
32.35298667610115
 21
91.37615451518913
 31
0.0
  0
SPLINE
  5
D9
330
70
100
AcDbEntity
  8
0
 62
    18
420
        0
370
    25
100
AcDbSpline
210
0.0
220
0.0
230
1.0
 70
     8
 71
     3
 72
     8
 73
     4
 74
     0
 42
0.0000000001
 43
0.0000000001
 40
0.0
 40
0.0
 40
0.0
 40
0.0
 40
1.0
 40
1.0
 40
1.0
 40
1.0
 10
32.29575131589835
 20
91.37615451511502
 30
0.0
 10
32.22671604630072
 20
91.3761536143547
 30
0.0
 10
32.17075209192672
 20
91.3201897642215
 30
0.0
 10
32.17075106257857
 20
91.2511544946258
 30
0.0
  0
LINE
  5
DA
330
70
100
AcDbEntity
  8
0
 62
    18
420
        0
370
    25
100
AcDbLine
 10
32.17075106260104
 20
91.23524156788908
 30
0.0
 11
32.17075106260104
 21
91.251154494689
 31
0.0
  0
LINE
  5
DB
330
70
100
AcDbEntity
  8
0
 62
    18
420
        0
370
    25
100
AcDbLine
 10
32.17075106260104
 20
88.20115455348858
 30
0.0
 11
32.17075106260104
 21
88.21706748028949
 31
0.0
  0
SPLINE
  5
DC
330
70
100
AcDbEntity
  8
0
 62
    18
420
        0
370
    25
100
AcDbSpline
210
0.0
220
0.0
230
1.0
 70
     8
 71
     3
 72
     8
 73
     4
 74
     0
 42
0.0000000001
 43
0.0000000001
 40
0.0
 40
0.0
 40
0.0
 40
0.0
 40
1.0
 40
1.0
 40
1.0
 40
1.0
 10
32.17075106264339
 20
88.20115455351874
 30
0.0
 10
32.17075160943867
 20
88.13211908403957
 30
0.0
 10
32.22671584648334
 20
88.07615495123698
 30
0.0
 10
32.29575131596315
 20
88.07615453303018
 30
0.0
  0
LINE
  5
DD
330
70
100
AcDbEntity
  8
0
 62
    18
420
        0
370
    25
100
AcDbLine
 10
32.35298667610115
 20
88.07615453298911
 30
0.0
 11
32.29575131590123
 21
88.07615453298911
 31
0.0
  0
SPLINE
  5
DE
330
70
100
AcDbEntity
  8
0
 62
    18
420
        0
370
    25
100
AcDbSpline
210
0.0
220
0.0
230
1.0
 70
     8
 71
     3
 72
     8
 73
     4
 74
     0
 42
0.0000000001
 43
0.0000000001
 40
0.0
 40
0.0
 40
0.0
 40
0.0
 40
1.0
 40
1.0
 40
1.0
 40
1.0
 10
32.35298650115442
 20
88.07615452409001
 30
0.0
 10
33.03424239216893
 20
87.60948785742206
 30
0.0
 10
33.93226152123356
 20
87.60948785742206
 30
0.0
 10
34.61351741224777
 20
88.07615452409001
 30
0.0
  0
LINE
  5
DF
330
70
100
AcDbEntity
  8
0
 62
    18
420
        0
370
    25
100
AcDbLine
 10
34.6707524037011
 20
88.07615453298911
 30
0.0
 11
34.61351704360129
 21
88.07615453298911
 31
0.0
  0
SPLINE
  5
E0
330
70
100
AcDbEntity
  8
0
 62
    18
420
        0
370
    25
100
AcDbSpline
210
0.0
220
0.0
230
1.0
 70
     8
 71
     3
 72
     8
 73
     4
 74
     0
 42
0.0000000001
 43
0.0000000001
 40
0.0
 40
0.0
 40
0.0
 40
0.0
 40
1.0
 40
1.0
 40
1.0
 40
1.0
 10
34.67075240370399
 20
88.07615453306354
 30
0.0
 10
34.73978767330161
 20
88.07615543382354
 30
0.0
 10
34.79575162767529
 20
88.13211928395642
 30
0.0
 10
34.79575265702376
 20
88.20115455355212
 30
0.0
  0
LINE
  5
E1
330
70
100
AcDbEntity
  8
0
 62
    18
420
        0
370
    25
100
AcDbLine
 10
34.79575265700129
 20
88.21706748028949
 30
0.0
 11
34.79575265700129
 21
88.20115455348858
 31
0.0
  0
SPLINE
  5
E2
330
70
100
AcDbEntity
  8
0
 62
    18
420
        0
370
    25
100
AcDbSpline
210
0.0
220
0.0
230
1.0
 70
     8
 71
     3
 72
     8
 73
     4
 74
     0
 42
0.0000000001
 43
0.0000000001
 40
0.0
 40
0.0
 40
0.0
 40
0.0
 40
1.0
 40
1.0
 40
1.0
 40
1.0
 10
32.29575195670125
 20
88.47615452408875
 30
0.0
 10
32.22671636297246
 20
88.47615452408875
 30
0.0
 10
32.17075195670117
 20
88.42019011781777
 30
0.0
 10
32.17075195670117
 20
88.35115452408897
 30
0.0
  0
LINE
  5
E3
330
70
100
AcDbEntity
  8
0
 62
    18
420
        0
370
    25
100
AcDbLine
 10
32.17075106260104
 20
88.35115453148906
 30
0.0
 11
32.17075106260104
 21
88.21706748028949
 31
0.0
  0
LINE
  5
E4
330
70
100
AcDbEntity
  8
0
 62
    18
420
        0
370
    25
100
AcDbLine
 10
32.17075106260104
 20
91.10115451658906
 30
0.0
 11
32.17075106260104
 21
91.23524156788908
 31
0.0
  0
SPLINE
  5
E5
330
70
100
AcDbEntity
  8
0
 62
    18
420
        0
370
    25
100
AcDbSpline
210
0.0
220
0.0
230
1.0
 70
     8
 71
     3
 72
     8
 73
     4
 74
     0
 42
0.0000000001
 43
0.0000000001
 40
0.0
 40
0.0
 40
0.0
 40
0.0
 40
1.0
 40
1.0
 40
1.0
 40
1.0
 10
32.17075195670117
 20
91.10115452408892
 30
0.0
 10
32.17075195670117
 20
91.03211893036014
 30
0.0
 10
32.22671636297246
 20
90.97615452408916
 30
0.0
 10
32.29575195670125
 20
90.97615452408916
 30
0.0
  0
SPLINE
  5
E6
330
70
100
AcDbEntity
  8
0
 62
    18
420
        0
370
    25
100
AcDbSpline
210
0.0
220
0.0
230
1.0
 70
     8
 71
     3
 72
     8
 73
     4
 74
     0
 42
0.0000000001
 43
0.0000000001
 40
0.0
 40
0.0
 40
0.0
 40
0.0
 40
1.0
 40
1.0
 40
1.0
 40
1.0
 10
34.67075195670125
 20
90.97615452408916
 30
0.0
 10
34.73978755043005
 20
90.97615452408916
 30
0.0
 10
34.79575195670102
 20
91.03211893036014
 30
0.0
 10
34.79575195670102
 20
91.10115452408892
 30
0.0
  0
LINE
  5
E7
330
70
100
AcDbEntity
  8
0
 62
    18
420
        0
370
    25
100
AcDbLine
 10
34.79575265700129
 20
91.10115451658906
 30
0.0
 11
34.79575265700129
 21
91.23524156788908
 31
0.0
  0
LINE
  5
E8
330
70
100
AcDbEntity
  8
0
 62
    18
420
        0
370
    25
100
AcDbLine
 10
34.79575265700129
 20
88.35115453148906
 30
0.0
 11
34.79575265700129
 21
88.21706748028949
 31
0.0
  0
SPLINE
  5
E9
330
70
100
AcDbEntity
  8
0
 62
    18
420
        0
370
    25
100
AcDbSpline
210
0.0
220
0.0
230
1.0
 70
     8
 71
     3
 72
     8
 73
     4
 74
     0
 42
0.0000000001
 43
0.0000000001
 40
0.0
 40
0.0
 40
0.0
 40
0.0
 40
1.0
 40
1.0
 40
1.0
 40
1.0
 10
34.79575195670134
 20
88.35115452408897
 30
0.0
 10
34.79575195670134
 20
88.42019011781777
 30
0.0
 10
34.73978755043005
 20
88.47615452408875
 30
0.0
 10
34.67075195670125
 20
88.47615452408875
 30
0.0
  0
CIRCLE
  5
EA
330
70
100
AcDbEntity
  8
0
 62
    18
420
        0
370
    25
100
AcDbCircle
 10
33.48325195670117
 20
89.72615452408895
 30
0.0
 40
0.5375000000000992
  0
LINE
  5
EB
330
70
100
AcDbEntity
  8
0
 62
    18
420
        0
370
    25
100
AcDbLine
 10
34.61351704360129
 20
88.07615453298911
 30
0.0
 11
32.35298667610115
 21
88.07615453298911
 31
0.0
  0
CIRCLE
  5
EC
330
70
100
AcDbEntity
  8
0
 62
    18
420
        0
370
    25
100
AcDbCircle
 10
33.48325195670125
 20
89.72615452408888
 30
0.0
 40
0.4125000000000948
  0
LINE
  5
ED
330
70
100
AcDbEntity
  8
0
 62
    18
420
        0
370
    25
100
AcDbLine
 10
32.35298667610115
 20
91.37615451518913
 30
0.0
 11
34.61351704360129
 21
91.37615451518913
 31
0.0
  0
SPLINE
  5
EE
330
70
100
AcDbEntity
  8
0
 62
    18
420
        0
370
    25
100
AcDbSpline
210
0.0
220
0.0
230
1.0
 70
     8
 71
     3
 72
     8
 73
     4
 74
     0
 42
0.0000000001
 43
0.0000000001
 40
0.0
 40
0.0
 40
0.0
 40
0.0
 40
1.0
 40
1.0
 40
1.0
 40
1.0
 10
37.11466427573107
 20
83.88847779706832
 30
0.0
 10
38.75633965199846
 20
84.9097060123327
 30
0.0
 10
39.89213475730128
 20
86.57498785809588
 30
0.0
 10
40.24366059819604
 20
88.47615452408746
 30
0.0
  0
SPLINE
  5
EF
330
70
100
AcDbEntity
  8
0
 62
    18
420
        0
370
    25
100
AcDbSpline
210
0.0
220
0.0
230
1.0
 70
     8
 71
     3
 72
     8
 73
     4
 74
     0
 42
0.0000000001
 43
0.0000000001
 40
0.0
 40
0.0
 40
0.0
 40
0.0
 40
1.0
 40
1.0
 40
1.0
 40
1.0
 10
30.57392654975436
 20
83.49707347818119
 30
0.0
 10
32.40812319888488
 20
82.64040218536498
 30
0.0
 10
34.5266511893159
 20
82.63566045858125
 30
0.0
 10
36.36466427572768
 20
83.4841125466778
 30
0.0
  0
SPLINE
  5
F0
330
70
100
AcDbEntity
  8
0
 62
    18
420
        0
370
    25
100
AcDbSpline
210
0.0
220
0.0
230
1.0
 70
     8
 71
     3
 72
     8
 73
     4
 74
     0
 42
0.0000000001
 43
0.0000000001
 40
0.0
 40
0.0
 40
0.0
 40
0.0
 40
1.0
 40
1.0
 40
1.0
 40
1.0
 10
26.72284331520645
 20
88.47615452408746
 30
0.0
 10
27.0722856320783
 20
86.58625623714264
 30
0.0
 10
28.19686157929832
 20
84.92891289524408
 30
0.0
 10
29.82392654975
 20
83.90593437653079
 30
0.0
  0
SPLINE
  5
F1
330
70
100
AcDbEntity
  8
0
 62
    18
420
        0
370
    25
100
AcDbSpline
210
0.0
220
0.0
230
1.0
 70
     8
 71
     3
 72
    11
 73
     7
 74
     0
 42
0.0000000001
 43
0.0000000001
 40
0.0
 40
0.0
 40
0.0
 40
0.0
 40
1.0
 40
1.0
 40
1.0
 40
2.0
 40
2.0
 40
2.0
 40
2.0
 10
40.24366059819604
 20
90.97615452409012
 30
0.0
 10
39.55330466090687
 20
94.70982511941205
 30
0.0
 10
35.96692255202169
 20
97.17691910287292
 30
0.0
 10
32.23325195670008
 20
96.48656316558374
 30
0.0
 10
29.43227091187896
 20
95.96866158718817
 30
0.0
 10
27.24074489360202
 20
93.77713556891125
 30
0.0
 10
26.72284331520645
 20
90.97615452409012
 30
0.0
  0
LINE
  5
F2
330
70
100
AcDbEntity
  8
0
 62
    18
420
        0
370
    25
100
AcDbLine
 10
17.23325199020105
 20
88.35115453148906
 30
0.0
 11
17.23325199020105
 21
88.47615455198917
 31
0.0
  0
SPLINE
  5
F3
330
70
100
AcDbEntity
  8
0
 62
    18
420
        0
370
    25
100
AcDbSpline
210
0.0
220
0.0
230
1.0
 70
     8
 71
     3
 72
     8
 73
     4
 74
     0
 42
0.0000000001
 43
0.0000000001
 40
0.0
 40
0.0
 40
0.0
 40
0.0
 40
1.0
 40
1.0
 40
1.0
 40
1.0
 10
17.35825195670124
 20
88.35115452408897
 30
0.0
 10
17.35825195670124
 20
88.42019011781777
 30
0.0
 10
17.30228755042995
 20
88.47615452408875
 30
0.0
 10
17.23325195670115
 20
88.47615452408875
 30
0.0
  0
LINE
  5
F4
330
70
100
AcDbEntity
  8
0
 62
    18
420
        0
370
    25
100
AcDbLine
 10
17.23325199020105
 20
88.35115453148906
 30
0.0
 11
17.35825201070118
 21
88.35115453148906
 31
0.0
  0
LINE
  5
F5
330
70
100
AcDbEntity
  8
0
 62
    18
420
        0
370
    25
100
AcDbLine
 10
17.23325199020105
 20
84.1011543005894
 30
0.0
 11
17.23325199020105
 21
83.97615451288933
 31
0.0
  0
LINE
  5
F6
330
70
100
AcDbEntity
  8
0
 62
    18
420
        0
370
    25
100
AcDbLine
 10
17.23325199020105
 20
83.97615451288933
 30
0.0
 11
16.67075201440123
 21
83.97615451288933
 31
0.0
  0
LINE
  5
F7
330
70
100
AcDbEntity
  8
0
 62
    18
420
        0
370
    25
100
AcDbLine
 10
15.92075194970109
 20
83.97615451288933
 30
0.0
 11
15.60825195670102
 21
83.97615451288933
 31
0.0
  0
LINE
  5
F8
330
70
100
AcDbEntity
  8
0
 62
    18
420
        0
370
    25
100
AcDbLine
 10
15.60825195670102
 20
83.97615451288933
 30
0.0
 11
15.60825195670102
 21
84.1011543005894
 31
0.0
  0
LINE
  5
F9
330
70
100
AcDbEntity
  8
0
 62
    18
420
        0
370
    25
100
AcDbLine
 10
15.60825195670102
 20
88.47615455198917
 30
0.0
 11
15.7332519626012
 21
88.47615455198917
 31
0.0
  0
LINE
  5
FA
330
70
100
AcDbEntity
  8
0
 62
    18
420
        0
370
    25
100
AcDbLine
 10
16.85825192870101
 20
88.47615455198917
 30
0.0
 11
17.23325199020105
 21
88.47615455198917
 31
0.0
  0
LINE
  5
FB
330
70
100
AcDbEntity
  8
0
 62
    18
420
        0
370
    25
100
AcDbLine
 10
15.60825195670102
 20
88.35115453148906
 30
0.0
 11
15.60825195670102
 21
88.47615455198917
 31
0.0
  0
LINE
  5
FC
330
70
100
AcDbEntity
  8
0
 62
    18
420
        0
370
    25
100
AcDbLine
 10
17.23325199020105
 20
84.1011543005894
 30
0.0
 11
17.35825201070118
 21
84.1011543005894
 31
0.0
  0
SPLINE
  5
FD
330
70
100
AcDbEntity
  8
0
 62
    18
420
        0
370
    25
100
AcDbSpline
210
0.0
220
0.0
230
1.0
 70
     8
 71
     3
 72
     8
 73
     4
 74
     0
 42
0.0000000001
 43
0.0000000001
 40
0.0
 40
0.0
 40
0.0
 40
0.0
 40
1.0
 40
1.0
 40
1.0
 40
1.0
 10
17.23325195670115
 20
83.9761545240889
 30
0.0
 10
17.30228755042995
 20
83.9761545240889
 30
0.0
 10
17.35825195670124
 20
84.03211893036052
 30
0.0
 10
17.35825195670124
 20
84.10115452408932
 30
0.0
  0
LINE
  5
FE
330
70
100
AcDbEntity
  8
0
 62
    18
420
        0
370
    25
100
AcDbLine
 10
17.23325199020105
 20
84.1011543005894
 30
0.0
 11
17.23325199020105
 21
88.35115453148906
 31
0.0
  0
LINE
  5
FF
330
70
100
AcDbEntity
  8
0
 62
    18
420
        0
370
    25
100
AcDbLine
 10
15.60825195670102
 20
88.35115453148906
 30
0.0
 11
15.60825195670102
 21
84.1011543005894
 31
0.0
  0
LINE
  5
100
330
70
100
AcDbEntity
  8
0
 62
    18
420
        0
370
    25
100
AcDbLine
 10
17.35825201070118
 20
88.35115453148906
 30
0.0
 11
17.35825201070118
 21
84.1011543005894
 31
0.0
  0
SPLINE
  5
101
330
70
100
AcDbEntity
  8
0
 62
    18
420
        0
370
    25
100
AcDbSpline
210
0.0
220
0.0
230
1.0
 70
     8
 71
     3
 72
    11
 73
     7
 74
     0
 42
0.0000000001
 43
0.0000000001
 40
0.0
 40
0.0
 40
0.0
 40
0.0
 40
1.0
 40
1.0
 40
1.0
 40
2.0
 40
2.0
 40
2.0
 40
2.0
 10
15.73325196262078
 20
90.97615449610659
 30
0.0
 10
15.6642164108559
 20
90.97615454134958
 30
0.0
 10
15.60825200192636
 20
90.92019020577362
 30
0.0
 10
15.60825195668337
 20
90.85115465400875
 30
0.0
 10
15.60825195668337
 20
90.85115459454346
 30
0.0
 10
15.60825195668337
 20
90.85115453508267
 30
0.0
 10
15.60825195668337
 20
90.8511544756177
 30
0.0
  0
LINE
  5
102
330
70
100
AcDbEntity
  8
0
 62
    18
420
        0
370
    25
100
AcDbLine
 10
15.7332519626012
 20
90.97615449618905
 30
0.0
 11
16.85825192870101
 21
90.97615449618905
 31
0.0
  0
SPLINE
  5
103
330
70
100
AcDbEntity
  8
0
 62
    18
420
        0
370
    25
100
AcDbSpline
210
0.0
220
0.0
230
1.0
 70
     8
 71
     3
 72
     8
 73
     4
 74
     0
 42
0.0000000001
 43
0.0000000001
 40
0.0
 40
0.0
 40
0.0
 40
0.0
 40
1.0
 40
1.0
 40
1.0
 40
1.0
 10
16.98325194925728
 20
90.8511544756562
 30
0.0
 10
16.98325192895135
 20
90.92019007228996
 30
0.0
 10
16.92728752540183
 20
90.97615447583949
 30
0.0
 10
16.85825192876838
 20
90.97615449614542
 30
0.0
  0
SPLINE
  5
104
330
70
100
AcDbEntity
  8
0
 62
    18
420
        0
370
    25
100
AcDbSpline
210
0.0
220
0.0
230
1.0
 70
     8
 71
     3
 72
    11
 73
     7
 74
     0
 42
0.0000000001
 43
0.0000000001
 40
0.0
 40
0.0
 40
0.0
 40
0.0
 40
1.0
 40
1.0
 40
1.0
 40
2.0
 40
2.0
 40
2.0
 40
2.0
 10
16.85825192877993
 20
88.47615455202063
 30
0.0
 10
16.92728748465971
 20
88.47615450285621
 30
0.0
 10
16.98325190010409
 20
88.53211883858778
 30
0.0
 10
16.98325194926915
 20
88.60115439446788
 30
0.0
 10
16.98325194926915
 20
88.60115445381735
 30
0.0
 10
16.98325194926915
 20
88.60115451316039
 30
0.0
 10
16.98325194926915
 20
88.60115457250984
 30
0.0
  0
LINE
  5
105
330
70
100
AcDbEntity
  8
0
 62
    18
420
        0
370
    25
100
AcDbLine
 10
16.85825192870101
 20
88.47615455198917
 30
0.0
 11
15.7332519626012
 21
88.47615455198917
 31
0.0
  0
SPLINE
  5
106
330
70
100
AcDbEntity
  8
0
 62
    18
420
        0
370
    25
100
AcDbSpline
210
0.0
220
0.0
230
1.0
 70
     8
 71
     3
 72
     8
 73
     4
 74
     0
 42
0.0000000001
 43
0.0000000001
 40
0.0
 40
0.0
 40
0.0
 40
0.0
 40
1.0
 40
1.0
 40
1.0
 40
1.0
 10
15.60825195669139
 20
88.60115457246877
 30
0.0
 10
15.6082519673067
 20
88.53211897750407
 30
0.0
 10
15.66421636766378
 20
88.47615457063119
 30
0.0
 10
15.7332519626288
 20
88.47615455197956
 30
0.0
  0
LINE
  5
107
330
70
100
AcDbEntity
  8
0
 62
    18
420
        0
370
    25
100
AcDbLine
 10
16.98325194920113
 20
90.85115447568893
 30
0.0
 11
16.98325194920113
 21
88.6011545724893
 31
0.0
  0
LINE
  5
108
330
70
100
AcDbEntity
  8
0
 62
    18
420
        0
370
    25
100
AcDbLine
 10
15.60825195670102
 20
90.85115447568893
 30
0.0
 11
15.60825195670102
 21
88.6011545724893
 31
0.0
  0
LINE
  5
109
330
70
100
AcDbEntity
  8
0
 62
    18
420
        0
370
    25
100
AcDbLine
 10
19.35825187290119
 20
90.97615449618905
 30
0.0
 11
19.35825187290119
 21
90.85115447568893
 31
0.0
  0
LINE
  5
10A
330
70
100
AcDbEntity
  8
0
 62
    18
420
        0
370
    25
100
AcDbLine
 10
19.35825187290119
 20
90.85115447568893
 30
0.0
 11
16.98325194920113
 21
90.85115447568893
 31
0.0
  0
LINE
  5
10B
330
70
100
AcDbEntity
  8
0
 62
    18
420
        0
370
    25
100
AcDbLine
 10
16.85825192870101
 20
90.97615449618905
 30
0.0
 11
19.35825187290119
 21
90.97615449618905
 31
0.0
  0
LINE
  5
10C
330
70
100
AcDbEntity
  8
0
 62
    18
420
        0
370
    25
100
AcDbLine
 10
19.35825187290119
 20
90.85115447568893
 30
0.0
 11
19.35825187290119
 21
88.6011545724893
 31
0.0
  0
LINE
  5
10D
330
70
100
AcDbEntity
  8
0
 62
    18
420
        0
370
    25
100
AcDbLine
 10
16.98325194920113
 20
88.6011545724893
 30
0.0
 11
19.35825187290119
 21
88.6011545724893
 31
0.0
  0
LINE
  5
10E
330
70
100
AcDbEntity
  8
0
 62
    18
420
        0
370
    25
100
AcDbLine
 10
19.35825187290119
 20
88.6011545724893
 30
0.0
 11
19.35825187290119
 21
88.47615455198917
 31
0.0
  0
LINE
  5
10F
330
70
100
AcDbEntity
  8
0
 62
    18
420
        0
370
    25
100
AcDbLine
 10
19.35825187290119
 20
88.47615455198917
 30
0.0
 11
17.23325199020105
 21
88.47615455198917
 31
0.0
  0
CIRCLE
  5
110
330
70
100
AcDbEntity
  8
0
 62
    18
420
        0
370
    25
100
AcDbCircle
 10
59.60825195670121
 20
89.72615452408895
 30
0.0
 40
0.9999999999999952
  0
CIRCLE
  5
111
330
70
100
AcDbEntity
  8
0
 62
    18
420
        0
370
    25
100
AcDbCircle
 10
59.60825195670121
 20
89.72615452408904
 30
0.0
 40
0.5624999999999798
  0
CIRCLE
  5
112
330
70
100
AcDbEntity
  8
0
 62
    18
420
        0
370
    25
100
AcDbCircle
 10
33.48325195670125
 20
89.72615452408895
 30
0.0
 40
1.000000000000035
  0
CIRCLE
  5
113
330
70
100
AcDbEntity
  8
0
 62
    18
420
        0
370
    25
100
AcDbCircle
 10
33.48325195670117
 20
89.72615452408911
 30
0.0
 40
0.5625000000001
  0
LINE
  5
114
330
70
100
AcDbEntity
  8
0
 62
    18
420
        0
370
    25
100
AcDbLine
 10
77.90732842440085
 20
90.85115447568893
 30
0.0
 11
19.35825187290119
 21
90.85115447568893
 31
0.0
  0
SPLINE
  5
115
330
70
100
AcDbEntity
  8
0
 62
    18
420
        0
370
    25
100
AcDbSpline
210
0.0
220
0.0
230
1.0
 70
     8
 71
     3
 72
     8
 73
     4
 74
     0
 42
0.0000000001
 43
0.0000000001
 40
0.0
 40
0.0
 40
0.0
 40
0.0
 40
1.0
 40
1.0
 40
1.0
 40
1.0
 10
77.90732968611336
 20
88.60115452408852
 30
0.0
 10
78.17522604689685
 20
89.32723170404857
 30
0.0
 10
78.17522604689685
 20
90.12507734412965
 30
0.0
 10
77.90732968611336
 20
90.85115452408972
 30
0.0
  0
LINE
  5
116
330
70
100
AcDbEntity
  8
0
 62
    18
420
        0
370
    25
100
AcDbLine
 10
19.35825187290119
 20
88.6011545724893
 30
0.0
 11
77.90732842440085
 21
88.6011545724893
 31
0.0
  0
SPLINE
  5
117
330
70
100
AcDbEntity
  8
0
 62
    18
420
        0
370
    25
100
AcDbSpline
210
0.0
220
0.0
230
1.0
 70
     8
 71
     3
 72
     8
 73
     4
 74
     0
 42
0.0000000001
 43
0.0000000001
 40
0.0
 40
0.0
 40
0.0
 40
0.0
 40
1.0
 40
1.0
 40
1.0
 40
1.0
 10
77.85825145005631
 20
88.47615455202191
 30
0.0
 10
77.87547812453427
 20
88.5174753245344
 30
0.0
 10
77.89184067765403
 20
88.55915106963816
 30
0.0
 10
77.90732842444962
 20
88.60115457251369
 30
0.0
  0
LINE
  5
118
330
70
100
AcDbEntity
  8
0
 62
    18
420
        0
370
    25
100
AcDbLine
 10
77.85825145000114
 20
88.47615455198917
 30
0.0
 11
19.35825187290119
 21
88.47615455198917
 31
0.0
  0
LINE
  5
119
330
70
100
AcDbEntity
  8
0
 62
    18
420
        0
370
    25
100
AcDbLine
 10
19.35825187290119
 20
90.97615449618905
 30
0.0
 11
77.85825145000114
 21
90.97615449618905
 31
0.0
  0
SPLINE
  5
11A
330
70
100
AcDbEntity
  8
0
 62
    18
420
        0
370
    25
100
AcDbSpline
210
0.0
220
0.0
230
1.0
 70
     8
 71
     3
 72
     8
 73
     4
 74
     0
 42
0.0000000001
 43
0.0000000001
 40
0.0
 40
0.0
 40
0.0
 40
0.0
 40
1.0
 40
1.0
 40
1.0
 40
1.0
 10
77.90732842442908
 20
90.85115447565138
 30
0.0
 10
77.8918345144787
 20
90.89315563242614
 30
0.0
 10
77.87547201146987
 20
90.93483124989628
 30
0.0
 10
77.85825145003835
 20
90.97615449613803
 30
0.0
  0
LINE
  5
11B
330
70
100
AcDbEntity
  8
0
 62
     8
420
  8421504
370
    25
100
AcDbLine
 10
60.92075344680131
 20
88.21706748028949
 30
0.0
 11
61.16950225590126
 21
88.47615455198917
 31
0.0
  0
LINE
  5
11C
330
70
100
AcDbEntity
  8
0
 62
     8
420
  8421504
370
    25
100
AcDbLine
 10
61.16950225590126
 20
90.97615449618905
 30
0.0
 11
60.92075344680131
 21
91.23524156788908
 31
0.0
  0
LINE
  5
11D
330
70
100
AcDbEntity
  8
0
 62
     8
420
  8421504
370
    25
100
AcDbLine
 10
58.29575371500117
 20
91.23524156788908
 30
0.0
 11
58.04700118060118
 21
90.97615449618905
 31
0.0
  0
LINE
  5
11E
330
70
100
AcDbEntity
  8
0
 62
     8
420
  8421504
370
    25
100
AcDbLine
 10
58.04700118060118
 20
88.47615455198917
 30
0.0
 11
58.29575371500117
 21
88.21706748028949
 31
0.0
  0
SPLINE
  5
11F
330
70
100
AcDbEntity
  8
0
 62
     8
420
  8421504
370
    25
100
AcDbSpline
210
0.0
220
0.0
230
1.0
 70
     8
 71
     3
 72
     8
 73
     4
 74
     0
 42
0.0000000001
 43
0.0000000001
 40
0.0
 40
0.0
 40
0.0
 40
0.0
 40
1.0
 40
1.0
 40
1.0
 40
1.0
 10
53.08872623809961
 20
88.47615452408362
 30
0.0
 10
53.42846063144641
 20
86.70422883215721
 30
0.0
 10
54.47479176684722
 20
85.14691417328455
 30
0.0
 10
55.98687745365555
 20
84.16266979739033
 30
0.0
  0
SPLINE
  5
120
330
70
100
AcDbEntity
  8
0
 62
     8
420
  8421504
370
    25
100
AcDbSpline
210
0.0
220
0.0
230
1.0
 70
     8
 71
     3
 72
     8
 73
     4
 74
     0
 42
0.0000000001
 43
0.0000000001
 40
0.0
 40
0.0
 40
0.0
 40
0.0
 40
1.0
 40
1.0
 40
1.0
 40
1.0
 10
56.7368774536551
 20
83.74101258268304
 30
0.0
 10
58.56894828088272
 20
82.86207579010975
 30
0.0
 10
60.70266437121206
 20
82.87064648574522
 30
0.0
 10
62.52761517963612
 20
83.76427277684717
 30
0.0
  0
SPLINE
  5
121
330
70
100
AcDbEntity
  8
0
 62
     8
420
  8421504
370
    25
100
AcDbSpline
210
0.0
220
0.0
230
1.0
 70
     8
 71
     3
 72
     8
 73
     4
 74
     0
 42
0.0000000001
 43
0.0000000001
 40
0.0
 40
0.0
 40
0.0
 40
0.0
 40
1.0
 40
1.0
 40
1.0
 40
1.0
 10
63.27761517963502
 20
84.19420286724127
 30
0.0
 10
64.76452441987432
 20
85.18047505839803
 30
0.0
 10
65.79179560864701
 20
86.72379954445032
 30
0.0
 10
66.12777767530232
 20
88.47615452408362
 30
0.0
  0
SPLINE
  5
122
330
70
100
AcDbEntity
  8
0
 62
     8
420
  8421504
370
    25
100
AcDbSpline
210
0.0
220
0.0
230
1.0
 70
     8
 71
     3
 72
    11
 73
     7
 74
     0
 42
0.0000000001
 43
0.0000000001
 40
0.0
 40
0.0
 40
0.0
 40
0.0
 40
1.0
 40
1.0
 40
1.0
 40
2.0
 40
2.0
 40
2.0
 40
2.0
 10
66.12777767530232
 20
90.97615452409462
 30
0.0
 10
65.43742173801122
 20
94.5767891546078
 30
0.0
 10
61.95888658720882
 20
96.93603617998206
 30
0.0
 10
58.35825195669563
 20
96.24568024269064
 30
0.0
 10
55.68848649952114
 20
95.73380147028831
 30
0.0
 10
53.60060501050194
 20
93.64591998126909
 30
0.0
 10
53.08872623809961
 20
90.97615452409462
 30
0.0
  0
LWPOLYLINE
  5
123
330
70
100
AcDbEntity
  8
0
 62
     8
420
  8421504
370
    25
100
AcDbPolyline
 90
       10
 70
     0
 43
0.0
 10
17.09131936120114
 20
79.22615466568942
 10
17.19272129740103
 20
79.19760962868902
 10
17.27874709800118
 20
79.11631913778915
 10
17.33622762880117
 20
78.99466046988862
 10
17.35641218300109
 20
78.85115483698912
 10
17.33622762880117
 20
78.70764827278923
 10
17.27874709800118
 20
78.58598960488937
 10
17.19272129740103
 20
78.50470004528922
 10
17.09124706730104
 20
78.47615407708855
 10
17.09106243260101
 20
78.47615500838893
  0
LINE
  5
124
330
70
100
AcDbEntity
  8
0
 62
     8
420
  8421504
370
    25
100
AcDbLine
 10
15.92075194970109
 20
79.97615432288917
 30
0.0
 11
16.67075201440123
 21
79.97615432288917
 31
0.0
  0
LWPOLYLINE
  5
125
330
70
100
AcDbEntity
  8
0
 62
     8
420
  8421504
370
    25
100
AcDbPolyline
 90
        9
 70
     0
 43
0.0
 10
75.18859666350152
 20
79.22615466568942
 10
75.29006984590108
 20
79.19760962868902
 10
75.37609424950125
 20
79.11631913778915
 10
75.43357547880124
 20
78.99466046988862
 10
75.45375910160132
 20
78.85115483698912
 10
75.43357547880124
 20
78.70764827278923
 10
75.37609424950125
 20
78.58598960488937
 10
75.29006984590108
 20
78.50470004528922
 10
75.18859666350152
 20
78.47615407708855
  0
LINE
  5
126
330
70
100
AcDbEntity
  8
0
 62
     8
420
  8421504
370
    25
100
AcDbLine
 10
75.60908880590154
 20
79.97615432288917
 30
0.0
 11
76.35909032580153
 21
79.97615432288917
 31
0.0
  0
LINE
  5
127
330
70
100
AcDbEntity
  8
0
 62
     8
420
  8421504
370
    25
100
AcDbLine
 10
49.446140346501
 20
64.97615465818923
 30
0.0
 11
50.19613814110126
 21
64.97615465818923
 31
0.0
  0
LINE
  5
128
330
70
100
AcDbEntity
  8
0
 62
     8
420
  8421504
370
    25
100
AcDbLine
 10
42.90540230030106
 20
64.97615465818923
 30
0.0
 11
43.65540195760124
 21
64.97615465818923
 31
0.0
  0
LINE
  5
129
330
70
100
AcDbEntity
  8
0
 62
     8
420
  8421504
370
    25
100
AcDbLine
 10
36.36466425420124
 20
64.97615465818923
 30
0.0
 11
37.11466391140131
 21
64.97615465818923
 31
0.0
  0
LINE
  5
12A
330
70
100
AcDbEntity
  8
0
 62
     8
420
  8421504
370
    25
100
AcDbLine
 10
23.2831886275013
 20
79.97615432288917
 30
0.0
 11
24.03318875040129
 21
79.97615432288917
 31
0.0
  0
LINE
  5
12B
330
70
100
AcDbEntity
  8
0
 62
     8
420
  8421504
370
    25
100
AcDbLine
 10
29.82392620800099
 20
64.97615465818923
 30
0.0
 11
30.57392679660122
 21
64.97615465818923
 31
0.0
  0
LWPOLYLINE
  5
12C
330
70
100
AcDbEntity
  8
0
 62
     8
420
  8421504
370
    25
100
AcDbPolyline
 90
       10
 70
     0
 43
0.0
 10
17.09131936120114
 20
64.22615500088873
 10
17.19272129740103
 20
64.19760996398906
 10
17.27874709800118
 20
64.11632040438894
 10
17.33622762880117
 20
63.99466173648907
 10
17.35641218300109
 20
63.85115424098944
 10
17.33622762880117
 20
63.70764860808865
 10
17.27874709800118
 20
63.58598994018877
 10
17.19272129740103
 20
63.50470038058865
 10
17.09124706730104
 20
63.47615534368898
 10
17.09106243260101
 20
63.47615534368898
  0
LINE
  5
12D
330
70
100
AcDbEntity
  8
0
 62
     8
420
  8421504
370
    25
100
AcDbLine
 10
15.92075194970109
 20
64.97615465818923
 30
0.0
 11
16.67075201440123
 21
64.97615465818923
 31
0.0
  0
LWPOLYLINE
  5
12E
330
70
100
AcDbEntity
  8
0
 62
     8
420
  8421504
370
    25
100
AcDbPolyline
 90
        9
 70
     0
 43
0.0
 10
68.64785861730095
 20
64.22615500088873
 10
68.74933179970115
 20
64.19760996398906
 10
68.83535620330133
 20
64.11632040438894
 10
68.89283743260067
 20
63.99466173648907
 10
68.91302105540074
 20
63.85115424098944
 10
68.89283743260067
 20
63.70764860808865
 10
68.83535620330133
 20
63.58598994018877
 10
68.74933179970115
 20
63.50470038058865
 10
68.64785861730095
 20
63.47615534368898
  0
LINE
  5
12F
330
70
100
AcDbEntity
  8
0
 62
     8
420
  8421504
370
    25
100
AcDbLine
 10
69.06835448500133
 20
64.97615465818923
 30
0.0
 11
69.81835227970106
 21
64.97615465818923
 31
0.0
  0
LINE
  5
130
330
70
100
AcDbEntity
  8
0
 62
     8
420
  8421504
370
    25
100
AcDbLine
 10
62.52761643890118
 20
64.97615465818923
 30
0.0
 11
63.27761423350112
 21
64.97615465818923
 31
0.0
  0
LINE
  5
131
330
70
100
AcDbEntity
  8
0
 62
     8
420
  8421504
370
    25
100
AcDbLine
 10
55.98687839270125
 20
64.97615465818923
 30
0.0
 11
56.7368761873012
 21
64.97615465818923
 31
0.0
  0
LINE
  5
132
330
70
100
AcDbEntity
  8
0
 62
     8
420
  8421504
370
    25
100
AcDbLine
 10
32.17075106260104
 20
91.23524156788908
 30
0.0
 11
31.92200225350108
 21
90.97615449618905
 31
0.0
  0
LINE
  5
133
330
70
100
AcDbEntity
  8
0
 62
     8
420
  8421504
370
    25
100
AcDbLine
 10
31.92200225350108
 20
88.47615455198917
 30
0.0
 11
32.17075106260104
 21
88.21706748028949
 31
0.0
  0
LINE
  5
134
330
70
100
AcDbEntity
  8
0
 62
     8
420
  8421504
370
    25
100
AcDbLine
 10
34.79575265700129
 20
88.21706748028949
 30
0.0
 11
35.04450146610125
 21
88.47615455198917
 31
0.0
  0
LINE
  5
135
330
70
100
AcDbEntity
  8
0
 62
     8
420
  8421504
370
    25
100
AcDbLine
 10
35.04450146610125
 20
90.97615449618905
 30
0.0
 11
34.79575265700129
 21
91.23524156788908
 31
0.0
  0
SPLINE
  5
136
330
70
100
AcDbEntity
  8
0
 62
     8
420
  8421504
370
    25
100
AcDbSpline
210
0.0
220
0.0
230
1.0
 70
     8
 71
     3
 72
    11
 73
     7
 74
     0
 42
0.0000000001
 43
0.0000000001
 40
0.0
 40
0.0
 40
0.0
 40
0.0
 40
1.0
 40
1.0
 40
1.0
 40
2.0
 40
2.0
 40
2.0
 40
2.0
 10
40.00277767530261
 20
90.97615452409462
 30
0.0
 10
39.31242173801119
 20
94.5767891546078
 30
0.0
 10
35.83388658720878
 20
96.93603617998206
 30
0.0
 10
32.23325195669559
 20
96.24568024269064
 30
0.0
 10
29.5634864995211
 20
95.73380147028831
 30
0.0
 10
27.4756050105019
 20
93.64591998126909
 30
0.0
 10
26.96372623809957
 20
90.97615452409462
 30
0.0
  0
SPLINE
  5
137
330
70
100
AcDbEntity
  8
0
 62
     8
420
  8421504
370
    25
100
AcDbSpline
210
0.0
220
0.0
230
1.0
 70
     8
 71
     3
 72
     8
 73
     4
 74
     0
 42
0.0000000001
 43
0.0000000001
 40
0.0
 40
0.0
 40
0.0
 40
0.0
 40
1.0
 40
1.0
 40
1.0
 40
1.0
 10
26.96372623809957
 20
88.47615452408362
 30
0.0
 10
27.30049467709351
 20
86.71969812470488
 30
0.0
 10
28.33174690378691
 20
85.1734340901353
 30
0.0
 10
29.82392654975417
 20
84.18755784608508
 30
0.0
  0
SPLINE
  5
138
330
70
100
AcDbEntity
  8
0
 62
     8
420
  8421504
370
    25
100
AcDbSpline
210
0.0
220
0.0
230
1.0
 70
     8
 71
     3
 72
     8
 73
     4
 74
     0
 42
0.0000000001
 43
0.0000000001
 40
0.0
 40
0.0
 40
0.0
 40
0.0
 40
1.0
 40
1.0
 40
1.0
 40
1.0
 10
30.57392654975725
 20
83.75936801273891
 30
0.0
 10
32.40036788768779
 20
82.8688196114134
 30
0.0
 10
34.5340815641061
 20
82.86383442460897
 30
0.0
 10
36.36466427572447
 20
83.74583859235931
 30
0.0
  0
SPLINE
  5
139
330
70
100
AcDbEntity
  8
0
 62
     8
420
  8421504
370
    25
100
AcDbSpline
210
0.0
220
0.0
230
1.0
 70
     8
 71
     3
 72
     8
 73
     4
 74
     0
 42
0.0000000001
 43
0.0000000001
 40
0.0
 40
0.0
 40
0.0
 40
0.0
 40
1.0
 40
1.0
 40
1.0
 40
1.0
 10
37.1146642757269
 20
84.16921650349271
 30
0.0
 10
38.62148805651692
 20
85.15391318714858
 30
0.0
 10
39.66382667044813
 20
86.70831468929563
 30
0.0
 10
40.00277767530261
 20
88.47615452408362
 30
0.0
  0
LINE
  5
13A
330
70
100
AcDbEntity
  8
0
 62
     8
420
  8421504
370
    25
100
AcDbLine
 10
15.60825195670102
 20
84.1011543005894
 30
0.0
 11
15.92075194970109
 21
84.1011543005894
 31
0.0
  0
LINE
  5
13B
330
70
100
AcDbEntity
  8
0
 62
     8
420
  8421504
370
    25
100
AcDbLine
 10
16.67075201440123
 20
84.1011543005894
 30
0.0
 11
17.23325199020105
 21
84.1011543005894
 31
0.0
  0
LINE
  5
13C
330
70
100
AcDbEntity
  8
0
 62
     8
420
  8421504
370
    25
100
AcDbLine
 10
17.23325199020105
 20
88.35115453148906
 30
0.0
 11
16.67075201440123
 21
88.35115453148906
 31
0.0
  0
LINE
  5
13D
330
70
100
AcDbEntity
  8
0
 62
     8
420
  8421504
370
    25
100
AcDbLine
 10
15.92075194970109
 20
88.35115453148906
 30
0.0
 11
15.60825195670102
 21
88.35115453148906
 31
0.0
  0
LINE
  5
13E
330
70
100
AcDbEntity
  8
0
 62
    18
420
        0
370
    25
100
AcDbLine
 10
66.4832526123013
 20
26.47312142948929
 30
0.0
 11
66.4832526123013
 21
27.56308391978916
 31
0.0
  0
LINE
  5
13F
330
70
100
AcDbEntity
  8
0
 62
    18
420
        0
370
    25
100
AcDbLine
 10
52.73325082420114
 20
27.56308391978916
 30
0.0
 11
52.73325082420114
 21
26.47312142948929
 31
0.0
  0
SPLINE
  5
140
330
70
100
AcDbEntity
  8
0
 62
    18
420
        0
370
    25
100
AcDbSpline
210
0.0
220
0.0
230
1.0
 70
     8
 71
     3
 72
     8
 73
     4
 74
     0
 42
0.0000000001
 43
0.0000000001
 40
0.0
 40
0.0
 40
0.0
 40
0.0
 40
1.0
 40
1.0
 40
1.0
 40
1.0
 10
52.73325195670112
 20
26.47312141798876
 30
0.0
 10
52.73325195670112
 20
26.34020940529534
 30
0.0
 10
52.83725094710218
 20
26.23053265420441
 30
0.0
 10
52.96997540359513
 20
26.22347420062466
 30
0.0
  0
SPLINE
  5
141
330
70
100
AcDbEntity
  8
0
 62
    18
420
        0
370
    25
100
AcDbSpline
210
0.0
220
0.0
230
1.0
 70
     8
 71
     3
 72
     8
 73
     4
 74
     0
 42
0.0000000001
 43
0.0000000001
 40
0.0
 40
0.0
 40
0.0
 40
0.0
 40
1.0
 40
1.0
 40
1.0
 40
1.0
 10
66.24652850980712
 20
26.22347420062466
 30
0.0
 10
66.3792529663004
 20
26.23053265420441
 30
0.0
 10
66.48325195670112
 20
26.34020940529534
 30
0.0
 10
66.48325195670112
 20
26.47312141798876
 30
0.0
  0
SPLINE
  5
142
330
70
100
AcDbEntity
  8
0
 62
    18
420
        0
370
    25
100
AcDbSpline
210
0.0
220
0.0
230
1.0
 70
     8
 71
     3
 72
     8
 73
     4
 74
     0
 42
0.0000000001
 43
0.0000000001
 40
0.0
 40
0.0
 40
0.0
 40
0.0
 40
1.0
 40
1.0
 40
1.0
 40
1.0
 10
52.96997540370294
 20
26.22347420065418
 30
0.0
 10
54.5149417668046
 20
26.14131094570791
 30
0.0
 10
56.06130041145246
 20
26.08783830030779
 30
0.0
 10
57.60825195677694
 20
26.0630839068194
 30
0.0
  0
SPLINE
  5
143
330
70
100
AcDbEntity
  8
0
 62
    18
420
        0
370
    25
100
AcDbSpline
210
0.0
220
0.0
230
1.0
 70
     8
 71
     3
 72
     8
 73
     4
 74
     0
 42
0.0000000001
 43
0.0000000001
 40
0.0
 40
0.0
 40
0.0
 40
0.0
 40
1.0
 40
1.0
 40
1.0
 40
1.0
 10
61.60825195662532
 20
26.0630839068194
 30
0.0
 10
63.15520350202231
 20
26.08783830030908
 30
0.0
 10
64.70156214674331
 20
26.14131094571304
 30
0.0
 10
66.24652850991686
 20
26.22347420066573
 30
0.0
  0
LWPOLYLINE
  5
144
330
70
100
AcDbEntity
  8
0
 62
    18
420
        0
370
    25
100
AcDbPolyline
 90
        4
 70
     0
 43
0.0
 10
75.45375910160132
 20
24.31492368048852
 10
75.60895469550084
 20
24.47011717888902
 10
75.75818237420111
 20
24.61934648748946
 10
75.82692143080116
 20
24.68808391428881
  0
LWPOLYLINE
  5
145
330
70
100
AcDbEntity
  8
0
 62
    18
420
        0
370
    25
100
AcDbPolyline
 90
        4
 70
     0
 43
0.0
 10
16.98325194920113
 20
-34.15558556731154
 10
17.05198937600112
 20
-34.08684651071086
 10
17.20121868460124
 20
-33.93761883201057
 10
17.35641218300109
 20
-33.78242323811106
  0
LINE
  5
146
330
70
100
AcDbEntity
  8
0
 62
    18
420
        0
370
    25
100
AcDbLine
 10
74.76626050230136
 20
24.68808391428881
 30
0.0
 11
17.35825201070118
 21
-32.71992574151128
 31
0.0
  0
LINE
  5
147
330
70
100
AcDbEntity
  8
0
 62
    18
420
        0
370
    25
100
AcDbLine
 10
17.35641218300109
 20
-33.78242323811106
 30
0.0
 11
75.45375910160132
 21
24.31492368048852
 31
0.0
  0
LWPOLYLINE
  5
148
330
70
100
AcDbEntity
  8
0
 62
    18
420
        0
370
    25
100
AcDbPolyline
 90
        4
 70
     0
 43
0.0
 10
49.29081064220109
 20
24.31492368048852
 10
49.44600251080121
 20
24.47011717888902
 10
49.59523391480121
 20
24.61934648748946
 10
49.66396924610122
 20
24.68808391428881
  0
LWPOLYLINE
  5
149
330
70
100
AcDbEntity
  8
0
 62
    18
420
        0
370
    25
100
AcDbPolyline
 90
        4
 70
     0
 43
0.0
 10
16.98325194920113
 20
-7.992633382610631
 10
17.05198937600112
 20
-7.923898051311583
 10
17.20121868460124
 20
-7.774666647310949
 10
17.35641218300109
 20
-7.619474778710504
  0
LINE
  5
14A
330
70
100
AcDbEntity
  8
0
 62
    18
420
        0
370
    25
100
AcDbLine
 10
48.60330831760109
 20
24.68808391428881
 30
0.0
 11
16.98325194920113
 21
-6.931972454211577
 31
0.0
  0
LINE
  5
14B
330
70
100
AcDbEntity
  8
0
 62
    18
420
        0
370
    25
100
AcDbLine
 10
17.35641218300109
 20
-7.619474778710504
 30
0.0
 11
49.29081064220109
 21
24.31492368048852
 31
0.0
  0
LWPOLYLINE
  5
14C
330
70
100
AcDbEntity
  8
0
 62
    18
420
        0
370
    25
100
AcDbPolyline
 90
        4
 70
     0
 43
0.0
 10
42.75007259610126
 20
24.31492368048852
 10
42.90526446460128
 20
24.47011717888902
 10
43.05449400600115
 20
24.61934648748946
 10
43.12323120000106
 20
24.68808391428881
  0
LWPOLYLINE
  5
14D
330
70
100
AcDbEntity
  8
0
 62
    18
420
        0
370
    25
100
AcDbPolyline
 90
        4
 70
     0
 43
0.0
 10
16.98325194920113
 20
-1.451895336511446
 10
17.05198937600112
 20
-1.383158142511527
 10
17.20121868460124
 20
-1.233928601110375
 10
17.35641218300109
 20
-1.078736732611318
  0
LINE
  5
14E
330
70
100
AcDbEntity
  8
0
 62
    18
420
        0
370
    25
100
AcDbLine
 10
42.06257213410107
 20
24.68808391428881
 30
0.0
 11
16.98325194920113
 21
-0.3912362706104857
 31
0.0
  0
LINE
  5
14F
330
70
100
AcDbEntity
  8
0
 62
    18
420
        0
370
    25
100
AcDbLine
 10
17.35641218300109
 20
-1.078736732611318
 30
0.0
 11
42.75007259610126
 21
24.31492368048852
 31
0.0
  0
LWPOLYLINE
  5
150
330
70
100
AcDbEntity
  8
0
 62
    18
420
        0
370
    25
100
AcDbPolyline
 90
        4
 70
     0
 43
0.0
 10
36.20933454990101
 20
24.31492368048852
 10
36.36452828110125
 20
24.47011717888902
 10
36.51375782250112
 20
24.61934648748946
 10
36.58249501640126
 20
24.68808391428881
  0
LWPOLYLINE
  5
151
330
70
100
AcDbEntity
  8
0
 62
    18
420
        0
370
    25
100
AcDbPolyline
 90
        4
 70
     0
 43
0.0
 10
16.98325194920113
 20
5.088840847089645
 10
17.05198937600112
 20
5.157578040989459
 10
17.20121868460124
 20
5.306807582389327
 10
17.35641218300109
 20
5.462001313589254
  0
LINE
  5
152
330
70
100
AcDbEntity
  8
0
 62
    18
420
        0
370
    25
100
AcDbLine
 10
35.52183408800124
 20
24.68808391428881
 30
0.0
 11
16.98325194920113
 21
6.149501775488699
 31
0.0
  0
LINE
  5
153
330
70
100
AcDbEntity
  8
0
 62
    18
420
        0
370
    25
100
AcDbLine
 10
17.35641218300109
 20
5.462001313589254
 30
0.0
 11
36.20933454990101
 21
24.31492368048852
 31
0.0
  0
LWPOLYLINE
  5
154
330
70
100
AcDbEntity
  8
0
 62
    18
420
        0
370
    25
100
AcDbPolyline
 90
        4
 70
     0
 43
0.0
 10
23.12785892320107
 20
24.31492368048852
 10
23.28305218870107
 20
24.47011717888902
 10
23.43228173020104
 20
24.61934648748946
 10
23.50101892410118
 20
24.68808391428881
  0
LWPOLYLINE
  5
155
330
70
100
AcDbEntity
  8
0
 62
    18
420
        0
370
    25
100
AcDbPolyline
 90
        4
 70
     0
 43
0.0
 10
16.98325194920113
 20
18.1703169393894
 10
17.05198937600112
 20
18.23905413328922
 10
17.20121868460124
 20
18.38828367478919
 10
17.35641218300109
 20
18.54347694028887
  0
LINE
  5
156
330
70
100
AcDbEntity
  8
0
 62
    18
420
        0
370
    25
100
AcDbLine
 10
22.44035892690112
 20
24.68808391428881
 30
0.0
 11
16.98325194920113
 21
19.23097693658946
 31
0.0
  0
LINE
  5
157
330
70
100
AcDbEntity
  8
0
 62
    18
420
        0
370
    25
100
AcDbLine
 10
17.35641218300109
 20
18.54347694028887
 30
0.0
 11
23.12785892320107
 21
24.31492368048852
 31
0.0
  0
LWPOLYLINE
  5
158
330
70
100
AcDbEntity
  8
0
 62
    18
420
        0
370
    25
100
AcDbPolyline
 90
        4
 70
     0
 43
0.0
 10
29.66859650370107
 20
24.31492368048852
 10
29.823790234901
 20
24.47011717888902
 10
29.97301884500113
 20
24.61934648748946
 10
30.04175697030111
 20
24.68808391428881
  0
LWPOLYLINE
  5
159
330
70
100
AcDbEntity
  8
0
 62
    18
420
        0
370
    25
100
AcDbPolyline
 90
        4
 70
     0
 43
0.0
 10
16.98325194920113
 20
11.62957889318883
 10
17.05198937600112
 20
11.69831701848913
 10
17.20121868460124
 20
11.84754562858862
 10
17.35641218300109
 20
12.00273935978854
  0
LINE
  5
15A
330
70
100
AcDbEntity
  8
0
 62
    18
420
        0
370
    25
100
AcDbLine
 10
28.98109604180131
 20
24.68808391428881
 30
0.0
 11
16.98325194920113
 21
12.69023982168927
 31
0.0
  0
LINE
  5
15B
330
70
100
AcDbEntity
  8
0
 62
    18
420
        0
370
    25
100
AcDbLine
 10
17.35641218300109
 20
12.00273935978854
 30
0.0
 11
29.66859650370107
 21
24.31492368048852
 31
0.0
  0
LWPOLYLINE
  5
15C
330
70
100
AcDbEntity
  8
0
 62
    18
420
        0
370
    25
100
AcDbPolyline
 90
        4
 70
     0
 43
0.0
 10
68.91302105540074
 20
24.31492368048852
 10
69.06821664930155
 20
24.47011717888902
 10
69.21744432810129
 20
24.61934648748946
 10
69.28618338460123
 20
24.68808391428881
  0
LWPOLYLINE
  5
15D
330
70
100
AcDbEntity
  8
0
 62
    18
420
        0
370
    25
100
AcDbPolyline
 90
        4
 70
     0
 43
0.0
 10
16.98325194920113
 20
-27.61484752111097
 10
17.05198937600112
 20
-27.54610846461039
 10
17.20121868460124
 20
-27.39688078581128
 10
17.35641218300109
 20
-27.24168519201059
  0
LINE
  5
15E
330
70
100
AcDbEntity
  8
0
 62
    18
420
        0
370
    25
100
AcDbLine
 10
68.22552245620089
 20
24.68808391428881
 30
0.0
 11
16.98325194920113
 21
-26.55418659271063
 31
0.0
  0
LINE
  5
15F
330
70
100
AcDbEntity
  8
0
 62
    18
420
        0
370
    25
100
AcDbLine
 10
17.35641218300109
 20
-27.24168519201059
 30
0.0
 11
68.91302105540074
 21
24.31492368048852
 31
0.0
  0
LWPOLYLINE
  5
160
330
70
100
AcDbEntity
  8
0
 62
    18
420
        0
370
    25
100
AcDbPolyline
 90
        4
 70
     0
 43
0.0
 10
62.37228673460127
 20
24.31492368048852
 10
62.5274786031013
 20
24.47011717888902
 10
62.67670628190103
 20
24.61934648748946
 10
62.74544533850107
 20
24.68808391428881
  0
LWPOLYLINE
  5
161
330
70
100
AcDbEntity
  8
0
 62
    18
420
        0
370
    25
100
AcDbPolyline
 90
        4
 70
     0
 43
0.0
 10
16.98325194920113
 20
-21.0741094750105
 10
17.05198937600112
 20
-21.0053704184111
 10
17.20121868460124
 20
-20.85614273961071
 10
17.35641218300109
 20
-20.70095087111037
  0
LINE
  5
162
330
70
100
AcDbEntity
  8
0
 62
    18
420
        0
370
    25
100
AcDbLine
 10
61.68478441000128
 20
24.68808391428881
 30
0.0
 11
16.98325194920113
 21
-20.01344854651134
 31
0.0
  0
LINE
  5
163
330
70
100
AcDbEntity
  8
0
 62
    18
420
        0
370
    25
100
AcDbLine
 10
17.35641218300109
 20
-20.70095087111037
 30
0.0
 11
62.37228673460127
 21
24.31492368048852
 31
0.0
  0
LWPOLYLINE
  5
164
330
70
100
AcDbEntity
  8
0
 62
    18
420
        0
370
    25
100
AcDbPolyline
 90
        4
 70
     0
 43
0.0
 10
55.83154868840102
 20
24.31492368048852
 10
55.98674055690104
 20
24.47011717888902
 10
56.13597196100113
 20
24.61934648748946
 10
56.20470729230114
 20
24.68808391428881
  0
LWPOLYLINE
  5
165
330
70
100
AcDbEntity
  8
0
 62
    18
420
        0
370
    25
100
AcDbPolyline
 90
        4
 70
     0
 43
0.0
 10
16.98325194920113
 20
-14.5333714288112
 10
17.05198937600112
 20
-14.46463609751087
 10
17.20121868460124
 20
-14.31540469341142
 10
17.35641218300109
 20
-14.16021282491108
  0
LINE
  5
166
330
70
100
AcDbEntity
  8
0
 62
    18
420
        0
370
    25
100
AcDbLine
 10
55.14404636380103
 20
24.68808391428881
 30
0.0
 11
16.98325194920113
 21
-13.47271050031076
 31
0.0
  0
LINE
  5
167
330
70
100
AcDbEntity
  8
0
 62
    18
420
        0
370
    25
100
AcDbLine
 10
17.35641218300109
 20
-14.16021282491108
 30
0.0
 11
55.83154868840102
 21
24.31492368048852
 31
0.0
  0
LINE
  5
168
330
70
100
AcDbEntity
  8
0
 62
    18
420
        0
370
    25
100
AcDbLine
 10
40.35825182260107
 20
26.47312142948929
 30
0.0
 11
40.35825182260107
 21
27.56308391978916
 31
0.0
  0
LINE
  5
169
330
70
100
AcDbEntity
  8
0
 62
    18
420
        0
370
    25
100
AcDbLine
 10
26.60825189710104
 20
27.56308391978916
 30
0.0
 11
26.60825189710104
 21
26.47312142948929
 31
0.0
  0
SPLINE
  5
16A
330
70
100
AcDbEntity
  8
0
 62
    18
420
        0
370
    25
100
AcDbSpline
210
0.0
220
0.0
230
1.0
 70
     8
 71
     3
 72
     8
 73
     4
 74
     0
 42
0.0000000001
 43
0.0000000001
 40
0.0
 40
0.0
 40
0.0
 40
0.0
 40
1.0
 40
1.0
 40
1.0
 40
1.0
 10
26.60825195670109
 20
26.47312141798876
 30
0.0
 10
26.60825195670109
 20
26.34020940529534
 30
0.0
 10
26.71225094710214
 20
26.23053265420441
 30
0.0
 10
26.84497540359509
 20
26.22347420062466
 30
0.0
  0
SPLINE
  5
16B
330
70
100
AcDbEntity
  8
0
 62
    18
420
        0
370
    25
100
AcDbSpline
210
0.0
220
0.0
230
1.0
 70
     8
 71
     3
 72
     8
 73
     4
 74
     0
 42
0.0000000001
 43
0.0000000001
 40
0.0
 40
0.0
 40
0.0
 40
0.0
 40
1.0
 40
1.0
 40
1.0
 40
1.0
 10
40.12152850980708
 20
26.22347420062466
 30
0.0
 10
40.25425296630003
 20
26.23053265420441
 30
0.0
 10
40.35825195670109
 20
26.34020940529534
 30
0.0
 10
40.35825195670109
 20
26.47312141798876
 30
0.0
  0
SPLINE
  5
16C
330
70
100
AcDbEntity
  8
0
 62
    18
420
        0
370
    25
100
AcDbSpline
210
0.0
220
0.0
230
1.0
 70
     8
 71
     3
 72
     8
 73
     4
 74
     0
 42
0.0000000001
 43
0.0000000001
 40
0.0
 40
0.0
 40
0.0
 40
0.0
 40
1.0
 40
1.0
 40
1.0
 40
1.0
 10
26.8449754037029
 20
26.22347420065418
 30
0.0
 10
28.38994176680457
 20
26.14131094570791
 30
0.0
 10
29.93630041145243
 20
26.08783830030779
 30
0.0
 10
31.4832519567769
 20
26.0630839068194
 30
0.0
  0
SPLINE
  5
16D
330
70
100
AcDbEntity
  8
0
 62
    18
420
        0
370
    25
100
AcDbSpline
210
0.0
220
0.0
230
1.0
 70
     8
 71
     3
 72
     8
 73
     4
 74
     0
 42
0.0000000001
 43
0.0000000001
 40
0.0
 40
0.0
 40
0.0
 40
0.0
 40
1.0
 40
1.0
 40
1.0
 40
1.0
 10
35.48325195662528
 20
26.0630839068194
 30
0.0
 10
37.03020350202259
 20
26.08783830030908
 30
0.0
 10
38.57656214674328
 20
26.14131094571304
 30
0.0
 10
40.12152850991713
 20
26.22347420066573
 30
0.0
  0
LINE
  5
16E
330
70
100
AcDbEntity
  8
0
 62
    18
420
        0
370
    25
100
AcDbLine
 10
78.10825195670162
 20
24.68808391428881
 30
0.0
 11
78.10825195670162
 21
26.0630839067886
 31
0.0
  0
LINE
  5
16F
330
70
100
AcDbEntity
  8
0
 62
    18
420
        0
370
    25
100
AcDbLine
 10
15.60825195670102
 20
-36.43691609321136
 30
0.0
 11
16.98325194920113
 21
-36.43691609321136
 31
0.0
  0
LINE
  5
170
330
70
100
AcDbEntity
  8
0
 62
    18
420
        0
370
    25
100
AcDbLine
 10
66.4832526123013
 20
27.56308391978916
 30
0.0
 11
52.73325082420114
 21
27.56308391978916
 31
0.0
  0
LINE
  5
171
330
70
100
AcDbEntity
  8
0
 62
    18
420
        0
370
    25
100
AcDbLine
 10
61.26184475180119
 20
26.0630839067886
 30
0.0
 11
60.92075344680131
 21
26.0630839067886
 31
0.0
  0
LINE
  5
172
330
70
100
AcDbEntity
  8
0
 62
    18
420
        0
370
    25
100
AcDbLine
 10
60.92075344680131
 20
26.06327705668891
 30
0.0
 11
60.92075344680131
 21
26.0630839067886
 31
0.0
  0
SPLINE
  5
173
330
70
100
AcDbEntity
  8
0
 62
    18
420
        0
370
    25
100
AcDbSpline
210
0.0
220
0.0
230
1.0
 70
     8
 71
     3
 72
     8
 73
     4
 74
     0
 42
0.0000000001
 43
0.0000000001
 40
0.0
 40
0.0
 40
0.0
 40
0.0
 40
1.0
 40
1.0
 40
1.0
 40
1.0
 10
60.92075344684141
 20
26.06327705667736
 30
0.0
 10
60.87909797471178
 20
26.06459069583219
 30
0.0
 10
60.83741328994438
 20
26.06470325731821
 30
0.0
 10
60.79575133087693
 20
26.06361460088441
 30
0.0
  0
LWPOLYLINE
  5
174
330
70
100
AcDbEntity
  8
0
 62
    18
420
        0
370
    25
100
AcDbPolyline
 90
        9
 70
     0
 43
0.0
 10
60.73851597070107
 20
26.0630839067886
 10
60.74567225340126
 20
26.06314881018919
 10
60.752824810701
 20
26.06321412318886
 10
60.75998109340119
 20
26.06327984558865
 10
60.76713365080102
 20
26.0633459775888
 10
60.77428993340111
 20
26.06341251918929
 10
60.78144249080128
 20
26.06347947018863
 10
60.78859877350115
 20
26.06354683078961
 10
60.7957513308012
 20
26.06361460088954
  0
LINE
  5
175
330
70
100
AcDbEntity
  8
0
 62
    18
420
        0
370
    25
100
AcDbLine
 10
60.73851597070107
 20
26.0630839067886
 30
0.0
 11
58.47798746580105
 21
26.0630839067886
 31
0.0
  0
LWPOLYLINE
  5
176
330
70
100
AcDbEntity
  8
0
 62
    18
420
        0
370
    25
100
AcDbPolyline
 90
        9
 70
     0
 43
0.0
 10
58.42075210570124
 20
26.06361460088954
 10
58.42790466310108
 20
26.06354683078961
 10
58.43506094570116
 20
26.06347947018863
 10
58.442213503101
 20
26.06341251918929
 10
58.44936978580119
 20
26.0633459775888
 10
58.45652234310126
 20
26.06327984558865
 10
58.46367862580112
 20
26.06321412318886
 10
58.47083118320128
 20
26.06314881018919
 10
58.47798746580105
 20
26.0630839067886
  0
SPLINE
  5
177
330
70
100
AcDbEntity
  8
0
 62
    18
420
        0
370
    25
100
AcDbSpline
210
0.0
220
0.0
230
1.0
 70
     8
 71
     3
 72
     8
 73
     4
 74
     0
 42
0.0000000001
 43
0.0000000001
 40
0.0
 40
0.0
 40
0.0
 40
0.0
 40
1.0
 40
1.0
 40
1.0
 40
1.0
 10
58.42075210569193
 20
26.06361460088184
 30
0.0
 10
58.37908825575429
 20
26.06438339139222
 30
0.0
 10
58.33741280528794
 20
26.06427085148782
 30
0.0
 10
58.29575371501561
 20
26.06327705667479
 30
0.0
  0
LINE
  5
178
330
70
100
AcDbEntity
  8
0
 62
    18
420
        0
370
    25
100
AcDbLine
 10
58.29575371500117
 20
26.0630839067886
 30
0.0
 11
58.29575371500117
 21
26.06327705668891
 31
0.0
  0
LINE
  5
179
330
70
100
AcDbEntity
  8
0
 62
    18
420
        0
370
    25
100
AcDbLine
 10
58.29575371500117
 20
26.0630839067886
 30
0.0
 11
57.95465868470125
 21
26.0630839067886
 31
0.0
  0
LINE
  5
17A
330
70
100
AcDbEntity
  8
0
 62
    18
420
        0
370
    25
100
AcDbLine
 10
60.92075344680131
 20
26.0630839067886
 30
0.0
 11
60.7957513308012
 21
26.0630839067886
 31
0.0
  0
LINE
  5
17B
330
70
100
AcDbEntity
  8
0
 62
    18
420
        0
370
    25
100
AcDbLine
 10
58.42075210570124
 20
26.0630839067886
 30
0.0
 11
58.29575371500117
 21
26.0630839067886
 31
0.0
  0
LINE
  5
17C
330
70
100
AcDbEntity
  8
0
 62
    18
420
        0
370
    25
100
AcDbLine
 10
58.42075210570124
 20
26.0630839067886
 30
0.0
 11
58.47798746580105
 21
26.0630839067886
 31
0.0
  0
LINE
  5
17D
330
70
100
AcDbEntity
  8
0
 62
    18
420
        0
370
    25
100
AcDbLine
 10
60.73851597070107
 20
26.0630839067886
 30
0.0
 11
60.7957513308012
 21
26.0630839067886
 31
0.0
  0
LINE
  5
17E
330
70
100
AcDbEntity
  8
0
 62
    18
420
        0
370
    25
100
AcDbLine
 10
40.35825182260107
 20
27.56308391978916
 30
0.0
 11
26.60825189710104
 21
27.56308391978916
 31
0.0
  0
LINE
  5
17F
330
70
100
AcDbEntity
  8
0
 62
    18
420
        0
370
    25
100
AcDbLine
 10
34.79575265700129
 20
26.06327705668891
 30
0.0
 11
34.79575265700129
 21
26.0630839067886
 31
0.0
  0
SPLINE
  5
180
330
70
100
AcDbEntity
  8
0
 62
    18
420
        0
370
    25
100
AcDbSpline
210
0.0
220
0.0
230
1.0
 70
     8
 71
     3
 72
     8
 73
     4
 74
     0
 42
0.0000000001
 43
0.0000000001
 40
0.0
 40
0.0
 40
0.0
 40
0.0
 40
1.0
 40
1.0
 40
1.0
 40
1.0
 10
34.7957526570029
 20
26.06327705671072
 30
0.0
 10
34.75409780762229
 20
26.06459079460635
 30
0.0
 10
34.71241374063172
 20
26.06470335610008
 30
0.0
 10
34.67075240368313
 20
26.06361460091778
 30
0.0
  0
LWPOLYLINE
  5
181
330
70
100
AcDbEntity
  8
0
 62
    18
420
        0
370
    25
100
AcDbPolyline
 90
        9
 70
     0
 43
0.0
 10
34.61351704360129
 20
26.0630839067886
 10
34.62067146360126
 20
26.06314881018919
 10
34.62782588360122
 20
26.06321412318886
 10
34.63498030360118
 20
26.06327984558865
 10
34.64213472370125
 20
26.0633459775888
 10
34.64928914370121
 20
26.06341251918929
 10
34.65644356370118
 20
26.06347947018863
 10
34.66359798370114
 20
26.06354683078961
 10
34.6707524037011
 20
26.06361460088954
  0
LINE
  5
182
330
70
100
AcDbEntity
  8
0
 62
    18
420
        0
370
    25
100
AcDbLine
 10
34.61351704360129
 20
26.0630839067886
 30
0.0
 11
32.35298667610115
 21
26.0630839067886
 31
0.0
  0
LWPOLYLINE
  5
183
330
70
100
AcDbEntity
  8
0
 62
    18
420
        0
370
    25
100
AcDbPolyline
 90
        9
 70
     0
 43
0.0
 10
32.29575131590123
 20
26.06361460088954
 10
32.3029057360013
 20
26.06354683078961
 10
32.31006015600126
 20
26.06347947018863
 10
32.31721457600123
 20
26.06341251918929
 10
32.32436899600119
 20
26.0633459775888
 10
32.33152341600116
 20
26.06327984558865
 10
32.33867783600112
 20
26.06321412318886
 10
32.34583225610118
 20
26.06314881018919
 10
32.35298667610115
 20
26.0630839067886
  0
SPLINE
  5
184
330
70
100
AcDbEntity
  8
0
 62
    18
420
        0
370
    25
100
AcDbSpline
210
0.0
220
0.0
230
1.0
 70
     8
 71
     3
 72
     8
 73
     4
 74
     0
 42
0.0000000001
 43
0.0000000001
 40
0.0
 40
0.0
 40
0.0
 40
0.0
 40
1.0
 40
1.0
 40
1.0
 40
1.0
 10
32.29575131591406
 20
26.06361460084976
 30
0.0
 10
32.25408684487849
 20
26.06438336804978
 30
0.0
 10
32.2124107741635
 20
26.06427082814666
 30
0.0
 10
32.17075106259623
 20
26.0632770566427
 30
0.0
  0
LINE
  5
185
330
70
100
AcDbEntity
  8
0
 62
    18
420
        0
370
    25
100
AcDbLine
 10
32.17075106260104
 20
26.0630839067886
 30
0.0
 11
32.17075106260104
 21
26.06327705668891
 31
0.0
  0
LINE
  5
186
330
70
100
AcDbEntity
  8
0
 62
    18
420
        0
370
    25
100
AcDbLine
 10
32.17075106260104
 20
26.0630839067886
 30
0.0
 11
31.82965789500103
 21
26.0630839067886
 31
0.0
  0
LINE
  5
187
330
70
100
AcDbEntity
  8
0
 62
    18
420
        0
370
    25
100
AcDbLine
 10
35.13684582470109
 20
26.0630839067886
 30
0.0
 11
34.79575265700129
 21
26.0630839067886
 31
0.0
  0
LINE
  5
188
330
70
100
AcDbEntity
  8
0
 62
    18
420
        0
370
    25
100
AcDbLine
 10
34.79575265700129
 20
26.0630839067886
 30
0.0
 11
34.6707524037011
 21
26.0630839067886
 31
0.0
  0
LINE
  5
189
330
70
100
AcDbEntity
  8
0
 62
    18
420
        0
370
    25
100
AcDbLine
 10
32.29575131590123
 20
26.0630839067886
 30
0.0
 11
32.17075106260104
 21
26.0630839067886
 31
0.0
  0
LINE
  5
18A
330
70
100
AcDbEntity
  8
0
 62
    18
420
        0
370
    25
100
AcDbLine
 10
32.29575131590123
 20
26.0630839067886
 30
0.0
 11
32.35298667610115
 21
26.0630839067886
 31
0.0
  0
LINE
  5
18B
330
70
100
AcDbEntity
  8
0
 62
    18
420
        0
370
    25
100
AcDbLine
 10
34.61351704360129
 20
26.0630839067886
 30
0.0
 11
34.6707524037011
 21
26.0630839067886
 31
0.0
  0
LINE
  5
18C
330
70
100
AcDbEntity
  8
0
 62
    18
420
        0
370
    25
100
AcDbLine
 10
16.98325194920113
 20
-28.68691528851103
 30
0.0
 11
17.23325199020105
 21
-28.68691528851103
 31
0.0
  0
LINE
  5
18D
330
70
100
AcDbEntity
  8
0
 62
    18
420
        0
370
    25
100
AcDbLine
 10
17.23325199020105
 20
-28.68691528851103
 30
0.0
 11
17.23325199020105
 21
-28.81191740451081
 31
0.0
  0
LINE
  5
18E
330
70
100
AcDbEntity
  8
0
 62
    18
420
        0
370
    25
100
AcDbLine
 10
17.35825201070118
 20
-28.81191740451081
 30
0.0
 11
17.23325199020105
 21
-28.81191740451081
 31
0.0
  0
SPLINE
  5
18F
330
70
100
AcDbEntity
  8
0
 62
    18
420
        0
370
    25
100
AcDbSpline
210
0.0
220
0.0
230
1.0
 70
     8
 71
     3
 72
     8
 73
     4
 74
     0
 42
0.0000000001
 43
0.0000000001
 40
0.0
 40
0.0
 40
0.0
 40
0.0
 40
1.0
 40
1.0
 40
1.0
 40
1.0
 10
17.35825195670124
 20
-28.81191609321037
 30
0.0
 10
17.35825195670124
 20
-28.74288049948158
 30
0.0
 10
17.30228755042995
 20
-28.68691609321061
 30
0.0
 10
17.23325195670115
 20
-28.68691609321061
 30
0.0
  0
LINE
  5
190
330
70
100
AcDbEntity
  8
0
 62
    18
420
        0
370
    25
100
AcDbLine
 10
17.35825201070118
 20
-28.81191740451081
 30
0.0
 11
17.35825201070118
 21
-33.06191484151061
 31
0.0
  0
LINE
  5
191
330
70
100
AcDbEntity
  8
0
 62
    18
420
        0
370
    25
100
AcDbLine
 10
17.35825201070118
 20
-33.06191484151061
 30
0.0
 11
17.23325199020105
 21
-33.06191484151061
 31
0.0
  0
LINE
  5
192
330
70
100
AcDbEntity
  8
0
 62
    18
420
        0
370
    25
100
AcDbLine
 10
17.23325199020105
 20
-33.06191484151061
 30
0.0
 11
17.23325199020105
 21
-28.81191740451081
 31
0.0
  0
LINE
  5
193
330
70
100
AcDbEntity
  8
0
 62
    18
420
        0
370
    25
100
AcDbLine
 10
17.23325199020105
 20
-33.18691695751039
 30
0.0
 11
16.98325194920113
 21
-33.18691695751039
 31
0.0
  0
LINE
  5
194
330
70
100
AcDbEntity
  8
0
 62
    18
420
        0
370
    25
100
AcDbLine
 10
17.23325199020105
 20
-33.18691695751039
 30
0.0
 11
17.23325199020105
 21
-33.06191484151061
 31
0.0
  0
SPLINE
  5
195
330
70
100
AcDbEntity
  8
0
 62
    18
420
        0
370
    25
100
AcDbSpline
210
0.0
220
0.0
230
1.0
 70
     8
 71
     3
 72
     8
 73
     4
 74
     0
 42
0.0000000001
 43
0.0000000001
 40
0.0
 40
0.0
 40
0.0
 40
0.0
 40
1.0
 40
1.0
 40
1.0
 40
1.0
 10
17.23325195670115
 20
-33.18691609321109
 30
0.0
 10
17.30228755042995
 20
-33.18691609321109
 30
0.0
 10
17.35825195670124
 20
-33.13095168694011
 30
0.0
 10
17.35825195670124
 20
-33.06191609321132
 30
0.0
  0
LINE
  5
196
330
70
100
AcDbEntity
  8
0
 62
    18
420
        0
370
    25
100
AcDbLine
 10
77.90732842440085
 20
24.68808391428881
 30
0.0
 11
78.10825195670162
 21
24.68808391428881
 31
0.0
  0
LWPOLYLINE
  5
197
330
70
100
AcDbEntity
  8
0
 62
    18
420
        0
370
    25
100
AcDbPolyline
 90
        6
 70
     0
 43
0.0
 10
77.85825145000114
 20
24.81308393468947
 10
77.86085542800115
 20
24.77400633798931
 10
77.86816072220111
 20
24.73937138278932
 10
77.87939619780108
 20
24.71160958818945
 10
77.89389130230077
 20
24.69331084578887
 10
77.90732842440085
 20
24.68808391428881
  0
LINE
  5
198
330
70
100
AcDbEntity
  8
0
 62
    18
420
        0
370
    25
100
AcDbLine
 10
77.85825145000114
 20
24.81308393468947
 30
0.0
 11
77.85825145000114
 21
25.93808390088906
 31
0.0
  0
LWPOLYLINE
  5
199
330
70
100
AcDbEntity
  8
0
 62
    18
420
        0
370
    25
100
AcDbPolyline
 90
        6
 70
     0
 43
0.0
 10
77.90732842440085
 20
26.0630839067886
 10
77.89081793780072
 20
26.05516524568862
 10
77.875644830501
 20
26.03206956268928
 10
77.86435347560107
 20
25.99698124978868
 10
77.85882141950096
 20
25.95651934388927
 10
77.85825145000114
 20
25.93808390088906
  0
LINE
  5
19A
330
70
100
AcDbEntity
  8
0
 62
    18
420
        0
370
    25
100
AcDbLine
 10
77.90732842440085
 20
26.0630839067886
 30
0.0
 11
78.10825195670162
 21
26.0630839067886
 31
0.0
  0
LINE
  5
19B
330
70
100
AcDbEntity
  8
0
 62
    18
420
        0
370
    25
100
AcDbLine
 10
77.85825145000114
 20
25.93808390088906
 30
0.0
 11
19.35825187290119
 21
25.93808390088906
 31
0.0
  0
LINE
  5
19C
330
70
100
AcDbEntity
  8
0
 62
    18
420
        0
370
    25
100
AcDbLine
 10
19.35825187290119
 20
25.93808390088906
 30
0.0
 11
19.35825187290119
 21
26.0630839067886
 31
0.0
  0
LINE
  5
19D
330
70
100
AcDbEntity
  8
0
 62
    18
420
        0
370
    25
100
AcDbLine
 10
19.35825187290119
 20
26.0630839067886
 30
0.0
 11
31.82965789500103
 21
26.0630839067886
 31
0.0
  0
LINE
  5
19E
330
70
100
AcDbEntity
  8
0
 62
    18
420
        0
370
    25
100
AcDbLine
 10
35.13684582470109
 20
26.0630839067886
 30
0.0
 11
57.95465868470125
 21
26.0630839067886
 31
0.0
  0
LINE
  5
19F
330
70
100
AcDbEntity
  8
0
 62
    18
420
        0
370
    25
100
AcDbLine
 10
61.26184475180119
 20
26.0630839067886
 30
0.0
 11
77.90732842440085
 21
26.0630839067886
 31
0.0
  0
SPLINE
  5
1A0
330
70
100
AcDbEntity
  8
0
 62
    18
420
        0
370
    25
100
AcDbSpline
210
0.0
220
0.0
230
1.0
 70
     8
 71
     3
 72
     8
 73
     4
 74
     0
 42
0.0000000001
 43
0.0000000001
 40
0.0
 40
0.0
 40
0.0
 40
0.0
 40
1.0
 40
1.0
 40
1.0
 40
1.0
 10
19.35825195670099
 20
25.93808390678884
 30
0.0
 10
17.3562197385645
 20
25.93808390678884
 30
0.0
 10
15.7332519567011
 20
24.31511612492544
 30
0.0
 10
15.7332519567011
 20
22.31308390678927
 30
0.0
  0
LINE
  5
1A1
330
70
100
AcDbEntity
  8
0
 62
    18
420
        0
370
    25
100
AcDbLine
 10
15.7332519626012
 20
22.31308399058875
 30
0.0
 11
15.60825195670102
 21
22.31308399058875
 31
0.0
  0
SPLINE
  5
1A2
330
70
100
AcDbEntity
  8
0
 62
    18
420
        0
370
    25
100
AcDbSpline
210
0.0
220
0.0
230
1.0
 70
     8
 71
     3
 72
     8
 73
     4
 74
     0
 42
0.0000000001
 43
0.0000000001
 40
0.0
 40
0.0
 40
0.0
 40
0.0
 40
1.0
 40
1.0
 40
1.0
 40
1.0
 10
19.35825195670099
 20
26.0630839067886
 30
0.0
 10
17.28718414483571
 20
26.0630839067886
 30
0.0
 10
15.60825195670102
 20
24.38415171865423
 30
0.0
 10
15.60825195670102
 20
22.31308390678927
 30
0.0
  0
SPLINE
  5
1A3
330
70
100
AcDbEntity
  8
0
 62
    18
420
        0
370
    25
100
AcDbSpline
210
0.0
220
0.0
230
1.0
 70
     8
 71
     3
 72
     8
 73
     4
 74
     0
 42
0.0000000001
 43
0.0000000001
 40
0.0
 40
0.0
 40
0.0
 40
0.0
 40
1.0
 40
1.0
 40
1.0
 40
1.0
 10
19.35825195670099
 20
24.81308390678968
 30
0.0
 10
17.97754008212424
 20
24.81308390678968
 30
0.0
 10
16.85825195670122
 20
23.69379578136634
 30
0.0
 10
16.85825195670122
 20
22.31308390678927
 30
0.0
  0
LINE
  5
1A4
330
70
100
AcDbEntity
  8
0
 62
    18
420
        0
370
    25
100
AcDbLine
 10
16.85825192870101
 20
22.31308399058875
 30
0.0
 11
15.7332519626012
 21
22.31308399058875
 31
0.0
  0
LINE
  5
1A5
330
70
100
AcDbEntity
  8
0
 62
    18
420
        0
370
    25
100
AcDbLine
 10
19.35825187290119
 20
25.93808390088906
 30
0.0
 11
19.35825187290119
 21
24.81308393468947
 31
0.0
  0
LINE
  5
1A6
330
70
100
AcDbEntity
  8
0
 62
    18
420
        0
370
    25
100
AcDbLine
 10
19.35825187290119
 20
24.81308393468947
 30
0.0
 11
77.85825145000114
 21
24.81308393468947
 31
0.0
  0
LINE
  5
1A7
330
70
100
AcDbEntity
  8
0
 62
    18
420
        0
370
    25
100
AcDbLine
 10
77.90732842440085
 20
24.68808391428881
 30
0.0
 11
19.35825187290119
 21
24.68808391428881
 31
0.0
  0
LINE
  5
1A8
330
70
100
AcDbEntity
  8
0
 62
    18
420
        0
370
    25
100
AcDbLine
 10
19.35825187290119
 20
24.81308393468947
 30
0.0
 11
19.35825187290119
 21
24.68808391428881
 31
0.0
  0
SPLINE
  5
1A9
330
70
100
AcDbEntity
  8
0
 62
    18
420
        0
370
    25
100
AcDbSpline
210
0.0
220
0.0
230
1.0
 70
     8
 71
     3
 72
     8
 73
     4
 74
     0
 42
0.0000000001
 43
0.0000000001
 40
0.0
 40
0.0
 40
0.0
 40
0.0
 40
1.0
 40
1.0
 40
1.0
 40
1.0
 10
19.35825195670099
 20
24.68808390678863
 30
0.0
 10
18.04657567585303
 20
24.68808390678863
 30
0.0
 10
16.98325195670099
 20
23.62476018763755
 30
0.0
 10
16.98325195670099
 20
22.31308390678927
 30
0.0
  0
LINE
  5
1AA
330
70
100
AcDbEntity
  8
0
 62
    18
420
        0
370
    25
100
AcDbLine
 10
16.85825192870101
 20
22.31308399058875
 30
0.0
 11
16.98325194920113
 21
22.31308399058875
 31
0.0
  0
LINE
  5
1AB
330
70
100
AcDbEntity
  8
0
 62
    18
420
        0
370
    25
100
AcDbLine
 10
15.60825195670102
 20
-36.23599256091059
 30
0.0
 11
15.60825195670102
 21
22.31308399058875
 31
0.0
  0
LINE
  5
1AC
330
70
100
AcDbEntity
  8
0
 62
    18
420
        0
370
    25
100
AcDbLine
 10
15.7332519626012
 20
22.31308399058875
 30
0.0
 11
15.7332519626012
 21
-36.18691558661098
 31
0.0
  0
LWPOLYLINE
  5
1AD
330
70
100
AcDbEntity
  8
0
 62
    18
420
        0
370
    25
100
AcDbPolyline
 90
        6
 70
     0
 43
0.0
 10
15.7332519626012
 20
-36.18691558661098
 10
15.69417436590104
 20
-36.18951956451152
 10
15.65953938160128
 20
-36.19682485871149
 10
15.63177763420127
 20
-36.20806033431082
 10
15.61347888500125
 20
-36.22255543881052
 10
15.60825195670102
 20
-36.23599256091059
  0
LINE
  5
1AE
330
70
100
AcDbEntity
  8
0
 62
    18
420
        0
370
    25
100
AcDbLine
 10
16.85825192870101
 20
-36.18691558661098
 30
0.0
 11
16.85825192870101
 21
22.31308399058875
 31
0.0
  0
LINE
  5
1AF
330
70
100
AcDbEntity
  8
0
 62
    18
420
        0
370
    25
100
AcDbLine
 10
16.98325194920113
 20
22.31308399058875
 30
0.0
 11
16.98325194920113
 21
-36.23599256091059
 31
0.0
  0
LWPOLYLINE
  5
1B0
330
70
100
AcDbEntity
  8
0
 62
    18
420
        0
370
    25
100
AcDbPolyline
 90
        6
 70
     0
 43
0.0
 10
16.98325194920113
 20
-36.23599256091059
 10
16.97533326260099
 20
-36.21948207431046
 10
16.95223762690129
 20
-36.20430896701138
 10
16.91714935040107
 20
-36.19301761211082
 10
16.87668734270124
 20
-36.18748555601071
 10
16.85825192870101
 20
-36.18691558661098
  0
LINE
  5
1B1
330
70
100
AcDbEntity
  8
0
 62
    18
420
        0
370
    25
100
AcDbLine
 10
15.7332519626012
 20
-36.18691558661098
 30
0.0
 11
16.85825192870101
 21
-36.18691558661098
 31
0.0
  0
LINE
  5
1B2
330
70
100
AcDbEntity
  8
0
 62
    18
420
        0
370
    25
100
AcDbLine
 10
16.98325194920113
 20
-36.23599256091059
 30
0.0
 11
16.98325194920113
 21
-36.43691609321136
 31
0.0
  0
LINE
  5
1B3
330
70
100
AcDbEntity
  8
0
 62
    18
420
        0
370
    25
100
AcDbLine
 10
15.60825195670102
 20
-36.23599256091059
 30
0.0
 11
15.60825195670102
 21
-36.43691609321136
 31
0.0
  0
LINE
  5
1B4
330
70
100
AcDbEntity
  8
0
 62
     8
420
  8421504
370
    25
100
AcDbLine
 10
52.73325082420114
 20
26.47312142948929
 30
0.0
 11
66.4832526123013
 21
26.47312142948929
 31
0.0
  0
LINE
  5
1B5
330
70
100
AcDbEntity
  8
0
 62
     8
420
  8421504
370
    25
100
AcDbLine
 10
66.24652904030099
 20
26.22347419968906
 30
0.0
 11
52.96997439620112
 21
26.22347419968906
 31
0.0
  0
LWPOLYLINE
  5
1B6
330
70
100
AcDbEntity
  8
0
 62
     8
420
  8421504
370
    25
100
AcDbPolyline
 90
        7
 70
     0
 43
0.0
 10
75.08060049770119
 20
24.68808391428881
 10
75.08711975570086
 20
24.68156302638898
 10
75.18859666350152
 20
24.58008879618921
 10
75.29006984590108
 20
24.47861456608955
 10
75.37609424950125
 20
24.39258876548876
 10
75.43357547880124
 20
24.33510823468909
 10
75.45375910160132
 20
24.31492368048852
  0
LWPOLYLINE
  5
1B7
330
70
100
AcDbEntity
  8
0
 62
     8
420
  8421504
370
    25
100
AcDbPolyline
 90
        7
 70
     0
 43
0.0
 10
16.98325194920113
 20
-33.40926463421094
 10
16.98977283710128
 20
-33.4157838922106
 10
17.09124706730104
 20
-33.51726080001127
 10
17.19272129740103
 20
-33.61873398241147
 10
17.27874709800118
 20
-33.70475838601036
 10
17.33622762880117
 20
-33.76223961531098
 10
17.35641218300109
 20
-33.78242323811106
  0
LWPOLYLINE
  5
1B8
330
70
100
AcDbEntity
  8
0
 62
     8
420
  8421504
370
    25
100
AcDbPolyline
 90
        7
 70
     0
 43
0.0
 10
48.91764831300124
 20
24.68808391428881
 10
48.92417129630127
 20
24.68156302638898
 10
49.02564447880126
 20
24.58008879618921
 10
49.12711766120114
 20
24.47861456608955
 10
49.21314579010102
 20
24.39258876548876
 10
49.2706232941013
 20
24.33510823468909
 10
49.29081064220109
 20
24.31492368048852
  0
LWPOLYLINE
  5
1B9
330
70
100
AcDbEntity
  8
0
 62
     8
420
  8421504
370
    25
100
AcDbPolyline
 90
        7
 70
     0
 43
0.0
 10
16.98325194920113
 20
-7.246312449511307
 10
16.98977283710128
 20
-7.252835432811329
 10
17.09124706730104
 20
-7.354308615310357
 10
17.19272129740103
 20
-7.455781797710565
 10
17.27874709800118
 20
-7.541809926611081
 10
17.33622762880117
 20
-7.599287430611357
 10
17.35641218300109
 20
-7.619474778710504
  0
LWPOLYLINE
  5
1BA
330
70
100
AcDbEntity
  8
0
 62
     8
420
  8421504
370
    25
100
AcDbPolyline
 90
        7
 70
     0
 43
0.0
 10
42.37691212950122
 20
24.68808391428881
 10
42.38343325020112
 20
24.68156302638898
 10
42.484906432601
 20
24.58008879618921
 10
42.58638147770112
 20
24.47861456608955
 10
42.67240774390109
 20
24.39258876548876
 10
42.72988711060127
 20
24.33510823468909
 10
42.75007259610126
 20
24.31492368048852
  0
LWPOLYLINE
  5
1BB
330
70
100
AcDbEntity
  8
0
 62
     8
420
  8421504
370
    25
100
AcDbPolyline
 90
        7
 70
     0
 43
0.0
 10
16.98325194920113
 20
-0.7055762660103204
 10
16.98977283710128
 20
-0.7120973867108602
 10
17.09124706730104
 20
-0.8135705691110672
 10
17.19272129740103
 20
-0.9150456142108616
 10
17.27874709800118
 20
-1.001071880410507
 10
17.33622762880117
 20
-1.058551247110371
 10
17.35641218300109
 20
-1.078736732611318
  0
LWPOLYLINE
  5
1BC
330
70
100
AcDbEntity
  8
0
 62
     8
420
  8421504
370
    25
100
AcDbPolyline
 90
        7
 70
     0
 43
0.0
 10
35.83617408330129
 20
24.68808391428881
 10
35.84269520400119
 20
24.68156302638898
 10
35.94416838640107
 20
24.58008879618921
 10
36.04564343150119
 20
24.47861456608955
 10
36.13166969770116
 20
24.39258876548876
 10
36.18914906440102
 20
24.33510823468909
 10
36.20933454990101
 20
24.31492368048852
  0
LWPOLYLINE
  5
1BD
330
70
100
AcDbEntity
  8
0
 62
     8
420
  8421504
370
    25
100
AcDbPolyline
 90
        7
 70
     0
 43
0.0
 10
16.98325194920113
 20
5.83516178018897
 10
16.98977283710128
 20
5.82864065948843
 10
17.09124706730104
 20
5.727167477089507
 10
17.19272129740103
 20
5.625692431988428
 10
17.27874709800118
 20
5.539666165688677
 10
17.33622762880117
 20
5.482186799088919
 10
17.35641218300109
 20
5.462001313589254
  0
LWPOLYLINE
  5
1BE
330
70
100
AcDbEntity
  8
0
 62
     8
420
  8421504
370
    25
100
AcDbPolyline
 90
        7
 70
     0
 43
0.0
 10
22.75469845670114
 20
24.68808391428881
 10
22.76121957730125
 20
24.68156302638898
 10
22.8626936911013
 20
24.58008879618921
 10
22.96416780490103
 20
24.47861456608955
 10
23.05019360540108
 20
24.39258876548876
 10
23.10767436910125
 20
24.33510823468909
 10
23.12785892320107
 20
24.31492368048852
  0
LWPOLYLINE
  5
1BF
330
70
100
AcDbEntity
  8
0
 62
     8
420
  8421504
370
    25
100
AcDbPolyline
 90
        7
 70
     0
 43
0.0
 10
16.98325194920113
 20
18.91663740678848
 10
16.98977283710128
 20
18.91011628618933
 10
17.09124706730104
 20
18.80864217238864
 10
17.19272129740103
 20
18.70716805858923
 10
17.27874709800118
 20
18.62114225808854
 10
17.33622762880117
 20
18.56366149438933
 10
17.35641218300109
 20
18.54347694028887
  0
LWPOLYLINE
  5
1C0
330
70
100
AcDbEntity
  8
0
 62
     8
420
  8421504
370
    25
100
AcDbPolyline
 90
        7
 70
     0
 43
0.0
 10
29.29543603720114
 20
24.68808391428881
 10
29.30195715780126
 20
24.68156302638898
 10
29.40343127160099
 20
24.58008879618921
 10
29.50490538540104
 20
24.47861456608955
 10
29.59093165160101
 20
24.39258876548876
 10
29.64841194960126
 20
24.33510823468909
 10
29.66859650370107
 20
24.31492368048852
  0
LWPOLYLINE
  5
1C1
330
70
100
AcDbEntity
  8
0
 62
     8
420
  8421504
370
    25
100
AcDbPolyline
 90
        7
 70
     0
 43
0.0
 10
16.98325194920113
 20
12.37589982628944
 10
16.98977283710128
 20
12.369378705689
 10
17.09124706730104
 20
12.26790459188959
 10
17.19272129740103
 20
12.1664304780889
 10
17.27874709800118
 20
12.08040421188925
 10
17.33622762880117
 20
12.022923913889
 10
17.35641218300109
 20
12.00273935978854
  0
LWPOLYLINE
  5
1C2
330
70
100
AcDbEntity
  8
0
 62
     8
420
  8421504
370
    25
100
AcDbPolyline
 90
        7
 70
     0
 43
0.0
 10
68.53986245150126
 20
24.68808391428881
 10
68.54638170960104
 20
24.68156302638898
 10
68.64785861730095
 20
24.58008879618921
 10
68.74933179970115
 20
24.47861456608955
 10
68.83535620330133
 20
24.39258876548876
 10
68.89283743260067
 20
24.33510823468909
 10
68.91302105540074
 20
24.31492368048852
  0
LWPOLYLINE
  5
1C3
330
70
100
AcDbEntity
  8
0
 62
     8
420
  8421504
370
    25
100
AcDbPolyline
 90
        7
 70
     0
 43
0.0
 10
16.98325194920113
 20
-26.86852658801036
 10
16.98977283710128
 20
-26.87504584611142
 10
17.09124706730104
 20
-26.97652275381069
 10
17.19272129740103
 20
-27.0779959362109
 10
17.27874709800118
 20
-27.16402033981106
 10
17.33622762880117
 20
-27.22150156911041
 10
17.35641218300109
 20
-27.24168519201059
  0
LWPOLYLINE
  5
1C4
330
70
100
AcDbEntity
  8
0
 62
     8
420
  8421504
370
    25
100
AcDbPolyline
 90
        7
 70
     0
 43
0.0
 10
61.99912440540111
 20
24.68808391428881
 10
62.00564738870113
 20
24.68156302638898
 10
62.10712057110102
 20
24.58008879618921
 10
62.20859375360102
 20
24.47861456608955
 10
62.2946218824011
 20
24.39258876548876
 10
62.35209938640106
 20
24.33510823468909
 10
62.37228673460127
 20
24.31492368048852
  0
LWPOLYLINE
  5
1C5
330
70
100
AcDbEntity
  8
0
 62
     8
420
  8421504
370
    25
100
AcDbPolyline
 90
        7
 70
     0
 43
0.0
 10
16.98325194920113
 20
-20.32778854191117
 10
16.98977283710128
 20
-20.33431152521119
 10
17.09124706730104
 20
-20.4357847076114
 10
17.19272129740103
 20
-20.53725789011043
 10
17.27874709800118
 20
-20.62328601891084
 10
17.33622762880117
 20
-20.68076352291112
 10
17.35641218300109
 20
-20.70095087111037
  0
LWPOLYLINE
  5
1C6
330
70
100
AcDbEntity
  8
0
 62
     8
420
  8421504
370
    25
100
AcDbPolyline
 90
        7
 70
     0
 43
0.0
 10
55.45838635920118
 20
24.68808391428881
 10
55.4649093425012
 20
24.68156302638898
 10
55.56638252500119
 20
24.58008879618921
 10
55.66785570740108
 20
24.47861456608955
 10
55.75388383630127
 20
24.39258876548876
 10
55.81136134030123
 20
24.33510823468909
 10
55.83154868840102
 20
24.31492368048852
  0
LWPOLYLINE
  5
1C7
330
70
100
AcDbEntity
  8
0
 62
     8
420
  8421504
370
    25
100
AcDbPolyline
 90
        7
 70
     0
 43
0.0
 10
16.98325194920113
 20
-13.7870504957106
 10
16.98977283710128
 20
-13.79357347901062
 10
17.09124706730104
 20
-13.89504666151093
 10
17.19272129740103
 20
-13.99651984391114
 10
17.27874709800118
 20
-14.08254797281037
 10
17.33622762880117
 20
-14.14002547681065
 10
17.35641218300109
 20
-14.16021282491108
  0
LINE
  5
1C8
330
70
100
AcDbEntity
  8
0
 62
     8
420
  8421504
370
    25
100
AcDbLine
 10
26.60825189710104
 20
26.47312142948929
 30
0.0
 11
40.35825182260107
 21
26.47312142948929
 31
0.0
  0
LINE
  5
1C9
330
70
100
AcDbEntity
  8
0
 62
     8
420
  8421504
370
    25
100
AcDbLine
 10
40.1215282506011
 20
26.22347419968906
 30
0.0
 11
26.84497546910102
 21
26.22347419968906
 31
0.0
  0
LINE
  5
1CA
330
70
100
AcDbEntity
  8
0
 62
     8
420
  8421504
370
    25
100
AcDbLine
 10
17.23325199020105
 20
-28.81191740451081
 30
0.0
 11
16.98325194920113
 21
-28.81191740451081
 31
0.0
  0
LINE
  5
1CB
330
70
100
AcDbEntity
  8
0
 62
     8
420
  8421504
370
    25
100
AcDbLine
 10
16.98325194920113
 20
-33.06191484151061
 30
0.0
 11
17.23325199020105
 21
-33.06191484151061
 31
0.0
  0
SPLINE
  5
1CC
330
70
100
AcDbEntity
  8
0
 62
    18
420
        0
370
    25
100
AcDbSpline
210
0.0
220
0.0
230
1.0
 70
     8
 71
     3
 72
     8
 73
     4
 74
     0
 42
0.0000000001
 43
0.0000000001
 40
0.0
 40
0.0
 40
0.0
 40
0.0
 40
1.0
 40
1.0
 40
1.0
 40
1.0
 10
172.3958067825821
 20
1.708876204243997
 30
0.0
 10
172.0265245707566
 20
1.194220608860866
 30
0.0
 10
171.8084990152862
 20
0.5865636261909762
 30
0.0
 10
171.7663533341833
 20
-0.045467603570222
 30
0.0
  0
SPLINE
  5
1CD
330
70
100
AcDbEntity
  8
0
 62
    18
420
        0
370
    25
100
AcDbSpline
210
0.0
220
0.0
230
1.0
 70
     8
 71
     3
 72
     8
 73
     4
 74
     0
 42
0.0000000001
 43
0.0000000001
 40
0.0
 40
0.0
 40
0.0
 40
0.0
 40
1.0
 40
1.0
 40
1.0
 40
1.0
 10
172.1390327468527
 20
-3.304954092536098
 30
0.0
 10
172.3951895505901
 20
-4.131937523314
 30
0.0
 10
172.7520238497089
 20
-4.924300158349551
 30
0.0
 10
173.2015094199824
 20
-5.664219495168181
 30
0.0
  0
LWPOLYLINE
  5
1CE
330
70
100
AcDbEntity
  8
0
 62
    18
420
        0
370
    25
100
AcDbPolyline
 90
       10
 70
     0
 43
0.0
 10
173.9515093479015
 20
-6.768230793510537
 10
174.0688248229009
 20
-6.926306546910958
 10
174.5318333901017
 20
-7.471506337510621
 10
175.0192343121011
 20
-7.971501387611412
 10
175.5257695431016
 20
-8.420542492011506
 10
176.0460332561011
 20
-8.813369604211271
 10
176.5745257604011
 20
-9.145236597311434
 10
177.1056497058008
 20
-9.411903573211594
 10
177.6336370036016
 20
-9.609634956010713
 10
177.8265095435007
 20
-9.656351661311534
  0
LWPOLYLINE
  5
1CF
330
70
100
AcDbEntity
  8
0
 62
    18
420
        0
370
    25
100
AcDbPolyline
 90
        3
 70
     0
 43
0.0
 10
178.5765079383007
 20
-9.778488220411286
 10
178.6547649224008
 20
-9.786465375211168
 10
179.0177064374008
 20
-9.768201452211576
  0
LINE
  5
1D0
330
70
100
AcDbEntity
  8
0
 62
    18
420
        0
370
    25
100
AcDbLine
 10
180.0853389378011
 20
-9.443869719911203
 30
0.0
 11
180.8560588060006
 21
-8.998942610510706
 31
0.0
  0
LINE
  5
1D1
330
70
100
AcDbEntity
  8
0
 62
    18
420
        0
370
    25
100
AcDbLine
 10
173.9816180543011
 20
2.909229276089369
 30
0.0
 11
173.2108981861015
 21
2.464302166788978
 31
0.0
  0
LINE
  5
1D2
330
70
100
AcDbEntity
  8
0
 62
    18
420
        0
370
    25
100
AcDbLine
 10
186.3265103255015
 20
-19.12736929091104
 30
0.0
 11
104.1644497655008
 21
-19.12736929091104
 31
0.0
  0
LINE
  5
1D3
330
70
100
AcDbEntity
  8
0
 62
    18
420
        0
370
    25
100
AcDbLine
 10
104.1644505886017
 20
-19.87736836611094
 30
0.0
 11
186.3265095024018
 21
-19.87736836611094
 31
0.0
  0
LINE
  5
1D4
330
70
100
AcDbEntity
  8
0
 62
    18
420
        0
370
    25
100
AcDbLine
 10
187.0765088438015
 20
-11.92817551881049
 30
0.0
 11
187.0765088438015
 21
-18.58375986071108
 31
0.0
  0
LINE
  5
1D5
330
70
100
AcDbEntity
  8
0
 62
    18
420
        0
370
    25
100
AcDbLine
 10
187.8265077943013
 20
-18.58375925481115
 30
0.0
 11
187.8265077943013
 21
-12.36114065771062
 31
0.0
  0
LINE
  5
1D6
330
70
100
AcDbEntity
  8
0
 62
    18
420
        0
370
    25
100
AcDbLine
 10
102.6644522967009
 20
-12.36114065771062
 30
0.0
 11
102.6644522967009
 21
-18.58375925481115
 31
0.0
  0
LINE
  5
1D7
330
70
100
AcDbEntity
  8
0
 62
    18
420
        0
370
    25
100
AcDbLine
 10
103.4144512472007
 20
-18.58375986071108
 30
0.0
 11
103.4144512472007
 21
-11.92817551881049
 31
0.0
  0
SPLINE
  5
1D8
330
70
100
AcDbEntity
  8
0
 62
    18
420
        0
370
    25
100
AcDbSpline
210
0.0
220
0.0
230
1.0
 70
     8
 71
     3
 72
    11
 73
     7
 74
     0
 42
0.0000000001
 43
0.0000000001
 40
0.0
 40
0.0
 40
0.0
 40
0.0
 40
1.0
 40
1.0
 40
1.0
 40
2.0
 40
2.0
 40
2.0
 40
2.0
 10
186.3265095023787
 20
-19.87736836608655
 30
0.0
 10
187.0968449647215
 20
-19.93530801901422
 30
0.0
 10
187.7682946119488
 20
-19.35779710977734
 30
0.0
 10
187.8262342648765
 20
-18.58746164743456
 30
0.0
 10
187.826327079082
 20
-18.58622763807906
 30
0.0
 10
187.8264182556331
 20
-18.58499350609617
 30
0.0
 10
187.8265077942898
 20
-18.58375925474698
 30
0.0
  0
SPLINE
  5
1D9
330
70
100
AcDbEntity
  8
0
 62
    18
420
        0
370
    25
100
AcDbSpline
210
0.0
220
0.0
230
1.0
 70
     8
 71
     3
 72
     8
 73
     4
 74
     0
 42
0.0000000001
 43
0.0000000001
 40
0.0
 40
0.0
 40
0.0
 40
0.0
 40
1.0
 40
1.0
 40
1.0
 40
1.0
 10
186.3265103255746
 20
-19.12736929095211
 30
0.0
 10
186.6820950738081
 20
-19.17764842632027
 30
0.0
 10
187.0136445687221
 20
-18.93733670885218
 30
0.0
 10
187.0765088438554
 20
-18.58375986071108
 30
0.0
  0
SPLINE
  5
1DA
330
70
100
AcDbEntity
  8
0
 62
    18
420
        0
370
    25
100
AcDbSpline
210
0.0
220
0.0
230
1.0
 70
     8
 71
     3
 72
     8
 73
     4
 74
     0
 42
0.0000000001
 43
0.0000000001
 40
0.0
 40
0.0
 40
0.0
 40
0.0
 40
1.0
 40
1.0
 40
1.0
 40
1.0
 10
102.6644522967804
 20
-18.58375925477008
 30
0.0
 10
102.7272307227558
 20
-19.3522654933707
 30
0.0
 10
103.3950623369931
 20
-19.92820818988809
 30
0.0
 10
104.1644505886928
 20
-19.87736836610965
 30
0.0
  0
SPLINE
  5
1DB
330
70
100
AcDbEntity
  8
0
 62
    18
420
        0
370
    25
100
AcDbSpline
210
0.0
220
0.0
230
1.0
 70
     8
 71
     3
 72
     8
 73
     4
 74
     0
 42
0.0000000001
 43
0.0000000001
 40
0.0
 40
0.0
 40
0.0
 40
0.0
 40
1.0
 40
1.0
 40
1.0
 40
1.0
 10
103.4144512471391
 20
-18.58375986068926
 30
0.0
 10
103.4832076866429
 20
-18.93360722136724
 30
0.0
 10
103.8105758874888
 20
-19.17088827833343
 30
0.0
 10
104.1644497654199
 20
-19.12736929093158
 30
0.0
  0
LINE
  5
1DC
330
70
100
AcDbEntity
  8
0
 62
    18
420
        0
370
    25
100
AcDbLine
 10
167.8265094199014
 20
-20.69565723851038
 30
0.0
 11
122.6644506711008
 21
-20.69565723851038
 31
0.0
  0
LINE
  5
1DD
330
70
100
AcDbEntity
  8
0
 62
    18
420
        0
370
    25
100
AcDbLine
 10
122.6644514943006
 20
-21.44565707421091
 30
0.0
 11
167.8265085967017
 21
-21.44565707421091
 31
0.0
  0
LINE
  5
1DE
330
70
100
AcDbEntity
  8
0
 62
    18
420
        0
370
    25
100
AcDbLine
 10
168.5765079382015
 20
-1.248352322410867
 30
0.0
 11
168.5765079382015
 21
-19.12736740881033
 31
0.0
  0
LINE
  5
1DF
330
70
100
AcDbEntity
  8
0
 62
    18
420
        0
370
    25
100
AcDbLine
 10
168.5765079382015
 20
-19.87736785151066
 30
0.0
 11
168.5765079382015
 21
-20.15204856881106
 31
0.0
  0
LINE
  5
1E0
330
70
100
AcDbEntity
  8
0
 62
    18
420
        0
370
    25
100
AcDbLine
 10
169.3265095228014
 20
-20.15204948361079
 30
0.0
 11
169.3265095228014
 21
-19.87736876631039
 31
0.0
  0
LINE
  5
1E1
330
70
100
AcDbEntity
  8
0
 62
    18
420
        0
370
    25
100
AcDbLine
 10
169.3265095228014
 20
-19.12736832361134
 30
0.0
 11
169.3265095228014
 21
-1.681318982010653
 31
0.0
  0
LINE
  5
1E2
330
70
100
AcDbEntity
  8
0
 62
    18
420
        0
370
    25
100
AcDbLine
 10
121.1644505682008
 20
-1.681318982010653
 30
0.0
 11
121.1644505682008
 21
-19.12736832361134
 31
0.0
  0
LINE
  5
1E3
330
70
100
AcDbEntity
  8
0
 62
    18
420
        0
370
    25
100
AcDbLine
 10
121.1644505682008
 20
-19.87736876631039
 30
0.0
 11
121.1644505682008
 21
-20.15204948361079
 31
0.0
  0
LINE
  5
1E4
330
70
100
AcDbEntity
  8
0
 62
    18
420
        0
370
    25
100
AcDbLine
 10
121.9144521528007
 20
-20.15204856881106
 30
0.0
 11
121.9144521528007
 21
-19.87736785151066
 31
0.0
  0
LINE
  5
1E5
330
70
100
AcDbEntity
  8
0
 62
    18
420
        0
370
    25
100
AcDbLine
 10
121.9144521528007
 20
-19.12736740881033
 30
0.0
 11
121.9144521528007
 21
-1.248352322410867
 31
0.0
  0
SPLINE
  5
1E6
330
70
100
AcDbEntity
  8
0
 62
    18
420
        0
370
    25
100
AcDbSpline
210
0.0
220
0.0
230
1.0
 70
     8
 71
     3
 72
    11
 73
     7
 74
     0
 42
0.0000000001
 43
0.0000000001
 40
0.0
 40
0.0
 40
0.0
 40
0.0
 40
1.0
 40
1.0
 40
1.0
 40
2.0
 40
2.0
 40
2.0
 40
2.0
 10
167.8265085967158
 20
-21.4456570741891
 30
0.0
 10
168.5968432519526
 20
-21.50359883290221
 30
0.0
 10
169.2682939519655
 20
-20.92609028503181
 30
0.0
 10
169.3262357106786
 20
-20.15575562979626
 30
0.0
 10
169.3263286224455
 20
-20.15452036949726
 30
0.0
 10
169.3264198932353
 20
-20.15328498631802
 30
0.0
 10
169.3265095228053
 20
-20.15204948352866
 30
0.0
  0
SPLINE
  5
1E7
330
70
100
AcDbEntity
  8
0
 62
    18
420
        0
370
    25
100
AcDbSpline
210
0.0
220
0.0
230
1.0
 70
     8
 71
     3
 72
     8
 73
     4
 74
     0
 42
0.0000000001
 43
0.0000000001
 40
0.0
 40
0.0
 40
0.0
 40
0.0
 40
1.0
 40
1.0
 40
1.0
 40
1.0
 10
167.8265094198911
 20
-20.69565723858097
 30
0.0
 10
168.1820952793561
 20
-20.74594188655713
 30
0.0
 10
168.5136480861161
 20
-20.50562810479585
 30
0.0
 10
168.576507938172
 20
-20.15204856880208
 30
0.0
  0
SPLINE
  5
1E8
330
70
100
AcDbEntity
  8
0
 62
    18
420
        0
370
    25
100
AcDbSpline
210
0.0
220
0.0
230
1.0
 70
     8
 71
     3
 72
     8
 73
     4
 74
     0
 42
0.0000000001
 43
0.0000000001
 40
0.0
 40
0.0
 40
0.0
 40
0.0
 40
1.0
 40
1.0
 40
1.0
 40
1.0
 10
121.1644505681648
 20
-20.15204948355048
 30
0.0
 10
121.2272273683623
 20
-20.92055742887931
 30
0.0
 10
121.895061940709
 20
-21.49650098802502
 30
0.0
 10
122.6644514942544
 20
-21.44565707421091
 30
0.0
  0
SPLINE
  5
1E9
330
70
100
AcDbEntity
  8
0
 62
    18
420
        0
370
    25
100
AcDbSpline
210
0.0
220
0.0
230
1.0
 70
     8
 71
     3
 72
     8
 73
     4
 74
     0
 42
0.0000000001
 43
0.0000000001
 40
0.0
 40
0.0
 40
0.0
 40
0.0
 40
1.0
 40
1.0
 40
1.0
 40
1.0
 10
121.9144521527879
 20
-20.15204856874689
 30
0.0
 10
121.9832048906533
 20
-20.50189820919931
 30
0.0
 10
122.310575836245
 20
-20.73918092365871
 30
0.0
 10
122.6644506710687
 20
-20.6956572385245
 30
0.0
  0
LINE
  5
1EA
330
70
100
AcDbEntity
  8
0
 62
    18
420
        0
370
    25
100
AcDbLine
 10
163.2015091935008
 20
-18.02570143941048
 30
0.0
 11
127.2894508975014
 21
-18.02570143941048
 31
0.0
  0
LINE
  5
1EB
330
70
100
AcDbEntity
  8
0
 62
    18
420
        0
370
    25
100
AcDbLine
 10
127.2894504036011
 20
-18.77570203551153
 30
0.0
 11
163.2015096874011
 21
-18.77570203551153
 31
0.0
  0
LINE
  5
1EC
330
70
100
AcDbEntity
  8
0
 62
    18
420
        0
370
    25
100
AcDbLine
 10
163.951509028901
 20
1.421602716288513
 30
0.0
 11
163.951509028901
 21
-17.48209353001157
 31
0.0
  0
LINE
  5
1ED
330
70
100
AcDbEntity
  8
0
 62
    18
420
        0
370
    25
100
AcDbLine
 10
164.7015092964008
 20
-17.48209368451088
 30
0.0
 11
164.7015092964008
 21
0.9886368170892547
 31
0.0
  0
LINE
  5
1EE
330
70
100
AcDbEntity
  8
0
 62
    18
420
        0
370
    25
100
AcDbLine
 10
125.7894507946014
 20
0.9886368170892547
 30
0.0
 11
125.7894507946014
 21
-17.48209368451088
 31
0.0
  0
LINE
  5
1EF
330
70
100
AcDbEntity
  8
0
 62
    18
420
        0
370
    25
100
AcDbLine
 10
126.5394510622013
 20
-17.48209353001157
 30
0.0
 11
126.5394510622013
 21
1.421602716288513
 31
0.0
  0
SPLINE
  5
1F0
330
70
100
AcDbEntity
  8
0
 62
    18
420
        0
370
    25
100
AcDbSpline
210
0.0
220
0.0
230
1.0
 70
     8
 71
     3
 72
    11
 73
     7
 74
     0
 42
0.0000000001
 43
0.0000000001
 40
0.0
 40
0.0
 40
0.0
 40
0.0
 40
1.0
 40
1.0
 40
1.0
 40
2.0
 40
2.0
 40
2.0
 40
2.0
 10
163.2015096874396
 20
-18.77570203549613
 30
0.0
 10
163.9718471614306
 20
-18.83364065843395
 30
0.0
 10
164.6432976044482
 20
-18.25612728346338
 30
0.0
 10
164.701236227386
 20
-17.4857898094724
 30
0.0
 10
164.7013288825939
 20
-17.48455788894225
 30
0.0
 10
164.7014199056917
 20
-17.48332584620308
 30
0.0
 10
164.7015092964406
 20
-17.48209368449548
 30
0.0
  0
SPLINE
  5
1F1
330
70
100
AcDbEntity
  8
0
 62
    18
420
        0
370
    25
100
AcDbSpline
210
0.0
220
0.0
230
1.0
 70
     8
 71
     3
 72
     8
 73
     4
 74
     0
 42
0.0000000001
 43
0.0000000001
 40
0.0
 40
0.0
 40
0.0
 40
0.0
 40
1.0
 40
1.0
 40
1.0
 40
1.0
 10
163.2015091934392
 20
-18.02570143943743
 30
0.0
 10
163.5570947809932
 20
-18.07598490357511
 30
0.0
 10
163.8886470762035
 20
-17.83567225073313
 30
0.0
 10
163.9515090288086
 20
-17.48209352999874
 30
0.0
  0
SPLINE
  5
1F2
330
70
100
AcDbEntity
  8
0
 62
    18
420
        0
370
    25
100
AcDbSpline
210
0.0
220
0.0
230
1.0
 70
     8
 71
     3
 72
     8
 73
     4
 74
     0
 42
0.0000000001
 43
0.0000000001
 40
0.0
 40
0.0
 40
0.0
 40
0.0
 40
1.0
 40
1.0
 40
1.0
 40
1.0
 10
125.7894507946104
 20
-17.48209368449805
 30
0.0
 10
125.8522286603915
 20
-18.25060064799784
 30
0.0
 10
126.5200615909216
 20
-18.82654363546285
 30
0.0
 10
127.2894504036114
 20
-18.77570203549613
 30
0.0
  0
SPLINE
  5
1F3
330
70
100
AcDbEntity
  8
0
 62
    18
420
        0
370
    25
100
AcDbSpline
210
0.0
220
0.0
230
1.0
 70
     8
 71
     3
 72
     8
 73
     4
 74
     0
 42
0.0000000001
 43
0.0000000001
 40
0.0
 40
0.0
 40
0.0
 40
0.0
 40
1.0
 40
1.0
 40
1.0
 40
1.0
 10
126.5394510621333
 20
-17.4820935299936
 30
0.0
 10
126.6082072621846
 20
-17.83194145289619
 30
0.0
 10
126.9355767481099
 20
-18.06922236079184
 30
0.0
 10
127.289450897504
 20
-18.0257014394323
 30
0.0
  0
LINE
  5
1F4
330
70
100
AcDbEntity
  8
0
 62
    18
420
        0
370
    25
100
AcDbLine
 10
159.3265088024015
 20
4.09155851538842
 30
0.0
 11
159.3265088024015
 21
-14.81213773091038
 31
0.0
  0
LINE
  5
1F5
330
70
100
AcDbEntity
  8
0
 62
    18
420
        0
370
    25
100
AcDbLine
 10
160.0765090700014
 20
-14.81213788541098
 30
0.0
 11
160.0765090700014
 21
3.658592616189162
 31
0.0
  0
LINE
  5
1F6
330
70
100
AcDbEntity
  8
0
 62
    18
420
        0
370
    25
100
AcDbLine
 10
130.4144510210008
 20
3.658592616189162
 30
0.0
 11
130.4144510210008
 21
-14.81213788541098
 31
0.0
  0
LINE
  5
1F7
330
70
100
AcDbEntity
  8
0
 62
    18
420
        0
370
    25
100
AcDbLine
 10
131.1644512886007
 20
-14.81213773091038
 30
0.0
 11
131.1644512886007
 21
4.09155851538842
 31
0.0
  0
LINE
  5
1F8
330
70
100
AcDbEntity
  8
0
 62
    18
420
        0
370
    25
100
AcDbLine
 10
158.5765089671014
 20
-15.35574564031057
 30
0.0
 11
131.9144511239008
 21
-15.35574564031057
 31
0.0
  0
LINE
  5
1F9
330
70
100
AcDbEntity
  8
0
 62
    18
420
        0
370
    25
100
AcDbLine
 10
131.9144506300018
 20
-16.10574623641034
 30
0.0
 11
158.5765094610017
 21
-16.10574623641034
 31
0.0
  0
SPLINE
  5
1FA
330
70
100
AcDbEntity
  8
0
 62
    18
420
        0
370
    25
100
AcDbSpline
210
0.0
220
0.0
230
1.0
 70
     8
 71
     3
 72
    11
 73
     7
 74
     0
 42
0.0000000001
 43
0.0000000001
 40
0.0
 40
0.0
 40
0.0
 40
0.0
 40
1.0
 40
1.0
 40
1.0
 40
2.0
 40
2.0
 40
2.0
 40
2.0
 10
158.5765094609376
 20
-16.10574623640649
 30
0.0
 10
159.3468441365086
 20
-16.16368727271921
 30
0.0
 10
160.0182942673845
 20
-15.58617812274389
 30
0.0
 10
160.0762353036972
 20
-14.81584344717418
 30
0.0
 10
160.0763281996514
 20
-14.81460838166805
 30
0.0
 10
160.0764194551468
 20
-14.81337319332276
 30
0.0
 10
160.0765090699398
 20
-14.81213788540584
 30
0.0
  0
SPLINE
  5
1FB
330
70
100
AcDbEntity
  8
0
 62
    18
420
        0
370
    25
100
AcDbSpline
210
0.0
220
0.0
230
1.0
 70
     8
 71
     3
 72
     8
 73
     4
 74
     0
 42
0.0000000001
 43
0.0000000001
 40
0.0
 40
0.0
 40
0.0
 40
0.0
 40
1.0
 40
1.0
 40
1.0
 40
1.0
 10
158.5765089670385
 20
-15.35574564033752
 30
0.0
 10
158.9320945545938
 20
-15.40602910447521
 30
0.0
 10
159.2636468498028
 20
-15.16571645163323
 30
0.0
 10
159.3265088024092
 20
-14.81213773089883
 30
0.0
  0
SPLINE
  5
1FC
330
70
100
AcDbEntity
  8
0
 62
    18
420
        0
370
    25
100
AcDbSpline
210
0.0
220
0.0
230
1.0
 70
     8
 71
     3
 72
     8
 73
     4
 74
     0
 42
0.0000000001
 43
0.0000000001
 40
0.0
 40
0.0
 40
0.0
 40
0.0
 40
1.0
 40
1.0
 40
1.0
 40
1.0
 10
130.4144510210098
 20
-14.81213788539814
 30
0.0
 10
130.4772288867921
 20
-15.58064484889793
 30
0.0
 10
131.145061817321
 20
-16.15658783636294
 30
0.0
 10
131.914450630012
 20
-16.10574623639622
 30
0.0
  0
SPLINE
  5
1FD
330
70
100
AcDbEntity
  8
0
 62
    18
420
        0
370
    25
100
AcDbSpline
210
0.0
220
0.0
230
1.0
 70
     8
 71
     3
 72
     8
 73
     4
 74
     0
 42
0.0000000001
 43
0.0000000001
 40
0.0
 40
0.0
 40
0.0
 40
0.0
 40
1.0
 40
1.0
 40
1.0
 40
1.0
 10
131.1644512885263
 20
-14.81213773089883
 30
0.0
 10
131.2332062266404
 20
-15.16198646059165
 30
0.0
 10
131.5605766004513
 20
-15.39926801203572
 30
0.0
 10
131.9144511238957
 20
-15.3557456403388
 30
0.0
  0
LINE
  5
1FE
330
70
100
AcDbEntity
  8
0
 62
    18
420
        0
370
    25
100
AcDbLine
 10
150.0765090082016
 20
9.431469733389256
 30
0.0
 11
150.0765090082016
 21
2.775885391588774
 31
0.0
  0
LINE
  5
1FF
330
70
100
AcDbEntity
  8
0
 62
    18
420
        0
370
    25
100
AcDbLine
 10
150.8265092757014
 20
2.775885237189568
 30
0.0
 11
150.8265092757014
 21
8.998503834188714
 31
0.0
  0
LINE
  5
200
330
70
100
AcDbEntity
  8
0
 62
    18
420
        0
370
    25
100
AcDbLine
 10
139.6644508153008
 20
8.998503834188714
 30
0.0
 11
139.6644508153008
 21
2.775885237189568
 31
0.0
  0
LINE
  5
201
330
70
100
AcDbEntity
  8
0
 62
    18
420
        0
370
    25
100
AcDbLine
 10
140.4144510828006
 20
2.775885391588774
 30
0.0
 11
140.4144510828006
 21
9.431469733389256
 31
0.0
  0
LINE
  5
202
330
70
100
AcDbEntity
  8
0
 62
    18
420
        0
370
    25
100
AcDbLine
 10
149.3265091728014
 20
2.232276721689238
 30
0.0
 11
141.1644509182008
 21
2.232276721689238
 31
0.0
  0
LINE
  5
203
330
70
100
AcDbEntity
  8
0
 62
    18
420
        0
370
    25
100
AcDbLine
 10
141.1644510828018
 20
1.482277266389185
 30
0.0
 11
149.3265090082017
 21
1.482277266389185
 31
0.0
  0
SPLINE
  5
204
330
70
100
AcDbEntity
  8
0
 62
    18
420
        0
370
    25
100
AcDbSpline
210
0.0
220
0.0
230
1.0
 70
     8
 71
     3
 72
    11
 73
     7
 74
     0
 42
0.0000000001
 43
0.0000000001
 40
0.0
 40
0.0
 40
0.0
 40
0.0
 40
1.0
 40
1.0
 40
1.0
 40
2.0
 40
2.0
 40
2.0
 40
2.0
 10
149.3265090081388
 20
1.482277266355816
 30
0.0
 10
150.0968456316373
 20
1.42433755751563
 30
0.0
 10
150.7682962654936
 20
2.001849362727355
 30
0.0
 10
150.8262359743338
 20
2.772185986225838
 30
0.0
 10
150.8263287097374
 20
2.77341894854411
 30
0.0
 10
150.8264198102677
 20
2.774652033281875
 30
0.0
 10
150.8265092756834
 20
2.775885237187002
 30
0.0
  0
SPLINE
  5
205
330
70
100
AcDbEntity
  8
0
 62
    18
420
        0
370
    25
100
AcDbSpline
210
0.0
220
0.0
230
1.0
 70
     8
 71
     3
 72
     8
 73
     4
 74
     0
 42
0.0000000001
 43
0.0000000001
 40
0.0
 40
0.0
 40
0.0
 40
0.0
 40
1.0
 40
1.0
 40
1.0
 40
1.0
 10
149.3265091727911
 20
2.232276721766242
 30
0.0
 10
149.6820946629481
 20
2.181994686752635
 30
0.0
 10
150.0136461977604
 20
2.422307124628004
 30
0.0
 10
150.0765090081605
 20
2.775885391668345
 30
0.0
  0
SPLINE
  5
206
330
70
100
AcDbEntity
  8
0
 62
    18
420
        0
370
    25
100
AcDbSpline
210
0.0
220
0.0
230
1.0
 70
     8
 71
     3
 72
     8
 73
     4
 74
     0
 42
0.0000000001
 43
0.0000000001
 40
0.0
 40
0.0
 40
0.0
 40
0.0
 40
1.0
 40
1.0
 40
1.0
 40
1.0
 10
139.6644508153072
 20
2.775885237170317
 30
0.0
 10
139.7272297138759
 20
2.007378578659815
 30
0.0
 10
140.3950624569209
 20
1.431436174998469
 30
0.0
 10
141.1644510828531
 20
1.482277266341699
 30
0.0
  0
SPLINE
  5
207
330
70
100
AcDbEntity
  8
0
 62
    18
420
        0
370
    25
100
AcDbSpline
210
0.0
220
0.0
230
1.0
 70
     8
 71
     3
 72
     8
 73
     4
 74
     0
 42
0.0000000001
 43
0.0000000001
 40
0.0
 40
0.0
 40
0.0
 40
0.0
 40
1.0
 40
1.0
 40
1.0
 40
1.0
 10
140.4144510828891
 20
2.775885391655511
 30
0.0
 10
140.4832078296269
 20
2.426037731499159
 30
0.0
 10
140.8105767905949
 20
2.188756872162162
 30
0.0
 10
141.1644509182585
 20
2.232276721753408
 30
0.0
  0
LINE
  5
208
330
70
100
AcDbEntity
  8
0
 62
    18
420
        0
370
    25
100
AcDbLine
 10
154.701509234601
 20
6.761513934289347
 30
0.0
 11
154.701509234601
 21
-12.14218231201074
 31
0.0
  0
LINE
  5
209
330
70
100
AcDbEntity
  8
0
 62
    18
420
        0
370
    25
100
AcDbLine
 10
155.4515088436008
 20
-12.14218208631107
 30
0.0
 11
155.4515088436008
 21
6.32854841528907
 31
0.0
  0
LINE
  5
20A
330
70
100
AcDbEntity
  8
0
 62
    18
420
        0
370
    25
100
AcDbLine
 10
135.0394512474014
 20
6.32854841528907
 30
0.0
 11
135.0394512474014
 21
-12.14218208631107
 31
0.0
  0
LINE
  5
20B
330
70
100
AcDbEntity
  8
0
 62
    18
420
        0
370
    25
100
AcDbLine
 10
135.7894508564012
 20
-12.14218231201074
 30
0.0
 11
135.7894508564012
 21
6.761513934289347
 31
0.0
  0
LINE
  5
20C
330
70
100
AcDbEntity
  8
0
 62
    18
420
        0
370
    25
100
AcDbLine
 10
153.9515087407008
 20
-12.68578984121066
 30
0.0
 11
136.5394513503014
 21
-12.68578984121066
 31
0.0
  0
LINE
  5
20D
330
70
100
AcDbEntity
  8
0
 62
    18
420
        0
370
    25
100
AcDbLine
 10
136.5394508564011
 20
-13.43579043731043
 30
0.0
 11
153.9515092346011
 21
-13.43579043731043
 31
0.0
  0
SPLINE
  5
20E
330
70
100
AcDbEntity
  8
0
 62
    18
420
        0
370
    25
100
AcDbSpline
210
0.0
220
0.0
230
1.0
 70
     8
 71
     3
 72
    11
 73
     7
 74
     0
 42
0.0000000001
 43
0.0000000001
 40
0.0
 40
0.0
 40
0.0
 40
0.0
 40
1.0
 40
1.0
 40
1.0
 40
2.0
 40
2.0
 40
2.0
 40
2.0
 10
153.9515092346049
 20
-13.43579043725653
 30
0.0
 10
154.721844954518
 20
-13.49373057292155
 30
0.0
 10
155.3932952018816
 20
-12.91621984621982
 30
0.0
 10
155.4512353375466
 20
-12.14588412630673
 30
0.0
 10
155.4513281436539
 20
-12.14465023447585
 30
0.0
 10
155.4514193124212
 20
-12.14341622003939
 30
0.0
 10
155.4515088436046
 20
-12.14218208625716
 30
0.0
  0
SPLINE
  5
20F
330
70
100
AcDbEntity
  8
0
 62
    18
420
        0
370
    25
100
AcDbSpline
210
0.0
220
0.0
230
1.0
 70
     8
 71
     3
 72
     8
 73
     4
 74
     0
 42
0.0000000001
 43
0.0000000001
 40
0.0
 40
0.0
 40
0.0
 40
0.0
 40
1.0
 40
1.0
 40
1.0
 40
1.0
 10
153.9515087406764
 20
-12.68578984124916
 30
0.0
 10
154.307094142814
 20
-12.73607251424509
 30
0.0
 10
154.6386460577715
 20
-12.49576051608372
 30
0.0
 10
154.7015092345894
 20
-12.14218231197994
 30
0.0
  0
SPLINE
  5
210
330
70
100
AcDbEntity
  8
0
 62
    18
420
        0
370
    25
100
AcDbSpline
210
0.0
220
0.0
230
1.0
 70
     8
 71
     3
 72
     8
 73
     4
 74
     0
 42
0.0000000001
 43
0.0000000001
 40
0.0
 40
0.0
 40
0.0
 40
0.0
 40
1.0
 40
1.0
 40
1.0
 40
1.0
 10
135.0394512474309
 20
-12.14218208624176
 30
0.0
 10
135.1022288059101
 20
-12.91068920596703
 30
0.0
 10
135.7700619343723
 20
-13.48663236413169
 30
0.0
 10
136.5394508564319
 20
-13.43579043724241
 30
0.0
  0
SPLINE
  5
211
330
70
100
AcDbEntity
  8
0
 62
    18
420
        0
370
    25
100
AcDbSpline
210
0.0
220
0.0
230
1.0
 70
     8
 71
     3
 72
     8
 73
     4
 74
     0
 42
0.0000000001
 43
0.0000000001
 40
0.0
 40
0.0
 40
0.0
 40
0.0
 40
1.0
 40
1.0
 40
1.0
 40
1.0
 10
135.7894508564474
 20
-12.14218231203512
 30
0.0
 10
135.8582060248584
 20
-12.49203114244389
 30
0.0
 10
136.1855767247807
 20
-12.72931255596758
 30
0.0
 10
136.5394513503605
 20
-12.68578984130435
 30
0.0
  0
LINE
  5
212
330
70
100
AcDbEntity
  8
0
 62
    18
420
        0
370
    25
100
AcDbLine
 10
181.7015100991008
 20
-28.7055246358114
 30
0.0
 11
108.7894499919014
 21
-28.7055246358114
 31
0.0
  0
LINE
  5
213
330
70
100
AcDbEntity
  8
0
 62
    18
420
        0
370
    25
100
AcDbLine
 10
108.7894508151012
 20
-29.45552447151064
 30
0.0
 11
181.701509275901
 21
-29.45552447151064
 31
0.0
  0
LINE
  5
214
330
70
100
AcDbEntity
  8
0
 62
    18
420
        0
370
    25
100
AcDbLine
 10
182.4515086174009
 20
-9.25821971971059
 30
0.0
 11
182.4515086174009
 21
-19.12736814721084
 31
0.0
  0
LINE
  5
215
330
70
100
AcDbEntity
  8
0
 62
    18
420
        0
370
    25
100
AcDbLine
 10
182.4515086174009
 20
-19.87736782951065
 30
0.0
 11
182.4515086174009
 21
-28.16191596611079
 31
0.0
  0
LINE
  5
216
330
70
100
AcDbEntity
  8
0
 62
    18
420
        0
370
    25
100
AcDbLine
 10
183.2015102020008
 20
-28.16191688091052
 30
0.0
 11
183.2015102020008
 21
-19.87736874431038
 31
0.0
  0
LINE
  5
217
330
70
100
AcDbEntity
  8
0
 62
    18
420
        0
370
    25
100
AcDbLine
 10
183.2015102020008
 20
-19.12736906201058
 30
0.0
 11
183.2015102020008
 21
-9.691186379310376
 31
0.0
  0
LINE
  5
218
330
70
100
AcDbEntity
  8
0
 62
    18
420
        0
370
    25
100
AcDbLine
 10
107.2894498890014
 20
-13.67177329921085
 30
0.0
 11
107.2894498890014
 21
-19.12736906201058
 31
0.0
  0
LINE
  5
219
330
70
100
AcDbEntity
  8
0
 62
    18
420
        0
370
    25
100
AcDbLine
 10
107.2894498890014
 20
-19.87736874431038
 30
0.0
 11
107.2894498890014
 21
-28.16191688091052
 31
0.0
  0
LINE
  5
21A
330
70
100
AcDbEntity
  8
0
 62
    18
420
        0
370
    25
100
AcDbLine
 10
108.0394514736013
 20
-28.16191596611079
 30
0.0
 11
108.0394514736013
 21
-19.87736782951065
 31
0.0
  0
LINE
  5
21B
330
70
100
AcDbEntity
  8
0
 62
    18
420
        0
370
    25
100
AcDbLine
 10
108.0394514736013
 20
-19.12736814721084
 30
0.0
 11
108.0394514736013
 21
-9.25821971971059
 31
0.0
  0
SPLINE
  5
21C
330
70
100
AcDbEntity
  8
0
 62
    18
420
        0
370
    25
100
AcDbSpline
210
0.0
220
0.0
230
1.0
 70
     8
 71
     3
 72
    11
 73
     7
 74
     0
 42
0.0000000001
 43
0.0000000001
 40
0.0
 40
0.0
 40
0.0
 40
0.0
 40
1.0
 40
1.0
 40
1.0
 40
2.0
 40
2.0
 40
2.0
 40
2.0
 10
181.7015092759408
 20
-29.45552447153117
 30
0.0
 10
182.4718478676098
 20
-29.51346283544717
 30
0.0
 10
183.1432990067053
 20
-28.93594834444134
 30
0.0
 10
183.2012373706213
 20
-28.16560975277233
 30
0.0
 10
183.2013299437405
 20
-28.16437891638758
 30
0.0
 10
183.2014208876244
 20
-28.16314795800942
 30
0.0
 10
183.2015102020316
 20
-28.16191688087073
 30
0.0
  0
SPLINE
  5
21D
330
70
100
AcDbEntity
  8
0
 62
    18
420
        0
370
    25
100
AcDbSpline
210
0.0
220
0.0
230
1.0
 70
     8
 71
     3
 72
     8
 73
     4
 74
     0
 42
0.0000000001
 43
0.0000000001
 40
0.0
 40
0.0
 40
0.0
 40
0.0
 40
1.0
 40
1.0
 40
1.0
 40
1.0
 10
181.7015100990918
 20
-28.7055246358807
 30
0.0
 10
182.0570959585568
 20
-28.75580928385686
 30
0.0
 10
182.3886487653168
 20
-28.51549550209558
 30
0.0
 10
182.4515086173714
 20
-28.1619159661018
 30
0.0
  0
SPLINE
  5
21E
330
70
100
AcDbEntity
  8
0
 62
    18
420
        0
370
    25
100
AcDbSpline
210
0.0
220
0.0
230
1.0
 70
     8
 71
     3
 72
     8
 73
     4
 74
     0
 42
0.0000000001
 43
0.0000000001
 40
0.0
 40
0.0
 40
0.0
 40
0.0
 40
1.0
 40
1.0
 40
1.0
 40
1.0
 10
107.2894498889654
 20
-28.16191688082325
 30
0.0
 10
107.3522312854375
 20
-28.93042248951156
 30
0.0
 10
108.0200628973172
 20
-29.50636349553699
 30
0.0
 10
108.7894508150563
 20
-29.45552447148369
 30
0.0
  0
SPLINE
  5
21F
330
70
100
AcDbEntity
  8
0
 62
    18
420
        0
370
    25
100
AcDbSpline
210
0.0
220
0.0
230
1.0
 70
     8
 71
     3
 72
     8
 73
     4
 74
     0
 42
0.0000000001
 43
0.0000000001
 40
0.0
 40
0.0
 40
0.0
 40
0.0
 40
1.0
 40
1.0
 40
1.0
 40
1.0
 10
108.0394514736193
 20
-28.16191596613004
 30
0.0
 10
108.1082067354257
 20
-28.51176399297375
 30
0.0
 10
108.4355759051974
 20
-28.74904542029397
 30
0.0
 10
108.7894499919001
 20
-28.70552463590893
 30
0.0
  0
LINE
  5
220
330
70
100
AcDbEntity
  8
0
 62
    18
420
        0
370
    25
100
AcDbLine
 10
177.0765098727014
 20
-26.03556883671148
 30
0.0
 11
113.4144502183008
 21
-26.03556883671148
 31
0.0
  0
LINE
  5
221
330
70
100
AcDbEntity
  8
0
 62
    18
420
        0
370
    25
100
AcDbLine
 10
113.4144510415005
 20
-26.78556867241073
 30
0.0
 11
177.0765090495016
 21
-26.78556867241073
 31
0.0
  0
LINE
  5
222
330
70
100
AcDbEntity
  8
0
 62
    18
420
        0
370
    25
100
AcDbLine
 10
177.8265083910015
 20
-6.588263920610682
 30
0.0
 11
177.8265083910015
 21
-19.12736790111156
 31
0.0
  0
LINE
  5
223
330
70
100
AcDbEntity
  8
0
 62
    18
420
        0
370
    25
100
AcDbLine
 10
177.8265083910015
 20
-19.87736834381061
 30
0.0
 11
177.8265083910015
 21
-25.49196016701088
 31
0.0
  0
LINE
  5
224
330
70
100
AcDbEntity
  8
0
 62
    18
420
        0
370
    25
100
AcDbLine
 10
178.5765099756014
 20
-25.49196108181061
 30
0.0
 11
178.5765099756014
 21
-19.87736925861035
 31
0.0
  0
LINE
  5
225
330
70
100
AcDbEntity
  8
0
 62
    18
420
        0
370
    25
100
AcDbLine
 10
178.5765099756014
 20
-19.12736881581119
 30
0.0
 11
178.5765099756014
 21
-7.021230580210469
 31
0.0
  0
LINE
  5
226
330
70
100
AcDbEntity
  8
0
 62
    18
420
        0
370
    25
100
AcDbLine
 10
111.9144501154007
 20
-7.021230580210469
 30
0.0
 11
111.9144501154007
 21
-19.12736881581119
 31
0.0
  0
LINE
  5
227
330
70
100
AcDbEntity
  8
0
 62
    18
420
        0
370
    25
100
AcDbLine
 10
111.9144501154007
 20
-19.87736925861035
 30
0.0
 11
111.9144501154007
 21
-25.49196108181061
 31
0.0
  0
LINE
  5
228
330
70
100
AcDbEntity
  8
0
 62
    18
420
        0
370
    25
100
AcDbLine
 10
112.6644517000007
 20
-25.49196016701088
 30
0.0
 11
112.6644517000007
 21
-19.87736834381061
 31
0.0
  0
LINE
  5
229
330
70
100
AcDbEntity
  8
0
 62
    18
420
        0
370
    25
100
AcDbLine
 10
112.6644517000007
 20
-19.12736790111156
 30
0.0
 11
112.6644517000007
 21
-6.588263920610682
 31
0.0
  0
SPLINE
  5
22A
330
70
100
AcDbEntity
  8
0
 62
    18
420
        0
370
    25
100
AcDbSpline
210
0.0
220
0.0
230
1.0
 70
     8
 71
     3
 72
    11
 73
     7
 74
     0
 42
0.0000000001
 43
0.0000000001
 40
0.0
 40
0.0
 40
0.0
 40
0.0
 40
1.0
 40
1.0
 40
1.0
 40
2.0
 40
2.0
 40
2.0
 40
2.0
 10
177.0765090495402
 20
-26.78556867243127
 30
0.0
 10
177.8468476412092
 20
-26.84350703634727
 30
0.0
 10
178.5182987803059
 20
-26.26599254534143
 30
0.0
 10
178.5762371442219
 20
-25.49565395367114
 30
0.0
 10
178.5763297173411
 20
-25.49442311728767
 30
0.0
 10
178.5764206612237
 20
-25.49319215890951
 30
0.0
 10
178.576509975631
 20
-25.49196108177083
 30
0.0
  0
SPLINE
  5
22B
330
70
100
AcDbEntity
  8
0
 62
    18
420
        0
370
    25
100
AcDbSpline
210
0.0
220
0.0
230
1.0
 70
     8
 71
     3
 72
     8
 73
     4
 74
     0
 42
0.0000000001
 43
0.0000000001
 40
0.0
 40
0.0
 40
0.0
 40
0.0
 40
1.0
 40
1.0
 40
1.0
 40
1.0
 10
177.0765098726912
 20
-26.03556883678079
 30
0.0
 10
177.4320957321562
 20
-26.08585348475695
 30
0.0
 10
177.7636485389161
 20
-25.84553970299567
 30
0.0
 10
177.826508390972
 20
-25.49196016700189
 30
0.0
  0
SPLINE
  5
22C
330
70
100
AcDbEntity
  8
0
 62
    18
420
        0
370
    25
100
AcDbSpline
210
0.0
220
0.0
230
1.0
 70
     8
 71
     3
 72
     8
 73
     4
 74
     0
 42
0.0000000001
 43
0.0000000001
 40
0.0
 40
0.0
 40
0.0
 40
0.0
 40
1.0
 40
1.0
 40
1.0
 40
1.0
 10
111.9144501153841
 20
-25.49196108176826
 30
0.0
 10
111.9772281447907
 20
-26.26046840219517
 30
0.0
 10
112.6450619254001
 20
-26.8364112785423
 30
0.0
 10
113.4144510414736
 20
-26.78556867242742
 30
0.0
  0
SPLINE
  5
22D
330
70
100
AcDbEntity
  8
0
 62
    18
420
        0
370
    25
100
AcDbSpline
210
0.0
220
0.0
230
1.0
 70
     8
 71
     3
 72
     8
 73
     4
 74
     0
 42
0.0000000001
 43
0.0000000001
 40
0.0
 40
0.0
 40
0.0
 40
0.0
 40
1.0
 40
1.0
 40
1.0
 40
1.0
 10
112.6644517000187
 20
-25.49196016703012
 30
0.0
 10
112.7332069618264
 20
-25.84180819387384
 30
0.0
 10
113.0605761315981
 20
-26.07908962119406
 30
0.0
 10
113.4144502182995
 20
-26.03556883680902
 30
0.0
  0
LINE
  5
22E
330
70
100
AcDbEntity
  8
0
 62
    18
420
        0
370
    25
100
AcDbLine
 10
172.4515096463008
 20
-23.36561303761158
 30
0.0
 11
118.0394504447014
 21
-23.36561303761158
 31
0.0
  0
LINE
  5
22F
330
70
100
AcDbEntity
  8
0
 62
    18
420
        0
370
    25
100
AcDbLine
 10
118.0394512679012
 20
-24.11561287331082
 30
0.0
 11
172.451508823101
 21
-24.11561287331082
 31
0.0
  0
LINE
  5
230
330
70
100
AcDbEntity
  8
0
 62
    18
420
        0
370
    25
100
AcDbLine
 10
173.2015081646009
 20
-3.918308121510774
 30
0.0
 11
173.2015081646009
 21
-19.12736841541152
 31
0.0
  0
LINE
  5
231
330
70
100
AcDbEntity
  8
0
 62
    18
420
        0
370
    25
100
AcDbLine
 10
173.2015081646009
 20
-19.8773673372107
 30
0.0
 11
173.2015081646009
 21
-22.82200436791097
 31
0.0
  0
LINE
  5
232
330
70
100
AcDbEntity
  8
0
 62
    18
420
        0
370
    25
100
AcDbLine
 10
173.9515097492008
 20
-22.8220052827107
 30
0.0
 11
173.9515097492008
 21
-19.87736825201043
 31
0.0
  0
LINE
  5
233
330
70
100
AcDbEntity
  8
0
 62
    18
420
        0
370
    25
100
AcDbLine
 10
173.9515097492008
 20
-19.12736933021126
 30
0.0
 11
173.9515097492008
 21
-4.351274781110561
 31
0.0
  0
LINE
  5
234
330
70
100
AcDbEntity
  8
0
 62
    18
420
        0
370
    25
100
AcDbLine
 10
116.5394503418014
 20
-4.351274781110561
 30
0.0
 11
116.5394503418014
 21
-19.12736933021126
 31
0.0
  0
LINE
  5
235
330
70
100
AcDbEntity
  8
0
 62
    18
420
        0
370
    25
100
AcDbLine
 10
116.5394503418014
 20
-19.87736825201043
 30
0.0
 11
116.5394503418014
 21
-22.8220052827107
 31
0.0
  0
LINE
  5
236
330
70
100
AcDbEntity
  8
0
 62
    18
420
        0
370
    25
100
AcDbLine
 10
117.2894519264013
 20
-22.82200436791097
 30
0.0
 11
117.2894519264013
 21
-19.8773673372107
 31
0.0
  0
LINE
  5
237
330
70
100
AcDbEntity
  8
0
 62
    18
420
        0
370
    25
100
AcDbLine
 10
117.2894519264013
 20
-19.12736841541152
 30
0.0
 11
117.2894519264013
 21
-3.918308121510774
 31
0.0
  0
SPLINE
  5
238
330
70
100
AcDbEntity
  8
0
 62
    18
420
        0
370
    25
100
AcDbSpline
210
0.0
220
0.0
230
1.0
 70
     8
 71
     3
 72
    11
 73
     7
 74
     0
 42
0.0000000001
 43
0.0000000001
 40
0.0
 40
0.0
 40
0.0
 40
0.0
 40
1.0
 40
1.0
 40
1.0
 40
2.0
 40
2.0
 40
2.0
 40
2.0
 10
172.4515088231164
 20
-24.115612873289
 30
0.0
 10
173.221843478352
 20
-24.17355463200212
 30
0.0
 10
173.8932941783662
 20
-23.59604608413172
 30
0.0
 10
173.9512359370793
 20
-22.82571142889617
 30
0.0
 10
173.9513288488462
 20
-22.82447616859716
 30
0.0
 10
173.9514201196359
 20
-22.82324078541793
 30
0.0
 10
173.9515097492059
 20
-22.82200528262857
 30
0.0
  0
SPLINE
  5
239
330
70
100
AcDbEntity
  8
0
 62
    18
420
        0
370
    25
100
AcDbSpline
210
0.0
220
0.0
230
1.0
 70
     8
 71
     3
 72
     8
 73
     4
 74
     0
 42
0.0000000001
 43
0.0000000001
 40
0.0
 40
0.0
 40
0.0
 40
0.0
 40
1.0
 40
1.0
 40
1.0
 40
1.0
 10
172.4515096462918
 20
-23.36561303768088
 30
0.0
 10
172.8070955057568
 20
-23.41589768565704
 30
0.0
 10
173.1386483125167
 20
-23.17558390389576
 30
0.0
 10
173.2015081645714
 20
-22.82200436790198
 30
0.0
  0
SPLINE
  5
23A
330
70
100
AcDbEntity
  8
0
 62
    18
420
        0
370
    25
100
AcDbSpline
210
0.0
220
0.0
230
1.0
 70
     8
 71
     3
 72
     8
 73
     4
 74
     0
 42
0.0000000001
 43
0.0000000001
 40
0.0
 40
0.0
 40
0.0
 40
0.0
 40
1.0
 40
1.0
 40
1.0
 40
1.0
 10
116.5394503417834
 20
-22.82200528266706
 30
0.0
 10
116.6022283711914
 20
-23.59051260309526
 30
0.0
 10
117.2700621518007
 20
-24.16645547944239
 30
0.0
 10
118.039451267873
 20
-24.1156128733275
 30
0.0
  0
SPLINE
  5
23B
330
70
100
AcDbEntity
  8
0
 62
    18
420
        0
370
    25
100
AcDbSpline
210
0.0
220
0.0
230
1.0
 70
     8
 71
     3
 72
     8
 73
     4
 74
     0
 42
0.0000000001
 43
0.0000000001
 40
0.0
 40
0.0
 40
0.0
 40
0.0
 40
1.0
 40
1.0
 40
1.0
 40
1.0
 10
117.2894519263885
 20
-22.8220043678468
 30
0.0
 10
117.3582046642527
 20
-23.17185400829922
 30
0.0
 10
117.6855756098444
 20
-23.40913672275862
 30
0.0
 10
118.0394504446693
 20
-23.36561303762441
 30
0.0
  0
SPLINE
  5
23C
330
70
100
AcDbEntity
  8
0
 62
    18
420
        0
370
    25
100
AcDbSpline
210
0.0
220
0.0
230
1.0
 70
     8
 71
     3
 72
     8
 73
     4
 74
     0
 42
0.0000000001
 43
0.0000000001
 40
0.0
 40
0.0
 40
0.0
 40
0.0
 40
1.0
 40
1.0
 40
1.0
 40
1.0
 10
153.9028015128999
 20
12.3399422753176
 30
0.0
 10
153.5457619905637
 20
11.83294841780406
 30
0.0
 10
153.3348434657421
 20
11.23762302824824
 30
0.0
 10
153.2930639609915
 20
10.61893533235519
 30
0.0
  0
SPLINE
  5
23D
330
70
100
AcDbEntity
  8
0
 62
    18
420
        0
370
    25
100
AcDbSpline
210
0.0
220
0.0
230
1.0
 70
     8
 71
     3
 72
     8
 73
     4
 74
     0
 42
0.0000000001
 43
0.0000000001
 40
0.0
 40
0.0
 40
0.0
 40
0.0
 40
1.0
 40
1.0
 40
1.0
 40
1.0
 10
153.666695824503
 20
7.35889903603992
 30
0.0
 10
153.9099450841239
 20
6.545235224924367
 30
0.0
 10
154.2577892056917
 20
5.76659048167963
 30
0.0
 10
154.7015088847171
 20
5.042482861038742
 30
0.0
  0
LWPOLYLINE
  5
23E
330
70
100
AcDbEntity
  8
0
 62
    18
420
        0
370
    25
100
AcDbPolyline
 90
       10
 70
     0
 43
0.0
 10
155.4515092243016
 20
3.928378569488852
 10
155.5124472596008
 20
3.844176085088554
 10
155.9703412614017
 20
3.291222741789416
 10
156.4535887329008
 20
2.782348920988952
 10
156.9569633825016
 20
2.323394030788854
 10
157.4750829877007
 20
1.919710839688572
 10
158.0024609467016
 20
1.576142390589664
 10
158.5335240589015
 20
1.297021239088765
 10
159.0625712430012
 20
1.086170328589521
 10
159.3265086790015
 20
1.015600129089115
  0
SPLINE
  5
23F
330
70
100
AcDbEntity
  8
0
 62
    18
420
        0
370
    25
100
AcDbSpline
210
0.0
220
0.0
230
1.0
 70
     8
 71
     3
 72
     8
 73
     4
 74
     0
 42
0.0000000001
 43
0.0000000001
 40
0.0
 40
0.0
 40
0.0
 40
0.0
 40
1.0
 40
1.0
 40
1.0
 40
1.0
 10
160.0765097285271
 20
0.8833753864175193
 30
0.0
 10
160.2442055352631
 20
0.859815627939578
 30
0.0
 10
160.4145844117371
 20
0.8631302085292798
 30
0.0
 10
160.581237007961
 20
0.893194439567987
 30
0.0
  0
LINE
  5
240
330
70
100
AcDbEntity
  8
0
 62
    18
420
        0
370
    25
100
AcDbLine
 10
161.6121750379013
 20
1.220460802889324
 30
0.0
 11
162.3828949061008
 21
1.665387912188432
 31
0.0
  0
LINE
  5
241
330
70
100
AcDbEntity
  8
0
 62
    18
420
        0
370
    25
100
AcDbLine
 10
155.5084534959013
 20
13.57356017898877
 30
0.0
 11
154.7377336277005
 21
13.12863306968966
 31
0.0
  0
SPLINE
  5
242
330
70
100
AcDbEntity
  8
0
 62
    18
420
        0
370
    25
100
AcDbSpline
210
0.0
220
0.0
230
1.0
 70
     8
 71
     3
 72
     8
 73
     4
 74
     0
 42
0.0000000001
 43
0.0000000001
 40
0.0
 40
0.0
 40
0.0
 40
0.0
 40
1.0
 40
1.0
 40
1.0
 40
1.0
 10
104.5243452065112
 20
-15.19587896490794
 30
0.0
 10
104.5630177594446
 20
-15.21820415451118
 30
0.0
 10
104.6106624951582
 20
-15.21820415451118
 30
0.0
 10
104.6493350480904
 20
-15.19587896490923
 30
0.0
  0
SPLINE
  5
243
330
70
100
AcDbEntity
  8
0
 62
    18
420
        0
370
    25
100
AcDbSpline
210
0.0
220
0.0
230
1.0
 70
     8
 71
     3
 72
     8
 73
     4
 74
     0
 42
0.0000000001
 43
0.0000000001
 40
0.0
 40
0.0
 40
0.0
 40
0.0
 40
1.0
 40
1.0
 40
1.0
 40
1.0
 10
107.7170439473007
 20
-9.882457168911077
 30
0.0
 10
107.7170439473007
 20
-9.837796874843547
 30
0.0
 10
107.6932168649613
 20
-9.796529393435458
 30
0.0
 10
107.6545388680906
 20
-9.774201061113743
 30
0.0
  0
LINE
  5
244
330
70
100
AcDbEntity
  8
0
 62
    18
420
        0
370
    25
100
AcDbLine
 10
104.6493359221012
 20
-15.19587826671115
 30
0.0
 11
107.6545379298008
 21
-13.46101207531069
 31
0.0
  0
LINE
  5
245
330
70
100
AcDbEntity
  8
0
 62
    18
420
        0
370
    25
100
AcDbLine
 10
103.4144509436013
 20
-14.55515054281063
 30
0.0
 11
104.5243451623006
 21
-15.1958788369108
 31
0.0
  0
LINE
  5
246
330
70
100
AcDbEntity
  8
0
 62
    18
420
        0
370
    25
100
AcDbLine
 10
107.7170441757007
 20
-13.35275568561112
 30
0.0
 11
107.7170441757007
 21
-9.882457046510836
 31
0.0
  0
LINE
  5
247
330
70
100
AcDbEntity
  8
0
 62
    18
420
        0
370
    25
100
AcDbLine
 10
107.6545389176015
 20
-9.774201036911421
 30
0.0
 11
107.4000937833013
 21
-9.627312987510906
 31
0.0
  0
SPLINE
  5
248
330
70
100
AcDbEntity
  8
0
 62
    18
420
        0
370
    25
100
AcDbSpline
210
0.0
220
0.0
230
1.0
 70
     8
 71
     3
 72
     8
 73
     4
 74
     0
 42
0.0000000001
 43
0.0000000001
 40
0.0
 40
0.0
 40
0.0
 40
0.0
 40
1.0
 40
1.0
 40
1.0
 40
1.0
 10
107.6545388680906
 20
-13.46101172720822
 30
0.0
 10
107.6932168649613
 20
-13.4386833948865
 30
0.0
 10
107.7170439473007
 20
-13.39741591347841
 30
0.0
 10
107.7170439473007
 20
-13.35275561941088
 30
0.0
  0
LINE
  5
249
330
70
100
AcDbEntity
  8
0
 62
    18
420
        0
370
    25
100
AcDbLine
 10
189.2478362023015
 20
-10.13731287181037
 30
0.0
 11
147.8712369884006
 21
13.74888942228863
 31
0.0
  0
LINE
  5
24A
330
70
100
AcDbEntity
  8
0
 62
    18
420
        0
370
    25
100
AcDbLine
 10
142.6197231026016
 20
13.74888942228863
 30
0.0
 11
101.2430896444007
 21
-10.13733264071097
 31
0.0
  0
LINE
  5
24B
330
70
100
AcDbEntity
  8
0
 62
    18
420
        0
370
    25
100
AcDbLine
 10
146.9507519906016
 20
11.2359308464896
 30
0.0
 11
188.3273512046013
 21
-12.65027144761069
 31
0.0
  0
LINE
  5
24C
330
70
100
AcDbEntity
  8
0
 62
    18
420
        0
370
    25
100
AcDbLine
 10
102.1635746421008
 20
-12.65029121641118
 30
0.0
 11
143.5402081004006
 21
11.2359308464896
 31
0.0
  0
SPLINE
  5
24D
330
70
100
AcDbEntity
  8
0
 62
    18
420
        0
370
    25
100
AcDbSpline
210
0.0
220
0.0
230
1.0
 70
     8
 71
     3
 72
     8
 73
     4
 74
     0
 42
0.0000000001
 43
0.0000000001
 40
0.0
 40
0.0
 40
0.0
 40
0.0
 40
1.0
 40
1.0
 40
1.0
 40
1.0
 10
146.9347999229866
 20
14.13657325229548
 30
0.0
 10
146.6326241767852
 20
14.23711144479633
 30
0.0
 10
146.3195406744288
 20
14.30126898004363
 30
0.0
 10
146.0021762907181
 20
14.32768786903545
 30
0.0
  0
SPLINE
  5
24E
330
70
100
AcDbEntity
  8
0
 62
    18
420
        0
370
    25
100
AcDbSpline
210
0.0
220
0.0
230
1.0
 70
     8
 71
     3
 72
     8
 73
     4
 74
     0
 42
0.0000000001
 43
0.0000000001
 40
0.0
 40
0.0
 40
0.0
 40
0.0
 40
1.0
 40
1.0
 40
1.0
 40
1.0
 10
147.8712369883711
 20
13.74888942220906
 30
0.0
 10
147.5774880792708
 20
13.91871508915312
 30
0.0
 10
147.2626287542524
 20
14.04906647480374
 30
0.0
 10
146.9347999229276
 20
14.13657325227238
 30
0.0
  0
LINE
  5
24F
330
70
100
AcDbEntity
  8
0
 62
    18
420
        0
370
    25
100
AcDbLine
 10
146.9228304444009
 20
11.25128481108914
 30
0.0
 11
146.9507519906016
 21
11.2359308464896
 31
0.0
  0
LINE
  5
250
330
70
100
AcDbEntity
  8
0
 62
    18
420
        0
370
    25
100
AcDbLine
 10
143.5402081004006
 20
11.2359308464896
 30
0.0
 11
143.6820365261006
 21
11.31050763968918
 31
0.0
  0
SPLINE
  5
251
330
70
100
AcDbEntity
  8
0
 62
    18
420
        0
370
    25
100
AcDbSpline
210
0.0
220
0.0
230
1.0
 70
     8
 71
     3
 72
     8
 73
     4
 74
     0
 42
0.0000000001
 43
0.0000000001
 40
0.0
 40
0.0
 40
0.0
 40
0.0
 40
1.0
 40
1.0
 40
1.0
 40
1.0
 10
174.1776625972691
 20
2.771192128930573
 30
0.0
 10
173.4798273133718
 20
2.702287291578948
 30
0.0
 10
172.8469242432855
 20
2.331944210852988
 30
0.0
 10
172.4450056549886
 20
1.757328331813343
 30
0.0
  0
SPLINE
  5
252
330
70
100
AcDbEntity
  8
0
 62
    18
420
        0
370
    25
100
AcDbSpline
210
0.0
220
0.0
230
1.0
 70
     8
 71
     3
 72
     8
 73
     4
 74
     0
 42
0.0000000001
 43
0.0000000001
 40
0.0
 40
0.0
 40
0.0
 40
0.0
 40
1.0
 40
1.0
 40
1.0
 40
1.0
 10
179.0858053519383
 20
-9.753972670743591
 30
0.0
 10
179.8089476007753
 20
-9.694005670017677
 30
0.0
 10
180.4658206867813
 20
-9.309157377219754
 30
0.0
 10
180.8716911297099
 20
-8.707659300093425
 30
0.0
  0
LWPOLYLINE
  5
253
330
70
100
AcDbEntity
  8
0
 62
    18
420
        0
370
    25
100
AcDbPolyline
 90
       22
 70
     0
 43
0.0
 10
182.2801981830009
 20
-5.851259916511396
 10
182.2485090213011
 20
-5.193050508411205
 10
182.1538603704005
 20
-4.506837638711146
 10
181.9974823915008
 20
-3.801564996111423
 10
181.7814139385017
 20
-3.086426956010845
 10
181.5084735817007
 20
-2.370747669711606
 10
181.182220095701
 20
-1.663857302610417
 10
180.8069024097017
 20
-0.9749686542108392
 10
180.3874174607009
 20
-0.3130649933112189
 10
179.9292311680009
 20
0.3132263612890922
 10
179.4383204816014
 20
0.8957385988885542
 10
178.9210811858008
 20
1.426880238388562
 10
178.3842594105008
 20
1.89972485628854
 10
177.8348488984008
 20
2.308111078088622
 10
177.2800172478012
 20
2.646711773288724
 10
176.7269952776017
 20
2.911114273989095
 10
176.1829927330012
 20
3.097871698288799
 10
175.655100821201
 20
3.204549328988808
 10
175.1502000153006
 20
3.22975768558876
 10
174.6748783945013
 20
3.173164303689272
 10
174.2353262772012
 20
3.035510834989231
 10
173.9816180543011
 20
2.909229276089369
  0
LWPOLYLINE
  5
254
330
70
100
AcDbEntity
  8
0
 62
    18
420
        0
370
    25
100
AcDbPolyline
 90
        3
 70
     0
 43
0.0
 10
180.8560588060006
 20
-8.998942610510706
 10
181.182220095701
 20
-8.770964014610642
 10
181.346463730201
 20
-8.620291018310748
  0
LINE
  5
255
330
70
100
AcDbEntity
  8
0
 62
    18
420
        0
370
    25
100
AcDbLine
 10
182.2748297282005
 20
-6.111881889710357
 30
0.0
 11
182.2801981830009
 21
-5.851259916511396
 31
0.0
  0
LWPOLYLINE
  5
256
330
70
100
AcDbEntity
  8
0
 62
    18
420
        0
370
    25
100
AcDbPolyline
 90
        9
 70
     0
 43
0.0
 10
177.2863936993014
 20
-2.947627726710911
 10
177.286376548701
 20
-2.949261786110615
 10
177.2863594206012
 20
-2.950895927710682
 10
177.2863423148016
 20
-2.952529961211412
 10
177.2863252314012
 20
-2.95416398191153
 10
177.2863081704013
 20
-2.955798084710623
 10
177.2862911318004
 20
-2.957432079510485
 10
177.2862741155013
 20
-2.959066061410912
 10
177.2862571217013
 20
-2.960700125410314
  0
SPLINE
  5
257
330
70
100
AcDbEntity
  8
0
 62
    18
420
        0
370
    25
100
AcDbSpline
210
0.0
220
0.0
230
1.0
 70
     8
 71
     3
 72
     8
 73
     4
 74
     0
 42
0.0000000001
 43
0.0000000001
 40
0.0
 40
0.0
 40
0.0
 40
0.0
 40
1.0
 40
1.0
 40
1.0
 40
1.0
 10
177.2863936992372
 20
-2.947627726722462
 30
0.0
 10
177.2847084599384
 20
-2.884959430533863
 30
0.0
 10
177.2515700615596
 20
-2.827355476159755
 30
0.0
 10
177.1982425351742
 20
-2.794395950856964
 30
0.0
  0
LWPOLYLINE
  5
258
330
70
100
AcDbEntity
  8
0
 62
    18
420
        0
370
    25
100
AcDbPolyline
 90
        9
 70
     0
 43
0.0
 10
177.1573957665014
 20
-2.7712488761105
 10
177.1625019162006
 20
-2.774143605910441
 10
177.1676057212008
 20
-2.777036647810896
 10
177.1727124500013
 20
-2.779931043311305
 10
177.1778168342016
 20
-2.782823750910945
 10
177.1829241422009
 20
-2.785717811910329
 10
177.1880291056014
 20
-2.788610185210438
 10
177.1931369927007
 20
-2.791503911911573
 10
177.1982425352012
 20
-2.794395950810762
  0
LWPOLYLINE
  5
259
330
70
100
AcDbEntity
  8
0
 62
    18
420
        0
370
    25
100
AcDbPolyline
 90
        9
 70
     0
 43
0.0
 10
177.1573957665014
 20
-2.7712488761105
 10
176.9738804856015
 20
-2.542413153910812
 10
176.7765094282007
 20
-2.338661174510695
 10
176.5697238185014
 20
-2.164577827010468
 10
176.3581782491008
 20
-2.024081055010742
 10
176.1466326797014
 20
-1.920332511511453
 10
175.9398497042011
 20
-1.855667796611049
 10
175.7424760127014
 20
-1.831538483110525
 10
175.5589607317014
 20
-1.848491972010976
  0
LWPOLYLINE
  5
25A
330
70
100
AcDbEntity
  8
0
 62
    18
420
        0
370
    25
100
AcDbPolyline
 90
        9
 70
     0
 43
0.0
 10
175.5188644778015
 20
-1.824911634311577
 10
175.5238741789017
 20
-1.827859001310486
 10
175.5288868038009
 20
-1.830807721810526
 10
175.5338970841012
 20
-1.833754754411082
 10
175.5389102881017
 20
-1.836703140511486
 10
175.5439211475008
 20
-1.839649838811226
 10
175.5489349307014
 20
-1.842597890610815
 10
175.5539463693006
 20
-1.845544254510919
 10
175.5589607317014
 20
-1.848491972010976
  0
LWPOLYLINE
  5
25B
330
70
100
AcDbEntity
  8
0
 62
    18
420
        0
370
    25
100
AcDbPolyline
 90
        6
 70
     0
 43
0.0
 10
175.4302385883018
 20
-1.876092189410846
 10
175.4355294509013
 20
-1.845005386910921
 10
175.4500947547015
 20
-1.82322975141055
 10
175.4722915336006
 20
-1.813222239610975
 10
175.4996139445013
 20
-1.816107287110574
 10
175.5188644778015
 20
-1.824911634311577
  0
LWPOLYLINE
  5
25C
330
70
100
AcDbEntity
  8
0
 62
    18
420
        0
370
    25
100
AcDbPolyline
 90
        9
 70
     0
 43
0.0
 10
175.4301020107017
 20
-1.889164588111533
 10
175.4301190046018
 20
-1.887530524110847
 10
175.4301360208009
 20
-1.885896542210419
 10
175.4301530594017
 20
-1.884262547410558
 10
175.4301701205017
 20
-1.882628444611465
 10
175.4301872038007
 20
-1.880994424011452
 10
175.4302043096015
 20
-1.879360390410617
 10
175.4302214378015
 20
-1.877726248810549
 10
175.4302385883005
 20
-1.876092189410846
  0
SPLINE
  5
25D
330
70
100
AcDbEntity
  8
0
 62
    18
420
        0
370
    25
100
AcDbSpline
210
0.0
220
0.0
230
1.0
 70
     8
 71
     3
 72
    11
 73
     7
 74
     0
 42
0.0000000001
 43
0.0000000001
 40
0.0
 40
0.0
 40
0.0
 40
0.0
 40
1.0
 40
1.0
 40
1.0
 40
2.0
 40
2.0
 40
2.0
 40
2.0
 10
177.1978672777833
 20
-3.121228922536474
 30
0.0
 10
177.2212302397482
 20
-3.140285062143877
 30
0.0
 10
177.2556177159171
 20
-3.136793692793746
 30
0.0
 10
177.2746738555257
 20
-3.113430730828762
 30
0.0
 10
177.2845396041605
 20
-3.101335253210749
 30
0.0
 10
177.2887558157389
 20
-3.085595144110745
 30
0.0
 10
177.2862571216449
 20
-3.0701876750547
 30
0.0
  0
LINE
  5
25E
330
70
100
AcDbEntity
  8
0
 62
    18
420
        0
370
    25
100
AcDbLine
 10
177.2862571217013
 20
-3.070187675111169
 30
0.0
 11
177.2862571217013
 21
-2.960700125410314
 31
0.0
  0
LINE
  5
25F
330
70
100
AcDbEntity
  8
0
 62
    18
420
        0
370
    25
100
AcDbLine
 10
175.4301020107017
 20
-1.998652137811104
 30
0.0
 11
175.4301020107017
 21
-1.889164588111533
 31
0.0
  0
SPLINE
  5
260
330
70
100
AcDbEntity
  8
0
 62
    18
420
        0
370
    25
100
AcDbSpline
210
0.0
220
0.0
230
1.0
 70
     8
 71
     3
 72
     8
 73
     4
 74
     0
 42
0.0000000001
 43
0.0000000001
 40
0.0
 40
0.0
 40
0.0
 40
0.0
 40
1.0
 40
1.0
 40
1.0
 40
1.0
 10
175.4301020107659
 20
-1.99865213778287
 30
0.0
 10
175.4329386491676
 20
-2.061013277848517
 30
0.0
 10
175.4659014612888
 20
-2.118107039343341
 30
0.0
 10
175.518489220449
 20
-2.151744606055257
 30
0.0
  0
LINE
  5
261
330
70
100
AcDbEntity
  8
0
 62
    18
420
        0
370
    25
100
AcDbLine
 10
175.5184892204016
 20
-2.151744606110443
 30
0.0
 11
177.1978672778012
 21
-3.121228922610912
 31
0.0
  0
LINE
  5
262
330
70
100
AcDbEntity
  8
0
 62
    18
420
        0
370
    25
100
AcDbLine
 10
175.5589607317014
 20
-1.848491972010976
 30
0.0
 11
177.1573957665014
 21
-2.7712488761105
 31
0.0
  0
SPLINE
  5
263
330
70
100
AcDbEntity
  8
0
 62
    18
420
        0
370
    25
100
AcDbSpline
210
0.0
220
0.0
230
1.0
 70
     8
 71
     3
 72
     8
 73
     4
 74
     0
 42
0.0000000001
 43
0.0000000001
 40
0.0
 40
0.0
 40
0.0
 40
0.0
 40
1.0
 40
1.0
 40
1.0
 40
1.0
 10
160.6454106268057
 20
0.9135708406322228
 30
0.0
 10
161.3432452929187
 20
0.9824780930284504
 30
0.0
 10
161.9761477386075
 20
1.352820249134114
 30
0.0
 10
162.378068886176
 20
1.927433877409245
 30
0.0
  0
SPLINE
  5
264
330
70
100
AcDbEntity
  8
0
 62
    18
420
        0
370
    25
100
AcDbSpline
210
0.0
220
0.0
230
1.0
 70
     8
 71
     3
 72
     8
 73
     4
 74
     0
 42
0.0000000001
 43
0.0000000001
 40
0.0
 40
0.0
 40
0.0
 40
0.0
 40
1.0
 40
1.0
 40
1.0
 40
1.0
 10
155.7372678721146
 20
13.43873564034617
 30
0.0
 10
155.0141255889236
 20
13.37876874822269
 30
0.0
 10
154.357252459327
 20
12.99392042988643
 30
0.0
 10
153.9513820943392
 20
12.39242226969472
 30
0.0
  0
LWPOLYLINE
  5
265
330
70
100
AcDbEntity
  8
0
 62
    18
420
        0
370
    25
100
AcDbPolyline
 90
        3
 70
     0
 43
0.0
 10
162.3828949061008
 20
1.665387912188432
 10
162.5272373256017
 20
1.756026579488951
 10
162.8732985132012
 20
2.044040264688813
  0
LWPOLYLINE
  5
266
330
70
100
AcDbEntity
  8
0
 62
    18
420
        0
370
    25
100
AcDbPolyline
 90
       23
 70
     0
 43
0.0
 10
163.8016658283008
 20
4.552448632988781
 10
163.799104090201
 20
5.138129107089205
 10
163.7358324509006
 20
5.811438107088914
 10
163.6101136702014
 20
6.508317640889564
 10
163.4235862066005
 20
7.219683134888764
 10
163.1786827237007
 20
7.936260306988816
 10
162.8785958453014
 20
8.648707360089273
 10
162.5272373256017
 20
9.347736747988481
 10
162.1291866832007
 20
10.02423646348885
 10
161.6896345659005
 20
10.6693860043889
 10
161.2143116280012
 20
11.27477480868956
 10
160.7094121392009
 20
11.83251175378846
 10
160.1815202274007
 20
12.33532515098966
 10
159.6375176828015
 20
12.7766596954891
 10
159.0844957126007
 20
13.15076277058954
 10
158.5296627450011
 20
13.45275782398879
 10
157.9802548670012
 20
13.67870595658915
 10
157.4434317746011
 20
13.82566332788857
 10
156.9261924788017
 20
13.89171346778862
 10
156.4352804753009
 20
13.87599540448885
 10
155.977095499701
 20
13.77871392278894
 10
155.5576098921013
 20
13.60113765498922
 10
155.5084534959013
 20
13.57356017898877
  0
LWPOLYLINE
  5
267
330
70
100
AcDbEntity
  8
0
 62
    18
420
        0
370
    25
100
AcDbPolyline
 90
        9
 70
     0
 43
0.0
 10
158.8132284823015
 20
7.716703556388755
 10
158.8132113318013
 20
7.715069496989052
 10
158.8131942036013
 20
7.713435355388984
 10
158.8131770979006
 20
7.711801321789432
 10
158.8131600145015
 20
7.71016730118942
 10
158.8131429535016
 20
7.708533198389043
 10
158.8131259148006
 20
7.706899203589181
 10
158.8131088986015
 20
7.705265221688755
 10
158.8130919047015
 20
7.703631157689352
  0
SPLINE
  5
268
330
70
100
AcDbEntity
  8
0
 62
    18
420
        0
370
    25
100
AcDbSpline
210
0.0
220
0.0
230
1.0
 70
     8
 71
     3
 72
     8
 73
     4
 74
     0
 42
0.0000000001
 43
0.0000000001
 40
0.0
 40
0.0
 40
0.0
 40
0.0
 40
1.0
 40
1.0
 40
1.0
 40
1.0
 10
158.8132284823388
 20
7.716703556341269
 30
0.0
 10
158.8115448490611
 20
7.779371765883813
 30
0.0
 10
158.7784066098546
 20
7.83697601842338
 30
0.0
 10
158.7250786353643
 20
7.869934571866559
 30
0.0
  0
LWPOLYLINE
  5
269
330
70
100
AcDbEntity
  8
0
 62
    18
420
        0
370
    25
100
AcDbPolyline
 90
        9
 70
     0
 43
0.0
 10
158.6842318667005
 20
7.893081646588638
 10
158.6893366992008
 20
7.89018767708912
 10
158.6944418214012
 20
7.887293874889526
 10
158.6995472331016
 20
7.884400239789645
 10
158.7046529344007
 20
7.881506771889582
 10
158.7097589253012
 20
7.878613471089232
 10
158.7148652057017
 20
7.875720337488701
 10
158.7199717757009
 20
7.872827371089271
 10
158.7250786354015
 20
7.86993457188966
  0
LWPOLYLINE
  5
26A
330
70
100
AcDbEntity
  8
0
 62
    18
420
        0
370
    25
100
AcDbPolyline
 90
        9
 70
     0
 43
0.0
 10
158.6842318667005
 20
7.893081646588638
 10
158.5007152687005
 20
8.121918129088749
 10
158.3033442113009
 20
8.325670108588971
 10
158.0965586016016
 20
8.499753455989093
 10
157.8850143493012
 20
8.640249467688397
 10
157.6734687799005
 20
8.743998011188969
 10
157.4666831702012
 20
8.808664246789041
 10
157.2693121128016
 20
8.832792039588614
 10
157.0857955148017
 20
8.815839311088691
  0
LWPOLYLINE
  5
26B
330
70
100
AcDbEntity
  8
0
 62
    18
420
        0
370
    25
100
AcDbPolyline
 90
        9
 70
     0
 43
0.0
 10
157.0456992609017
 20
8.839419648689267
 10
157.0507102791008
 20
8.836471521388652
 10
157.0557215868011
 20
8.83352356128914
 10
157.0607331842015
 20
8.830575768289341
 10
157.0657450712007
 20
8.827628142489359
 10
157.0707572477012
 20
8.824680683889196
 10
157.0757697138017
 20
8.821733392488852
 10
157.080782469501
 20
8.818786268189503
 10
157.0857955148017
 20
8.815839311088691
  0
LWPOLYLINE
  5
26C
330
70
100
AcDbEntity
  8
0
 62
    18
420
        0
370
    25
100
AcDbPolyline
 90
        6
 70
     0
 43
0.0
 10
156.9570720543006
 20
8.788239853989242
 10
156.9623642340016
 20
8.81932589608864
 10
156.9769295378017
 20
8.841101531589012
 10
156.9991263166008
 20
8.851109043388586
 10
157.0264487275015
 20
8.848223995888988
 10
157.0456992609017
 20
8.839419648689267
  0
LWPOLYLINE
  5
26D
330
70
100
AcDbEntity
  8
0
 62
    18
420
        0
370
    25
100
AcDbPolyline
 90
        9
 70
     0
 43
0.0
 10
156.9569354767006
 20
8.775167455288556
 10
156.9569524706006
 20
8.776801519289241
 10
156.956969486801
 20
8.778435501189669
 10
156.9569865254005
 20
8.780069495989531
 10
156.9570035864005
 20
8.781703598788624
 10
156.9570206698008
 20
8.783337619488742
 10
156.9570377756017
 20
8.784971652989472
 10
156.9570549037015
 20
8.78660579458954
 10
156.9570720543006
 20
8.788239853989242
  0
LINE
  5
26E
330
70
100
AcDbEntity
  8
0
 62
    18
420
        0
370
    25
100
AcDbLine
 10
156.9569354767006
 20
8.665679905588984
 30
0.0
 11
156.9569354767006
 21
8.775167455288556
 31
0.0
  0
SPLINE
  5
26F
330
70
100
AcDbEntity
  8
0
 62
    18
420
        0
370
    25
100
AcDbSpline
210
0.0
220
0.0
230
1.0
 70
     8
 71
     3
 72
     8
 73
     4
 74
     0
 42
0.0000000001
 43
0.0000000001
 40
0.0
 40
0.0
 40
0.0
 40
0.0
 40
1.0
 40
1.0
 40
1.0
 40
1.0
 10
156.9569354767211
 20
8.665679905619786
 30
0.0
 10
156.9597739220061
 20
8.603318756973338
 30
0.0
 10
156.9927368509358
 20
8.54622536036784
 30
0.0
 10
157.0453240034928
 20
8.512586677008474
 30
0.0
  0
LINE
  5
270
330
70
100
AcDbEntity
  8
0
 62
    18
420
        0
370
    25
100
AcDbLine
 10
157.0453240035005
 20
8.512586676989222
 30
0.0
 11
158.7247033780016
 21
7.543101600189616
 31
0.0
  0
SPLINE
  5
271
330
70
100
AcDbEntity
  8
0
 62
    18
420
        0
370
    25
100
AcDbSpline
210
0.0
220
0.0
230
1.0
 70
     8
 71
     3
 72
    11
 73
     7
 74
     0
 42
0.0000000001
 43
0.0000000001
 40
0.0
 40
0.0
 40
0.0
 40
0.0
 40
1.0
 40
1.0
 40
1.0
 40
2.0
 40
2.0
 40
2.0
 40
2.0
 10
158.724703378017
 20
7.543101600178065
 30
0.0
 10
158.7480661989763
 20
7.524045781078799
 30
0.0
 10
158.7824533010128
 20
7.527537295945736
 30
0.0
 10
158.8015091201121
 20
7.550900116905058
 30
0.0
 10
158.811374886201
 20
7.562995746358046
 30
0.0
 10
158.8155909357414
 20
7.578736063200414
 30
0.0
 10
158.81309190479
 20
7.594143607998764
 30
0.0
  0
LINE
  5
272
330
70
100
AcDbEntity
  8
0
 62
    18
420
        0
370
    25
100
AcDbLine
 10
158.8130919047015
 20
7.594143607988496
 30
0.0
 11
158.8130919047015
 21
7.703631157689352
 31
0.0
  0
LINE
  5
273
330
70
100
AcDbEntity
  8
0
 62
    18
420
        0
370
    25
100
AcDbLine
 10
157.0857955148017
 20
8.815839311088691
 30
0.0
 11
158.6842318667005
 21
7.893081646588638
 31
0.0
  0
SPLINE
  5
274
330
70
100
AcDbEntity
  8
0
 62
    18
420
        0
370
    25
100
AcDbSpline
210
0.0
220
0.0
230
1.0
 70
     8
 71
     3
 72
     8
 73
     4
 74
     0
 42
0.0000000001
 43
0.0000000001
 40
0.0
 40
0.0
 40
0.0
 40
0.0
 40
1.0
 40
1.0
 40
1.0
 40
1.0
 10
104.5868410361032
 20
-11.51525628504222
 30
0.0
 10
104.534252639302
 20
-11.54889431651108
 30
0.0
 10
104.5012889873867
 20
-11.60598839815597
 30
0.0
 10
104.4984511922416
 20
-11.66835027399374
 30
0.0
  0
SPLINE
  5
275
330
70
100
AcDbEntity
  8
0
 62
    18
420
        0
370
    25
100
AcDbSpline
210
0.0
220
0.0
230
1.0
 70
     8
 71
     3
 72
     8
 73
     4
 74
     0
 42
0.0000000001
 43
0.0000000001
 40
0.0
 40
0.0
 40
0.0
 40
0.0
 40
1.0
 40
1.0
 40
1.0
 40
1.0
 10
104.6752293982368
 20
-11.66834941860764
 30
0.0
 10
104.6723915745002
 20
-11.60598815530241
 30
0.0
 10
104.6394285625513
 20
-11.54889454400494
 30
0.0
 10
104.5868410361006
 20
-11.51525628503837
 30
0.0
  0
SPLINE
  5
276
330
70
100
AcDbEntity
  8
0
 62
    18
420
        0
370
    25
100
AcDbSpline
210
0.0
220
0.0
230
1.0
 70
     8
 71
     3
 72
     8
 73
     4
 74
     0
 42
0.0000000001
 43
0.0000000001
 40
0.0
 40
0.0
 40
0.0
 40
0.0
 40
1.0
 40
1.0
 40
1.0
 40
1.0
 10
104.4984511922327
 20
-11.66835027393214
 30
0.0
 10
104.5538781721609
 20
-11.69706903996543
 30
0.0
 10
104.6198026962283
 20
-11.69706872097555
 30
0.0
 10
104.6752293982304
 20
-11.66834941854989
 30
0.0
  0
LINE
  5
277
330
70
100
AcDbEntity
  8
0
 62
    18
420
        0
370
    25
100
AcDbLine
 10
104.4984511922006
 20
-15.13864891301061
 30
0.0
 11
104.4984511922006
 21
-11.6683502739116
 31
0.0
  0
LINE
  5
278
330
70
100
AcDbEntity
  8
0
 62
    18
420
        0
370
    25
100
AcDbLine
 10
104.6752293982008
 20
-11.66834941861149
 30
0.0
 11
104.6752293982008
 21
-15.13864805771049
 31
0.0
  0
SPLINE
  5
279
330
70
100
AcDbEntity
  8
0
 62
    18
420
        0
370
    25
100
AcDbSpline
210
0.0
220
0.0
230
1.0
 70
     8
 71
     3
 72
     8
 73
     4
 74
     0
 42
0.0000000001
 43
0.0000000001
 40
0.0
 40
0.0
 40
0.0
 40
0.0
 40
1.0
 40
1.0
 40
1.0
 40
1.0
 10
104.4984511922327
 20
-15.13864891303242
 30
0.0
 10
104.5538781721609
 20
-15.16736767906571
 30
0.0
 10
104.6198026962283
 20
-15.16736736007455
 30
0.0
 10
104.6752293982304
 20
-15.13864805765017
 30
0.0
  0
LINE
  5
27A
330
70
100
AcDbEntity
  8
0
 62
    18
420
        0
370
    25
100
AcDbLine
 10
107.6804314059005
 20
-9.933483227211031
 30
0.0
 11
104.6752293982008
 21
-11.66834941861149
 31
0.0
  0
LINE
  5
27B
330
70
100
AcDbEntity
  8
0
 62
    18
420
        0
370
    25
100
AcDbLine
 10
104.5868410361006
 20
-11.51525628501142
 30
0.0
 11
107.5920430438016
 21
-9.780390093610961
 31
0.0
  0
SPLINE
  5
27C
330
70
100
AcDbEntity
  8
0
 62
    18
420
        0
370
    25
100
AcDbSpline
210
0.0
220
0.0
230
1.0
 70
     8
 71
     3
 72
     8
 73
     4
 74
     0
 42
0.0000000001
 43
0.0000000001
 40
0.0
 40
0.0
 40
0.0
 40
0.0
 40
1.0
 40
1.0
 40
1.0
 40
1.0
 10
107.6804314059377
 20
-9.93348322720718
 30
0.0
 10
107.6775935821998
 20
-9.871121963903233
 30
0.0
 10
107.6446305702509
 20
-9.814028352605769
 30
0.0
 10
107.5920430438016
 20
-9.780390093639196
 30
0.0
  0
LINE
  5
27D
330
70
100
AcDbEntity
  8
0
 62
    18
420
        0
370
    25
100
AcDbLine
 10
107.6804314059005
 20
-13.40378186631131
 30
0.0
 11
107.6804314059005
 21
-9.933483227211031
 31
0.0
  0
LINE
  5
27E
330
70
100
AcDbEntity
  8
0
 62
    18
420
        0
370
    25
100
AcDbLine
 10
104.6752293982008
 20
-15.13864805771049
 30
0.0
 11
107.6804314059005
 21
-13.40378186631131
 31
0.0
  0
LWPOLYLINE
  5
27F
330
70
100
AcDbEntity
  8
0
 62
    18
420
        0
370
    25
100
AcDbPolyline
 90
        6
 70
     0
 43
0.0
 10
188.3253076586008
 20
-12.60680903491033
 10
188.3192323386014
 20
-12.63258763871052
 10
188.3248344121008
 20
-12.648508092011
 10
188.3416613767011
 20
-12.65231063201103
 10
188.3663605824011
 20
-12.64445962301151
 10
188.3789933594016
 20
-12.63781771781111
  0
SPLINE
  5
280
330
70
100
AcDbEntity
  8
0
 62
    18
420
        0
370
    25
100
AcDbSpline
210
0.0
220
0.0
230
1.0
 70
     8
 71
     3
 72
     8
 73
     4
 74
     0
 42
0.0000000001
 43
0.0000000001
 40
0.0
 40
0.0
 40
0.0
 40
0.0
 40
1.0
 40
1.0
 40
1.0
 40
1.0
 10
188.3253076586021
 20
-12.60680903493728
 30
0.0
 10
188.516225180665
 20
-12.00928309313031
 30
0.0
 10
188.516225180665
 20
-11.36711822909236
 30
0.0
 10
188.3253076586021
 20
-10.76959228728538
 30
0.0
  0
SPLINE
  5
281
330
70
100
AcDbEntity
  8
0
 62
    18
420
        0
370
    25
100
AcDbSpline
210
0.0
220
0.0
230
1.0
 70
     8
 71
     3
 72
     8
 73
     4
 74
     0
 42
0.0000000001
 43
0.0000000001
 40
0.0
 40
0.0
 40
0.0
 40
0.0
 40
1.0
 40
1.0
 40
1.0
 40
1.0
 10
188.3789933593542
 20
-10.59646573370281
 30
0.0
 10
188.3265996548719
 20
-10.63723150201619
 30
0.0
 10
188.305170938627
 20
-10.7063351877173
 30
0.0
 10
188.3253076586111
 20
-10.76959228726998
 30
0.0
  0
LINE
  5
282
330
70
100
AcDbEntity
  8
0
 62
    18
420
        0
370
    25
100
AcDbLine
 10
188.3789933594016
 20
-10.59646573371051
 30
0.0
 11
189.1744884643008
 21
-10.13723618461053
 31
0.0
  0
LWPOLYLINE
  5
283
330
70
100
AcDbEntity
  8
0
 62
    18
420
        0
370
    25
100
AcDbPolyline
 90
        6
 70
     0
 43
0.0
 10
189.2975794775013
 20
-10.20831171341075
 10
189.2803054615015
 20
-10.16905380411122
 10
189.2532453403012
 20
-10.14074592211054
 10
189.220449962701
 20
-10.12772504331069
 10
189.1879273203012
 20
-10.13105959521083
 10
189.1744884643008
 20
-10.13723618461053
  0
SPLINE
  5
284
330
70
100
AcDbEntity
  8
0
 62
    18
420
        0
370
    25
100
AcDbSpline
210
0.0
220
0.0
230
1.0
 70
     8
 71
     3
 72
     8
 73
     4
 74
     0
 42
0.0000000001
 43
0.0000000001
 40
0.0
 40
0.0
 40
0.0
 40
0.0
 40
1.0
 40
1.0
 40
1.0
 40
1.0
 10
189.2975794775026
 20
-12.04552846113708
 30
0.0
 10
189.4884969995654
 20
-11.44800251933011
 30
0.0
 10
189.4884969995654
 20
-10.80583765529216
 30
0.0
 10
189.2975794775026
 20
-10.20831171348518
 30
0.0
  0
SPLINE
  5
285
330
70
100
AcDbEntity
  8
0
 62
    18
420
        0
370
    25
100
AcDbSpline
210
0.0
220
0.0
230
1.0
 70
     8
 71
     3
 72
     8
 73
     4
 74
     0
 42
0.0000000001
 43
0.0000000001
 40
0.0
 40
0.0
 40
0.0
 40
0.0
 40
1.0
 40
1.0
 40
1.0
 40
1.0
 10
189.1744884642752
 20
-12.17858816873936
 30
0.0
 10
189.2279847157462
 20
-12.14764586070257
 30
0.0
 10
189.2708883179146
 20
-12.10126765151799
 30
0.0
 10
189.2975794775141
 20
-12.04552846111013
 30
0.0
  0
LINE
  5
286
330
70
100
AcDbEntity
  8
0
 62
    18
420
        0
370
    25
100
AcDbLine
 10
189.1744884643008
 20
-12.17858816871113
 30
0.0
 11
188.3789933594016
 21
-12.63781771781111
 31
0.0
  0
LWPOLYLINE
  5
287
330
70
100
AcDbEntity
  8
0
 62
    18
420
        0
370
    25
100
AcDbPolyline
 90
        6
 70
     0
 43
0.0
 10
101.3164716267014
 20
-10.13723618461053
 10
101.2869983026009
 20
-10.12746332951077
 10
101.2573420472011
 20
-10.13082694721125
 10
101.2297668465012
 20
-10.1469111878105
 10
101.2065780901012
 20
-10.17575346601119
 10
101.1933806135009
 20
-10.20831171341075
  0
LINE
  5
288
330
70
100
AcDbEntity
  8
0
 62
    18
420
        0
370
    25
100
AcDbLine
 10
101.3164716267014
 20
-10.13723618461053
 30
0.0
 11
102.1119667316012
 21
-10.59646573371051
 31
0.0
  0
SPLINE
  5
289
330
70
100
AcDbEntity
  8
0
 62
    18
420
        0
370
    25
100
AcDbSpline
210
0.0
220
0.0
230
1.0
 70
     8
 71
     3
 72
     8
 73
     4
 74
     0
 42
0.0000000001
 43
0.0000000001
 40
0.0
 40
0.0
 40
0.0
 40
0.0
 40
1.0
 40
1.0
 40
1.0
 40
1.0
 10
102.1656524323808
 20
-10.76959228726613
 30
0.0
 10
102.1879343714264
 20
-10.70635968354756
 30
0.0
 10
102.166115423225
 20
-10.63599757124958
 30
0.0
 10
102.1119667316371
 20
-10.59646573369896
 30
0.0
  0
SPLINE
  5
28A
330
70
100
AcDbEntity
  8
0
 62
    18
420
        0
370
    25
100
AcDbSpline
210
0.0
220
0.0
230
1.0
 70
     8
 71
     3
 72
     8
 73
     4
 74
     0
 42
0.0000000001
 43
0.0000000001
 40
0.0
 40
0.0
 40
0.0
 40
0.0
 40
1.0
 40
1.0
 40
1.0
 40
1.0
 10
102.1656524324001
 20
-10.76959228728538
 30
0.0
 10
101.9747349103372
 20
-11.36711822909236
 30
0.0
 10
101.9747349103372
 20
-12.00928309313031
 30
0.0
 10
102.1656524324001
 20
-12.60680903493728
 30
0.0
  0
LWPOLYLINE
  5
28B
330
70
100
AcDbEntity
  8
0
 62
    18
420
        0
370
    25
100
AcDbPolyline
 90
        6
 70
     0
 43
0.0
 10
102.1119667316012
 20
-12.63781771781111
 10
102.1377574748014
 20
-12.64971648161063
 10
102.1570824634015
 20
-12.65231695351147
 10
102.1687683357012
 20
-12.64540546561122
 10
102.171457913801
 20
-12.62839710561114
 10
102.1656524324013
 20
-12.60680903491033
  0
LINE
  5
28C
330
70
100
AcDbEntity
  8
0
 62
    18
420
        0
370
    25
100
AcDbLine
 10
102.1119667316012
 20
-12.63781771781111
 30
0.0
 11
101.3164716267014
 21
-12.17858816871113
 31
0.0
  0
SPLINE
  5
28D
330
70
100
AcDbEntity
  8
0
 62
    18
420
        0
370
    25
100
AcDbSpline
210
0.0
220
0.0
230
1.0
 70
     8
 71
     3
 72
     8
 73
     4
 74
     0
 42
0.0000000001
 43
0.0000000001
 40
0.0
 40
0.0
 40
0.0
 40
0.0
 40
1.0
 40
1.0
 40
1.0
 40
1.0
 10
101.1933806135292
 20
-12.04552846105495
 30
0.0
 10
101.2203143565314
 20
-12.10110250185238
 30
0.0
 10
101.2631588782367
 20
-12.14741684586178
 30
0.0
 10
101.3164716267681
 20
-12.17858816868546
 30
0.0
  0
SPLINE
  5
28E
330
70
100
AcDbEntity
  8
0
 62
    18
420
        0
370
    25
100
AcDbSpline
210
0.0
220
0.0
230
1.0
 70
     8
 71
     3
 72
     8
 73
     4
 74
     0
 42
0.0000000001
 43
0.0000000001
 40
0.0
 40
0.0
 40
0.0
 40
0.0
 40
1.0
 40
1.0
 40
1.0
 40
1.0
 10
101.1933806134996
 20
-10.20831171348518
 30
0.0
 10
101.0024630914368
 20
-10.80583765529216
 30
0.0
 10
101.0024630914368
 20
-11.44800251933011
 30
0.0
 10
101.1933806134996
 20
-12.04552846113708
 30
0.0
  0
LINE
  5
28F
330
70
100
AcDbEntity
  8
0
 62
    18
420
        0
370
    25
100
AcDbLine
 10
188.3253076586008
 20
-10.76959228731105
 30
0.0
 11
146.9248585968011
 21
13.13037823088847
 31
0.0
  0
LINE
  5
290
330
70
100
AcDbEntity
  8
0
 62
    18
420
        0
370
    25
100
AcDbLine
 10
146.9248585968011
 20
11.29316148328919
 30
0.0
 11
188.3253076586008
 21
-12.60680903491033
 31
0.0
  0
LINE
  5
291
330
70
100
AcDbEntity
  8
0
 62
    18
420
        0
370
    25
100
AcDbLine
 10
146.9248585968011
 20
13.13037823088847
 30
0.0
 11
146.9248585968011
 21
11.29316148328919
 31
0.0
  0
LWPOLYLINE
  5
292
330
70
100
AcDbEntity
  8
0
 62
    18
420
        0
370
    25
100
AcDbPolyline
 90
       22
 70
     0
 43
0.0
 10
157.6198481104013
 20
6.037683829989243
 10
157.5884342203008
 20
6.296498319888641
 10
157.496980827401
 20
6.568587424789202
 10
157.3536156880006
 20
6.829773868889577
 10
157.1710776871011
 20
7.05684987658875
 10
156.9655841417006
 20
7.229639940488837
 10
156.7553964911013
 20
7.332789556688457
 10
156.559188423301
 20
7.357134713389513
 10
156.3943955627012
 20
7.300511343388487
 10
156.2756613050017
 20
7.16795014188858
 10
156.2135328991017
 20
6.971231419289553
 10
156.2135328991017
 20
6.727833222389372
 10
156.2756613050017
 20
6.459382569189592
 10
156.3943955627012
 20
6.189733711788986
 10
156.559188423301
 20
5.942844554788653
 10
156.7553964911013
 20
5.740652698389192
 10
156.9655841417006
 20
5.601124818789156
 10
157.1710776871011
 20
5.536657085389425
 10
157.3536156880006
 20
5.552979203288686
 10
157.496980827401
 20
5.648639780688712
 10
157.5884342203008
 20
5.815139045689034
 10
157.6198481104013
 20
6.037683829989243
  0
LWPOLYLINE
  5
293
330
70
100
AcDbEntity
  8
0
 62
    18
420
        0
370
    25
100
AcDbPolyline
 90
       22
 70
     0
 43
0.0
 10
176.0930146444011
 20
-4.626648213410845
 10
176.0615994372005
 20
-4.367832963110919
 10
175.9701460443008
 20
-4.095743858310464
 10
175.8267809049017
 20
-3.834557414211372
 10
175.6442429040008
 20
-3.607481406510916
 10
175.4387480416016
 20
-3.434690582310407
 10
175.2285617081012
 20
-3.331541726311105
 10
175.0323523232007
 20
-3.307195809310908
 10
174.867560779701
 20
-3.363819939711178
 10
174.7488252049014
 20
-3.496380380810559
 10
174.6866981160014
 20
-3.693099863711291
 10
174.6866981160014
 20
-3.936498060611473
 10
174.7488252049014
 20
-4.20494795351083
 10
174.867560779701
 20
-4.474597571310681
 10
175.0323523232007
 20
-4.721485968010591
 10
175.2285617081012
 20
-4.923678584710474
 10
175.4387480416016
 20
-5.063205703911265
 10
175.6442429040008
 20
-5.127674197711525
 10
175.8267809049017
 20
-5.11135207981098
 10
175.9701460443008
 20
-5.015691502310849
 10
176.0615994372005
 20
-4.849192237410632
 10
176.0930146444011
 20
-4.626648213410845
  0
LINE
  5
294
330
70
100
AcDbEntity
  8
0
 62
    18
420
        0
370
    25
100
AcDbLine
 10
143.5661014942011
 20
13.13037823088847
 30
0.0
 11
102.1656524324013
 21
-10.76959228731105
 31
0.0
  0
LINE
  5
295
330
70
100
AcDbEntity
  8
0
 62
    18
420
        0
370
    25
100
AcDbLine
 10
143.5661014942011
 20
13.13037823088847
 30
0.0
 11
143.5661014942011
 21
11.29316148328919
 31
0.0
  0
LINE
  5
296
330
70
100
AcDbEntity
  8
0
 62
    18
420
        0
370
    25
100
AcDbLine
 10
102.1656524324013
 20
-12.60680903491033
 30
0.0
 11
143.5661014942011
 21
11.29316148328919
 31
0.0
  0
LINE
  5
297
330
70
100
AcDbEntity
  8
0
 62
    18
420
        0
370
    25
100
AcDbLine
 10
102.1119667316012
 20
-10.59646573371051
 30
0.0
 11
143.4777131321009
 21
13.28347136448854
 31
0.0
  0
SPLINE
  5
298
330
70
100
AcDbEntity
  8
0
 62
    18
420
        0
370
    25
100
AcDbSpline
210
0.0
220
0.0
230
1.0
 70
     8
 71
     3
 72
     8
 73
     4
 74
     0
 42
0.0000000001
 43
0.0000000001
 40
0.0
 40
0.0
 40
0.0
 40
0.0
 40
1.0
 40
1.0
 40
1.0
 40
1.0
 10
143.5661014941484
 20
13.13037823097574
 30
0.0
 10
143.563263747195
 20
13.19273951673787
 30
0.0
 10
143.5303007163031
 20
13.24983316084669
 30
0.0
 10
143.4777131320123
 20
13.28347136454501
 30
0.0
  0
LINE
  5
299
330
70
100
AcDbEntity
  8
0
 62
    18
420
        0
370
    25
100
AcDbLine
 10
147.0132469590014
 20
13.28347136448854
 30
0.0
 11
188.3789933594016
 21
-10.59646573371051
 31
0.0
  0
SPLINE
  5
29A
330
70
100
AcDbEntity
  8
0
 62
    18
420
        0
370
    25
100
AcDbSpline
210
0.0
220
0.0
230
1.0
 70
     8
 71
     3
 72
     8
 73
     4
 74
     0
 42
0.0000000001
 43
0.0000000001
 40
0.0
 40
0.0
 40
0.0
 40
0.0
 40
1.0
 40
1.0
 40
1.0
 40
1.0
 10
147.0132469589899
 20
13.28347136454501
 30
0.0
 10
146.9606593746991
 20
13.24983316084669
 30
0.0
 10
146.9276963438072
 20
13.19273951673787
 30
0.0
 10
146.9248585968538
 20
13.13037823097574
 30
0.0
  0
LINE
  5
29B
330
70
100
AcDbEntity
  8
0
 62
    18
420
        0
370
    25
100
AcDbLine
 10
189.1744884643008
 20
-10.13723618461053
 30
0.0
 11
147.8087420638005
 21
13.74270091358852
 31
0.0
  0
LINE
  5
29C
330
70
100
AcDbEntity
  8
0
 62
    18
420
        0
370
    25
100
AcDbLine
 10
147.8087420638005
 20
13.74270091358852
 30
0.0
 11
147.0132469590014
 21
13.28347136448854
 31
0.0
  0
LINE
  5
29D
330
70
100
AcDbEntity
  8
0
 62
    18
420
        0
370
    25
100
AcDbLine
 10
142.6822180272017
 20
13.74270091358852
 30
0.0
 11
101.3164716267014
 21
-10.13723618461053
 31
0.0
  0
LINE
  5
29E
330
70
100
AcDbEntity
  8
0
 62
    18
420
        0
370
    25
100
AcDbLine
 10
143.4777131321009
 20
13.28347136448854
 30
0.0
 11
142.6822180272017
 21
13.74270091358852
 31
0.0
  0
SPLINE
  5
29F
330
70
100
AcDbEntity
  8
0
 62
    18
420
        0
370
    25
100
AcDbSpline
210
0.0
220
0.0
230
1.0
 70
     8
 71
     3
 72
     8
 73
     4
 74
     0
 42
0.0000000001
 43
0.0000000001
 40
0.0
 40
0.0
 40
0.0
 40
0.0
 40
1.0
 40
1.0
 40
1.0
 40
1.0
 10
142.6822180271799
 20
13.74270091357953
 30
0.0
 10
142.6639821471213
 20
13.75576507912625
 30
0.0
 10
142.6401670331916
 20
13.75812335125646
 30
0.0
 10
142.6197231026016
 20
13.74888942224628
 30
0.0
  0
LWPOLYLINE
  5
2A0
330
70
100
AcDbEntity
  8
0
 62
    18
420
        0
370
    25
100
AcDbPolyline
 90
       13
 70
     0
 43
0.0
 10
175.5632459220006
 20
-3.53037516991056
 10
175.543054947401
 20
-3.527642915210563
 10
175.4140171023017
 20
-3.552715602611173
 10
175.3277951869008
 20
-3.651949758511024
 10
175.2975179446013
 20
-3.810239183611413
 10
175.3277951869008
 20
-4.003485968610945
 10
175.4140171023017
 20
-4.20226982901117
 10
175.543054947401
 20
-4.376326441110419
 10
175.695265656601
 20
-4.499158237110383
 10
175.8474763658011
 20
-4.552065185210564
 10
175.9765168450005
 20
-4.526994018611009
 10
176.0627361262012
 20
-4.427758342011491
 10
176.070443731101
 20
-4.408961305011262
  0
LWPOLYLINE
  5
2A1
330
70
100
AcDbEntity
  8
0
 62
    18
420
        0
370
    25
100
AcDbPolyline
 90
       13
 70
     0
 43
0.0
 10
157.0900820221009
 20
7.133955352788578
 10
157.0698897304011
 20
7.136688367788998
 10
156.9408505683005
 20
7.111616440788916
 10
156.854629970001
 20
7.012381524588643
 10
156.8243540448017
 20
6.854091339089008
 10
156.854629970001
 20
6.660845314388616
 10
156.9408505683005
 20
6.462062214388919
 10
157.0698897304011
 20
6.288004841989247
 10
157.2221017567013
 20
6.165172285588755
 10
157.3743124659014
 20
6.112265337488574
 10
157.5033516281008
 20
6.137337264488657
 10
157.5895722264015
 20
6.236572180688931
 10
157.5972785142013
 20
6.255369978089688
  0
SPLINE
  5
2A2
330
70
100
AcDbEntity
  8
0
 62
    18
420
        0
370
    25
100
AcDbSpline
210
0.0
220
0.0
230
1.0
 70
     8
 71
     3
 72
     8
 73
     4
 74
     0
 42
0.0000000001
 43
0.0000000001
 40
0.0
 40
0.0
 40
0.0
 40
0.0
 40
1.0
 40
1.0
 40
1.0
 40
1.0
 10
147.0132469589565
 20
13.28347136449111
 30
0.0
 10
145.9047180762421
 20
13.85784072006258
 30
0.0
 10
144.5862420147601
 20
13.85784072006258
 30
0.0
 10
143.4777131320457
 20
13.28347136449111
 30
0.0
  0
SPLINE
  5
2A3
330
70
100
AcDbEntity
  8
0
 62
    18
420
        0
370
    25
100
AcDbSpline
210
0.0
220
0.0
230
1.0
 70
     8
 71
     3
 72
     8
 73
     4
 74
     0
 42
0.0000000001
 43
0.0000000001
 40
0.0
 40
0.0
 40
0.0
 40
0.0
 40
1.0
 40
1.0
 40
1.0
 40
1.0
 10
146.9248585968204
 20
13.13037823093595
 30
0.0
 10
145.8717561703501
 20
13.67602912070458
 30
0.0
 10
144.6192039206521
 20
13.67602912070458
 30
0.0
 10
143.5661014941818
 20
13.13037823093595
 30
0.0
  0
SPLINE
  5
2A4
330
70
100
AcDbEntity
  8
0
 62
    18
420
        0
370
    25
100
AcDbSpline
210
0.0
220
0.0
230
1.0
 70
     8
 71
     3
 72
     8
 73
     4
 74
     0
 42
0.0000000001
 43
0.0000000001
 40
0.0
 40
0.0
 40
0.0
 40
0.0
 40
1.0
 40
1.0
 40
1.0
 40
1.0
 10
145.9813357442326
 20
14.31205944507875
 30
0.0
 10
144.8491453658657
 20
14.47214469101449
 30
0.0
 10
143.6952610874294
 20
14.27300846290786
 30
0.0
 10
142.6822180271465
 20
13.74270091360649
 30
0.0
  0
SPLINE
  5
2A5
330
70
100
AcDbEntity
  8
0
 62
    18
420
        0
370
    25
100
AcDbSpline
210
0.0
220
0.0
230
1.0
 70
     8
 71
     3
 72
     8
 73
     4
 74
     0
 42
0.0000000001
 43
0.0000000001
 40
0.0
 40
0.0
 40
0.0
 40
0.0
 40
1.0
 40
1.0
 40
1.0
 40
1.0
 10
146.9248585968204
 20
11.29316148323529
 30
0.0
 10
145.8717561703501
 20
11.8388123730052
 30
0.0
 10
144.6192039206521
 20
11.8388123730052
 30
0.0
 10
143.5661014941818
 20
11.29316148323529
 30
0.0
  0
SPLINE
  5
2A6
330
70
100
AcDbEntity
  8
0
 62
    18
420
        0
370
    25
100
AcDbSpline
210
0.0
220
0.0
230
1.0
 70
     8
 71
     3
 72
     8
 73
     4
 74
     0
 42
0.0000000001
 43
0.0000000001
 40
0.0
 40
0.0
 40
0.0
 40
0.0
 40
1.0
 40
1.0
 40
1.0
 40
1.0
 10
146.9736608607546
 20
11.26447126500619
 30
0.0
 10
145.9273806055468
 20
11.78478121611003
 30
0.0
 10
144.7027328391001
 20
11.80766554545093
 30
0.0
 10
143.6377443042429
 20
11.32680773041802
 30
0.0
  0
SPLINE
  5
2A7
330
70
100
AcDbEntity
  8
0
 62
     8
420
  8421504
370
    25
100
AcDbSpline
210
0.0
220
0.0
230
1.0
 70
     8
 71
     3
 72
     8
 73
     4
 74
     0
 42
0.0000000001
 43
0.0000000001
 40
0.0
 40
0.0
 40
0.0
 40
0.0
 40
1.0
 40
1.0
 40
1.0
 40
1.0
 10
172.1871903059714
 20
-3.332754808848322
 30
0.0
 10
172.4393759128538
 20
-4.121716298877909
 30
0.0
 10
172.7796272511103
 20
-4.879761318502637
 30
0.0
 10
173.2015095331229
 20
-5.592553822105721
 30
0.0
  0
LWPOLYLINE
  5
2A8
330
70
100
AcDbEntity
  8
0
 62
     8
420
  8421504
370
    25
100
AcDbPolyline
 90
       10
 70
     0
 43
0.0
 10
173.951510068201
 20
-6.709877961511072
 10
174.1246071750013
 20
-6.931030183710422
 10
174.6124042630011
 20
-7.495525446411255
 10
175.1253445803011
 20
-8.007228156711214
 10
175.6564923361016
 20
-8.459219513411126
 10
176.1986614928017
 20
-8.8453849285114
 10
176.7445211329006
 20
-9.16050299131062
 10
177.2866902896007
 20
-9.400312760211258
 10
177.8178380455013
 20
-9.56157154901054
 10
177.8265097595017
 20
-9.563569231810417
  0
SPLINE
  5
2A9
330
70
100
AcDbEntity
  8
0
 62
     8
420
  8421504
370
    25
100
AcDbSpline
210
0.0
220
0.0
230
1.0
 70
     8
 71
     3
 72
     8
 73
     4
 74
     0
 42
0.0000000001
 43
0.0000000001
 40
0.0
 40
0.0
 40
0.0
 40
0.0
 40
1.0
 40
1.0
 40
1.0
 40
1.0
 10
178.5765102946042
 20
-9.651706468595323
 30
0.0
 10
179.5086377154656
 20
-9.659092126449353
 30
0.0
 10
180.3597800138786
 20
-9.123179480298976
 30
0.0
 10
180.7559923197335
 20
-8.279418918675222
 30
0.0
  0
LWPOLYLINE
  5
2AA
330
70
100
AcDbEntity
  8
0
 62
     8
420
  8421504
370
    25
100
AcDbPolyline
 90
       26
 70
     0
 43
0.0
 10
181.1102128739009
 20
-5.439562870410894
 10
181.0390347493008
 20
-4.978383977210702
 10
180.8824802805018
 20
-4.284148709610896
 10
180.6662774843013
 20
-3.580549755910859
 10
180.3933476643012
 20
-2.877100993310971
 10
180.0673813037016
 20
-2.183314895810891
 10
179.6927906508015
 20
-1.508576112210371
 10
179.2746359617011
 20
-0.8620063002111521
 10
178.818575450701
 20
-0.2523513928105793
 10
178.3307783627012
 20
0.3121438698889695
 10
177.8178380455013
 20
0.8238465800888242
 10
177.2866902896007
 20
1.275837936788735
 10
176.7445211329006
 20
1.662003351889008
 10
176.1986614928017
 20
1.977121414689514
 10
175.6564923361016
 20
2.216931183688972
 10
175.1253445803011
 20
2.378189972389432
 10
174.6124042630011
 20
2.458715546589608
 10
174.1246071750013
 20
2.4574188135889
 10
173.6685466640012
 20
2.374320164189244
 10
173.2503946090009
 20
2.210539959088464
 10
172.8758013220007
 20
1.968295858089078
 10
172.5498375956013
 20
1.650860988989242
 10
172.276905141401
 20
1.262531809789422
 10
172.0607023452005
 20
0.8085552911893111
 10
171.9041478764015
 20
0.2950739657891787
 10
171.8329697518014
 20
-0.0839244141115341
  0
LWPOLYLINE
  5
2AB
330
70
100
AcDbEntity
  8
0
 62
     8
420
  8421504
370
    25
100
AcDbPolyline
 90
       19
 70
     0
 43
0.0
 10
174.1776625972011
 20
2.77119212898961
 10
174.6286365105007
 20
2.782455835688989
 10
175.1458758063013
 20
2.716405695788932
 10
175.6827002158015
 20
2.569447564088986
 10
176.2321080937014
 20
2.343499431488626
 10
176.7869397442008
 20
2.04150513848862
 10
177.3399617144016
 20
1.667402063389465
 10
177.8839642591009
 20
1.226067518888747
 10
178.411856170801
 20
0.7232541216888261
 10
178.9167569767014
 20
0.1655164161894015
 10
179.3920812317009
 20
-0.4398731484104042
 10
179.8316307148008
 20
-1.085021168610785
 10
180.2296813572005
 20
-1.761520884111154
 10
180.5810411940016
 20
-2.460551032310785
 10
180.8811293896011
 20
-3.172998845810486
 10
181.1260315554008
 20
-3.889575257511294
 10
181.3125577019017
 20
-4.60093999111125
 10
181.4382764826008
 20
-5.297819525010721
 10
181.4791457548016
 20
-5.65254330161059
  0
LWPOLYLINE
  5
2AC
330
70
100
AcDbEntity
  8
0
 62
     8
420
  8421504
370
    25
100
AcDbPolyline
 90
        3
 70
     0
 43
0.0
 10
181.0353130982009
 20
-8.440667479211487
 10
180.8811293896011
 20
-8.693898979110787
 10
180.8716911297009
 20
-8.707659300111391
  0
LWPOLYLINE
  5
2AD
330
70
100
AcDbEntity
  8
0
 62
     8
420
  8421504
370
    25
100
AcDbPolyline
 90
        3
 70
     0
 43
0.0
 10
177.5016775670009
 20
-3.356399800210601
 10
177.4914832980006
 20
-3.33454125091082
 10
177.2862571217013
 20
-2.960700125410314
  0
LWPOLYLINE
  5
2AE
330
70
100
AcDbEntity
  8
0
 62
     8
420
  8421504
370
    25
100
AcDbPolyline
 90
        3
 70
     0
 43
0.0
 10
175.4301020107017
 20
-1.889164588111533
 10
175.2248732003011
 20
-2.026055093411028
 10
175.2146789313007
 20
-2.036143590211575
  0
LINE
  5
2AF
330
70
100
AcDbEntity
  8
0
 62
     8
420
  8421504
370
    25
100
AcDbLine
 10
177.1978672778012
 20
-3.121228922610912
 30
0.0
 11
177.2862556194017
 21
-3.070203419111114
 31
0.0
  0
LINE
  5
2B0
330
70
100
AcDbEntity
  8
0
 62
     8
420
  8421504
370
    25
100
AcDbLine
 10
175.8013779004012
 20
-1.98843644721042
 30
0.0
 11
175.5184892204016
 21
-2.151744606110443
 31
0.0
  0
LINE
  5
2B1
330
70
100
AcDbEntity
  8
0
 62
     8
420
  8421504
370
    25
100
AcDbLine
 10
175.5151278035016
 20
-1.827086688610331
 30
0.0
 11
175.4302385883018
 21
-1.876092189410846
 31
0.0
  0
LINE
  5
2B2
330
70
100
AcDbEntity
  8
0
 62
     8
420
  8421504
370
    25
100
AcDbLine
 10
175.4301020107017
 20
-1.998652137811104
 30
0.0
 11
175.6245879846011
 21
-1.886377774910456
 31
0.0
  0
LWPOLYLINE
  5
2B3
330
70
100
AcDbEntity
  8
0
 62
     8
420
  8421504
370
    25
100
AcDbPolyline
 90
       10
 70
     0
 43
0.0
 10
186.3265103255015
 20
-19.12736929091104
 10
186.3265080206006
 20
-19.13662849371146
 10
186.3265099139016
 20
-19.19616578371086
 10
186.3265091731011
 20
-19.3023179283111
 10
186.3265081853017
 20
-19.43892652291094
 10
186.3265086792007
 20
-19.58519364721064
 10
186.3265080206006
 20
-19.7188503067114
 10
186.3265086792007
 20
-19.81955081961139
 10
186.3265081853017
 20
-19.87196223031045
 10
186.3265095024018
 20
-19.87736836611094
  0
LWPOLYLINE
  5
2B4
330
70
100
AcDbEntity
  8
0
 62
     8
420
  8421504
370
    25
100
AcDbPolyline
 90
       10
 70
     0
 43
0.0
 10
104.1644497655008
 20
-19.12736929091104
 10
104.1644520704016
 20
-19.13662849371146
 10
104.1644501771006
 20
-19.19616578371086
 10
104.1644509179011
 20
-19.3023179283111
 10
104.1644519057005
 20
-19.43892652291094
 10
104.1644514118015
 20
-19.58519364721064
 10
104.1644520704016
 20
-19.7188503067114
 10
104.1644514118015
 20
-19.81955081961139
 10
104.1644519057005
 20
-19.87196223031045
 10
104.1644505886017
 20
-19.87736836611094
  0
LWPOLYLINE
  5
2B5
330
70
100
AcDbEntity
  8
0
 62
     8
420
  8421504
370
    25
100
AcDbPolyline
 90
        9
 70
     0
 43
0.0
 10
187.0765088438015
 20
-18.58375986071108
 10
187.1050553077006
 20
-18.66660498191104
 10
187.1863445600013
 20
-18.73683685821127
 10
187.3080029200012
 20
-18.7837641447112
 10
187.4515077943008
 20
-18.80024214681059
 10
187.595016578701
 20
-18.78376478621132
 10
187.7166739097005
 20
-18.73683638291122
 10
187.7979650965006
 20
-18.66660510071135
 10
187.8265077943013
 20
-18.58375925481115
  0
LWPOLYLINE
  5
2B6
330
70
100
AcDbEntity
  8
0
 62
     8
420
  8421504
370
    25
100
AcDbPolyline
 90
        9
 70
     0
 43
0.0
 10
103.4144512472007
 20
-18.58375986071108
 10
103.3859047833016
 20
-18.66660498191104
 10
103.3046155310009
 20
-18.73683685821127
 10
103.182957171001
 20
-18.7837641447112
 10
103.0394522967014
 20
-18.80024214681059
 10
102.8959435123012
 20
-18.78376478621132
 10
102.7742861814005
 20
-18.73683638291122
 10
102.692994994501
 20
-18.66660510071135
 10
102.6644522967009
 20
-18.58375925481115
  0
LWPOLYLINE
  5
2B7
330
70
100
AcDbEntity
  8
0
 62
     8
420
  8421504
370
    25
100
AcDbPolyline
 90
       10
 70
     0
 43
0.0
 10
167.8265094199014
 20
-20.69565723851038
 10
167.8265097492008
 20
-20.7049187225111
 10
167.8265090083015
 20
-20.76445449191095
 10
167.8265082674009
 20
-20.87060663641108
 10
167.8265099138005
 20
-21.00721599131134
 10
167.8265077735006
 20
-21.15348159481127
 10
167.8265097492008
 20
-21.2871412960104
 10
167.8265077735006
 20
-21.38783952771137
 10
167.8265099138005
 20
-21.44025245911138
 10
167.8265085967017
 20
-21.44565707421091
  0
LWPOLYLINE
  5
2B8
330
70
100
AcDbEntity
  8
0
 62
     8
420
  8421504
370
    25
100
AcDbPolyline
 90
       10
 70
     0
 43
0.0
 10
122.6644506711008
 20
-20.69565723851038
 10
122.6644503418014
 20
-20.7049187225111
 10
122.6644510827007
 20
-20.76445449191095
 10
122.6644518236012
 20
-20.87060663641108
 10
122.6644501772017
 20
-21.00721599131134
 10
122.6644523175016
 20
-21.15348159481127
 10
122.6644503418014
 20
-21.2871412960104
 10
122.6644523175016
 20
-21.38783952771137
 10
122.6644501772017
 20
-21.44025245911138
 10
122.6644514943006
 20
-21.44565707421091
  0
LWPOLYLINE
  5
2B9
330
70
100
AcDbEntity
  8
0
 62
     8
420
  8421504
370
    25
100
AcDbPolyline
 90
        9
 70
     0
 43
0.0
 10
168.5765079382015
 20
-20.15204856881106
 10
168.6050544020005
 20
-20.23489369001101
 10
168.6863436544013
 20
-20.30512556631125
 10
168.808002014301
 20
-20.35205285281118
 10
168.9515095228008
 20
-20.36853237561151
 10
169.0950156730009
 20
-20.35205349431129
 10
169.2166730040017
 20
-20.3051250911113
 10
169.2979641908017
 20
-20.23489380881132
 10
169.3265095228014
 20
-20.15204948361079
  0
LWPOLYLINE
  5
2BA
330
70
100
AcDbEntity
  8
0
 62
     8
420
  8421504
370
    25
100
AcDbPolyline
 90
        9
 70
     0
 43
0.0
 10
121.9144521528007
 20
-20.15204856881106
 10
121.8859056890017
 20
-20.23489369001101
 10
121.8046164366009
 20
-20.30512556631125
 10
121.6829580767011
 20
-20.35205285281118
 10
121.5394505682013
 20
-20.36853237561151
 10
121.3959444180013
 20
-20.35205349431129
 10
121.2742870870005
 20
-20.3051250911113
 10
121.1929959002005
 20
-20.23489380881132
 10
121.1644505682008
 20
-20.15204948361079
  0
LWPOLYLINE
  5
2BB
330
70
100
AcDbEntity
  8
0
 62
     8
420
  8421504
370
    25
100
AcDbPolyline
 90
       10
 70
     0
 43
0.0
 10
163.2015091935008
 20
-18.02570143941048
 10
163.2015095228014
 20
-18.0349629234112
 10
163.2015087819009
 20
-18.09449869281104
 10
163.2015093581017
 20
-18.20065159771041
 10
163.2015096874011
 20
-18.33726019221143
 10
163.2015088642013
 20
-18.4835265560105
 10
163.2015095228014
 20
-18.61718549691049
 10
163.2015088642013
 20
-18.7178844889106
 10
163.2015096874011
 20
-18.77029666001147
 10
163.2015096874011
 20
-18.77570203551153
  0
LWPOLYLINE
  5
2BC
330
70
100
AcDbEntity
  8
0
 62
     8
420
  8421504
370
    25
100
AcDbPolyline
 90
       10
 70
     0
 43
0.0
 10
127.2894508975014
 20
-18.02570143941048
 10
127.2894505683008
 20
-18.0349629234112
 10
127.2894513091013
 20
-18.09449869281104
 10
127.2894507329005
 20
-18.20065159771041
 10
127.2894504036011
 20
-18.33726019221143
 10
127.2894512268009
 20
-18.4835265560105
 10
127.2894505683008
 20
-18.61718549691049
 10
127.2894512268009
 20
-18.7178844889106
 10
127.2894504036011
 20
-18.77029666001147
 10
127.2894504036011
 20
-18.77570203551153
  0
LWPOLYLINE
  5
2BD
330
70
100
AcDbEntity
  8
0
 62
     8
420
  8421504
370
    25
100
AcDbPolyline
 90
       10
 70
     0
 43
0.0
 10
163.951509028901
 20
-17.48209353001157
 10
163.9800541756011
 20
-17.5649378909111
 10
164.0613434280007
 20
-17.63516976721134
 10
164.1830031050005
 20
-17.68209781401041
 10
164.3265092964015
 20
-17.69857657651033
 10
164.4700154466015
 20
-17.68209769521138
 10
164.5916740947012
 20
-17.63517005231053
 10
164.6729639644011
 20
-17.56493800971141
 10
164.7015092964008
 20
-17.48209368451088
 10
164.7015092964008
 20
-17.48209368451088
  0
LWPOLYLINE
  5
2BE
330
70
100
AcDbEntity
  8
0
 62
     8
420
  8421504
370
    25
100
AcDbPolyline
 90
       10
 70
     0
 43
0.0
 10
126.5394510622013
 20
-17.48209353001157
 10
126.5109059154011
 20
-17.5649378909111
 10
126.4296166630015
 20
-17.63516976721134
 10
126.3079569860017
 20
-17.68209781401041
 10
126.1644507946007
 20
-17.69857657651033
 10
126.0209446444007
 20
-17.68209769521138
 10
125.899285996301
 20
-17.63517005231053
 10
125.8179961266011
 20
-17.56493800971141
 10
125.7894507946014
 20
-17.48209368451088
 10
125.7894507946014
 20
-17.48209368451088
  0
LWPOLYLINE
  5
2BF
330
70
100
AcDbEntity
  8
0
 62
     8
420
  8421504
370
    25
100
AcDbPolyline
 90
       10
 70
     0
 43
0.0
 10
159.3265088024015
 20
-14.81213773091038
 10
159.3550539492017
 20
-14.89498209181119
 10
159.4363445186013
 20
-14.96521472841057
 10
159.5580028786011
 20
-15.0121420149105
 10
159.7015090700008
 20
-15.02862077741041
 10
159.8450152202009
 20
-15.01214189611147
 10
159.9666738683005
 20
-14.96521425321062
 10
160.0479637380017
 20
-14.89498221061151
 10
160.0765090700014
 20
-14.81213788541098
 10
160.0765090700014
 20
-14.81213788541098
  0
LWPOLYLINE
  5
2C0
330
70
100
AcDbEntity
  8
0
 62
     8
420
  8421504
370
    25
100
AcDbPolyline
 90
       10
 70
     0
 43
0.0
 10
131.1644512886007
 20
-14.81213773091038
 10
131.1359061418017
 20
-14.89498209181119
 10
131.0546155724009
 20
-14.96521472841057
 10
130.9329572124011
 20
-15.0121420149105
 10
130.7894510210014
 20
-15.02862077741041
 10
130.6459448708013
 20
-15.01214189611147
 10
130.5242862227017
 20
-14.96521425321062
 10
130.4429963530005
 20
-14.89498221061151
 10
130.4144510210008
 20
-14.81213788541098
 10
130.4144510210008
 20
-14.81213788541098
  0
LWPOLYLINE
  5
2C1
330
70
100
AcDbEntity
  8
0
 62
     8
420
  8421504
370
    25
100
AcDbPolyline
 90
       10
 70
     0
 43
0.0
 10
158.5765089671014
 20
-15.35574564031057
 10
158.5765092963007
 20
-15.36500712431129
 10
158.5765085555015
 20
-15.42454289371113
 10
158.576509131701
 20
-15.5306957986105
 10
158.5765094610017
 20
-15.66730439311152
 10
158.5765086378007
 20
-15.8135707569106
 10
158.5765092963007
 20
-15.94722969781058
 10
158.5765086378007
 20
-16.04792868981069
 10
158.5765094610017
 20
-16.10034086091156
 10
158.5765094610017
 20
-16.10574623641034
  0
LWPOLYLINE
  5
2C2
330
70
100
AcDbEntity
  8
0
 62
     8
420
  8421504
370
    25
100
AcDbPolyline
 90
       10
 70
     0
 43
0.0
 10
131.9144511239008
 20
-15.35574564031057
 10
131.9144507947015
 20
-15.36500712431129
 10
131.9144515355007
 20
-15.42454289371113
 10
131.9144509593012
 20
-15.5306957986105
 10
131.9144506300018
 20
-15.66730439311152
 10
131.9144514532015
 20
-15.8135707569106
 10
131.9144507947015
 20
-15.94722969781058
 10
131.9144514532015
 20
-16.04792868981069
 10
131.9144506300018
 20
-16.10034086091156
 10
131.9144506300018
 20
-16.10574623641034
  0
LWPOLYLINE
  5
2C3
330
70
100
AcDbEntity
  8
0
 62
     8
420
  8421504
370
    25
100
AcDbPolyline
 90
       10
 70
     0
 43
0.0
 10
150.0765090082016
 20
2.775885391588774
 10
150.1050541549017
 20
2.693041030689243
 10
150.1863440658013
 20
2.622808774288845
 10
150.3080030843011
 20
2.575881107588654
 10
150.4515092757008
 20
2.559402345188845
 10
150.5950154259009
 20
2.575881226388964
 10
150.7166740740005
 20
2.622808869288537
 10
150.7979639437017
 20
2.693040911888933
 10
150.8265092757014
 20
2.775885237189568
 10
150.8265092757014
 20
2.775885237189568
  0
LWPOLYLINE
  5
2C4
330
70
100
AcDbEntity
  8
0
 62
     8
420
  8421504
370
    25
100
AcDbPolyline
 90
        9
 70
     0
 43
0.0
 10
140.4144510828006
 20
2.775885391588774
 10
140.3859059361018
 20
2.693041030689243
 10
140.3046160252009
 20
2.622808774288845
 10
140.1829570067011
 20
2.575881107588654
 10
140.0394508153014
 20
2.559402345188845
 10
139.8959446651013
 20
2.575881226388964
 10
139.7742860170017
 20
2.622808869288537
 10
139.6929961473005
 20
2.693040911888933
 10
139.6644508153008
 20
2.775885237189568
  0
LWPOLYLINE
  5
2C5
330
70
100
AcDbEntity
  8
0
 62
     8
420
  8421504
370
    25
100
AcDbPolyline
 90
       10
 70
     0
 43
0.0
 10
149.3265091728014
 20
2.232276721689238
 10
149.3265091728014
 20
2.22301618828864
 10
149.3265090905009
 20
2.163480038788643
 10
149.3265090082017
 20
2.057327514089529
 10
149.3265090082017
 20
1.920718349188653
 10
149.3265091728014
 20
1.774451415088543
 10
149.3265091728014
 20
1.640794375288698
 10
149.3265091728014
 20
1.540094242588976
 10
149.3265090082017
 20
1.487682641789142
 10
149.3265090082017
 20
1.482277266389185
  0
LWPOLYLINE
  5
2C6
330
70
100
AcDbEntity
  8
0
 62
     8
420
  8421504
370
    25
100
AcDbPolyline
 90
       10
 70
     0
 43
0.0
 10
141.1644509182008
 20
2.232276721689238
 10
141.1644509182008
 20
2.22301618828864
 10
141.1644510005013
 20
2.163480038788643
 10
141.1644510828018
 20
2.057327514089529
 10
141.1644510828018
 20
1.920718349188653
 10
141.1644509182008
 20
1.774451415088543
 10
141.1644509182008
 20
1.640794375288698
 10
141.1644509182008
 20
1.540094242588976
 10
141.1644510828005
 20
1.487682641789142
 10
141.1644510828018
 20
1.482277266389185
  0
LWPOLYLINE
  5
2C7
330
70
100
AcDbEntity
  8
0
 62
     8
420
  8421504
370
    25
100
AcDbPolyline
 90
       10
 70
     0
 43
0.0
 10
154.701509234601
 20
-12.14218231201074
 10
154.7300543813011
 20
-12.22502667291155
 10
154.8113442922007
 20
-12.29525892931067
 10
154.9330026522005
 20
-12.34218621581059
 10
155.0765088436015
 20
-12.35866497831051
 10
155.2200156523015
 20
-12.34218647721055
 10
155.3416743004012
 20
-12.29525883431098
 10
155.422964170101
 20
-12.22502679171058
 10
155.4515088436008
 20
-12.14218208631107
 10
155.4515088436008
 20
-12.14218208631107
  0
LWPOLYLINE
  5
2C8
330
70
100
AcDbEntity
  8
0
 62
     8
420
  8421504
370
    25
100
AcDbPolyline
 90
       10
 70
     0
 43
0.0
 10
135.7894508564012
 20
-12.14218231201074
 10
135.7609057097011
 20
-12.22502667291155
 10
135.6796157988015
 20
-12.29525892931067
 10
135.5579574388017
 20
-12.34218621581059
 10
135.4144512474007
 20
-12.35866497831051
 10
135.2709444387007
 20
-12.34218647721055
 10
135.1492857906011
 20
-12.29525883431098
 10
135.0679959209012
 20
-12.22502679171058
 10
135.0394512474014
 20
-12.14218208631107
 10
135.0394512474014
 20
-12.14218208631107
  0
LWPOLYLINE
  5
2C9
330
70
100
AcDbEntity
  8
0
 62
     8
420
  8421504
370
    25
100
AcDbPolyline
 90
       10
 70
     0
 43
0.0
 10
153.9515087407008
 20
-12.68578984121066
 10
153.9515090699013
 20
-12.69505132521138
 10
153.9515089876009
 20
-12.75458747471138
 10
153.9515089053017
 20
-12.8607399995106
 10
153.9515092346011
 20
-12.99734859401033
 10
153.9515090699013
 20
-13.14361533801095
 10
153.9515090699013
 20
-13.27727389871067
 10
153.9515090699013
 20
-13.37797327091104
 10
153.9515092346011
 20
-13.43038506181037
 10
153.9515092346011
 20
-13.43579043731043
  0
LWPOLYLINE
  5
2CA
330
70
100
AcDbEntity
  8
0
 62
     8
420
  8421504
370
    25
100
AcDbPolyline
 90
       10
 70
     0
 43
0.0
 10
136.5394513503014
 20
-12.68578984121066
 10
136.5394510211009
 20
-12.69505132521138
 10
136.5394511034013
 20
-12.75458747471138
 10
136.5394511857005
 20
-12.8607399995106
 10
136.5394508564011
 20
-12.99734859401033
 10
136.5394510211009
 20
-13.14361533801095
 10
136.5394510211009
 20
-13.27727389871067
 10
136.5394510211009
 20
-13.37797327091104
 10
136.5394508564011
 20
-13.43038506181037
 10
136.5394508564011
 20
-13.43579043731043
  0
LWPOLYLINE
  5
2CB
330
70
100
AcDbEntity
  8
0
 62
     8
420
  8421504
370
    25
100
AcDbPolyline
 90
       10
 70
     0
 43
0.0
 10
181.7015100991008
 20
-28.7055246358114
 10
181.7015077942013
 20
-28.71478459911116
 10
181.7015096875009
 20
-28.77432188921067
 10
181.7015089467017
 20
-28.8804740337108
 10
181.701507958901
 20
-29.0170818679114
 10
181.7015084528014
 20
-29.163348992111
 10
181.7015077942013
 20
-29.29700717261045
 10
181.7015084528014
 20
-29.3977069250111
 10
181.701507958901
 20
-29.45011833571144
 10
181.701509275901
 20
-29.45552447151064
  0
LWPOLYLINE
  5
2CC
330
70
100
AcDbEntity
  8
0
 62
     8
420
  8421504
370
    25
100
AcDbPolyline
 90
       10
 70
     0
 43
0.0
 10
108.7894499919014
 20
-28.7055246358114
 10
108.7894522968009
 20
-28.71478459911116
 10
108.7894504035013
 20
-28.77432188921067
 10
108.7894511443018
 20
-28.8804740337108
 10
108.7894521321012
 20
-29.0170818679114
 10
108.7894516382008
 20
-29.163348992111
 10
108.7894522968009
 20
-29.29700717261045
 10
108.7894516382008
 20
-29.3977069250111
 10
108.7894521321012
 20
-29.45011833571144
 10
108.7894508151012
 20
-29.45552447151064
  0
LWPOLYLINE
  5
2CD
330
70
100
AcDbEntity
  8
0
 62
     8
420
  8421504
370
    25
100
AcDbPolyline
 90
        9
 70
     0
 43
0.0
 10
182.4515086174009
 20
-28.16191596611079
 10
182.4800550813012
 20
-28.24476108731074
 10
182.5613443336007
 20
-28.31499296361098
 10
182.6830026936005
 20
-28.3619202501109
 10
182.8265102020015
 20
-28.37839977291124
 10
182.9700163523017
 20
-28.36192089161102
 10
183.0916736832011
 20
-28.31499248841102
 10
183.1729648701012
 20
-28.24476120611105
 10
183.2015102020008
 20
-28.16191688091052
  0
LWPOLYLINE
  5
2CE
330
70
100
AcDbEntity
  8
0
 62
     8
420
  8421504
370
    25
100
AcDbPolyline
 90
        9
 70
     0
 43
0.0
 10
108.0394514736013
 20
-28.16191596611079
 10
108.010905009701
 20
-28.24476108731074
 10
107.9296157574015
 20
-28.31499296361098
 10
107.8079573975005
 20
-28.3619202501109
 10
107.6644498890007
 20
-28.37839977291124
 10
107.5209437387005
 20
-28.36192089161102
 10
107.3992864078011
 20
-28.31499248841102
 10
107.3179952210011
 20
-28.24476120611105
 10
107.2894498890014
 20
-28.16191688091052
  0
LWPOLYLINE
  5
2CF
330
70
100
AcDbEntity
  8
0
 62
     8
420
  8421504
370
    25
100
AcDbPolyline
 90
       10
 70
     0
 43
0.0
 10
177.0765098727014
 20
-26.03556883671148
 10
177.0765102020008
 20
-26.04483032071092
 10
177.0765094611015
 20
-26.10436609011076
 10
177.0765087203011
 20
-26.2105182346109
 10
177.0765103666018
 20
-26.34712758951116
 10
177.0765082264007
 20
-26.49339319301109
 10
177.0765102020008
 20
-26.6270528942115
 10
177.0765082264007
 20
-26.72775112591118
 10
177.0765103666018
 20
-26.78016405731119
 10
177.0765090495016
 20
-26.78556867241073
  0
LWPOLYLINE
  5
2D0
330
70
100
AcDbEntity
  8
0
 62
     8
420
  8421504
370
    25
100
AcDbPolyline
 90
       10
 70
     0
 43
0.0
 10
113.4144502183008
 20
-26.03556883671148
 10
113.4144498890014
 20
-26.04483032071092
 10
113.4144506299007
 20
-26.10436609011076
 10
113.4144513707011
 20
-26.2105182346109
 10
113.4144497244017
 20
-26.34712758951116
 10
113.4144518647016
 20
-26.49339319301109
 10
113.4144498890014
 20
-26.6270528942115
 10
113.4144518647016
 20
-26.72775112591118
 10
113.4144497244017
 20
-26.78016405731119
 10
113.4144510415005
 20
-26.78556867241073
  0
LWPOLYLINE
  5
2D1
330
70
100
AcDbEntity
  8
0
 62
     8
420
  8421504
370
    25
100
AcDbPolyline
 90
        9
 70
     0
 43
0.0
 10
177.8265083910015
 20
-25.49196016701088
 10
177.8550548549006
 20
-25.57480528821083
 10
177.9363441072013
 20
-25.64503716451107
 10
178.0580024671011
 20
-25.691964451011
 10
178.2015099756009
 20
-25.70844397381133
 10
178.345016125901
 20
-25.69196509251111
 10
178.4666734568017
 20
-25.64503668931112
 10
178.5479646436017
 20
-25.57480540701114
 10
178.5765099756014
 20
-25.49196108181061
  0
LWPOLYLINE
  5
2D2
330
70
100
AcDbEntity
  8
0
 62
     8
420
  8421504
370
    25
100
AcDbPolyline
 90
        9
 70
     0
 43
0.0
 10
112.6644517000007
 20
-25.49196016701088
 10
112.6359052362017
 20
-25.57480528821083
 10
112.5546159838009
 20
-25.64503716451107
 10
112.4329576239011
 20
-25.691964451011
 10
112.2894501154013
 20
-25.70844397381133
 10
112.1459439652013
 20
-25.69196509251111
 10
112.0242866342005
 20
-25.64503668931112
 10
111.9429954474018
 20
-25.57480540701114
 10
111.9144501154007
 20
-25.49196108181061
  0
LWPOLYLINE
  5
2D3
330
70
100
AcDbEntity
  8
0
 62
     8
420
  8421504
370
    25
100
AcDbPolyline
 90
       10
 70
     0
 43
0.0
 10
172.4515096463008
 20
-23.36561303761158
 10
172.4515099756015
 20
-23.37487452161102
 10
172.4515092347009
 20
-23.43441029101085
 10
172.4515084939017
 20
-23.54056243551099
 10
172.4515101402011
 20
-23.67717179041125
 10
172.4515079999012
 20
-23.82343739391118
 10
172.4515099756015
 20
-23.95709709511159
 10
172.4515079999012
 20
-24.05779532681128
 10
172.4515101402011
 20
-24.11020825821129
 10
172.451508823101
 20
-24.11561287331082
  0
LWPOLYLINE
  5
2D4
330
70
100
AcDbEntity
  8
0
 62
     8
420
  8421504
370
    25
100
AcDbPolyline
 90
       10
 70
     0
 43
0.0
 10
118.0394504447014
 20
-23.36561303761158
 10
118.0394501154007
 20
-23.37487452161102
 10
118.0394508563013
 20
-23.43441029101085
 10
118.0394515972006
 20
-23.54056243551099
 10
118.0394499508011
 20
-23.67717179041125
 10
118.039452091101
 20
-23.82343739391118
 10
118.0394501154007
 20
-23.95709709511159
 10
118.039452091101
 20
-24.05779532681128
 10
118.0394499508011
 20
-24.11020825821129
 10
118.0394512679012
 20
-24.11561287331082
  0
LWPOLYLINE
  5
2D5
330
70
100
AcDbEntity
  8
0
 62
     8
420
  8421504
370
    25
100
AcDbPolyline
 90
        9
 70
     0
 43
0.0
 10
173.2015081646009
 20
-22.82200436791097
 10
173.2300546284011
 20
-22.90484948911092
 10
173.3113438808007
 20
-22.97508136541116
 10
173.4330022407017
 20
-23.02200865191109
 10
173.5765097492015
 20
-23.03848817471143
 10
173.7200158994015
 20
-23.0220092934112
 10
173.8416732304011
 20
-22.9750808902112
 10
173.9229644172011
 20
-22.90484960791123
 10
173.9515097492008
 20
-22.8220052827107
  0
LWPOLYLINE
  5
2D6
330
70
100
AcDbEntity
  8
0
 62
     8
420
  8421504
370
    25
100
AcDbPolyline
 90
        9
 70
     0
 43
0.0
 10
117.2894519264013
 20
-22.82200436791097
 10
117.2609054626011
 20
-22.90484948911092
 10
117.1796162102015
 20
-22.97508136541116
 10
117.0579578503005
 20
-23.02200865191109
 10
116.9144503418007
 20
-23.03848817471143
 10
116.7709441916006
 20
-23.0220092934112
 10
116.6492868606011
 20
-22.9750808902112
 10
116.5679956738011
 20
-22.90484960791123
 10
116.5394503418014
 20
-22.8220052827107
  0
LWPOLYLINE
  5
2D7
330
70
100
AcDbEntity
  8
0
 62
     8
420
  8421504
370
    25
100
AcDbPolyline
 90
       26
 70
     0
 43
0.0
 10
162.6370476569011
 20
5.224768412588667
 10
162.5658708494011
 20
5.685946545488436
 10
162.4093163806008
 20
6.380181813189631
 10
162.1931122674016
 20
7.083781527188808
 10
161.9201824473014
 20
7.787230289788695
 10
161.5942160868006
 20
8.48101638718867
 10
161.2196241168017
 20
9.155755931188435
 10
160.8014720618014
 20
9.80232422248927
 10
160.3454115508012
 20
10.41197912988856
 10
159.8576131458015
 20
10.97647515288853
 10
159.3446728285014
 20
11.48817786318849
 10
158.813526389801
 20
11.94016845948915
 10
158.271357233101
 20
12.32633387468953
 10
157.7254962758005
 20
12.64145269778918
 10
157.1833271191005
 20
12.88126246668853
 10
156.6521806804014
 20
13.04252049518868
 10
156.1392403631013
 20
13.12304606928875
 10
155.6514419581016
 20
13.12175009668856
 10
155.1953821056015
 20
13.03865106708865
 10
154.7772287336011
 20
12.87487162238968
 10
154.402636763601
 20
12.63262676098848
 10
154.0766717201014
 20
12.31519265218907
 10
153.8037419001014
 20
11.9268619523884
 10
153.5875377868008
 20
11.47288619408871
 10
153.4309833180017
 20
10.95940486868858
 10
153.3598058520005
 20
10.58040610868899
  0
SPLINE
  5
2D8
330
70
100
AcDbEntity
  8
0
 62
     8
420
  8421504
370
    25
100
AcDbSpline
210
0.0
220
0.0
230
1.0
 70
     8
 71
     3
 72
     8
 73
     4
 74
     0
 42
0.0000000001
 43
0.0000000001
 40
0.0
 40
0.0
 40
0.0
 40
0.0
 40
1.0
 40
1.0
 40
1.0
 40
1.0
 10
153.7140257475691
 20
7.331576094097282
 30
0.0
 10
153.9607817175749
 20
6.559521719759271
 30
0.0
 10
154.2919453739724
 20
5.817040969676622
 30
0.0
 10
154.7015092860216
 20
5.117602718209941
 30
0.0
  0
LWPOLYLINE
  5
2D9
330
70
100
AcDbEntity
  8
0
 62
     8
420
  8421504
370
    25
100
AcDbPolyline
 90
        9
 70
     0
 43
0.0
 10
155.4515091626009
 20
3.989813088388563
 10
155.6514419581016
 20
3.733301099289139
 10
156.1392403631013
 20
3.168805076289167
 10
156.6521806804014
 20
2.657102366089312
 10
157.1833271191005
 20
2.20511176968854
 10
157.7254962758005
 20
1.818946354589551
 10
158.271357233101
 20
1.503827531488623
 10
158.813526389801
 20
1.264017762489164
 10
159.3265088539017
 20
1.107012439289545
  0
SPLINE
  5
2DA
330
70
100
AcDbEntity
  8
0
 62
     8
420
  8421504
370
    25
100
AcDbSpline
210
0.0
220
0.0
230
1.0
 70
     8
 71
     3
 72
     8
 73
     4
 74
     0
 42
0.0000000001
 43
0.0000000001
 40
0.0
 40
0.0
 40
0.0
 40
0.0
 40
1.0
 40
1.0
 40
1.0
 40
1.0
 10
160.0765093889259
 20
1.012693399669862
 30
0.0
 10
161.0181908605855
 20
0.9950291523809632
 30
0.0
 10
161.8823101481689
 20
1.532467392525493
 30
0.0
 10
162.282828419844
 20
2.38491160404445
 30
0.0
  0
LWPOLYLINE
  5
2DB
330
70
100
AcDbEntity
  8
0
 62
     8
420
  8421504
370
    25
100
AcDbPolyline
 90
        3
 70
     0
 43
0.0
 10
162.5621491983012
 20
2.223663043488934
 10
162.5375301704012
 20
2.179194566988946
 10
162.3780688862017
 20
1.927433877488816
  0
LWPOLYLINE
  5
2DC
330
70
100
AcDbEntity
  8
0
 62
     8
420
  8421504
370
    25
100
AcDbPolyline
 90
       20
 70
     0
 43
0.0
 10
155.7372678721005
 20
13.43873564038852
 10
155.9063169058015
 20
13.44916071878853
 10
156.4112157361018
 20
13.42395350268926
 10
156.9391076479007
 20
13.31727587198925
 10
157.4831101925012
 20
13.13051844768955
 10
158.0361334798008
 20
12.86611518668875
 10
158.5909651303015
 20
12.52751449148865
 10
159.1403730083015
 20
12.11912979028942
 10
159.6771961007016
 20
11.64628441208901
 10
160.1944353965009
 20
11.11514277258901
 10
160.6853473999017
 20
10.53262977458902
 10
161.1435323756016
 20
9.906339180389235
 10
161.5630173246012
 20
9.244435519489615
 10
161.9383350106017
 20
8.555546871088752
 10
162.2645898136015
 20
7.848655743688424
 10
162.5375301704012
 20
7.132976457389185
 10
162.7535973064016
 20
6.41783917758903
 10
162.9099752853012
 20
5.712566534989307
 10
163.0046252532006
 20
5.026352904988824
 10
163.0059805378005
 20
5.011787981489076
  0
LWPOLYLINE
  5
2DD
330
70
100
AcDbEntity
  8
0
 62
     8
420
  8421504
370
    25
100
AcDbPolyline
 90
        3
 70
     0
 43
0.0
 10
156.9569354767006
 20
8.775167455288556
 10
156.7517093004013
 20
8.638275429289393
 10
156.7415137143009
 20
8.62818769278927
  0
LWPOLYLINE
  5
2DE
330
70
100
AcDbEntity
  8
0
 62
     8
420
  8421504
370
    25
100
AcDbPolyline
 90
        3
 70
     0
 43
0.0
 10
159.0285136671012
 20
7.307930722588642
 10
159.0183180810007
 20
7.329790032088742
 10
158.8130919047015
 20
7.703631157689352
  0
LINE
  5
2DF
330
70
100
AcDbEntity
  8
0
 62
     8
420
  8421504
370
    25
100
AcDbLine
 10
158.7247033780016
 20
7.543101600189616
 30
0.0
 11
158.8130917195007
 21
7.594127103589308
 31
0.0
  0
LINE
  5
2E0
330
70
100
AcDbEntity
  8
0
 62
     8
420
  8421504
370
    25
100
AcDbLine
 10
157.3282126834014
 20
8.67589483578914
 30
0.0
 11
157.0453240035005
 21
8.512586676989222
 31
0.0
  0
LINE
  5
2E1
330
70
100
AcDbEntity
  8
0
 62
     8
420
  8421504
370
    25
100
AcDbLine
 10
157.0419612694017
 20
8.837245354788475
 30
0.0
 11
156.9570720543006
 21
8.788239853989242
 31
0.0
  0
LINE
  5
2E2
330
70
100
AcDbEntity
  8
0
 62
     8
420
  8421504
370
    25
100
AcDbLine
 10
156.9569354767006
 20
8.665679905588984
 30
0.0
 11
157.1514214506013
 21
8.777954268489633
 31
0.0
  0
LINE
  5
2E3
330
70
100
AcDbEntity
  8
0
 62
     8
420
  8421504
370
    25
100
AcDbLine
 10
104.4984511922006
 20
-11.6683502739116
 30
0.0
 11
104.1814908394013
 21
-11.48537295701092
 31
0.0
  0
LINE
  5
2E4
330
70
100
AcDbEntity
  8
0
 62
     8
420
  8421504
370
    25
100
AcDbLine
 10
104.3582834510008
 20
-11.38331279961146
 30
0.0
 11
104.5868410361006
 21
-11.51525628501142
 31
0.0
  0
LINE
  5
2E5
330
70
100
AcDbEntity
  8
0
 62
     8
420
  8421504
370
    25
100
AcDbLine
 10
103.4144503983009
 20
-14.51286857481147
 30
0.0
 11
104.4984511922006
 21
-15.13864891301061
 31
0.0
  0
LINE
  5
2E6
330
70
100
AcDbEntity
  8
0
 62
     8
420
  8421504
370
    25
100
AcDbLine
 10
107.5920430438016
 20
-9.780390093610961
 30
0.0
 11
107.3634854588006
 21
-9.648446608211008
 31
0.0
  0
SPLINE
  5
2E7
330
70
100
AcDbEntity
  8
0
 62
     8
420
  8421504
370
    25
100
AcDbSpline
210
0.0
220
0.0
230
1.0
 70
     8
 71
     3
 72
     8
 73
     4
 74
     0
 42
0.0000000001
 43
0.0000000001
 40
0.0
 40
0.0
 40
0.0
 40
0.0
 40
1.0
 40
1.0
 40
1.0
 40
1.0
 10
104.6493359220922
 20
-15.19587826667008
 30
0.0
 10
104.6678983665612
 20
-15.18306782336002
 30
0.0
 10
104.6778612307063
 20
-15.16104772863462
 30
0.0
 10
104.6752293982381
 20
-15.1386480576476
 30
0.0
  0
SPLINE
  5
2E8
330
70
100
AcDbEntity
  8
0
 62
     8
420
  8421504
370
    25
100
AcDbSpline
210
0.0
220
0.0
230
1.0
 70
     8
 71
     3
 72
     8
 73
     4
 74
     0
 42
0.0000000001
 43
0.0000000001
 40
0.0
 40
0.0
 40
0.0
 40
0.0
 40
1.0
 40
1.0
 40
1.0
 40
1.0
 10
104.4984511922006
 20
-15.13864891304141
 30
0.0
 10
104.4952626877214
 20
-15.1611316007679
 30
0.0
 10
104.5053526460583
 20
-15.18343206479337
 30
0.0
 10
104.5243451622545
 20
-15.19587883693647
 30
0.0
  0
SPLINE
  5
2E9
330
70
100
AcDbEntity
  8
0
 62
     8
420
  8421504
370
    25
100
AcDbSpline
210
0.0
220
0.0
230
1.0
 70
     8
 71
     3
 72
     8
 73
     4
 74
     0
 42
0.0000000001
 43
0.0000000001
 40
0.0
 40
0.0
 40
0.0
 40
0.0
 40
1.0
 40
1.0
 40
1.0
 40
1.0
 10
107.6545389175913
 20
-9.774201036961473
 30
0.0
 10
107.6340945137085
 20
-9.764967606221615
 30
0.0
 10
107.6102792977127
 20
-9.767326061458071
 30
0.0
 10
107.5920430437836
 20
-9.780390093605827
 30
0.0
  0
SPLINE
  5
2EA
330
70
100
AcDbEntity
  8
0
 62
     8
420
  8421504
370
    25
100
AcDbSpline
210
0.0
220
0.0
230
1.0
 70
     8
 71
     3
 72
     8
 73
     4
 74
     0
 42
0.0000000001
 43
0.0000000001
 40
0.0
 40
0.0
 40
0.0
 40
0.0
 40
1.0
 40
1.0
 40
1.0
 40
1.0
 10
107.6804314058928
 20
-9.93348322713531
 30
0.0
 10
107.7008650850826
 20
-9.924224569960031
 30
0.0
 10
107.7148173700557
 20
-9.904779665393284
 30
0.0
 10
107.7170441756314
 20
-9.882457046486452
 30
0.0
  0
SPLINE
  5
2EB
330
70
100
AcDbEntity
  8
0
 62
     8
420
  8421504
370
    25
100
AcDbSpline
210
0.0
220
0.0
230
1.0
 70
     8
 71
     3
 72
     8
 73
     4
 74
     0
 42
0.0000000001
 43
0.0000000001
 40
0.0
 40
0.0
 40
0.0
 40
0.0
 40
1.0
 40
1.0
 40
1.0
 40
1.0
 10
107.6545379297931
 20
-13.46101207526962
 30
0.0
 10
107.6731003742609
 20
-13.44820163195956
 30
0.0
 10
107.683063238406
 20
-13.42618153723416
 30
0.0
 10
107.6804314059377
 20
-13.40378186624714
 30
0.0
  0
SPLINE
  5
2EC
330
70
100
AcDbEntity
  8
0
 62
     8
420
  8421504
370
    25
100
AcDbSpline
210
0.0
220
0.0
230
1.0
 70
     8
 71
     3
 72
     8
 73
     4
 74
     0
 42
0.0000000001
 43
0.0000000001
 40
0.0
 40
0.0
 40
0.0
 40
0.0
 40
1.0
 40
1.0
 40
1.0
 40
1.0
 10
107.6804314058928
 20
-13.40378186623559
 30
0.0
 10
107.7008650850826
 20
-13.39452320906032
 30
0.0
 10
107.7148173700557
 20
-13.37507830449357
 30
0.0
 10
107.7170441756314
 20
-13.35275568558674
 30
0.0
  0
SPLINE
  5
2ED
330
70
100
AcDbEntity
  8
0
 62
     8
420
  8421504
370
    25
100
AcDbSpline
210
0.0
220
0.0
230
1.0
 70
     8
 71
     3
 72
     8
 73
     4
 74
     0
 42
0.0000000001
 43
0.0000000001
 40
0.0
 40
0.0
 40
0.0
 40
0.0
 40
1.0
 40
1.0
 40
1.0
 40
1.0
 10
147.8712369884006
 20
13.74888942224628
 30
0.0
 10
147.8507930578107
 20
13.75812335125646
 30
0.0
 10
147.8269779438809
 20
13.75576507912625
 30
0.0
 10
147.8087420638224
 20
13.74270091357953
 30
0.0
  0
SPLINE
  5
2EE
330
70
100
AcDbEntity
  8
0
 62
     8
420
  8421504
370
    25
100
AcDbSpline
210
0.0
220
0.0
230
1.0
 70
     8
 71
     3
 72
     8
 73
     4
 74
     0
 42
0.0000000001
 43
0.0000000001
 40
0.0
 40
0.0
 40
0.0
 40
0.0
 40
1.0
 40
1.0
 40
1.0
 40
1.0
 10
146.9248585967729
 20
11.29316148327636
 30
0.0
 10
146.9220027747053
 20
11.27072750543776
 30
0.0
 10
146.9320160104615
 20
11.24859584273302
 30
0.0
 10
146.9507519906003
 20
11.23593084650114
 30
0.0
  0
SPLINE
  5
2EF
330
70
100
AcDbEntity
  8
0
 62
     8
420
  8421504
370
    25
100
AcDbSpline
210
0.0
220
0.0
230
1.0
 70
     8
 71
     3
 72
     8
 73
     4
 74
     0
 42
0.0000000001
 43
0.0000000001
 40
0.0
 40
0.0
 40
0.0
 40
0.0
 40
1.0
 40
1.0
 40
1.0
 40
1.0
 10
143.5402081003827
 20
11.23593084655505
 30
0.0
 10
143.5589440805419
 20
11.24859584276896
 30
0.0
 10
143.5689573163046
 20
11.27072750548782
 30
0.0
 10
143.56610149421
 20
11.29316148333026
 30
0.0
  0
SPLINE
  5
2F0
330
70
100
AcDbEntity
  8
0
 62
     8
420
  8421504
370
    25
100
AcDbSpline
210
0.0
220
0.0
230
1.0
 70
     8
 71
     3
 72
     8
 73
     4
 74
     0
 42
0.0000000001
 43
0.0000000001
 40
0.0
 40
0.0
 40
0.0
 40
0.0
 40
1.0
 40
1.0
 40
1.0
 40
1.0
 10
147.8087420638108
 20
13.7427009135359
 30
0.0
 10
147.2431691863979
 20
14.05127066038694
 30
0.0
 10
146.6220863532641
 20
14.2447792446607
 30
0.0
 10
145.9813357442287
 20
14.3120594450056
 30
0.0
  0
LINE
  5
2F1
330
70
100
AcDbEntity
  8
0
 62
    18
420
        0
370
    25
100
AcDbLine
 10
179.411281781601
 20
88.47615455198917
 30
0.0
 11
179.411281781601
 21
79.97615432288917
 31
0.0
  0
LINE
  5
2F2
330
70
100
AcDbEntity
  8
0
 62
    18
420
        0
370
    25
100
AcDbLine
 10
180.161283301501
 20
79.97615432288917
 30
0.0
 11
180.161283301501
 21
88.47615455198917
 31
0.0
  0
SPLINE
  5
2F3
330
70
100
AcDbEntity
  8
0
 62
    18
420
        0
370
    25
100
AcDbSpline
210
0.0
220
0.0
230
1.0
 70
     8
 71
     3
 72
     8
 73
     4
 74
     0
 42
0.0000000001
 43
0.0000000001
 40
0.0
 40
0.0
 40
0.0
 40
0.0
 40
1.0
 40
1.0
 40
1.0
 40
1.0
 10
178.9907896391753
 20
79.22615466561307
 30
0.0
 10
179.2903379568762
 20
79.34564744179798
 30
0.0
 10
179.465606422265
 20
79.65826039149401
 30
0.0
 10
179.4112817816139
 20
79.9761543228866
 30
0.0
  0
LWPOLYLINE
  5
2F4
330
70
100
AcDbEntity
  8
0
 62
    18
420
        0
370
    25
100
AcDbPolyline
 90
        9
 70
     0
 43
0.0
 10
178.9907896391009
 20
78.47615407708855
 10
179.1725949816006
 20
78.49390042868892
 10
179.4285820297005
 20
78.58256233778885
 10
179.6571509413017
 20
78.73801218268887
 10
179.8529521994015
 20
78.95500661728913
 10
180.0079093746008
 20
79.22729367318916
 10
180.1123404375007
 20
79.54242901798884
 10
180.1590518526013
 20
79.88251449468911
 10
180.161283301501
 20
79.97615432288917
  0
LINE
  5
2F5
330
70
100
AcDbEntity
  8
0
 62
    18
420
        0
370
    25
100
AcDbLine
 10
126.6648866668011
 20
78.47615407708855
 30
0.0
 11
133.6261191837014
 21
78.47615407708855
 31
0.0
  0
LINE
  5
2F6
330
70
100
AcDbEntity
  8
0
 62
    18
420
        0
370
    25
100
AcDbLine
 10
134.376119772301
 20
78.47615407708855
 30
0.0
 11
140.1668572298006
 21
78.47615407708855
 31
0.0
  0
LINE
  5
2F7
330
70
100
AcDbEntity
  8
0
 62
    18
420
        0
370
    25
100
AcDbLine
 10
140.9168568871011
 20
78.47615407708855
 30
0.0
 11
146.7075952760012
 21
78.47615407708855
 31
0.0
  0
LINE
  5
2F8
330
70
100
AcDbEntity
  8
0
 62
    18
420
        0
370
    25
100
AcDbLine
 10
147.4575949333017
 20
78.47615407708855
 30
0.0
 11
153.2483333222005
 21
78.47615407708855
 31
0.0
  0
LINE
  5
2F9
330
70
100
AcDbEntity
  8
0
 62
    18
420
        0
370
    25
100
AcDbLine
 10
153.9983311168014
 20
78.47615407708855
 30
0.0
 11
159.7890713683009
 21
78.47615407708855
 31
0.0
  0
LINE
  5
2FA
330
70
100
AcDbEntity
  8
0
 62
    18
420
        0
370
    25
100
AcDbLine
 10
160.5390691630007
 20
78.47615407708855
 30
0.0
 11
166.3298094145015
 21
78.47615407708855
 31
0.0
  0
LINE
  5
2FB
330
70
100
AcDbEntity
  8
0
 62
    18
420
        0
370
    25
100
AcDbLine
 10
167.0798072091012
 20
78.47615407708855
 30
0.0
 11
172.8705474607008
 21
78.47615407708855
 31
0.0
  0
LINE
  5
2FC
330
70
100
AcDbEntity
  8
0
 62
    18
420
        0
370
    25
100
AcDbLine
 10
173.6205452553017
 20
78.47615407708855
 30
0.0
 11
178.9907896391009
 21
78.47615407708855
 31
0.0
  0
LINE
  5
2FD
330
70
100
AcDbEntity
  8
0
 62
    18
420
        0
370
    25
100
AcDbLine
 10
178.9907896391009
 20
79.22615466568942
 30
0.0
 11
173.6205452553017
 21
79.22615466568942
 31
0.0
  0
LINE
  5
2FE
330
70
100
AcDbEntity
  8
0
 62
    18
420
        0
370
    25
100
AcDbLine
 10
172.8705474607008
 20
79.22615466568942
 30
0.0
 11
167.0798072091012
 21
79.22615466568942
 31
0.0
  0
LINE
  5
2FF
330
70
100
AcDbEntity
  8
0
 62
    18
420
        0
370
    25
100
AcDbLine
 10
166.3298094145015
 20
79.22615466568942
 30
0.0
 11
160.5390691630007
 21
79.22615466568942
 31
0.0
  0
LINE
  5
300
330
70
100
AcDbEntity
  8
0
 62
    18
420
        0
370
    25
100
AcDbLine
 10
159.7890713683009
 20
79.22615466568942
 30
0.0
 11
153.9983311168014
 21
79.22615466568942
 31
0.0
  0
LINE
  5
301
330
70
100
AcDbEntity
  8
0
 62
    18
420
        0
370
    25
100
AcDbLine
 10
153.2483333222005
 20
79.22615466568942
 30
0.0
 11
147.4575949333017
 21
79.22615466568942
 31
0.0
  0
LINE
  5
302
330
70
100
AcDbEntity
  8
0
 62
    18
420
        0
370
    25
100
AcDbLine
 10
146.7075952760012
 20
79.22615466568942
 30
0.0
 11
140.9168568871011
 21
79.22615466568942
 31
0.0
  0
LINE
  5
303
330
70
100
AcDbEntity
  8
0
 62
    18
420
        0
370
    25
100
AcDbLine
 10
140.1668572298006
 20
79.22615466568942
 30
0.0
 11
134.376119772301
 21
79.22615466568942
 31
0.0
  0
LINE
  5
304
330
70
100
AcDbEntity
  8
0
 62
    18
420
        0
370
    25
100
AcDbLine
 10
133.6261191837014
 20
79.22615466568942
 30
0.0
 11
127.681359598701
 21
79.22615466568942
 31
0.0
  0
SPLINE
  5
305
330
70
100
AcDbEntity
  8
0
 62
    18
420
        0
370
    25
100
AcDbSpline
210
0.0
220
0.0
230
1.0
 70
     8
 71
     3
 72
     8
 73
     4
 74
     0
 42
0.0000000001
 43
0.0000000001
 40
0.0
 40
0.0
 40
0.0
 40
0.0
 40
1.0
 40
1.0
 40
1.0
 40
1.0
 10
152.8278374544295
 20
64.22615500092724
 30
0.0
 10
153.1273840120808
 20
64.34565014556875
 30
0.0
 10
153.3026526212731
 20
64.65826058223017
 30
0.0
 10
153.2483333221581
 20
64.97615465820077
 30
0.0
  0
LWPOLYLINE
  5
306
330
70
100
AcDbEntity
  8
0
 62
    18
420
        0
370
    25
100
AcDbPolyline
 90
        9
 70
     0
 43
0.0
 10
152.8278374544013
 20
63.47615534368898
 10
153.0096465222014
 20
63.49390076398897
 10
153.2656298450009
 20
63.58256267308954
 10
153.4941987566008
 20
63.73801158668919
 10
153.6900000147006
 20
63.95500602128944
 10
153.8449571899012
 20
64.22729307708873
 10
153.9493882529012
 20
64.54243028458863
 10
153.9960996679017
 20
64.88251389858932
 10
153.9983311168014
 20
64.97615465818923
  0
LINE
  5
307
330
70
100
AcDbEntity
  8
0
 62
    18
420
        0
370
    25
100
AcDbLine
 10
153.2483333222005
 20
88.47615455198917
 30
0.0
 11
153.2483333222005
 21
64.97615465818923
 31
0.0
  0
LINE
  5
308
330
70
100
AcDbEntity
  8
0
 62
    18
420
        0
370
    25
100
AcDbLine
 10
153.9983311168014
 20
64.97615465818923
 30
0.0
 11
153.9983311168014
 21
88.47615455198917
 31
0.0
  0
LINE
  5
309
330
70
100
AcDbEntity
  8
0
 62
    18
420
        0
370
    25
100
AcDbLine
 10
146.2870994083008
 20
63.47615534368898
 30
0.0
 11
152.8278374544013
 21
63.47615534368898
 31
0.0
  0
LINE
  5
30A
330
70
100
AcDbEntity
  8
0
 62
    18
420
        0
370
    25
100
AcDbLine
 10
152.8278374544013
 20
64.22615500088873
 30
0.0
 11
147.303572805901
 21
64.22615500088873
 31
0.0
  0
LINE
  5
30B
330
70
100
AcDbEntity
  8
0
 62
    18
420
        0
370
    25
100
AcDbLine
 10
146.7075952760012
 20
88.47615455198917
 30
0.0
 11
146.7075952760012
 21
64.97615465818923
 31
0.0
  0
LINE
  5
30C
330
70
100
AcDbEntity
  8
0
 62
    18
420
        0
370
    25
100
AcDbLine
 10
147.4575949333017
 20
64.97615465818923
 30
0.0
 11
147.4575949333017
 21
88.47615455198917
 31
0.0
  0
SPLINE
  5
30D
330
70
100
AcDbEntity
  8
0
 62
    18
420
        0
370
    25
100
AcDbSpline
210
0.0
220
0.0
230
1.0
 70
     8
 71
     3
 72
     8
 73
     4
 74
     0
 42
0.0000000001
 43
0.0000000001
 40
0.0
 40
0.0
 40
0.0
 40
0.0
 40
1.0
 40
1.0
 40
1.0
 40
1.0
 10
146.287099408329
 20
64.22615500092724
 30
0.0
 10
146.5866459659803
 20
64.34565014556875
 30
0.0
 10
146.7619145751726
 20
64.65826058223017
 30
0.0
 10
146.7075952760589
 20
64.97615465820077
 30
0.0
  0
LWPOLYLINE
  5
30E
330
70
100
AcDbEntity
  8
0
 62
    18
420
        0
370
    25
100
AcDbPolyline
 90
        9
 70
     0
 43
0.0
 10
146.2870994083008
 20
63.47615534368898
 10
146.4689084760008
 20
63.49390076398897
 10
146.7248917989017
 20
63.58256267308954
 10
146.9534625731011
 20
63.73801158668919
 10
147.1492638311008
 20
63.95500602128944
 10
147.3042210064015
 20
64.22729307708873
 10
147.4086520693014
 20
64.54243028458863
 10
147.4553634844007
 20
64.88251389858932
 10
147.4575949333017
 20
64.97615465818923
  0
LINE
  5
30F
330
70
100
AcDbEntity
  8
0
 62
    18
420
        0
370
    25
100
AcDbLine
 10
139.7463613621015
 20
63.47615534368898
 30
0.0
 11
146.2870994083008
 21
63.47615534368898
 31
0.0
  0
LINE
  5
310
330
70
100
AcDbEntity
  8
0
 62
    18
420
        0
370
    25
100
AcDbLine
 10
146.2870994083008
 20
64.22615500088873
 30
0.0
 11
140.7628347597017
 21
64.22615500088873
 31
0.0
  0
SPLINE
  5
311
330
70
100
AcDbEntity
  8
0
 62
    18
420
        0
370
    25
100
AcDbSpline
210
0.0
220
0.0
230
1.0
 70
     8
 71
     3
 72
     8
 73
     4
 74
     0
 42
0.0000000001
 43
0.0000000001
 40
0.0
 40
0.0
 40
0.0
 40
0.0
 40
1.0
 40
1.0
 40
1.0
 40
1.0
 10
139.7463613621297
 20
64.22615500092724
 30
0.0
 10
140.045907919781
 20
64.34565014556875
 30
0.0
 10
140.2211765289733
 20
64.65826058223017
 30
0.0
 10
140.1668572298583
 20
64.97615465820077
 30
0.0
  0
LWPOLYLINE
  5
312
330
70
100
AcDbEntity
  8
0
 62
    18
420
        0
370
    25
100
AcDbPolyline
 90
        9
 70
     0
 43
0.0
 10
139.7463613621015
 20
63.47615534368898
 10
139.9281704298015
 20
63.49390076398897
 10
140.1841556153006
 20
63.58256267308954
 10
140.4127245269005
 20
63.73801158668919
 10
140.6085257850016
 20
63.95500602128944
 10
140.7634829602009
 20
64.22729307708873
 10
140.8679140232009
 20
64.54243028458863
 10
140.9146254382014
 20
64.88251389858932
 10
140.9168568871011
 20
64.97615465818923
  0
LINE
  5
313
330
70
100
AcDbEntity
  8
0
 62
    18
420
        0
370
    25
100
AcDbLine
 10
140.1668572298006
 20
88.47615455198917
 30
0.0
 11
140.1668572298006
 21
64.97615465818923
 31
0.0
  0
LINE
  5
314
330
70
100
AcDbEntity
  8
0
 62
    18
420
        0
370
    25
100
AcDbLine
 10
140.9168568871011
 20
64.97615465818923
 30
0.0
 11
140.9168568871011
 21
88.47615455198917
 31
0.0
  0
LINE
  5
315
330
70
100
AcDbEntity
  8
0
 62
    18
420
        0
370
    25
100
AcDbLine
 10
133.2056242473014
 20
63.47615534368898
 30
0.0
 11
139.7463613621015
 21
63.47615534368898
 31
0.0
  0
LINE
  5
316
330
70
100
AcDbEntity
  8
0
 62
    18
420
        0
370
    25
100
AcDbLine
 10
139.7463613621015
 20
64.22615500088873
 30
0.0
 11
134.2220976449016
 21
64.22615500088873
 31
0.0
  0
SPLINE
  5
317
330
70
100
AcDbEntity
  8
0
 62
    18
420
        0
370
    25
100
AcDbSpline
210
0.0
220
0.0
230
1.0
 70
     8
 71
     3
 72
     8
 73
     4
 74
     0
 42
0.0000000001
 43
0.0000000001
 40
0.0
 40
0.0
 40
0.0
 40
0.0
 40
1.0
 40
1.0
 40
1.0
 40
1.0
 10
126.6648866667703
 20
79.22615466562781
 30
0.0
 10
126.9644325684152
 20
79.3456504685762
 30
0.0
 10
127.1397005991184
 20
79.65826056581668
 30
0.0
 10
127.085381603178
 20
79.97615432290136
 30
0.0
  0
LWPOLYLINE
  5
318
330
70
100
AcDbEntity
  8
0
 62
    18
420
        0
370
    25
100
AcDbPolyline
 90
        9
 70
     0
 43
0.0
 10
126.6648866668011
 20
78.47615407708855
 10
126.8466948032007
 20
78.49390042868892
 10
127.1026795230009
 20
78.58256233778885
 10
127.3312484346008
 20
78.73801218268887
 10
127.5270506240009
 20
78.95500661728913
 10
127.6820077992015
 20
79.22729367318916
 10
127.7864388622016
 20
79.54242901798884
 10
127.8331493459016
 20
79.88251449468911
 10
127.8353817261017
 20
79.97615432288917
  0
LINE
  5
319
330
70
100
AcDbEntity
  8
0
 62
    18
420
        0
370
    25
100
AcDbLine
 10
127.0853816032011
 20
88.47615455198917
 30
0.0
 11
127.0853816032011
 21
79.97615432288917
 31
0.0
  0
LINE
  5
31A
330
70
100
AcDbEntity
  8
0
 62
    18
420
        0
370
    25
100
AcDbLine
 10
127.8353817261017
 20
79.97615432288917
 30
0.0
 11
127.8353817261017
 21
88.47615455198917
 31
0.0
  0
LINE
  5
31B
330
70
100
AcDbEntity
  8
0
 62
    18
420
        0
370
    25
100
AcDbLine
 10
120.8934400429017
 20
78.47615407708855
 30
0.0
 11
126.6648866668011
 21
78.47615407708855
 31
0.0
  0
LINE
  5
31C
330
70
100
AcDbEntity
  8
0
 62
    18
420
        0
370
    25
100
AcDbLine
 10
126.6648866668011
 20
79.22615466568942
 30
0.0
 11
120.8934400429017
 21
79.22615466568942
 31
0.0
  0
LWPOLYLINE
  5
31D
330
70
100
AcDbEntity
  8
0
 62
    18
420
        0
370
    25
100
AcDbPolyline
 90
        7
 70
     0
 43
0.0
 10
120.8934400429017
 20
79.22615466568942
 10
120.8562602488013
 20
79.22982407658903
 10
120.7635947003012
 20
79.26968188878894
 10
120.6637660007005
 20
79.36213986868857
 10
120.5643480144008
 20
79.5259101494889
 10
120.4969711335006
 20
79.73721140918932
 10
120.4729449901013
 20
79.97615432288917
  0
LWPOLYLINE
  5
31E
330
70
100
AcDbEntity
  8
0
 62
    18
420
        0
370
    25
100
AcDbPolyline
 90
        9
 70
     0
 43
0.0
 10
119.7229449254015
 20
79.97615432288917
 10
119.7323139141009
 20
79.78463435468913
 10
119.7968470888016
 20
79.44631280298928
 10
119.9221549405017
 20
79.1322773500889
 10
120.1060849790017
 20
78.86012347338866
 10
120.3415920109011
 20
78.64964177758913
 10
120.5805937725014
 20
78.52940710188952
 10
120.8345671849015
 20
78.47800461498881
 10
120.8934400429017
 20
78.47615407708919
  0
LINE
  5
31F
330
70
100
AcDbEntity
  8
0
 62
    18
420
        0
370
    25
100
AcDbLine
 10
119.7229449254015
 20
88.47615455198917
 30
0.0
 11
119.7229449254015
 21
79.97615432288917
 31
0.0
  0
LINE
  5
320
330
70
100
AcDbEntity
  8
0
 62
    18
420
        0
370
    25
100
AcDbLine
 10
120.4729449901013
 20
79.97615432288917
 30
0.0
 11
120.4729449901013
 21
88.47615455198917
 31
0.0
  0
SPLINE
  5
321
330
70
100
AcDbEntity
  8
0
 62
    18
420
        0
370
    25
100
AcDbSpline
210
0.0
220
0.0
230
1.0
 70
     8
 71
     3
 72
     8
 73
     4
 74
     0
 42
0.0000000001
 43
0.0000000001
 40
0.0
 40
0.0
 40
0.0
 40
0.0
 40
1.0
 40
1.0
 40
1.0
 40
1.0
 10
133.2056242472373
 20
64.22615500091055
 30
0.0
 10
133.5051703444284
 20
64.34565058076199
 30
0.0
 10
133.6804384719306
 20
64.65826085065096
 30
0.0
 10
133.6261191836424
 20
64.97615465818281
 30
0.0
  0
LWPOLYLINE
  5
322
330
70
100
AcDbEntity
  8
0
 62
    18
420
        0
370
    25
100
AcDbPolyline
 90
        9
 70
     0
 43
0.0
 10
133.2056242473014
 20
63.47615534368898
 10
133.387432383701
 20
63.49390076398897
 10
133.6434175692014
 20
63.58256267308954
 10
133.8719864807013
 20
63.73801158668919
 10
134.067787738801
 20
63.95500602128944
 10
134.2227458454008
 20
64.22729307708873
 10
134.3271769083008
 20
64.54243028458863
 10
134.3738873921009
 20
64.88251389858932
 10
134.376119772301
 20
64.97615465818923
  0
LINE
  5
323
330
70
100
AcDbEntity
  8
0
 62
    18
420
        0
370
    25
100
AcDbLine
 10
133.6261191837014
 20
88.47615455198917
 30
0.0
 11
133.6261191837014
 21
64.97615465818923
 31
0.0
  0
LINE
  5
324
330
70
100
AcDbEntity
  8
0
 62
    18
420
        0
370
    25
100
AcDbLine
 10
134.376119772301
 20
64.97615465818923
 30
0.0
 11
134.376119772301
 21
88.47615455198917
 31
0.0
  0
LINE
  5
325
330
70
100
AcDbEntity
  8
0
 62
    18
420
        0
370
    25
100
AcDbLine
 10
120.8934400429017
 20
63.47615534368898
 30
0.0
 11
133.2056242473014
 21
63.47615534368898
 31
0.0
  0
LINE
  5
326
330
70
100
AcDbEntity
  8
0
 62
    18
420
        0
370
    25
100
AcDbLine
 10
133.2056242473014
 20
64.22615500088873
 30
0.0
 11
120.8934400429017
 21
64.22615500088873
 31
0.0
  0
LWPOLYLINE
  5
327
330
70
100
AcDbEntity
  8
0
 62
    18
420
        0
370
    25
100
AcDbPolyline
 90
        7
 70
     0
 43
0.0
 10
120.8934400429017
 20
64.22615500088873
 10
120.8562602488013
 20
64.22982441188906
 10
120.7635947003012
 20
64.26968129278924
 10
120.6637660007005
 20
64.36213927268887
 10
120.5643480144008
 20
64.52591048478895
 10
120.4969711335006
 20
64.73721081318899
 10
120.4729449901013
 20
64.97615465818923
  0
LWPOLYLINE
  5
328
330
70
100
AcDbEntity
  8
0
 62
    18
420
        0
370
    25
100
AcDbPolyline
 90
        9
 70
     0
 43
0.0
 10
119.7229449254015
 20
64.97615465818923
 10
119.7323139141009
 20
64.7846337586888
 10
119.7968470888016
 20
64.44631220698894
 10
119.9221549405017
 20
64.13227768538894
 10
120.1060849790017
 20
63.86012473998909
 10
120.3415920109011
 20
63.6496421128892
 10
120.5805937725014
 20
63.52940650578908
 10
120.8345671849015
 20
63.47800495028949
 10
120.8934400429017
 20
63.47615534368898
  0
LINE
  5
329
330
70
100
AcDbEntity
  8
0
 62
    18
420
        0
370
    25
100
AcDbLine
 10
119.7229449254015
 20
79.97615432288917
 30
0.0
 11
119.7229449254015
 21
64.97615465818923
 31
0.0
  0
LINE
  5
32A
330
70
100
AcDbEntity
  8
0
 62
    18
420
        0
370
    25
100
AcDbLine
 10
120.4729449901013
 20
64.97615465818923
 30
0.0
 11
120.4729449901013
 21
78.58356164688856
 31
0.0
  0
SPLINE
  5
32B
330
70
100
AcDbEntity
  8
0
 62
    18
420
        0
370
    25
100
AcDbSpline
210
0.0
220
0.0
230
1.0
 70
     8
 71
     3
 72
     8
 73
     4
 74
     0
 42
0.0000000001
 43
0.0000000001
 40
0.0
 40
0.0
 40
0.0
 40
0.0
 40
1.0
 40
1.0
 40
1.0
 40
1.0
 10
172.4500515929427
 20
64.22615500089065
 30
0.0
 10
172.7495971734365
 20
64.3456512603463
 30
0.0
 10
172.9248652989314
 20
64.65826083427993
 30
0.0
 10
172.8705474606726
 20
64.9761546581642
 30
0.0
  0
LWPOLYLINE
  5
32C
330
70
100
AcDbEntity
  8
0
 62
    18
420
        0
370
    25
100
AcDbPolyline
 90
        9
 70
     0
 43
0.0
 10
172.4500515930017
 20
63.47615534368898
 10
172.6318606607017
 20
63.49390076398897
 10
172.8878439835012
 20
63.58256267308954
 10
173.1164128951012
 20
63.73801158668919
 10
173.3122141532009
 20
63.95500602128944
 10
173.4671713284015
 20
64.22729307708873
 10
173.5716023914015
 20
64.54243028458863
 10
173.6183138064007
 20
64.88251389858932
 10
173.6205452553017
 20
64.97615465818923
  0
LINE
  5
32D
330
70
100
AcDbEntity
  8
0
 62
    18
420
        0
370
    25
100
AcDbLine
 10
172.8705474607008
 20
88.47615455198917
 30
0.0
 11
172.8705474607008
 21
64.97615465818923
 31
0.0
  0
LINE
  5
32E
330
70
100
AcDbEntity
  8
0
 62
    18
420
        0
370
    25
100
AcDbLine
 10
173.6205452553017
 20
64.97615465818923
 30
0.0
 11
173.6205452553017
 21
88.47615455198917
 31
0.0
  0
LINE
  5
32F
330
70
100
AcDbEntity
  8
0
 62
    18
420
        0
370
    25
100
AcDbLine
 10
165.9093135468012
 20
63.47615534368898
 30
0.0
 11
172.4500515930017
 21
63.47615534368898
 31
0.0
  0
LINE
  5
330
330
70
100
AcDbEntity
  8
0
 62
    18
420
        0
370
    25
100
AcDbLine
 10
172.4500515930017
 20
64.22615500088873
 30
0.0
 11
166.9257850818005
 21
64.22615500088873
 31
0.0
  0
LINE
  5
331
330
70
100
AcDbEntity
  8
0
 62
    18
420
        0
370
    25
100
AcDbLine
 10
166.3298094145015
 20
88.47615455198917
 30
0.0
 11
166.3298094145015
 21
64.97615465818923
 31
0.0
  0
LINE
  5
332
330
70
100
AcDbEntity
  8
0
 62
    18
420
        0
370
    25
100
AcDbLine
 10
167.0798072091012
 20
64.97615465818923
 30
0.0
 11
167.0798072091012
 21
88.47615455198917
 31
0.0
  0
SPLINE
  5
333
330
70
100
AcDbEntity
  8
0
 62
    18
420
        0
370
    25
100
AcDbSpline
210
0.0
220
0.0
230
1.0
 70
     8
 71
     3
 72
     8
 73
     4
 74
     0
 42
0.0000000001
 43
0.0000000001
 40
0.0
 40
0.0
 40
0.0
 40
0.0
 40
1.0
 40
1.0
 40
1.0
 40
1.0
 10
165.9093135468294
 20
64.22615500092724
 30
0.0
 10
166.2088601044807
 20
64.34565014556875
 30
0.0
 10
166.3841287136729
 20
64.65826058223017
 30
0.0
 10
166.3298094145593
 20
64.97615465820077
 30
0.0
  0
LWPOLYLINE
  5
334
330
70
100
AcDbEntity
  8
0
 62
    18
420
        0
370
    25
100
AcDbPolyline
 90
        9
 70
     0
 43
0.0
 10
165.9093135468012
 20
63.47615534368898
 10
166.0911226145011
 20
63.49390076398897
 10
166.3471059374008
 20
63.58256267308954
 10
166.5756748489006
 20
63.73801158668919
 10
166.7714761070016
 20
63.95500602128944
 10
166.9264332823011
 20
64.22729307708873
 10
167.030864345201
 20
64.54243028458863
 10
167.0775757603015
 20
64.88251389858932
 10
167.0798072091012
 20
64.97615465818923
  0
LINE
  5
335
330
70
100
AcDbEntity
  8
0
 62
    18
420
        0
370
    25
100
AcDbLine
 10
159.3685755006006
 20
63.47615534368898
 30
0.0
 11
165.9093135468012
 21
63.47615534368898
 31
0.0
  0
LINE
  5
336
330
70
100
AcDbEntity
  8
0
 62
    18
420
        0
370
    25
100
AcDbLine
 10
165.9093135468012
 20
64.22615500088873
 30
0.0
 11
160.3850470356013
 21
64.22615500088873
 31
0.0
  0
SPLINE
  5
337
330
70
100
AcDbEntity
  8
0
 62
    18
420
        0
370
    25
100
AcDbSpline
210
0.0
220
0.0
230
1.0
 70
     8
 71
     3
 72
     8
 73
     4
 74
     0
 42
0.0000000001
 43
0.0000000001
 40
0.0
 40
0.0
 40
0.0
 40
0.0
 40
1.0
 40
1.0
 40
1.0
 40
1.0
 10
159.3685755006288
 20
64.22615500092724
 30
0.0
 10
159.6681220582801
 20
64.34565014556875
 30
0.0
 10
159.8433906674724
 20
64.65826058223017
 30
0.0
 10
159.7890713683587
 20
64.97615465820077
 30
0.0
  0
LWPOLYLINE
  5
338
330
70
100
AcDbEntity
  8
0
 62
    18
420
        0
370
    25
100
AcDbPolyline
 90
        9
 70
     0
 43
0.0
 10
159.3685755006006
 20
63.47615534368898
 10
159.5503845683006
 20
63.49390076398897
 10
159.8063678912015
 20
63.58256267308954
 10
160.0349368028014
 20
63.73801158668919
 10
160.2307380608011
 20
63.95500602128944
 10
160.3856952361017
 20
64.22729307708873
 10
160.4901262990017
 20
64.54243028458863
 10
160.536837714101
 20
64.88251389858932
 10
160.5390691630007
 20
64.97615465818923
  0
LINE
  5
339
330
70
100
AcDbEntity
  8
0
 62
    18
420
        0
370
    25
100
AcDbLine
 10
159.7890713683009
 20
88.47615455198917
 30
0.0
 11
159.7890713683009
 21
64.97615465818923
 31
0.0
  0
LINE
  5
33A
330
70
100
AcDbEntity
  8
0
 62
    18
420
        0
370
    25
100
AcDbLine
 10
160.5390691630007
 20
64.97615465818923
 30
0.0
 11
160.5390691630007
 21
88.47615455198917
 31
0.0
  0
LINE
  5
33B
330
70
100
AcDbEntity
  8
0
 62
    18
420
        0
370
    25
100
AcDbLine
 10
152.8278374544013
 20
63.47615534368898
 30
0.0
 11
159.3685755006006
 21
63.47615534368898
 31
0.0
  0
LINE
  5
33C
330
70
100
AcDbEntity
  8
0
 62
    18
420
        0
370
    25
100
AcDbLine
 10
159.3685755006006
 20
64.22615500088873
 30
0.0
 11
153.8443089894007
 21
64.22615500088873
 31
0.0
  0
LINE
  5
33D
330
70
100
AcDbEntity
  8
0
 62
    18
420
        0
370
    25
100
AcDbLine
 10
119.0004074097017
 20
96.60115448678908
 30
0.0
 11
117.9104449193018
 21
96.60115448678908
 31
0.0
  0
LINE
  5
33E
330
70
100
AcDbEntity
  8
0
 62
    18
420
        0
370
    25
100
AcDbLine
 10
117.9104449193018
 20
82.85115456138916
 30
0.0
 11
119.0004074097017
 21
82.85115456138916
 31
0.0
  0
SPLINE
  5
33F
330
70
100
AcDbEntity
  8
0
 62
    18
420
        0
370
    25
100
AcDbSpline
210
0.0
220
0.0
230
1.0
 70
     8
 71
     3
 72
     8
 73
     4
 74
     0
 42
0.0000000001
 43
0.0000000001
 40
0.0
 40
0.0
 40
0.0
 40
0.0
 40
1.0
 40
1.0
 40
1.0
 40
1.0
 10
119.0004074211009
 20
82.85115452408911
 30
0.0
 10
119.1333194337943
 20
82.85115452408911
 30
0.0
 10
119.2429961848852
 20
82.95515351449049
 30
0.0
 10
119.250054638465
 20
83.08787797098311
 30
0.0
  0
SPLINE
  5
340
330
70
100
AcDbEntity
  8
0
 62
    18
420
        0
370
    25
100
AcDbSpline
210
0.0
220
0.0
230
1.0
 70
     8
 71
     3
 72
     8
 73
     4
 74
     0
 42
0.0000000001
 43
0.0000000001
 40
0.0
 40
0.0
 40
0.0
 40
0.0
 40
1.0
 40
1.0
 40
1.0
 40
1.0
 10
119.250054638465
 20
96.36443107719511
 30
0.0
 10
119.2429961848852
 20
96.49715553368807
 30
0.0
 10
119.1333194337943
 20
96.60115452408913
 30
0.0
 10
119.0004074211009
 20
96.60115452408913
 30
0.0
  0
SPLINE
  5
341
330
70
100
AcDbEntity
  8
0
 62
    18
420
        0
370
    25
100
AcDbSpline
210
0.0
220
0.0
230
1.0
 70
     8
 71
     3
 72
     8
 73
     4
 74
     0
 42
0.0000000001
 43
0.0000000001
 40
0.0
 40
0.0
 40
0.0
 40
0.0
 40
1.0
 40
1.0
 40
1.0
 40
1.0
 10
119.2500546385368
 20
83.08787797109093
 30
0.0
 10
119.3322178934818
 20
84.63284433419227
 30
0.0
 10
119.3856905388819
 20
86.17920297884046
 30
0.0
 10
119.4104449323716
 20
87.72615452416461
 30
0.0
  0
SPLINE
  5
342
330
70
100
AcDbEntity
  8
0
 62
    18
420
        0
370
    25
100
AcDbSpline
210
0.0
220
0.0
230
1.0
 70
     8
 71
     3
 72
     8
 73
     4
 74
     0
 42
0.0000000001
 43
0.0000000001
 40
0.0
 40
0.0
 40
0.0
 40
0.0
 40
1.0
 40
1.0
 40
1.0
 40
1.0
 10
119.4104449323716
 20
91.72615452401331
 30
0.0
 10
119.3856905388819
 20
93.27310606933778
 30
0.0
 10
119.3322178934818
 20
94.81946471398563
 30
0.0
 10
119.2500546385368
 20
96.3644310770873
 30
0.0
  0
LINE
  5
343
330
70
100
AcDbEntity
  8
0
 62
    18
420
        0
370
    25
100
AcDbLine
 10
117.9104449193018
 20
89.72615452408895
 30
0.0
 11
117.9104449193018
 21
82.85115456138916
 31
0.0
  0
LINE
  5
344
330
70
100
AcDbEntity
  8
0
 62
    18
420
        0
370
    25
100
AcDbLine
 10
117.9104449193018
 20
96.60115448678908
 30
0.0
 11
117.9104449193018
 21
89.72615452408895
 31
0.0
  0
LINE
  5
345
330
70
100
AcDbEntity
  8
0
 62
    18
420
        0
370
    25
100
AcDbLine
 10
119.4104449324011
 20
91.72615461908904
 30
0.0
 11
119.4104449324011
 21
91.37615451518913
 31
0.0
  0
LINE
  5
346
330
70
100
AcDbEntity
  8
0
 62
    18
420
        0
370
    25
100
AcDbLine
 10
119.4099142383015
 20
91.37615451518913
 30
0.0
 11
119.4104449324011
 21
91.37615451518913
 31
0.0
  0
SPLINE
  5
347
330
70
100
AcDbEntity
  8
0
 62
    18
420
        0
370
    25
100
AcDbSpline
210
0.0
220
0.0
230
1.0
 70
     8
 71
     3
 72
     8
 73
     4
 74
     0
 42
0.0000000001
 43
0.0000000001
 40
0.0
 40
0.0
 40
0.0
 40
0.0
 40
1.0
 40
1.0
 40
1.0
 40
1.0
 10
119.409914238322
 20
91.37615451519009
 30
0.0
 10
119.4090911829315
 20
91.33449056695058
 30
0.0
 10
119.409203726029
 20
91.29281339027659
 30
0.0
 10
119.4102517825303
 20
91.25115449470023
 30
0.0
  0
LWPOLYLINE
  5
348
330
70
100
AcDbEntity
  8
0
 62
    18
420
        0
370
    25
100
AcDbPolyline
 90
        9
 70
     0
 43
0.0
 10
119.4104449324011
 20
91.23524156788908
 10
119.4104208994015
 20
91.23723075648893
 10
119.4103968348006
 20
91.23921982868905
 10
119.4103727386013
 20
91.24120890088921
 10
119.4103486107007
 20
91.24319808948905
 10
119.4103244511015
 20
91.24518716168919
 10
119.4103002599012
 20
91.24717623388901
 10
119.4102760370009
 20
91.24916542248918
 10
119.4102517825008
 20
91.251154494689
  0
LINE
  5
349
330
70
100
AcDbEntity
  8
0
 62
    18
420
        0
370
    25
100
AcDbLine
 10
119.4104449324011
 20
91.23524156788908
 30
0.0
 11
119.4104449324011
 21
90.85115447568893
 31
0.0
  0
LINE
  5
34A
330
70
100
AcDbEntity
  8
0
 62
    18
420
        0
370
    25
100
AcDbLine
 10
119.4104449324011
 20
88.6011545724893
 30
0.0
 11
119.4104449324011
 21
88.21706748028949
 31
0.0
  0
LWPOLYLINE
  5
34B
330
70
100
AcDbEntity
  8
0
 62
    18
420
        0
370
    25
100
AcDbPolyline
 90
        9
 70
     0
 43
0.0
 10
119.4102517825008
 20
88.20115455348858
 10
119.4102760370009
 20
88.20314362568906
 10
119.4103002599012
 20
88.20513281428857
 10
119.4103244511015
 20
88.20712188648903
 10
119.4103486107007
 20
88.20911095868948
 10
119.4103727386013
 20
88.21110014728903
 10
119.4103968348006
 20
88.21308921948949
 10
119.4104208994015
 20
88.21507829168931
 10
119.4104449324011
 20
88.21706748028949
  0
SPLINE
  5
34C
330
70
100
AcDbEntity
  8
0
 62
    18
420
        0
370
    25
100
AcDbSpline
210
0.0
220
0.0
230
1.0
 70
     8
 71
     3
 72
     8
 73
     4
 74
     0
 42
0.0000000001
 43
0.0000000001
 40
0.0
 40
0.0
 40
0.0
 40
0.0
 40
1.0
 40
1.0
 40
1.0
 40
1.0
 10
119.4102517824508
 20
88.20115455352324
 30
0.0
 10
119.4094529901155
 20
88.15949255916361
 30
0.0
 10
119.4093404601176
 20
88.11782023381971
 30
0.0
 10
119.4099142382437
 20
88.07615453303531
 30
0.0
  0
LINE
  5
34D
330
70
100
AcDbEntity
  8
0
 62
    18
420
        0
370
    25
100
AcDbLine
 10
119.4104449324011
 20
88.07615453298911
 30
0.0
 11
119.4099142383015
 21
88.07615453298911
 31
0.0
  0
LINE
  5
34E
330
70
100
AcDbEntity
  8
0
 62
    18
420
        0
370
    25
100
AcDbLine
 10
119.4104449324011
 20
88.07615453298911
 30
0.0
 11
119.4104449324011
 21
87.7261544290892
 31
0.0
  0
SPLINE
  5
34F
330
70
100
AcDbEntity
  8
0
 62
    18
420
        0
370
    25
100
AcDbSpline
210
0.0
220
0.0
230
1.0
 70
     8
 71
     3
 72
     8
 73
     4
 74
     0
 42
0.0000000001
 43
0.0000000001
 40
0.0
 40
0.0
 40
0.0
 40
0.0
 40
1.0
 40
1.0
 40
1.0
 40
1.0
 10
178.535444932401
 20
83.9761545240889
 30
0.0
 10
178.6044805261298
 20
83.9761545240889
 30
0.0
 10
178.6604449324008
 20
84.03211893036052
 30
0.0
 10
178.6604449324008
 20
84.10115452408932
 30
0.0
  0
LINE
  5
350
330
70
100
AcDbEntity
  8
0
 62
    18
420
        0
370
    25
100
AcDbLine
 10
178.5354436807016
 20
83.97615451288933
 30
0.0
 11
174.2854462437005
 21
83.97615451288933
 31
0.0
  0
SPLINE
  5
351
330
70
100
AcDbEntity
  8
0
 62
    18
420
        0
370
    25
100
AcDbSpline
210
0.0
220
0.0
230
1.0
 70
     8
 71
     3
 72
     8
 73
     4
 74
     0
 42
0.0000000001
 43
0.0000000001
 40
0.0
 40
0.0
 40
0.0
 40
0.0
 40
1.0
 40
1.0
 40
1.0
 40
1.0
 10
174.1604449324016
 20
84.10115452408932
 30
0.0
 10
174.1604449324016
 20
84.03211893036052
 30
0.0
 10
174.2164093386726
 20
83.9761545240889
 30
0.0
 10
174.2854449324014
 20
83.9761545240889
 30
0.0
  0
LINE
  5
352
330
70
100
AcDbEntity
  8
0
 62
    18
420
        0
370
    25
100
AcDbLine
 10
174.1604441277008
 20
84.1011543005894
 30
0.0
 11
174.1604441277008
 21
88.35115453148906
 31
0.0
  0
SPLINE
  5
353
330
70
100
AcDbEntity
  8
0
 62
    18
420
        0
370
    25
100
AcDbSpline
210
0.0
220
0.0
230
1.0
 70
     8
 71
     3
 72
     8
 73
     4
 74
     0
 42
0.0000000001
 43
0.0000000001
 40
0.0
 40
0.0
 40
0.0
 40
0.0
 40
1.0
 40
1.0
 40
1.0
 40
1.0
 10
174.2854449324014
 20
88.47615452408875
 30
0.0
 10
174.2164093386726
 20
88.47615452408875
 30
0.0
 10
174.1604449324016
 20
88.42019011781777
 30
0.0
 10
174.1604449324016
 20
88.35115452408897
 30
0.0
  0
LINE
  5
354
330
70
100
AcDbEntity
  8
0
 62
    18
420
        0
370
    25
100
AcDbLine
 10
174.2854462437005
 20
88.47615455198917
 30
0.0
 11
178.5354436807016
 21
88.47615455198917
 31
0.0
  0
SPLINE
  5
355
330
70
100
AcDbEntity
  8
0
 62
    18
420
        0
370
    25
100
AcDbSpline
210
0.0
220
0.0
230
1.0
 70
     8
 71
     3
 72
     8
 73
     4
 74
     0
 42
0.0000000001
 43
0.0000000001
 40
0.0
 40
0.0
 40
0.0
 40
0.0
 40
1.0
 40
1.0
 40
1.0
 40
1.0
 10
178.6604449324008
 20
88.35115452408897
 30
0.0
 10
178.6604449324008
 20
88.42019011781777
 30
0.0
 10
178.6044805261298
 20
88.47615452408875
 30
0.0
 10
178.535444932401
 20
88.47615452408875
 30
0.0
  0
LINE
  5
356
330
70
100
AcDbEntity
  8
0
 62
    18
420
        0
370
    25
100
AcDbLine
 10
178.6604457966013
 20
88.35115453148906
 30
0.0
 11
178.6604457966013
 21
84.1011543005894
 31
0.0
  0
CIRCLE
  5
357
330
70
100
AcDbEntity
  8
0
 62
    18
420
        0
370
    25
100
AcDbCircle
 10
176.4104449324012
 20
86.22615452408915
 30
0.0
 40
0.3812500000001137
  0
CIRCLE
  5
358
330
70
100
AcDbEntity
  8
0
 62
    18
420
        0
370
    25
100
AcDbCircle
 10
176.4104449324012
 20
86.22615452408915
 30
0.0
 40
0.3125000000000511
  0
LINE
  5
359
330
70
100
AcDbEntity
  8
0
 62
    18
420
        0
370
    25
100
AcDbLine
 10
119.5354449383007
 20
90.97615449618905
 30
0.0
 11
123.1604448485009
 21
90.97615449618905
 31
0.0
  0
LINE
  5
35A
330
70
100
AcDbEntity
  8
0
 62
    18
420
        0
370
    25
100
AcDbLine
 10
123.1604448485009
 20
90.97615449618905
 30
0.0
 11
123.1604448485009
 21
90.85115447568893
 31
0.0
  0
LINE
  5
35B
330
70
100
AcDbEntity
  8
0
 62
    18
420
        0
370
    25
100
AcDbLine
 10
123.1604448485009
 20
90.85115447568893
 30
0.0
 11
119.4104449324011
 21
90.85115447568893
 31
0.0
  0
SPLINE
  5
35C
330
70
100
AcDbEntity
  8
0
 62
    18
420
        0
370
    25
100
AcDbSpline
210
0.0
220
0.0
230
1.0
 70
     8
 71
     3
 72
     8
 73
     4
 74
     0
 42
0.0000000001
 43
0.0000000001
 40
0.0
 40
0.0
 40
0.0
 40
0.0
 40
1.0
 40
1.0
 40
1.0
 40
1.0
 10
119.5354449324009
 20
90.97615452408916
 30
0.0
 10
119.4664093386721
 20
90.97615452408916
 30
0.0
 10
119.4104449324011
 20
90.92019011781786
 30
0.0
 10
119.4104449324011
 20
90.85115452408908
 30
0.0
  0
LINE
  5
35D
330
70
100
AcDbEntity
  8
0
 62
    18
420
        0
370
    25
100
AcDbLine
 10
119.4104449324011
 20
88.6011545724893
 30
0.0
 11
123.1604448485009
 21
88.6011545724893
 31
0.0
  0
LINE
  5
35E
330
70
100
AcDbEntity
  8
0
 62
    18
420
        0
370
    25
100
AcDbLine
 10
119.4104449324011
 20
90.85115447568893
 30
0.0
 11
119.4104449324011
 21
88.6011545724893
 31
0.0
  0
LINE
  5
35F
330
70
100
AcDbEntity
  8
0
 62
    18
420
        0
370
    25
100
AcDbLine
 10
123.1604448485009
 20
90.85115447568893
 30
0.0
 11
123.1604448485009
 21
88.6011545724893
 31
0.0
  0
LINE
  5
360
330
70
100
AcDbEntity
  8
0
 62
    18
420
        0
370
    25
100
AcDbLine
 10
123.1604448485009
 20
88.6011545724893
 30
0.0
 11
123.1604448485009
 21
88.47615455198917
 31
0.0
  0
LINE
  5
361
330
70
100
AcDbEntity
  8
0
 62
    18
420
        0
370
    25
100
AcDbLine
 10
123.1604448485009
 20
88.47615455198917
 30
0.0
 11
119.5354449383007
 21
88.47615455198917
 31
0.0
  0
SPLINE
  5
362
330
70
100
AcDbEntity
  8
0
 62
    18
420
        0
370
    25
100
AcDbSpline
210
0.0
220
0.0
230
1.0
 70
     8
 71
     3
 72
     8
 73
     4
 74
     0
 42
0.0000000001
 43
0.0000000001
 40
0.0
 40
0.0
 40
0.0
 40
0.0
 40
1.0
 40
1.0
 40
1.0
 40
1.0
 10
119.4104449324011
 20
88.60115452408916
 30
0.0
 10
119.4104449324011
 20
88.53211893035974
 30
0.0
 10
119.4664093386721
 20
88.47615452408875
 30
0.0
 10
119.5354449324009
 20
88.47615452408875
 30
0.0
  0
LINE
  5
363
330
70
100
AcDbEntity
  8
0
 62
    18
420
        0
370
    25
100
AcDbLine
 10
181.6604444257006
 20
88.47615455198917
 30
0.0
 11
178.5354436807016
 21
88.47615455198917
 31
0.0
  0
LINE
  5
364
330
70
100
AcDbEntity
  8
0
 62
    18
420
        0
370
    25
100
AcDbLine
 10
174.2854462437005
 20
88.47615455198917
 30
0.0
 11
123.1604448485009
 21
88.47615455198917
 31
0.0
  0
LINE
  5
365
330
70
100
AcDbEntity
  8
0
 62
    18
420
        0
370
    25
100
AcDbLine
 10
123.1604448485009
 20
88.6011545724893
 30
0.0
 11
181.7095214001016
 21
88.6011545724893
 31
0.0
  0
SPLINE
  5
366
330
70
100
AcDbEntity
  8
0
 62
    18
420
        0
370
    25
100
AcDbSpline
210
0.0
220
0.0
230
1.0
 70
     8
 71
     3
 72
     8
 73
     4
 74
     0
 42
0.0000000001
 43
0.0000000001
 40
0.0
 40
0.0
 40
0.0
 40
0.0
 40
1.0
 40
1.0
 40
1.0
 40
1.0
 10
181.6604444257558
 20
88.47615455202191
 30
0.0
 10
181.6776711002344
 20
88.5174753245344
 30
0.0
 10
181.6940336533548
 20
88.55915106963816
 30
0.0
 10
181.7095214001491
 20
88.60115457251369
 30
0.0
  0
LINE
  5
367
330
70
100
AcDbEntity
  8
0
 62
    18
420
        0
370
    25
100
AcDbLine
 10
181.7095214001016
 20
90.85115447568893
 30
0.0
 11
123.1604448485009
 21
90.85115447568893
 31
0.0
  0
LINE
  5
368
330
70
100
AcDbEntity
  8
0
 62
    18
420
        0
370
    25
100
AcDbLine
 10
123.1604448485009
 20
90.97615449618905
 30
0.0
 11
181.6604444257006
 21
90.97615449618905
 31
0.0
  0
SPLINE
  5
369
330
70
100
AcDbEntity
  8
0
 62
    18
420
        0
370
    25
100
AcDbSpline
210
0.0
220
0.0
230
1.0
 70
     8
 71
     3
 72
     8
 73
     4
 74
     0
 42
0.0000000001
 43
0.0000000001
 40
0.0
 40
0.0
 40
0.0
 40
0.0
 40
1.0
 40
1.0
 40
1.0
 40
1.0
 10
181.7095214001298
 20
90.85115447565138
 30
0.0
 10
181.6940274901782
 20
90.89315563242614
 30
0.0
 10
181.6776649871693
 20
90.93483124989628
 30
0.0
 10
181.6604444257379
 20
90.97615449613803
 30
0.0
  0
SPLINE
  5
36A
330
70
100
AcDbEntity
  8
0
 62
    18
420
        0
370
    25
100
AcDbSpline
210
0.0
220
0.0
230
1.0
 70
     8
 71
     3
 72
     8
 73
     4
 74
     0
 42
0.0000000001
 43
0.0000000001
 40
0.0
 40
0.0
 40
0.0
 40
0.0
 40
1.0
 40
1.0
 40
1.0
 40
1.0
 10
181.7095226618141
 20
88.60115452408852
 30
0.0
 10
181.9774190225976
 20
89.32723170404857
 30
0.0
 10
181.9774190225976
 20
90.12507734412965
 30
0.0
 10
181.7095226618141
 20
90.85115452408972
 30
0.0
  0
LINE
  5
36B
330
70
100
AcDbEntity
  8
0
 62
     8
420
  8421504
370
    25
100
AcDbLine
 10
180.161283301501
 20
79.97615432288917
 30
0.0
 11
179.411281781601
 21
79.97615432288917
 31
0.0
  0
SPLINE
  5
36C
330
70
100
AcDbEntity
  8
0
 62
     8
420
  8421504
370
    25
100
AcDbSpline
210
0.0
220
0.0
230
1.0
 70
     8
 71
     3
 72
     8
 73
     4
 74
     0
 42
0.0000000001
 43
0.0000000001
 40
0.0
 40
0.0
 40
0.0
 40
0.0
 40
1.0
 40
1.0
 40
1.0
 40
1.0
 10
178.9950141183002
 20
79.22610716821292
 30
0.0
 10
178.9162317545389
 20
79.22582506915792
 30
0.0
 10
178.8434058296477
 20
79.18412272523305
 30
0.0
 10
178.8032883277989
 20
79.116319137827
 30
0.0
  0
LWPOLYLINE
  5
36D
330
70
100
AcDbEntity
  8
0
 62
     8
420
  8421504
370
    25
100
AcDbPolyline
 90
        7
 70
     0
 43
0.0
 10
178.9907002322017
 20
78.47615500838893
 10
178.8893127314016
 20
78.50470004528922
 10
178.8032883278015
 20
78.58598960488937
 10
178.7458070985008
 20
78.70764827278923
 10
178.7256234757007
 20
78.85115483698912
 10
178.7458070985008
 20
78.99466046988862
 10
178.8032883278015
 20
79.11631913778915
  0
SPLINE
  5
36E
330
70
100
AcDbEntity
  8
0
 62
     8
420
  8421504
370
    25
100
AcDbSpline
210
0.0
220
0.0
230
1.0
 70
     8
 71
     3
 72
     8
 73
     4
 74
     0
 42
0.0000000001
 43
0.0000000001
 40
0.0
 40
0.0
 40
0.0
 40
0.0
 40
1.0
 40
1.0
 40
1.0
 40
1.0
 10
152.8320656588984
 20
64.22610657217409
 30
0.0
 10
152.753280684989
 20
64.22583236147275
 30
0.0
 10
152.6804502911837
 20
64.18412897637901
 30
0.0
 10
152.640336143107
 20
64.11632040443322
 30
0.0
  0
LWPOLYLINE
  5
36F
330
70
100
AcDbEntity
  8
0
 62
     8
420
  8421504
370
    25
100
AcDbPolyline
 90
        7
 70
     0
 43
0.0
 10
152.8277480475008
 20
63.47615534368898
 10
152.7263642720011
 20
63.50470038058865
 10
152.6403361431006
 20
63.58598994018877
 10
152.5828586391015
 20
63.70764860808865
 10
152.5626712910011
 20
63.85115424098944
 10
152.5828586391015
 20
63.99466173648907
 10
152.6403361431006
 20
64.11632040438894
  0
LINE
  5
370
330
70
100
AcDbEntity
  8
0
 62
     8
420
  8421504
370
    25
100
AcDbLine
 10
153.9983311168014
 20
64.97615465818923
 30
0.0
 11
153.2483333222005
 21
64.97615465818923
 31
0.0
  0
LINE
  5
371
330
70
100
AcDbEntity
  8
0
 62
     8
420
  8421504
370
    25
100
AcDbLine
 10
147.4575949333017
 20
64.97615465818923
 30
0.0
 11
146.7075952760012
 21
64.97615465818923
 31
0.0
  0
SPLINE
  5
372
330
70
100
AcDbEntity
  8
0
 62
     8
420
  8421504
370
    25
100
AcDbSpline
210
0.0
220
0.0
230
1.0
 70
     8
 71
     3
 72
     8
 73
     4
 74
     0
 42
0.0000000001
 43
0.0000000001
 40
0.0
 40
0.0
 40
0.0
 40
0.0
 40
1.0
 40
1.0
 40
1.0
 40
1.0
 10
146.2913276127427
 20
64.22610657213302
 30
0.0
 10
146.2125430506578
 20
64.22583265198274
 30
0.0
 10
146.1397130804997
 20
64.18412910432481
 30
0.0
 10
146.099599959597
 20
64.11632040439215
 30
0.0
  0
LWPOLYLINE
  5
373
330
70
100
AcDbEntity
  8
0
 62
     8
420
  8421504
370
    25
100
AcDbPolyline
 90
        7
 70
     0
 43
0.0
 10
146.2870118640011
 20
63.47615534368898
 10
146.1856262258005
 20
63.50470038058865
 10
146.0995999596009
 20
63.58598994018877
 10
146.0421187303015
 20
63.70764860808865
 10
146.0219351075014
 20
63.85115424098944
 10
146.0421187303015
 20
63.99466173648907
 10
146.0995999596009
 20
64.11632040438894
  0
SPLINE
  5
374
330
70
100
AcDbEntity
  8
0
 62
     8
420
  8421504
370
    25
100
AcDbSpline
210
0.0
220
0.0
230
1.0
 70
     8
 71
     3
 72
     8
 73
     4
 74
     0
 42
0.0000000001
 43
0.0000000001
 40
0.0
 40
0.0
 40
0.0
 40
0.0
 40
1.0
 40
1.0
 40
1.0
 40
1.0
 10
139.7505895666435
 20
64.22610657213302
 30
0.0
 10
139.6718050045586
 20
64.22583265198274
 30
0.0
 10
139.5989750344005
 20
64.18412910432481
 30
0.0
 10
139.5588619134965
 20
64.11632040439215
 30
0.0
  0
LWPOLYLINE
  5
375
330
70
100
AcDbEntity
  8
0
 62
     8
420
  8421504
370
    25
100
AcDbPolyline
 90
        7
 70
     0
 43
0.0
 10
139.7462738178006
 20
63.47615534368898
 10
139.6448881797013
 20
63.50470038058865
 10
139.5588619135017
 20
63.58598994018877
 10
139.5013806841009
 20
63.70764860808865
 10
139.4811970613008
 20
63.85115424098944
 10
139.5013806841009
 20
63.99466173648907
 10
139.5588619135017
 20
64.11632040438894
  0
LINE
  5
376
330
70
100
AcDbEntity
  8
0
 62
     8
420
  8421504
370
    25
100
AcDbLine
 10
140.9168568871011
 20
64.97615465818923
 30
0.0
 11
140.1668572298006
 21
64.97615465818923
 31
0.0
  0
SPLINE
  5
377
330
70
100
AcDbEntity
  8
0
 62
     8
420
  8421504
370
    25
100
AcDbSpline
210
0.0
220
0.0
230
1.0
 70
     8
 71
     3
 72
     8
 73
     4
 74
     0
 42
0.0000000001
 43
0.0000000001
 40
0.0
 40
0.0
 40
0.0
 40
0.0
 40
1.0
 40
1.0
 40
1.0
 40
1.0
 10
126.6691134742681
 20
79.22610716817442
 30
0.0
 10
126.5903309557302
 20
79.22582473303211
 30
0.0
 10
126.5175049065509
 20
79.18412252050668
 30
0.0
 10
126.4773867524458
 20
79.11631913778851
 30
0.0
  0
LWPOLYLINE
  5
378
330
70
100
AcDbEntity
  8
0
 62
     8
420
  8421504
370
    25
100
AcDbPolyline
 90
        7
 70
     0
 43
0.0
 10
126.6647981911009
 20
78.47615500838893
 10
126.5634125530017
 20
78.50470004528922
 10
126.4773867524009
 20
78.58598960488937
 10
126.4199059888005
 20
78.70764827278923
 10
126.3997214346012
 20
78.85115483698912
 10
126.4199059888005
 20
78.99466046988862
 10
126.4773867524009
 20
79.11631913778915
  0
LINE
  5
379
330
70
100
AcDbEntity
  8
0
 62
     8
420
  8421504
370
    25
100
AcDbLine
 10
127.8353817261017
 20
79.97615432288917
 30
0.0
 11
127.0853816032011
 21
79.97615432288917
 31
0.0
  0
LWPOLYLINE
  5
37A
330
70
100
AcDbEntity
  8
0
 62
     8
420
  8421504
370
    25
100
AcDbPolyline
 90
        3
 70
     0
 43
0.0
 10
120.7059400122012
 20
79.11631913778915
 10
120.7919658127007
 20
79.19760962868902
 10
120.8934400429017
 20
79.22615466568942
  0
LWPOLYLINE
  5
37B
330
70
100
AcDbEntity
  8
0
 62
     8
420
  8421504
370
    25
100
AcDbPolyline
 90
        7
 70
     0
 43
0.0
 10
120.8934400429017
 20
78.47615407708855
 10
120.7919658127007
 20
78.50470004528922
 10
120.7059400122012
 20
78.58598960488937
 10
120.6484594814016
 20
78.70764827278923
 10
120.6282750436014
 20
78.85115483698912
 10
120.6484594814016
 20
78.99466046988862
 10
120.7059400122012
 20
79.11631913778915
  0
LINE
  5
37C
330
70
100
AcDbEntity
  8
0
 62
     8
420
  8421504
370
    25
100
AcDbLine
 10
120.0979449286016
 20
79.97615432288917
 30
0.0
 11
120.4729346291016
 21
79.97615432288917
 31
0.0
  0
LINE
  5
37D
330
70
100
AcDbEntity
  8
0
 62
     8
420
  8421504
370
    25
100
AcDbLine
 10
119.7229449836011
 20
79.97615432288917
 30
0.0
 11
120.0979449286016
 21
79.97615432288917
 31
0.0
  0
SPLINE
  5
37E
330
70
100
AcDbEntity
  8
0
 62
     8
420
  8421504
370
    25
100
AcDbSpline
210
0.0
220
0.0
230
1.0
 70
     8
 71
     3
 72
     8
 73
     4
 74
     0
 42
0.0000000001
 43
0.0000000001
 40
0.0
 40
0.0
 40
0.0
 40
0.0
 40
1.0
 40
1.0
 40
1.0
 40
1.0
 10
133.2098515204352
 20
64.22610657214779
 30
0.0
 10
133.1310671608051
 20
64.2258328101731
 30
0.0
 10
133.058237396549
 20
64.18412917784171
 30
0.0
 10
133.0181247986117
 20
64.1163204044069
 30
0.0
  0
LWPOLYLINE
  5
37F
330
70
100
AcDbEntity
  8
0
 62
     8
420
  8421504
370
    25
100
AcDbPolyline
 90
        7
 70
     0
 43
0.0
 10
133.2055357716013
 20
63.47615534368898
 10
133.1041501335007
 20
63.50470038058865
 10
133.0181247986015
 20
63.58598994018877
 10
132.9606435693008
 20
63.70764860808865
 10
132.9404590151016
 20
63.85115424098944
 10
132.9606435693008
 20
63.99466173648907
 10
133.0181247986015
 20
64.11632040438894
  0
LINE
  5
380
330
70
100
AcDbEntity
  8
0
 62
     8
420
  8421504
370
    25
100
AcDbLine
 10
134.376119772301
 20
64.97615465818923
 30
0.0
 11
133.6261191837014
 21
64.97615465818923
 31
0.0
  0
LWPOLYLINE
  5
381
330
70
100
AcDbEntity
  8
0
 62
     8
420
  8421504
370
    25
100
AcDbPolyline
 90
        3
 70
     0
 43
0.0
 10
120.7059400122012
 20
64.11632040438894
 10
120.7919658127007
 20
64.19760996398906
 10
120.8934400429017
 20
64.22615500088873
  0
LWPOLYLINE
  5
382
330
70
100
AcDbEntity
  8
0
 62
     8
420
  8421504
370
    25
100
AcDbPolyline
 90
        7
 70
     0
 43
0.0
 10
120.8934400429017
 20
63.47615534368898
 10
120.7919658127007
 20
63.50470038058865
 10
120.7059400122012
 20
63.58598994018877
 10
120.6484594814016
 20
63.70764860808865
 10
120.6282750436014
 20
63.85115424098944
 10
120.6484594814016
 20
63.99466173648907
 10
120.7059400122012
 20
64.11632040438894
  0
LINE
  5
383
330
70
100
AcDbEntity
  8
0
 62
     8
420
  8421504
370
    25
100
AcDbLine
 10
120.0979449286016
 20
64.97615465818923
 30
0.0
 11
120.4729346291016
 21
64.97615465818923
 31
0.0
  0
LINE
  5
384
330
70
100
AcDbEntity
  8
0
 62
     8
420
  8421504
370
    25
100
AcDbLine
 10
119.7229449836011
 20
64.97615465818923
 30
0.0
 11
120.0979449286016
 21
64.97615465818923
 31
0.0
  0
SPLINE
  5
385
330
70
100
AcDbEntity
  8
0
 62
     8
420
  8421504
370
    25
100
AcDbSpline
210
0.0
220
0.0
230
1.0
 70
     8
 71
     3
 72
     8
 73
     4
 74
     0
 42
0.0000000001
 43
0.0000000001
 40
0.0
 40
0.0
 40
0.0
 40
0.0
 40
1.0
 40
1.0
 40
1.0
 40
1.0
 10
172.4542760721689
 20
64.22610657217538
 30
0.0
 10
172.3754919080157
 20
64.22583299441774
 30
0.0
 10
172.3026623377105
 20
64.18412927056722
 30
0.0
 10
172.2625502816689
 20
64.1163204044345
 30
0.0
  0
LWPOLYLINE
  5
386
330
70
100
AcDbEntity
  8
0
 62
     8
420
  8421504
370
    25
100
AcDbPolyline
 90
        7
 70
     0
 43
0.0
 10
172.4499621860012
 20
63.47615534368898
 10
172.3485746852011
 20
63.50470038058865
 10
172.262550281701
 20
63.58598994018877
 10
172.2050690523015
 20
63.70764860808865
 10
172.1848854295015
 20
63.85115424098944
 10
172.2050690523015
 20
63.99466173648907
 10
172.262550281701
 20
64.11632040438894
  0
LINE
  5
387
330
70
100
AcDbEntity
  8
0
 62
     8
420
  8421504
370
    25
100
AcDbLine
 10
173.6205452553017
 20
64.97615465818923
 30
0.0
 11
172.8705474607008
 21
64.97615465818923
 31
0.0
  0
LINE
  5
388
330
70
100
AcDbEntity
  8
0
 62
     8
420
  8421504
370
    25
100
AcDbLine
 10
167.0798072091012
 20
64.97615465818923
 30
0.0
 11
166.3298094145015
 21
64.97615465818923
 31
0.0
  0
SPLINE
  5
389
330
70
100
AcDbEntity
  8
0
 62
     8
420
  8421504
370
    25
100
AcDbSpline
210
0.0
220
0.0
230
1.0
 70
     8
 71
     3
 72
     8
 73
     4
 74
     0
 42
0.0000000001
 43
0.0000000001
 40
0.0
 40
0.0
 40
0.0
 40
0.0
 40
1.0
 40
1.0
 40
1.0
 40
1.0
 10
165.9135417512982
 20
64.22610657217409
 30
0.0
 10
165.8347567773889
 20
64.22583236147275
 30
0.0
 10
165.7619263835836
 20
64.18412897637901
 30
0.0
 10
165.7218122355068
 20
64.11632040443322
 30
0.0
  0
LWPOLYLINE
  5
38A
330
70
100
AcDbEntity
  8
0
 62
     8
420
  8421504
370
    25
100
AcDbPolyline
 90
        7
 70
     0
 43
0.0
 10
165.9092241398006
 20
63.47615534368898
 10
165.8078403643008
 20
63.50470038058865
 10
165.7218122355017
 20
63.58598994018877
 10
165.6643310062011
 20
63.70764860808865
 10
165.6441473833009
 20
63.85115424098944
 10
165.6643310062011
 20
63.99466173648907
 10
165.7218122355017
 20
64.11632040438894
  0
SPLINE
  5
38B
330
70
100
AcDbEntity
  8
0
 62
     8
420
  8421504
370
    25
100
AcDbSpline
210
0.0
220
0.0
230
1.0
 70
     8
 71
     3
 72
     8
 73
     4
 74
     0
 42
0.0000000001
 43
0.0000000001
 40
0.0
 40
0.0
 40
0.0
 40
0.0
 40
1.0
 40
1.0
 40
1.0
 40
1.0
 10
159.3728037050976
 20
64.22610657217409
 30
0.0
 10
159.2940187311896
 20
64.22583236147275
 30
0.0
 10
159.221188337383
 20
64.18412897637901
 30
0.0
 10
159.1810741893063
 20
64.11632040443322
 30
0.0
  0
LWPOLYLINE
  5
38C
330
70
100
AcDbEntity
  8
0
 62
     8
420
  8421504
370
    25
100
AcDbPolyline
 90
        7
 70
     0
 43
0.0
 10
159.3684860937014
 20
63.47615534368898
 10
159.2671023182016
 20
63.50470038058865
 10
159.1810741893011
 20
63.58598994018877
 10
159.1235929600005
 20
63.70764860808865
 10
159.1034093372017
 20
63.85115424098944
 10
159.1235929600005
 20
63.99466173648907
 10
159.1810741893011
 20
64.11632040438894
  0
LINE
  5
38D
330
70
100
AcDbEntity
  8
0
 62
     8
420
  8421504
370
    25
100
AcDbLine
 10
160.5390691630007
 20
64.97615465818923
 30
0.0
 11
159.7890713683009
 21
64.97615465818923
 31
0.0
  0
LINE
  5
38E
330
70
100
AcDbEntity
  8
0
 62
     8
420
  8421504
370
    25
100
AcDbLine
 10
119.0004074097017
 20
82.85115456138916
 30
0.0
 11
119.0004074097017
 21
96.60115448678908
 31
0.0
  0
LINE
  5
38F
330
70
100
AcDbEntity
  8
0
 62
     8
420
  8421504
370
    25
100
AcDbLine
 10
119.2500546395007
 20
96.36443091478911
 30
0.0
 11
119.2500546395007
 21
83.08787813338945
 31
0.0
  0
INSERT
  5
392
330
70
100
AcDbEntity
  8
CAPA_BASE
100
AcDbBlockReference
  2
Block_0
 10
0.0
 20
0.0
 30
0.0
  0
INSERT
  5
39E
330
70
100
AcDbEntity
  8
CAPA_BASE
100
AcDbBlockReference
  2
Block_1
 10
0.0
 20
0.0
 30
0.0
  0
INSERT
  5
3AA
330
70
100
AcDbEntity
  8
CAPA_BASE
100
AcDbBlockReference
  2
Block_2
 10
0.0
 20
0.0
 30
0.0
  0
ENDSEC
  0
SECTION
  2
OBJECTS
  0
DICTIONARY
  5
C
330
0
100
AcDbDictionary
281
     1
  3
ACAD_COLOR
350
63
  3
ACAD_DETAILVIEWSTYLE
350
6A
  3
ACAD_GROUP
350
D
  3
ACAD_LAYOUT
350
62
  3
ACAD_MATERIAL
350
10
  3
ACAD_MLEADERSTYLE
350
66
  3
ACAD_MLINESTYLE
350
5F
  3
ACAD_PLOTSETTINGS
350
61
  3
ACAD_PLOTSTYLENAME
350
E
  3
ACAD_SCALELIST
350
42
  3
ACAD_SECTIONVIEWSTYLE
350
68
  3
ACAD_TABLESTYLE
350
64
  3
ACAD_VISUALSTYLE
350
29
  3
ACDB_RECOMPOSE_DATA
350
3BD
  3
AcDbVariableDictionary
350
3B5
  0
DICTIONARY
  5
63
102
{ACAD_REACTORS
330
C
102
}
330
C
100
AcDbDictionary
281
     1
  0
DICTIONARY
  5
6A
102
{ACAD_REACTORS
330
C
102
}
330
C
100
AcDbDictionary
281
     1
  3
Imperial24
350
6B
  0
DICTIONARY
  5
D
102
{ACAD_REACTORS
330
C
102
}
330
C
100
AcDbDictionary
281
     1
  0
DICTIONARY
  5
62
102
{ACAD_REACTORS
330
C
102
}
330
C
100
AcDbDictionary
281
     1
  3
Layout1
350
6F
  3
Layout2
350
77
  3
Model
350
73
  0
DICTIONARY
  5
10
102
{ACAD_REACTORS
330
C
102
}
330
C
100
AcDbDictionary
281
     1
  3
ByBlock
350
19
  3
ByLayer
350
11
  3
Global
350
21
  0
DICTIONARY
  5
66
102
{ACAD_REACTORS
330
C
102
}
330
C
100
AcDbDictionary
281
     1
  3
Standard
350
67
  0
DICTIONARY
  5
5F
102
{ACAD_REACTORS
330
C
102
}
330
C
100
AcDbDictionary
281
     1
  3
Standard
350
60
  0
DICTIONARY
  5
61
102
{ACAD_REACTORS
330
C
102
}
330
C
100
AcDbDictionary
281
     1
  0
ACDBDICTIONARYWDFLT
  5
E
102
{ACAD_REACTORS
330
C
102
}
330
C
100
AcDbDictionary
281
     1
  3
Normal
350
F
100
AcDbDictionaryWithDefault
340
F
  0
DICTIONARY
  5
42
102
{ACAD_REACTORS
330
C
102
}
330
C
100
AcDbDictionary
281
     1
  3
A0
350
43
  3
A1
350
44
  3
A2
350
45
  3
A3
350
46
  3
A4
350
47
  3
A5
350
48
  3
A6
350
49
  3
A7
350
4A
  3
A8
350
4B
  3
A9
350
4C
  3
B0
350
4D
  3
B1
350
4E
  3
B2
350
4F
  3
B3
350
50
  3
B4
350
51
  3
B5
350
52
  3
B6
350
53
  0
DICTIONARY
  5
68
102
{ACAD_REACTORS
330
C
102
}
330
C
100
AcDbDictionary
281
     1
  3
Imperial24
350
69
  0
DICTIONARY
  5
64
102
{ACAD_REACTORS
330
C
102
}
330
C
100
AcDbDictionary
281
     1
  3
Standard
350
65
  0
DICTIONARY
  5
29
102
{ACAD_REACTORS
330
C
102
}
330
C
100
AcDbDictionary
281
     1
  3
2dWireframe
350
2F
  3
Basic
350
2E
  3
Brighten
350
35
  3
ColorChange
350
39
  3
Conceptual
350
32
  3
Dim
350
34
  3
EdgeColorOff
350
41
  3
Facepattern
350
38
  3
Flat
350
2A
  3
FlatWithEdges
350
2B
  3
Gouraud
350
2C
  3
GouraudWithEdges
350
2D
  3
Hidden
350
31
  3
JitterOff
350
3F
  3
Linepattern
350
37
  3
OverhangOff
350
40
  3
Realistic
350
33
  3
Shaded
350
3E
  3
Shaded with edges
350
3D
  3
Shades of Gray
350
3A
  3
Sketchy
350
3B
  3
Thicken
350
36
  3
Wireframe
350
30
  3
X-Ray
350
3C
  0
XRECORD
  5
3BD
102
{ACAD_REACTORS
330
C
102
}
330
C
100
AcDbXrecord
280
     1
 90
        1
330
65
  0
DICTIONARY
  5
3B5
102
{ACAD_REACTORS
330
C
102
}
330
C
100
AcDbDictionary
281
     1
  3
CANNOSCALE
350
3BA
  3
CMLEADERSTYLE
350
3B7
  3
CTABLESTYLE
350
3B6
  3
CVIEWDETAILSTYLE
350
3B8
  3
CVIEWSECTIONSTYLE
350
3B9
  0
ACDBDETAILVIEWSTYLE
  5
6B
102
{ACAD_REACTORS
330
6A
102
}
330
6A
100
AcDbModelDocViewStyle
 70
     0
  3
Imperial24
290
     1
300
Imperial24
 90
        0
100
AcDbDetailViewStyle
 70
     0
 71
     0
 90
        3
 71
     1
340
55
 62
   256
 40
0.24
340
0
 62
   256
 40
0.24
300

 40
0.36
280
     3
 71
     2
340
5D
 90
       25
 62
   256
 71
     3
340
55
 62
   256
 40
0.24
 90
        1
 40
0.75
 90
        1
300
%<\AcVar ViewType \f "%tc1">% %<\AcVar ViewDetailId>%\PSCALE %<\AcVar ViewScale \f "%sn">%
 71
     4
340
5D
 90
       25
 62
   256
340
5D
 90
       25
 62
   256
280
     0
  0
LAYOUT
  5
6F
102
{ACAD_REACTORS
330
62
102
}
330
62
100
AcDbPlotSettings
  1

  2

  4

  6

 40
0.0
 41
0.0
 42
0.0
 43
0.0
 44
0.0
 45
0.0
 46
0.0
 47
0.0
 48
0.0
 49
0.0
140
0.0
141
0.0
142
1.0
143
1.0
 70
   688
 72
     0
 73
     0
 74
     5
  7

 75
    16
147
1.0
 76
     0
 77
     2
 78
   300
148
0.0
149
0.0
100
AcDbLayout
  1
Layout1
 70
     1
 71
     1
 10
0.0
 20
0.0
 11
12.0
 21
9.0
 12
0.0
 22
0.0
 32
0.0
 14
0.0
 24
0.0
 34
0.0
 15
0.0
 25
0.0
 35
0.0
146
0.0
 13
0.0
 23
0.0
 33
0.0
 16
1.0
 26
0.0
 36
0.0
 17
0.0
 27
1.0
 37
0.0
 76
     0
330
6C
  0
LAYOUT
  5
77
102
{ACAD_REACTORS
330
62
102
}
330
62
100
AcDbPlotSettings
  1

  2

  4

  6

 40
0.0
 41
0.0
 42
0.0
 43
0.0
 44
0.0
 45
0.0
 46
0.0
 47
0.0
 48
0.0
 49
0.0
140
0.0
141
0.0
142
1.0
143
1.0
 70
   688
 72
     0
 73
     0
 74
     5
  7

 75
    16
147
1.0
 76
     0
 77
     2
 78
   300
148
0.0
149
0.0
100
AcDbLayout
  1
Layout2
 70
     1
 71
     2
 10
0.0
 20
0.0
 11
12.0
 21
9.0
 12
0.0
 22
0.0
 32
0.0
 14
0.0
 24
0.0
 34
0.0
 15
0.0
 25
0.0
 35
0.0
146
0.0
 13
0.0
 23
0.0
 33
0.0
 16
1.0
 26
0.0
 36
0.0
 17
0.0
 27
1.0
 37
0.0
 76
     0
330
74
  0
LAYOUT
  5
73
102
{ACAD_REACTORS
330
62
102
}
330
62
100
AcDbPlotSettings
  1

  2

  4

  6

 40
0.0
 41
0.0
 42
0.0
 43
0.0
 44
0.0
 45
0.0
 46
0.0
 47
0.0
 48
0.0
 49
0.0
140
0.0
141
0.0
142
1.0
143
1.0
 70
  1712
 72
     0
 73
     0
 74
     0
  7

 75
     0
147
1.0
 76
     0
 77
     2
 78
   300
148
0.0
149
0.0
100
AcDbLayout
  1
Model
 70
     1
 71
     0
 10
0.0
 20
0.0
 11
12.0
 21
9.0
 12
0.0
 22
0.0
 32
0.0
 14
0.0
 24
0.0
 34
0.0
 15
0.0
 25
0.0
 35
0.0
146
0.0
 13
0.0
 23
0.0
 33
0.0
 16
1.0
 26
0.0
 36
0.0
 17
0.0
 27
1.0
 37
0.0
 76
     0
330
70
  0
MATERIAL
  5
19
102
{ACAD_XDICTIONARY
360
1A
102
}
102
{ACAD_REACTORS
330
10
102
}
330
10
100
AcDbMaterial
  1
ByBlock
 72
     0
 43
0.0208333333333333
 43
0.0
 43
0.0
 43
0.0
 43
0.0
 43
0.0208333333333333
 43
0.0
 43
0.0
 43
0.0
 43
0.0
 43
1.0
 43
0.0
 43
0.0
 43
0.0
 43
0.0
 43
1.0
 77
     0
 47
0.0208333333333333
 47
0.0
 47
0.0
 47
0.0
 47
0.0
 47
0.0208333333333333
 47
0.0
 47
0.0
 47
0.0
 47
0.0
 47
1.0
 47
0.0
 47
0.0
 47
0.0
 47
0.0
 47
1.0
171
     0
 49
0.0208333333333333
 49
0.0
 49
0.0
 49
0.0
 49
0.0
 49
0.0208333333333333
 49
0.0
 49
0.0
 49
0.0
 49
0.0
 49
1.0
 49
0.0
 49
0.0
 49
0.0
 49
0.0
 49
1.0
175
     0
142
0.0208333333333333
142
0.0
142
0.0
142
0.0
142
0.0
142
0.0208333333333333
142
0.0
142
0.0
142
0.0
142
0.0
142
1.0
142
0.0
142
0.0
142
0.0
142
0.0
142
1.0
179
     0
144
0.0208333333333333
144
0.0
144
0.0
144
0.0
144
0.0
144
0.0208333333333333
144
0.0
144
0.0
144
0.0
144
0.0
144
1.0
144
0.0
144
0.0
144
0.0
144
0.0
144
1.0
147
0.0208333333333333
147
0.0
147
0.0
147
0.0
147
0.0
147
0.0208333333333333
147
0.0
147
0.0
147
0.0
147
0.0
147
1.0
147
0.0
147
0.0
147
0.0
147
0.0
147
1.0
  0
MATERIAL
  5
11
102
{ACAD_XDICTIONARY
360
12
102
}
102
{ACAD_REACTORS
330
10
102
}
330
10
100
AcDbMaterial
  1
ByLayer
 72
     0
 43
0.0208333333333333
 43
0.0
 43
0.0
 43
0.0
 43
0.0
 43
0.0208333333333333
 43
0.0
 43
0.0
 43
0.0
 43
0.0
 43
1.0
 43
0.0
 43
0.0
 43
0.0
 43
0.0
 43
1.0
 77
     0
 47
0.0208333333333333
 47
0.0
 47
0.0
 47
0.0
 47
0.0
 47
0.0208333333333333
 47
0.0
 47
0.0
 47
0.0
 47
0.0
 47
1.0
 47
0.0
 47
0.0
 47
0.0
 47
0.0
 47
1.0
171
     0
 49
0.0208333333333333
 49
0.0
 49
0.0
 49
0.0
 49
0.0
 49
0.0208333333333333
 49
0.0
 49
0.0
 49
0.0
 49
0.0
 49
1.0
 49
0.0
 49
0.0
 49
0.0
 49
0.0
 49
1.0
175
     0
142
0.0208333333333333
142
0.0
142
0.0
142
0.0
142
0.0
142
0.0208333333333333
142
0.0
142
0.0
142
0.0
142
0.0
142
1.0
142
0.0
142
0.0
142
0.0
142
0.0
142
1.0
179
     0
144
0.0208333333333333
144
0.0
144
0.0
144
0.0
144
0.0
144
0.0208333333333333
144
0.0
144
0.0
144
0.0
144
0.0
144
1.0
144
0.0
144
0.0
144
0.0
144
0.0
144
1.0
147
0.0208333333333333
147
0.0
147
0.0
147
0.0
147
0.0
147
0.0208333333333333
147
0.0
147
0.0
147
0.0
147
0.0
147
1.0
147
0.0
147
0.0
147
0.0
147
0.0
147
1.0
  0
MATERIAL
  5
21
102
{ACAD_XDICTIONARY
360
22
102
}
102
{ACAD_REACTORS
330
10
102
}
330
10
100
AcDbMaterial
  1
Global
 72
     0
 43
0.0208333333333333
 43
0.0
 43
0.0
 43
0.0
 43
0.0
 43
0.0208333333333333
 43
0.0
 43
0.0
 43
0.0
 43
0.0
 43
1.0
 43
0.0
 43
0.0
 43
0.0
 43
0.0
 43
1.0
 77
     0
 47
0.0208333333333333
 47
0.0
 47
0.0
 47
0.0
 47
0.0
 47
0.0208333333333333
 47
0.0
 47
0.0
 47
0.0
 47
0.0
 47
1.0
 47
0.0
 47
0.0
 47
0.0
 47
0.0
 47
1.0
171
     0
 49
0.0208333333333333
 49
0.0
 49
0.0
 49
0.0
 49
0.0
 49
0.0208333333333333
 49
0.0
 49
0.0
 49
0.0
 49
0.0
 49
1.0
 49
0.0
 49
0.0
 49
0.0
 49
0.0
 49
1.0
175
     0
142
0.0208333333333333
142
0.0
142
0.0
142
0.0
142
0.0
142
0.0208333333333333
142
0.0
142
0.0
142
0.0
142
0.0
142
1.0
142
0.0
142
0.0
142
0.0
142
0.0
142
1.0
179
     0
144
0.0208333333333333
144
0.0
144
0.0
144
0.0
144
0.0
144
0.0208333333333333
144
0.0
144
0.0
144
0.0
144
0.0
144
1.0
144
0.0
144
0.0
144
0.0
144
0.0
144
1.0
147
0.0208333333333333
147
0.0
147
0.0
147
0.0
147
0.0
147
0.0208333333333333
147
0.0
147
0.0
147
0.0
147
0.0
147
1.0
147
0.0
147
0.0
147
0.0
147
0.0
147
1.0
  0
MLEADERSTYLE
  5
67
102
{ACAD_REACTORS
330
66
102
}
330
66
100
AcDbMLeaderStyle
179
     2
170
     2
171
     1
172
     0
 90
        2
 40
0.0
 41
0.0
173
     1
 91
-1056964608
340
5B
 92
       -2
290
     1
 42
0.09
291
     1
 43
0.36
  3
Standard
 44
0.18
300

342
55
174
     1
178
     6
175
     1
176
     0
 93
-1056964608
 45
0.18
292
     0
297
     0
 46
0.18
 94
-1056964608
 47
1.0
 49
1.0
140
1.0
293
     1
141
0.0
294
     1
177
     0
142
1.0
295
     1
296
     0
143
0.125
271
     0
272
     9
273
     9
298
     1
  0
MLINESTYLE
  5
60
102
{ACAD_REACTORS
330
5F
102
}
330
5F
100
AcDbMlineStyle
  2
STANDARD
 70
     0
  3

 62
   256
 51
90.0
 52
90.0
 71
     2
 49
0.5
 62
   256
  6
BYLAYER
 49
-0.5
 62
   256
  6
BYLAYER
  0
ACDBPLACEHOLDER
  5
F
102
{ACAD_REACTORS
330
E
102
}
330
E
  0
SCALE
  5
43
102
{ACAD_REACTORS
330
42
102
}
330
42
100
AcDbScale
 70
     0
300
1:1
140
1.0
141
1.0
290
     1
  0
SCALE
  5
44
102
{ACAD_REACTORS
330
42
102
}
330
42
100
AcDbScale
 70
     0
300
1/128" = 1'-0"
140
0.0078125
141
12.0
290
     0
  0
SCALE
  5
45
102
{ACAD_REACTORS
330
42
102
}
330
42
100
AcDbScale
 70
     0
300
1/64" = 1'-0"
140
0.015625
141
12.0
290
     0
  0
SCALE
  5
46
102
{ACAD_REACTORS
330
42
102
}
330
42
100
AcDbScale
 70
     0
300
1/32" = 1'-0"
140
0.03125
141
12.0
290
     0
  0
SCALE
  5
47
102
{ACAD_REACTORS
330
42
102
}
330
42
100
AcDbScale
 70
     0
300
1/16" = 1'-0"
140
0.0625
141
12.0
290
     0
  0
SCALE
  5
48
102
{ACAD_REACTORS
330
42
102
}
330
42
100
AcDbScale
 70
     0
300
3/32" = 1'-0"
140
0.09375
141
12.0
290
     0
  0
SCALE
  5
49
102
{ACAD_REACTORS
330
42
102
}
330
42
100
AcDbScale
 70
     0
300
1/8" = 1'-0"
140
0.125
141
12.0
290
     0
  0
SCALE
  5
4A
102
{ACAD_REACTORS
330
42
102
}
330
42
100
AcDbScale
 70
     0
300
3/16" = 1'-0"
140
0.1875
141
12.0
290
     0
  0
SCALE
  5
4B
102
{ACAD_REACTORS
330
42
102
}
330
42
100
AcDbScale
 70
     0
300
1/4" = 1'-0"
140
0.25
141
12.0
290
     0
  0
SCALE
  5
4C
102
{ACAD_REACTORS
330
42
102
}
330
42
100
AcDbScale
 70
     0
300
3/8" = 1'-0"
140
0.375
141
12.0
290
     0
  0
SCALE
  5
4D
102
{ACAD_REACTORS
330
42
102
}
330
42
100
AcDbScale
 70
     0
300
1/2" = 1'-0"
140
0.5
141
12.0
290
     0
  0
SCALE
  5
4E
102
{ACAD_REACTORS
330
42
102
}
330
42
100
AcDbScale
 70
     0
300
3/4" = 1'-0"
140
0.75
141
12.0
290
     0
  0
SCALE
  5
4F
102
{ACAD_REACTORS
330
42
102
}
330
42
100
AcDbScale
 70
     0
300
1" = 1'-0"
140
1.0
141
12.0
290
     0
  0
SCALE
  5
50
102
{ACAD_REACTORS
330
42
102
}
330
42
100
AcDbScale
 70
     0
300
1-1/2" = 1'-0"
140
1.5
141
12.0
290
     0
  0
SCALE
  5
51
102
{ACAD_REACTORS
330
42
102
}
330
42
100
AcDbScale
 70
     0
300
3" = 1'-0"
140
3.0
141
12.0
290
     0
  0
SCALE
  5
52
102
{ACAD_REACTORS
330
42
102
}
330
42
100
AcDbScale
 70
     0
300
6" = 1'-0"
140
6.0
141
12.0
290
     0
  0
SCALE
  5
53
102
{ACAD_REACTORS
330
42
102
}
330
42
100
AcDbScale
 70
     0
300
1'-0" = 1'-0"
140
12.0
141
12.0
290
     0
  0
ACDBSECTIONVIEWSTYLE
  5
69
102
{ACAD_REACTORS
330
68
102
}
330
68
100
AcDbModelDocViewStyle
 70
     0
  3
Imperial24
290
     1
300
Imperial24
 90
        0
100
AcDbSectionViewStyle
 70
     0
 71
     0
 90
       78
 71
     1
340
55
 62
   256
 40
0.24
340
0
340
0
 62
   256
 40
0.24
300
I, O, Q, S, X, Z
 40
0.48
 90
        3
 40
0.18
 90
        1
 71
     2
340
5D
 90
       25
 62
   256
340
5D
 90
       50
 62
   256
 40
0.24
 40
0.0
 40
0.24
 71
     3
340
55
 62
   256
 40
0.24
 90
        1
 40
0.75
 90
        1
300
%<\AcVar ViewType \f "%tc1">% %<\AcVar ViewSectionStartId>%-%<\AcVar ViewSectionEndId>%\PSCALE %<\AcVar ViewScale \f "%sn">%
 71
     4
 62
   256
 62
   257
300
ANSI31
 40
1.0
 90
        0
290
     0
290
     0
 90
        6
 40
0.0
 40
1.570796326794896
 40
0.2617993877991494
 40
1.308996938995747
 40
-0.2617993877991494
 40
1.832595714594046
  0
TABLESTYLE
  5
65
102
{ACAD_XDICTIONARY
360
3BB
102
}
102
{ACAD_REACTORS
330
64
102
}
330
64
100
AcDbTableStyle
280
     0
  3
Standard
 70
     0
 71
     0
 40
0.06
 41
0.06
280
     0
281
     0
  7
Standard
140
0.18
170
     2
 62
     0
 63
     7
283
     0
 90
      512
 91
        0
  1

274
    -2
284
     1
 64
     0
275
    -2
285
     1
 65
     0
276
    -2
286
     1
 66
     0
277
    -2
287
     1
 67
     0
278
    -2
288
     1
 68
     0
279
    -2
289
     1
 69
     0
  7
Standard
140
0.25
170
     5
 62
     0
 63
     7
283
     0
 90
      512
 91
        0
  1

274
    -2
284
     1
 64
     0
275
    -2
285
     1
 65
     0
276
    -2
286
     1
 66
     0
277
    -2
287
     1
 67
     0
278
    -2
288
     1
 68
     0
279
    -2
289
     1
 69
     0
  7
Standard
140
0.18
170
     5
 62
     0
 63
     7
283
     0
 90
      512
 91
        0
  1

274
    -2
284
     1
 64
     0
275
    -2
285
     1
 65
     0
276
    -2
286
     1
 66
     0
277
    -2
287
     1
 67
     0
278
    -2
288
     1
 68
     0
279
    -2
289
     1
 69
     0
  0
VISUALSTYLE
  5
2F
102
{ACAD_REACTORS
330
29
102
}
330
29
100
AcDbVisualStyle
  2
2dWireframe
 70
     4
177
     3
291
     0
 70
    58
 90
        0
176
     1
 90
        2
176
     1
 90
        0
176
     1
 90
        0
176
     1
 40
0.6
176
     1
 40
30.0
176
     1
 62
     7
420
 16777215
176
     1
 90
        1
176
     1
 90
        4
176
     1
 62
     7
176
     1
 62
   257
176
     1
 90
        1
176
     1
 90
        1
176
     1
 40
1.0
176
     1
 90
        0
176
     1
 62
   257
176
     1
 40
1.0
176
     1
 90
        1
176
     1
 90
        6
176
     1
 90
        2
176
     1
 62
     7
176
     1
 90
        5
176
     1
 90
        0
176
     1
 90
        0
176
     1
290
     0
176
     1
 90
        1
176
     1
 40
0.0
176
     1
 90
        0
176
     1
290
     1
176
     1
290
     1
176
     1
290
     0
176
     1
290
     0
176
     1
290
     0
176
     1
290
     0
176
     1
290
     0
176
     1
290
     0
176
     1
290
     0
176
     1
 90
       50
176
     1
 40
0.0
176
     1
 40
1.0
176
     1
 90
        0
176
     1
 62
    18
420
        0
176
     1
 90
       50
176
     1
 90
        3
176
     1
 62
     5
420
      255
176
     1
290
     0
176
     1
 90
       50
176
     1
 90
       50
176
     1
 90
       50
176
     1
290
     0
176
     1
 90
       50
176
     1
 62
   256
176
     0
 40
1.0
176
     0
 90
        2
176
     1
  1
strokes_ogs.tif
176
     1
290
     0
176
     1
 40
1.0
176
     1
 40
1.0
176
     1
  0
VISUALSTYLE
  5
2E
102
{ACAD_REACTORS
330
29
102
}
330
29
100
AcDbVisualStyle
  2
Basic
 70
     7
177
     3
291
     1
 70
    58
 90
        1
176
     1
 90
        0
176
     1
 90
        1
176
     1
 90
        0
176
     1
 40
0.6
176
     1
 40
30.0
176
     1
 62
     7
420
 16777215
176
     1
 90
        0
176
     1
 90
        4
176
     1
 62
     7
176
     1
 62
   257
176
     1
 90
        1
176
     1
 90
        1
176
     1
 40
1.0
176
     1
 90
        8
176
     1
 62
     7
176
     1
 40
1.0
176
     1
 90
        1
176
     1
 90
        6
176
     1
 90
        2
176
     1
 62
     7
176
     1
 90
        5
176
     1
 90
        0
176
     1
 90
        0
176
     1
290
     0
176
     1
 90
        1
176
     1
 40
0.0
176
     1
 90
        0
176
     1
290
     0
176
     1
290
     1
176
     1
290
     1
176
     1
290
     0
176
     1
290
     0
176
     1
290
     0
176
     1
290
     0
176
     1
290
     0
176
     1
290
     0
176
     1
 90
       50
176
     1
 40
0.0
176
     1
 40
1.0
176
     1
 90
        0
176
     1
 62
    18
420
        0
176
     1
 90
       50
176
     1
 90
        3
176
     1
 62
     5
420
      255
176
     1
290
     0
176
     1
 90
       50
176
     1
 90
       50
176
     1
 90
       50
176
     1
290
     0
176
     1
 90
       50
176
     1
 62
   256
176
     0
 40
1.0
176
     0
 90
        2
176
     1
  1
strokes_ogs.tif
176
     1
290
     0
176
     1
 40
1.0
176
     1
 40
1.0
176
     1
  0
VISUALSTYLE
  5
35
102
{ACAD_REACTORS
330
29
102
}
330
29
100
AcDbVisualStyle
  2
Brighten
 70
    12
177
     3
291
     1
 70
    58
 90
        2
176
     1
 90
        2
176
     1
 90
        0
176
     1
 90
        0
176
     1
 40
0.6
176
     1
 40
30.0
176
     1
 62
     7
420
 16777215
176
     1
 90
        1
176
     1
 90
        4
176
     1
 62
     7
176
     1
 62
   257
176
     1
 90
        1
176
     1
 90
        1
176
     1
 40
1.0
176
     1
 90
        8
176
     1
 62
     7
176
     1
 40
1.0
176
     1
 90
        1
176
     1
 90
        6
176
     1
 90
        2
176
     1
 62
     7
176
     1
 90
        5
176
     1
 90
        0
176
     1
 90
        0
176
     1
290
     0
176
     1
 90
        1
176
     1
 40
50.0
176
     1
 90
        0
176
     1
290
     0
176
     1
290
     1
176
     1
290
     1
176
     1
290
     0
176
     1
290
     0
176
     1
290
     0
176
     1
290
     0
176
     1
290
     0
176
     1
290
     0
176
     1
 90
       50
176
     1
 40
0.0
176
     1
 40
1.0
176
     1
 90
        0
176
     1
 62
    18
420
        0
176
     1
 90
       50
176
     1
 90
        3
176
     1
 62
     5
420
      255
176
     1
290
     0
176
     1
 90
       50
176
     1
 90
       50
176
     1
 90
       50
176
     1
290
     0
176
     1
 90
       50
176
     1
 62
   256
176
     0
 40
1.0
176
     0
 90
        2
176
     1
  1
strokes_ogs.tif
176
     1
290
     0
176
     1
 40
1.0
176
     1
 40
1.0
176
     1
  0
VISUALSTYLE
  5
39
102
{ACAD_REACTORS
330
29
102
}
330
29
100
AcDbVisualStyle
  2
ColorChange
 70
    16
177
     3
291
     1
 70
    58
 90
        2
176
     1
 90
        2
176
     1
 90
        3
176
     1
 90
        0
176
     1
 40
0.6
176
     1
 40
30.0
176
     1
 62
     8
420
  8421504
176
     1
 90
        1
176
     1
 90
        4
176
     1
 62
     7
176
     1
 62
   257
176
     1
 90
        1
176
     1
 90
        1
176
     1
 40
1.0
176
     1
 90
        8
176
     1
 62
     8
420
  8421504
176
     1
 40
1.0
176
     1
 90
        1
176
     1
 90
        6
176
     1
 90
        2
176
     1
 62
     7
176
     1
 90
        5
176
     1
 90
        0
176
     1
 90
        0
176
     1
290
     0
176
     1
 90
        1
176
     1
 40
0.0
176
     1
 90
        0
176
     1
290
     0
176
     1
290
     1
176
     1
290
     1
176
     1
290
     0
176
     1
290
     0
176
     1
290
     0
176
     1
290
     0
176
     1
290
     0
176
     1
290
     0
176
     1
 90
       50
176
     1
 40
0.0
176
     1
 40
1.0
176
     1
 90
        0
176
     1
 62
    18
420
        0
176
     1
 90
       50
176
     1
 90
        3
176
     1
 62
     5
420
      255
176
     1
290
     0
176
     1
 90
       50
176
     1
 90
       50
176
     1
 90
       50
176
     1
290
     0
176
     1
 90
       50
176
     1
 62
   256
176
     0
 40
1.0
176
     0
 90
        2
176
     1
  1
strokes_ogs.tif
176
     1
290
     0
176
     1
 40
1.0
176
     1
 40
1.0
176
     1
  0
VISUALSTYLE
  5
32
102
{ACAD_REACTORS
330
29
102
}
330
29
100
AcDbVisualStyle
  2
Conceptual
 70
     9
177
     3
291
     0
 70
    58
 90
        3
176
     1
 90
        2
176
     1
 90
        0
176
     1
 90
        0
176
     1
 40
0.6
176
     1
 40
30.0
176
     1
 62
     7
420
 16777215
176
     1
 90
        2
176
     1
 90
        2
176
     1
 62
     7
176
     1
 62
   257
176
     1
 90
        1
176
     1
 90
        1
176
     1
 40
179.0
176
     1
 90
        8
176
     1
 62
     7
176
     1
 40
1.0
176
     1
 90
        1
176
     1
 90
        6
176
     1
 90
        2
176
     1
 62
     7
176
     1
 90
        3
176
     1
 90
        0
176
     1
 90
        0
176
     1
290
     0
176
     1
 90
        1
176
     1
 40
0.0
176
     1
 90
        0
176
     1
290
     0
176
     1
290
     1
176
     1
290
     1
176
     1
290
     0
176
     1
290
     0
176
     1
290
     0
176
     1
290
     0
176
     1
290
     0
176
     1
290
     0
176
     1
 90
       50
176
     1
 40
0.0
176
     1
 40
1.0
176
     1
 90
        0
176
     1
 62
    18
420
        0
176
     1
 90
       50
176
     1
 90
        3
176
     1
 62
     5
420
      255
176
     1
290
     0
176
     1
 90
       50
176
     1
 90
       50
176
     1
 90
       50
176
     1
290
     0
176
     1
 90
       50
176
     1
 62
   256
176
     0
 40
1.0
176
     0
 90
        2
176
     1
  1
strokes_ogs.tif
176
     1
290
     0
176
     1
 40
1.0
176
     1
 40
1.0
176
     1
  0
VISUALSTYLE
  5
34
102
{ACAD_REACTORS
330
29
102
}
330
29
100
AcDbVisualStyle
  2
Dim
 70
    11
177
     3
291
     1
 70
    58
 90
        2
176
     1
 90
        2
176
     1
 90
        0
176
     1
 90
        0
176
     1
 40
0.6
176
     1
 40
30.0
176
     1
 62
     7
420
 16777215
176
     1
 90
        1
176
     1
 90
        4
176
     1
 62
     7
176
     1
 62
   257
176
     1
 90
        1
176
     1
 90
        1
176
     1
 40
1.0
176
     1
 90
        8
176
     1
 62
     7
176
     1
 40
1.0
176
     1
 90
        1
176
     1
 90
        6
176
     1
 90
        2
176
     1
 62
     7
176
     1
 90
        5
176
     1
 90
        0
176
     1
 90
        0
176
     1
290
     0
176
     1
 90
        1
176
     1
 40
-50.0
176
     1
 90
        0
176
     1
290
     0
176
     1
290
     1
176
     1
290
     1
176
     1
290
     0
176
     1
290
     0
176
     1
290
     0
176
     1
290
     0
176
     1
290
     0
176
     1
290
     0
176
     1
 90
       50
176
     1
 40
0.0
176
     1
 40
1.0
176
     1
 90
        0
176
     1
 62
    18
420
        0
176
     1
 90
       50
176
     1
 90
        3
176
     1
 62
     5
420
      255
176
     1
290
     0
176
     1
 90
       50
176
     1
 90
       50
176
     1
 90
       50
176
     1
290
     0
176
     1
 90
       50
176
     1
 62
   256
176
     0
 40
1.0
176
     0
 90
        2
176
     1
  1
strokes_ogs.tif
176
     1
290
     0
176
     1
 40
1.0
176
     1
 40
1.0
176
     1
  0
VISUALSTYLE
  5
41
102
{ACAD_REACTORS
330
29
102
}
330
29
100
AcDbVisualStyle
  2
EdgeColorOff
 70
    22
177
     3
291
     1
 70
    58
 90
        2
176
     0
 90
        2
176
     0
 90
        0
176
     0
 90
        0
176
     0
 40
0.6
176
     0
 40
30.0
176
     0
 62
     7
420
 16777215
176
     0
 90
        1
176
     0
 90
        4
176
     0
 62
     7
176
     0
 62
   257
176
     0
 90
        1
176
     0
 90
        1
176
     0
 40
1.0
176
     0
 90
        8
176
     2
 62
     7
176
     0
 40
1.0
176
     0
 90
        1
176
     0
 90
        6
176
     0
 90
        2
176
     0
 62
     7
176
     0
 90
        5
176
     0
 90
        0
176
     0
 90
        0
176
     0
290
     0
176
     0
 90
        1
176
     0
 40
0.0
176
     0
 90
        0
176
     0
290
     0
176
     0
290
     1
176
     0
290
     1
176
     0
290
     0
176
     0
290
     0
176
     0
290
     0
176
     0
290
     0
176
     0
290
     0
176
     0
290
     0
176
     0
 90
       50
176
     0
 40
0.0
176
     0
 40
1.0
176
     0
 90
        0
176
     0
 62
    18
420
        0
176
     0
 90
       50
176
     0
 90
        3
176
     0
 62
     5
420
      255
176
     0
290
     0
176
     0
 90
       50
176
     0
 90
       50
176
     0
 90
       50
176
     0
290
     0
176
     0
 90
       50
176
     0
 62
   256
176
     0
 40
1.0
176
     0
 90
        2
176
     0
  1
strokes_ogs.tif
176
     0
290
     0
176
     0
 40
1.0
176
     0
 40
1.0
176
     0
  0
VISUALSTYLE
  5
38
102
{ACAD_REACTORS
330
29
102
}
330
29
100
AcDbVisualStyle
  2
Facepattern
 70
    15
177
     3
291
     1
 70
    58
 90
        2
176
     1
 90
        2
176
     1
 90
        0
176
     1
 90
        0
176
     1
 40
0.6
176
     1
 40
30.0
176
     1
 62
     7
420
 16777215
176
     1
 90
        1
176
     1
 90
        4
176
     1
 62
     7
176
     1
 62
   257
176
     1
 90
        1
176
     1
 90
        1
176
     1
 40
1.0
176
     1
 90
        8
176
     1
 62
     7
176
     1
 40
1.0
176
     1
 90
        1
176
     1
 90
        6
176
     1
 90
        2
176
     1
 62
     7
176
     1
 90
        5
176
     1
 90
        0
176
     1
 90
        0
176
     1
290
     0
176
     1
 90
        1
176
     1
 40
0.0
176
     1
 90
        0
176
     1
290
     0
176
     1
290
     1
176
     1
290
     1
176
     1
290
     0
176
     1
290
     0
176
     1
290
     0
176
     1
290
     0
176
     1
290
     0
176
     1
290
     0
176
     1
 90
       50
176
     1
 40
0.0
176
     1
 40
1.0
176
     1
 90
        0
176
     1
 62
    18
420
        0
176
     1
 90
       50
176
     1
 90
        3
176
     1
 62
     5
420
      255
176
     1
290
     0
176
     1
 90
       50
176
     1
 90
       50
176
     1
 90
       50
176
     1
290
     0
176
     1
 90
       50
176
     1
 62
   256
176
     0
 40
1.0
176
     0
 90
        2
176
     1
  1
strokes_ogs.tif
176
     1
290
     0
176
     1
 40
1.0
176
     1
 40
1.0
176
     1
  0
VISUALSTYLE
  5
2A
102
{ACAD_REACTORS
330
29
102
}
330
29
100
AcDbVisualStyle
  2
Flat
 70
     0
177
     3
291
     1
 70
    58
 90
        2
176
     1
 90
        1
176
     1
 90
        1
176
     1
 90
        2
176
     1
 40
0.6
176
     1
 40
30.0
176
     1
 62
     7
420
 16777215
176
     1
 90
        0
176
     1
 90
        0
176
     1
 62
     7
176
     1
 62
   257
176
     1
 90
        1
176
     1
 90
        1
176
     1
 40
1.0
176
     1
 90
        8
176
     1
 62
     7
176
     1
 40
1.0
176
     1
 90
        1
176
     1
 90
        6
176
     1
 90
        2
176
     1
 62
     7
176
     1
 90
        5
176
     1
 90
        0
176
     1
 90
        0
176
     1
290
     0
176
     1
 90
       13
176
     1
 40
0.0
176
     1
 90
        0
176
     1
290
     0
176
     1
290
     1
176
     1
290
     1
176
     1
290
     0
176
     1
290
     0
176
     1
290
     0
176
     1
290
     0
176
     1
290
     0
176
     1
290
     0
176
     1
 90
       50
176
     1
 40
0.0
176
     1
 40
1.0
176
     1
 90
        0
176
     1
 62
    18
420
        0
176
     1
 90
       50
176
     1
 90
        3
176
     1
 62
     5
420
      255
176
     1
290
     0
176
     1
 90
       50
176
     1
 90
       50
176
     1
 90
       50
176
     1
290
     0
176
     1
 90
       50
176
     1
 62
   256
176
     0
 40
1.0
176
     0
 90
        2
176
     1
  1
strokes_ogs.tif
176
     1
290
     0
176
     1
 40
1.0
176
     1
 40
1.0
176
     1
  0
VISUALSTYLE
  5
2B
102
{ACAD_REACTORS
330
29
102
}
330
29
100
AcDbVisualStyle
  2
FlatWithEdges
 70
     1
177
     3
291
     1
 70
    58
 90
        2
176
     1
 90
        1
176
     1
 90
        1
176
     1
 90
        2
176
     1
 40
0.6
176
     1
 40
30.0
176
     1
 62
     7
420
 16777215
176
     1
 90
        1
176
     1
 90
        0
176
     1
 62
     7
176
     1
 62
   257
176
     1
 90
        1
176
     1
 90
        1
176
     1
 40
1.0
176
     1
 90
        0
176
     1
 62
   257
176
     1
 40
1.0
176
     1
 90
        1
176
     1
 90
        6
176
     1
 90
        2
176
     1
 62
     7
176
     1
 90
        5
176
     1
 90
        0
176
     1
 90
        0
176
     1
290
     0
176
     1
 90
       13
176
     1
 40
0.0
176
     1
 90
        0
176
     1
290
     0
176
     1
290
     1
176
     1
290
     1
176
     1
290
     0
176
     1
290
     0
176
     1
290
     0
176
     1
290
     0
176
     1
290
     0
176
     1
290
     0
176
     1
 90
       50
176
     1
 40
0.0
176
     1
 40
1.0
176
     1
 90
        0
176
     1
 62
    18
420
        0
176
     1
 90
       50
176
     1
 90
        3
176
     1
 62
     5
420
      255
176
     1
290
     0
176
     1
 90
       50
176
     1
 90
       50
176
     1
 90
       50
176
     1
290
     0
176
     1
 90
       50
176
     1
 62
   256
176
     0
 40
1.0
176
     0
 90
        2
176
     1
  1
strokes_ogs.tif
176
     1
290
     0
176
     1
 40
1.0
176
     1
 40
1.0
176
     1
  0
VISUALSTYLE
  5
2C
102
{ACAD_REACTORS
330
29
102
}
330
29
100
AcDbVisualStyle
  2
Gouraud
 70
     2
177
     3
291
     1
 70
    58
 90
        2
176
     1
 90
        2
176
     1
 90
        1
176
     1
 90
        2
176
     1
 40
0.6
176
     1
 40
30.0
176
     1
 62
     7
420
 16777215
176
     1
 90
        0
176
     1
 90
        0
176
     1
 62
     7
176
     1
 62
   257
176
     1
 90
        1
176
     1
 90
        1
176
     1
 40
1.0
176
     1
 90
        0
176
     1
 62
     7
176
     1
 40
1.0
176
     1
 90
        1
176
     1
 90
        6
176
     1
 90
        2
176
     1
 62
     7
176
     1
 90
        5
176
     1
 90
        0
176
     1
 90
        0
176
     1
290
     0
176
     1
 90
       13
176
     1
 40
0.0
176
     1
 90
        0
176
     1
290
     0
176
     1
290
     1
176
     1
290
     1
176
     1
290
     0
176
     1
290
     0
176
     1
290
     0
176
     1
290
     0
176
     1
290
     0
176
     1
290
     0
176
     1
 90
       50
176
     1
 40
0.0
176
     1
 40
1.0
176
     1
 90
        0
176
     1
 62
    18
420
        0
176
     1
 90
       50
176
     1
 90
        3
176
     1
 62
     5
420
      255
176
     1
290
     0
176
     1
 90
       50
176
     1
 90
       50
176
     1
 90
       50
176
     1
290
     0
176
     1
 90
       50
176
     1
 62
   256
176
     0
 40
1.0
176
     0
 90
        2
176
     1
  1
strokes_ogs.tif
176
     1
290
     0
176
     1
 40
1.0
176
     1
 40
1.0
176
     1
  0
VISUALSTYLE
  5
2D
102
{ACAD_REACTORS
330
29
102
}
330
29
100
AcDbVisualStyle
  2
GouraudWithEdges
 70
     3
177
     3
291
     1
 70
    58
 90
        2
176
     1
 90
        2
176
     1
 90
        1
176
     1
 90
        2
176
     1
 40
0.6
176
     1
 40
30.0
176
     1
 62
     7
420
 16777215
176
     1
 90
        1
176
     1
 90
        0
176
     1
 62
     7
176
     1
 62
   257
176
     1
 90
        1
176
     1
 90
        1
176
     1
 40
1.0
176
     1
 90
        0
176
     1
 62
   257
176
     1
 40
1.0
176
     1
 90
        1
176
     1
 90
        6
176
     1
 90
        2
176
     1
 62
     7
176
     1
 90
        5
176
     1
 90
        0
176
     1
 90
        0
176
     1
290
     0
176
     1
 90
       13
176
     1
 40
0.0
176
     1
 90
        0
176
     1
290
     0
176
     1
290
     1
176
     1
290
     1
176
     1
290
     0
176
     1
290
     0
176
     1
290
     0
176
     1
290
     0
176
     1
290
     0
176
     1
290
     0
176
     1
 90
       50
176
     1
 40
0.0
176
     1
 40
1.0
176
     1
 90
        0
176
     1
 62
    18
420
        0
176
     1
 90
       50
176
     1
 90
        3
176
     1
 62
     5
420
      255
176
     1
290
     0
176
     1
 90
       50
176
     1
 90
       50
176
     1
 90
       50
176
     1
290
     0
176
     1
 90
       50
176
     1
 62
   256
176
     0
 40
1.0
176
     0
 90
        2
176
     1
  1
strokes_ogs.tif
176
     1
290
     0
176
     1
 40
1.0
176
     1
 40
1.0
176
     1
  0
VISUALSTYLE
  5
31
102
{ACAD_REACTORS
330
29
102
}
330
29
100
AcDbVisualStyle
  2
Hidden
 70
     6
177
     3
291
     0
 70
    58
 90
        1
176
     1
 90
        2
176
     1
 90
        2
176
     1
 90
        0
176
     1
 40
0.6
176
     1
 40
30.0
176
     1
 62
     7
420
 16777215
176
     1
 90
        2
176
     1
 90
        2
176
     1
 62
     7
176
     1
 62
   257
176
     1
 90
        2
176
     1
 90
        1
176
     1
 40
40.0
176
     1
 90
        0
176
     1
 62
   257
176
     1
 40
1.0
176
     1
 90
        1
176
     1
 90
        6
176
     1
 90
        2
176
     1
 62
     7
176
     1
 90
        3
176
     1
 90
        0
176
     1
 90
        0
176
     1
290
     0
176
     1
 90
        1
176
     1
 40
0.0
176
     1
 90
        0
176
     1
290
     0
176
     1
290
     1
176
     1
290
     1
176
     1
290
     0
176
     1
290
     0
176
     1
290
     0
176
     1
290
     0
176
     1
290
     0
176
     1
290
     0
176
     1
 90
       50
176
     1
 40
0.0
176
     1
 40
1.0
176
     1
 90
        0
176
     1
 62
    18
420
        0
176
     1
 90
       50
176
     1
 90
        3
176
     1
 62
     5
420
      255
176
     1
290
     0
176
     1
 90
       50
176
     1
 90
       50
176
     1
 90
       50
176
     1
290
     0
176
     1
 90
       50
176
     1
 62
   256
176
     0
 40
1.0
176
     0
 90
        2
176
     1
  1
strokes_ogs.tif
176
     1
290
     0
176
     1
 40
1.0
176
     1
 40
1.0
176
     1
  0
VISUALSTYLE
  5
3F
102
{ACAD_REACTORS
330
29
102
}
330
29
100
AcDbVisualStyle
  2
JitterOff
 70
    20
177
     3
291
     1
 70
    58
 90
        2
176
     0
 90
        2
176
     0
 90
        0
176
     0
 90
        0
176
     0
 40
0.6
176
     0
 40
30.0
176
     0
 62
     7
420
 16777215
176
     0
 90
        1
176
     0
 90
        4
176
     0
 62
     7
176
     0
 62
   257
176
     0
 90
        1
176
     0
 90
        1
176
     0
 40
1.0
176
     0
 90
       10
176
     2
 62
     7
176
     0
 40
1.0
176
     0
 90
        1
176
     0
 90
        6
176
     0
 90
        2
176
     0
 62
     7
176
     0
 90
        5
176
     0
 90
        0
176
     0
 90
        0
176
     0
290
     0
176
     0
 90
        1
176
     0
 40
0.0
176
     0
 90
        0
176
     0
290
     0
176
     0
290
     1
176
     0
290
     1
176
     0
290
     0
176
     0
290
     0
176
     0
290
     0
176
     0
290
     0
176
     0
290
     0
176
     0
290
     0
176
     0
 90
       50
176
     0
 40
0.0
176
     0
 40
1.0
176
     0
 90
        0
176
     0
 62
    18
420
        0
176
     0
 90
       50
176
     0
 90
        3
176
     0
 62
     5
420
      255
176
     0
290
     0
176
     0
 90
       50
176
     0
 90
       50
176
     0
 90
       50
176
     0
290
     0
176
     0
 90
       50
176
     0
 62
   256
176
     0
 40
1.0
176
     0
 90
        2
176
     0
  1
strokes_ogs.tif
176
     0
290
     0
176
     0
 40
1.0
176
     0
 40
1.0
176
     0
  0
VISUALSTYLE
  5
37
102
{ACAD_REACTORS
330
29
102
}
330
29
100
AcDbVisualStyle
  2
Linepattern
 70
    14
177
     3
291
     1
 70
    58
 90
        2
176
     1
 90
        2
176
     1
 90
        0
176
     1
 90
        0
176
     1
 40
0.6
176
     1
 40
30.0
176
     1
 62
     7
420
 16777215
176
     1
 90
        1
176
     1
 90
        4
176
     1
 62
     7
176
     1
 62
   257
176
     1
 90
        7
176
     1
 90
        7
176
     1
 40
1.0
176
     1
 90
        8
176
     1
 62
     7
176
     1
 40
1.0
176
     1
 90
        1
176
     1
 90
        6
176
     1
 90
        2
176
     1
 62
     7
176
     1
 90
        5
176
     1
 90
        0
176
     1
 90
        0
176
     1
290
     0
176
     1
 90
        1
176
     1
 40
0.0
176
     1
 90
        0
176
     1
290
     0
176
     1
290
     1
176
     1
290
     1
176
     1
290
     0
176
     1
290
     0
176
     1
290
     0
176
     1
290
     0
176
     1
290
     0
176
     1
290
     0
176
     1
 90
       50
176
     1
 40
0.0
176
     1
 40
1.0
176
     1
 90
        0
176
     1
 62
    18
420
        0
176
     1
 90
       50
176
     1
 90
        3
176
     1
 62
     5
420
      255
176
     1
290
     0
176
     1
 90
       50
176
     1
 90
       50
176
     1
 90
       50
176
     1
290
     0
176
     1
 90
       50
176
     1
 62
   256
176
     0
 40
1.0
176
     0
 90
        2
176
     1
  1
strokes_ogs.tif
176
     1
290
     0
176
     1
 40
1.0
176
     1
 40
1.0
176
     1
  0
VISUALSTYLE
  5
40
102
{ACAD_REACTORS
330
29
102
}
330
29
100
AcDbVisualStyle
  2
OverhangOff
 70
    21
177
     3
291
     1
 70
    58
 90
        2
176
     0
 90
        2
176
     0
 90
        0
176
     0
 90
        0
176
     0
 40
0.6
176
     0
 40
30.0
176
     0
 62
     7
420
 16777215
176
     0
 90
        1
176
     0
 90
        4
176
     0
 62
     7
176
     0
 62
   257
176
     0
 90
        1
176
     0
 90
        1
176
     0
 40
1.0
176
     0
 90
        9
176
     2
 62
     7
176
     0
 40
1.0
176
     0
 90
        1
176
     0
 90
        6
176
     0
 90
        2
176
     0
 62
     7
176
     0
 90
        5
176
     0
 90
        0
176
     0
 90
        0
176
     0
290
     0
176
     0
 90
        1
176
     0
 40
0.0
176
     0
 90
        0
176
     0
290
     0
176
     0
290
     1
176
     0
290
     1
176
     0
290
     0
176
     0
290
     0
176
     0
290
     0
176
     0
290
     0
176
     0
290
     0
176
     0
290
     0
176
     0
 90
       50
176
     0
 40
0.0
176
     0
 40
1.0
176
     0
 90
        0
176
     0
 62
    18
420
        0
176
     0
 90
       50
176
     0
 90
        3
176
     0
 62
     5
420
      255
176
     0
290
     0
176
     0
 90
       50
176
     0
 90
       50
176
     0
 90
       50
176
     0
290
     0
176
     0
 90
       50
176
     0
 62
   256
176
     0
 40
1.0
176
     0
 90
        2
176
     0
  1
strokes_ogs.tif
176
     0
290
     0
176
     0
 40
1.0
176
     0
 40
1.0
176
     0
  0
VISUALSTYLE
  5
33
102
{ACAD_REACTORS
330
29
102
}
330
29
100
AcDbVisualStyle
  2
Realistic
 70
     8
177
     3
291
     0
 70
    58
 90
        2
176
     1
 90
        3
176
     1
 90
        0
176
     1
 90
        2
176
     1
 40
0.6
176
     1
 40
30.0
176
     1
 62
     7
420
 16777215
176
     1
 90
        0
176
     1
 90
        0
176
     1
 62
     7
176
     1
 62
   257
176
     1
 90
        1
176
     1
 90
        1
176
     1
 40
1.0
176
     1
 90
        8
176
     1
 62
   257
176
     1
 40
1.0
176
     1
 90
        1
176
     1
 90
        6
176
     1
 90
        2
176
     1
 62
     7
176
     1
 90
        3
176
     1
 90
        0
176
     1
 90
        0
176
     1
290
     0
176
     1
 90
       13
176
     1
 40
0.0
176
     1
 90
        0
176
     1
290
     0
176
     1
290
     1
176
     1
290
     1
176
     1
290
     0
176
     1
290
     0
176
     1
290
     0
176
     1
290
     0
176
     1
290
     0
176
     1
290
     0
176
     1
 90
       50
176
     1
 40
0.0
176
     1
 40
1.0
176
     1
 90
        0
176
     1
 62
    18
420
        0
176
     1
 90
       50
176
     1
 90
        3
176
     1
 62
     5
420
      255
176
     1
290
     0
176
     1
 90
       50
176
     1
 90
       50
176
     1
 90
       50
176
     1
290
     0
176
     1
 90
       50
176
     1
 62
   256
176
     0
 40
1.0
176
     0
 90
        2
176
     1
  1
strokes_ogs.tif
176
     1
290
     0
176
     1
 40
1.0
176
     1
 40
1.0
176
     1
  0
VISUALSTYLE
  5
3E
102
{ACAD_REACTORS
330
29
102
}
330
29
100
AcDbVisualStyle
  2
Shaded
 70
    27
177
     3
291
     0
 70
    58
 90
        2
176
     1
 90
        2
176
     1
 90
        1
176
     1
 90
        2
176
     1
 40
0.6
176
     1
 40
30.0
176
     1
 62
     7
420
 16777215
176
     1
 90
        0
176
     1
 90
        4
176
     1
 62
     7
176
     1
 62
   257
176
     1
 90
        1
176
     1
 90
        1
176
     1
 40
1.0
176
     1
 90
        8
176
     1
 62
   257
176
     1
 40
1.0
176
     1
 90
        1
176
     1
 90
        6
176
     1
 90
        2
176
     1
 62
     8
420
  7895160
176
     1
 90
        3
176
     1
 90
        0
176
     1
 90
        0
176
     1
290
     0
176
     1
 90
        5
176
     1
 40
0.0
176
     1
 90
        0
176
     1
290
     0
176
     1
290
     1
176
     1
290
     1
176
     1
290
     0
176
     1
290
     0
176
     1
290
     0
176
     1
290
     0
176
     1
290
     0
176
     1
290
     0
176
     1
 90
       50
176
     1
 40
0.0
176
     1
 40
1.0
176
     1
 90
        0
176
     1
 62
    18
420
        0
176
     1
 90
       50
176
     1
 90
        3
176
     1
 62
     5
420
      255
176
     1
290
     0
176
     1
 90
       50
176
     1
 90
       50
176
     1
 90
       50
176
     1
290
     0
176
     1
 90
       50
176
     1
 62
   256
176
     0
 40
1.0
176
     0
 90
        2
176
     1
  1
strokes_ogs.tif
176
     1
290
     0
176
     1
 40
1.0
176
     1
 40
1.0
176
     1
  0
VISUALSTYLE
  5
3D
102
{ACAD_REACTORS
330
29
102
}
330
29
100
AcDbVisualStyle
  2
Shaded with edges
 70
    26
177
     3
291
     0
 70
    58
 90
        2
176
     1
 90
        2
176
     1
 90
        1
176
     1
 90
        2
176
     1
 40
0.6
176
     1
 40
30.0
176
     1
 62
     7
420
 16777215
176
     1
 90
        1
176
     1
 90
        2
176
     1
 62
     7
176
     1
 62
   257
176
     1
 90
        2
176
     1
 90
        1
176
     1
 40
1.0
176
     1
 90
        8
176
     1
 62
   257
176
     1
 40
1.0
176
     1
 90
        1
176
     1
 90
        6
176
     1
 90
        2
176
     1
 62
     7
176
     1
 90
        3
176
     1
 90
        0
176
     1
 90
        0
176
     1
290
     0
176
     1
 90
        5
176
     1
 40
0.0
176
     1
 90
        0
176
     1
290
     0
176
     1
290
     1
176
     1
290
     1
176
     1
290
     0
176
     1
290
     0
176
     1
290
     0
176
     1
290
     0
176
     1
290
     0
176
     1
290
     0
176
     1
 90
       50
176
     1
 40
0.0
176
     1
 40
1.0
176
     1
 90
        0
176
     1
 62
    18
420
        0
176
     1
 90
       50
176
     1
 90
        3
176
     1
 62
     5
420
      255
176
     1
290
     0
176
     1
 90
       50
176
     1
 90
       50
176
     1
 90
       50
176
     1
290
     0
176
     1
 90
       50
176
     1
 62
   256
176
     0
 40
1.0
176
     0
 90
        2
176
     1
  1
strokes_ogs.tif
176
     1
290
     0
176
     1
 40
1.0
176
     1
 40
1.0
176
     1
  0
VISUALSTYLE
  5
3A
102
{ACAD_REACTORS
330
29
102
}
330
29
100
AcDbVisualStyle
  2
Shades of Gray
 70
    23
177
     3
291
     0
 70
    58
 90
        2
176
     1
 90
        2
176
     1
 90
        3
176
     1
 90
        0
176
     1
 40
0.6
176
     1
 40
30.0
176
     1
 62
     7
420
 16777215
176
     1
 90
        2
176
     1
 90
        2
176
     1
 62
     7
176
     1
 62
     7
176
     1
 90
        1
176
     1
 90
        1
176
     1
 40
40.0
176
     1
 90
        8
176
     1
 62
     7
176
     1
 40
1.0
176
     1
 90
        1
176
     1
 90
        6
176
     1
 90
        2
176
     1
 62
     7
176
     1
 90
        3
176
     1
 90
        0
176
     1
 90
        0
176
     1
290
     0
176
     1
 90
        1
176
     1
 40
0.0
176
     1
 90
        0
176
     1
290
     0
176
     1
290
     1
176
     1
290
     1
176
     1
290
     0
176
     1
290
     0
176
     1
290
     0
176
     1
290
     0
176
     1
290
     0
176
     1
290
     0
176
     1
 90
       50
176
     1
 40
0.0
176
     1
 40
1.0
176
     1
 90
        0
176
     1
 62
    18
420
        0
176
     1
 90
       50
176
     1
 90
        3
176
     1
 62
     5
420
      255
176
     1
290
     0
176
     1
 90
       50
176
     1
 90
       50
176
     1
 90
       50
176
     1
290
     0
176
     1
 90
       50
176
     1
 62
   256
176
     0
 40
1.0
176
     0
 90
        2
176
     1
  1
strokes_ogs.tif
176
     1
290
     0
176
     1
 40
1.0
176
     1
 40
1.0
176
     1
  0
VISUALSTYLE
  5
3B
102
{ACAD_REACTORS
330
29
102
}
330
29
100
AcDbVisualStyle
  2
Sketchy
 70
    24
177
     3
291
     0
 70
    58
 90
        1
176
     1
 90
        2
176
     1
 90
        2
176
     1
 90
        0
176
     1
 40
0.6
176
     1
 40
30.0
176
     1
 62
     7
420
 16777215
176
     1
 90
        2
176
     1
 90
        2
176
     1
 62
     7
176
     1
 62
     7
176
     1
 90
        1
176
     1
 90
        1
176
     1
 40
40.0
176
     1
 90
       11
176
     1
 62
     7
176
     1
 40
1.0
176
     1
 90
        1
176
     1
 90
        6
176
     1
 90
        2
176
     1
 62
     7
176
     1
 90
        6
176
     1
 90
        0
176
     1
 90
        0
176
     1
290
     0
176
     1
 90
        1
176
     1
 40
0.0
176
     1
 90
        0
176
     1
290
     0
176
     1
290
     1
176
     1
290
     1
176
     1
290
     0
176
     1
290
     0
176
     1
290
     0
176
     1
290
     0
176
     1
290
     0
176
     1
290
     0
176
     1
 90
       50
176
     1
 40
0.0
176
     1
 40
1.0
176
     1
 90
        0
176
     1
 62
    18
420
        0
176
     1
 90
       50
176
     1
 90
        3
176
     1
 62
     5
420
      255
176
     1
290
     0
176
     1
 90
       50
176
     1
 90
       50
176
     1
 90
       50
176
     1
290
     0
176
     1
 90
       50
176
     1
 62
   256
176
     0
 40
1.0
176
     0
 90
        2
176
     1
  1
strokes_ogs.tif
176
     1
290
     0
176
     1
 40
1.0
176
     1
 40
1.0
176
     1
  0
VISUALSTYLE
  5
36
102
{ACAD_REACTORS
330
29
102
}
330
29
100
AcDbVisualStyle
  2
Thicken
 70
    13
177
     3
291
     1
 70
    58
 90
        2
176
     1
 90
        2
176
     1
 90
        0
176
     1
 90
        0
176
     1
 40
0.6
176
     1
 40
30.0
176
     1
 62
     7
420
 16777215
176
     1
 90
        1
176
     1
 90
        4
176
     1
 62
     7
176
     1
 62
   257
176
     1
 90
        1
176
     1
 90
        1
176
     1
 40
1.0
176
     1
 90
       12
176
     1
 62
     7
176
     1
 40
1.0
176
     1
 90
        1
176
     1
 90
        6
176
     1
 90
        2
176
     1
 62
     7
176
     1
 90
        5
176
     1
 90
        0
176
     1
 90
        0
176
     1
290
     0
176
     1
 90
        1
176
     1
 40
0.0
176
     1
 90
        0
176
     1
290
     0
176
     1
290
     1
176
     1
290
     1
176
     1
290
     0
176
     1
290
     0
176
     1
290
     0
176
     1
290
     0
176
     1
290
     0
176
     1
290
     0
176
     1
 90
       50
176
     1
 40
0.0
176
     1
 40
1.0
176
     1
 90
        0
176
     1
 62
    18
420
        0
176
     1
 90
       50
176
     1
 90
        3
176
     1
 62
     5
420
      255
176
     1
290
     0
176
     1
 90
       50
176
     1
 90
       50
176
     1
 90
       50
176
     1
290
     0
176
     1
 90
       50
176
     1
 62
   256
176
     0
 40
1.0
176
     0
 90
        2
176
     1
  1
strokes_ogs.tif
176
     1
290
     0
176
     1
 40
1.0
176
     1
 40
1.0
176
     1
  0
VISUALSTYLE
  5
30
102
{ACAD_REACTORS
330
29
102
}
330
29
100
AcDbVisualStyle
  2
Wireframe
 70
     5
177
     3
291
     0
 70
    58
 90
        0
176
     1
 90
        2
176
     1
 90
        0
176
     1
 90
        0
176
     1
 40
0.6
176
     1
 40
30.0
176
     1
 62
     7
420
 16777215
176
     1
 90
        1
176
     1
 90
        4
176
     1
 62
     7
176
     1
 62
   257
176
     1
 90
        1
176
     1
 90
        1
176
     1
 40
1.0
176
     1
 90
        0
176
     1
 62
   257
176
     1
 40
1.0
176
     1
 90
        1
176
     1
 90
        6
176
     1
 90
        2
176
     1
 62
     7
176
     1
 90
        3
176
     1
 90
        0
176
     1
 90
        0
176
     1
290
     0
176
     1
 90
        1
176
     1
 40
0.0
176
     1
 90
        0
176
     1
290
     0
176
     1
290
     1
176
     1
290
     1
176
     1
290
     0
176
     1
290
     0
176
     1
290
     0
176
     1
290
     0
176
     1
290
     0
176
     1
290
     0
176
     1
 90
       50
176
     1
 40
0.0
176
     1
 40
1.0
176
     1
 90
        0
176
     1
 62
    18
420
        0
176
     1
 90
       50
176
     1
 90
        3
176
     1
 62
     5
420
      255
176
     1
290
     0
176
     1
 90
       50
176
     1
 90
       50
176
     1
 90
       50
176
     1
290
     0
176
     1
 90
       50
176
     1
 62
   256
176
     0
 40
1.0
176
     0
 90
        2
176
     1
  1
strokes_ogs.tif
176
     1
290
     0
176
     1
 40
1.0
176
     1
 40
1.0
176
     1
  0
VISUALSTYLE
  5
3C
102
{ACAD_REACTORS
330
29
102
}
330
29
100
AcDbVisualStyle
  2
X-Ray
 70
    25
177
     3
291
     0
 70
    58
 90
        2
176
     1
 90
        2
176
     1
 90
        1
176
     1
 90
        1
176
     1
 40
0.5
176
     1
 40
30.0
176
     1
 62
     7
420
 16777215
176
     1
 90
        1
176
     1
 90
        0
176
     1
 62
     7
176
     1
 62
   257
176
     1
 90
        1
176
     1
 90
        1
176
     1
 40
1.0
176
     1
 90
        8
176
     1
 62
     7
176
     1
 40
1.0
176
     1
 90
        1
176
     1
 90
        6
176
     1
 90
        2
176
     1
 62
     7
176
     1
 90
        3
176
     1
 90
        0
176
     1
 90
        0
176
     1
290
     0
176
     1
 90
       13
176
     1
 40
0.0
176
     1
 90
        0
176
     1
290
     0
176
     1
290
     1
176
     1
290
     1
176
     1
290
     0
176
     1
290
     0
176
     1
290
     0
176
     1
290
     0
176
     1
290
     0
176
     1
290
     0
176
     1
 90
       50
176
     1
 40
0.0
176
     1
 40
1.0
176
     1
 90
        0
176
     1
 62
    18
420
        0
176
     1
 90
       50
176
     1
 90
        3
176
     1
 62
     5
420
      255
176
     1
290
     0
176
     1
 90
       50
176
     1
 90
       50
176
     1
 90
       50
176
     1
290
     0
176
     1
 90
       50
176
     1
 62
   256
176
     0
 40
1.0
176
     0
 90
        2
176
     1
  1
strokes_ogs.tif
176
     1
290
     0
176
     1
 40
1.0
176
     1
 40
1.0
176
     1
  0
DICTIONARYVAR
  5
3BA
102
{ACAD_REACTORS
330
3B5
102
}
330
3B5
100
DictionaryVariables
280
     0
  1
1:1
  0
DICTIONARYVAR
  5
3B7
102
{ACAD_REACTORS
330
3B5
102
}
330
3B5
100
DictionaryVariables
280
     0
  1
STANDARD
  0
DICTIONARYVAR
  5
3B6
102
{ACAD_REACTORS
330
3B5
102
}
330
3B5
100
DictionaryVariables
280
     0
  1
STANDARD
  0
DICTIONARYVAR
  5
3B8
102
{ACAD_REACTORS
330
3B5
102
}
330
3B5
100
DictionaryVariables
280
     0
  1
Imperial24
  0
DICTIONARYVAR
  5
3B9
102
{ACAD_REACTORS
330
3B5
102
}
330
3B5
100
DictionaryVariables
280
     0
  1
Imperial24
  0
DICTIONARY
  5
1A
330
19
100
AcDbDictionary
280
     1
281
     1
  3
BUMPTILE
360
1C
  3
DIFFUSETILE
360
1B
  3
OPACITYTILE
360
1F
  3
REFLECTIONTILE
360
1E
  3
REFRACTIONTILE
360
20
  3
SPECULARTILE
360
1D
  0
DICTIONARY
  5
12
330
11
100
AcDbDictionary
280
     1
281
     1
  3
BUMPTILE
360
14
  3
DIFFUSETILE
360
13
  3
OPACITYTILE
360
17
  3
REFLECTIONTILE
360
16
  3
REFRACTIONTILE
360
18
  3
SPECULARTILE
360
15
  0
DICTIONARY
  5
22
330
21
100
AcDbDictionary
280
     1
281
     1
  3
BUMPTILE
360
24
  3
DIFFUSETILE
360
23
  3
OPACITYTILE
360
27
  3
REFLECTIONTILE
360
26
  3
REFRACTIONTILE
360
28
  3
SPECULARTILE
360
25
  0
DICTIONARY
  5
3BB
330
65
100
AcDbDictionary
280
     1
281
     1
  3
ACAD_ROUNDTRIP_2008_TABLESTYLE_CELLSTYLEMAP
360
3BC
  0
XRECORD
  5
1C
102
{ACAD_REACTORS
330
1A
102
}
330
1A
100
AcDbXrecord
280
     1
270
     1
271
     1
  0
XRECORD
  5
1B
102
{ACAD_REACTORS
330
1A
102
}
330
1A
100
AcDbXrecord
280
     1
270
     1
271
     1
  0
XRECORD
  5
1F
102
{ACAD_REACTORS
330
1A
102
}
330
1A
100
AcDbXrecord
280
     1
270
     1
271
     1
  0
XRECORD
  5
1E
102
{ACAD_REACTORS
330
1A
102
}
330
1A
100
AcDbXrecord
280
     1
270
     1
271
     1
  0
XRECORD
  5
20
102
{ACAD_REACTORS
330
1A
102
}
330
1A
100
AcDbXrecord
280
     1
270
     1
271
     1
  0
XRECORD
  5
1D
102
{ACAD_REACTORS
330
1A
102
}
330
1A
100
AcDbXrecord
280
     1
270
     1
271
     1
  0
XRECORD
  5
14
102
{ACAD_REACTORS
330
12
102
}
330
12
100
AcDbXrecord
280
     1
270
     1
271
     1
  0
XRECORD
  5
13
102
{ACAD_REACTORS
330
12
102
}
330
12
100
AcDbXrecord
280
     1
270
     1
271
     1
  0
XRECORD
  5
17
102
{ACAD_REACTORS
330
12
102
}
330
12
100
AcDbXrecord
280
     1
270
     1
271
     1
  0
XRECORD
  5
16
102
{ACAD_REACTORS
330
12
102
}
330
12
100
AcDbXrecord
280
     1
270
     1
271
     1
  0
XRECORD
  5
18
102
{ACAD_REACTORS
330
12
102
}
330
12
100
AcDbXrecord
280
     1
270
     1
271
     1
  0
XRECORD
  5
15
102
{ACAD_REACTORS
330
12
102
}
330
12
100
AcDbXrecord
280
     1
270
     1
271
     1
  0
XRECORD
  5
24
102
{ACAD_REACTORS
330
22
102
}
330
22
100
AcDbXrecord
280
     1
270
     1
271
     1
  0
XRECORD
  5
23
102
{ACAD_REACTORS
330
22
102
}
330
22
100
AcDbXrecord
280
     1
270
     1
271
     1
  0
XRECORD
  5
27
102
{ACAD_REACTORS
330
22
102
}
330
22
100
AcDbXrecord
280
     1
270
     1
271
     1
  0
XRECORD
  5
26
102
{ACAD_REACTORS
330
22
102
}
330
22
100
AcDbXrecord
280
     1
270
     1
271
     1
  0
XRECORD
  5
28
102
{ACAD_REACTORS
330
22
102
}
330
22
100
AcDbXrecord
280
     1
270
     1
271
     1
  0
XRECORD
  5
25
102
{ACAD_REACTORS
330
22
102
}
330
22
100
AcDbXrecord
280
     1
270
     1
271
     1
  0
CELLSTYLEMAP
  5
3BC
102
{ACAD_REACTORS
330
3BB
102
}
330
3BB
100
AcDbCellStyleMap
 90
        3
300
CELLSTYLE
  1
TABLEFORMAT_BEGIN
 90
        5
170
     1
 91
        0
 92
    32768
 62
   257
 93
        1
300
CONTENTFORMAT
  1
CONTENTFORMAT_BEGIN
 90
        0
 91
        0
 92
      512
 93
        0
300

 40
0.0
140
1.0
 94
        5
 62
     0
340
55
144
0.25
309
CONTENTFORMAT_END
171
     0
 94
        0
309
TABLEFORMAT_END
  1
CELLSTYLE_BEGIN
 90
        1
 91
        1
300
_TITLE
309
CELLSTYLE_END
300
CELLSTYLE
  1
TABLEFORMAT_BEGIN
 90
        5
170
     1
 91
        0
 92
        0
 62
   257
 93
        1
300
CONTENTFORMAT
  1
CONTENTFORMAT_BEGIN
 90
        0
 91
        0
 92
      512
 93
        0
300

 40
0.0
140
1.0
 94
        5
 62
     0
340
55
144
0.18
309
CONTENTFORMAT_END
171
     0
 94
        0
309
TABLEFORMAT_END
  1
CELLSTYLE_BEGIN
 90
        2
 91
        1
300
_HEADER
309
CELLSTYLE_END
300
CELLSTYLE
  1
TABLEFORMAT_BEGIN
 90
        5
170
     1
 91
        0
 92
        0
 62
   257
 93
        1
300
CONTENTFORMAT
  1
CONTENTFORMAT_BEGIN
 90
        0
 91
        0
 92
      512
 93
        0
300

 40
0.0
140
1.0
 94
        2
 62
     0
340
55
144
0.18
309
CONTENTFORMAT_END
171
     0
 94
        0
309
TABLEFORMAT_END
  1
CELLSTYLE_BEGIN
 90
        3
 91
        2
300
_DATA
309
CELLSTYLE_END
  0
ENDSEC
  0
EOF
