  0
SECTION
  2
HEADER
  9
$ACADVER
  1
AC1032
  9
$ACADMAINTVER
 90
      251
  9
$DWGCODEPAGE
  3
ANSI_1252
  9
$REQUIREDVERSIONS
160
                 0
  9
$INSBASE
 10
0.0
 20
0.0
 30
0.0
  9
$EXTMIN
 10
1.000000000000000E+20
 20
1.000000000000000E+20
 30
1.000000000000000E+20
  9
$EXTMAX
 10
-1.000000000000000E+20
 20
-1.000000000000000E+20
 30
-1.000000000000000E+20
  9
$LIMMIN
 10
0.0
 20
0.0
  9
$LIMMAX
 10
12.0
 20
9.0
  9
$ORTHOMODE
 70
     0
  9
$REGENMODE
 70
     1
  9
$FILLMODE
 70
     1
  9
$QTEXTMODE
 70
     0
  9
$MIRRTEXT
 70
     0
  9
$LTSCALE
 40
1.0
  9
$ATTMODE
 70
     1
  9
$TEXTSIZE
 40
0.2
  9
$TRACEWID
 40
0.05
  9
$TEXTSTYLE
  7
Standard
  9
$CLAYER
  8
0
  9
$CELTYPE
  6
ByLayer
  9
$CECOLOR
 62
   256
  9
$CELTSCALE
 40
1.0
  9
$DISPSILH
 70
     0
  9
$DIMSCALE
 40
1.0
  9
$DIMASZ
 40
0.18
  9
$DIMEXO
 40
0.0625
  9
$DIMDLI
 40
0.38
  9
$DIMRND
 40
0.0
  9
$DIMDLE
 40
0.0
  9
$DIMEXE
 40
0.18
  9
$DIMTP
 40
0.0
  9
$DIMTM
 40
0.0
  9
$DIMTXT
 40
0.18
  9
$DIMCEN
 40
0.09
  9
$DIMTSZ
 40
0.0
  9
$DIMTOL
 70
     0
  9
$DIMLIM
 70
     0
  9
$DIMTIH
 70
     1
  9
$DIMTOH
 70
     1
  9
$DIMSE1
 70
     0
  9
$DIMSE2
 70
     0
  9
$DIMTAD
 70
     0
  9
$DIMZIN
 70
     0
  9
$DIMBLK
  1

  9
$DIMASO
 70
     1
  9
$DIMSHO
 70
     1
  9
$DIMPOST
  1

  9
$DIMAPOST
  1

  9
$DIMALT
 70
     0
  9
$DIMALTD
 70
     2
  9
$DIMALTF
 40
25.4
  9
$DIMLFAC
 40
1.0
  9
$DIMTOFL
 70
     0
  9
$DIMTVP
 40
0.0
  9
$DIMTIX
 70
     0
  9
$DIMSOXD
 70
     0
  9
$DIMSAH
 70
     0
  9
$DIMBLK1
  1

  9
$DIMBLK2
  1

  9
$DIMSTYLE
  2
Standard
  9
$DIMCLRD
 70
     0
  9
$DIMCLRE
 70
     0
  9
$DIMCLRT
 70
     0
  9
$DIMTFAC
 40
1.0
  9
$DIMGAP
 40
0.09
  9
$DIMJUST
 70
     0
  9
$DIMSD1
 70
     0
  9
$DIMSD2
 70
     0
  9
$DIMTOLJ
 70
     1
  9
$DIMTZIN
 70
     0
  9
$DIMALTZ
 70
     0
  9
$DIMALTTZ
 70
     0
  9
$DIMUPT
 70
     0
  9
$DIMDEC
 70
     4
  9
$DIMTDEC
 70
     4
  9
$DIMALTU
 70
     2
  9
$DIMALTTD
 70
     2
  9
$DIMTXSTY
  7
Standard
  9
$DIMAUNIT
 70
     0
  9
$DIMADEC
 70
     0
  9
$DIMALTRND
 40
0.0
  9
$DIMAZIN
 70
     0
  9
$DIMDSEP
 70
    46
  9
$DIMATFIT
 70
     3
  9
$DIMFRAC
 70
     0
  9
$DIMLDRBLK
  1

  9
$DIMLUNIT
 70
     2
  9
$DIMLWD
 70
    -2
  9
$DIMLWE
 70
    -2
  9
$DIMTMOVE
 70
     0
  9
$DIMFXL
 40
1.0
  9
$DIMFXLON
 70
     0
  9
$DIMJOGANG
 40
0.7853981633974483
  9
$DIMTFILL
 70
     0
  9
$DIMTFILLCLR
 70
     0
  9
$DIMARCSYM
 70
     0
  9
$DIMLTYPE
  6

  9
$DIMLTEX1
  6

  9
$DIMLTEX2
  6

  9
$DIMTXTDIRECTION
 70
     0
  9
$LUNITS
 70
     2
  9
$LUPREC
 70
     4
  9
$SKETCHINC
 40
0.1
  9
$FILLETRAD
 40
0.0
  9
$AUNITS
 70
     0
  9
$AUPREC
 70
     0
  9
$MENU
  1
.
  9
$ELEVATION
 40
0.0
  9
$PELEVATION
 40
0.0
  9
$THICKNESS
 40
0.0
  9
$LIMCHECK
 70
     0
  9
$CHAMFERA
 40
0.0
  9
$CHAMFERB
 40
0.0
  9
$CHAMFERC
 40
0.0
  9
$CHAMFERD
 40
0.0
  9
$SKPOLY
 70
     0
  9
$TDCREATE
 40
2460035.478692130
  9
$TDUCREATE
 40
2460035.395358796
  9
$TDUPDATE
 40
2460035.478692130
  9
$TDUUPDATE
 40
2460035.395358796
  9
$TDINDWG
 40
0.0000000000
  9
$TDUSRTIMER
 40
0.0000000000
  9
$USRTIMER
 70
     1
  9
$ANGBASE
 50
0.0
  9
$ANGDIR
 70
     0
  9
$PDMODE
 70
     0
  9
$PDSIZE
 40
0.0
  9
$PLINEWID
 40
0.0
  9
$SPLFRAME
 70
     0
  9
$SPLINETYPE
 70
     6
  9
$SPLINESEGS
 70
     8
  9
$HANDSEED
  5
2FB
  9
$SURFTAB1
 70
     6
  9
$SURFTAB2
 70
     6
  9
$SURFTYPE
 70
     6
  9
$SURFU
 70
     6
  9
$SURFV
 70
     6
  9
$UCSBASE
  2

  9
$UCSNAME
  2

  9
$UCSORG
 10
0.0
 20
0.0
 30
0.0
  9
$UCSXDIR
 10
1.0
 20
0.0
 30
0.0
  9
$UCSYDIR
 10
0.0
 20
1.0
 30
0.0
  9
$UCSORTHOREF
  2

  9
$UCSORTHOVIEW
 70
     0
  9
$UCSORGTOP
 10
0.0
 20
0.0
 30
0.0
  9
$UCSORGBOTTOM
 10
0.0
 20
0.0
 30
0.0
  9
$UCSORGLEFT
 10
0.0
 20
0.0
 30
0.0
  9
$UCSORGRIGHT
 10
0.0
 20
0.0
 30
0.0
  9
$UCSORGFRONT
 10
0.0
 20
0.0
 30
0.0
  9
$UCSORGBACK
 10
0.0
 20
0.0
 30
0.0
  9
$PUCSBASE
  2

  9
$PUCSNAME
  2

  9
$PUCSORG
 10
0.0
 20
0.0
 30
0.0
  9
$PUCSXDIR
 10
1.0
 20
0.0
 30
0.0
  9
$PUCSYDIR
 10
0.0
 20
1.0
 30
0.0
  9
$PUCSORTHOREF
  2

  9
$PUCSORTHOVIEW
 70
     0
  9
$PUCSORGTOP
 10
0.0
 20
0.0
 30
0.0
  9
$PUCSORGBOTTOM
 10
0.0
 20
0.0
 30
0.0
  9
$PUCSORGLEFT
 10
0.0
 20
0.0
 30
0.0
  9
$PUCSORGRIGHT
 10
0.0
 20
0.0
 30
0.0
  9
$PUCSORGFRONT
 10
0.0
 20
0.0
 30
0.0
  9
$PUCSORGBACK
 10
0.0
 20
0.0
 30
0.0
  9
$USERI1
 70
     0
  9
$USERI2
 70
     0
  9
$USERI3
 70
     0
  9
$USERI4
 70
     0
  9
$USERI5
 70
     0
  9
$USERR1
 40
0.0
  9
$USERR2
 40
0.0
  9
$USERR3
 40
0.0
  9
$USERR4
 40
0.0
  9
$USERR5
 40
0.0
  9
$WORLDVIEW
 70
     1
  9
$SHADEDGE
 70
     3
  9
$SHADEDIF
 70
    70
  9
$TILEMODE
 70
     1
  9
$MAXACTVP
 70
    64
  9
$PINSBASE
 10
0.0
 20
0.0
 30
0.0
  9
$PLIMCHECK
 70
     0
  9
$PEXTMIN
 10
1.000000000000000E+20
 20
1.000000000000000E+20
 30
1.000000000000000E+20
  9
$PEXTMAX
 10
-1.000000000000000E+20
 20
-1.000000000000000E+20
 30
-1.000000000000000E+20
  9
$PLIMMIN
 10
0.0
 20
0.0
  9
$PLIMMAX
 10
12.0
 20
9.0
  9
$UNITMODE
 70
     0
  9
$VISRETAIN
 70
     1
  9
$PLINEGEN
 70
     0
  9
$PSLTSCALE
 70
     1
  9
$TREEDEPTH
 70
  3020
  9
$CMLSTYLE
  2
Standard
  9
$CMLJUST
 70
     0
  9
$CMLSCALE
 40
1.0
  9
$PROXYGRAPHICS
 70
     1
  9
$MEASUREMENT
 70
     0
  9
$CELWEIGHT
370
    -1
  9
$ENDCAPS
280
     0
  9
$JOINSTYLE
280
     0
  9
$LWDISPLAY
290
     1
  9
$INSUNITS
 70
     4
  9
$HYPERLINKBASE
  1

  9
$STYLESHEET
  1

  9
$XEDIT
290
     1
  9
$CEPSNTYPE
380
     0
  9
$PSTYLEMODE
290
     1
  9
$FINGERPRINTGUID
  2
{052C10CB-4EBA-9D4E-9BEA-5E3D954D6C82}
  9
$VERSIONGUID
  2
{56F2EAC4-8D39-DD4B-A388-E6AEB3378352}
  9
$EXTNAMES
290
     1
  9
$PSVPSCALE
 40
0.0
  9
$OLESTARTUP
290
     0
  9
$SORTENTS
280
   127
  9
$INDEXCTL
280
     0
  9
$HIDETEXT
280
     1
  9
$XCLIPFRAME
280
     2
  9
$HALOGAP
280
     0
  9
$OBSCOLOR
 70
   257
  9
$OBSLTYPE
280
     0
  9
$INTERSECTIONDISPLAY
280
     0
  9
$INTERSECTIONCOLOR
 70
   257
  9
$DIMASSOC
280
     2
  9
$PROJECTNAME
  1

  9
$CAMERADISPLAY
290
     0
  9
$LENSLENGTH
 40
50.0
  9
$CAMERAHEIGHT
 40
0.0
  9
$STEPSPERSEC
 40
2.0
  9
$STEPSIZE
 40
6.0
  9
$3DDWFPREC
 40
2.0
  9
$PSOLWIDTH
 40
0.25
  9
$PSOLHEIGHT
 40
4.0
  9
$LOFTANG1
 40
1.570796326794896
  9
$LOFTANG2
 40
1.570796326794896
  9
$LOFTMAG1
 40
0.0
  9
$LOFTMAG2
 40
0.0
  9
$LOFTPARAM
 70
     7
  9
$LOFTNORMALS
280
     1
  9
$LATITUDE
 40
37.795
  9
$LONGITUDE
 40
-122.394
  9
$NORTHDIRECTION
 40
0.0
  9
$TIMEZONE
 70
 -8000
  9
$LIGHTGLYPHDISPLAY
280
     1
  9
$TILEMODELIGHTSYNCH
280
     1
  9
$CMATERIAL
347
11
  9
$SOLIDHIST
280
     0
  9
$SHOWHIST
280
     1
  9
$DWFFRAME
280
     2
  9
$DGNFRAME
280
     0
  9
$REALWORLDSCALE
290
     1
  9
$INTERFERECOLOR
 62
     1
  9
$INTERFEREOBJVS
345
33
  9
$INTERFEREVPVS
346
30
  9
$CSHADOW
280
     0
  9
$SHADOWPLANELOCATION
 40
0.0
  0
ENDSEC
  0
SECTION
  2
CLASSES
  0
CLASS
  1
ACDBDICTIONARYWDFLT
  2
AcDbDictionaryWithDefault
  3
ObjectDBX Classes
 90
        0
 91
        1
280
     0
281
     0
  0
CLASS
  1
MATERIAL
  2
AcDbMaterial
  3
ObjectDBX Classes
 90
     1153
 91
        3
280
     0
281
     0
  0
CLASS
  1
VISUALSTYLE
  2
AcDbVisualStyle
  3
ObjectDBX Classes
 90
     4095
 91
       24
280
     0
281
     0
  0
CLASS
  1
SCALE
  2
AcDbScale
  3
ObjectDBX Classes
 90
     1153
 91
       17
280
     0
281
     0
  0
CLASS
  1
TABLESTYLE
  2
AcDbTableStyle
  3
ObjectDBX Classes
 90
     4095
 91
        1
280
     0
281
     0
  0
CLASS
  1
MLEADERSTYLE
  2
AcDbMLeaderStyle
  3
ACDB_MLEADERSTYLE_CLASS
 90
     4095
 91
        1
280
     0
281
     0
  0
CLASS
  1
ACDBSECTIONVIEWSTYLE
  2
AcDbSectionViewStyle
  3
ObjectDBX Classes
 90
     1025
 91
        1
280
     0
281
     0
  0
CLASS
  1
ACDBDETAILVIEWSTYLE
  2
AcDbDetailViewStyle
  3
ObjectDBX Classes
 90
     1025
 91
        1
280
     0
281
     0
  0
CLASS
  1
DICTIONARYVAR
  2
AcDbDictionaryVar
  3
ObjectDBX Classes
 90
        0
 91
        5
280
     0
281
     0
  0
CLASS
  1
CELLSTYLEMAP
  2
AcDbCellStyleMap
  3
ObjectDBX Classes
 90
     1152
 91
        1
280
     0
281
     0
  0
ENDSEC
  0
SECTION
  2
TABLES
  0
TABLE
  2
VPORT
  5
8
330
0
100
AcDbSymbolTable
 70
     1
  0
VPORT
  5
57
330
8
100
AcDbSymbolTableRecord
100
AcDbViewportTableRecord
  2
*Active
 70
     0
 10
0.0
 20
0.0
 11
1.0
 21
1.0
 12
0.0
 22
0.0
 13
0.0
 23
0.0
 14
1.0
 24
1.0
 15
0.0
 25
0.0
 16
0.0
 26
0.0
 36
1.0
 17
104.9999999737499
 27
31.49999999212523
 37
0.0
 40
302.9399999242649
 41
0.7070707070707066
 42
50.0
 43
0.0
 44
0.0
 50
0.0
 51
0.0
 71
     0
 72
   100
 73
     1
 74
     1
 75
     0
 76
     0
 77
     0
 78
     0
281
     0
 65
     1
110
0.0
120
0.0
130
0.0
111
1.0
121
0.0
131
0.0
112
0.0
122
1.0
132
0.0
 79
     0
146
0.0
 60
     3
 61
     5
292
     1
282
     1
141
0.0
142
0.0
 63
   250
421
  3355443
  0
ENDTAB
  0
TABLE
  2
LTYPE
  5
5
330
0
100
AcDbSymbolTable
 70
     1
  0
LTYPE
  5
5B
330
5
100
AcDbSymbolTableRecord
100
AcDbLinetypeTableRecord
  2
ByBlock
 70
     0
  3

 72
    65
 73
     0
 40
0.0
  0
LTYPE
  5
5C
330
5
100
AcDbSymbolTableRecord
100
AcDbLinetypeTableRecord
  2
ByLayer
 70
     0
  3

 72
    65
 73
     0
 40
0.0
  0
LTYPE
  5
5D
330
5
100
AcDbSymbolTableRecord
100
AcDbLinetypeTableRecord
  2
Continuous
 70
     0
  3
Solid line
 72
    65
 73
     0
 40
0.0
  0
ENDTAB
  0
TABLE
  2
LAYER
  5
2
330
0
100
AcDbSymbolTable
 70
     1
  0
LAYER
  5
54
330
2
100
AcDbSymbolTableRecord
100
AcDbLayerTableRecord
  2
0
 70
     0
 62
     7
  6
Continuous
370
     0
390
F
347
21
348
0
  0
ENDTAB
  0
TABLE
  2
STYLE
  5
3
330
0
100
AcDbSymbolTable
 70
     2
  0
STYLE
  5
55
330
3
100
AcDbSymbolTableRecord
100
AcDbTextStyleTableRecord
  2
Standard
 70
     0
 40
0.0
 41
1.0
 50
0.0
 71
     0
 42
0.2
  3
txt
  4

  0
STYLE
  5
5A
330
3
100
AcDbSymbolTableRecord
100
AcDbTextStyleTableRecord
  2
Annotative
 70
     0
 40
0.0
 41
1.0
 50
0.0
 71
     0
 42
0.2
  3
txt
  4

1001
AcadAnnotative
1000
AnnotativeData
1002
{
1070
     1
1070
     1
1002
}
  0
ENDTAB
  0
TABLE
  2
VIEW
  5
6
330
0
100
AcDbSymbolTable
 70
     0
  0
ENDTAB
  0
TABLE
  2
UCS
  5
7
330
0
100
AcDbSymbolTable
 70
     0
  0
ENDTAB
  0
TABLE
  2
APPID
  5
9
330
0
100
AcDbSymbolTable
 70
     2
  0
APPID
  5
56
330
9
100
AcDbSymbolTableRecord
100
AcDbRegAppTableRecord
  2
ACAD
 70
     0
  0
APPID
  5
5E
330
9
100
AcDbSymbolTableRecord
100
AcDbRegAppTableRecord
  2
AcadAnnotative
 70
     0
  0
ENDTAB
  0
TABLE
  2
DIMSTYLE
  5
A
330
0
100
AcDbSymbolTable
 70
     2
100
AcDbDimStyleTable
 71
     0
  0
DIMSTYLE
105
58
330
A
100
AcDbSymbolTableRecord
100
AcDbDimStyleTableRecord
  2
Standard
 70
     0
340
55
  0
DIMSTYLE
105
59
330
A
100
AcDbSymbolTableRecord
100
AcDbDimStyleTableRecord
  2
Annotative
 70
     0
340
55
1001
AcadAnnotative
1000
AnnotativeData
1002
{
1070
     1
1070
     1
1002
}
  0
ENDTAB
  0
TABLE
  2
BLOCK_RECORD
  5
1
330
0
100
AcDbSymbolTable
 70
     6
  0
BLOCK_RECORD
  5
70
330
1
100
AcDbSymbolTableRecord
100
AcDbBlockTableRecord
  2
*Model_Space
340
73
 70
     0
280
     1
281
     0
  0
BLOCK_RECORD
  5
6C
330
1
100
AcDbSymbolTableRecord
100
AcDbBlockTableRecord
  2
*Paper_Space
340
6F
 70
     0
280
     1
281
     0
  0
BLOCK_RECORD
  5
74
330
1
100
AcDbSymbolTableRecord
100
AcDbBlockTableRecord
  2
*Paper_Space0
340
77
 70
     0
280
     1
281
     0
  0
BLOCK_RECORD
  5
101
330
1
100
AcDbSymbolTableRecord
100
AcDbBlockTableRecord
  2
Block_0
340
0
102
{BLKREFS
331
102
102
}
 70
     0
280
     1
281
     0
  0
BLOCK_RECORD
  5
10D
330
1
100
AcDbSymbolTableRecord
100
AcDbBlockTableRecord
  2
Block_1
340
0
102
{BLKREFS
331
10E
102
}
 70
     0
280
     1
281
     0
  0
BLOCK_RECORD
  5
162
330
1
100
AcDbSymbolTableRecord
100
AcDbBlockTableRecord
  2
Block_2
340
0
102
{BLKREFS
331
163
102
}
 70
     0
280
     1
281
     0
  0
BLOCK_RECORD
  5
16F
330
1
100
AcDbSymbolTableRecord
100
AcDbBlockTableRecord
  2
Block_3
340
0
102
{BLKREFS
331
170
102
}
 70
     0
280
     1
281
     0
  0
BLOCK_RECORD
  5
217
330
1
100
AcDbSymbolTableRecord
100
AcDbBlockTableRecord
  2
Block_4
340
0
102
{BLKREFS
331
218
102
}
 70
     0
280
     1
281
     0
  0
ENDTAB
  0
ENDSEC
  0
SECTION
  2
BLOCKS
  0
BLOCK
  5
71
330
70
100
AcDbEntity
  8
0
100
AcDbBlockBegin
  2
*Model_Space
 70
     0
 10
0.0
 20
0.0
 30
0.0
  3
*Model_Space
  1

  0
ENDBLK
  5
72
330
70
100
AcDbEntity
  8
0
100
AcDbBlockEnd
  0
BLOCK
  5
6D
330
6C
100
AcDbEntity
 67
     1
  8
0
100
AcDbBlockBegin
  2
*Paper_Space
 70
     0
 10
0.0
 20
0.0
 30
0.0
  3
*Paper_Space
  1

  0
ENDBLK
  5
6E
330
6C
100
AcDbEntity
 67
     1
  8
0
100
AcDbBlockEnd
  0
BLOCK
  5
75
330
74
100
AcDbEntity
 67
     1
  8
0
100
AcDbBlockBegin
  2
*Paper_Space0
 70
     0
 10
0.0
 20
0.0
 30
0.0
  3
*Paper_Space0
  1

  0
ENDBLK
  5
76
330
74
100
AcDbEntity
 67
     1
  8
0
100
AcDbBlockEnd
  0
BLOCK
  5
103
330
101
100
AcDbEntity
  8
0
100
AcDbBlockBegin
  2
Block_0
 70
     0
 10
0.0
 20
0.0
 30
0.0
  3
Block_0
  1

  0
LWPOLYLINE
  5
105
330
101
100
AcDbEntity
  8
0
100
AcDbPolyline
 90
        4
 70
     1
 43
0.0
 10
110.3391674701502
 20
118.659558855494
 10
107.8391674701498
 20
118.969558855494
 10
107.8391674701498
 20
118.3495588554942
 10
107.8391674701498
 20
118.3495588554942
  0
HATCH
  5
106
330
101
100
AcDbEntity
  8
0
 62
    18
420
        0
440
 33554687
100
AcDbHatch
 10
0.0
 20
0.0
 30
0.0
210
0.0
220
0.0
230
1.0
  2
SOLID
 70
     1
 71
     1
 91
        1
 92
        1
 93
        3
 72
     1
 10
110.3391674701502
 20
118.659558855494
 11
107.8391674701498
 21
118.969558855494
 72
     1
 10
107.8391674701498
 20
118.969558855494
 11
107.8391674701498
 21
118.3495588554942
 72
     1
 10
107.8391674701498
 20
118.3495588554942
 11
110.3391674701502
 21
118.659558855494
 97
        1
330
105
 75
     2
 76
     1
 98
        1
 10
0.0
 20
0.0
450
        0
451
        0
460
0.0
461
0.0
452
        0
462
0.0
453
        0
470

  0
LWPOLYLINE
  5
107
330
101
100
AcDbEntity
  8
0
100
AcDbPolyline
 90
        4
 70
     1
 43
0.0
 10
24.08916747014986
 20
118.659558855494
 10
26.58916747014995
 20
118.3495588554942
 10
26.58916747014995
 20
118.969558855494
 10
26.58916747014995
 20
118.969558855494
  0
HATCH
  5
108
330
101
100
AcDbEntity
  8
0
 62
    18
420
        0
440
 33554687
100
AcDbHatch
 10
0.0
 20
0.0
 30
0.0
210
0.0
220
0.0
230
1.0
  2
SOLID
 70
     1
 71
     1
 91
        1
 92
        1
 93
        3
 72
     1
 10
24.08916747014986
 20
118.659558855494
 11
26.58916747014995
 21
118.3495588554942
 72
     1
 10
26.58916747014995
 20
118.3495588554942
 11
26.58916747014995
 21
118.969558855494
 72
     1
 10
26.58916747014995
 20
118.969558855494
 11
24.08916747014986
 21
118.659558855494
 97
        1
330
107
 75
     2
 76
     1
 98
        1
 10
0.0
 20
0.0
450
        0
451
        0
460
0.0
461
0.0
452
        0
462
0.0
453
        0
470

  0
LINE
  5
109
330
101
100
AcDbEntity
  8
0
 62
    18
420
        0
370
    18
100
AcDbLine
 10
110.3391674701502
 20
105.5021007541942
 30
0.0
 11
110.3391674701502
 21
119.659558855494
 31
0.0
  0
LINE
  5
10A
330
101
100
AcDbEntity
  8
0
 62
    18
420
        0
370
    18
100
AcDbLine
 10
24.08916747014986
 20
105.5021007541942
 30
0.0
 11
24.08916747014986
 21
119.659558855494
 31
0.0
  0
LINE
  5
10B
330
101
100
AcDbEntity
  8
0
 62
    18
420
        0
370
    18
100
AcDbLine
 10
110.3391674701502
 20
118.659558855494
 30
0.0
 11
24.08916747014986
 21
118.659558855494
 31
0.0
  0
MTEXT
  5
10C
330
101
100
AcDbEntity
  8
0
100
AcDbMText
 10
64.56833486002437
 20
119.3479045993405
 30
0.0
 40
0.2
 41
0.0
 46
0.0
 71
     7
 72
     1
  1
\C18;\c0;\FMyriad Pro|b0|i0|c1;\H2.381250;\W0.605000;345
 73
     1
 44
1.0
  0
ENDBLK
  5
104
330
101
100
AcDbEntity
  8
0
100
AcDbBlockEnd
  0
BLOCK
  5
10F
330
10D
100
AcDbEntity
  8
0
100
AcDbBlockBegin
  2
Block_1
 70
     0
 10
0.0
 20
0.0
 30
0.0
  3
Block_1
  1

  0
LWPOLYLINE
  5
111
330
10D
100
AcDbEntity
  8
0
100
AcDbPolyline
 90
        4
 70
     1
 43
0.0
 10
17.21416747015002
 20
87.62710075419429
 10
19.71416747014979
 20
87.31710075419391
 10
19.71416747014979
 20
87.93710075419401
 10
19.71416747014979
 20
87.93710075419401
  0
HATCH
  5
112
330
10D
100
AcDbEntity
  8
0
 62
    18
420
        0
440
 33554687
100
AcDbHatch
 10
0.0
 20
0.0
 30
0.0
210
0.0
220
0.0
230
1.0
  2
SOLID
 70
     1
 71
     1
 91
        1
 92
        1
 93
        3
 72
     1
 10
17.21416747015002
 20
87.62710075419429
 11
19.71416747014979
 21
87.31710075419391
 72
     1
 10
19.71416747014979
 20
87.31710075419391
 11
19.71416747014979
 21
87.93710075419401
 72
     1
 10
19.71416747014979
 20
87.93710075419401
 11
17.21416747015002
 21
87.62710075419429
 97
        1
330
111
 75
     2
 76
     1
 98
        1
 10
0.0
 20
0.0
450
        0
451
        0
460
0.0
461
0.0
452
        0
462
0.0
453
        0
470

  0
LWPOLYLINE
  5
113
330
10D
100
AcDbEntity
  8
0
100
AcDbPolyline
 90
        4
 70
     1
 43
0.0
 10
117.21416747015
 20
87.62710075419429
 10
114.7141674701496
 20
87.93710075419401
 10
114.7141674701496
 20
87.31710075419391
 10
114.7141674701496
 20
87.31710075419391
  0
HATCH
  5
114
330
10D
100
AcDbEntity
  8
0
 62
    18
420
        0
440
 33554687
100
AcDbHatch
 10
0.0
 20
0.0
 30
0.0
210
0.0
220
0.0
230
1.0
  2
SOLID
 70
     1
 71
     1
 91
        1
 92
        1
 93
        3
 72
     1
 10
117.21416747015
 20
87.62710075419429
 11
114.7141674701496
 21
87.93710075419401
 72
     1
 10
114.7141674701496
 20
87.93710075419401
 11
114.7141674701496
 21
87.31710075419391
 72
     1
 10
114.7141674701496
 20
87.31710075419391
 11
117.21416747015
 21
87.62710075419429
 97
        1
330
113
 75
     2
 76
     1
 98
        1
 10
0.0
 20
0.0
450
        0
451
        0
460
0.0
461
0.0
452
        0
462
0.0
453
        0
470

  0
LINE
  5
115
330
10D
100
AcDbEntity
  8
0
 62
    18
420
        0
370
    18
100
AcDbLine
 10
17.21416747015002
 20
103.5021007541941
 30
0.0
 11
17.21416747015002
 21
86.62710075419424
 31
0.0
  0
LINE
  5
116
330
10D
100
AcDbEntity
  8
0
 62
    18
420
        0
370
    18
100
AcDbLine
 10
117.21416747015
 20
103.5021007541941
 30
0.0
 11
117.21416747015
 21
86.62710075419424
 31
0.0
  0
LINE
  5
117
330
10D
100
AcDbEntity
  8
0
 62
    18
420
        0
370
    18
100
AcDbLine
 10
17.21416747015002
 20
87.62710075419429
 30
0.0
 11
117.21416747015
 21
87.62710075419429
 31
0.0
  0
MTEXT
  5
118
330
10D
100
AcDbEntity
  8
0
100
AcDbMText
 10
64.56833486002437
 20
88.31544263539184
 30
0.0
 40
0.2
 41
0.0
 46
0.0
 71
     7
 72
     1
  1
\C18;\c0;\FMyriad Pro|b0|i0|c1;\H2.381250;\W0.605000;400
 73
     1
 44
1.0
  0
ENDBLK
  5
110
330
10D
100
AcDbEntity
  8
0
100
AcDbBlockEnd
  0
BLOCK
  5
164
330
162
100
AcDbEntity
  8
0
100
AcDbBlockBegin
  2
Block_2
 70
     0
 10
0.0
 20
0.0
 30
0.0
  3
Block_2
  1

  0
LWPOLYLINE
  5
166
330
162
100
AcDbEntity
  8
0
100
AcDbPolyline
 90
        4
 70
     1
 43
0.0
 10
146.8989533067501
 20
111.3771007541943
 10
146.5889533067497
 20
108.8771007541942
 10
147.2089533067498
 20
108.8771007541942
 10
147.2089533067498
 20
108.8771007541942
  0
HATCH
  5
167
330
162
100
AcDbEntity
  8
0
 62
    18
420
        0
440
 33554687
100
AcDbHatch
 10
0.0
 20
0.0
 30
0.0
210
0.0
220
0.0
230
1.0
  2
SOLID
 70
     1
 71
     1
 91
        1
 92
        1
 93
        3
 72
     1
 10
146.8989533067501
 20
111.3771007541943
 11
146.5889533067497
 21
108.8771007541942
 72
     1
 10
146.5889533067497
 20
108.8771007541942
 11
147.2089533067498
 21
108.8771007541942
 72
     1
 10
147.2089533067498
 20
108.8771007541942
 11
146.8989533067501
 21
111.3771007541943
 97
        1
330
166
 75
     2
 76
     1
 98
        1
 10
0.0
 20
0.0
450
        0
451
        0
460
0.0
461
0.0
452
        0
462
0.0
453
        0
470

  0
LWPOLYLINE
  5
168
330
162
100
AcDbEntity
  8
0
100
AcDbPolyline
 90
        4
 70
     1
 43
0.0
 10
146.8989533067501
 20
97.62710075419398
 10
147.2089533067498
 20
100.1271007541941
 10
146.5889533067497
 20
100.1271007541941
 10
146.5889533067497
 20
100.1271007541941
  0
HATCH
  5
169
330
162
100
AcDbEntity
  8
0
 62
    18
420
        0
440
 33554687
100
AcDbHatch
 10
0.0
 20
0.0
 30
0.0
210
0.0
220
0.0
230
1.0
  2
SOLID
 70
     1
 71
     1
 91
        1
 92
        1
 93
        3
 72
     1
 10
146.8989533067501
 20
97.62710075419398
 11
147.2089533067498
 21
100.1271007541941
 72
     1
 10
147.2089533067498
 20
100.1271007541941
 11
146.5889533067497
 21
100.1271007541941
 72
     1
 10
146.5889533067497
 20
100.1271007541941
 11
146.8989533067501
 21
97.62710075419398
 97
        1
330
168
 75
     2
 76
     1
 98
        1
 10
0.0
 20
0.0
450
        0
451
        0
460
0.0
461
0.0
452
        0
462
0.0
453
        0
470

  0
LINE
  5
16A
330
162
100
AcDbEntity
  8
0
 62
    18
420
        0
370
    18
100
AcDbLine
 10
154.6016982482501
 20
111.3771007541943
 30
0.0
 11
145.8989533067501
 21
111.3771007541943
 31
0.0
  0
LINE
  5
16B
330
162
100
AcDbEntity
  8
0
 62
    18
420
        0
370
    18
100
AcDbLine
 10
154.6016982482501
 20
97.62710075419398
 30
0.0
 11
145.8989533067501
 21
97.62710075419398
 31
0.0
  0
LINE
  5
16C
330
162
100
AcDbEntity
  8
0
 62
    18
420
        0
370
    18
100
AcDbLine
 10
146.8989533067501
 20
111.3771007541943
 30
0.0
 11
146.8989533067501
 21
97.62710075419398
 31
0.0
  0
MTEXT
  5
16D
330
162
100
AcDbEntity
  8
0
100
AcDbMText
 10
146.2106087001014
 20
101.0522297924661
 30
0.0
 40
0.2
 41
0.0
 46
0.0
 71
     7
 72
     1
  1
\C18;\c0;\FMyriad Pro|b0|i0|c1;\H2.381250;\W0.605000;∅
 11
-0.000000000000007
 21
1.0
 31
0.0
 73
     1
 44
1.0
  0
MTEXT
  5
16E
330
162
100
AcDbEntity
  8
0
100
AcDbMText
 10
146.2106087001014
 20
104.4246337629772
 30
0.0
 40
0.2
 41
0.0
 46
0.0
 71
     7
 72
     1
  1
\C18;\c0;\FMyriad Pro|b0|i0|c1;\H2.381250;\W0.605000;55
 11
-0.000000000000007
 21
1.0
 31
0.0
 73
     1
 44
1.0
  0
ENDBLK
  5
165
330
162
100
AcDbEntity
  8
0
100
AcDbBlockEnd
  0
BLOCK
  5
171
330
16F
100
AcDbEntity
  8
0
100
AcDbBlockBegin
  2
Block_3
 70
     0
 10
0.0
 20
0.0
 30
0.0
  3
Block_3
  1

  0
LWPOLYLINE
  5
173
330
16F
100
AcDbEntity
  8
0
100
AcDbPolyline
 90
        4
 70
     1
 43
0.0
 10
184.7732015160501
 20
103.877100754194
 10
184.4632015160497
 20
101.3771007541943
 10
185.0832015160498
 20
101.3771007541943
 10
185.0832015160498
 20
101.3771007541943
  0
HATCH
  5
174
330
16F
100
AcDbEntity
  8
0
 62
     8
420
  8421504
440
 33554687
100
AcDbHatch
 10
0.0
 20
0.0
 30
0.0
210
0.0
220
0.0
230
1.0
  2
SOLID
 70
     1
 71
     1
 91
        1
 92
        1
 93
        3
 72
     1
 10
184.7732015160501
 20
103.877100754194
 11
184.4632015160497
 21
101.3771007541943
 72
     1
 10
184.4632015160497
 20
101.3771007541943
 11
185.0832015160498
 21
101.3771007541943
 72
     1
 10
185.0832015160498
 20
101.3771007541943
 11
184.7732015160501
 21
103.877100754194
 97
        1
330
173
 75
     2
 76
     1
 98
        1
 10
0.0
 20
0.0
450
        0
451
        0
460
0.0
461
0.0
452
        0
462
0.0
453
        0
470

  0
LWPOLYLINE
  5
175
330
16F
100
AcDbEntity
  8
0
100
AcDbPolyline
 90
        4
 70
     1
 43
0.0
 10
184.7732015160501
 20
105.3771007541941
 10
185.0832015160498
 20
107.8771007541942
 10
184.4632015160497
 20
107.8771007541942
 10
184.4632015160497
 20
107.8771007541942
  0
HATCH
  5
176
330
16F
100
AcDbEntity
  8
0
 62
     8
420
  8421504
440
 33554687
100
AcDbHatch
 10
0.0
 20
0.0
 30
0.0
210
0.0
220
0.0
230
1.0
  2
SOLID
 70
     1
 71
     1
 91
        1
 92
        1
 93
        3
 72
     1
 10
184.7732015160501
 20
105.3771007541941
 11
185.0832015160498
 21
107.8771007541942
 72
     1
 10
185.0832015160498
 20
107.8771007541942
 11
184.4632015160497
 21
107.8771007541942
 72
     1
 10
184.4632015160497
 20
107.8771007541942
 11
184.7732015160501
 21
105.3771007541941
 97
        1
330
175
 75
     2
 76
     1
 98
        1
 10
0.0
 20
0.0
450
        0
451
        0
460
0.0
461
0.0
452
        0
462
0.0
453
        0
470

  0
LINE
  5
177
330
16F
100
AcDbEntity
  8
0
 62
     8
420
  8421504
370
    18
100
AcDbLine
 10
182.4926992723495
 20
103.877100754194
 30
0.0
 11
185.7732015160495
 21
103.877100754194
 31
0.0
  0
LINE
  5
178
330
16F
100
AcDbEntity
  8
0
 62
     8
420
  8421504
370
    18
100
AcDbLine
 10
182.4926992723495
 20
105.3771007541941
 30
0.0
 11
185.7732015160495
 21
105.3771007541941
 31
0.0
  0
LINE
  5
179
330
16F
100
AcDbEntity
  8
0
 62
     8
420
  8421504
370
    18
100
AcDbLine
 10
184.7732015160501
 20
103.877100754194
 30
0.0
 11
184.7732015160501
 21
100.8771007541942
 31
0.0
  0
LINE
  5
17A
330
16F
100
AcDbEntity
  8
0
 62
     8
420
  8421504
370
    18
100
AcDbLine
 10
184.7732015160501
 20
103.877100754194
 30
0.0
 11
184.7732015160501
 21
105.3771007541941
 31
0.0
  0
LINE
  5
17B
330
16F
100
AcDbEntity
  8
0
 62
     8
420
  8421504
370
    18
100
AcDbLine
 10
184.7732015160501
 20
105.3771007541941
 30
0.0
 11
184.7732015160501
 21
110.279931072394
 31
0.0
  0
MTEXT
  5
17C
330
16F
100
AcDbEntity
  8
0
100
AcDbMText
 10
184.0848580430019
 20
108.5160291612387
 30
0.0
 40
0.2
 41
0.0
 46
0.0
 71
     7
 72
     1
  1
\C8;\c8421504;\FMyriad Pro|b0|i0|c1;\H2.381250;\W0.605000;6
 11
0.0000000000000001
 21
1.0
 31
0.0
 73
     1
 44
1.0
  0
ENDBLK
  5
172
330
16F
100
AcDbEntity
  8
0
100
AcDbBlockEnd
  0
BLOCK
  5
219
330
217
100
AcDbEntity
  8
0
100
AcDbBlockBegin
  2
Block_4
 70
     0
 10
0.0
 20
0.0
 30
0.0
  3
Block_4
  1

  0
LWPOLYLINE
  5
21B
330
217
100
AcDbEntity
  8
0
100
AcDbPolyline
 90
        4
 70
     1
 43
0.0
 10
127.2141674701497
 20
45.55840454209412
 10
126.90416747015
 20
43.05840454209436
 10
127.5241674701501
 20
43.05840454209436
 10
127.5241674701501
 20
43.05840454209436
  0
HATCH
  5
21C
330
217
100
AcDbEntity
  8
0
 62
    18
420
        0
440
 33554687
100
AcDbHatch
 10
0.0
 20
0.0
 30
0.0
210
0.0
220
0.0
230
1.0
  2
SOLID
 70
     1
 71
     1
 91
        1
 92
        1
 93
        3
 72
     1
 10
127.2141674701497
 20
45.55840454209412
 11
126.90416747015
 21
43.05840454209436
 72
     1
 10
126.90416747015
 20
43.05840454209436
 11
127.5241674701501
 21
43.05840454209436
 72
     1
 10
127.5241674701501
 20
43.05840454209436
 11
127.2141674701497
 21
45.55840454209412
 97
        1
330
21B
 75
     2
 76
     1
 98
        1
 10
0.0
 20
0.0
450
        0
451
        0
460
0.0
461
0.0
452
        0
462
0.0
453
        0
470

  0
LWPOLYLINE
  5
21D
330
217
100
AcDbEntity
  8
0
100
AcDbPolyline
 90
        4
 70
     1
 43
0.0
 10
127.2141674701497
 20
19.32990351799399
 10
127.5241674701501
 20
21.8299035179944
 10
126.90416747015
 20
21.8299035179944
 10
126.90416747015
 20
21.8299035179944
  0
HATCH
  5
21E
330
217
100
AcDbEntity
  8
0
 62
    18
420
        0
440
 33554687
100
AcDbHatch
 10
0.0
 20
0.0
 30
0.0
210
0.0
220
0.0
230
1.0
  2
SOLID
 70
     1
 71
     1
 91
        1
 92
        1
 93
        3
 72
     1
 10
127.2141674701497
 20
19.32990351799399
 11
127.5241674701501
 21
21.8299035179944
 72
     1
 10
127.5241674701501
 20
21.8299035179944
 11
126.90416747015
 21
21.8299035179944
 72
     1
 10
126.90416747015
 20
21.8299035179944
 11
127.2141674701497
 21
19.32990351799399
 97
        1
330
21D
 75
     2
 76
     1
 98
        1
 10
0.0
 20
0.0
450
        0
451
        0
460
0.0
461
0.0
452
        0
462
0.0
453
        0
470

  0
LINE
  5
21F
330
217
100
AcDbEntity
  8
0
 62
    18
420
        0
370
    18
100
AcDbLine
 10
117.7141674701497
 20
45.55840454209412
 30
0.0
 11
128.2141674701497
 21
45.55840454209412
 31
0.0
  0
LINE
  5
220
330
217
100
AcDbEntity
  8
0
 62
    18
420
        0
370
    18
100
AcDbLine
 10
117.9641674701499
 20
19.32990351799399
 30
0.0
 11
128.2141674701497
 21
19.32990351799399
 31
0.0
  0
LINE
  5
221
330
217
100
AcDbEntity
  8
0
 62
    18
420
        0
370
    18
100
AcDbLine
 10
127.2141674701497
 20
45.55840454209412
 30
0.0
 11
127.2141674701497
 21
19.32990351799399
 31
0.0
  0
MTEXT
  5
222
330
217
100
AcDbEntity
  8
0
100
AcDbMText
 10
126.5258229468982
 20
29.798353399689
 30
0.0
 40
0.2
 41
0.0
 46
0.0
 71
     7
 72
     1
  1
\C18;\c0;\FMyriad Pro|b0|i0|c1;\H2.381250;\W0.605000;105
 11
-0.000000000000007
 21
1.0
 31
0.0
 73
     1
 44
1.0
  0
ENDBLK
  5
21A
330
217
100
AcDbEntity
  8
0
100
AcDbBlockEnd
  0
ENDSEC
  0
SECTION
  2
ENTITIES
  0
LINE
  5
78
330
70
100
AcDbEntity
  8
0
 62
    18
420
        0
370
    25
100
AcDbLine
 10
24.96416752974986
 20
102.7017818309942
 30
0.0
 11
24.96416752974986
 21
102.7036639174942
 31
0.0
  0
LINE
  5
79
330
70
100
AcDbEntity
  8
0
 62
    18
420
        0
370
    25
100
AcDbLine
 10
23.21416770854977
 20
102.7036639174942
 30
0.0
 11
23.21416770854977
 21
102.7017818309942
 31
0.0
  0
LINE
  5
7A
330
70
100
AcDbEntity
  8
0
 62
    18
420
        0
370
    25
100
AcDbLine
 10
111.2201686744499
 20
102.7017818309942
 30
0.0
 11
111.2201686744499
 21
102.7036639174942
 31
0.0
  0
LINE
  5
7B
330
70
100
AcDbEntity
  8
0
 62
    18
420
        0
370
    25
100
AcDbLine
 10
109.4701688532498
 20
102.7036639174942
 30
0.0
 11
109.4701688532498
 21
102.7017818309942
 31
0.0
  0
LINE
  5
7C
330
70
100
AcDbEntity
  8
0
 62
   144
420
    29337
370
    18
100
AcDbLine
 10
111.2266693059497
 20
105.3771006885941
 30
0.0
 11
111.2266693059497
 21
105.3902383904941
 31
0.0
  0
SPLINE
  5
7D
330
70
100
AcDbEntity
  8
0
 62
   144
420
    29337
370
    18
100
AcDbSpline
210
0.0
220
0.0
230
1.0
 70
     8
 71
     3
 72
    11
 73
     7
 74
     0
 42
0.0000000001
 43
0.0000000001
 40
0.0
 40
0.0
 40
0.0
 40
0.0
 40
1.0
 40
1.0
 40
1.0
 40
2.0
 40
2.0
 40
2.0
 40
2.0
 10
111.2266674701501
 20
105.3902382841941
 30
0.0
 10
111.2266674701501
 20
105.4178525216855
 30
0.0
 10
111.2042817076414
 20
105.4402382841943
 30
0.0
 10
111.17666747015
 20
105.4402382841943
 30
0.0
 10
111.1766174502746
 20
105.4402382841943
 30
0.0
 10
111.1765674304274
 20
105.4402382091344
 30
0.0
 10
111.1765174107778
 20
105.4402380590154
 30
0.0
  0
LINE
  5
7E
330
70
100
AcDbEntity
  8
0
 62
   144
420
    29337
370
    18
100
AcDbLine
 10
111.17651572275
 20
105.4402380727943
 30
0.0
 11
110.9641667251499
 21
105.439600815294
 31
0.0
  0
SPLINE
  5
7F
330
70
100
AcDbEntity
  8
0
 62
   144
420
    29337
370
    18
100
AcDbSpline
210
0.0
220
0.0
230
1.0
 70
     8
 71
     3
 72
     8
 73
     4
 74
     0
 42
0.0000000001
 43
0.0000000001
 40
0.0
 40
0.0
 40
0.0
 40
0.0
 40
1.0
 40
1.0
 40
1.0
 40
1.0
 10
110.7988080132084
 20
105.5021007541942
 30
0.0
 10
110.8444769666288
 20
105.4618245230651
 30
0.0
 10
110.9032755322557
 20
105.439600754194
 30
0.0
 10
110.9641674701496
 20
105.439600754194
 30
0.0
  0
SPLINE
  5
80
330
70
100
AcDbEntity
  8
0
 62
   144
420
    29337
370
    18
100
AcDbSpline
210
0.0
220
0.0
230
1.0
 70
     8
 71
     3
 72
     8
 73
     4
 74
     0
 42
0.0000000001
 43
0.0000000001
 40
0.0
 40
0.0
 40
0.0
 40
0.0
 40
1.0
 40
1.0
 40
1.0
 40
1.0
 10
109.7141674701501
 20
105.439600754194
 30
0.0
 10
109.7750594080439
 20
105.439600754194
 30
0.0
 10
109.8338579736709
 20
105.4618245230651
 30
0.0
 10
109.8795269270913
 20
105.5021007541942
 30
0.0
  0
LINE
  5
81
330
70
100
AcDbEntity
  8
0
 62
   144
420
    29337
370
    18
100
AcDbLine
 10
109.71416791725
 20
105.439600815294
 30
0.0
 11
109.5018189196499
 21
105.4402380727943
 31
0.0
  0
SPLINE
  5
82
330
70
100
AcDbEntity
  8
0
 62
   144
420
    29337
370
    18
100
AcDbSpline
210
0.0
220
0.0
230
1.0
 70
     8
 71
     3
 72
    11
 73
     7
 74
     0
 42
0.0000000001
 43
0.0000000001
 40
0.0
 40
0.0
 40
0.0
 40
0.0
 40
1.0
 40
1.0
 40
1.0
 40
2.0
 40
2.0
 40
2.0
 40
2.0
 10
109.5018175295219
 20
105.4402380590154
 30
0.0
 10
109.474203416393
 20
105.4403209345185
 30
0.0
 10
109.4517505708316
 20
105.4180024566951
 30
0.0
 10
109.4516676953288
 20
105.3903883435663
 30
0.0
 10
109.4516675452097
 20
105.3903383239164
 30
0.0
 10
109.4516674701495
 20
105.3902883040692
 30
0.0
 10
109.4516674701495
 20
105.3902382841941
 30
0.0
  0
LINE
  5
83
330
70
100
AcDbEntity
  8
0
 62
   144
420
    29337
370
    18
100
AcDbLine
 10
109.4516690616498
 20
105.3902383904941
 30
0.0
 11
109.4516690616498
 21
105.3771006885941
 31
0.0
  0
LINE
  5
84
330
70
100
AcDbEntity
  8
0
 62
    18
420
        0
370
    25
100
AcDbLine
 10
108.6567815188501
 20
108.640054754194
 30
0.0
 11
108.09686293645
 21
108.640054754194
 31
0.0
  0
SPLINE
  5
85
330
70
100
AcDbEntity
  8
0
 62
    18
420
        0
370
    25
100
AcDbSpline
210
0.0
220
0.0
230
1.0
 70
     8
 71
     3
 72
    23
 73
    19
 74
     0
 42
0.0000000001
 43
0.0000000001
 40
0.0
 40
0.0
 40
0.0
 40
0.0
 40
1.0
 40
1.0
 40
1.0
 40
2.0
 40
2.0
 40
2.0
 40
3.0
 40
3.0
 40
3.0
 40
4.0
 40
4.0
 40
4.0
 40
5.0
 40
5.0
 40
5.0
 40
6.0
 40
6.0
 40
6.0
 40
6.0
 10
109.0023470551681
 20
108.940052979207
 30
0.0
 10
109.0023470551681
 20
108.9185562743669
 30
0.0
 10
109.0003156825224
 20
108.8973752753753
 30
0.0
 10
108.9959480660965
 20
108.8765573976993
 30
0.0
 10
108.9915804496699
 20
108.855739520023
 30
0.0
 10
108.9847317657626
 20
108.8350891211988
 30
0.0
 10
108.9756463396008
 20
108.8158990575115
 30
0.0
 10
108.9574754872765
 20
108.7775189301373
 30
0.0
 10
108.9295717699803
 20
108.7436370461718
 30
0.0
 10
108.8960536699257
 20
108.7172447870952
 30
0.0
 10
108.879294619898
 20
108.7040486575569
 30
0.0
 10
108.8609627052365
 20
108.6924984566958
 30
0.0
 10
108.8420410961778
 20
108.6828455337543
 30
0.0
 10
108.8231194871191
 20
108.6731926108129
 30
0.0
 10
108.8034346658217
 20
108.665283187765
 30
0.0
 10
108.783064075112
 20
108.6589403489167
 30
0.0
 10
108.7423228936923
 20
108.6462546712195
 30
0.0
 10
108.699712995527
 20
108.640054531707
 30
0.0
 10
108.6567829126679
 20
108.640054531707
 30
0.0
  0
LWPOLYLINE
  5
86
330
70
100
AcDbEntity
  8
0
 62
    18
420
        0
370
    25
100
AcDbPolyline
 90
        9
 70
     0
 43
0.0
 10
109.0261515025499
 20
108.640054754194
 10
109.0716037694495
 20
108.763449407394
 10
109.1170597617497
 20
108.8868403352942
 10
109.16251202865
 20
109.0102275378941
 10
109.2079642955496
 20
109.1336105495941
 10
109.2534128372497
 20
109.2569898359941
 10
109.2988613788496
 20
109.3803644656943
 10
109.3443061952499
 20
109.503734904594
 10
109.3897510115495
 20
109.6271006867942
  0
LINE
  5
87
330
70
100
AcDbEntity
  8
0
 62
    18
420
        0
370
    25
100
AcDbLine
 10
109.6897523645498
 20
108.7810751527941
 30
0.0
 11
109.3759227339501
 21
108.7810751527941
 31
0.0
  0
LINE
  5
88
330
70
100
AcDbEntity
  8
0
 62
    18
420
        0
370
    25
100
AcDbLine
 10
110.04637440485
 20
108.640054754194
 30
0.0
 11
109.7312185708496
 21
108.640054754194
 31
0.0
  0
LINE
  5
89
330
70
100
AcDbEntity
  8
0
 62
    18
420
        0
370
    25
100
AcDbLine
 10
110.5550776962497
 20
108.640054754194
 30
0.0
 11
110.2509822492499
 21
108.640054754194
 31
0.0
  0
LINE
  5
8A
330
70
100
AcDbEntity
  8
0
 62
    18
420
        0
370
    25
100
AcDbLine
 10
110.2509822492499
 20
109.3741413682942
 30
0.0
 11
109.97451355505
 21
109.3741413682942
 31
0.0
  0
LINE
  5
8B
330
70
100
AcDbEntity
  8
0
 62
    18
420
        0
370
    25
100
AcDbLine
 10
110.9435844962497
 20
108.640054754194
 30
0.0
 11
110.9435844962497
 21
109.6271006867942
 31
0.0
  0
LINE
  5
8C
330
70
100
AcDbEntity
  8
0
 62
    18
420
        0
370
    25
100
AcDbLine
 10
111.5324746613496
 20
108.9971317454941
 30
0.0
 11
111.2476799432501
 21
108.9971317454941
 31
0.0
  0
LINE
  5
8D
330
70
100
AcDbEntity
  8
0
 62
    18
420
        0
370
    25
100
AcDbLine
 10
111.8366185371499
 20
108.640054754194
 30
0.0
 11
111.5324746613496
 21
108.640054754194
 31
0.0
  0
LINE
  5
8E
330
70
100
AcDbEntity
  8
0
 62
   144
420
    29337
370
    18
100
AcDbLine
 10
111.9384344462496
 20
108.9971317454941
 30
0.0
 11
111.8366185371499
 21
108.9971317454941
 31
0.0
  0
LINE
  5
8F
330
70
100
AcDbEntity
  8
0
 62
   144
420
    29337
370
    18
100
AcDbLine
 10
111.8366185371499
 20
108.9971317454941
 30
0.0
 11
111.8366185371499
 21
108.640054754194
 31
0.0
  0
LINE
  5
90
330
70
100
AcDbEntity
  8
0
 62
   144
420
    29337
370
    18
100
AcDbLine
 10
111.5324746613496
 20
108.640054754194
 30
0.0
 11
111.5324746613496
 21
108.9971317454941
 31
0.0
  0
LINE
  5
91
330
70
100
AcDbEntity
  8
0
 62
   144
420
    29337
370
    18
100
AcDbLine
 10
111.2476799432501
 20
108.9971317454941
 30
0.0
 11
111.2476799432501
 21
108.640054754194
 31
0.0
  0
LINE
  5
92
330
70
100
AcDbEntity
  8
0
 62
   144
420
    29337
370
    18
100
AcDbLine
 10
111.2476799432501
 20
108.640054754194
 30
0.0
 11
110.9435844962497
 21
108.640054754194
 31
0.0
  0
LINE
  5
93
330
70
100
AcDbEntity
  8
0
 62
   144
420
    29337
370
    18
100
AcDbLine
 10
110.9435844962497
 20
109.6271006867942
 30
0.0
 11
111.2476799432501
 21
109.6271006867942
 31
0.0
  0
LINE
  5
94
330
70
100
AcDbEntity
  8
0
 62
   144
420
    29337
370
    18
100
AcDbLine
 10
111.2476799432501
 20
109.6271006867942
 30
0.0
 11
111.2476799432501
 21
109.2842570982941
 31
0.0
  0
LINE
  5
95
330
70
100
AcDbEntity
  8
0
 62
   144
420
    29337
370
    18
100
AcDbLine
 10
111.2476799432501
 20
109.2842570982941
 30
0.0
 11
111.5324746613496
 21
109.2842570982941
 31
0.0
  0
LINE
  5
96
330
70
100
AcDbEntity
  8
0
 62
   144
420
    29337
370
    18
100
AcDbLine
 10
111.5324746613496
 20
109.2842570982941
 30
0.0
 11
111.5324746613496
 21
109.6271006867942
 31
0.0
  0
LINE
  5
97
330
70
100
AcDbEntity
  8
0
 62
   144
420
    29337
370
    18
100
AcDbLine
 10
111.5324746613496
 20
109.6271006867942
 30
0.0
 11
111.8366185371499
 21
109.6271006867942
 31
0.0
  0
LINE
  5
98
330
70
100
AcDbEntity
  8
0
 62
   144
420
    29337
370
    18
100
AcDbLine
 10
111.8366185371499
 20
109.6271006867942
 30
0.0
 11
111.8366185371499
 21
109.2831558093942
 31
0.0
  0
LINE
  5
99
330
70
100
AcDbEntity
  8
0
 62
   144
420
    29337
370
    18
100
AcDbLine
 10
111.8366185371499
 20
109.2831558093942
 30
0.0
 11
111.9384344462496
 21
109.2831558093942
 31
0.0
  0
LINE
  5
9A
330
70
100
AcDbEntity
  8
0
 62
   144
420
    29337
370
    18
100
AcDbLine
 10
111.9384344462496
 20
109.2831558093942
 30
0.0
 11
111.9384344462496
 21
109.6271006867942
 31
0.0
  0
LINE
  5
9B
330
70
100
AcDbEntity
  8
0
 62
   144
420
    29337
370
    18
100
AcDbLine
 10
111.9384344462496
 20
109.6271006867942
 30
0.0
 11
112.2374783997499
 21
109.6271006867942
 31
0.0
  0
LINE
  5
9C
330
70
100
AcDbEntity
  8
0
 62
   144
420
    29337
370
    18
100
AcDbLine
 10
112.2374783997499
 20
109.6271006867942
 30
0.0
 11
112.2374783997499
 21
109.2831558093942
 31
0.0
  0
LINE
  5
9D
330
70
100
AcDbEntity
  8
0
 62
   144
420
    29337
370
    18
100
AcDbLine
 10
112.2374783997499
 20
109.2831558093942
 30
0.0
 11
112.5814717058498
 21
109.2831558093942
 31
0.0
  0
LINE
  5
9E
330
70
100
AcDbEntity
  8
0
 62
   144
420
    29337
370
    18
100
AcDbLine
 10
112.5814717058498
 20
109.2831558093942
 30
0.0
 11
112.5814717058498
 21
108.9971317454941
 31
0.0
  0
LINE
  5
9F
330
70
100
AcDbEntity
  8
0
 62
   144
420
    29337
370
    18
100
AcDbLine
 10
112.5814717058498
 20
108.9971317454941
 30
0.0
 11
112.2374783997499
 21
108.9971317454941
 31
0.0
  0
LINE
  5
A0
330
70
100
AcDbEntity
  8
0
 62
   144
420
    29337
370
    18
100
AcDbLine
 10
112.2374783997499
 20
108.9971317454941
 30
0.0
 11
112.2374783997499
 21
108.640054754194
 31
0.0
  0
LINE
  5
A1
330
70
100
AcDbEntity
  8
0
 62
   144
420
    29337
370
    18
100
AcDbLine
 10
112.2374783997499
 20
108.640054754194
 30
0.0
 11
111.9384344462496
 21
108.640054754194
 31
0.0
  0
LINE
  5
A2
330
70
100
AcDbEntity
  8
0
 62
   144
420
    29337
370
    18
100
AcDbLine
 10
111.9384344462496
 20
108.640054754194
 30
0.0
 11
111.9384344462496
 21
108.9971317454941
 31
0.0
  0
LINE
  5
A3
330
70
100
AcDbEntity
  8
0
 62
   144
420
    29337
370
    18
100
AcDbLine
 10
110.2509822492499
 20
108.640054754194
 30
0.0
 11
110.2509822492499
 21
109.3741413682942
 31
0.0
  0
LINE
  5
A4
330
70
100
AcDbEntity
  8
0
 62
   144
420
    29337
370
    18
100
AcDbLine
 10
109.97451355505
 20
109.3741413682942
 30
0.0
 11
109.97451355505
 21
109.6271006867942
 31
0.0
  0
LINE
  5
A5
330
70
100
AcDbEntity
  8
0
 62
   144
420
    29337
370
    18
100
AcDbLine
 10
109.97451355505
 20
109.6271006867942
 30
0.0
 11
110.8315985445498
 21
109.6271006867942
 31
0.0
  0
LINE
  5
A6
330
70
100
AcDbEntity
  8
0
 62
   144
420
    29337
370
    18
100
AcDbLine
 10
110.8315985445498
 20
109.6271006867942
 30
0.0
 11
110.8315985445498
 21
109.3741413682942
 31
0.0
  0
LINE
  5
A7
330
70
100
AcDbEntity
  8
0
 62
   144
420
    29337
370
    18
100
AcDbLine
 10
110.8315985445498
 20
109.3741413682942
 30
0.0
 11
110.5550776962497
 21
109.3741413682942
 31
0.0
  0
LINE
  5
A8
330
70
100
AcDbEntity
  8
0
 62
   144
420
    29337
370
    18
100
AcDbLine
 10
110.5550776962497
 20
109.3741413682942
 30
0.0
 11
110.5550776962497
 21
108.640054754194
 31
0.0
  0
LWPOLYLINE
  5
A9
330
70
100
AcDbEntity
  8
0
 62
   144
420
    29337
370
    18
100
AcDbPolyline
 90
        9
 70
     0
 43
0.0
 10
109.7312185708496
 20
108.640054754194
 10
109.7260366920496
 20
108.6576823621943
 10
109.7208510879499
 20
108.6753099702943
 10
109.7156692091499
 20
108.6929380439941
 10
109.7104836050496
 20
108.7105656519941
 10
109.7053017262495
 20
108.7281927943942
 10
109.7001198474502
 20
108.7458204023941
 10
109.6949342433498
 20
108.7634475447942
 10
109.6897523645498
 20
108.7810751527941
  0
LWPOLYLINE
  5
AA
330
70
100
AcDbEntity
  8
0
 62
   144
420
    29337
370
    18
100
AcDbPolyline
 90
        9
 70
     0
 43
0.0
 10
109.3759227339501
 20
108.7810751527941
 10
109.3703944031497
 20
108.7634475447942
 10
109.3648623470496
 20
108.7458204023941
 10
109.3593302909501
 20
108.7281927943942
 10
109.35379823485
 20
108.7105651862941
 10
109.3482661787499
 20
108.6929375782942
 10
109.3427341227499
 20
108.6753099702943
 10
109.3372020666498
 20
108.6576823621943
 10
109.3316700105496
 20
108.640054754194
  0
LINE
  5
AB
330
70
100
AcDbEntity
  8
0
 62
   144
420
    29337
370
    18
100
AcDbLine
 10
109.3316700105496
 20
108.640054754194
 30
0.0
 11
109.0261515025499
 21
108.640054754194
 31
0.0
  0
LINE
  5
AC
330
70
100
AcDbEntity
  8
0
 62
   144
420
    29337
370
    18
100
AcDbLine
 10
109.3897510115495
 20
109.6271006867942
 30
0.0
 11
109.6869509462497
 21
109.6271006867942
 31
0.0
  0
LWPOLYLINE
  5
AD
330
70
100
AcDbEntity
  8
0
 62
   144
420
    29337
370
    18
100
AcDbPolyline
 90
        9
 70
     0
 43
0.0
 10
109.6869509462497
 20
109.6271006867942
 10
109.7318704967499
 20
109.5037367671941
 10
109.7767937724498
 20
109.3803677253941
 10
109.82172077345
 20
109.256994026894
 10
109.8666477744502
 20
109.1336152061942
 10
109.91157850065
 20
109.0102317288941
 10
109.9565092269499
 20
108.886843594894
 10
110.0014399532498
 20
108.7634512699941
 10
110.04637440485
 20
108.640054754194
  0
SPLINE
  5
AE
330
70
100
AcDbEntity
  8
0
 62
   144
420
    29337
370
    18
100
AcDbSpline
210
0.0
220
0.0
230
1.0
 70
     8
 71
     3
 72
    17
 73
    13
 74
     0
 42
0.0000000001
 43
0.0000000001
 40
0.0
 40
0.0
 40
0.0
 40
0.0
 40
1.0
 40
1.0
 40
1.0
 40
2.0
 40
2.0
 40
2.0
 40
3.0
 40
3.0
 40
3.0
 40
4.0
 40
4.0
 40
4.0
 40
4.0
 10
108.9525875026677
 20
109.3796631617071
 30
0.0
 10
108.9525875026677
 20
109.3594006644253
 30
0.0
 10
108.9506175044668
 20
109.3394300056691
 30
0.0
 10
108.9457154229056
 20
109.3198938031697
 30
0.0
 10
108.9408133413445
 20
109.30035760067
 30
0.0
 10
108.9328453473451
 20
109.2814985692558
 30
0.0
 10
108.9218920408948
 20
109.2646045452863
 30
0.0
 10
108.9109387344452
 20
109.2477105213168
 30
0.0
 10
108.896967406124
 20
109.232679972294
 30
0.0
 10
108.8814421782509
 20
109.2197792158372
 30
0.0
 10
108.8659169503779
 20
109.2068784593805
 30
0.0
 10
108.848726441762
 20
109.1958595608836
 30
0.0
 10
108.8309170576679
 20
109.1861142092071
 30
0.0
  0
SPLINE
  5
AF
330
70
100
AcDbEntity
  8
0
 62
   144
420
    29337
370
    18
100
AcDbSpline
210
0.0
220
0.0
230
1.0
 70
     8
 71
     3
 72
    17
 73
    13
 74
     0
 42
0.0000000001
 43
0.0000000001
 40
0.0
 40
0.0
 40
0.0
 40
0.0
 40
1.0
 40
1.0
 40
1.0
 40
2.0
 40
2.0
 40
2.0
 40
3.0
 40
3.0
 40
3.0
 40
4.0
 40
4.0
 40
4.0
 40
4.0
 10
108.8309170576679
 20
109.1861142092071
 30
0.0
 10
108.8567001815133
 20
109.1776707786026
 30
0.0
 10
108.880864634246
 20
109.166065152236
 30
0.0
 10
108.9029944035529
 20
109.150484759386
 30
0.0
 10
108.9251241728592
 20
109.1349043665357
 30
0.0
 10
108.9442144160837
 20
109.1158771357363
 30
0.0
 10
108.9594303009434
 20
109.0936908791219
 30
0.0
 10
108.9746461858037
 20
109.0715046225074
 30
0.0
 10
108.9856614870279
 20
109.0464749669625
 30
0.0
 10
108.9925633566764
 20
109.0203388924588
 30
0.0
 10
108.999465226325
 20
108.9942028179551
 30
0.0
 10
109.0023470551681
 20
108.9671762836252
 30
0.0
 10
109.0023470551681
 20
108.940052979207
 30
0.0
  0
LINE
  5
B0
330
70
100
AcDbEntity
  8
0
 62
   144
420
    29337
370
    18
100
AcDbLine
 10
108.09686293645
 20
108.640054754194
 30
0.0
 11
108.09686293645
 21
109.6271006867942
 31
0.0
  0
LINE
  5
B1
330
70
100
AcDbEntity
  8
0
 62
   144
420
    29337
370
    18
100
AcDbLine
 10
108.09686293645
 20
109.6271006867942
 30
0.0
 11
108.6373839323498
 21
109.6271006867942
 31
0.0
  0
SPLINE
  5
B2
330
70
100
AcDbEntity
  8
0
 62
   144
420
    29337
370
    18
100
AcDbSpline
210
0.0
220
0.0
230
1.0
 70
     8
 71
     3
 72
    20
 73
    16
 74
     0
 42
0.0000000001
 43
0.0000000001
 40
0.0
 40
0.0
 40
0.0
 40
0.0
 40
1.0
 40
1.0
 40
1.0
 40
2.0
 40
2.0
 40
2.0
 40
3.0
 40
3.0
 40
3.0
 40
4.0
 40
4.0
 40
4.0
 40
5.0
 40
5.0
 40
5.0
 40
5.0
 10
108.6373842976677
 20
109.6271007542069
 30
0.0
 10
108.6752557924908
 20
109.6271007542069
 30
0.0
 10
108.7127219231988
 20
109.6241300985927
 30
0.0
 10
108.7494984596325
 20
109.6161075384419
 30
0.0
 10
108.7862749960662
 20
109.6080849782911
 30
0.0
 10
108.8223706675566
 20
109.5948381561544
 30
0.0
 10
108.8540134728779
 20
109.5736573282918
 30
0.0
 10
108.8698348755386
 20
109.5630669143603
 30
0.0
 10
108.8841544770021
 20
109.5507223237573
 30
0.0
 10
108.8966010802507
 20
109.5366920560448
 30
0.0
 10
108.9090476834998
 20
109.5226617883322
 30
0.0
 10
108.9197982271415
 20
109.5066089568138
 30
0.0
 10
108.9281333395613
 20
109.4896823951153
 30
0.0
 10
108.9448035644021
 20
109.4558292717176
 30
0.0
 10
108.9525875026677
 20
109.4178052035364
 30
0.0
 10
108.9525875026677
 20
109.3796631617071
 30
0.0
  0
LINE
  5
B3
330
70
100
AcDbEntity
  8
0
 62
    18
420
        0
370
    25
100
AcDbLine
 10
108.5917528514496
 20
109.0589385025943
 30
0.0
 11
108.4009583835499
 21
109.0589385025943
 31
0.0
  0
SPLINE
  5
B4
330
70
100
AcDbEntity
  8
0
 62
   144
420
    29337
370
    18
100
AcDbSpline
210
0.0
220
0.0
230
1.0
 70
     8
 71
     3
 72
    17
 73
    13
 74
     0
 42
0.0000000001
 43
0.0000000001
 40
0.0
 40
0.0
 40
0.0
 40
0.0
 40
1.0
 40
1.0
 40
1.0
 40
2.0
 40
2.0
 40
2.0
 40
3.0
 40
3.0
 40
3.0
 40
4.0
 40
4.0
 40
4.0
 40
4.0
 10
108.6982195201676
 20
108.969053746707
 30
0.0
 10
108.6982195201676
 20
108.982395449838
 30
0.0
 10
108.6964755276208
 20
108.9956367744096
 30
0.0
 10
108.6915612080473
 20
109.0080340951116
 30
0.0
 10
108.6866468884743
 20
109.0204314158136
 30
0.0
 10
108.6783570583109
 20
109.0313819998137
 30
0.0
 10
108.6676569124162
 20
109.0392755089561
 30
0.0
 10
108.6569567665208
 20
109.0471690180988
 30
0.0
 10
108.6443115711449
 20
109.0520657868125
 30
0.0
 10
108.6313050046657
 20
109.0549919574927
 30
0.0
 10
108.6182984381858
 20
109.0579181281732
 30
0.0
 10
108.6050822318934
 20
109.0589383142071
 30
0.0
 10
108.5917538326678
 20
109.0589383142071
 30
0.0
  0
LINE
  5
B5
330
70
100
AcDbEntity
  8
0
 62
   144
420
    29337
370
    18
100
AcDbLine
 10
108.4009583835499
 20
109.0589385025943
 30
0.0
 11
108.4009583835499
 21
108.8750884413942
 31
0.0
  0
LINE
  5
B6
330
70
100
AcDbEntity
  8
0
 62
   144
420
    29337
370
    18
100
AcDbLine
 10
108.4009583835499
 20
108.8750884413942
 30
0.0
 11
108.5793327335499
 21
108.8750884413942
 31
0.0
  0
SPLINE
  5
B7
330
70
100
AcDbEntity
  8
0
 62
   144
420
    29337
370
    18
100
AcDbSpline
210
0.0
220
0.0
230
1.0
 70
     8
 71
     3
 72
    17
 73
    13
 74
     0
 42
0.0000000001
 43
0.0000000001
 40
0.0
 40
0.0
 40
0.0
 40
0.0
 40
1.0
 40
1.0
 40
1.0
 40
2.0
 40
2.0
 40
2.0
 40
3.0
 40
3.0
 40
3.0
 40
4.0
 40
4.0
 40
4.0
 40
4.0
 10
108.5793341851681
 20
108.875088669207
 30
0.0
 10
108.5938195997621
 20
108.875088669207
 30
0.0
 10
108.6081993901936
 20
108.8760032133926
 30
0.0
 10
108.6223693927964
 20
108.8787339863129
 30
0.0
 10
108.6365393953999
 20
108.8814647592333
 30
0.0
 10
108.6505855439335
 20
108.8860757002128
 30
0.0
 10
108.6627810921989
 20
108.8940210966996
 30
0.0
 10
108.6749766404643
 20
108.9019664931865
 30
0.0
 10
108.684674777933
 20
108.9133660086833
 30
0.0
 10
108.6904284528388
 20
108.9266626898679
 30
0.0
 10
108.6961821277446
 20
108.9399593710526
 30
0.0
 10
108.6982195201676
 20
108.954517105691
 30
0.0
 10
108.6982195201676
 20
108.969053746707
 30
0.0
  0
LWPOLYLINE
  5
B8
330
70
100
AcDbEntity
  8
0
 62
    18
420
        0
370
    25
100
AcDbPolyline
 90
        9
 70
     0
 43
0.0
 10
109.5376711134498
 20
109.2967251792942
 10
109.52574645915
 20
109.258708591794
 10
109.51382553025
 20
109.2206915385943
 10
109.5019008759496
 20
109.1826744854943
 10
109.48997622175
 20
109.1446565009941
 10
109.4780515675497
 20
109.1066385164943
 10
109.4661306385496
 20
109.068619600694
 10
109.45420598435
 20
109.0306006848942
 10
109.4422813300495
 20
108.992581303394
  0
LWPOLYLINE
  5
B9
330
70
100
AcDbEntity
  8
0
 62
   144
420
    29337
370
    18
100
AcDbPolyline
 90
        9
 70
     0
 43
0.0
 10
109.6289146487501
 20
108.992581303394
 10
109.6178617124497
 20
109.0306011505941
 10
109.6068050508502
 20
109.068620066394
 10
109.5957483891499
 20
109.1066385164943
 10
109.5846917275498
 20
109.144656966694
 10
109.5736387912499
 20
109.1826744854943
 10
109.5625821296498
 20
109.2206920042942
 10
109.55152919335
 20
109.258708591794
 10
109.5404725317498
 20
109.2967251792942
  0
LINE
  5
BA
330
70
100
AcDbEntity
  8
0
 62
   144
420
    29337
370
    18
100
AcDbLine
 10
109.5404725317498
 20
109.2967251792942
 30
0.0
 11
109.5376711134498
 21
109.2967251792942
 31
0.0
  0
LINE
  5
BB
330
70
100
AcDbEntity
  8
0
 62
   144
420
    29337
370
    18
100
AcDbLine
 10
109.4422813300495
 20
108.992581303394
 30
0.0
 11
109.6289146487501
 21
108.992581303394
 31
0.0
  0
SPLINE
  5
BC
330
70
100
AcDbEntity
  8
0
 62
   144
420
    29337
370
    18
100
AcDbSpline
210
0.0
220
0.0
230
1.0
 70
     8
 71
     3
 72
     8
 73
     4
 74
     0
 42
0.0000000001
 43
0.0000000001
 40
0.0
 40
0.0
 40
0.0
 40
0.0
 40
1.0
 40
1.0
 40
1.0
 40
1.0
 10
108.5613281251678
 20
109.392066616707
 30
0.0
 10
108.6235397101681
 20
109.392066616707
 30
0.0
 10
108.6649925101679
 20
109.3741415192071
 30
0.0
 10
108.6649925101679
 20
109.324381966707
 30
0.0
  0
SPLINE
  5
BD
330
70
100
AcDbEntity
  8
0
 62
   144
420
    29337
370
    18
100
AcDbSpline
210
0.0
220
0.0
230
1.0
 70
     8
 71
     3
 72
     8
 73
     4
 74
     0
 42
0.0000000001
 43
0.0000000001
 40
0.0
 40
0.0
 40
0.0
 40
0.0
 40
1.0
 40
1.0
 40
1.0
 40
1.0
 10
108.6649925101679
 20
109.324381966707
 30
0.0
 10
108.6649925101679
 20
109.2594176567069
 30
0.0
 10
108.6263086276676
 20
109.2427717667069
 30
0.0
 10
108.5613281251678
 20
109.2427717667069
 30
0.0
  0
SPLINE
  5
BE
330
70
100
AcDbEntity
  8
0
 62
   144
420
    29337
370
    18
100
AcDbSpline
210
0.0
220
0.0
230
1.0
 70
     8
 71
     3
 72
     8
 73
     4
 74
     0
 42
0.0000000001
 43
0.0000000001
 40
0.0
 40
0.0
 40
0.0
 40
0.0
 40
1.0
 40
1.0
 40
1.0
 40
1.0
 10
108.9525875026677
 20
109.3796631617071
 30
0.0
 10
108.9525875026677
 20
109.480623399207
 30
0.0
 10
108.8972739226681
 20
109.6271007542069
 30
0.0
 10
108.6373842976677
 20
109.6271007542069
 30
0.0
  0
SPLINE
  5
BF
330
70
100
AcDbEntity
  8
0
 62
    18
420
        0
370
    25
100
AcDbSpline
210
0.0
220
0.0
230
1.0
 70
     8
 71
     3
 72
    11
 73
     7
 74
     0
 42
0.0000000001
 43
0.0000000001
 40
0.0
 40
0.0
 40
0.0
 40
0.0
 40
1.0
 40
1.0
 40
1.0
 40
2.0
 40
2.0
 40
2.0
 40
2.0
 10
117.1678995981532
 20
105.2983686261911
 30
0.0
 10
116.7281329956693
 20
109.0697732411669
 30
0.0
 10
113.3143042131289
 20
111.7705994846817
 30
0.0
 10
109.5428995981528
 20
111.3308328821975
 30
0.0
 10
106.4061601649895
 20
110.9650717443121
 30
0.0
 10
103.9220029166976
 20
108.5094115202146
 30
0.0
 10
103.5200766216575
 20
105.3771007541979
 30
0.0
  0
SPLINE
  5
C0
330
70
100
AcDbEntity
  8
0
 62
    18
420
        0
370
    25
100
AcDbSpline
210
0.0
220
0.0
230
1.0
 70
     8
 71
     3
 72
    11
 73
     7
 74
     0
 42
0.0000000001
 43
0.0000000001
 40
0.0
 40
0.0
 40
0.0
 40
0.0
 40
1.0
 40
1.0
 40
1.0
 40
2.0
 40
2.0
 40
2.0
 40
2.0
 10
103.4926355013358
 20
103.8771007541886
 30
0.0
 10
103.8378134699829
 20
100.0958655585837
 30
0.0
 10
107.1829322745505
 20
97.31039081673293
 30
0.0
 10
110.9641674701554
 20
97.65556878538008
 30
0.0
 10
114.3070173479203
 20
97.96072783278367
 30
0.0
 10
116.9407684609229
 20
100.6352859528227
 30
0.0
 10
117.1944989445181
 20
103.9824322285596
 30
0.0
  0
SPLINE
  5
C1
330
70
100
AcDbEntity
  8
0
 62
   144
420
    29337
370
    18
100
AcDbSpline
210
0.0
220
0.0
230
1.0
 70
     8
 71
     3
 72
    17
 73
    13
 74
     0
 42
0.0000000001
 43
0.0000000001
 40
0.0
 40
0.0
 40
0.0
 40
0.0
 40
1.0
 40
1.0
 40
1.0
 40
2.0
 40
2.0
 40
2.0
 40
3.0
 40
3.0
 40
3.0
 40
4.0
 40
4.0
 40
4.0
 40
4.0
 10
108.5613281251678
 20
109.2427717667069
 30
0.0
 10
108.5740832517638
 20
109.2427717667069
 30
0.0
 10
108.5867986139259
 20
109.2433423564708
 30
0.0
 10
108.5994113344748
 20
109.24538527254
 30
0.0
 10
108.6120240550242
 20
109.2474281886093
 30
0.0
 10
108.6245113819408
 20
109.2509572441509
 30
0.0
 10
108.6352806196962
 20
109.2577339575022
 30
0.0
 10
108.6460498574516
 20
109.2645106708534
 30
0.0
 10
108.6544253143524
 20
109.2749648540758
 30
0.0
 10
108.6590108788198
 20
109.2868569554084
 30
0.0
 10
108.6635964432879
 20
109.2987490567411
 30
0.0
 10
108.6649925101679
 20
109.3115908140408
 30
0.0
 10
108.6649925101679
 20
109.324381966707
 30
0.0
  0
LINE
  5
C2
330
70
100
AcDbEntity
  8
0
 62
   144
420
    29337
370
    18
100
AcDbLine
 10
108.4009583835499
 20
109.242771799894
 30
0.0
 11
108.5613284055499
 21
109.242771799894
 31
0.0
  0
LINE
  5
C3
330
70
100
AcDbEntity
  8
0
 62
   144
420
    29337
370
    18
100
AcDbLine
 10
108.4009583835499
 20
109.3920665338941
 30
0.0
 11
108.4009583835499
 21
109.242771799894
 31
0.0
  0
LINE
  5
C4
330
70
100
AcDbEntity
  8
0
 62
   144
420
    29337
370
    18
100
AcDbLine
 10
108.5613284055499
 20
109.3920665338941
 30
0.0
 11
108.4009583835499
 21
109.3920665338941
 31
0.0
  0
SPLINE
  5
C5
330
70
100
AcDbEntity
  8
0
 62
   144
420
    29337
370
    18
100
AcDbSpline
210
0.0
220
0.0
230
1.0
 70
     8
 71
     3
 72
    17
 73
    13
 74
     0
 42
0.0000000001
 43
0.0000000001
 40
0.0
 40
0.0
 40
0.0
 40
0.0
 40
1.0
 40
1.0
 40
1.0
 40
2.0
 40
2.0
 40
2.0
 40
3.0
 40
3.0
 40
3.0
 40
4.0
 40
4.0
 40
4.0
 40
4.0
 10
108.6649925101679
 20
109.324381966707
 30
0.0
 10
108.6649925101679
 20
109.3361769761749
 30
0.0
 10
108.6624959999284
 20
109.3480563621647
 30
0.0
 10
108.6563709845948
 20
109.3579393663898
 30
0.0
 10
108.6502459692604
 20
109.3678223706145
 30
0.0
 10
108.6404540031363
 20
109.3754219383374
 30
0.0
 10
108.6298804784435
 20
109.3803535750891
 30
0.0
 10
108.6193069537512
 20
109.3852852118407
 30
0.0
 10
108.6077411570601
 20
109.3880805614191
 30
0.0
 10
108.5962143358286
 20
109.3897727741705
 30
0.0
 10
108.5846875145979
 20
109.3914649869223
 30
0.0
 10
108.5730408651304
 20
109.392066616707
 30
0.0
 10
108.5613281251678
 20
109.392066616707
 30
0.0
  0
LINE
  5
C6
330
70
100
AcDbEntity
  8
0
 62
   144
420
    29337
370
    18
100
AcDbLine
 10
111.8366185371499
 20
109.2831558093942
 30
0.0
 11
111.8366185371499
 21
108.9971317454941
 31
0.0
  0
LINE
  5
C7
330
70
100
AcDbEntity
  8
0
 62
   144
420
    29337
370
    18
100
AcDbLine
 10
111.5944262389495
 20
109.2831558093942
 30
0.0
 11
111.8366185371499
 21
109.2831558093942
 31
0.0
  0
LINE
  5
C8
330
70
100
AcDbEntity
  8
0
 62
   144
420
    29337
370
    18
100
AcDbLine
 10
111.5944262389495
 20
108.9971317454941
 30
0.0
 11
111.5944262389495
 21
109.2831558093942
 31
0.0
  0
LINE
  5
C9
330
70
100
AcDbEntity
  8
0
 62
   144
420
    29337
370
    18
100
AcDbLine
 10
111.8366185371499
 20
108.9971317454941
 30
0.0
 11
111.5944262389495
 21
108.9971317454941
 31
0.0
  0
SPLINE
  5
CA
330
70
100
AcDbEntity
  8
0
 62
    18
420
        0
370
    25
100
AcDbSpline
210
0.0
220
0.0
230
1.0
 70
     8
 71
     3
 72
    11
 73
     7
 74
     0
 42
0.0000000001
 43
0.0000000001
 40
0.0
 40
0.0
 40
0.0
 40
0.0
 40
1.0
 40
1.0
 40
1.0
 40
2.0
 40
2.0
 40
2.0
 40
2.0
 10
22.29035631048541
 20
103.8771007541934
 30
0.0
 10
22.63553427913
 20
102.8836447828854
 30
0.0
 10
23.72071149884234
 20
102.3581116258848
 30
0.0
 10
24.71416747015061
 20
102.7032895945294
 30
0.0
 10
25.264361856883
 20
102.894455570936
 30
0.0
 10
25.69681265340801
 20
103.326906367461
 30
0.0
 10
25.88797862981464
 20
103.8771007541934
 30
0.0
  0
SPLINE
  5
CB
330
70
100
AcDbEntity
  8
0
 62
    18
420
        0
370
    25
100
AcDbSpline
210
0.0
220
0.0
230
1.0
 70
     8
 71
     3
 72
    11
 73
     7
 74
     0
 42
0.0000000001
 43
0.0000000001
 40
0.0
 40
0.0
 40
0.0
 40
0.0
 40
1.0
 40
1.0
 40
1.0
 40
2.0
 40
2.0
 40
2.0
 40
2.0
 10
25.70976815759098
 20
105.5021007541945
 30
0.0
 10
25.15748340776002
 20
106.3971337994334
 30
0.0
 10
23.98420051538871
 20
106.6749861914662
 30
0.0
 10
23.08916747014983
 20
106.1227014416352
 30
0.0
 10
22.83680117446012
 20
105.9669775192371
 30
0.0
 10
22.62429070510719
 20
105.7544670498839
 30
0.0
 10
22.46856678270875
 20
105.5021007541945
 30
0.0
  0
LINE
  5
CC
330
70
100
AcDbEntity
  8
0
 62
   144
420
    29337
370
    18
100
AcDbLine
 10
22.46856575654985
 20
105.5021007090943
 30
0.0
 11
25.70976948184989
 21
105.5021007090943
 31
0.0
  0
SPLINE
  5
CD
330
70
100
AcDbEntity
  8
0
 62
    18
420
        0
370
    25
100
AcDbSpline
210
0.0
220
0.0
230
1.0
 70
     8
 71
     3
 72
    11
 73
     7
 74
     0
 42
0.0000000001
 43
0.0000000001
 40
0.0
 40
0.0
 40
0.0
 40
0.0
 40
1.0
 40
1.0
 40
1.0
 40
2.0
 40
2.0
 40
2.0
 40
2.0
 10
25.82121827771886
 20
105.5021007541942
 30
0.0
 10
25.2689335278879
 20
106.4586860011466
 30
0.0
 10
24.04575271710229
 20
106.7864363115937
 30
0.0
 10
23.08916747014983
 20
106.2341515617631
 30
0.0
 10
22.78512905046369
 20
106.0586148983131
 30
0.0
 10
22.53265332603091
 20
105.8061391738803
 30
0.0
 10
22.35711666258088
 20
105.5021007541942
 30
0.0
  0
SPLINE
  5
CE
330
70
100
AcDbEntity
  8
0
 62
   144
420
    29337
370
    18
100
AcDbSpline
210
0.0
220
0.0
230
1.0
 70
    24
 71
     3
 72
    11
 73
     7
 74
     0
 42
0.0000000001
 43
0.0000000001
 40
0.0
 40
0.0
 40
0.0
 40
0.0
 40
1.0
 40
1.0
 40
1.0
 40
2.0
 40
2.0
 40
2.0
 40
2.0
 10
22.46856678272672
 20
105.502100754207
 30
0.0
 10
22.43924833148174
 20
105.502100754207
 30
0.0
 10
22.41170883884452
 20
105.502100754207
 30
0.0
 10
22.39092778609013
 20
105.502100754207
 30
0.0
 10
22.37014673333573
 20
105.502100754207
 30
0.0
 10
22.35711666259916
 20
105.502100754207
 30
0.0
 10
22.35711666259916
 20
105.502100754207
 30
0.0
  0
SPLINE
  5
CF
330
70
100
AcDbEntity
  8
0
 62
   144
420
    29337
370
    18
100
AcDbSpline
210
0.0
220
0.0
230
1.0
 70
    24
 71
     3
 72
    11
 73
     7
 74
     0
 42
0.0000000001
 43
0.0000000001
 40
0.0
 40
0.0
 40
0.0
 40
0.0
 40
1.0
 40
1.0
 40
1.0
 40
2.0
 40
2.0
 40
2.0
 40
2.0
 10
25.82121827773683
 20
105.502100754207
 30
0.0
 10
25.82121827773683
 20
105.502100754207
 30
0.0
 10
25.80816568167887
 20
105.502100754207
 30
0.0
 10
25.787419701349
 20
105.502100754207
 30
0.0
 10
25.76667372101912
 20
105.502100754207
 30
0.0
 10
25.73884466073681
 20
105.502100754207
 30
0.0
 10
25.70976815760927
 20
105.502100754207
 30
0.0
  0
SPLINE
  5
D0
330
70
100
AcDbEntity
  8
0
 62
    18
420
        0
370
    25
100
AcDbSpline
210
0.0
220
0.0
230
1.0
 70
     8
 71
     3
 72
    11
 73
     7
 74
     0
 42
0.0000000001
 43
0.0000000001
 40
0.0
 40
0.0
 40
0.0
 40
0.0
 40
1.0
 40
1.0
 40
1.0
 40
2.0
 40
2.0
 40
2.0
 40
2.0
 10
22.189331950951
 20
103.8771007541927
 30
0.0
 10
22.53450991959622
 20
102.8278505697522
 30
0.0
 10
23.664917285711
 20
102.2570872663504
 30
0.0
 10
24.71416747015125
 20
102.6022652349953
 30
0.0
 10
25.31740776467691
 20
102.8007167221209
 30
0.0
 10
25.7905515022231
 20
103.2738604596671
 30
0.0
 10
25.98900298934874
 20
103.8771007541927
 30
0.0
  0
LWPOLYLINE
  5
D1
330
70
100
AcDbEntity
  8
0
 62
   144
420
    29337
370
    18
100
AcDbPolyline
 90
        3
 70
     0
 43
0.0
 10
22.29073157354992
 20
105.3771006885941
 10
22.29542171405
 20
105.386678177094
 10
22.35711624664984
 20
105.502100709094
  0
LWPOLYLINE
  5
D2
330
70
100
AcDbEntity
  8
0
 62
   144
420
    29337
370
    18
100
AcDbPolyline
 90
        3
 70
     0
 43
0.0
 10
25.82121899174989
 20
105.5021007090943
 10
25.88291352434973
 20
105.386678177094
 10
25.88760366484982
 20
105.3771006885941
  0
LINE
  5
D3
330
70
100
AcDbEntity
  8
0
 62
   144
420
    29337
370
    18
100
AcDbLine
 10
23.20166563434999
 20
105.3902383904941
 30
0.0
 11
23.20166563434999
 21
105.3771006885941
 31
0.0
  0
SPLINE
  5
D4
330
70
100
AcDbEntity
  8
0
 62
   144
420
    29337
370
    18
100
AcDbSpline
210
0.0
220
0.0
230
1.0
 70
     8
 71
     3
 72
    11
 73
     7
 74
     0
 42
0.0000000001
 43
0.0000000001
 40
0.0
 40
0.0
 40
0.0
 40
0.0
 40
1.0
 40
1.0
 40
1.0
 40
2.0
 40
2.0
 40
2.0
 40
2.0
 10
23.25181752952221
 20
105.4402380590154
 30
0.0
 10
23.22420341639338
 20
105.4403209345185
 30
0.0
 10
23.2017505708313
 20
105.4180024566951
 30
0.0
 10
23.20166769532848
 20
105.3903883435663
 30
0.0
 10
23.20166754520941
 20
105.3903383239164
 30
0.0
 10
23.20166747014988
 20
105.3902883040692
 30
0.0
 10
23.20166747014988
 20
105.3902382841941
 30
0.0
  0
LINE
  5
D5
330
70
100
AcDbEntity
  8
0
 62
   144
420
    29337
370
    18
100
AcDbLine
 10
23.46416821524994
 20
105.439600815294
 30
0.0
 11
23.25181921764982
 21
105.4402380727943
 31
0.0
  0
SPLINE
  5
D6
330
70
100
AcDbEntity
  8
0
 62
   144
420
    29337
370
    18
100
AcDbSpline
210
0.0
220
0.0
230
1.0
 70
     8
 71
     3
 72
     8
 73
     4
 74
     0
 42
0.0000000001
 43
0.0000000001
 40
0.0
 40
0.0
 40
0.0
 40
0.0
 40
1.0
 40
1.0
 40
1.0
 40
1.0
 10
23.46416747014977
 20
105.439600754194
 30
0.0
 10
23.52505940804366
 20
105.439600754194
 30
0.0
 10
23.58385797367123
 20
105.4618245230651
 30
0.0
 10
23.62952692709165
 20
105.5021007541942
 30
0.0
  0
SPLINE
  5
D7
330
70
100
AcDbEntity
  8
0
 62
   144
420
    29337
370
    18
100
AcDbSpline
210
0.0
220
0.0
230
1.0
 70
     8
 71
     3
 72
     8
 73
     4
 74
     0
 42
0.0000000001
 43
0.0000000001
 40
0.0
 40
0.0
 40
0.0
 40
0.0
 40
1.0
 40
1.0
 40
1.0
 40
1.0
 10
24.5488080132084
 20
105.5021007541942
 30
0.0
 10
24.59447696662882
 20
105.4618245230651
 30
0.0
 10
24.65327553225608
 20
105.439600754194
 30
0.0
 10
24.71416747014997
 20
105.439600754194
 30
0.0
  0
LINE
  5
D8
330
70
100
AcDbEntity
  8
0
 62
   144
420
    29337
370
    18
100
AcDbLine
 10
24.92651602074992
 20
105.4402380727943
 30
0.0
 11
24.7141670231498
 21
105.439600815294
 31
0.0
  0
SPLINE
  5
D9
330
70
100
AcDbEntity
  8
0
 62
   144
420
    29337
370
    18
100
AcDbSpline
210
0.0
220
0.0
230
1.0
 70
     8
 71
     3
 72
    11
 73
     7
 74
     0
 42
0.0000000001
 43
0.0000000001
 40
0.0
 40
0.0
 40
0.0
 40
0.0
 40
1.0
 40
1.0
 40
1.0
 40
2.0
 40
2.0
 40
2.0
 40
2.0
 10
24.97666747014986
 20
105.3902382841941
 30
0.0
 10
24.97666747014986
 20
105.4178525216855
 30
0.0
 10
24.95428170764141
 20
105.4402382841943
 30
0.0
 10
24.92666747015002
 20
105.4402382841943
 30
0.0
 10
24.92661745027459
 20
105.4402382841943
 30
0.0
 10
24.92656743042771
 20
105.4402382091344
 30
0.0
 10
24.92651741077752
 20
105.4402380590154
 30
0.0
  0
LINE
  5
DA
330
70
100
AcDbEntity
  8
0
 62
   144
420
    29337
370
    18
100
AcDbLine
 10
24.97666587875004
 20
105.3771006885941
 30
0.0
 11
24.97666587875004
 21
105.3902383904941
 31
0.0
  0
SPLINE
  5
DB
330
70
100
AcDbEntity
  8
0
 62
    18
420
        0
370
    25
100
AcDbSpline
210
0.0
220
0.0
230
1.0
 70
     8
 71
     3
 72
    11
 73
     7
 74
     0
 42
0.0000000001
 43
0.0000000001
 40
0.0
 40
0.0
 40
0.0
 40
0.0
 40
1.0
 40
1.0
 40
1.0
 40
2.0
 40
2.0
 40
2.0
 40
2.0
 10
30.9082583186422
 20
105.3771007541979
 30
0.0
 10
30.42500916253811
 20
109.1431806375311
 30
0.0
 10
26.98024735347918
 20
111.8044407587905
 30
0.0
 10
23.21416747014607
 20
111.3211916026864
 30
0.0
 10
20.08185670412943
 20
110.9192653076463
 30
0.0
 10
17.62619648003193
 20
108.4351080593542
 30
0.0
 10
17.26043534214653
 20
105.2983686261911
 30
0.0
  0
SPLINE
  5
DC
330
70
100
AcDbEntity
  8
0
 62
    18
420
        0
370
    25
100
AcDbSpline
210
0.0
220
0.0
230
1.0
 70
     8
 71
     3
 72
    11
 73
     7
 74
     0
 42
0.0000000001
 43
0.0000000001
 40
0.0
 40
0.0
 40
0.0
 40
0.0
 40
1.0
 40
1.0
 40
1.0
 40
2.0
 40
2.0
 40
2.0
 40
2.0
 10
17.23383599578163
 20
103.9824322285596
 30
0.0
 10
17.52084099745676
 20
100.1963372002307
 30
0.0
 10
20.82274096745582
 20
97.3597642781508
 30
0.0
 10
24.60883599578438
 20
97.64676927982591
 30
0.0
 10
27.95598227152134
 20
97.90049976342077
 30
0.0
 10
30.63054039156035
 20
100.534250876424
 30
0.0
 10
30.93569943896394
 20
103.8771007541886
 30
0.0
  0
LINE
  5
DD
330
70
100
AcDbEntity
  8
0
 62
    18
420
        0
370
    25
100
AcDbLine
 10
116.96416770855
 20
104.002100696094
 30
0.0
 11
116.96416770855
 21
105.252100668094
 31
0.0
  0
LINE
  5
DE
330
70
100
AcDbEntity
  8
0
 62
    18
420
        0
370
    25
100
AcDbLine
 10
17.46416723175001
 20
104.002100696094
 30
0.0
 11
116.96416770855
 21
104.002100696094
 31
0.0
  0
LINE
  5
DF
330
70
100
AcDbEntity
  8
0
 62
    18
420
        0
370
    25
100
AcDbLine
 10
17.46416723175001
 20
105.252100668094
 30
0.0
 11
17.46416723175001
 21
104.002100696094
 31
0.0
  0
LINE
  5
E0
330
70
100
AcDbEntity
  8
0
 62
    18
420
        0
370
    25
100
AcDbLine
 10
116.96416770855
 20
105.252100668094
 30
0.0
 11
17.46416723175001
 21
105.252100668094
 31
0.0
  0
LINE
  5
E1
330
70
100
AcDbEntity
  8
0
 62
    18
420
        0
370
    25
100
AcDbLine
 10
17.33916884104995
 20
105.3771006885941
 30
0.0
 11
117.0891660992501
 21
105.3771006885941
 31
0.0
  0
LINE
  5
E2
330
70
100
AcDbEntity
  8
0
 62
    18
420
        0
370
    25
100
AcDbLine
 10
117.0891660992501
 20
105.3771006885941
 30
0.0
 11
117.1409439091497
 21
105.3253240428942
 31
0.0
  0
SPLINE
  5
E3
330
70
100
AcDbEntity
  8
0
 62
    18
420
        0
370
    25
100
AcDbSpline
210
0.0
220
0.0
230
1.0
 70
     8
 71
     3
 72
     8
 73
     4
 74
     0
 42
0.0000000001
 43
0.0000000001
 40
0.0
 40
0.0
 40
0.0
 40
0.0
 40
1.0
 40
1.0
 40
1.0
 40
1.0
 10
116.9641674701498
 20
105.252100754194
 30
0.0
 10
117.0304715926097
 20
105.252100754194
 30
0.0
 10
117.0940600708346
 20
105.2784399642856
 30
0.0
 10
117.1409441654462
 20
105.3253240588975
 30
0.0
  0
SPLINE
  5
E4
330
70
100
AcDbEntity
  8
0
 62
    18
420
        0
370
    25
100
AcDbSpline
210
0.0
220
0.0
230
1.0
 70
     8
 71
     3
 72
     8
 73
     4
 74
     0
 42
0.0000000001
 43
0.0000000001
 40
0.0
 40
0.0
 40
0.0
 40
0.0
 40
1.0
 40
1.0
 40
1.0
 40
1.0
 10
17.28739077485319
 20
105.3253240588975
 30
0.0
 10
17.33427486946541
 20
105.2784399642856
 30
0.0
 10
17.39786334768997
 20
105.252100754194
 30
0.0
 10
17.46416747014987
 20
105.252100754194
 30
0.0
  0
LINE
  5
E5
330
70
100
AcDbEntity
  8
0
 62
    18
420
        0
370
    25
100
AcDbLine
 10
17.28739103124982
 20
105.3253240428942
 30
0.0
 11
17.33916884104995
 21
105.3771006885941
 31
0.0
  0
SPLINE
  5
E6
330
70
100
AcDbEntity
  8
0
 62
    18
420
        0
370
    25
100
AcDbSpline
210
0.0
220
0.0
230
1.0
 70
     8
 71
     3
 72
     8
 73
     4
 74
     0
 42
0.0000000001
 43
0.0000000001
 40
0.0
 40
0.0
 40
0.0
 40
0.0
 40
1.0
 40
1.0
 40
1.0
 40
1.0
 10
117.1409441654462
 20
103.9288774494909
 30
0.0
 10
117.0940600708346
 20
103.9757615441028
 30
0.0
 10
117.0304715926097
 20
104.0021007541941
 30
0.0
 10
116.9641674701498
 20
104.0021007541941
 30
0.0
  0
LINE
  5
E7
330
70
100
AcDbEntity
  8
0
 62
    18
420
        0
370
    25
100
AcDbLine
 10
117.0891660992501
 20
103.8771006755942
 30
0.0
 11
117.1409439091497
 21
103.9288775540943
 31
0.0
  0
LINE
  5
E8
330
70
100
AcDbEntity
  8
0
 62
    18
420
        0
370
    25
100
AcDbLine
 10
117.0891660992501
 20
103.8771006755942
 30
0.0
 11
17.33916884104995
 21
103.8771006755942
 31
0.0
  0
LINE
  5
E9
330
70
100
AcDbEntity
  8
0
 62
    18
420
        0
370
    25
100
AcDbLine
 10
17.28739103124982
 20
103.9288775540943
 30
0.0
 11
17.33916884104995
 21
103.8771006755942
 31
0.0
  0
SPLINE
  5
EA
330
70
100
AcDbEntity
  8
0
 62
    18
420
        0
370
    25
100
AcDbSpline
210
0.0
220
0.0
230
1.0
 70
     8
 71
     3
 72
     8
 73
     4
 74
     0
 42
0.0000000001
 43
0.0000000001
 40
0.0
 40
0.0
 40
0.0
 40
0.0
 40
1.0
 40
1.0
 40
1.0
 40
1.0
 10
17.46416747014987
 20
104.0021007541941
 30
0.0
 10
17.39786334768997
 20
104.0021007541941
 30
0.0
 10
17.33427486946541
 20
103.9757615441028
 30
0.0
 10
17.28739077485319
 20
103.9288774494909
 30
0.0
  0
LWPOLYLINE
  5
EB
330
70
100
AcDbEntity
  8
0
 62
    18
420
        0
370
    25
100
AcDbPolyline
 90
        5
 70
     0
 43
0.0
 10
17.28739103124982
 20
103.9288775540943
 10
17.25629975835001
 20
103.9599681284941
 10
17.23319923324982
 20
103.9830707490943
 10
17.21897234954995
 20
103.9972971670942
 10
17.21416672514995
 20
104.002100696094
  0
LINE
  5
EC
330
70
100
AcDbEntity
  8
0
 62
    18
420
        0
370
    25
100
AcDbLine
 10
17.21416672514995
 20
104.002100696094
 30
0.0
 11
17.21416672514995
 21
105.252100668094
 31
0.0
  0
LWPOLYLINE
  5
ED
330
70
100
AcDbEntity
  8
0
 62
    18
420
        0
370
    25
100
AcDbPolyline
 90
        5
 70
     0
 43
0.0
 10
17.21416672514995
 20
105.252100668094
 10
17.21897234954995
 20
105.256904429994
 10
17.23319923324982
 20
105.2711308479943
 10
17.25629975835001
 20
105.2942332356943
 10
17.28739103124982
 20
105.3253240428942
  0
LWPOLYLINE
  5
EE
330
70
100
AcDbEntity
  8
0
 62
    18
420
        0
370
    25
100
AcDbPolyline
 90
        5
 70
     0
 43
0.0
 10
117.1409439091497
 20
105.3253240428942
 10
117.1720351819497
 20
105.2942332356943
 10
117.1951357070496
 20
105.2711308479943
 10
117.2093625907498
 20
105.2569044299943
 10
117.2141682152499
 20
105.252100668094
  0
LINE
  5
EF
330
70
100
AcDbEntity
  8
0
 62
    18
420
        0
370
    25
100
AcDbLine
 10
117.2141682152499
 20
105.252100668094
 30
0.0
 11
117.2141682152499
 21
104.002100696094
 31
0.0
  0
LWPOLYLINE
  5
F0
330
70
100
AcDbEntity
  8
0
 62
    18
420
        0
370
    25
100
AcDbPolyline
 90
        5
 70
     0
 43
0.0
 10
117.2141682152499
 20
104.002100696094
 10
117.2093625907498
 20
103.9972971670942
 10
117.1951357070496
 20
103.9830707490943
 10
117.1720351819497
 20
103.9599681284941
 10
117.1409439091497
 20
103.928877554094
  0
SPLINE
  5
F1
330
70
100
AcDbEntity
  8
0
 62
    18
420
        0
370
    25
100
AcDbSpline
210
0.0
220
0.0
230
1.0
 70
     8
 71
     3
 72
    11
 73
     7
 74
     0
 42
0.0000000001
 43
0.0000000001
 40
0.0
 40
0.0
 40
0.0
 40
0.0
 40
1.0
 40
1.0
 40
1.0
 40
2.0
 40
2.0
 40
2.0
 40
2.0
 10
108.5463577738849
 20
103.8771007541934
 30
0.0
 10
108.8915357425295
 20
102.8836447828854
 30
0.0
 10
109.9767129622425
 20
102.3581116258848
 30
0.0
 10
110.9701689335505
 20
102.7032895945294
 30
0.0
 10
111.5203633202825
 20
102.894455570936
 30
0.0
 10
111.9528141168079
 20
103.326906367461
 30
0.0
 10
112.1439800932145
 20
103.8771007541934
 30
0.0
  0
SPLINE
  5
F2
330
70
100
AcDbEntity
  8
0
 62
    18
420
        0
370
    25
100
AcDbSpline
210
0.0
220
0.0
230
1.0
 70
     8
 71
     3
 72
    11
 73
     7
 74
     0
 42
0.0000000001
 43
0.0000000001
 40
0.0
 40
0.0
 40
0.0
 40
0.0
 40
1.0
 40
1.0
 40
1.0
 40
2.0
 40
2.0
 40
2.0
 40
2.0
 10
111.9657696209908
 20
105.5021007541945
 30
0.0
 10
111.4134848711599
 20
106.3971337994334
 30
0.0
 10
110.2402019787886
 20
106.6749861914662
 30
0.0
 10
109.3451689335497
 20
106.1227014416352
 30
0.0
 10
109.0928026378603
 20
105.9669775192368
 30
0.0
 10
108.8802921685067
 20
105.7544670498839
 30
0.0
 10
108.7245682461086
 20
105.5021007541945
 30
0.0
  0
LINE
  5
F3
330
70
100
AcDbEntity
  8
0
 62
   144
420
    29337
370
    18
100
AcDbLine
 10
108.7245669011497
 20
105.5021007090943
 30
0.0
 11
111.9657706264498
 21
105.5021007090943
 31
0.0
  0
SPLINE
  5
F4
330
70
100
AcDbEntity
  8
0
 62
    18
420
        0
370
    25
100
AcDbSpline
210
0.0
220
0.0
230
1.0
 70
     8
 71
     3
 72
    11
 73
     7
 74
     0
 42
0.0000000001
 43
0.0000000001
 40
0.0
 40
0.0
 40
0.0
 40
0.0
 40
1.0
 40
1.0
 40
1.0
 40
2.0
 40
2.0
 40
2.0
 40
2.0
 10
112.077219741119
 20
105.5021007541942
 30
0.0
 10
111.5249349912881
 20
106.4586860011466
 30
0.0
 10
110.3017541805025
 20
106.7864363115937
 30
0.0
 10
109.3451689335497
 20
106.2341515617631
 30
0.0
 10
109.0411305138635
 20
106.0586148983131
 30
0.0
 10
108.7886547894308
 20
105.8061391738803
 30
0.0
 10
108.613118125981
 20
105.5021007541942
 30
0.0
  0
SPLINE
  5
F5
330
70
100
AcDbEntity
  8
0
 62
   144
420
    29337
370
    18
100
AcDbSpline
210
0.0
220
0.0
230
1.0
 70
    24
 71
     3
 72
    11
 73
     7
 74
     0
 42
0.0000000001
 43
0.0000000001
 40
0.0
 40
0.0
 40
0.0
 40
0.0
 40
1.0
 40
1.0
 40
1.0
 40
2.0
 40
2.0
 40
2.0
 40
2.0
 10
108.7245682461432
 20
105.502100754207
 30
0.0
 10
108.6952497948983
 20
105.502100754207
 30
0.0
 10
108.6677103022607
 20
105.502100754207
 30
0.0
 10
108.646929249506
 20
105.502100754207
 30
0.0
 10
108.626148196752
 20
105.502100754207
 30
0.0
 10
108.6131181260157
 20
105.502100754207
 30
0.0
 10
108.6131181260151
 20
105.502100754207
 30
0.0
  0
SPLINE
  5
F6
330
70
100
AcDbEntity
  8
0
 62
   144
420
    29337
370
    18
100
AcDbSpline
210
0.0
220
0.0
230
1.0
 70
    24
 71
     3
 72
    11
 73
     7
 74
     0
 42
0.0000000001
 43
0.0000000001
 40
0.0
 40
0.0
 40
0.0
 40
0.0
 40
1.0
 40
1.0
 40
1.0
 40
2.0
 40
2.0
 40
2.0
 40
2.0
 10
112.077219741153
 20
105.502100754207
 30
0.0
 10
112.077219741153
 20
105.502100754207
 30
0.0
 10
112.0641671450954
 20
105.502100754207
 30
0.0
 10
112.0434211647655
 20
105.502100754207
 30
0.0
 10
112.022675184435
 20
105.502100754207
 30
0.0
 10
111.994846124153
 20
105.502100754207
 30
0.0
 10
111.9657696210255
 20
105.502100754207
 30
0.0
  0
SPLINE
  5
F7
330
70
100
AcDbEntity
  8
0
 62
    18
420
        0
370
    25
100
AcDbSpline
210
0.0
220
0.0
230
1.0
 70
     8
 71
     3
 72
    11
 73
     7
 74
     0
 42
0.0000000001
 43
0.0000000001
 40
0.0
 40
0.0
 40
0.0
 40
0.0
 40
1.0
 40
1.0
 40
1.0
 40
2.0
 40
2.0
 40
2.0
 40
2.0
 10
108.4453334143508
 20
103.8771007541927
 30
0.0
 10
108.7905113829961
 20
102.8278505697522
 30
0.0
 10
109.9209187491112
 20
102.2570872663504
 30
0.0
 10
110.9701689335511
 20
102.6022652349953
 30
0.0
 10
111.5734092280768
 20
102.8007167221209
 30
0.0
 10
112.0465529656226
 20
103.2738604596671
 30
0.0
 10
112.2450044527486
 20
103.8771007541927
 30
0.0
  0
LWPOLYLINE
  5
F8
330
70
100
AcDbEntity
  8
0
 62
   144
420
    29337
370
    18
100
AcDbPolyline
 90
        3
 70
     0
 43
0.0
 10
108.5467327181498
 20
105.3771006885941
 10
108.5514228586496
 20
105.386678177094
 10
108.6131173912498
 20
105.502100709094
  0
LWPOLYLINE
  5
F9
330
70
100
AcDbEntity
  8
0
 62
   144
420
    29337
370
    18
100
AcDbPolyline
 90
        3
 70
     0
 43
0.0
 10
112.0772201363498
 20
105.5021007090943
 10
112.13891466895
 20
105.386678177094
 10
112.1436048094497
 20
105.3771006885941
  0
LINE
  5
FA
330
70
100
AcDbEntity
  8
0
 62
     8
420
  8421504
370
    25
100
AcDbLine
 10
112.1376033668496
 20
105.3771006885941
 30
0.0
 11
112.0745006744495
 21
105.4963910031943
 31
0.0
  0
SPLINE
  5
FB
330
70
100
AcDbEntity
  8
0
 62
     8
420
  8421504
370
    25
100
AcDbSpline
210
0.0
220
0.0
230
1.0
 70
     8
 71
     3
 72
     8
 73
     4
 74
     0
 42
0.0000000001
 43
0.0000000001
 40
0.0
 40
0.0
 40
0.0
 40
0.0
 40
1.0
 40
1.0
 40
1.0
 40
1.0
 10
110.3421681812309
 20
106.5020985031262
 30
0.0
 10
109.5757327625815
 20
106.5032484300472
 30
0.0
 10
108.8760465219771
 20
106.0662943689077
 30
0.0
 10
108.5407306489081
 20
105.377100754195
 30
0.0
  0
SPLINE
  5
FC
330
70
100
AcDbEntity
  8
0
 62
     8
420
  8421504
370
    25
100
AcDbSpline
210
0.0
220
0.0
230
1.0
 70
     8
 71
     3
 72
     8
 73
     4
 74
     0
 42
0.0000000001
 43
0.0000000001
 40
0.0
 40
0.0
 40
0.0
 40
0.0
 40
1.0
 40
1.0
 40
1.0
 40
1.0
 10
108.4393319509539
 20
103.8771007541937
 30
0.0
 10
108.7096000062812
 20
103.0555569922497
 30
0.0
 10
109.477311397702
 20
102.5008054024521
 30
0.0
 10
110.3421682013096
 20
102.5021030052922
 30
0.0
  0
SPLINE
  5
FD
330
70
100
AcDbEntity
  8
0
 62
     8
420
  8421504
370
    25
100
AcDbSpline
210
0.0
220
0.0
230
1.0
 70
     8
 71
     3
 72
    11
 73
     7
 74
     0
 42
0.0000000001
 43
0.0000000001
 40
0.0
 40
0.0
 40
0.0
 40
0.0
 40
1.0
 40
1.0
 40
1.0
 40
2.0
 40
2.0
 40
2.0
 40
2.0
 10
103.7303785799278
 20
103.8771007541972
 30
0.0
 10
104.0755565485705
 20
100.2271674352765
 30
0.0
 10
107.3142341512257
 20
97.54813389532946
 30
0.0
 10
110.9641674701464
 20
97.89331186397213
 30
0.0
 10
114.1363682328441
 20
98.19331017071316
 30
0.0
 10
116.6479580536311
 20
100.7048999914999
 30
0.0
 10
116.9479563603719
 20
103.8771007541972
 30
0.0
  0
SPLINE
  5
FE
330
70
100
AcDbEntity
  8
0
 62
     8
420
  8421504
370
    25
100
AcDbSpline
210
0.0
220
0.0
230
1.0
 70
     8
 71
     3
 72
    11
 73
     7
 74
     0
 42
0.0000000001
 43
0.0000000001
 40
0.0
 40
0.0
 40
0.0
 40
0.0
 40
1.0
 40
1.0
 40
1.0
 40
2.0
 40
2.0
 40
2.0
 40
2.0
 10
116.9195238887276
 20
105.3771007541941
 30
0.0
 10
116.4362747326261
 20
109.0113312526259
 30
0.0
 10
113.0983979685814
 20
111.5657063288741
 30
0.0
 10
109.4641674701499
 20
111.0824571727722
 30
0.0
 10
106.4922015584707
 20
110.6872703459041
 30
0.0
 10
104.1539978784396
 20
108.3490666658732
 30
0.0
 10
103.7588110515714
 20
105.3771007541941
 30
0.0
  0
SPLINE
  5
FF
330
70
100
AcDbEntity
  8
0
 62
     8
420
  8421504
370
    25
100
AcDbSpline
210
0.0
220
0.0
230
1.0
 70
     8
 71
     3
 72
    11
 73
     7
 74
     0
 42
0.0000000001
 43
0.0000000001
 40
0.0
 40
0.0
 40
0.0
 40
0.0
 40
1.0
 40
1.0
 40
1.0
 40
2.0
 40
2.0
 40
2.0
 40
2.0
 10
17.48037857992782
 20
103.8771007541972
 30
0.0
 10
17.82555654857016
 20
100.2271674352765
 30
0.0
 10
21.0642341512257
 20
97.54813389532946
 30
0.0
 10
24.71416747014676
 20
97.89331186397213
 30
0.0
 10
27.88636823284409
 20
98.19331017071316
 30
0.0
 10
30.39795805363085
 20
100.7048999914999
 30
0.0
 10
30.69795636037191
 20
103.8771007541972
 30
0.0
  0
SPLINE
  5
100
330
70
100
AcDbEntity
  8
0
 62
     8
420
  8421504
370
    25
100
AcDbSpline
210
0.0
220
0.0
230
1.0
 70
     8
 71
     3
 72
    11
 73
     7
 74
     0
 42
0.0000000001
 43
0.0000000001
 40
0.0
 40
0.0
 40
0.0
 40
0.0
 40
1.0
 40
1.0
 40
1.0
 40
2.0
 40
2.0
 40
2.0
 40
2.0
 10
30.66952388872794
 20
105.3771007541941
 30
0.0
 10
30.18627473262577
 20
109.0113312526259
 30
0.0
 10
26.84839796858173
 20
111.5657063288741
 30
0.0
 10
23.21416747014991
 20
111.0824571727722
 30
0.0
 10
20.24220155847074
 20
110.6872703459041
 30
0.0
 10
17.90399787844024
 20
108.3490666658732
 30
0.0
 10
17.50881105157211
 20
105.3771007541941
 30
0.0
  0
INSERT
  5
102
330
70
100
AcDbEntity
  8
0
100
AcDbBlockReference
  2
Block_0
 10
0.0
 20
0.0
 30
0.0
  0
INSERT
  5
10E
330
70
100
AcDbEntity
  8
0
100
AcDbBlockReference
  2
Block_1
 10
0.0
 20
0.0
 30
0.0
  0
LINE
  5
119
330
70
100
AcDbEntity
  8
0
 62
    18
420
        0
370
    25
100
AcDbLine
 10
163.0198691667499
 20
106.5021008729942
 30
0.0
 11
157.1176994288501
 21
106.5021008729942
 31
0.0
  0
LINE
  5
11A
330
70
100
AcDbEntity
  8
0
 62
    18
420
        0
370
    25
100
AcDbLine
 10
162.3408451372501
 20
102.5021007411942
 30
0.0
 11
163.0198691667499
 21
102.5021007411942
 31
0.0
  0
LINE
  5
11B
330
70
100
AcDbEntity
  8
0
 62
    18
420
        0
370
    25
100
AcDbLine
 10
157.1176994288501
 20
102.5021007411942
 30
0.0
 11
160.34285274095
 21
102.5021007411942
 31
0.0
  0
SPLINE
  5
11C
330
70
100
AcDbEntity
  8
0
 62
    18
420
        0
370
    25
100
AcDbSpline
210
0.0
220
0.0
230
1.0
 70
     8
 71
     3
 72
     8
 73
     4
 74
     0
 42
0.0000000001
 43
0.0000000001
 40
0.0
 40
0.0
 40
0.0
 40
0.0
 40
1.0
 40
1.0
 40
1.0
 40
1.0
 10
163.0198693875495
 20
102.5021007541941
 30
0.0
 10
163.0776197228279
 20
102.5021007541941
 30
0.0
 10
163.1278524357683
 20
102.5416621064863
 30
0.0
 10
163.1413876705989
 20
102.5978038791941
 30
0.0
  0
SPLINE
  5
11D
330
70
100
AcDbEntity
  8
0
 62
    18
420
        0
370
    25
100
AcDbSpline
210
0.0
220
0.0
230
1.0
 70
     8
 71
     3
 72
     8
 73
     4
 74
     0
 42
0.0000000001
 43
0.0000000001
 40
0.0
 40
0.0
 40
0.0
 40
0.0
 40
1.0
 40
1.0
 40
1.0
 40
1.0
 10
163.1413876705495
 20
102.5978038791913
 30
0.0
 10
163.2427351002734
 20
103.0181751867617
 30
0.0
 10
163.3103623991934
 20
103.4459662885559
 30
0.0
 10
163.3436251453593
 20
103.8771007541898
 30
0.0
  0
SPLINE
  5
11E
330
70
100
AcDbEntity
  8
0
 62
    18
420
        0
370
    25
100
AcDbSpline
210
0.0
220
0.0
230
1.0
 70
     8
 71
     3
 72
     8
 73
     4
 74
     0
 42
0.0000000001
 43
0.0000000001
 40
0.0
 40
0.0
 40
0.0
 40
0.0
 40
1.0
 40
1.0
 40
1.0
 40
1.0
 10
163.1413876705989
 20
106.4063976291941
 30
0.0
 10
163.1278524357683
 20
106.4625394019019
 30
0.0
 10
163.0776197228279
 20
106.5021007541942
 30
0.0
 10
163.0198693875495
 20
106.5021007541942
 30
0.0
  0
SPLINE
  5
11F
330
70
100
AcDbEntity
  8
0
 62
    18
420
        0
370
    25
100
AcDbSpline
210
0.0
220
0.0
230
1.0
 70
     8
 71
     3
 72
     8
 73
     4
 74
     0
 42
0.0000000001
 43
0.0000000001
 40
0.0
 40
0.0
 40
0.0
 40
0.0
 40
1.0
 40
1.0
 40
1.0
 40
1.0
 10
163.3059259837852
 20
105.5021007541935
 30
0.0
 10
163.2681873030487
 20
105.8063962927602
 30
0.0
 10
163.2132533223425
 20
106.1083115495024
 30
0.0
 10
163.1413876705495
 20
106.406397629197
 30
0.0
  0
LINE
  5
120
330
70
100
AcDbEntity
  8
0
 62
    18
420
        0
370
    25
100
AcDbLine
 10
156.6916603291499
 20
111.3771005078942
 30
0.0
 11
155.6016981298496
 21
111.3771005078942
 31
0.0
  0
LINE
  5
121
330
70
100
AcDbEntity
  8
0
 62
    18
420
        0
370
    25
100
AcDbLine
 10
155.6016981298496
 20
97.62710058249426
 30
0.0
 11
156.6916603291499
 21
97.62710058249426
 31
0.0
  0
SPLINE
  5
122
330
70
100
AcDbEntity
  8
0
 62
    18
420
        0
370
    25
100
AcDbSpline
210
0.0
220
0.0
230
1.0
 70
     8
 71
     3
 72
     8
 73
     4
 74
     0
 42
0.0000000001
 43
0.0000000001
 40
0.0
 40
0.0
 40
0.0
 40
0.0
 40
1.0
 40
1.0
 40
1.0
 40
1.0
 10
156.6916607370497
 20
97.62710075419398
 30
0.0
 10
156.8245727497438
 20
97.62710075419398
 30
0.0
 10
156.934249500834
 20
97.73109974459536
 30
0.0
 10
156.9413079544138
 20
97.863824201088
 30
0.0
  0
SPLINE
  5
123
330
70
100
AcDbEntity
  8
0
 62
    18
420
        0
370
    25
100
AcDbSpline
210
0.0
220
0.0
230
1.0
 70
     8
 71
     3
 72
     8
 73
     4
 74
     0
 42
0.0000000001
 43
0.0000000001
 40
0.0
 40
0.0
 40
0.0
 40
0.0
 40
1.0
 40
1.0
 40
1.0
 40
1.0
 10
156.9413079544138
 20
111.1403773073003
 30
0.0
 10
156.934249500834
 20
111.2731017637929
 30
0.0
 10
156.8245727497438
 20
111.3771007541943
 30
0.0
 10
156.6916607370497
 20
111.3771007541943
 30
0.0
  0
SPLINE
  5
124
330
70
100
AcDbEntity
  8
0
 62
    18
420
        0
370
    25
100
AcDbSpline
210
0.0
220
0.0
230
1.0
 70
     8
 71
     3
 72
     8
 73
     4
 74
     0
 42
0.0000000001
 43
0.0000000001
 40
0.0
 40
0.0
 40
0.0
 40
0.0
 40
1.0
 40
1.0
 40
1.0
 40
1.0
 10
156.9413079543849
 20
97.86382420119581
 30
0.0
 10
157.0234712093306
 20
99.40879056429748
 30
0.0
 10
157.0769438547307
 20
100.9551492089456
 30
0.0
 10
157.1016982482197
 20
102.5021007542698
 30
0.0
  0
SPLINE
  5
125
330
70
100
AcDbEntity
  8
0
 62
    18
420
        0
370
    25
100
AcDbSpline
210
0.0
220
0.0
230
1.0
 70
     8
 71
     3
 72
     8
 73
     4
 74
     0
 42
0.0000000001
 43
0.0000000001
 40
0.0
 40
0.0
 40
0.0
 40
0.0
 40
1.0
 40
1.0
 40
1.0
 40
1.0
 10
157.1016982482197
 20
106.5021007541182
 30
0.0
 10
157.0769438547307
 20
108.0490522994429
 30
0.0
 10
157.0234712093306
 20
109.5954109440908
 30
0.0
 10
156.9413079543849
 20
111.1403773071925
 30
0.0
  0
LINE
  5
126
330
70
100
AcDbEntity
  8
0
 62
    18
420
        0
370
    25
100
AcDbLine
 10
155.3891982579497
 20
98.127100664394
 30
0.0
 11
155.6016981298496
 21
98.127100664394
 31
0.0
  0
LINE
  5
127
330
70
100
AcDbEntity
  8
0
 62
    18
420
        0
370
    25
100
AcDbLine
 10
155.6016981298496
 20
110.8771004259941
 30
0.0
 11
155.3891982579497
 21
110.8771004259941
 31
0.0
  0
SPLINE
  5
128
330
70
100
AcDbEntity
  8
0
 62
    18
420
        0
370
    25
100
AcDbSpline
210
0.0
220
0.0
230
1.0
 70
     8
 71
     3
 72
    23
 73
    19
 74
     0
 42
0.0000000001
 43
0.0000000001
 40
0.0
 40
0.0
 40
0.0
 40
0.0
 40
1.0
 40
1.0
 40
1.0
 40
2.0
 40
2.0
 40
2.0
 40
3.0
 40
3.0
 40
3.0
 40
4.0
 40
4.0
 40
4.0
 40
5.0
 40
5.0
 40
5.0
 40
6.0
 40
6.0
 40
6.0
 40
6.0
 10
157.0317396810651
 20
108.940052979207
 30
0.0
 10
157.032503417061
 20
108.9185562743669
 30
0.0
 10
157.0332286940481
 20
108.8973752753753
 30
0.0
 10
157.0339107531272
 20
108.8765573976993
 30
0.0
 10
157.0345928122063
 20
108.855739520023
 30
0.0
 10
157.0352367395078
 20
108.8350891211988
 30
0.0
 10
157.0358002598707
 20
108.8158990575115
 30
0.0
 10
157.0369273005965
 20
108.7775189301373
 30
0.0
 10
157.0377706384727
 20
108.7436370461718
 30
0.0
 10
157.0382739722169
 20
108.7172447870952
 30
0.0
 10
157.0385256390889
 20
108.7040486575569
 30
0.0
 10
157.0386980235082
 20
108.6924984566958
 30
0.0
 10
157.0387943112268
 20
108.6828455337543
 30
0.0
 10
157.0388905989454
 20
108.6731926108129
 30
0.0
 10
157.0389140117866
 20
108.665283187765
 30
0.0
 10
157.0388713242134
 20
108.6589403489167
 30
0.0
 10
157.0387859490669
 20
108.6462546712195
 30
0.0
 10
157.0384396275471
 20
108.640054531707
 30
0.0
 10
157.0378614590021
 20
108.640054531707
 30
0.0
  0
SPLINE
  5
129
330
70
100
AcDbEntity
  8
0
 62
    18
420
        0
370
    25
100
AcDbSpline
210
0.0
220
0.0
230
1.0
 70
     8
 71
     3
 72
     8
 73
     4
 74
     0
 42
0.0000000001
 43
0.0000000001
 40
0.0
 40
0.0
 40
0.0
 40
0.0
 40
1.0
 40
1.0
 40
1.0
 40
1.0
 10
157.042290240002
 20
108.6400547542303
 30
0.0
 10
157.0371565276221
 20
108.8155227228844
 30
0.0
 10
157.0316039666125
 20
108.990978187003
 30
0.0
 10
157.0256326044332
 20
109.1664196469267
 30
0.0
  0
LINE
  5
12A
330
70
100
AcDbEntity
  8
0
 62
    18
420
        0
370
    25
100
AcDbLine
 10
157.0427512446497
 20
108.7810751527941
 30
0.0
 11
157.04072561805
 21
108.7810751527941
 31
0.0
  0
SPLINE
  5
12B
330
70
100
AcDbEntity
  8
0
 62
    18
420
        0
370
    25
100
AcDbSpline
210
0.0
220
0.0
230
1.0
 70
     8
 71
     3
 72
     8
 73
     4
 74
     0
 42
0.0000000001
 43
0.0000000001
 40
0.0
 40
0.0
 40
0.0
 40
0.0
 40
1.0
 40
1.0
 40
1.0
 40
1.0
 10
157.047727760637
 20
108.6400545317244
 30
0.0
 10
157.0419138219918
 20
108.8155846511064
 30
0.0
 10
157.0357299528482
 20
108.9911023224595
 30
0.0
 10
157.0291761944073
 20
109.1666063763817
 30
0.0
  0
SPLINE
  5
12C
330
70
100
AcDbEntity
  8
0
 62
   144
420
    29337
370
    18
100
AcDbSpline
210
0.0
220
0.0
230
1.0
 70
     8
 71
     3
 72
     8
 73
     4
 74
     0
 42
0.0000000001
 43
0.0000000001
 40
0.0
 40
0.0
 40
0.0
 40
0.0
 40
1.0
 40
1.0
 40
1.0
 40
1.0
 10
157.049158729345
 20
108.6400545316948
 30
0.0
 10
157.0424970331323
 20
108.8411818219074
 30
0.0
 10
157.035349654072
 20
109.0422927318973
 30
0.0
 10
157.0277166546843
 20
109.2433855024908
 30
0.0
  0
SPLINE
  5
12D
330
70
100
AcDbEntity
  8
0
 62
   144
420
    29337
370
    18
100
AcDbSpline
210
0.0
220
0.0
230
1.0
 70
     8
 71
     3
 72
     8
 73
     4
 74
     0
 42
0.0000000001
 43
0.0000000001
 40
0.0
 40
0.0
 40
0.0
 40
0.0
 40
1.0
 40
1.0
 40
1.0
 40
1.0
 10
157.0477105373783
 20
108.6400547541764
 30
0.0
 10
157.0460864637121
 20
108.6870625699417
 30
0.0
 10
157.0444333658264
 20
108.7340693784464
 30
0.0
 10
157.0427512446658
 20
108.7810751528438
 30
0.0
  0
SPLINE
  5
12E
330
70
100
AcDbEntity
  8
0
 62
   144
420
    29337
370
    18
100
AcDbSpline
210
0.0
220
0.0
230
1.0
 70
     8
 71
     3
 72
     8
 73
     4
 74
     0
 42
0.0000000001
 43
0.0000000001
 40
0.0
 40
0.0
 40
0.0
 40
0.0
 40
1.0
 40
1.0
 40
1.0
 40
1.0
 10
157.0451270485303
 20
108.6400547542357
 30
0.0
 10
157.0436891339
 20
108.6870624614647
 30
0.0
 10
157.0422219901216
 20
108.7340692700512
 30
0.0
 10
157.0407256180449
 20
108.7810751527469
 30
0.0
  0
SPLINE
  5
12F
330
70
100
AcDbEntity
  8
0
 62
   144
420
    29337
370
    18
100
AcDbSpline
210
0.0
220
0.0
230
1.0
 70
     8
 71
     3
 72
     8
 73
     4
 74
     0
 42
0.0000000001
 43
0.0000000001
 40
0.0
 40
0.0
 40
0.0
 40
0.0
 40
1.0
 40
1.0
 40
1.0
 40
1.0
 10
157.0488467509089
 20
108.6400547541905
 30
0.0
 10
157.042883203739
 20
108.8155953453048
 30
0.0
 10
157.0365002110302
 20
108.9911214359614
 30
0.0
 10
157.0296978274502
 20
109.1666315228544
 30
0.0
  0
SPLINE
  5
130
330
70
100
AcDbEntity
  8
0
 62
   144
420
    29337
370
    18
100
AcDbSpline
210
0.0
220
0.0
230
1.0
 70
     8
 71
     3
 72
    11
 73
     7
 74
     0
 42
0.0000000001
 43
0.0000000001
 40
0.0
 40
0.0
 40
0.0
 40
0.0
 40
1.0
 40
1.0
 40
1.0
 40
2.0
 40
2.0
 40
2.0
 40
2.0
 10
157.0269196921878
 20
109.0651215531172
 30
0.0
 10
157.027655235757
 20
109.0474120508689
 30
0.0
 10
157.0283907793261
 20
109.0297025486202
 30
0.0
 10
157.0291120255288
 20
109.0111723646765
 30
0.0
 10
157.0300023018911
 20
108.9882994750815
 30
0.0
 10
157.0308707942015
 20
108.9641761613351
 30
0.0
 10
157.0317392865113
 20
108.9400528475884
 30
0.0
  0
SPLINE
  5
131
330
70
100
AcDbEntity
  8
0
 62
   144
420
    29337
370
    18
100
AcDbSpline
210
0.0
220
0.0
230
1.0
 70
     8
 71
     3
 72
    17
 73
    13
 74
     0
 42
0.0000000001
 43
0.0000000001
 40
0.0
 40
0.0
 40
0.0
 40
0.0
 40
1.0
 40
1.0
 40
1.0
 40
2.0
 40
2.0
 40
2.0
 40
3.0
 40
3.0
 40
3.0
 40
4.0
 40
4.0
 40
4.0
 40
4.0
 10
157.0287875051717
 20
108.875088669207
 30
0.0
 10
157.0289915856509
 20
108.875088669207
 30
0.0
 10
157.0291596554674
 20
108.8760032133926
 30
0.0
 10
157.029258729098
 20
108.8787339863129
 30
0.0
 10
157.0293578027286
 20
108.8814647592333
 30
0.0
 10
157.029386742453
 20
108.8860757002128
 30
0.0
 10
157.0292710518307
 20
108.8940210966996
 30
0.0
 10
157.0291553612084
 20
108.9019664931865
 30
0.0
 10
157.0288821298188
 20
108.9133660086833
 30
0.0
 10
157.0284870824256
 20
108.9266626898679
 30
0.0
 10
157.0280920350325
 20
108.9399593710526
 30
0.0
 10
157.0276007615681
 20
108.954517105691
 30
0.0
 10
157.0270809087651
 20
108.969053746707
 30
0.0
  0
LINE
  5
132
330
70
100
AcDbEntity
  8
0
 62
   144
420
    29337
370
    18
100
AcDbLine
 10
157.0380741426498
 20
108.7810751527941
 30
0.0
 11
157.04072561805
 21
108.7810751527941
 31
0.0
  0
SPLINE
  5
133
330
70
100
AcDbEntity
  8
0
 62
    18
420
        0
370
    25
100
AcDbSpline
210
0.0
220
0.0
230
1.0
 70
     8
 71
     3
 72
     8
 73
     4
 74
     0
 42
0.0000000001
 43
0.0000000001
 40
0.0
 40
0.0
 40
0.0
 40
0.0
 40
1.0
 40
1.0
 40
1.0
 40
1.0
 10
157.0337956467841
 20
108.9925813035137
 30
0.0
 10
157.0303797094557
 20
109.0939673080603
 30
0.0
 10
157.0268279524091
 20
109.1953486909826
 30
0.0
 10
157.0231403852076
 20
109.296725179351
 30
0.0
  0
LINE
  5
134
330
70
100
AcDbEntity
  8
0
 62
   144
420
    29337
370
    18
100
AcDbLine
 10
157.0314123922495
 20
108.992581303394
 30
0.0
 11
157.0337956467501
 21
108.992581303394
 31
0.0
  0
SPLINE
  5
135
330
70
100
AcDbEntity
  8
0
 62
   144
420
    29337
370
    18
100
AcDbSpline
210
0.0
220
0.0
230
1.0
 70
     8
 71
     3
 72
     8
 73
     4
 74
     0
 42
0.0000000001
 43
0.0000000001
 40
0.0
 40
0.0
 40
0.0
 40
0.0
 40
1.0
 40
1.0
 40
1.0
 40
1.0
 10
157.0349961215689
 20
108.9925813033119
 30
0.0
 10
157.0311844153178
 20
109.0939677783371
 30
0.0
 10
157.0272383981048
 20
109.1953491592856
 30
0.0
 10
157.0231580803179
 20
109.2967251792775
 30
0.0
  0
LINE
  5
136
330
70
100
AcDbEntity
  8
0
 62
   144
420
    29337
370
    18
100
AcDbLine
 10
157.0337956467501
 20
108.992581303394
 30
0.0
 11
157.0349961215497
 21
108.992581303394
 31
0.0
  0
LINE
  5
137
330
70
100
AcDbEntity
  8
0
 62
   144
420
    29337
370
    18
100
AcDbLine
 10
159.1176988253496
 20
105.5021007090943
 30
0.0
 11
163.0198691667499
 21
105.5021007090943
 31
0.0
  0
LINE
  5
138
330
70
100
AcDbEntity
  8
0
 62
   144
420
    29337
370
    18
100
AcDbLine
 10
159.1176988253496
 20
105.252100668094
 30
0.0
 11
159.1176988253496
 21
105.5021007090943
 31
0.0
  0
LINE
  5
139
330
70
100
AcDbEntity
  8
0
 62
    18
420
        0
370
    25
100
AcDbLine
 10
157.1176994288501
 20
104.5021007779941
 30
0.0
 11
159.1176988253496
 21
104.5021007779941
 31
0.0
  0
LINE
  5
13A
330
70
100
AcDbEntity
  8
0
 62
   144
420
    29337
370
    18
100
AcDbLine
 10
157.1176994288501
 20
106.5021008729942
 30
0.0
 11
157.1176994288501
 21
104.5021007779941
 31
0.0
  0
SPLINE
  5
13B
330
70
100
AcDbEntity
  8
0
 62
    18
420
        0
370
    25
100
AcDbSpline
210
0.0
220
0.0
230
1.0
 70
     8
 71
     3
 72
    20
 73
    16
 74
     0
 42
0.0000000001
 43
0.0000000001
 40
0.0
 40
0.0
 40
0.0
 40
0.0
 40
1.0
 40
1.0
 40
1.0
 40
2.0
 40
2.0
 40
2.0
 40
3.0
 40
3.0
 40
3.0
 40
4.0
 40
4.0
 40
4.0
 40
5.0
 40
5.0
 40
5.0
 40
5.0
 10
161.8514155665334
 20
102.6333507511074
 30
0.0
 10
161.8657817827291
 20
102.6306248584902
 30
0.0
 10
161.8801479989255
 20
102.627898965873
 30
0.0
 10
161.8943392926744
 20
102.6250959734675
 30
0.0
 10
161.9763316749558
 20
102.6089012537392
 30
0.0
 10
162.0524849214436
 20
102.5901328441248
 30
0.0
 10
162.1179992029362
 20
102.572416294111
 30
0.0
 10
162.172561850773
 20
102.5576613146276
 30
0.0
 10
162.2197451455271
 20
102.5436359214704
 30
0.0
 10
162.2589138964113
 20
102.5314578914326
 30
0.0
 10
162.2946090414421
 20
102.5203598467262
 30
0.0
 10
162.3236481197249
 20
102.5107960343389
 30
0.0
 10
162.3346928203399
 20
102.5071527587493
 30
0.0
 10
162.3420124651211
 20
102.5047382539031
 30
0.0
 10
162.3414288011946
 20
102.5049241073963
 30
0.0
 10
162.3408451372674
 20
102.5051099608894
 30
0.0
  0
SPLINE
  5
13C
330
70
100
AcDbEntity
  8
0
 62
    18
420
        0
370
    25
100
AcDbSpline
210
0.0
220
0.0
230
1.0
 70
     8
 71
     3
 72
    23
 73
    19
 74
     0
 42
0.0000000001
 43
0.0000000001
 40
0.0
 40
0.0
 40
0.0
 40
0.0
 40
1.0
 40
1.0
 40
1.0
 40
2.0
 40
2.0
 40
2.0
 40
3.0
 40
3.0
 40
3.0
 40
4.0
 40
4.0
 40
4.0
 40
5.0
 40
5.0
 40
5.0
 40
6.0
 40
6.0
 40
6.0
 40
6.0
 10
160.8358342804502
 20
102.6333507542072
 30
0.0
 10
160.9089851170259
 20
102.6532278520396
 30
0.0
 10
160.9884971046218
 20
102.6709366896064
 30
0.0
 10
161.0750565544785
 20
102.6837212316607
 30
0.0
 10
161.1616160043358
 20
102.696505773715
 30
0.0
 10
161.2513335290523
 20
102.7036284459723
 30
0.0
 10
161.3429310192279
 20
102.7036637990118
 30
0.0
 10
161.3887297643157
 20
102.7036814755317
 30
0.0
 10
161.4346675663316
 20
102.7019141241851
 30
0.0
 10
161.4794244235279
 20
102.6985441446306
 30
0.0
 10
161.5241812807242
 20
102.6951741650758
 30
0.0
 10
161.5681598370948
 20
102.6902056422823
 30
0.0
 10
161.6113735466595
 20
102.6838421899782
 30
0.0
 10
161.6545872562242
 20
102.6774787376745
 30
0.0
 10
161.6965853772847
 20
102.6697717185647
 30
0.0
 10
161.7365740329648
 20
102.6612357867912
 30
0.0
 10
161.7765626886454
 20
102.6526998550177
 30
0.0
 10
161.8148307147554
 20
102.6432919870453
 30
0.0
 10
161.8514160102978
 20
102.6333507542072
 30
0.0
  0
SPLINE
  5
13D
330
70
100
AcDbEntity
  8
0
 62
    18
420
        0
370
    25
100
AcDbSpline
210
0.0
220
0.0
230
1.0
 70
     8
 71
     3
 72
    17
 73
    13
 74
     0
 42
0.0000000001
 43
0.0000000001
 40
0.0
 40
0.0
 40
0.0
 40
0.0
 40
1.0
 40
1.0
 40
1.0
 40
2.0
 40
2.0
 40
2.0
 40
3.0
 40
3.0
 40
3.0
 40
4.0
 40
4.0
 40
4.0
 40
4.0
 10
160.3428527409128
 20
102.5039134442117
 30
0.0
 10
160.3474652606657
 20
102.5055092722716
 30
0.0
 10
160.3520777804187
 20
102.5071051003312
 30
0.0
 10
160.371239452987
 20
102.5132866820564
 30
0.0
 10
160.3933837546082
 20
102.5204304639847
 30
0.0
 10
160.4349590428356
 20
102.533698706848
 30
0.0
 10
160.4841641778044
 20
102.5483619200307
 30
0.0
 10
160.537854193892
 20
102.5643616353484
 30
0.0
 10
160.6006283125197
 20
102.5820222036096
 30
0.0
 10
160.672032430201
 20
102.5985867494959
 30
0.0
 10
160.7236289794481
 20
102.6105562749985
 30
0.0
 10
160.7797316776976
 20
102.6219535130531
 30
0.0
 10
160.8358343759472
 20
102.6333507511074
 30
0.0
  0
LINE
  5
13E
330
70
100
AcDbEntity
  8
0
 62
   144
420
    29337
370
    18
100
AcDbLine
 10
157.1176994288501
 20
104.5021007779941
 30
0.0
 11
157.1176994288501
 21
102.5021007411942
 31
0.0
  0
LINE
  5
13F
330
70
100
AcDbEntity
  8
0
 62
   144
420
    29337
370
    18
100
AcDbLine
 10
159.2426990786498
 20
103.8771006755942
 30
0.0
 11
159.1176988253496
 21
103.8771006755942
 31
0.0
  0
LINE
  5
140
330
70
100
AcDbEntity
  8
0
 62
   144
420
    29337
370
    18
100
AcDbLine
 10
159.1176988253496
 20
103.8771006755942
 30
0.0
 11
159.1176988253496
 21
104.002100696094
 31
0.0
  0
SPLINE
  5
141
330
70
100
AcDbEntity
  8
0
 62
   144
420
    29337
370
    18
100
AcDbSpline
210
0.0
220
0.0
230
1.0
 70
    24
 71
     3
 72
    11
 73
     7
 74
     0
 42
0.0000000001
 43
0.0000000001
 40
0.0
 40
0.0
 40
0.0
 40
0.0
 40
1.0
 40
1.0
 40
1.0
 40
2.0
 40
2.0
 40
2.0
 40
2.0
 10
163.1413876705643
 20
105.502100754207
 30
0.0
 10
163.1353723044874
 20
105.502100754207
 30
0.0
 10
163.1215354532132
 20
105.502100754207
 30
0.0
 10
163.1001753186288
 20
105.502100754207
 30
0.0
 10
163.0788151840439
 20
105.502100754207
 30
0.0
 10
163.0497391993501
 20
105.502100754207
 30
0.0
 10
163.0198693875149
 20
105.502100754207
 30
0.0
  0
LINE
  5
142
330
70
100
AcDbEntity
  8
0
 62
   144
420
    29337
370
    18
100
AcDbLine
 10
163.1413876706496
 20
105.5021007090943
 30
0.0
 11
163.3059258269501
 21
105.5021007090943
 31
0.0
  0
LINE
  5
143
330
70
100
AcDbEntity
  8
0
 62
    18
420
        0
370
    25
100
AcDbLine
 10
155.6016981298496
 20
111.3771005078942
 30
0.0
 11
155.6016981298496
 21
97.62710058249426
 31
0.0
  0
LINE
  5
144
330
70
100
AcDbEntity
  8
0
 62
    18
420
        0
370
    25
100
AcDbLine
 10
157.1016983756496
 20
106.5021008729942
 30
0.0
 11
157.1016983756496
 21
102.5021007411942
 31
0.0
  0
LINE
  5
145
330
70
100
AcDbEntity
  8
0
 62
    18
420
        0
370
    25
100
AcDbLine
 10
155.3891982579497
 20
110.8771004259941
 30
0.0
 11
155.3891982579497
 21
98.127100664394
 31
0.0
  0
SPLINE
  5
146
330
70
100
AcDbEntity
  8
0
 62
    18
420
        0
370
    25
100
AcDbSpline
210
0.0
220
0.0
230
1.0
 70
     8
 71
     3
 72
     8
 73
     4
 74
     0
 42
0.0000000001
 43
0.0000000001
 40
0.0
 40
0.0
 40
0.0
 40
0.0
 40
1.0
 40
1.0
 40
1.0
 40
1.0
 10
159.1909225770532
 20
105.3253240588975
 30
0.0
 10
159.2378066716655
 20
105.2784399642856
 30
0.0
 10
159.3013951498897
 20
105.252100754194
 30
0.0
 10
159.3676992723496
 20
105.252100754194
 30
0.0
  0
LINE
  5
147
330
70
100
AcDbEntity
  8
0
 62
    18
420
        0
370
    25
100
AcDbLine
 10
159.36769933195
 20
105.252100668094
 30
0.0
 11
159.36769933195
 21
104.002100696094
 31
0.0
  0
SPLINE
  5
148
330
70
100
AcDbEntity
  8
0
 62
    18
420
        0
370
    25
100
AcDbSpline
210
0.0
220
0.0
230
1.0
 70
     8
 71
     3
 72
     8
 73
     4
 74
     0
 42
0.0000000001
 43
0.0000000001
 40
0.0
 40
0.0
 40
0.0
 40
0.0
 40
1.0
 40
1.0
 40
1.0
 40
1.0
 10
159.3676992723496
 20
104.0021007541941
 30
0.0
 10
159.3013951498897
 20
104.0021007541941
 30
0.0
 10
159.2378066716655
 20
103.9757615441028
 30
0.0
 10
159.1909225770532
 20
103.9288774494909
 30
0.0
  0
LWPOLYLINE
  5
149
330
70
100
AcDbEntity
  8
0
 62
    18
420
        0
370
    25
100
AcDbPolyline
 90
        5
 70
     0
 43
0.0
 10
159.19092220015
 20
103.9288775540943
 10
159.1598318586497
 20
103.9599681284941
 10
159.1367294708496
 20
103.9830707490943
 10
159.1225025871501
 20
103.9972971670942
 10
159.1176988253496
 20
104.002100696094
  0
LINE
  5
14A
330
70
100
AcDbEntity
  8
0
 62
    18
420
        0
370
    25
100
AcDbLine
 10
159.1176988253496
 20
104.002100696094
 30
0.0
 11
159.1176988253496
 21
105.252100668094
 31
0.0
  0
LWPOLYLINE
  5
14B
330
70
100
AcDbEntity
  8
0
 62
    18
420
        0
370
    25
100
AcDbPolyline
 90
        5
 70
     0
 43
0.0
 10
159.1176988253496
 20
105.252100668094
 10
159.1225025871501
 20
105.256904429994
 10
159.1367294708496
 20
105.2711308479943
 10
159.1598318586497
 20
105.2942332356943
 10
159.19092220015
 20
105.3253240428942
  0
LINE
  5
14C
330
70
100
AcDbEntity
  8
0
 62
    18
420
        0
370
    25
100
AcDbLine
 10
181.36769921275
 20
105.252100668094
 30
0.0
 11
159.36769933195
 21
105.252100668094
 31
0.0
  0
LINE
  5
14D
330
70
100
AcDbEntity
  8
0
 62
    18
420
        0
370
    25
100
AcDbLine
 10
181.36769921275
 20
104.002100696094
 30
0.0
 11
181.36769921275
 21
105.252100668094
 31
0.0
  0
LINE
  5
14E
330
70
100
AcDbEntity
  8
0
 62
    18
420
        0
370
    25
100
AcDbLine
 10
159.36769933195
 20
104.002100696094
 30
0.0
 11
181.36769921275
 21
104.002100696094
 31
0.0
  0
LINE
  5
14F
330
70
100
AcDbEntity
  8
0
 62
    18
420
        0
370
    25
100
AcDbLine
 10
159.19092220015
 20
105.3253240428942
 30
0.0
 11
159.2426990786498
 21
105.3771006885941
 31
0.0
  0
LINE
  5
150
330
70
100
AcDbEntity
  8
0
 62
    18
420
        0
370
    25
100
AcDbLine
 10
159.2426990786498
 20
105.3771006885941
 30
0.0
 11
181.4926994660496
 21
105.3771006885941
 31
0.0
  0
LINE
  5
151
330
70
100
AcDbEntity
  8
0
 62
    18
420
        0
370
    25
100
AcDbLine
 10
181.54447634465
 20
105.3253240428942
 30
0.0
 11
181.4926994660496
 21
105.3771006885941
 31
0.0
  0
SPLINE
  5
152
330
70
100
AcDbEntity
  8
0
 62
    18
420
        0
370
    25
100
AcDbSpline
210
0.0
220
0.0
230
1.0
 70
     8
 71
     3
 72
     8
 73
     4
 74
     0
 42
0.0000000001
 43
0.0000000001
 40
0.0
 40
0.0
 40
0.0
 40
0.0
 40
1.0
 40
1.0
 40
1.0
 40
1.0
 10
181.3676992723497
 20
105.252100754194
 30
0.0
 10
181.4340033948096
 20
105.252100754194
 30
0.0
 10
181.4975918730345
 20
105.2784399642856
 30
0.0
 10
181.5444759676467
 20
105.3253240588975
 30
0.0
  0
LINE
  5
153
330
70
100
AcDbEntity
  8
0
 62
    18
420
        0
370
    25
100
AcDbLine
 10
181.4926994660496
 20
103.8771006755942
 30
0.0
 11
159.2426990786498
 21
103.8771006755942
 31
0.0
  0
LINE
  5
154
330
70
100
AcDbEntity
  8
0
 62
    18
420
        0
370
    25
100
AcDbLine
 10
159.19092220015
 20
103.9288775540943
 30
0.0
 11
159.2426990786498
 21
103.8771006755942
 31
0.0
  0
SPLINE
  5
155
330
70
100
AcDbEntity
  8
0
 62
    18
420
        0
370
    25
100
AcDbSpline
210
0.0
220
0.0
230
1.0
 70
     8
 71
     3
 72
     8
 73
     4
 74
     0
 42
0.0000000001
 43
0.0000000001
 40
0.0
 40
0.0
 40
0.0
 40
0.0
 40
1.0
 40
1.0
 40
1.0
 40
1.0
 10
181.5444759676467
 20
103.9288774494909
 30
0.0
 10
181.4975918730345
 20
103.9757615441028
 30
0.0
 10
181.4340033948096
 20
104.0021007541941
 30
0.0
 10
181.3676992723497
 20
104.0021007541941
 30
0.0
  0
LINE
  5
156
330
70
100
AcDbEntity
  8
0
 62
    18
420
        0
370
    25
100
AcDbLine
 10
181.54447634465
 20
103.9288775540943
 30
0.0
 11
181.4926994660496
 21
103.8771006755942
 31
0.0
  0
LWPOLYLINE
  5
157
330
70
100
AcDbEntity
  8
0
 62
    18
420
        0
370
    25
100
AcDbPolyline
 90
        5
 70
     0
 43
0.0
 10
181.54447634465
 20
105.3253240428942
 10
181.5755666861497
 20
105.2942332356943
 10
181.5986690739498
 20
105.2711308479943
 10
181.6128959575499
 20
105.2569044299943
 10
181.6176997193498
 20
105.252100668094
  0
LINE
  5
158
330
70
100
AcDbEntity
  8
0
 62
    18
420
        0
370
    25
100
AcDbLine
 10
181.6176997193498
 20
105.252100668094
 30
0.0
 11
181.6176997193498
 21
104.002100696094
 31
0.0
  0
LWPOLYLINE
  5
159
330
70
100
AcDbEntity
  8
0
 62
    18
420
        0
370
    25
100
AcDbPolyline
 90
        5
 70
     0
 43
0.0
 10
181.6176997193498
 20
104.002100696094
 10
181.6128959575499
 20
103.9972971670942
 10
181.5986690739498
 20
103.9830707490943
 10
181.5755666861497
 20
103.9599681284941
 10
181.54447634465
 20
103.928877554094
  0
LINE
  5
15A
330
70
100
AcDbEntity
  8
0
 62
     8
420
  8421504
370
    25
100
AcDbLine
 10
163.0198691667499
 20
105.5021007090943
 30
0.0
 11
163.0198691667499
 21
106.5021008729942
 31
0.0
  0
LINE
  5
15B
330
70
100
AcDbEntity
  8
0
 62
     8
420
  8421504
370
    25
100
AcDbLine
 10
163.0198691667499
 20
102.5021007411942
 30
0.0
 11
163.0198691667499
 21
103.8771006755942
 31
0.0
  0
LINE
  5
15C
330
70
100
AcDbEntity
  8
0
 62
     8
420
  8421504
370
    25
100
AcDbLine
 10
163.1413876706496
 20
103.8771006755942
 30
0.0
 11
163.1413876706496
 21
102.597803856494
 31
0.0
  0
LINE
  5
15D
330
70
100
AcDbEntity
  8
0
 62
     8
420
  8421504
370
    25
100
AcDbLine
 10
163.1413876706496
 20
106.406397699594
 30
0.0
 11
163.1413876706496
 21
105.5021007090943
 31
0.0
  0
LINE
  5
15E
330
70
100
AcDbEntity
  8
0
 62
     8
420
  8421504
370
    25
100
AcDbLine
 10
156.6916603291499
 20
104.5021007779941
 30
0.0
 11
156.6916603291499
 21
111.3771005078942
 31
0.0
  0
LINE
  5
15F
330
70
100
AcDbEntity
  8
0
 62
     8
420
  8421504
370
    25
100
AcDbLine
 10
156.6916603291499
 20
97.62710058249426
 30
0.0
 11
156.6916603291499
 21
104.5021007779941
 31
0.0
  0
LINE
  5
160
330
70
100
AcDbEntity
  8
0
 62
     8
420
  8421504
370
    25
100
AcDbLine
 10
156.9413078645496
 20
104.5021007779941
 30
0.0
 11
156.9413078645496
 21
97.86382415449423
 31
0.0
  0
LINE
  5
161
330
70
100
AcDbEntity
  8
0
 62
     8
420
  8421504
370
    25
100
AcDbLine
 10
156.9413078645496
 20
111.1403769358942
 30
0.0
 11
156.9413078645496
 21
104.5021007779941
 31
0.0
  0
INSERT
  5
163
330
70
100
AcDbEntity
  8
0
100
AcDbBlockReference
  2
Block_2
 10
0.0
 20
0.0
 30
0.0
  0
INSERT
  5
170
330
70
100
AcDbEntity
  8
0
100
AcDbBlockReference
  2
Block_3
 10
0.0
 20
0.0
 30
0.0
  0
LINE
  5
17D
330
70
100
AcDbEntity
  8
0
 62
    18
420
        0
370
    25
100
AcDbLine
 10
103.9641674403501
 20
45.5584045323942
 30
0.0
 11
103.9641674403501
 21
45.34590466059374
 31
0.0
  0
LINE
  5
17E
330
70
100
AcDbEntity
  8
0
 62
    18
420
        0
370
    25
100
AcDbLine
 10
116.7141672019496
 20
45.34590466059374
 30
0.0
 11
116.7141672019496
 21
45.5584045323942
 31
0.0
  0
LINE
  5
17F
330
70
100
AcDbEntity
  8
0
 62
    18
420
        0
370
    25
100
AcDbLine
 10
117.2141682152499
 20
44.25594246119403
 30
0.0
 11
117.2141682152499
 21
45.34590466059374
 31
0.0
  0
LINE
  5
180
330
70
100
AcDbEntity
  8
0
 62
    18
420
        0
370
    25
100
AcDbLine
 10
103.4641664270499
 20
45.34590466059374
 30
0.0
 11
103.4641664270499
 21
44.25594246119403
 31
0.0
  0
SPLINE
  5
181
330
70
100
AcDbEntity
  8
0
 62
    18
420
        0
370
    25
100
AcDbSpline
210
0.0
220
0.0
230
1.0
 70
     8
 71
     3
 72
     8
 73
     4
 74
     0
 42
0.0000000001
 43
0.0000000001
 40
0.0
 40
0.0
 40
0.0
 40
0.0
 40
1.0
 40
1.0
 40
1.0
 40
1.0
 10
103.4641674701497
 20
44.25594205329418
 30
0.0
 10
103.4641674701497
 20
44.12303004060076
 30
0.0
 10
103.5681664605511
 20
44.01335328950983
 30
0.0
 10
103.7008909170443
 20
44.00629483593007
 30
0.0
  0
SPLINE
  5
182
330
70
100
AcDbEntity
  8
0
 62
    18
420
        0
370
    25
100
AcDbSpline
210
0.0
220
0.0
230
1.0
 70
     8
 71
     3
 72
     8
 73
     4
 74
     0
 42
0.0000000001
 43
0.0000000001
 40
0.0
 40
0.0
 40
0.0
 40
0.0
 40
1.0
 40
1.0
 40
1.0
 40
1.0
 10
116.977444023256
 20
44.00629483593007
 30
0.0
 10
117.1101684797486
 20
44.01335328950983
 30
0.0
 10
117.21416747015
 20
44.12303004060076
 30
0.0
 10
117.21416747015
 20
44.25594205329418
 30
0.0
  0
SPLINE
  5
183
330
70
100
AcDbEntity
  8
0
 62
    18
420
        0
370
    25
100
AcDbSpline
210
0.0
220
0.0
230
1.0
 70
     8
 71
     3
 72
     8
 73
     4
 74
     0
 42
0.0000000001
 43
0.0000000001
 40
0.0
 40
0.0
 40
0.0
 40
0.0
 40
1.0
 40
1.0
 40
1.0
 40
1.0
 10
103.7008909171515
 20
44.00629483595895
 30
0.0
 10
105.2458572802528
 20
43.92413158101333
 30
0.0
 10
106.792215924901
 20
43.87065893561321
 30
0.0
 10
108.3391674702258
 20
43.84590454212418
 30
0.0
  0
SPLINE
  5
184
330
70
100
AcDbEntity
  8
0
 62
    18
420
        0
370
    25
100
AcDbSpline
210
0.0
220
0.0
230
1.0
 70
     8
 71
     3
 72
     8
 73
     4
 74
     0
 42
0.0000000001
 43
0.0000000001
 40
0.0
 40
0.0
 40
0.0
 40
0.0
 40
1.0
 40
1.0
 40
1.0
 40
1.0
 10
112.3391674700739
 20
43.84590454212418
 30
0.0
 10
113.8861190154712
 20
43.8706589356145
 30
0.0
 10
115.4324776601919
 20
43.92413158101846
 30
0.0
 10
116.9774440233657
 20
44.0062948359705
 30
0.0
  0
LINE
  5
185
330
70
100
AcDbEntity
  8
0
 62
    18
420
        0
370
    25
100
AcDbLine
 10
30.96416851324979
 20
44.25594246119403
 30
0.0
 11
30.96416851324979
 21
45.34590466059374
 31
0.0
  0
LINE
  5
186
330
70
100
AcDbEntity
  8
0
 62
    18
420
        0
370
    25
100
AcDbLine
 10
17.21416672514995
 20
45.34590466059374
 30
0.0
 11
17.21416672514995
 21
44.25594246119403
 31
0.0
  0
SPLINE
  5
187
330
70
100
AcDbEntity
  8
0
 62
    18
420
        0
370
    25
100
AcDbSpline
210
0.0
220
0.0
230
1.0
 70
     8
 71
     3
 72
     8
 73
     4
 74
     0
 42
0.0000000001
 43
0.0000000001
 40
0.0
 40
0.0
 40
0.0
 40
0.0
 40
1.0
 40
1.0
 40
1.0
 40
1.0
 10
17.21416747015002
 20
44.25594205329418
 30
0.0
 10
17.21416747015002
 20
44.12303004060076
 30
0.0
 10
17.31816646055108
 20
44.01335328950983
 30
0.0
 10
17.45089091704403
 20
44.00629483593007
 30
0.0
  0
SPLINE
  5
188
330
70
100
AcDbEntity
  8
0
 62
    18
420
        0
370
    25
100
AcDbSpline
210
0.0
220
0.0
230
1.0
 70
     8
 71
     3
 72
     8
 73
     4
 74
     0
 42
0.0000000001
 43
0.0000000001
 40
0.0
 40
0.0
 40
0.0
 40
0.0
 40
1.0
 40
1.0
 40
1.0
 40
1.0
 10
30.72744402325602
 20
44.00629483593007
 30
0.0
 10
30.86016847974897
 20
44.01335328950983
 30
0.0
 10
30.96416747015003
 20
44.12303004060076
 30
0.0
 10
30.96416747015003
 20
44.25594205329418
 30
0.0
  0
SPLINE
  5
189
330
70
100
AcDbEntity
  8
0
 62
    18
420
        0
370
    25
100
AcDbSpline
210
0.0
220
0.0
230
1.0
 70
     8
 71
     3
 72
     8
 73
     4
 74
     0
 42
0.0000000001
 43
0.0000000001
 40
0.0
 40
0.0
 40
0.0
 40
0.0
 40
1.0
 40
1.0
 40
1.0
 40
1.0
 10
17.45089091715151
 20
44.00629483595895
 30
0.0
 10
18.99585728025318
 20
43.92413158101333
 30
0.0
 10
20.54221592490136
 20
43.87065893561321
 30
0.0
 10
22.08916747022552
 20
43.84590454212418
 30
0.0
  0
SPLINE
  5
18A
330
70
100
AcDbEntity
  8
0
 62
    18
420
        0
370
    25
100
AcDbSpline
210
0.0
220
0.0
230
1.0
 70
     8
 71
     3
 72
     8
 73
     4
 74
     0
 42
0.0000000001
 43
0.0000000001
 40
0.0
 40
0.0
 40
0.0
 40
0.0
 40
1.0
 40
1.0
 40
1.0
 40
1.0
 10
26.08916747007422
 20
43.84590454212418
 30
0.0
 10
27.6361190154712
 20
43.8706589356145
 30
0.0
 10
29.18247766019189
 20
43.92413158101846
 30
0.0
 10
30.72744402336607
 20
44.0062948359705
 30
0.0
  0
LINE
  5
18B
330
70
100
AcDbEntity
  8
0
 62
    18
420
        0
370
    25
100
AcDbLine
 10
17.71416773834976
 20
45.5584045323942
 30
0.0
 11
17.71416773834976
 21
45.34590466059374
 31
0.0
  0
LINE
  5
18C
330
70
100
AcDbEntity
  8
0
 62
    18
420
        0
370
    25
100
AcDbLine
 10
30.46416749994988
 20
45.34590466059374
 30
0.0
 11
30.46416749994988
 21
45.5584045323942
 31
0.0
  0
LINE
  5
18D
330
70
100
AcDbEntity
  8
0
 62
    18
420
        0
370
    25
100
AcDbLine
 10
116.7141672019496
 20
45.5584045323942
 30
0.0
 11
103.9641674403501
 21
45.5584045323942
 31
0.0
  0
LINE
  5
18E
330
70
100
AcDbEntity
  8
0
 62
    18
420
        0
370
    25
100
AcDbLine
 10
117.2141682152499
 20
45.34590466059374
 30
0.0
 11
103.4641664270499
 21
45.34590466059374
 31
0.0
  0
LINE
  5
18F
330
70
100
AcDbEntity
  8
0
 62
    18
420
        0
370
    25
100
AcDbLine
 10
112.33916764895
 20
43.8459044146943
 30
0.0
 11
108.3391669933497
 21
43.8459044146943
 31
0.0
  0
SPLINE
  5
190
330
70
100
AcDbEntity
  8
0
 62
    18
420
        0
370
    25
100
AcDbSpline
210
0.0
220
0.0
230
1.0
 70
     8
 71
     3
 72
     8
 73
     4
 74
     0
 42
0.0000000001
 43
0.0000000001
 40
0.0
 40
0.0
 40
0.0
 40
0.0
 40
1.0
 40
1.0
 40
1.0
 40
1.0
 10
108.096862455118
 20
43.91853731477483
 30
0.0
 10
108.2834958021053
 20
43.91518702806644
 30
0.0
 10
108.4701364233525
 20
43.91225502623018
 30
0.0
 10
108.6567829126493
 20
43.90974133135589
 30
0.0
  0
SPLINE
  5
191
330
70
100
AcDbEntity
  8
0
 62
    18
420
        0
370
    25
100
AcDbSpline
210
0.0
220
0.0
230
1.0
 70
     8
 71
     3
 72
    23
 73
    19
 74
     0
 42
0.0000000001
 43
0.0000000001
 40
0.0
 40
0.0
 40
0.0
 40
0.0
 40
1.0
 40
1.0
 40
1.0
 40
2.0
 40
2.0
 40
2.0
 40
3.0
 40
3.0
 40
3.0
 40
4.0
 40
4.0
 40
4.0
 40
5.0
 40
5.0
 40
5.0
 40
6.0
 40
6.0
 40
6.0
 40
6.0
 10
109.0023470551681
 20
43.91586310928456
 30
0.0
 10
109.0023470551681
 20
43.915099373288
 30
0.0
 10
109.0003156825224
 20
43.91437409630221
 30
0.0
 10
108.9959480660965
 20
43.9136920372231
 30
0.0
 10
108.9915804496699
 20
43.91300997814399
 30
0.0
 10
108.9847317657626
 20
43.91236605084187
 30
0.0
 10
108.9756463396008
 20
43.91180253047898
 30
0.0
 10
108.9574754872765
 20
43.91067548975319
 30
0.0
 10
108.9295717699803
 20
43.90983215187698
 30
0.0
 10
108.8960536699257
 20
43.90932881813284
 30
0.0
 10
108.879294619898
 20
43.90907715126077
 30
0.0
 10
108.8609627052365
 20
43.90890476684148
 30
0.0
 10
108.8420410961778
 20
43.90880847912288
 30
0.0
 10
108.8231194871191
 20
43.90871219140428
 30
0.0
 10
108.8034346658217
 20
43.90868877856306
 30
0.0
 10
108.783064075112
 20
43.90873146613628
 30
0.0
 10
108.7423228936923
 20
43.90881684128274
 30
0.0
 10
108.699712995527
 20
43.90916316280262
 30
0.0
 10
108.6567829126679
 20
43.9097413313482
 30
0.0
  0
SPLINE
  5
192
330
70
100
AcDbEntity
  8
0
 62
    18
420
        0
370
    25
100
AcDbSpline
210
0.0
220
0.0
230
1.0
 70
     8
 71
     3
 72
     8
 73
     4
 74
     0
 42
0.0000000001
 43
0.0000000001
 40
0.0
 40
0.0
 40
0.0
 40
0.0
 40
1.0
 40
1.0
 40
1.0
 40
1.0
 10
109.0261515025268
 20
43.90531255040931
 30
0.0
 10
109.1474811431413
 20
43.91494870590535
 30
0.0
 10
109.2686898386867
 20
43.92605150338584
 30
0.0
 10
109.3897510115341
 20
43.93861850832355
 30
0.0
  0
SPLINE
  5
193
330
70
100
AcDbEntity
  8
0
 62
    18
420
        0
370
    25
100
AcDbSpline
210
0.0
220
0.0
230
1.0
 70
     8
 71
     3
 72
     8
 73
     4
 74
     0
 42
0.0000000001
 43
0.0000000001
 40
0.0
 40
0.0
 40
0.0
 40
0.0
 40
1.0
 40
1.0
 40
1.0
 40
1.0
 10
109.3759242227444
 20
43.90687705077858
 30
0.0
 10
109.4805322808779
 20
43.90607045003888
 30
0.0
 10
109.585141310894
 20
43.9053952446777
 30
0.0
 10
109.6897510652363
 20
43.90485143629478
 30
0.0
  0
SPLINE
  5
194
330
70
100
AcDbEntity
  8
0
 62
    18
420
        0
370
    25
100
AcDbSpline
210
0.0
220
0.0
230
1.0
 70
     8
 71
     3
 72
     8
 73
     4
 74
     0
 42
0.0000000001
 43
0.0000000001
 40
0.0
 40
0.0
 40
0.0
 40
0.0
 40
1.0
 40
1.0
 40
1.0
 40
1.0
 10
109.7312200575976
 20
43.89989215771753
 30
0.0
 10
109.8362710806338
 20
43.89938094750527
 30
0.0
 10
109.9413227066868
 20
43.89900224029539
 30
0.0
 10
110.0463746850633
 20
43.89875603699012
 30
0.0
  0
SPLINE
  5
195
330
70
100
AcDbEntity
  8
0
 62
    18
420
        0
370
    25
100
AcDbSpline
210
0.0
220
0.0
230
1.0
 70
     8
 71
     3
 72
     8
 73
     4
 74
     0
 42
0.0000000001
 43
0.0000000001
 40
0.0
 40
0.0
 40
0.0
 40
0.0
 40
1.0
 40
1.0
 40
1.0
 40
1.0
 10
110.2509831151457
 20
43.89844406099895
 30
0.0
 10
110.3523481906576
 20
43.89837251125573
 30
0.0
 10
110.4537133157183
 20
43.89842432772677
 30
0.0
 10
110.5550782651036
 20
43.89859951029589
 30
0.0
  0
SPLINE
  5
196
330
70
100
AcDbEntity
  8
0
 62
    18
420
        0
370
    25
100
AcDbSpline
210
0.0
220
0.0
230
1.0
 70
     8
 71
     3
 72
     8
 73
     4
 74
     0
 42
0.0000000001
 43
0.0000000001
 40
0.0
 40
0.0
 40
0.0
 40
0.0
 40
1.0
 40
1.0
 40
1.0
 40
1.0
 10
109.9745123700655
 20
43.92541902907684
 30
0.0
 10
110.0666690720088
 20
43.92514998019937
 30
0.0
 10
110.1588260434978
 20
43.92498292363138
 30
0.0
 10
110.2509831152118
 20
43.92491785967961
 30
0.0
  0
LINE
  5
197
330
70
100
AcDbEntity
  8
0
 62
    18
420
        0
370
    25
100
AcDbLine
 10
110.9435844962497
 20
43.89987548919418
 30
0.0
 11
110.9435844962497
 21
43.93647274109389
 31
0.0
  0
SPLINE
  5
198
330
70
100
AcDbEntity
  8
0
 62
    18
420
        0
370
    25
100
AcDbSpline
210
0.0
220
0.0
230
1.0
 70
     8
 71
     3
 72
     8
 73
     4
 74
     0
 42
0.0000000001
 43
0.0000000001
 40
0.0
 40
0.0
 40
0.0
 40
0.0
 40
1.0
 40
1.0
 40
1.0
 40
1.0
 10
111.2476800676024
 20
43.91405463131492
 30
0.0
 10
111.3426121771836
 20
43.91474507226559
 30
0.0
 10
111.4375434688596
 20
43.9155437311108
 30
0.0
 10
111.5324737575755
 20
43.9164506062925
 30
0.0
  0
SPLINE
  5
199
330
70
100
AcDbEntity
  8
0
 62
    18
420
        0
370
    25
100
AcDbSpline
210
0.0
220
0.0
230
1.0
 70
     8
 71
     3
 72
     8
 73
     4
 74
     0
 42
0.0000000001
 43
0.0000000001
 40
0.0
 40
0.0
 40
0.0
 40
0.0
 40
1.0
 40
1.0
 40
1.0
 40
1.0
 10
111.5324737575582
 20
43.90411211109693
 30
0.0
 10
111.6338562916039
 20
43.90508052933879
 30
0.0
 10
111.7352376092269
 20
43.90617236150776
 30
0.0
 10
111.8366174850715
 20
43.90738760517698
 30
0.0
  0
LINE
  5
19A
330
70
100
AcDbEntity
  8
0
 62
   144
420
    29337
370
    18
100
AcDbLine
 10
111.8366174851498
 20
43.9197264238941
 30
0.0
 11
111.9384359251496
 21
43.92098854939439
 31
0.0
  0
LINE
  5
19B
330
70
100
AcDbEntity
  8
0
 62
   144
420
    29337
370
    18
100
AcDbLine
 10
111.8366185371499
 20
43.91972662989426
 30
0.0
 11
111.8366185371499
 21
43.90738753709399
 31
0.0
  0
LINE
  5
19C
330
70
100
AcDbEntity
  8
0
 62
   144
420
    29337
370
    18
100
AcDbLine
 10
111.5324746613496
 20
43.90411207559429
 30
0.0
 11
111.5324746613496
 21
43.91645023709417
 31
0.0
  0
LINE
  5
19D
330
70
100
AcDbEntity
  8
0
 62
   144
420
    29337
370
    18
100
AcDbLine
 10
111.2476799432501
 20
43.91405487539413
 30
0.0
 11
111.2476799432501
 21
43.90171671389425
 31
0.0
  0
SPLINE
  5
19E
330
70
100
AcDbEntity
  8
0
 62
   144
420
    29337
370
    18
100
AcDbSpline
210
0.0
220
0.0
230
1.0
 70
     8
 71
     3
 72
     8
 73
     4
 74
     0
 42
0.0000000001
 43
0.0000000001
 40
0.0
 40
0.0
 40
0.0
 40
0.0
 40
1.0
 40
1.0
 40
1.0
 40
1.0
 10
110.9435849177228
 20
43.89987502970623
 30
0.0
 10
111.044950677144
 20
43.90036544209455
 30
0.0
 10
111.1463158021534
 20
43.90097922356551
 30
0.0
 10
111.2476800675459
 20
43.90171637275613
 30
0.0
  0
SPLINE
  5
19F
330
70
100
AcDbEntity
  8
0
 62
   144
420
    29337
370
    18
100
AcDbSpline
210
0.0
220
0.0
230
1.0
 70
     8
 71
     3
 72
     8
 73
     4
 74
     0
 42
0.0000000001
 43
0.0000000001
 40
0.0
 40
0.0
 40
0.0
 40
0.0
 40
1.0
 40
1.0
 40
1.0
 40
1.0
 10
110.9435849176733
 20
43.93647272778376
 30
0.0
 10
111.0449506775246
 20
43.9369632838793
 30
0.0
 10
111.1463158026071
 20
43.9375772452108
 30
0.0
 10
111.247680067553
 20
43.93831461041272
 30
0.0
  0
LINE
  5
1A0
330
70
100
AcDbEntity
  8
0
 62
   144
420
    29337
370
    18
100
AcDbLine
 10
111.2476799432501
 20
43.93831489719444
 30
0.0
 11
111.2476799432501
 21
43.92471758759375
 31
0.0
  0
SPLINE
  5
1A1
330
70
100
AcDbEntity
  8
0
 62
   144
420
    29337
370
    18
100
AcDbSpline
210
0.0
220
0.0
230
1.0
 70
     8
 71
     3
 72
     8
 73
     4
 74
     0
 42
0.0000000001
 43
0.0000000001
 40
0.0
 40
0.0
 40
0.0
 40
0.0
 40
1.0
 40
1.0
 40
1.0
 40
1.0
 10
111.2476800677596
 20
43.92471712862621
 30
0.0
 10
111.3426121774897
 20
43.92540762851758
 30
0.0
 10
111.4375434691606
 20
43.9262063555414
 30
0.0
 10
111.5324737577134
 20
43.92711330814023
 30
0.0
  0
LINE
  5
1A2
330
70
100
AcDbEntity
  8
0
 62
   144
420
    29337
370
    18
100
AcDbLine
 10
111.5324746613496
 20
43.92711294919433
 30
0.0
 11
111.5324746613496
 21
43.94071119009412
 31
0.0
  0
SPLINE
  5
1A3
330
70
100
AcDbEntity
  8
0
 62
   144
420
    29337
370
    18
100
AcDbSpline
210
0.0
220
0.0
230
1.0
 70
     8
 71
     3
 72
     8
 73
     4
 74
     0
 42
0.0000000001
 43
0.0000000001
 40
0.0
 40
0.0
 40
0.0
 40
0.0
 40
1.0
 40
1.0
 40
1.0
 40
1.0
 10
111.532473757709
 20
43.94071105081526
 30
0.0
 10
111.633856292467
 20
43.94167975286071
 30
0.0
 10
111.7352376100771
 20
43.94277190500073
 30
0.0
 10
111.836617485076
 20
43.94398750480713
 30
0.0
  0
LINE
  5
1A4
330
70
100
AcDbEntity
  8
0
 62
   144
420
    29337
370
    18
100
AcDbLine
 10
111.8366185371499
 20
43.94398758299431
 30
0.0
 11
111.8366185371499
 21
43.93034743249411
 31
0.0
  0
LINE
  5
1A5
330
70
100
AcDbEntity
  8
0
 62
   144
420
    29337
370
    18
100
AcDbLine
 10
111.8366174851498
 20
43.93034725169412
 30
0.0
 11
111.9384359251496
 21
43.93160948449419
 31
0.0
  0
LINE
  5
1A6
330
70
100
AcDbEntity
  8
0
 62
   144
420
    29337
370
    18
100
AcDbLine
 10
111.9384344462496
 20
43.93160937459425
 30
0.0
 11
111.9384344462496
 21
43.94524952499434
 31
0.0
  0
SPLINE
  5
1A7
330
70
100
AcDbEntity
  8
0
 62
   144
420
    29337
370
    18
100
AcDbSpline
210
0.0
220
0.0
230
1.0
 70
     8
 71
     3
 72
     8
 73
     4
 74
     0
 42
0.0000000001
 43
0.0000000001
 40
0.0
 40
0.0
 40
0.0
 40
0.0
 40
1.0
 40
1.0
 40
1.0
 40
1.0
 10
111.9384359251977
 20
43.9452498754878
 30
0.0
 10
112.0381185907401
 20
43.94652640817557
 30
0.0
 10
112.1377996921668
 20
43.94792229014298
 30
0.0
 10
112.2374790151419
 20
43.9494375183901
 30
0.0
  0
LINE
  5
1A8
330
70
100
AcDbEntity
  8
0
 62
   144
420
    29337
370
    18
100
AcDbLine
 10
112.2374783997499
 20
43.94943768269457
 30
0.0
 11
112.2374783997499
 21
43.93579660089399
 31
0.0
  0
SPLINE
  5
1A9
330
70
100
AcDbEntity
  8
0
 62
   144
420
    29337
370
    18
100
AcDbSpline
210
0.0
220
0.0
230
1.0
 70
     8
 71
     3
 72
     8
 73
     4
 74
     0
 42
0.0000000001
 43
0.0000000001
 40
0.0
 40
0.0
 40
0.0
 40
0.0
 40
1.0
 40
1.0
 40
1.0
 40
1.0
 10
112.2374790151605
 20
43.93579667008455
 30
0.0
 10
112.352146068463
 20
43.93753953687432
 30
0.0
 10
112.4668106671788
 20
43.93944031901365
 30
0.0
 10
112.5814724850803
 20
43.94149901109431
 30
0.0
  0
LINE
  5
1AA
330
70
100
AcDbEntity
  8
0
 62
   144
420
    29337
370
    18
100
AcDbLine
 10
112.5814717058498
 20
43.941499088994
 30
0.0
 11
112.5814717058498
 21
43.93087735509441
 31
0.0
  0
SPLINE
  5
1AB
330
70
100
AcDbEntity
  8
0
 62
   144
420
    29337
370
    18
100
AcDbSpline
210
0.0
220
0.0
230
1.0
 70
     8
 71
     3
 72
     8
 73
     4
 74
     0
 42
0.0000000001
 43
0.0000000001
 40
0.0
 40
0.0
 40
0.0
 40
0.0
 40
1.0
 40
1.0
 40
1.0
 40
1.0
 10
112.2374790150989
 20
43.92517537891301
 30
0.0
 10
112.3521460680209
 20
43.92691809749276
 30
0.0
 10
112.4668106667739
 20
43.92881871799196
 30
0.0
 10
112.5814724851862
 20
43.93087723500428
 30
0.0
  0
LINE
  5
1AC
330
70
100
AcDbEntity
  8
0
 62
   144
420
    29337
370
    18
100
AcDbLine
 10
112.2374783997499
 20
43.92517579829413
 30
0.0
 11
112.2374783997499
 21
43.91283577419414
 31
0.0
  0
SPLINE
  5
1AD
330
70
100
AcDbEntity
  8
0
 62
   144
420
    29337
370
    18
100
AcDbSpline
210
0.0
220
0.0
230
1.0
 70
     8
 71
     3
 72
     8
 73
     4
 74
     0
 42
0.0000000001
 43
0.0000000001
 40
0.0
 40
0.0
 40
0.0
 40
0.0
 40
1.0
 40
1.0
 40
1.0
 40
1.0
 10
111.9384359250835
 20
43.90864960600221
 30
0.0
 10
112.0381185896749
 20
43.90992576467056
 30
0.0
 10
112.1377996910791
 20
43.91132123764918
 30
0.0
 10
112.237479015061
 20
43.91283602194001
 30
0.0
  0
LINE
  5
1AE
330
70
100
AcDbEntity
  8
0
 62
   144
420
    29337
370
    18
100
AcDbLine
 10
111.9384344462496
 20
43.90864947919413
 30
0.0
 11
111.9384344462496
 21
43.92098857199375
 31
0.0
  0
LINE
  5
1AF
330
70
100
AcDbEntity
  8
0
 62
   144
420
    29337
370
    18
100
AcDbLine
 10
110.2509822492499
 20
43.89844404639387
 30
0.0
 11
110.2509822492499
 21
43.9249178218938
 31
0.0
  0
LINE
  5
1B0
330
70
100
AcDbEntity
  8
0
 62
   144
420
    29337
370
    18
100
AcDbLine
 10
109.97451355505
 20
43.92541887349434
 30
0.0
 11
109.97451355505
 21
43.93554234979401
 31
0.0
  0
SPLINE
  5
1B1
330
70
100
AcDbEntity
  8
0
 62
   144
420
    29337
370
    18
100
AcDbSpline
210
0.0
220
0.0
230
1.0
 70
     8
 71
     3
 72
     8
 73
     4
 74
     0
 42
0.0000000001
 43
0.0000000001
 40
0.0
 40
0.0
 40
0.0
 40
0.0
 40
1.0
 40
1.0
 40
1.0
 40
1.0
 10
109.9745123700854
 20
43.93554254978272
 30
0.0
 10
110.2602071031745
 20
43.93470840450449
 30
0.0
 10
110.5459038575161
 20
43.93485454789929
 30
0.0
 10
110.831597587706
 20
43.9359809773862
 30
0.0
  0
LINE
  5
1B2
330
70
100
AcDbEntity
  8
0
 62
   144
420
    29337
370
    18
100
AcDbLine
 10
110.8315985445498
 20
43.93598100279429
 30
0.0
 11
110.8315985445498
 21
43.9258575263945
 31
0.0
  0
SPLINE
  5
1B3
330
70
100
AcDbEntity
  8
0
 62
   144
420
    29337
370
    18
100
AcDbSpline
210
0.0
220
0.0
230
1.0
 70
     8
 71
     3
 72
     8
 73
     4
 74
     0
 42
0.0000000001
 43
0.0000000001
 40
0.0
 40
0.0
 40
0.0
 40
0.0
 40
1.0
 40
1.0
 40
1.0
 40
1.0
 10
110.5550782651871
 20
43.92507334192459
 30
0.0
 10
110.6472516337453
 20
43.92523267303548
 30
0.0
 10
110.7394247976933
 20
43.92549403293582
 30
0.0
 10
110.8315975876411
 20
43.9258574211456
 30
0.0
  0
LINE
  5
1B4
330
70
100
AcDbEntity
  8
0
 62
   144
420
    29337
370
    18
100
AcDbLine
 10
110.5550776962497
 20
43.92507335279433
 30
0.0
 11
110.5550776962497
 21
43.89859957729377
 31
0.0
  0
SPLINE
  5
1B5
330
70
100
AcDbEntity
  8
0
 62
   144
420
    29337
370
    18
100
AcDbSpline
210
0.0
220
0.0
230
1.0
 70
     8
 71
     3
 72
     8
 73
     4
 74
     0
 42
0.0000000001
 43
0.0000000001
 40
0.0
 40
0.0
 40
0.0
 40
0.0
 40
1.0
 40
1.0
 40
1.0
 40
1.0
 10
109.6897523645967
 20
43.90485154572307
 30
0.0
 10
109.7035709826928
 20
43.90316972255909
 30
0.0
 10
109.7173930813183
 20
43.90151662141803
 30
0.0
 10
109.7312185709132
 20
43.89989225301304
 30
0.0
  0
SPLINE
  5
1B6
330
70
100
AcDbEntity
  8
0
 62
   144
420
    29337
370
    18
100
AcDbSpline
210
0.0
220
0.0
230
1.0
 70
     8
 71
     3
 72
     8
 73
     4
 74
     0
 42
0.0000000001
 43
0.0000000001
 40
0.0
 40
0.0
 40
0.0
 40
0.0
 40
1.0
 40
1.0
 40
1.0
 40
1.0
 10
109.331670010558
 20
43.90247574186688
 30
0.0
 10
109.3464238140259
 20
43.90391362470742
 30
0.0
 10
109.3611747508651
 20
43.90538077108977
 30
0.0
 10
109.3759227340187
 20
43.90687717235487
 30
0.0
  0
SPLINE
  5
1B7
330
70
100
AcDbEntity
  8
0
 62
   144
420
    29337
370
    18
100
AcDbSpline
210
0.0
220
0.0
230
1.0
 70
     8
 71
     3
 72
     8
 73
     4
 74
     0
 42
0.0000000001
 43
0.0000000001
 40
0.0
 40
0.0
 40
0.0
 40
0.0
 40
1.0
 40
1.0
 40
1.0
 40
1.0
 10
109.0261500301349
 20
43.90531296938553
 30
0.0
 10
109.1279888655093
 20
43.9042425943195
 30
0.0
 10
109.2298289716776
 20
43.90329674855878
 30
0.0
 10
109.3316701202173
 20
43.90247543422609
 30
0.0
  0
SPLINE
  5
1B8
330
70
100
AcDbEntity
  8
0
 62
   144
420
    29337
370
    18
100
AcDbSpline
210
0.0
220
0.0
230
1.0
 70
     8
 71
     3
 72
     8
 73
     4
 74
     0
 42
0.0000000001
 43
0.0000000001
 40
0.0
 40
0.0
 40
0.0
 40
0.0
 40
1.0
 40
1.0
 40
1.0
 40
1.0
 10
109.3897526177209
 20
43.93861884833485
 30
0.0
 10
109.488817541849
 20
43.93786576367669
 30
0.0
 10
109.5878833269581
 20
43.93723054810961
 30
0.0
 10
109.6869497626615
 20
43.93671320298181
 30
0.0
  0
SPLINE
  5
1B9
330
70
100
AcDbEntity
  8
0
 62
   144
420
    29337
370
    18
100
AcDbSpline
210
0.0
220
0.0
230
1.0
 70
     8
 71
     3
 72
     8
 73
     4
 74
     0
 42
0.0000000001
 43
0.0000000001
 40
0.0
 40
0.0
 40
0.0
 40
0.0
 40
1.0
 40
1.0
 40
1.0
 40
1.0
 10
109.6869509462901
 20
43.93671302230375
 30
0.0
 10
109.8066003552261
 20
43.92260314124821
 30
0.0
 10
109.9264170465786
 20
43.90994987671988
 30
0.0
 10
110.0463744048744
 20
43.89875603945167
 30
0.0
  0
SPLINE
  5
1BA
330
70
100
AcDbEntity
  8
0
 62
   144
420
    29337
370
    18
100
AcDbSpline
210
0.0
220
0.0
230
1.0
 70
     8
 71
     3
 72
    17
 73
    13
 74
     0
 42
0.0000000001
 43
0.0000000001
 40
0.0
 40
0.0
 40
0.0
 40
0.0
 40
1.0
 40
1.0
 40
1.0
 40
2.0
 40
2.0
 40
2.0
 40
3.0
 40
3.0
 40
3.0
 40
4.0
 40
4.0
 40
4.0
 40
4.0
 10
108.9525875026677
 20
43.93279874387757
 30
0.0
 10
108.9525875026677
 20
43.93200743974526
 30
0.0
 10
108.9506175044668
 20
43.93125428234409
 30
0.0
 10
108.9457154229056
 20
43.93055539506959
 30
0.0
 10
108.9408133413445
 20
43.92985650779509
 30
0.0
 10
108.9328453473451
 20
43.92922289427779
 30
0.0
 10
108.9218920408948
 20
43.92870301135542
 30
0.0
 10
108.9109387344452
 20
43.92818312843306
 30
0.0
 10
108.896967406124
 20
43.92777348493686
 30
0.0
 10
108.8814421782509
 20
43.92746740521015
 30
0.0
 10
108.8659169503779
 20
43.92716132548343
 30
0.0
 10
108.848726441762
 20
43.92695068670082
 30
0.0
 10
108.8309170576679
 20
43.92680027932885
 30
0.0
  0
SPLINE
  5
1BB
330
70
100
AcDbEntity
  8
0
 62
   144
420
    29337
370
    18
100
AcDbSpline
210
0.0
220
0.0
230
1.0
 70
     8
 71
     3
 72
    17
 73
    13
 74
     0
 42
0.0000000001
 43
0.0000000001
 40
0.0
 40
0.0
 40
0.0
 40
0.0
 40
1.0
 40
1.0
 40
1.0
 40
2.0
 40
2.0
 40
2.0
 40
3.0
 40
3.0
 40
3.0
 40
4.0
 40
4.0
 40
4.0
 40
4.0
 10
108.8309170576679
 20
43.92680027932885
 30
0.0
 10
108.8567001815133
 20
43.9261723001383
 30
0.0
 10
108.880864634246
 20
43.92545394910906
 30
0.0
 10
108.9029944035529
 20
43.92461967033177
 30
0.0
 10
108.9251241728592
 20
43.92378539155319
 30
0.0
 10
108.9442144160837
 20
43.92286649364972
 30
0.0
 10
108.9594303009434
 20
43.92188285690682
 30
0.0
 10
108.9746461858037
 20
43.92089922016263
 30
0.0
 10
108.9856614870279
 20
43.91986622578798
 30
0.0
 10
108.9925633566764
 20
43.91884643540548
 30
0.0
 10
108.999465226325
 20
43.91782664502298
 30
0.0
 10
109.0023470551681
 20
43.91682674738963
 30
0.0
 10
109.0023470551681
 20
43.91586310928456
 30
0.0
  0
LINE
  5
1BC
330
70
100
AcDbEntity
  8
0
 62
   144
420
    29337
370
    18
100
AcDbLine
 10
108.09686293645
 20
43.9185373309944
 30
0.0
 11
108.09686293645
 21
43.95514017079459
 31
0.0
  0
SPLINE
  5
1BD
330
70
100
AcDbEntity
  8
0
 62
   144
420
    29337
370
    18
100
AcDbSpline
210
0.0
220
0.0
230
1.0
 70
     8
 71
     3
 72
     8
 73
     4
 74
     0
 42
0.0000000001
 43
0.0000000001
 40
0.0
 40
0.0
 40
0.0
 40
0.0
 40
1.0
 40
1.0
 40
1.0
 40
1.0
 10
108.0968624552071
 20
43.95514048230353
 30
0.0
 10
108.2770300340841
 20
43.95190531567834
 30
0.0
 10
108.4572044034761
 20
43.94906006777389
 30
0.0
 10
108.6373842975766
 20
43.94660475857782
 30
0.0
  0
SPLINE
  5
1BE
330
70
100
AcDbEntity
  8
0
 62
   144
420
    29337
370
    18
100
AcDbSpline
210
0.0
220
0.0
230
1.0
 70
     8
 71
     3
 72
    20
 73
    16
 74
     0
 42
0.0000000001
 43
0.0000000001
 40
0.0
 40
0.0
 40
0.0
 40
0.0
 40
1.0
 40
1.0
 40
1.0
 40
2.0
 40
2.0
 40
2.0
 40
3.0
 40
3.0
 40
3.0
 40
4.0
 40
4.0
 40
4.0
 40
5.0
 40
5.0
 40
5.0
 40
5.0
 10
108.6373842976677
 20
43.94660475856883
 30
0.0
 10
108.6752557924908
 20
43.94608868417583
 30
0.0
 10
108.7127219231988
 20
43.94547331234428
 30
0.0
 10
108.7494984596325
 20
43.94467666129258
 30
0.0
 10
108.7862749960662
 20
43.94388001024089
 30
0.0
 10
108.8223706675566
 20
43.94289536806724
 30
0.0
 10
108.8540134728779
 20
43.94165894901058
 30
0.0
 10
108.8698348755386
 20
43.94104073948192
 30
0.0
 10
108.8841544770021
 20
43.94037349362086
 30
0.0
 10
108.8966010802507
 20
43.93966413702332
 30
0.0
 10
108.9090476834998
 20
43.93895478042579
 30
0.0
 10
108.9197982271415
 20
43.93818783925225
 30
0.0
 10
108.9281333395613
 20
43.93741770695945
 30
0.0
 10
108.9448035644021
 20
43.93587744237255
 30
0.0
 10
108.9525875026677
 20
43.93428829153061
 30
0.0
 10
108.9525875026677
 20
43.93279874387757
 30
0.0
  0
LINE
  5
1BF
330
70
100
AcDbEntity
  8
0
 62
   144
420
    29337
370
    18
100
AcDbLine
 10
110.2509822492499
 20
43.93504129829422
 30
0.0
 11
110.2509822492499
 21
43.9249178218938
 31
0.0
  0
SPLINE
  5
1C0
330
70
100
AcDbEntity
  8
0
 62
    18
420
        0
370
    25
100
AcDbSpline
210
0.0
220
0.0
230
1.0
 70
     8
 71
     3
 72
     8
 73
     4
 74
     0
 42
0.0000000001
 43
0.0000000001
 40
0.0
 40
0.0
 40
0.0
 40
0.0
 40
1.0
 40
1.0
 40
1.0
 40
1.0
 10
109.4422813300438
 20
43.91380714359896
 30
0.0
 10
109.474092795686
 20
43.91722447785288
 30
0.0
 10
109.5058896742076
 20
43.92077626344222
 30
0.0
 10
109.537671113426
 20
43.92446240517478
 30
0.0
  0
SPLINE
  5
1C1
330
70
100
AcDbEntity
  8
0
 62
   144
420
    29337
370
    18
100
AcDbSpline
210
0.0
220
0.0
230
1.0
 70
     8
 71
     3
 72
     8
 73
     4
 74
     0
 42
0.0000000001
 43
0.0000000001
 40
0.0
 40
0.0
 40
0.0
 40
0.0
 40
1.0
 40
1.0
 40
1.0
 40
1.0
 10
109.5404725317222
 20
43.92444471004591
 30
0.0
 10
109.5699354130121
 20
43.92036665498024
 30
0.0
 10
109.5994164144608
 20
43.91642060163962
 30
0.0
 10
109.6289146487014
 20
43.91260666879999
 30
0.0
  0
LINE
  5
1C2
330
70
100
AcDbEntity
  8
0
 62
   144
420
    29337
370
    18
100
AcDbLine
 10
109.53767110515
 20
43.92446256269392
 30
0.0
 11
109.5404724076497
 21
43.92444461869428
 31
0.0
  0
SPLINE
  5
1C3
330
70
100
AcDbEntity
  8
0
 62
   144
420
    29337
370
    18
100
AcDbSpline
210
0.0
220
0.0
230
1.0
 70
     8
 71
     3
 72
     8
 73
     4
 74
     0
 42
0.0000000001
 43
0.0000000001
 40
0.0
 40
0.0
 40
0.0
 40
0.0
 40
1.0
 40
1.0
 40
1.0
 40
1.0
 10
109.4422810876683
 20
43.91380696536898
 30
0.0
 10
109.5044923650335
 20
43.91336029397087
 30
0.0
 10
109.5667039673904
 20
43.91296009674593
 30
0.0
 10
109.62891584268
 20
43.91260637402975
 30
0.0
  0
LINE
  5
1C4
330
70
100
AcDbEntity
  8
0
 62
   144
420
    29337
370
    18
100
AcDbLine
 10
109.5376711134498
 20
43.93758194629412
 30
0.0
 11
109.5376711134498
 21
43.92446240519403
 31
0.0
  0
LINE
  5
1C5
330
70
100
AcDbEntity
  8
0
 62
   144
420
    29337
370
    18
100
AcDbLine
 10
109.4422813300495
 20
43.93823014679462
 30
0.0
 11
109.4422813300495
 21
43.91380714359383
 31
0.0
  0
SPLINE
  5
1C6
330
70
100
AcDbEntity
  8
0
 62
    18
420
        0
370
    25
100
AcDbSpline
210
0.0
220
0.0
230
1.0
 70
     8
 71
     3
 72
     8
 73
     4
 74
     0
 42
0.0000000001
 43
0.0000000001
 40
0.0
 40
0.0
 40
0.0
 40
0.0
 40
1.0
 40
1.0
 40
1.0
 40
1.0
 10
108.400957605237
 20
43.92802773555749
 30
0.0
 10
108.4645556217315
 20
43.92704083041936
 30
0.0
 10
108.5281543827254
 20
43.92610250004849
 30
0.0
 10
108.591753832567
 20
43.92521274526561
 30
0.0
  0
SPLINE
  5
1C7
330
70
100
AcDbEntity
  8
0
 62
   144
420
    29337
370
    18
100
AcDbSpline
210
0.0
220
0.0
230
1.0
 70
     8
 71
     3
 72
    17
 73
    13
 74
     0
 42
0.0000000001
 43
0.0000000001
 40
0.0
 40
0.0
 40
0.0
 40
0.0
 40
1.0
 40
1.0
 40
1.0
 40
2.0
 40
2.0
 40
2.0
 40
3.0
 40
3.0
 40
3.0
 40
4.0
 40
4.0
 40
4.0
 40
4.0
 10
108.6982195201676
 20
43.92052188158387
 30
0.0
 10
108.6982195201676
 20
43.92099900155648
 30
0.0
 10
108.6964755276208
 20
43.92149757457779
 30
0.0
 10
108.6915612080473
 20
43.92200961879153
 30
0.0
 10
108.6866468884743
 20
43.92252166300592
 30
0.0
 10
108.6783570583109
 20
43.92302821818703
 30
0.0
 10
108.6676569124162
 20
43.92345813705183
 30
0.0
 10
108.6569567665208
 20
43.92388805591728
 30
0.0
 10
108.6443115711449
 20
43.92423727542574
 30
0.0
 10
108.6313050046657
 20
43.92452177848684
 30
0.0
 10
108.6182984381858
 20
43.92480628154795
 30
0.0
 10
108.6050822318934
 20
43.92502628126995
 30
0.0
 10
108.5917538326678
 20
43.92521274525599
 30
0.0
  0
LINE
  5
1C8
330
70
100
AcDbEntity
  8
0
 62
   144
420
    29337
370
    18
100
AcDbLine
 10
108.4009583835499
 20
43.92802750799433
 30
0.0
 11
108.4009583835499
 21
43.92145609589369
 31
0.0
  0
SPLINE
  5
1C9
330
70
100
AcDbEntity
  8
0
 62
   144
420
    29337
370
    18
100
AcDbSpline
210
0.0
220
0.0
230
1.0
 70
     8
 71
     3
 72
     8
 73
     4
 74
     0
 42
0.0000000001
 43
0.0000000001
 40
0.0
 40
0.0
 40
0.0
 40
0.0
 40
1.0
 40
1.0
 40
1.0
 40
1.0
 10
108.4009576052273
 20
43.9214557683936
 30
0.0
 10
108.4604158291472
 20
43.92053315252376
 30
0.0
 10
108.5198747042542
 20
43.91965299123072
 30
0.0
 10
108.5793341850821
 20
43.91881528518762
 30
0.0
  0
SPLINE
  5
1CA
330
70
100
AcDbEntity
  8
0
 62
   144
420
    29337
370
    18
100
AcDbSpline
210
0.0
220
0.0
230
1.0
 70
     8
 71
     3
 72
    17
 73
    13
 74
     0
 42
0.0000000001
 43
0.0000000001
 40
0.0
 40
0.0
 40
0.0
 40
0.0
 40
1.0
 40
1.0
 40
1.0
 40
2.0
 40
2.0
 40
2.0
 40
3.0
 40
3.0
 40
3.0
 40
4.0
 40
4.0
 40
4.0
 40
4.0
 10
108.5793341851681
 20
43.91881528517799
 30
0.0
 10
108.5938195997621
 20
43.91861120469882
 30
0.0
 10
108.6081993901936
 20
43.91844313488227
 30
0.0
 10
108.6223693927964
 20
43.91834406125167
 30
0.0
 10
108.6365393953999
 20
43.91824498762107
 30
0.0
 10
108.6505855439335
 20
43.91821604789662
 30
0.0
 10
108.6627810921989
 20
43.91833173851892
 30
0.0
 10
108.6749766404643
 20
43.91844742914122
 30
0.0
 10
108.684674777933
 20
43.9187206605309
 30
0.0
 10
108.6904284528388
 20
43.91911570792405
 30
0.0
 10
108.6961821277446
 20
43.91951075531784
 30
0.0
 10
108.6982195201676
 20
43.92000202878157
 30
0.0
 10
108.6982195201676
 20
43.92052188158387
 30
0.0
  0
LINE
  5
1CB
330
70
100
AcDbEntity
  8
0
 62
   144
420
    29337
370
    18
100
AcDbLine
 10
108.5917528514496
 20
43.94723510479399
 30
0.0
 11
108.5917528514496
 21
43.93768346039407
 31
0.0
  0
LINE
  5
1CC
330
70
100
AcDbEntity
  8
0
 62
   144
420
    29337
370
    18
100
AcDbLine
 10
108.5917528514496
 20
43.93213743449368
 30
0.0
 11
108.5917528514496
 21
43.92521305119434
 31
0.0
  0
LINE
  5
1CD
330
70
100
AcDbEntity
  8
0
 62
   144
420
    29337
370
    18
100
AcDbLine
 10
108.4009583835499
 20
43.95005049289371
 30
0.0
 11
108.4009583835499
 21
43.94062643979441
 31
0.0
  0
LINE
  5
1CE
330
70
100
AcDbEntity
  8
0
 62
   144
420
    29337
370
    18
100
AcDbLine
 10
108.4009583835499
 20
43.93486993489382
 30
0.0
 11
108.4009583835499
 21
43.92802750799433
 31
0.0
  0
LINE
  5
1CF
330
70
100
AcDbEntity
  8
0
 62
   144
420
    29337
370
    18
100
AcDbLine
 10
111.5324746613496
 20
43.92711294919433
 30
0.0
 11
111.5324746613496
 21
43.91645023709417
 31
0.0
  0
LINE
  5
1D0
330
70
100
AcDbEntity
  8
0
 62
   144
420
    29337
370
    18
100
AcDbLine
 10
111.2476799432501
 20
43.92471758759375
 30
0.0
 11
111.2476799432501
 21
43.91405487539413
 31
0.0
  0
LINE
  5
1D1
330
70
100
AcDbEntity
  8
0
 62
   144
420
    29337
370
    18
100
AcDbLine
 10
109.6897523645498
 20
43.93638333409398
 30
0.0
 11
109.6897523645498
 21
43.9048515456942
 31
0.0
  0
LINE
  5
1D2
330
70
100
AcDbEntity
  8
0
 62
   144
420
    29337
370
    18
100
AcDbLine
 10
109.3759227339501
 20
43.9371898594937
 30
0.0
 11
109.3759227339501
 21
43.90687717229456
 31
0.0
  0
LINE
  5
1D3
330
70
100
AcDbEntity
  8
0
 62
   144
420
    29337
370
    18
100
AcDbLine
 10
110.5550776962497
 20
43.9351968291941
 30
0.0
 11
110.5550776962497
 21
43.92507335279433
 31
0.0
  0
LINE
  5
1D4
330
70
100
AcDbEntity
  8
0
 62
   144
420
    29337
370
    18
100
AcDbLine
 10
109.7312185708496
 20
43.93156001449452
 30
0.0
 11
109.7312185708496
 21
43.89989225299443
 31
0.0
  0
SPLINE
  5
1D5
330
70
100
AcDbEntity
  8
0
 62
   144
420
    29337
370
    18
100
AcDbSpline
210
0.0
220
0.0
230
1.0
 70
     8
 71
     3
 72
    17
 73
    13
 74
     0
 42
0.0000000001
 43
0.0000000001
 40
0.0
 40
0.0
 40
0.0
 40
0.0
 40
1.0
 40
1.0
 40
1.0
 40
2.0
 40
2.0
 40
2.0
 40
3.0
 40
3.0
 40
3.0
 40
4.0
 40
4.0
 40
4.0
 40
4.0
 10
108.5613281251678
 20
43.93248430679989
 30
0.0
 10
108.5740832517638
 20
43.93230274527516
 30
0.0
 10
108.5867986139259
 20
43.93214535265877
 30
0.0
 10
108.5994113344748
 20
43.93204724908717
 30
0.0
 10
108.6120240550242
 20
43.93194914551558
 30
0.0
 10
108.6245113819408
 20
43.93191122647785
 30
0.0
 10
108.6352806196962
 20
43.93202234125596
 30
0.0
 10
108.6460498574516
 20
43.93213345603472
 30
0.0
 10
108.6544253143524
 20
43.93241925686346
 30
0.0
 10
108.6590108788198
 20
43.93281315186268
 30
0.0
 10
108.6635964432879
 20
43.9332070468606
 30
0.0
 10
108.6649925101679
 20
43.93368216831802
 30
0.0
 10
108.6649925101679
 20
43.93417604057816
 30
0.0
  0
SPLINE
  5
1D6
330
70
100
AcDbEntity
  8
0
 62
   144
420
    29337
370
    18
100
AcDbSpline
210
0.0
220
0.0
230
1.0
 70
     8
 71
     3
 72
     8
 73
     4
 74
     0
 42
0.0000000001
 43
0.0000000001
 40
0.0
 40
0.0
 40
0.0
 40
0.0
 40
1.0
 40
1.0
 40
1.0
 40
1.0
 10
108.4009576051048
 20
43.93487006641838
 30
0.0
 10
108.4544139290727
 20
43.93404049320281
 30
0.0
 10
108.50787078012
 20
43.93324523983579
 30
0.0
 10
108.5613281252166
 20
43.93248430680759
 30
0.0
  0
LINE
  5
1D7
330
70
100
AcDbEntity
  8
0
 62
   144
420
    29337
370
    18
100
AcDbLine
 10
108.4009583835499
 20
43.94062643979441
 30
0.0
 11
108.4009583835499
 21
43.93486993489382
 31
0.0
  0
SPLINE
  5
1D8
330
70
100
AcDbEntity
  8
0
 62
   144
420
    29337
370
    18
100
AcDbSpline
210
0.0
220
0.0
230
1.0
 70
     8
 71
     3
 72
     8
 73
     4
 74
     0
 42
0.0000000001
 43
0.0000000001
 40
0.0
 40
0.0
 40
0.0
 40
0.0
 40
1.0
 40
1.0
 40
1.0
 40
1.0
 10
108.4009576051625
 20
43.94062625055736
 30
0.0
 10
108.4544139290214
 20
43.93979663910807
 30
0.0
 10
108.5078707800308
 20
43.93900134908849
 30
0.0
 10
108.5613281251126
 20
43.93824038099078
 30
0.0
  0
SPLINE
  5
1D9
330
70
100
AcDbEntity
  8
0
 62
   144
420
    29337
370
    18
100
AcDbSpline
210
0.0
220
0.0
230
1.0
 70
     8
 71
     3
 72
    17
 73
    13
 74
     0
 42
0.0000000001
 43
0.0000000001
 40
0.0
 40
0.0
 40
0.0
 40
0.0
 40
1.0
 40
1.0
 40
1.0
 40
2.0
 40
2.0
 40
2.0
 40
3.0
 40
3.0
 40
3.0
 40
4.0
 40
4.0
 40
4.0
 40
4.0
 10
108.6649925101679
 20
43.93417604057816
 30
0.0
 10
108.6649925101679
 20
43.93463145129345
 30
0.0
 10
108.6624959999284
 20
43.93512531475589
 30
0.0
 10
108.6563709845948
 20
43.93559208883948
 30
0.0
 10
108.6502459692604
 20
43.93605886292307
 30
0.0
 10
108.6404540031363
 20
43.93648796125051
 30
0.0
 10
108.6298804784435
 20
43.93682529747136
 30
0.0
 10
108.6193069537512
 20
43.93716263369348
 30
0.0
 10
108.6077411570601
 20
43.93743176716935
 30
0.0
 10
108.5962143358286
 20
43.937658856451
 30
0.0
 10
108.5846875145979
 20
43.93788594573265
 30
0.0
 10
108.5730408651304
 20
43.93807364951652
 30
0.0
 10
108.5613281251678
 20
43.93824038098181
 30
0.0
  0
LINE
  5
1DA
330
70
100
AcDbEntity
  8
0
 62
   144
420
    29337
370
    18
100
AcDbLine
 10
111.8366185371499
 20
43.93034743249411
 30
0.0
 11
111.8366185371499
 21
43.91972662989426
 31
0.0
  0
SPLINE
  5
1DB
330
70
100
AcDbEntity
  8
0
 62
   144
420
    29337
370
    18
100
AcDbSpline
210
0.0
220
0.0
230
1.0
 70
     8
 71
     3
 72
     8
 73
     4
 74
     0
 42
0.0000000001
 43
0.0000000001
 40
0.0
 40
0.0
 40
0.0
 40
0.0
 40
1.0
 40
1.0
 40
1.0
 40
1.0
 10
111.5944262627277
 20
43.92767840801965
 30
0.0
 10
111.6751575137554
 20
43.92848975155308
 30
0.0
 10
111.7558879591972
 20
43.92937936653989
 30
0.0
 10
111.8366174852025
 20
43.930347251723
 30
0.0
  0
LINE
  5
1DC
330
70
100
AcDbEntity
  8
0
 62
   144
420
    29337
370
    18
100
AcDbLine
 10
111.5944262389495
 20
43.91705745939412
 30
0.0
 11
111.5944262389495
 21
43.92767826199461
 31
0.0
  0
SPLINE
  5
1DD
330
70
100
AcDbEntity
  8
0
 62
   144
420
    29337
370
    18
100
AcDbSpline
210
0.0
220
0.0
230
1.0
 70
     8
 71
     3
 72
     8
 73
     4
 74
     0
 42
0.0000000001
 43
0.0000000001
 40
0.0
 40
0.0
 40
0.0
 40
0.0
 40
1.0
 40
1.0
 40
1.0
 40
1.0
 10
111.5944262627547
 20
43.91705780714238
 30
0.0
 10
111.675157513645
 20
43.91786908169124
 30
0.0
 10
111.7558879590689
 20
43.91875862103649
 30
0.0
 10
111.8366174852307
 20
43.91972642392491
 30
0.0
  0
LINE
  5
1DE
330
70
100
AcDbEntity
  8
0
 62
    18
420
        0
370
    25
100
AcDbLine
 10
26.08916794704975
 20
41.82990396499431
 30
0.0
 11
26.08916794704975
 21
43.82990336149377
 31
0.0
  0
LINE
  5
1DF
330
70
100
AcDbEntity
  8
0
 62
    18
420
        0
370
    25
100
AcDbLine
 10
22.35711624664984
 20
37.92773362359402
 30
0.0
 11
25.82121899174989
 21
37.92773362359402
 31
0.0
  0
LINE
  5
1E0
330
70
100
AcDbEntity
  8
0
 62
    18
420
        0
370
    25
100
AcDbLine
 10
22.08916729134998
 20
43.82990336149377
 30
0.0
 11
22.08916729134998
 21
41.82990396499431
 31
0.0
  0
LINE
  5
1E1
330
70
100
AcDbEntity
  8
0
 62
   144
420
    29337
370
    18
100
AcDbLine
 10
26.08916794704975
 20
43.82990336149377
 30
0.0
 11
22.08916729134998
 21
43.82990336149377
 31
0.0
  0
LINE
  5
1E2
330
70
100
AcDbEntity
  8
0
 62
   144
420
    29337
370
    18
100
AcDbLine
 10
22.23511671464974
 20
41.82990396499431
 30
0.0
 11
22.35711624664984
 21
41.82990396499431
 31
0.0
  0
LINE
  5
1E3
330
70
100
AcDbEntity
  8
0
 62
   144
420
    29337
370
    18
100
AcDbLine
 10
22.35711624664984
 20
41.82990396499431
 30
0.0
 11
22.35711624664984
 21
37.92773362359402
 31
0.0
  0
LINE
  5
1E4
330
70
100
AcDbEntity
  8
0
 62
   144
420
    29337
370
    18
100
AcDbLine
 10
25.82121899174989
 20
37.92773362359402
 30
0.0
 11
25.82121899174989
 21
41.82990396499431
 31
0.0
  0
LINE
  5
1E5
330
70
100
AcDbEntity
  8
0
 62
   144
420
    29337
370
    18
100
AcDbLine
 10
25.82121899174989
 20
41.82990396499431
 30
0.0
 11
25.9432185236499
 21
41.82990396499431
 31
0.0
  0
LINE
  5
1E6
330
70
100
AcDbEntity
  8
0
 62
    18
420
        0
370
    25
100
AcDbLine
 10
25.70976948184989
 20
37.80621511969431
 30
0.0
 11
22.46856575654985
 21
37.80621511969431
 31
0.0
  0
SPLINE
  5
1E7
330
70
100
AcDbEntity
  8
0
 62
   144
420
    29337
370
    18
100
AcDbSpline
210
0.0
220
0.0
230
1.0
 70
     8
 71
     3
 72
    11
 73
     7
 74
     0
 42
0.0000000001
 43
0.0000000001
 40
0.0
 40
0.0
 40
0.0
 40
0.0
 40
1.0
 40
1.0
 40
1.0
 40
2.0
 40
2.0
 40
2.0
 40
2.0
 10
22.46856678272672
 20
37.80621511978543
 30
0.0
 10
22.43924833148174
 20
37.81223048586226
 30
0.0
 10
22.41170883884452
 20
37.82606733713713
 30
0.0
 10
22.39092778609013
 20
37.84742747172147
 30
0.0
 10
22.37014673333573
 20
37.8687876063058
 30
0.0
 10
22.35711666259916
 20
37.8978635910002
 30
0.0
 10
22.35711666259916
 20
37.92773340283479
 30
0.0
  0
SPLINE
  5
1E8
330
70
100
AcDbEntity
  8
0
 62
   144
420
    29337
370
    18
100
AcDbSpline
210
0.0
220
0.0
230
1.0
 70
     8
 71
     3
 72
    11
 73
     7
 74
     0
 42
0.0000000001
 43
0.0000000001
 40
0.0
 40
0.0
 40
0.0
 40
0.0
 40
1.0
 40
1.0
 40
1.0
 40
2.0
 40
2.0
 40
2.0
 40
2.0
 10
25.82121827773683
 20
37.92773340283479
 30
0.0
 10
25.82121827773683
 20
37.89797687439379
 30
0.0
 10
25.80816568167887
 20
37.86877032843725
 30
0.0
 10
25.787419701349
 20
37.847440370236
 30
0.0
 10
25.76667372101912
 20
37.82611041203476
 30
0.0
 10
25.73884466073681
 20
37.81218084454627
 30
0.0
 10
25.70976815760927
 20
37.80621511978543
 30
0.0
  0
SPLINE
  5
1E9
330
70
100
AcDbEntity
  8
0
 62
   144
420
    29337
370
    18
100
AcDbSpline
210
0.0
220
0.0
230
1.0
 70
     8
 71
     3
 72
     8
 73
     4
 74
     0
 42
0.0000000001
 43
0.0000000001
 40
0.0
 40
0.0
 40
0.0
 40
0.0
 40
1.0
 40
1.0
 40
1.0
 40
1.0
 10
22.46856678271453
 20
37.80621511979248
 30
0.0
 10
23.53783027731322
 20
37.58683070214809
 30
0.0
 10
24.64050466298651
 20
37.58683070214809
 30
0.0
 10
25.7097681575852
 20
37.80621511979248
 30
0.0
  0
LINE
  5
1EA
330
70
100
AcDbEntity
  8
0
 62
    18
420
        0
370
    25
100
AcDbLine
 10
30.96416851324979
 20
45.34590466059374
 30
0.0
 11
17.21416672514995
 21
45.34590466059374
 31
0.0
  0
LINE
  5
1EB
330
70
100
AcDbEntity
  8
0
 62
    18
420
        0
370
    25
100
AcDbLine
 10
26.08916794704975
 20
43.8459044146943
 30
0.0
 11
22.08916729134998
 21
43.8459044146943
 31
0.0
  0
LINE
  5
1EC
330
70
100
AcDbEntity
  8
0
 62
    18
420
        0
370
    25
100
AcDbLine
 10
30.46416749994988
 20
45.5584045323942
 30
0.0
 11
17.71416773834976
 21
45.5584045323942
 31
0.0
  0
SPLINE
  5
1ED
330
70
100
AcDbEntity
  8
0
 62
    18
420
        0
370
    25
100
AcDbSpline
210
0.0
220
0.0
230
1.0
 70
     8
 71
     3
 72
     8
 73
     4
 74
     0
 42
0.0000000001
 43
0.0000000001
 40
0.0
 40
0.0
 40
0.0
 40
0.0
 40
1.0
 40
1.0
 40
1.0
 40
1.0
 10
117.1409441654462
 20
41.75668021329065
 30
0.0
 10
117.0940600708346
 20
41.80356430790287
 30
0.0
 10
117.0304715926097
 20
41.82990351799382
 30
0.0
 10
116.9641674701498
 20
41.82990351799382
 30
0.0
  0
LINE
  5
1EE
330
70
100
AcDbEntity
  8
0
 62
    18
420
        0
370
    25
100
AcDbLine
 10
117.0891660992501
 20
41.70490371169412
 30
0.0
 11
117.1409439091497
 21
41.7566805901945
 31
0.0
  0
LINE
  5
1EF
330
70
100
AcDbEntity
  8
0
 62
    18
420
        0
370
    25
100
AcDbLine
 10
117.0891660992501
 20
41.70490371169412
 30
0.0
 11
112.0772201363498
 21
41.70490371169412
 31
0.0
  0
LINE
  5
1F0
330
70
100
AcDbEntity
  8
0
 62
    18
420
        0
370
    25
100
AcDbLine
 10
108.6131173912498
 20
41.70490371169412
 30
0.0
 11
25.82121899174989
 21
41.70490371169412
 31
0.0
  0
LINE
  5
1F1
330
70
100
AcDbEntity
  8
0
 62
    18
420
        0
370
    25
100
AcDbLine
 10
22.35711624664984
 20
41.70490371169412
 30
0.0
 11
17.33916884104995
 21
41.70490371169412
 31
0.0
  0
LINE
  5
1F2
330
70
100
AcDbEntity
  8
0
 62
    18
420
        0
370
    25
100
AcDbLine
 10
17.28739103124982
 20
41.7566805901945
 30
0.0
 11
17.33916884104995
 21
41.70490371169412
 31
0.0
  0
SPLINE
  5
1F3
330
70
100
AcDbEntity
  8
0
 62
    18
420
        0
370
    25
100
AcDbSpline
210
0.0
220
0.0
230
1.0
 70
     8
 71
     3
 72
     8
 73
     4
 74
     0
 42
0.0000000001
 43
0.0000000001
 40
0.0
 40
0.0
 40
0.0
 40
0.0
 40
1.0
 40
1.0
 40
1.0
 40
1.0
 10
17.46416747014987
 20
41.82990351799382
 30
0.0
 10
17.39786334768997
 20
41.82990351799382
 30
0.0
 10
17.33427486946541
 20
41.80356430790287
 30
0.0
 10
17.28739077485319
 20
41.75668021329065
 30
0.0
  0
LINE
  5
1F4
330
70
100
AcDbEntity
  8
0
 62
    18
420
        0
370
    25
100
AcDbLine
 10
17.46416723175001
 20
41.82990396499431
 30
0.0
 11
22.23511671464974
 21
41.82990396499431
 31
0.0
  0
LINE
  5
1F5
330
70
100
AcDbEntity
  8
0
 62
    18
420
        0
370
    25
100
AcDbLine
 10
25.9432185236499
 20
41.82990396499431
 30
0.0
 11
108.4911178593501
 21
41.82990396499431
 31
0.0
  0
LINE
  5
1F6
330
70
100
AcDbEntity
  8
0
 62
    18
420
        0
370
    25
100
AcDbLine
 10
112.1992196683496
 20
41.82990396499431
 30
0.0
 11
116.96416770855
 21
41.82990396499431
 31
0.0
  0
LINE
  5
1F7
330
70
100
AcDbEntity
  8
0
 62
    18
420
        0
370
    25
100
AcDbLine
 10
17.33916884104995
 20
19.45490332429433
 30
0.0
 11
117.0891660992501
 21
19.45490332429433
 31
0.0
  0
LINE
  5
1F8
330
70
100
AcDbEntity
  8
0
 62
    18
420
        0
370
    25
100
AcDbLine
 10
17.33916884104995
 20
41.70490371169412
 30
0.0
 11
17.33916884104995
 21
19.45490332429433
 31
0.0
  0
LINE
  5
1F9
330
70
100
AcDbEntity
  8
0
 62
    18
420
        0
370
    25
100
AcDbLine
 10
117.0891660992501
 20
19.45490332429433
 30
0.0
 11
117.0891660992501
 21
41.70490371169412
 31
0.0
  0
SPLINE
  5
1FA
330
70
100
AcDbEntity
  8
0
 62
    18
420
        0
370
    25
100
AcDbSpline
210
0.0
220
0.0
230
1.0
 70
     8
 71
     3
 72
     8
 73
     4
 74
     0
 42
0.0000000001
 43
0.0000000001
 40
0.0
 40
0.0
 40
0.0
 40
0.0
 40
1.0
 40
1.0
 40
1.0
 40
1.0
 10
117.1409441654462
 20
19.4031268226978
 30
0.0
 10
117.1878282600584
 20
19.45001091730938
 30
0.0
 10
117.21416747015
 20
19.51359939553426
 30
0.0
 10
117.21416747015
 20
19.57990351799416
 30
0.0
  0
LINE
  5
1FB
330
70
100
AcDbEntity
  8
0
 62
    18
420
        0
370
    25
100
AcDbLine
 10
117.0891660992501
 20
19.45490332429433
 30
0.0
 11
117.1409439091497
 21
19.40312644569385
 31
0.0
  0
SPLINE
  5
1FC
330
70
100
AcDbEntity
  8
0
 62
    18
420
        0
370
    25
100
AcDbSpline
210
0.0
220
0.0
230
1.0
 70
     8
 71
     3
 72
     8
 73
     4
 74
     0
 42
0.0000000001
 43
0.0000000001
 40
0.0
 40
0.0
 40
0.0
 40
0.0
 40
1.0
 40
1.0
 40
1.0
 40
1.0
 10
117.21416747015
 20
41.57990351799429
 30
0.0
 10
117.21416747015
 20
41.64620764045419
 30
0.0
 10
117.1878282600584
 20
41.70979611867843
 30
0.0
 10
117.1409441654462
 20
41.75668021329065
 30
0.0
  0
LINE
  5
1FD
330
70
100
AcDbEntity
  8
0
 62
    18
420
        0
370
    25
100
AcDbLine
 10
117.2141682152499
 20
41.57990345839457
 30
0.0
 11
117.2141682152499
 21
19.57990357759388
 31
0.0
  0
SPLINE
  5
1FE
330
70
100
AcDbEntity
  8
0
 62
    18
420
        0
370
    25
100
AcDbSpline
210
0.0
220
0.0
230
1.0
 70
     8
 71
     3
 72
     8
 73
     4
 74
     0
 42
0.0000000001
 43
0.0000000001
 40
0.0
 40
0.0
 40
0.0
 40
0.0
 40
1.0
 40
1.0
 40
1.0
 40
1.0
 10
17.28739077485319
 20
41.75668021329065
 30
0.0
 10
17.24050668024129
 20
41.70979611867843
 30
0.0
 10
17.21416747015002
 20
41.64620764045419
 30
0.0
 10
17.21416747015002
 20
41.57990351799429
 30
0.0
  0
LINE
  5
1FF
330
70
100
AcDbEntity
  8
0
 62
    18
420
        0
370
    25
100
AcDbLine
 10
17.28739103124982
 20
19.40312644569385
 30
0.0
 11
17.33916884104995
 21
19.45490332429433
 31
0.0
  0
SPLINE
  5
200
330
70
100
AcDbEntity
  8
0
 62
    18
420
        0
370
    25
100
AcDbSpline
210
0.0
220
0.0
230
1.0
 70
     8
 71
     3
 72
     8
 73
     4
 74
     0
 42
0.0000000001
 43
0.0000000001
 40
0.0
 40
0.0
 40
0.0
 40
0.0
 40
1.0
 40
1.0
 40
1.0
 40
1.0
 10
17.21416747015002
 20
19.57990351799416
 30
0.0
 10
17.21416747015002
 20
19.51359939553426
 30
0.0
 10
17.24050668024129
 20
19.45001091730938
 30
0.0
 10
17.28739077485319
 20
19.4031268226978
 30
0.0
  0
LINE
  5
201
330
70
100
AcDbEntity
  8
0
 62
    18
420
        0
370
    25
100
AcDbLine
 10
17.21416672514995
 20
19.57990357759388
 30
0.0
 11
17.21416672514995
 21
41.57990345839457
 31
0.0
  0
SPLINE
  5
202
330
70
100
AcDbEntity
  8
0
 62
    18
420
        0
370
    25
100
AcDbSpline
210
0.0
220
0.0
230
1.0
 70
     8
 71
     3
 72
     8
 73
     4
 74
     0
 42
0.0000000001
 43
0.0000000001
 40
0.0
 40
0.0
 40
0.0
 40
0.0
 40
1.0
 40
1.0
 40
1.0
 40
1.0
 10
116.9641674701498
 20
19.32990351799399
 30
0.0
 10
117.0304715926097
 20
19.32990351799399
 30
0.0
 10
117.0940600708346
 20
19.35624272808558
 30
0.0
 10
117.1409441654462
 20
19.4031268226978
 30
0.0
  0
LINE
  5
203
330
70
100
AcDbEntity
  8
0
 62
    18
420
        0
370
    25
100
AcDbLine
 10
116.96416770855
 20
19.32990307099414
 30
0.0
 11
17.46416723175001
 21
19.32990307099414
 31
0.0
  0
SPLINE
  5
204
330
70
100
AcDbEntity
  8
0
 62
    18
420
        0
370
    25
100
AcDbSpline
210
0.0
220
0.0
230
1.0
 70
     8
 71
     3
 72
     8
 73
     4
 74
     0
 42
0.0000000001
 43
0.0000000001
 40
0.0
 40
0.0
 40
0.0
 40
0.0
 40
1.0
 40
1.0
 40
1.0
 40
1.0
 10
17.28739077485319
 20
19.4031268226978
 30
0.0
 10
17.33427486946541
 20
19.35624272808558
 30
0.0
 10
17.39786334768997
 20
19.32990351799399
 30
0.0
 10
17.46416747014987
 20
19.32990351799399
 30
0.0
  0
LINE
  5
205
330
70
100
AcDbEntity
  8
0
 62
    18
420
        0
370
    25
100
AcDbLine
 10
112.3451690916497
 20
41.82990396499431
 30
0.0
 11
112.3451690916497
 21
43.82990336149377
 31
0.0
  0
LINE
  5
206
330
70
100
AcDbEntity
  8
0
 62
    18
420
        0
370
    25
100
AcDbLine
 10
108.6131173912498
 20
37.92773362359402
 30
0.0
 11
112.0772201363498
 21
37.92773362359402
 31
0.0
  0
LINE
  5
207
330
70
100
AcDbEntity
  8
0
 62
    18
420
        0
370
    25
100
AcDbLine
 10
108.34516843605
 20
43.82990336149377
 30
0.0
 11
108.34516843605
 21
41.82990396499431
 31
0.0
  0
LINE
  5
208
330
70
100
AcDbEntity
  8
0
 62
   144
420
    29337
370
    18
100
AcDbLine
 10
112.3451690916497
 20
43.82990336149377
 30
0.0
 11
108.34516843605
 21
43.82990336149377
 31
0.0
  0
LINE
  5
209
330
70
100
AcDbEntity
  8
0
 62
   144
420
    29337
370
    18
100
AcDbLine
 10
108.4911178593501
 20
41.82990396499431
 30
0.0
 11
108.6131173912498
 21
41.82990396499431
 31
0.0
  0
LINE
  5
20A
330
70
100
AcDbEntity
  8
0
 62
   144
420
    29337
370
    18
100
AcDbLine
 10
108.6131173912498
 20
41.82990396499431
 30
0.0
 11
108.6131173912498
 21
37.92773362359402
 31
0.0
  0
LINE
  5
20B
330
70
100
AcDbEntity
  8
0
 62
   144
420
    29337
370
    18
100
AcDbLine
 10
112.0772201363498
 20
37.92773362359402
 30
0.0
 11
112.0772201363498
 21
41.82990396499431
 31
0.0
  0
LINE
  5
20C
330
70
100
AcDbEntity
  8
0
 62
   144
420
    29337
370
    18
100
AcDbLine
 10
112.0772201363498
 20
41.82990396499431
 30
0.0
 11
112.1992196683496
 21
41.82990396499431
 31
0.0
  0
LINE
  5
20D
330
70
100
AcDbEntity
  8
0
 62
    18
420
        0
370
    25
100
AcDbLine
 10
111.9657706264498
 20
37.80621511969431
 30
0.0
 11
108.7245669011497
 21
37.80621511969431
 31
0.0
  0
SPLINE
  5
20E
330
70
100
AcDbEntity
  8
0
 62
   144
420
    29337
370
    18
100
AcDbSpline
210
0.0
220
0.0
230
1.0
 70
     8
 71
     3
 72
    11
 73
     7
 74
     0
 42
0.0000000001
 43
0.0000000001
 40
0.0
 40
0.0
 40
0.0
 40
0.0
 40
1.0
 40
1.0
 40
1.0
 40
2.0
 40
2.0
 40
2.0
 40
2.0
 10
108.7245682461432
 20
37.80621511978543
 30
0.0
 10
108.6952497948983
 20
37.81223048586291
 30
0.0
 10
108.6677103022607
 20
37.82606733713713
 30
0.0
 10
108.646929249506
 20
37.84742747172147
 30
0.0
 10
108.626148196752
 20
37.8687876063058
 30
0.0
 10
108.6131181260157
 20
37.8978635910002
 30
0.0
 10
108.6131181260151
 20
37.92773340283479
 30
0.0
  0
SPLINE
  5
20F
330
70
100
AcDbEntity
  8
0
 62
   144
420
    29337
370
    18
100
AcDbSpline
210
0.0
220
0.0
230
1.0
 70
     8
 71
     3
 72
    11
 73
     7
 74
     0
 42
0.0000000001
 43
0.0000000001
 40
0.0
 40
0.0
 40
0.0
 40
0.0
 40
1.0
 40
1.0
 40
1.0
 40
2.0
 40
2.0
 40
2.0
 40
2.0
 10
112.077219741153
 20
37.92773340283479
 30
0.0
 10
112.077219741153
 20
37.89797687439443
 30
0.0
 10
112.0641671450954
 20
37.86877032843725
 30
0.0
 10
112.0434211647655
 20
37.84744037023664
 30
0.0
 10
112.022675184435
 20
37.82611041203476
 30
0.0
 10
111.994846124153
 20
37.81218084454627
 30
0.0
 10
111.9657696210255
 20
37.80621511978543
 30
0.0
  0
SPLINE
  5
210
330
70
100
AcDbEntity
  8
0
 62
   144
420
    29337
370
    18
100
AcDbSpline
210
0.0
220
0.0
230
1.0
 70
     8
 71
     3
 72
     8
 73
     4
 74
     0
 42
0.0000000001
 43
0.0000000001
 40
0.0
 40
0.0
 40
0.0
 40
0.0
 40
1.0
 40
1.0
 40
1.0
 40
1.0
 10
108.7245682461144
 20
37.80621511979248
 30
0.0
 10
109.7938317407131
 20
37.58683070214809
 30
0.0
 10
110.8965061263864
 20
37.58683070214809
 30
0.0
 10
111.9657696209851
 20
37.80621511979248
 30
0.0
  0
LINE
  5
211
330
70
100
AcDbEntity
  8
0
 62
     8
420
  8421504
370
    25
100
AcDbLine
 10
103.4641664270499
 20
44.25594246119403
 30
0.0
 11
117.2141682152499
 21
44.25594246119403
 31
0.0
  0
LINE
  5
212
330
70
100
AcDbEntity
  8
0
 62
     8
420
  8421504
370
    25
100
AcDbLine
 10
116.9774446432496
 20
44.00629492579425
 30
0.0
 11
103.7008899991497
 21
44.00629492579425
 31
0.0
  0
LINE
  5
213
330
70
100
AcDbEntity
  8
0
 62
     8
420
  8421504
370
    25
100
AcDbLine
 10
108.6567815188501
 20
43.93266083779431
 30
0.0
 11
108.6567815188501
 21
43.92381234199393
 31
0.0
  0
LINE
  5
214
330
70
100
AcDbEntity
  8
0
 62
     8
420
  8421504
370
    25
100
AcDbLine
 10
108.6567815188501
 20
43.91831101959446
 30
0.0
 11
108.6567815188501
 21
43.90974098919427
 31
0.0
  0
LINE
  5
215
330
70
100
AcDbEntity
  8
0
 62
     8
420
  8421504
370
    25
100
AcDbLine
 10
17.21416672514995
 20
44.25594246119403
 30
0.0
 11
30.96416851324979
 21
44.25594246119403
 31
0.0
  0
LINE
  5
216
330
70
100
AcDbEntity
  8
0
 62
     8
420
  8421504
370
    25
100
AcDbLine
 10
30.72744494124981
 20
44.00629492579425
 30
0.0
 11
17.45089029714992
 21
44.00629492579425
 31
0.0
  0
INSERT
  5
218
330
70
100
AcDbEntity
  8
0
100
AcDbBlockReference
  2
Block_4
 10
0.0
 20
0.0
 30
0.0
  0
SPLINE
  5
223
330
70
100
AcDbEntity
  8
0
 62
    18
420
        0
370
    25
100
AcDbSpline
210
0.0
220
0.0
230
1.0
 70
     8
 71
     3
 72
    32
 73
    28
 74
     0
 42
0.0000000001
 43
0.0000000001
 40
0.0
 40
0.0
 40
0.0
 40
0.0
 40
1.0
 40
1.0
 40
1.0
 40
2.0
 40
2.0
 40
2.0
 40
3.0
 40
3.0
 40
3.0
 40
4.0
 40
4.0
 40
4.0
 40
5.0
 40
5.0
 40
5.0
 40
6.0
 40
6.0
 40
6.0
 40
7.0
 40
7.0
 40
7.0
 40
8.0
 40
8.0
 40
8.0
 40
9.0
 40
9.0
 40
9.0
 40
9.0
 10
182.9014416984873
 20
-34.33641179898454
 30
0.0
 10
182.89329981055
 20
-34.34627414622035
 30
0.0
 10
182.8851579226133
 20
-34.35613649345615
 30
0.0
 10
182.8771631381115
 20
-34.36616493571629
 30
0.0
 10
182.7815047207006
 20
-34.48615627700845
 30
0.0
 10
182.7069061727158
 20
-34.62992639354595
 30
0.0
 10
182.637869137335
 20
-34.7783064282576
 30
0.0
 10
182.5681784294935
 20
-34.92809138920719
 30
0.0
 10
182.5041550504585
 20
-35.08257397900648
 30
0.0
 10
182.4502293921305
 20
-35.2457666266224
 30
0.0
 10
182.3958476175891
 20
-35.41033959697982
 30
0.0
 10
182.3517351040749
 20
-35.58377059182291
 30
0.0
 10
182.3168392264053
 20
-35.76376953595777
 30
0.0
 10
182.2817409570674
 20
-35.9448124511593
 30
0.0
 10
182.2559665442472
 20
-36.13249972313584
 30
0.0
 10
182.239701932552
 20
-36.32614049666286
 30
0.0
 10
182.2259160502569
 20
-36.49027038560745
 30
0.0
 10
182.218962251507
 20
-36.65867742182888
 30
0.0
 10
182.2191711489712
 20
-36.83071975119355
 30
0.0
 10
182.21930178338
 20
-36.93830673510134
 30
0.0
 10
182.2222334968656
 20
-37.04731535455681
 30
0.0
 10
182.2271698305651
 20
-37.15740315599656
 30
0.0
 10
182.2365198385853
 20
-37.36592265430368
 30
0.0
 10
182.2530618030895
 20
-37.57831392333905
 30
0.0
 10
182.2859159519443
 20
-37.79597571535396
 30
0.0
 10
182.3024100213605
 20
-37.90525045939508
 30
0.0
 10
182.3230154679079
 20
-38.01585360355682
 30
0.0
 10
182.343620914456
 20
-38.12645674771855
 30
0.0
  0
SPLINE
  5
224
330
70
100
AcDbEntity
  8
0
 62
    18
420
        0
370
    25
100
AcDbSpline
210
0.0
220
0.0
230
1.0
 70
     8
 71
     3
 72
    20
 73
    16
 74
     0
 42
0.0000000001
 43
0.0000000001
 40
0.0
 40
0.0
 40
0.0
 40
0.0
 40
1.0
 40
1.0
 40
1.0
 40
2.0
 40
2.0
 40
2.0
 40
3.0
 40
3.0
 40
3.0
 40
4.0
 40
4.0
 40
4.0
 40
5.0
 40
5.0
 40
5.0
 40
5.0
 10
187.4582733486989
 20
-45.38036743875681
 30
0.0
 10
187.509297534772
 20
-45.40661719623333
 30
0.0
 10
187.5603217208457
 20
-45.43286695370984
 30
0.0
 10
187.6112848480398
 20
-45.45719144574337
 30
0.0
 10
187.7882907102423
 20
-45.54167561934293
 30
0.0
 10
187.9645600059046
 20
-45.60293489700426
 30
0.0
 10
188.1392722487703
 20
-45.65492257900434
 30
0.0
 10
188.3138013273049
 20
-45.70685575830484
 30
0.0
 10
188.4867766160894
 20
-45.74953677201285
 30
0.0
 10
188.6578576095605
 20
-45.78053247263747
 30
0.0
 10
188.8283452590314
 20
-45.81142067380996
 30
0.0
 10
188.9969517300132
 20
-45.83070447547059
 30
0.0
 10
189.160400167592
 20
-45.8317528080899
 30
0.0
 10
189.2833254757916
 20
-45.83254123171928
 30
0.0
 10
189.4033333219449
 20
-45.82301539705023
 30
0.0
 10
189.5233411680983
 20
-45.81348956238055
 30
0.0
  0
LINE
  5
225
330
70
100
AcDbEntity
  8
0
 62
    18
420
        0
370
    25
100
AcDbLine
 10
190.5909741829499
 20
-45.48915715280598
 30
0.0
 11
191.3616938453501
 21
-45.04423016220579
 31
0.0
  0
LINE
  5
226
330
70
100
AcDbEntity
  8
0
 62
    18
420
        0
370
    25
100
AcDbLine
 10
184.4872530936499
 20
-33.13605865580598
 30
0.0
 11
183.7165334312497
 21
-33.58098564640553
 31
0.0
  0
LINE
  5
227
330
70
100
AcDbEntity
  8
0
 62
    18
420
        0
370
    25
100
AcDbLine
 10
124.8646208282502
 20
-2.769285103805882
 30
0.0
 11
120.6911565827496
 21
-5.17857472950587
 31
0.0
  0
SPLINE
  5
228
330
70
100
AcDbEntity
  8
0
 62
    18
420
        0
370
    25
100
AcDbSpline
210
0.0
220
0.0
230
1.0
 70
     8
 71
     3
 72
    14
 73
    10
 74
     0
 42
0.0000000001
 43
0.0000000001
 40
0.0
 40
0.0
 40
0.0
 40
0.0
 40
1.0
 40
1.0
 40
1.0
 40
2.0
 40
2.0
 40
2.0
 40
3.0
 40
3.0
 40
3.0
 40
3.0
 10
120.8308684465283
 20
-5.116989070903493
 30
0.0
 10
120.8286340879963
 20
-5.117361928312417
 30
0.0
 10
120.826399729465
 20
-5.117734785721341
 30
0.0
 10
120.8241736830597
 20
-5.118130670590774
 30
0.0
 10
120.740979257135
 20
-5.132926145837089
 30
0.0
 10
120.6693948304362
 20
-5.179885327331954
 30
0.0
 10
120.6064028924381
 20
-5.235502450289771
 30
0.0
 10
120.5419419961921
 20
-5.292416552418165
 30
0.0
 10
120.4864790112706
 20
-5.358397106913951
 30
0.0
 10
120.431016026349
 20
-5.424377661409736
 30
0.0
  0
SPLINE
  5
229
330
70
100
AcDbEntity
  8
0
 62
    18
420
        0
370
    25
100
AcDbSpline
210
0.0
220
0.0
230
1.0
 70
     8
 71
     3
 72
    32
 73
    28
 74
     0
 42
0.0000000001
 43
0.0000000001
 40
0.0
 40
0.0
 40
0.0
 40
0.0
 40
1.0
 40
1.0
 40
1.0
 40
2.0
 40
2.0
 40
2.0
 40
3.0
 40
3.0
 40
3.0
 40
4.0
 40
4.0
 40
4.0
 40
5.0
 40
5.0
 40
5.0
 40
6.0
 40
6.0
 40
6.0
 40
7.0
 40
7.0
 40
7.0
 40
8.0
 40
8.0
 40
8.0
 40
9.0
 40
9.0
 40
9.0
 40
9.0
 10
121.9134820318817
 20
0.8711879017159457
 30
0.0
 10
121.9053401439443
 20
0.8613255544801395
 30
0.0
 10
121.8971982560063
 20
0.8514632072443331
 30
0.0
 10
121.8892034715058
 20
0.8414347649835562
 30
0.0
 10
121.7935450541116
 20
0.7214434236869108
 30
0.0
 10
121.7189465064348
 20
0.5776733070544342
 30
0.0
 10
121.6499094707294
 20
0.4292932724422544
 30
0.0
 10
121.5802187625606
 20
0.2795083115927632
 30
0.0
 10
121.5161953825528
 20
0.1250257220912215
 30
0.0
 10
121.4622697255255
 20
-0.0381669259225498
 30
0.0
 10
121.4078879522951
 20
-0.2027398966810316
 30
0.0
 10
121.3637754424045
 20
-0.3761708926323324
 30
0.0
 10
121.3288795597997
 20
-0.5561698352579234
 30
0.0
 10
121.2937812854988
 20
-0.7372127489405516
 30
0.0
 10
121.268006859058
 20
-0.9249000167498948
 30
0.0
 10
121.2517422659463
 20
-1.11854079596237
 30
0.0
 10
121.237956399403
 20
-1.282670689726122
 30
0.0
 10
121.2310026395413
 20
-1.451077737844649
 30
0.0
 10
121.2312114823655
 20
-1.623120050493704
 30
0.0
 10
121.2313420826058
 20
-1.73070702394757
 30
0.0
 10
121.2342737253473
 20
-1.839715621760461
 30
0.0
 10
121.2392101639595
 20
-1.949803455296713
 30
0.0
 10
121.2485603706978
 20
-2.158323014397756
 30
0.0
 10
121.2651031641231
 20
-2.370714537026811
 30
0.0
 10
121.2979562853387
 20
-2.58837601465411
 30
0.0
 10
121.31444980117
 20
-2.697650351285001
 30
0.0
 10
121.3350542074213
 20
-2.808252938811964
 30
0.0
 10
121.3556586136726
 20
-2.918855526339569
 30
0.0
  0
LINE
  5
22A
330
70
100
AcDbEntity
  8
0
 62
    18
420
        0
370
    25
100
AcDbLine
 10
123.4992934270501
 20
2.071541044893866
 30
0.0
 11
122.7285737646499
 21
1.626614054294321
 31
0.0
  0
LINE
  5
22B
330
70
100
AcDbEntity
  8
0
 62
    18
420
        0
370
    25
100
AcDbLine
 10
190.1960911396496
 20
-43.79985317940571
 30
0.0
 11
190.1960911396496
 21
-42.65959762960584
 31
0.0
  0
LINE
  5
22C
330
70
100
AcDbEntity
  8
0
 62
    18
420
        0
370
    25
100
AcDbLine
 10
103.7826170549496
 20
-11.02378381350596
 30
0.0
 11
103.7826170549496
 21
-12.16403936330582
 31
0.0
  0
LINE
  5
22D
330
70
100
AcDbEntity
  8
0
 62
    18
420
        0
370
    25
100
AcDbLine
 10
185.8568241556497
 20
-37.9793346177061
 30
0.0
 11
181.6833599102499
 21
-40.38862424340609
 31
0.0
  0
SPLINE
  5
22E
330
70
100
AcDbEntity
  8
0
 62
    18
420
        0
370
    25
100
AcDbSpline
210
0.0
220
0.0
230
1.0
 70
     8
 71
     3
 72
    14
 73
    10
 74
     0
 42
0.0000000001
 43
0.0000000001
 40
0.0
 40
0.0
 40
0.0
 40
0.0
 40
1.0
 40
1.0
 40
1.0
 40
2.0
 40
2.0
 40
2.0
 40
3.0
 40
3.0
 40
3.0
 40
3.0
 10
181.8230717739432
 20
-40.32703858484286
 30
0.0
 10
181.8208374151475
 20
-40.32741144172687
 30
0.0
 10
181.8186030563525
 20
-40.32778429861024
 30
0.0
 10
181.8163770104746
 20
-40.32818018453077
 30
0.0
 10
181.7331831855972
 20
-40.34297559564119
 30
0.0
 10
181.6616003023952
 20
-40.38993646389653
 30
0.0
 10
181.5986088540307
 20
-40.44555348490827
 30
0.0
 10
181.5341476683432
 20
-40.50246818066345
 30
0.0
 10
181.4786835110535
 20
-40.56844767800628
 30
0.0
 10
181.4232193537639
 20
-40.63442717534974
 30
0.0
  0
SPLINE
  5
22F
330
70
100
AcDbEntity
  8
0
 62
    18
420
        0
370
    25
100
AcDbSpline
210
0.0
220
0.0
230
1.0
 70
     8
 71
     3
 72
     8
 73
     4
 74
     0
 42
0.0000000001
 43
0.0000000001
 40
0.0
 40
0.0
 40
0.0
 40
0.0
 40
1.0
 40
1.0
 40
1.0
 40
1.0
 10
184.6832978424558
 20
-33.27409530393083
 30
0.0
 10
183.9854632065655
 20
-33.34300242881505
 30
0.0
 10
183.3525609774213
 20
-33.7133451563537
 30
0.0
 10
182.9506409001715
 20
-34.28795948128042
 30
0.0
  0
SPLINE
  5
230
330
70
100
AcDbEntity
  8
0
 62
    18
420
        0
370
    25
100
AcDbSpline
210
0.0
220
0.0
230
1.0
 70
     8
 71
     3
 72
     8
 73
     4
 74
     0
 42
0.0000000001
 43
0.0000000001
 40
0.0
 40
0.0
 40
0.0
 40
0.0
 40
1.0
 40
1.0
 40
1.0
 40
1.0
 10
189.5914405970936
 20
-45.79926010369226
 30
0.0
 10
190.3145822922964
 20
-45.73929157951573
 30
0.0
 10
190.9714547306657
 20
-45.35444377104464
 30
0.0
 10
191.3773263748671
 20
-44.75294701821444
 30
0.0
  0
LWPOLYLINE
  5
231
330
70
100
AcDbEntity
  8
0
 62
    18
420
        0
370
    25
100
AcDbPolyline
 90
       22
 70
     0
 43
0.0
 10
192.7858332223498
 20
-41.89654765840607
 10
192.75414406065
 20
-41.23833825020578
 10
192.65949540975
 20
-40.55212557060585
 10
192.5031174309498
 20
-39.846852737906
 10
192.28704897785
 20
-39.13171469780606
 10
192.0141086210497
 20
-38.41603560160567
 10
191.6878551351499
 20
-37.70914485440561
 10
191.3125374491501
 20
-37.02025620600603
 10
190.8930525000497
 20
-36.35835254500566
 10
190.4348662073498
 20
-35.73206157070572
 10
189.9439555209497
 20
-35.149548952906
 10
189.4267162251497
 20
-34.61840731340599
 10
188.8898944498498
 20
-34.14556307570563
 10
188.3404839377496
 20
-33.73717685390555
 10
187.7856522872495
 20
-33.39857577840572
 10
187.2326303170501
 20
-33.13417365790562
 10
186.6886277724495
 20
-32.94741623370601
 10
186.16073586065
 20
-32.840738603006
 10
185.6558350547496
 20
-32.81553024630595
 10
185.1805134339497
 20
-32.87212362830554
 10
184.7409613166496
 20
-33.00977671670586
 10
184.4872530936499
 20
-33.13605865580598
  0
LWPOLYLINE
  5
232
330
70
100
AcDbEntity
  8
0
 62
    18
420
        0
370
    25
100
AcDbPolyline
 90
        8
 70
     0
 43
0.0
 10
191.3616938453501
 20
-45.04423016220579
 10
191.6878551351499
 20
-44.81625185150566
 10
192.0141086210497
 20
-44.48604569390593
 10
192.28704897785
 20
-44.08549654070581
 10
192.5031174309498
 20
-43.61982587400599
 10
192.65949540975
 20
-43.09510340270612
 10
192.75414406065
 20
-42.51816953920578
 10
192.7858332223498
 20
-41.89654765840607
  0
SPLINE
  5
233
330
70
100
AcDbEntity
  8
0
 62
    18
420
        0
370
    25
100
AcDbSpline
210
0.0
220
0.0
230
1.0
 70
     8
 71
     3
 72
     8
 73
     4
 74
     0
 42
0.0000000001
 43
0.0000000001
 40
0.0
 40
0.0
 40
0.0
 40
0.0
 40
1.0
 40
1.0
 40
1.0
 40
1.0
 10
185.3296237156499
 20
-35.37867549866233
 30
0.0
 10
185.4593718747828
 20
-35.45631528515793
 30
0.0
 10
185.5892728847962
 20
-35.53369934824954
 30
0.0
 10
185.7193259892378
 20
-35.61082723730723
 30
0.0
  0
SPLINE
  5
234
330
70
100
AcDbEntity
  8
0
 62
    18
420
        0
370
    25
100
AcDbSpline
210
0.0
220
0.0
230
1.0
 70
     8
 71
     3
 72
    23
 73
    19
 74
     0
 42
0.0000000001
 43
0.0000000001
 40
0.0
 40
0.0
 40
0.0
 40
0.0
 40
1.0
 40
1.0
 40
1.0
 40
2.0
 40
2.0
 40
2.0
 40
3.0
 40
3.0
 40
3.0
 40
4.0
 40
4.0
 40
4.0
 40
5.0
 40
5.0
 40
5.0
 40
6.0
 40
6.0
 40
6.0
 40
6.0
 10
185.9680067159283
 20
-35.50442862231181
 30
0.0
 10
185.9674666730264
 20
-35.52229331926588
 30
0.0
 10
185.9655174273782
 20
-35.53905531583367
 30
0.0
 10
185.9619467675855
 20
-35.55454950311611
 30
0.0
 10
185.9583761077928
 20
-35.5700436903979
 30
0.0
 10
185.9530780315983
 20
-35.58437277700742
 30
0.0
 10
185.9462551960791
 20
-35.5965635706795
 30
0.0
 10
185.9326095250408
 20
-35.62094515802302
 30
0.0
 10
185.9122822873892
 20
-35.63756494243043
 30
0.0
 10
185.8882255008445
 20
-35.64563853757191
 30
0.0
 10
185.8761971075715
 20
-35.64967533514199
 30
0.0
 10
185.8631125922108
 20
-35.65169375163248
 30
0.0
 10
185.8496649084356
 20
-35.6518911846435
 30
0.0
 10
185.8362172246605
 20
-35.65208861765389
 30
0.0
 10
185.8222813986562
 20
-35.65052111769456
 30
0.0
 10
185.8079074005005
 20
-35.64736752148788
 30
0.0
 10
185.7791594041905
 20
-35.64106032907452
 30
0.0
 10
185.7492745425472
 20
-35.62858809292425
 30
0.0
 10
185.7193272167394
 20
-35.61082784823487
 30
0.0
  0
SPLINE
  5
235
330
70
100
AcDbEntity
  8
0
 62
    18
420
        0
370
    25
100
AcDbSpline
210
0.0
220
0.0
230
1.0
 70
     8
 71
     3
 72
     8
 73
     4
 74
     0
 42
0.0000000001
 43
0.0000000001
 40
0.0
 40
0.0
 40
0.0
 40
0.0
 40
1.0
 40
1.0
 40
1.0
 40
1.0
 10
186.2580331774923
 20
-35.09227714960374
 30
0.0
 10
186.1638077378566
 20
-35.31570677251755
 30
0.0
 10
186.0702557974057
 20
-35.53941982818017
 30
0.0
 10
185.9773786304012
 20
-35.76341326942083
 30
0.0
  0
SPLINE
  5
236
330
70
100
AcDbEntity
  8
0
 62
    18
420
        0
370
    25
100
AcDbSpline
210
0.0
220
0.0
230
1.0
 70
     8
 71
     3
 72
     8
 73
     4
 74
     0
 42
0.0000000001
 43
0.0000000001
 40
0.0
 40
0.0
 40
0.0
 40
0.0
 40
1.0
 40
1.0
 40
1.0
 40
1.0
 10
186.2258105947376
 20
-35.7904037089107
 30
0.0
 10
186.2992564220359
 20
-35.83346196728353
 30
0.0
 10
186.3727493746369
 20
-35.87643979207122
 30
0.0
 10
186.4462893203825
 20
-35.91933710598948
 30
0.0
  0
SPLINE
  5
237
330
70
100
AcDbEntity
  8
0
 62
    18
420
        0
370
    25
100
AcDbSpline
210
0.0
220
0.0
230
1.0
 70
     8
 71
     3
 72
     8
 73
     4
 74
     0
 42
0.0000000001
 43
0.0000000001
 40
0.0
 40
0.0
 40
0.0
 40
0.0
 40
1.0
 40
1.0
 40
1.0
 40
1.0
 10
186.4721036064333
 20
-36.05343709375314
 30
0.0
 10
186.5460715103253
 20
-36.0965555013279
 30
0.0
 10
186.6200866891865
 20
-36.13959275942909
 30
0.0
 10
186.6941490094454
 20
-36.18254879038867
 30
0.0
  0
SPLINE
  5
238
330
70
100
AcDbEntity
  8
0
 62
    18
420
        0
370
    25
100
AcDbSpline
210
0.0
220
0.0
230
1.0
 70
     8
 71
     3
 72
     8
 73
     4
 74
     0
 42
0.0000000001
 43
0.0000000001
 40
0.0
 40
0.0
 40
0.0
 40
0.0
 40
1.0
 40
1.0
 40
1.0
 40
1.0
 10
186.8386079912949
 20
-36.26619789914758
 30
0.0
 10
186.9102770316583
 20
-36.30762996330712
 30
0.0
 10
186.9819897147524
 20
-36.34898648847945
 30
0.0
 10
187.0537459211313
 20
-36.39026740578138
 30
0.0
  0
SPLINE
  5
239
330
70
100
AcDbEntity
  8
0
 62
    18
420
        0
370
    25
100
AcDbSpline
210
0.0
220
0.0
230
1.0
 70
     8
 71
     3
 72
     8
 73
     4
 74
     0
 42
0.0000000001
 43
0.0000000001
 40
0.0
 40
0.0
 40
0.0
 40
0.0
 40
1.0
 40
1.0
 40
1.0
 40
1.0
 10
186.6621891860597
 20
-35.54291934315973
 30
0.0
 10
186.7271992426954
 20
-35.58066841080269
 30
0.0
 10
186.7922454697652
 20
-35.61835515265255
 30
0.0
 10
186.8573277776251
 20
-35.65597951677084
 30
0.0
  0
SPLINE
  5
23A
330
70
100
AcDbEntity
  8
0
 62
    18
420
        0
370
    25
100
AcDbSpline
210
0.0
220
0.0
230
1.0
 70
     8
 71
     3
 72
     8
 73
     4
 74
     0
 42
0.0000000001
 43
0.0000000001
 40
0.0
 40
0.0
 40
0.0
 40
0.0
 40
1.0
 40
1.0
 40
1.0
 40
1.0
 10
187.3552420847961
 20
-35.72743419103058
 30
0.0
 10
187.3457129236016
 20
-36.00103912011966
 30
0.0
 10
187.3370868216234
 20
-36.27467475509109
 30
0.0
 10
187.3293639198121
 20
-36.54833662478166
 30
0.0
  0
SPLINE
  5
23B
330
70
100
AcDbEntity
  8
0
 62
    18
420
        0
370
    25
100
AcDbSpline
210
0.0
220
0.0
230
1.0
 70
     8
 71
     3
 72
     8
 73
     4
 74
     0
 42
0.0000000001
 43
0.0000000001
 40
0.0
 40
0.0
 40
0.0
 40
0.0
 40
1.0
 40
1.0
 40
1.0
 40
1.0
 10
187.5544182127153
 20
-36.37511360032225
 30
0.0
 10
187.6220720913613
 20
-36.41360509590625
 30
0.0
 10
187.6897634744664
 20
-36.45203063504677
 30
0.0
 10
187.7574922655698
 20
-36.49039016298698
 30
0.0
  0
SPLINE
  5
23C
330
70
100
AcDbEntity
  8
0
 62
    18
420
        0
370
    25
100
AcDbSpline
210
0.0
220
0.0
230
1.0
 70
     8
 71
     3
 72
     8
 73
     4
 74
     0
 42
0.0000000001
 43
0.0000000001
 40
0.0
 40
0.0
 40
0.0
 40
0.0
 40
1.0
 40
1.0
 40
1.0
 40
1.0
 10
187.7487678679017
 20
-36.78699458695171
 30
0.0
 10
187.8211845854108
 20
-36.82800871385198
 30
0.0
 10
187.8936440574724
 20
-36.86894730510188
 30
0.0
 10
187.96614616589
 20
-36.9098102939217
 30
0.0
  0
LINE
  5
23D
330
70
100
AcDbEntity
  8
0
 62
   144
420
    29337
370
    18
100
AcDbLine
 10
187.9748712221499
 20
-36.61320548980613
 30
0.0
 11
188.0477582697499
 21
-36.65425202700556
 31
0.0
  0
SPLINE
  5
23E
330
70
100
AcDbEntity
  8
0
 62
   144
420
    29337
370
    18
100
AcDbSpline
210
0.0
220
0.0
230
1.0
 70
     8
 71
     3
 72
     8
 73
     4
 74
     0
 42
0.0000000001
 43
0.0000000001
 40
0.0
 40
0.0
 40
0.0
 40
0.0
 40
1.0
 40
1.0
 40
1.0
 40
1.0
 10
187.9748712221479
 20
-36.61320548977918
 30
0.0
 10
187.9718446381951
 20
-36.71207024450219
 30
0.0
 10
187.9689362840529
 20
-36.81093858325745
 30
0.0
 10
187.9661461659606
 20
-36.90981029396277
 30
0.0
  0
SPLINE
  5
23F
330
70
100
AcDbEntity
  8
0
 62
   144
420
    29337
370
    18
100
AcDbSpline
210
0.0
220
0.0
230
1.0
 70
     8
 71
     3
 72
     8
 73
     4
 74
     0
 42
0.0000000001
 43
0.0000000001
 40
0.0
 40
0.0
 40
0.0
 40
0.0
 40
1.0
 40
1.0
 40
1.0
 40
1.0
 10
187.7574922655505
 20
-36.49039016285929
 30
0.0
 10
187.7544660452903
 20
-36.58925479548431
 30
0.0
 10
187.7515579106669
 20
-36.68812300737759
 30
0.0
 10
187.7487678679043
 20
-36.786994586987
 30
0.0
  0
SPLINE
  5
240
330
70
100
AcDbEntity
  8
0
 62
   144
420
    29337
370
    18
100
AcDbSpline
210
0.0
220
0.0
230
1.0
 70
     8
 71
     3
 72
     8
 73
     4
 74
     0
 42
0.0000000001
 43
0.0000000001
 40
0.0
 40
0.0
 40
0.0
 40
0.0
 40
1.0
 40
1.0
 40
1.0
 40
1.0
 10
187.5544182126614
 20
-36.37511360023498
 30
0.0
 10
187.5513916071956
 20
-36.47397822128696
 30
0.0
 10
187.5484834725588
 20
-36.57284643364484
 30
0.0
 10
187.5456938150158
 20
-36.6717180243428
 30
0.0
  0
SPLINE
  5
241
330
70
100
AcDbEntity
  8
0
 62
   144
420
    29337
370
    18
100
AcDbSpline
210
0.0
220
0.0
230
1.0
 70
     8
 71
     3
 72
     8
 73
     4
 74
     0
 42
0.0000000001
 43
0.0000000001
 40
0.0
 40
0.0
 40
0.0
 40
0.0
 40
1.0
 40
1.0
 40
1.0
 40
1.0
 10
187.3293639197588
 20
-36.54833662475791
 30
0.0
 10
187.4014305671752
 20
-36.58953966216674
 30
0.0
 10
187.4735405721987
 20
-36.63066681810651
 30
0.0
 10
187.5456938149503
 20
-36.67171802420356
 30
0.0
  0
SPLINE
  5
242
330
70
100
AcDbEntity
  8
0
 62
   144
420
    29337
370
    18
100
AcDbSpline
210
0.0
220
0.0
230
1.0
 70
     8
 71
     3
 72
     8
 73
     4
 74
     0
 42
0.0000000001
 43
0.0000000001
 40
0.0
 40
0.0
 40
0.0
 40
0.0
 40
1.0
 40
1.0
 40
1.0
 40
1.0
 10
187.3552420848385
 20
-35.72743419100748
 30
0.0
 10
187.4273090724093
 20
-35.76863689082613
 30
0.0
 10
187.4994192967013
 20
-35.809763919902
 30
0.0
 10
187.5715726384928
 20
-35.85081521023745
 30
0.0
  0
SPLINE
  5
243
330
70
100
AcDbEntity
  8
0
 62
   144
420
    29337
370
    18
100
AcDbSpline
210
0.0
220
0.0
230
1.0
 70
     8
 71
     3
 72
     8
 73
     4
 74
     0
 42
0.0000000001
 43
0.0000000001
 40
0.0
 40
0.0
 40
0.0
 40
0.0
 40
1.0
 40
1.0
 40
1.0
 40
1.0
 10
187.5715726385917
 20
-35.85081521025414
 30
0.0
 10
187.5682585325961
 20
-35.94597692137381
 30
0.0
 10
187.5650536138804
 20
-36.04114240369074
 30
0.0
 10
187.5619578887734
 20
-36.13631146929423
 30
0.0
  0
SPLINE
  5
244
330
70
100
AcDbEntity
  8
0
 62
   144
420
    29337
370
    18
100
AcDbSpline
210
0.0
220
0.0
230
1.0
 70
     8
 71
     3
 72
     8
 73
     4
 74
     0
 42
0.0000000001
 43
0.0000000001
 40
0.0
 40
0.0
 40
0.0
 40
0.0
 40
1.0
 40
1.0
 40
1.0
 40
1.0
 10
187.5619578887972
 20
-36.13631146933209
 30
0.0
 10
187.6296115768406
 20
-36.1748033003033
 30
0.0
 10
187.6973029602736
 20
-36.21322883963055
 30
0.0
 10
187.765031941651
 20
-36.25158803199618
 30
0.0
  0
SPLINE
  5
245
330
70
100
AcDbEntity
  8
0
 62
   144
420
    29337
370
    18
100
AcDbSpline
210
0.0
220
0.0
230
1.0
 70
     8
 71
     3
 72
     8
 73
     4
 74
     0
 42
0.0000000001
 43
0.0000000001
 40
0.0
 40
0.0
 40
0.0
 40
0.0
 40
1.0
 40
1.0
 40
1.0
 40
1.0
 10
187.7746473500032
 20
-35.96609139269999
 30
0.0
 10
187.771333550899
 20
-36.06125324833286
 30
0.0
 10
187.7681284126882
 20
-36.1564188567892
 30
0.0
 10
187.7650319416395
 20
-36.25158803194035
 30
0.0
  0
SPLINE
  5
246
330
70
100
AcDbEntity
  8
0
 62
   144
420
    29337
370
    18
100
AcDbSpline
210
0.0
220
0.0
230
1.0
 70
     8
 71
     3
 72
     8
 73
     4
 74
     0
 42
0.0000000001
 43
0.0000000001
 40
0.0
 40
0.0
 40
0.0
 40
0.0
 40
1.0
 40
1.0
 40
1.0
 40
1.0
 10
187.7746473499731
 20
-35.96609139283988
 30
0.0
 10
187.8470642157455
 20
-36.00710551947706
 30
0.0
 10
187.9195239074722
 20
-36.04804398408765
 30
0.0
 10
187.9920263065557
 20
-36.08890671966801
 30
0.0
  0
SPLINE
  5
247
330
70
100
AcDbEntity
  8
0
 62
   144
420
    29337
370
    18
100
AcDbSpline
210
0.0
220
0.0
230
1.0
 70
     8
 71
     3
 72
     8
 73
     4
 74
     0
 42
0.0000000001
 43
0.0000000001
 40
0.0
 40
0.0
 40
0.0
 40
0.0
 40
1.0
 40
1.0
 40
1.0
 40
1.0
 10
187.9920263065493
 20
-36.08890671970779
 30
0.0
 10
187.988701702455
 20
-36.18437399581402
 30
0.0
 10
187.9854866860485
 20
-36.27984505677285
 30
0.0
 10
187.9823812636846
 20
-36.37531971388944
 30
0.0
  0
LINE
  5
248
330
70
100
AcDbEntity
  8
0
 62
   144
420
    29337
370
    18
100
AcDbLine
 10
187.98238126375
 20
-36.37531971380602
 30
0.0
 11
188.05526831135
 21
-36.4163662510061
 31
0.0
  0
SPLINE
  5
249
330
70
100
AcDbEntity
  8
0
 62
   144
420
    29337
370
    18
100
AcDbSpline
210
0.0
220
0.0
230
1.0
 70
     8
 71
     3
 72
     8
 73
     4
 74
     0
 42
0.0000000001
 43
0.0000000001
 40
0.0
 40
0.0
 40
0.0
 40
0.0
 40
1.0
 40
1.0
 40
1.0
 40
1.0
 10
188.0649133542469
 20
-36.12995325684113
 30
0.0
 10
188.061588750152
 20
-36.22542053297303
 30
0.0
 10
188.0583737337448
 20
-36.32089159395752
 30
0.0
 10
188.0552683113796
 20
-36.41636625109978
 30
0.0
  0
SPLINE
  5
24A
330
70
100
AcDbEntity
  8
0
 62
   144
420
    29337
370
    18
100
AcDbSpline
210
0.0
220
0.0
230
1.0
 70
     8
 71
     3
 72
     8
 73
     4
 74
     0
 42
0.0000000001
 43
0.0000000001
 40
0.0
 40
0.0
 40
0.0
 40
0.0
 40
1.0
 40
1.0
 40
1.0
 40
1.0
 10
188.0649133541814
 20
-36.12995325684947
 30
0.0
 10
188.1363447724209
 20
-36.17014683129158
 30
0.0
 10
188.2078173038629
 20
-36.21026729622994
 30
0.0
 10
188.2793308362159
 20
-36.25031458863047
 30
0.0
  0
SPLINE
  5
24B
330
70
100
AcDbEntity
  8
0
 62
   144
420
    29337
370
    18
100
AcDbSpline
210
0.0
220
0.0
230
1.0
 70
     8
 71
     3
 72
     8
 73
     4
 74
     0
 42
0.0000000001
 43
0.0000000001
 40
0.0
 40
0.0
 40
0.0
 40
0.0
 40
1.0
 40
1.0
 40
1.0
 40
1.0
 10
188.2793308361934
 20
-36.25031458859453
 30
0.0
 10
188.2760058697509
 20
-36.34578198629567
 30
0.0
 10
188.2727906338237
 20
-36.4412531741492
 30
0.0
 10
188.269685134783
 20
-36.53672796297517
 30
0.0
  0
SPLINE
  5
24C
330
70
100
AcDbEntity
  8
0
 62
   144
420
    29337
370
    18
100
AcDbSpline
210
0.0
220
0.0
230
1.0
 70
     8
 71
     3
 72
     8
 73
     4
 74
     0
 42
0.0000000001
 43
0.0000000001
 40
0.0
 40
0.0
 40
0.0
 40
0.0
 40
1.0
 40
1.0
 40
1.0
 40
1.0
 10
188.2696851347337
 20
-36.53672796287763
 30
0.0
 10
188.3520550813628
 20
-36.58285540705514
 30
0.0
 10
188.4344792275034
 20
-36.62888600020818
 30
0.0
 10
188.5169574022814
 20
-36.67481964690904
 30
0.0
  0
SPLINE
  5
24D
330
70
100
AcDbEntity
  8
0
 62
   144
420
    29337
370
    18
100
AcDbSpline
210
0.0
220
0.0
230
1.0
 70
     8
 71
     3
 72
     8
 73
     4
 74
     0
 42
0.0000000001
 43
0.0000000001
 40
0.0
 40
0.0
 40
0.0
 40
0.0
 40
1.0
 40
1.0
 40
1.0
 40
1.0
 10
188.5169574023013
 20
-36.67481964687695
 30
0.0
 10
188.5143778054952
 20
-36.75411261356066
 30
0.0
 10
188.5118742376399
 20
-36.83340803540095
 30
0.0
 10
188.5094467021876
 20
-36.91270580306705
 30
0.0
  0
SPLINE
  5
24E
330
70
100
AcDbEntity
  8
0
 62
   144
420
    29337
370
    18
100
AcDbSpline
210
0.0
220
0.0
230
1.0
 70
     8
 71
     3
 72
     8
 73
     4
 74
     0
 42
0.0000000001
 43
0.0000000001
 40
0.0
 40
0.0
 40
0.0
 40
0.0
 40
1.0
 40
1.0
 40
1.0
 40
1.0
 10
188.262175093147
 20
-36.77461373893228
 30
0.0
 10
188.3445448906433
 20
-36.82074118348134
 30
0.0
 10
188.4269688171413
 20
-36.86677190328587
 30
0.0
 10
188.5094467021941
 20
-36.91270580315817
 30
0.0
  0
SPLINE
  5
24F
330
70
100
AcDbEntity
  8
0
 62
   144
420
    29337
370
    18
100
AcDbSpline
210
0.0
220
0.0
230
1.0
 70
     8
 71
     3
 72
     8
 73
     4
 74
     0
 42
0.0000000001
 43
0.0000000001
 40
0.0
 40
0.0
 40
0.0
 40
0.0
 40
1.0
 40
1.0
 40
1.0
 40
1.0
 10
188.2621750932002
 20
-36.77461373897142
 30
0.0
 10
188.2591480508523
 20
-36.87347861300683
 30
0.0
 10
188.2562394771861
 20
-36.97234707879411
 30
0.0
 10
188.2534493784667
 20
-37.07121892338415
 30
0.0
  0
SPLINE
  5
250
330
70
100
AcDbEntity
  8
0
 62
   144
420
    29337
370
    18
100
AcDbSpline
210
0.0
220
0.0
230
1.0
 70
     8
 71
     3
 72
     8
 73
     4
 74
     0
 42
0.0000000001
 43
0.0000000001
 40
0.0
 40
0.0
 40
0.0
 40
0.0
 40
1.0
 40
1.0
 40
1.0
 40
1.0
 10
188.039033213653
 20
-36.95085683116797
 30
0.0
 10
188.1104643346794
 20
-36.99105040576602
 30
0.0
 10
188.1819364268033
 20
-37.03117112398941
 30
0.0
 10
188.2534493785283
 20
-37.07121892324876
 30
0.0
  0
SPLINE
  5
251
330
70
100
AcDbEntity
  8
0
 62
   144
420
    29337
370
    18
100
AcDbSpline
210
0.0
220
0.0
230
1.0
 70
     8
 71
     3
 72
     8
 73
     4
 74
     0
 42
0.0000000001
 43
0.0000000001
 40
0.0
 40
0.0
 40
0.0
 40
0.0
 40
1.0
 40
1.0
 40
1.0
 40
1.0
 10
188.0477582698044
 20
-36.65425202692855
 30
0.0
 10
188.04473197234
 20
-36.75311679029912
 30
0.0
 10
188.0418236182068
 20
-36.85198512875214
 30
0.0
 10
188.0390332136132
 20
-36.95085683125011
 30
0.0
  0
SPLINE
  5
252
330
70
100
AcDbEntity
  8
0
 62
   144
420
    29337
370
    18
100
AcDbSpline
210
0.0
220
0.0
230
1.0
 70
     8
 71
     3
 72
     8
 73
     4
 74
     0
 42
0.0000000001
 43
0.0000000001
 40
0.0
 40
0.0
 40
0.0
 40
0.0
 40
1.0
 40
1.0
 40
1.0
 40
1.0
 10
186.8573277775597
 20
-35.65597951674261
 30
0.0
 10
186.8505880998421
 20
-35.85937000607485
 30
0.0
 10
186.8443481522801
 20
-36.06277674749729
 30
0.0
 10
186.8386079913738
 20
-36.26619789919827
 30
0.0
  0
SPLINE
  5
253
330
70
100
AcDbEntity
  8
0
 62
   144
420
    29337
370
    18
100
AcDbSpline
210
0.0
220
0.0
230
1.0
 70
     8
 71
     3
 72
     8
 73
     4
 74
     0
 42
0.0000000001
 43
0.0000000001
 40
0.0
 40
0.0
 40
0.0
 40
0.0
 40
1.0
 40
1.0
 40
1.0
 40
1.0
 10
186.6693475648643
 20
-35.33223529180591
 30
0.0
 10
186.6669022036276
 20
-35.40246128381002
 30
0.0
 10
186.6645160765119
 20
-35.47268932590653
 30
0.0
 10
186.6621891860629
 20
-35.54291934317448
 30
0.0
  0
SPLINE
  5
254
330
70
100
AcDbEntity
  8
0
 62
   144
420
    29337
370
    18
100
AcDbSpline
210
0.0
220
0.0
230
1.0
 70
     8
 71
     3
 72
     8
 73
     4
 74
     0
 42
0.0000000001
 43
0.0000000001
 40
0.0
 40
0.0
 40
0.0
 40
0.0
 40
1.0
 40
1.0
 40
1.0
 40
1.0
 10
186.6693475648432
 20
-35.33223529182644
 30
0.0
 10
186.8711212258567
 20
-35.44939744031171
 30
0.0
 10
187.073242377997
 20
-35.56596012399736
 30
0.0
 10
187.2757083474858
 20
-35.68192180092423
 30
0.0
  0
SPLINE
  5
255
330
70
100
AcDbEntity
  8
0
 62
   144
420
    29337
370
    18
100
AcDbSpline
210
0.0
220
0.0
230
1.0
 70
     8
 71
     3
 72
     8
 73
     4
 74
     0
 42
0.0000000001
 43
0.0000000001
 40
0.0
 40
0.0
 40
0.0
 40
0.0
 40
1.0
 40
1.0
 40
1.0
 40
1.0
 10
187.2757083475018
 20
-35.68192180086775
 30
0.0
 10
187.2732629862663
 20
-35.75214779285711
 30
0.0
 10
187.2708768591513
 20
-35.82237583493821
 30
0.0
 10
187.2685499687023
 20
-35.89260585219013
 30
0.0
  0
SPLINE
  5
256
330
70
100
AcDbEntity
  8
0
 62
   144
420
    29337
370
    18
100
AcDbSpline
210
0.0
220
0.0
230
1.0
 70
     8
 71
     3
 72
     8
 73
     4
 74
     0
 42
0.0000000001
 43
0.0000000001
 40
0.0
 40
0.0
 40
0.0
 40
0.0
 40
1.0
 40
1.0
 40
1.0
 40
1.0
 10
187.0724657072222
 20
-35.78004902334047
 30
0.0
 10
187.1377913221237
 20
-35.81763030846646
 30
0.0
 10
187.2031527723295
 20
-35.85514926851934
 30
0.0
 10
187.268549968642
 20
-35.89260585229729
 30
0.0
  0
SPLINE
  5
257
330
70
100
AcDbEntity
  8
0
 62
   144
420
    29337
370
    18
100
AcDbSpline
210
0.0
220
0.0
230
1.0
 70
     8
 71
     3
 72
     8
 73
     4
 74
     0
 42
0.0000000001
 43
0.0000000001
 40
0.0
 40
0.0
 40
0.0
 40
0.0
 40
1.0
 40
1.0
 40
1.0
 40
1.0
 10
187.0724657072505
 20
-35.78004902323909
 30
0.0
 10
187.0657260295336
 20
-35.98343951257134
 30
0.0
 10
187.0594860819709
 20
-36.18684625399442
 30
0.0
 10
187.0537459210653
 20
-36.3902674056954
 30
0.0
  0
SPLINE
  5
258
330
70
100
AcDbEntity
  8
0
 62
   144
420
    29337
370
    18
100
AcDbSpline
210
0.0
220
0.0
230
1.0
 70
     8
 71
     3
 72
     8
 73
     4
 74
     0
 42
0.0000000001
 43
0.0000000001
 40
0.0
 40
0.0
 40
0.0
 40
0.0
 40
1.0
 40
1.0
 40
1.0
 40
1.0
 10
186.446289320335
 20
-35.91933710591632
 30
0.0
 10
186.4548717063858
 20
-35.96404140635256
 30
0.0
 10
186.4634764695294
 20
-36.00874140791667
 30
0.0
 10
186.4721036065251
 20
-36.0534370937833
 30
0.0
  0
LINE
  5
259
330
70
100
AcDbEntity
  8
0
 62
   144
420
    29337
370
    18
100
AcDbLine
 10
186.2258105947498
 20
-35.79040370900567
 30
0.0
 11
186.19140691255
 21
-35.88928516030583
 31
0.0
  0
SPLINE
  5
25A
330
70
100
AcDbEntity
  8
0
 62
   144
420
    29337
370
    18
100
AcDbSpline
210
0.0
220
0.0
230
1.0
 70
     8
 71
     3
 72
     8
 73
     4
 74
     0
 42
0.0000000001
 43
0.0000000001
 40
0.0
 40
0.0
 40
0.0
 40
0.0
 40
1.0
 40
1.0
 40
1.0
 40
1.0
 10
185.9773786303011
 20
-35.76341326940479
 30
0.0
 10
186.0486766572709
 20
-35.80544658373816
 30
0.0
 10
186.1200194585068
 20
-35.84740390451692
 30
0.0
 10
186.1914069124576
 20
-35.88928516025385
 30
0.0
  0
SPLINE
  5
25B
330
70
100
AcDbEntity
  8
0
 62
   144
420
    29337
370
    18
100
AcDbSpline
210
0.0
220
0.0
230
1.0
 70
     8
 71
     3
 72
     8
 73
     4
 74
     0
 42
0.0000000001
 43
0.0000000001
 40
0.0
 40
0.0
 40
0.0
 40
0.0
 40
1.0
 40
1.0
 40
1.0
 40
1.0
 10
186.2580331776026
 20
-35.09227714950621
 30
0.0
 10
186.3275927864542
 20
-35.13304754800991
 30
0.0
 10
186.3971943924538
 20
-35.17374625157574
 30
0.0
 10
186.4668378847243
 20
-35.21437319537025
 30
0.0
  0
SPLINE
  5
25C
330
70
100
AcDbEntity
  8
0
 62
   144
420
    29337
370
    18
100
AcDbSpline
210
0.0
220
0.0
230
1.0
 70
     8
 71
     3
 72
     8
 73
     4
 74
     0
 42
0.0000000001
 43
0.0000000001
 40
0.0
 40
0.0
 40
0.0
 40
0.0
 40
1.0
 40
1.0
 40
1.0
 40
1.0
 10
186.4668378846749
 20
-35.21437319545944
 30
0.0
 10
186.5414852372418
 20
-35.53736102988934
 30
0.0
 10
186.6172560707721
 20
-35.86008818136904
 30
0.0
 10
186.6941490095623
 20
-36.18254879043487
 30
0.0
  0
SPLINE
  5
25D
330
70
100
AcDbEntity
  8
0
 62
   144
420
    29337
370
    18
100
AcDbSpline
210
0.0
220
0.0
230
1.0
 70
     8
 71
     3
 72
    17
 73
    13
 74
     0
 42
0.0000000001
 43
0.0000000001
 40
0.0
 40
0.0
 40
0.0
 40
0.0
 40
1.0
 40
1.0
 40
1.0
 40
2.0
 40
2.0
 40
2.0
 40
3.0
 40
3.0
 40
3.0
 40
4.0
 40
4.0
 40
4.0
 40
4.0
 10
185.9447967009909
 20
-35.11824372109937
 30
0.0
 10
185.9442371644733
 20
-35.13511189063628
 30
0.0
 10
185.9423116026809
 20
-35.15092202920078
 30
0.0
 10
185.9383511196356
 20
-35.16515837489575
 30
0.0
 10
185.9343906365903
 20
-35.1793947205901
 30
0.0
 10
185.9283083815863
 20
-35.19179996555268
 30
0.0
 10
185.9201956115796
 20
-35.20133565979914
 30
0.0
 10
185.9120828415723
 20
-35.21087135404623
 30
0.0
 10
185.9019139588802
 20
-35.21760847599777
 30
0.0
 10
185.8907195339216
 20
-35.22192995214842
 30
0.0
 10
185.8795251089623
 20
-35.22625142829842
 30
0.0
 10
185.8672206396369
 20
-35.22831755688871
 30
0.0
 10
185.8545211493025
 20
-35.22906656833719
 30
0.0
  0
SPLINE
  5
25E
330
70
100
AcDbEntity
  8
0
 62
   144
420
    29337
370
    18
100
AcDbSpline
210
0.0
220
0.0
230
1.0
 70
     8
 71
     3
 72
    17
 73
    13
 74
     0
 42
0.0000000001
 43
0.0000000001
 40
0.0
 40
0.0
 40
0.0
 40
0.0
 40
1.0
 40
1.0
 40
1.0
 40
2.0
 40
2.0
 40
2.0
 40
3.0
 40
3.0
 40
3.0
 40
4.0
 40
4.0
 40
4.0
 40
4.0
 10
185.8545211493025
 20
-35.22906656833719
 30
0.0
 10
185.872308522669
 20
-35.2467420933988
 30
0.0
 10
185.8888874201768
 20
-35.26637582239209
 30
0.0
 10
185.9039456059382
 20
-35.28847186658803
 30
0.0
 10
185.9190037916996
 20
-35.31056791078333
 30
0.0
 10
185.9318528731995
 20
-35.33427223383195
 30
0.0
 10
185.9419165923542
 20
-35.35900092824342
 30
0.0
 10
185.9519803115089
 20
-35.38372962265424
 30
0.0
 10
185.9590388683739
 20
-35.40908552104468
 30
0.0
 10
185.9631981265105
 20
-35.43366034629368
 30
0.0
 10
185.9673573846469
 20
-35.45823517154268
 30
0.0
 10
185.968688110967
 20
-35.48188797631845
 30
0.0
 10
185.9680067159283
 20
-35.50442862231181
 30
0.0
  0
SPLINE
  5
25F
330
70
100
AcDbEntity
  8
0
 62
   144
420
    29337
370
    18
100
AcDbSpline
210
0.0
220
0.0
230
1.0
 70
     8
 71
     3
 72
     8
 73
     4
 74
     0
 42
0.0000000001
 43
0.0000000001
 40
0.0
 40
0.0
 40
0.0
 40
0.0
 40
1.0
 40
1.0
 40
1.0
 40
1.0
 10
185.3555058318413
 20
-34.55777078376549
 30
0.0
 10
185.3459757388972
 20
-34.83137648170307
 30
0.0
 10
185.3373483198638
 20
-35.10501287572938
 30
0.0
 10
185.3296237155902
 20
-35.37867549850447
 30
0.0
  0
SPLINE
  5
260
330
70
100
AcDbEntity
  8
0
 62
   144
420
    29337
370
    18
100
AcDbSpline
210
0.0
220
0.0
230
1.0
 70
     8
 71
     3
 72
     8
 73
     4
 74
     0
 42
0.0000000001
 43
0.0000000001
 40
0.0
 40
0.0
 40
0.0
 40
0.0
 40
1.0
 40
1.0
 40
1.0
 40
1.0
 10
185.3555058318791
 20
-34.5577707837687
 30
0.0
 10
185.480753903041
 20
-34.63271805634645
 30
0.0
 10
185.6061442964982
 20
-34.70742723047287
 30
0.0
 10
185.7316763329229
 20
-34.78189790139565
 30
0.0
  0
SPLINE
  5
261
330
70
100
AcDbEntity
  8
0
 62
   144
420
    29337
370
    18
100
AcDbSpline
210
0.0
220
0.0
230
1.0
 70
     8
 71
     3
 72
    20
 73
    16
 74
     0
 42
0.0000000001
 43
0.0000000001
 40
0.0
 40
0.0
 40
0.0
 40
0.0
 40
1.0
 40
1.0
 40
1.0
 40
2.0
 40
2.0
 40
2.0
 40
3.0
 40
3.0
 40
3.0
 40
4.0
 40
4.0
 40
4.0
 40
5.0
 40
5.0
 40
5.0
 40
5.0
 10
185.731676703893
 20
-34.78189793051788
 30
0.0
 10
185.7580909749933
 20
-34.79756789196847
 30
0.0
 10
185.7841483964864
 20
-34.81553857730754
 30
0.0
 10
185.8095900174263
 20
-34.83742685261138
 30
0.0
 10
185.8350316383662
 20
-34.85931512791522
 30
0.0
 10
185.859858885291
 20
-34.88526803324907
 30
0.0
 10
185.8813594472101
 20
-34.91598447637561
 30
0.0
 10
185.8921097281691
 20
-34.93134269793856
 30
0.0
 10
185.901763401395
 20
-34.94754025183521
 30
0.0
 10
185.9100628880945
 20
-34.96436685419258
 30
0.0
 10
185.9183623747935
 20
-34.98119345655059
 30
0.0
 10
185.9254218477994
 20
-34.99900273264669
 30
0.0
 10
185.9307710965469
 20
-35.01654075890114
 30
0.0
 10
185.9414695940425
 20
-35.05161681140876
 30
0.0
 10
185.9458499702375
 20
-35.0864911479031
 30
0.0
 10
185.9447967009909
 20
-35.11824372109937
 30
0.0
  0
LINE
  5
262
330
70
100
AcDbEntity
  8
0
 62
    18
420
        0
370
    25
100
AcDbLine
 10
187.7959973629499
 20
-36.75972957980579
 30
0.0
 11
187.9675956224497
 21
-36.85879114650608
 31
0.0
  0
LINE
  5
263
330
70
100
AcDbEntity
  8
0
 62
    18
420
        0
370
    25
100
AcDbLine
 10
187.59461708655
 20
-36.35190728440559
 30
0.0
 11
187.7959973629499
 21
-36.46816164340611
 31
0.0
  0
LINE
  5
264
330
70
100
AcDbEntity
  8
0
 62
    18
420
        0
370
    25
100
AcDbLine
 10
187.3795891337496
 20
-35.74135028490615
 30
0.0
 11
187.3795891337496
 21
-36.51934222590592
 31
0.0
  0
LINE
  5
265
330
70
100
AcDbEntity
  8
0
 62
   144
420
    29337
370
    18
100
AcDbLine
 10
188.0110595599496
 20
-36.63359347350594
 30
0.0
 11
188.0110595599496
 21
-36.59231440710595
 31
0.0
  0
LINE
  5
266
330
70
100
AcDbEntity
  8
0
 62
   144
420
    29337
370
    18
100
AcDbLine
 10
188.0110595599496
 20
-36.59231440710595
 30
0.0
 11
188.0830542797499
 21
-36.63387607420597
 31
0.0
  0
LINE
  5
267
330
70
100
AcDbEntity
  8
0
 62
   144
420
    29337
370
    18
100
AcDbLine
 10
188.0830542797499
 20
-36.63387607420597
 30
0.0
 11
188.0830542797499
 21
-36.92544401060565
 31
0.0
  0
LINE
  5
268
330
70
100
AcDbEntity
  8
0
 62
   144
420
    29337
370
    18
100
AcDbLine
 10
188.0830542797499
 20
-36.92544401060565
 30
0.0
 11
188.2547763456496
 21
-37.02457704910582
 31
0.0
  0
LINE
  5
269
330
70
100
AcDbEntity
  8
0
 62
   144
420
    29337
370
    18
100
AcDbLine
 10
188.29451028705
 20
-36.79271540960609
 30
0.0
 11
188.29451028705
 21
-36.75594702880592
 31
0.0
  0
LINE
  5
26A
330
70
100
AcDbEntity
  8
0
 62
   144
420
    29337
370
    18
100
AcDbLine
 10
188.29451028705
 20
-36.75594702880592
 30
0.0
 11
188.5104338603496
 21
-36.88059705440569
 31
0.0
  0
LINE
  5
26B
330
70
100
AcDbEntity
  8
0
 62
   144
420
    29337
370
    18
100
AcDbLine
 10
188.0830542797499
 20
-36.14015846990567
 30
0.0
 11
188.0830542797499
 21
-36.40032575290571
 31
0.0
  0
LINE
  5
26C
330
70
100
AcDbEntity
  8
0
 62
   144
420
    29337
370
    18
100
AcDbLine
 10
188.0830542797499
 20
-36.40032575290571
 30
0.0
 11
188.05629893345
 21
-36.38488022020571
 31
0.0
  0
LINE
  5
26D
330
70
100
AcDbEntity
  8
0
 62
   144
420
    29337
370
    18
100
AcDbLine
 10
187.7959973629499
 20
-35.97818019330603
 30
0.0
 11
187.7959973629499
 21
-36.23371207470566
 31
0.0
  0
LINE
  5
26E
330
70
100
AcDbEntity
  8
0
 62
   144
420
    29337
370
    18
100
AcDbLine
 10
187.7959973629499
 20
-36.23371207470566
 30
0.0
 11
187.7661784675495
 21
-36.21649799290592
 31
0.0
  0
LINE
  5
26F
330
70
100
AcDbEntity
  8
0
 62
   144
420
    29337
370
    18
100
AcDbLine
 10
187.3795891337496
 20
-36.51934222590592
 30
0.0
 11
187.5472730047501
 21
-36.61614406420565
 31
0.0
  0
LINE
  5
270
330
70
100
AcDbEntity
  8
0
 62
   144
420
    29337
370
    18
100
AcDbLine
 10
187.7959973629499
 20
-36.46816164340611
 30
0.0
 11
187.7959973629499
 21
-36.75972957980579
 31
0.0
  0
LINE
  5
271
330
70
100
AcDbEntity
  8
0
 62
   144
420
    29337
370
    18
100
AcDbLine
 10
187.3795891337496
 20
-36.51934222590592
 30
0.0
 11
187.3293639198499
 21
-36.54833662480605
 31
0.0
  0
LINE
  5
272
330
70
100
AcDbEntity
  8
0
 62
   144
420
    29337
370
    18
100
AcDbLine
 10
187.7959973629499
 20
-36.46816164340611
 30
0.0
 11
187.7574922655499
 21
-36.49039016300559
 31
0.0
  0
LINE
  5
273
330
70
100
AcDbEntity
  8
0
 62
   144
420
    29337
370
    18
100
AcDbLine
 10
187.59461708655
 20
-36.35190728440559
 30
0.0
 11
187.5544182126498
 21
-36.37511360030557
 31
0.0
  0
LINE
  5
274
330
70
100
AcDbEntity
  8
0
 62
   144
420
    29337
370
    18
100
AcDbLine
 10
187.7959973629499
 20
-36.75972957980579
 30
0.0
 11
187.7487678678497
 21
-36.78699458690615
 31
0.0
  0
LINE
  5
275
330
70
100
AcDbEntity
  8
0
 62
    18
420
        0
370
    25
100
AcDbLine
 10
186.8898453882497
 20
-36.23661917960613
 30
0.0
 11
187.05539820925
 21
-36.33219078880582
 31
0.0
  0
LINE
  5
276
330
70
100
AcDbEntity
  8
0
 62
    18
420
        0
370
    25
100
AcDbLine
 10
186.6943524998496
 20
-35.52435185740614
 30
0.0
 11
186.8898453882497
 21
-35.63720749970599
 31
0.0
  0
LINE
  5
277
330
70
100
AcDbEntity
  8
0
 62
   144
420
    29337
370
    18
100
AcDbLine
 10
186.8898453882497
 20
-35.63720749970599
 30
0.0
 11
186.8898453882497
 21
-36.23661917960613
 31
0.0
  0
LINE
  5
278
330
70
100
AcDbEntity
  8
0
 62
   144
420
    29337
370
    18
100
AcDbLine
 10
187.1048733410501
 20
-35.79868606670571
 30
0.0
 11
187.1048733410501
 21
-35.761340494606
 31
0.0
  0
LINE
  5
279
330
70
100
AcDbEntity
  8
0
 62
   144
420
    29337
370
    18
100
AcDbLine
 10
187.1048733410501
 20
-35.761340494606
 30
0.0
 11
187.2697491782498
 21
-35.85652128940593
 31
0.0
  0
LINE
  5
27A
330
70
100
AcDbEntity
  8
0
 62
   144
420
    29337
370
    18
100
AcDbLine
 10
186.6943524998496
 20
-35.34675031190567
 30
0.0
 11
186.6943524998496
 21
-35.52435185740614
 31
0.0
  0
LINE
  5
27B
330
70
100
AcDbEntity
  8
0
 62
    18
420
        0
370
    25
100
AcDbLine
 10
186.2710848711497
 20
-35.76426742550608
 30
0.0
 11
186.4929959310496
 21
-35.89237395360584
 31
0.0
  0
LINE
  5
27C
330
70
100
AcDbEntity
  8
0
 62
    18
420
        0
370
    25
100
AcDbLine
 10
186.2724151310495
 20
-35.10070487250568
 30
0.0
 11
186.0237592615499
 21
-35.73663830100574
 31
0.0
  0
LINE
  5
27D
330
70
100
AcDbEntity
  8
0
 62
    18
420
        0
370
    25
100
AcDbLine
 10
186.5223169667496
 20
-36.024449538006
 30
0.0
 11
186.6778809845498
 21
-36.11425473390597
 31
0.0
  0
LINE
  5
27E
330
70
100
AcDbEntity
  8
0
 62
    18
420
        0
370
    25
100
AcDbLine
 10
186.36352608075
 20
-35.47733039920559
 30
0.0
 11
186.3854582470495
 21
-35.40924447880609
 31
0.0
  0
LINE
  5
27F
330
70
100
AcDbEntity
  8
0
 62
   144
420
    29337
370
    18
100
AcDbLine
 10
186.3854582470495
 20
-35.40924447880609
 30
0.0
 11
186.3874391489498
 21
-35.41038802910573
 31
0.0
  0
LINE
  5
280
330
70
100
AcDbEntity
  8
0
 62
   144
420
    29337
370
    18
100
AcDbLine
 10
186.3874391489498
 20
-35.41038802910573
 30
0.0
 11
186.4499771696498
 21
-35.6948363473056
 31
0.0
  0
LINE
  5
281
330
70
100
AcDbEntity
  8
0
 62
   144
420
    29337
370
    18
100
AcDbLine
 10
186.4499771696498
 20
-35.6948363473056
 30
0.0
 11
186.3987081625496
 21
-35.66523937950611
 31
0.0
  0
LINE
  5
282
330
70
100
AcDbEntity
  8
0
 62
   144
420
    29337
370
    18
100
AcDbLine
 10
186.4929959310496
 20
-35.89237395360584
 30
0.0
 11
186.5223169667496
 21
-36.024449538006
 31
0.0
  0
LINE
  5
283
330
70
100
AcDbEntity
  8
0
 62
   144
420
    29337
370
    18
100
AcDbLine
 10
186.0237592615499
 20
-35.73663830100574
 30
0.0
 11
186.2075827412496
 21
-35.84275733710554
 31
0.0
  0
LINE
  5
284
330
70
100
AcDbEntity
  8
0
 62
   144
420
    29337
370
    18
100
AcDbLine
 10
186.8898453882497
 20
-35.63720749970599
 30
0.0
 11
186.8573277775501
 21
-35.65597951680614
 31
0.0
  0
LINE
  5
285
330
70
100
AcDbEntity
  8
0
 62
   144
420
    29337
370
    18
100
AcDbLine
 10
186.6943524998496
 20
-35.52435185740614
 30
0.0
 11
186.6621891860501
 21
-35.54291934320593
 31
0.0
  0
LINE
  5
286
330
70
100
AcDbEntity
  8
0
 62
   144
420
    29337
370
    18
100
AcDbLine
 10
186.8898453882497
 20
-36.23661917960613
 30
0.0
 11
186.8386079913501
 21
-36.26619789920597
 31
0.0
  0
LINE
  5
287
330
70
100
AcDbEntity
  8
0
 62
   144
420
    29337
370
    18
100
AcDbLine
 10
186.0237592615499
 20
-35.73663830100574
 30
0.0
 11
185.9773786303499
 21
-35.76341326940607
 31
0.0
  0
SPLINE
  5
288
330
70
100
AcDbEntity
  8
0
 62
    18
420
        0
370
    25
100
AcDbSpline
210
0.0
220
0.0
230
1.0
 70
     8
 71
     3
 72
     8
 73
     4
 74
     0
 42
0.0000000001
 43
0.0000000001
 40
0.0
 40
0.0
 40
0.0
 40
0.0
 40
1.0
 40
1.0
 40
1.0
 40
1.0
 10
186.3526186080919
 20
-35.4282023988118
 30
0.0
 10
186.3275559729119
 20
-35.49943097850555
 30
0.0
 10
186.3025609048681
 20
-35.57068331450027
 30
0.0
 10
186.2776334376872
 20
-35.64195931065087
 30
0.0
  0
SPLINE
  5
289
330
70
100
AcDbEntity
  8
0
 62
   144
420
    29337
370
    18
100
AcDbSpline
210
0.0
220
0.0
230
1.0
 70
     8
 71
     3
 72
     8
 73
     4
 74
     0
 42
0.0000000001
 43
0.0000000001
 40
0.0
 40
0.0
 40
0.0
 40
0.0
 40
1.0
 40
1.0
 40
1.0
 40
1.0
 10
186.3545869976123
 20
-35.42935317243454
 30
0.0
 10
186.3725413172535
 20
-35.52579902302968
 30
0.0
 10
186.3905970810444
 20
-35.62222596123074
 30
0.0
 10
186.4087542590143
 20
-35.71863382698321
 30
0.0
  0
LINE
  5
28A
330
70
100
AcDbEntity
  8
0
 62
   144
420
    29337
370
    18
100
AcDbLine
 10
186.3545869976438
 20
-35.4293531724185
 30
0.0
 11
186.3532754042396
 21
-35.42858484924533
 31
0.0
  0
SPLINE
  5
28B
330
70
100
AcDbEntity
  8
0
 62
   144
420
    29337
370
    18
100
AcDbSpline
210
0.0
220
0.0
230
1.0
 70
     8
 71
     3
 72
     8
 73
     4
 74
     0
 42
0.0000000001
 43
0.0000000001
 40
0.0
 40
0.0
 40
0.0
 40
0.0
 40
1.0
 40
1.0
 40
1.0
 40
1.0
 10
186.2776334376461
 20
-35.64195931070862
 30
0.0
 10
186.3213235553229
 20
-35.66754624052335
 30
0.0
 10
186.3650305052244
 20
-35.69310441815916
 30
0.0
 10
186.4087542589828
 20
-35.71863382702877
 30
0.0
  0
LINE
  5
28C
330
70
100
AcDbEntity
  8
0
 62
   144
420
    29337
370
    18
100
AcDbLine
 10
186.5986488606497
 20
-40.51901680040611
 30
0.0
 11
186.6044703940501
 21
-40.58619259920559
 31
0.0
  0
LWPOLYLINE
  5
28D
330
70
100
AcDbEntity
  8
0
 62
   144
420
    29337
370
    18
100
AcDbPolyline
 90
        3
 70
     0
 43
0.0
 10
186.5923874194495
 20
-40.46155966360608
 10
186.59525077095
 20
-40.47723025370611
 10
186.5986488606497
 20
-40.51901680040611
  0
LINE
  5
28E
330
70
100
AcDbEntity
  8
0
 62
   144
420
    29337
370
    18
100
AcDbLine
 10
186.3854582470495
 20
-35.40924447880609
 30
0.0
 11
186.3526186081496
 21
-35.42820239880603
 31
0.0
  0
LINE
  5
28F
330
70
100
AcDbEntity
  8
0
 62
   144
420
    29337
370
    18
100
AcDbLine
 10
186.5223169667496
 20
-36.024449538006
 30
0.0
 11
186.4721036065501
 21
-36.05343709380576
 31
0.0
  0
SPLINE
  5
290
330
70
100
AcDbEntity
  8
0
 62
    18
420
        0
370
    25
100
AcDbSpline
210
0.0
220
0.0
230
1.0
 70
     8
 71
     3
 72
    14
 73
    10
 74
     0
 42
0.0000000001
 43
0.0000000001
 40
0.0
 40
0.0
 40
0.0
 40
0.0
 40
1.0
 40
1.0
 40
1.0
 40
2.0
 40
2.0
 40
2.0
 40
3.0
 40
3.0
 40
3.0
 40
3.0
 10
185.7625752412931
 20
-35.58585997552671
 30
0.0
 10
185.7958408498141
 20
-35.60084918145138
 30
0.0
 10
185.8291064583351
 20
-35.61583838737671
 30
0.0
 10
185.8625133216464
 20
-35.62403191886645
 30
0.0
 10
185.894740921301
 20
-35.63193621835627
 30
0.0
 10
185.9270999791636
 20
-35.63351615054724
 30
0.0
 10
185.946369745115
 20
-35.6143692134904
 30
0.0
 10
185.9474249996251
 20
-35.61332068535886
 30
0.0
 10
185.9484410006971
 20
-35.61220999948111
 30
0.0
 10
185.9494570017685
 20
-35.61109931360269
 30
0.0
  0
LINE
  5
291
330
70
100
AcDbEntity
  8
0
 62
    18
420
        0
370
    25
100
AcDbLine
 10
185.3666530147497
 20
-35.35729893920585
 30
0.0
 11
185.7625752412501
 21
-35.58585997550553
 31
0.0
  0
LINE
  5
292
330
70
100
AcDbEntity
  8
0
 62
    18
420
        0
370
    25
100
AcDbLine
 10
185.58168096745
 20
-35.139396258106
 30
0.0
 11
185.7165930295499
 21
-35.21727933380586
 31
0.0
  0
LINE
  5
293
330
70
100
AcDbEntity
  8
0
 62
   144
420
    29337
370
    18
100
AcDbLine
 10
185.58168096745
 20
-34.86738362490605
 30
0.0
 11
185.6950796975497
 21
-34.93284731840581
 31
0.0
  0
SPLINE
  5
294
330
70
100
AcDbEntity
  8
0
 62
   144
420
    29337
370
    18
100
AcDbSpline
210
0.0
220
0.0
230
1.0
 70
     8
 71
     3
 72
     8
 73
     4
 74
     0
 42
0.0000000001
 43
0.0000000001
 40
0.0
 40
0.0
 40
0.0
 40
0.0
 40
1.0
 40
1.0
 40
1.0
 40
1.0
 10
185.6950794102957
 20
-34.93284718767888
 30
0.0
 10
185.7390696439171
 20
-34.95824220900117
 30
0.0
 10
185.7683811998967
 20
-34.98979998375562
 30
0.0
 10
185.7683811998967
 20
-35.03043068915268
 30
0.0
  0
SPLINE
  5
295
330
70
100
AcDbEntity
  8
0
 62
   144
420
    29337
370
    18
100
AcDbSpline
210
0.0
220
0.0
230
1.0
 70
     8
 71
     3
 72
    20
 73
    16
 74
     0
 42
0.0000000001
 43
0.0000000001
 40
0.0
 40
0.0
 40
0.0
 40
0.0
 40
1.0
 40
1.0
 40
1.0
 40
2.0
 40
2.0
 40
2.0
 40
3.0
 40
3.0
 40
3.0
 40
4.0
 40
4.0
 40
4.0
 40
5.0
 40
5.0
 40
5.0
 40
5.0
 10
185.7683809696757
 20
-35.03043064312232
 30
0.0
 10
185.7681409999979
 20
-35.03701116652924
 30
0.0
 10
185.7679010303207
 20
-35.04359168993616
 30
0.0
 10
185.7667978286783
 20
-35.04954692760083
 30
0.0
 10
185.7658815332809
 20
-35.05449321906287
 30
0.0
 10
185.7643697283416
 20
-35.0590081506569
 30
0.0
 10
185.7621406019182
 20
-35.06267485526202
 30
0.0
 10
185.7601550511233
 20
-35.06594090072542
 30
0.0
 10
185.7576003769287
 20
-35.06853396226521
 30
0.0
 10
185.7545541691859
 20
-35.07032354241761
 30
0.0
 10
185.7515285905772
 20
-35.0721010034073
 30
0.0
 10
185.7480181132771
 20
-35.07308582862752
 30
0.0
 10
185.7441860444524
 20
-35.07300362605717
 30
0.0
 10
185.7399489749466
 20
-35.07291273572501
 30
0.0
 10
185.7353187455816
 20
-35.07151735673863
 30
0.0
 10
185.7306885162167
 20
-35.0701219777516
 30
0.0
  0
LINE
  5
296
330
70
100
AcDbEntity
  8
0
 62
   144
420
    29337
370
    18
100
AcDbLine
 10
185.58168096745
 20
-34.98928886820616
 30
0.0
 11
185.58168096745
 21
-34.86738362490605
 31
0.0
  0
SPLINE
  5
297
330
70
100
AcDbEntity
  8
0
 62
   144
420
    29337
370
    18
100
AcDbSpline
210
0.0
220
0.0
230
1.0
 70
     8
 71
     3
 72
     8
 73
     4
 74
     0
 42
0.0000000001
 43
0.0000000001
 40
0.0
 40
0.0
 40
0.0
 40
0.0
 40
1.0
 40
1.0
 40
1.0
 40
1.0
 10
185.7165936343911
 20
-35.2172799394703
 30
0.0
 10
185.7664232795556
 20
-35.2460459813212
 30
0.0
 10
185.7918762439859
 20
-35.2855438313162
 30
0.0
 10
185.7918762439859
 20
-35.33413408264532
 30
0.0
  0
SPLINE
  5
298
330
70
100
AcDbEntity
  8
0
 62
   144
420
    29337
370
    18
100
AcDbSpline
210
0.0
220
0.0
230
1.0
 70
     8
 71
     3
 72
    20
 73
    16
 74
     0
 42
0.0000000001
 43
0.0000000001
 40
0.0
 40
0.0
 40
0.0
 40
0.0
 40
1.0
 40
1.0
 40
1.0
 40
2.0
 40
2.0
 40
2.0
 40
3.0
 40
3.0
 40
3.0
 40
4.0
 40
4.0
 40
4.0
 40
5.0
 40
5.0
 40
5.0
 40
5.0
 10
185.7918752035421
 20
-35.33413336275077
 30
0.0
 10
185.79151658419
 20
-35.34178810599686
 30
0.0
 10
185.7911579648372
 20
-35.34944284924296
 30
0.0
 10
185.7896177129688
 20
-35.35619536351515
 30
0.0
 10
185.7883233176661
 20
-35.36187003460992
 30
0.0
 10
185.78619440995
 20
-35.36690751836522
 30
0.0
 10
185.7832377337756
 20
-35.37084475884161
 30
0.0
 10
185.780551729892
 20
-35.37442156014973
 30
0.0
 10
185.7771825782893
 20
-35.37709034342428
 30
0.0
 10
185.7733384927318
 20
-35.37896781162748
 30
0.0
 10
185.7695247483374
 20
-35.38083046107411
 30
0.0
 10
185.7652435376573
 20
-35.38191423776661
 30
0.0
 10
185.7605100457158
 20
-35.3814435616087
 30
0.0
 10
185.7577533505559
 20
-35.3811694488178
 30
0.0
 10
185.7548432562998
 20
-35.38036811617184
 30
0.0
 10
185.7519331620444
 20
-35.37956678352587
 30
0.0
  0
LINE
  5
299
330
70
100
AcDbEntity
  8
0
 62
   144
420
    29337
370
    18
100
AcDbLine
 10
185.8857072592495
 20
-35.2110626508057
 30
0.0
 11
185.9157289862499
 21
-35.20474989290576
 31
0.0
  0
LINE
  5
29A
330
70
100
AcDbEntity
  8
0
 62
   144
420
    29337
370
    18
100
AcDbLine
 10
185.3666530147497
 20
-34.56443994860611
 30
0.0
 11
185.3666530147497
 21
-35.35729893920585
 31
0.0
  0
LINE
  5
29B
330
70
100
AcDbEntity
  8
0
 62
   144
420
    29337
370
    18
100
AcDbLine
 10
186.4929959310496
 20
-35.89237395360584
 30
0.0
 11
186.4462893203497
 21
-35.91933710600616
 31
0.0
  0
LINE
  5
29C
330
70
100
AcDbEntity
  8
0
 62
   144
420
    29337
370
    18
100
AcDbLine
 10
186.2710848711497
 20
-35.76426742550608
 30
0.0
 11
186.2258105947498
 21
-35.79040370900567
 31
0.0
  0
LINE
  5
29D
330
70
100
AcDbEntity
  8
0
 62
    18
420
        0
370
    25
100
AcDbLine
 10
185.7625752412501
 20
-35.58585997550553
 30
0.0
 11
185.71932598925
 21
-35.61082723730594
 31
0.0
  0
SPLINE
  5
29E
330
70
100
AcDbEntity
  8
0
 62
    18
420
        0
370
    25
100
AcDbSpline
210
0.0
220
0.0
230
1.0
 70
     8
 71
     3
 72
     8
 73
     4
 74
     0
 42
0.0000000001
 43
0.0000000001
 40
0.0
 40
0.0
 40
0.0
 40
0.0
 40
1.0
 40
1.0
 40
1.0
 40
1.0
 10
185.5513622368833
 20
-35.15689888869191
 30
0.0
 10
185.595651817092
 20
-35.18327268531576
 30
0.0
 10
185.6399591406635
 20
-35.20961667406887
 30
0.0
 10
185.6842841774932
 20
-35.2359308370517
 30
0.0
  0
SPLINE
  5
29F
330
70
100
AcDbEntity
  8
0
 62
   144
420
    29337
370
    18
100
AcDbSpline
210
0.0
220
0.0
230
1.0
 70
     8
 71
     3
 72
    17
 73
    13
 74
     0
 42
0.0000000001
 43
0.0000000001
 40
0.0
 40
0.0
 40
0.0
 40
0.0
 40
1.0
 40
1.0
 40
1.0
 40
2.0
 40
2.0
 40
2.0
 40
3.0
 40
3.0
 40
3.0
 40
4.0
 40
4.0
 40
4.0
 40
4.0
 10
185.7562503230693
 20
-35.35470048902276
 30
0.0
 10
185.7565876978376
 20
-35.34361168160805
 30
0.0
 10
185.7557070532445
 20
-35.33188417533113
 30
0.0
 10
185.7525941744852
 20
-35.31954619331319
 30
0.0
 10
185.7494812957266
 20
-35.30720821129526
 30
0.0
 10
185.7439776892071
 20
-35.29467589237047
 30
0.0
 10
185.7367155420298
 20
-35.28368718242873
 30
0.0
 10
185.7294533948526
 20
-35.27269847248762
 30
0.0
 10
185.7207588269352
 20
-35.26339568812583
 30
0.0
 10
185.7117629696214
 20
-35.25558088184882
 30
0.0
 10
185.7027671123075
 20
-35.24776607557246
 30
0.0
 10
185.6935774065116
 20
-35.24144833824906
 30
0.0
 10
185.6842846549859
 20
-35.23593151627088
 30
0.0
  0
SPLINE
  5
2A0
330
70
100
AcDbEntity
  8
0
 62
   144
420
    29337
370
    18
100
AcDbSpline
210
0.0
220
0.0
230
1.0
 70
     8
 71
     3
 72
     8
 73
     4
 74
     0
 42
0.0000000001
 43
0.0000000001
 40
0.0
 40
0.0
 40
0.0
 40
0.0
 40
1.0
 40
1.0
 40
1.0
 40
1.0
 10
185.5513622368525
 20
-35.15689888875416
 30
0.0
 10
185.5497822736053
 20
-35.20783245767276
 30
0.0
 10
185.5482333766365
 20
-35.25876698551239
 30
0.0
 10
185.5467155468079
 20
-35.30970244388109
 30
0.0
  0
SPLINE
  5
2A1
330
70
100
AcDbEntity
  8
0
 62
   144
420
    29337
370
    18
100
AcDbSpline
210
0.0
220
0.0
230
1.0
 70
     8
 71
     3
 72
     8
 73
     4
 74
     0
 42
0.0000000001
 43
0.0000000001
 40
0.0
 40
0.0
 40
0.0
 40
0.0
 40
1.0
 40
1.0
 40
1.0
 40
1.0
 10
185.546715546772
 20
-35.3097024439581
 30
0.0
 10
185.5881208704798
 20
-35.33435871328726
 30
0.0
 10
185.6295415719641
 20
-35.35898914950911
 30
0.0
 10
185.670977627054
 20
-35.38359373825087
 30
0.0
  0
SPLINE
  5
2A2
330
70
100
AcDbEntity
  8
0
 62
   144
420
    29337
370
    18
100
AcDbSpline
210
0.0
220
0.0
230
1.0
 70
     8
 71
     3
 72
    17
 73
    13
 74
     0
 42
0.0000000001
 43
0.0000000001
 40
0.0
 40
0.0
 40
0.0
 40
0.0
 40
1.0
 40
1.0
 40
1.0
 40
2.0
 40
2.0
 40
2.0
 40
3.0
 40
3.0
 40
3.0
 40
4.0
 40
4.0
 40
4.0
 40
4.0
 10
185.6709789506154
 20
-35.38359397333282
 30
0.0
 10
185.6810773788129
 20
-35.38959028480094
 30
0.0
 10
185.6911265828322
 20
-35.39478201770722
 30
0.0
 10
185.7010762321257
 20
-35.3983769249625
 30
0.0
 10
185.7110258814198
 20
-35.40197183221778
 30
0.0
 10
185.720937544822
 20
-35.40395231884124
 30
0.0
 10
185.729642905324
 20
-35.40239562522784
 30
0.0
 10
185.7383482658267
 20
-35.40083893161444
 30
0.0
 10
185.7453990883638
 20
-35.39537804686366
 30
0.0
 10
185.7497468915978
 20
-35.38670817749832
 30
0.0
 10
185.7540946948312
 20
-35.37803830813298
 30
0.0
 10
185.7558827316275
 20
-35.36678245570215
 30
0.0
 10
185.7562503230693
 20
-35.35470048902276
 30
0.0
  0
LINE
  5
2A3
330
70
100
AcDbEntity
  8
0
 62
   144
420
    29337
370
    18
100
AcDbLine
 10
185.7165930295499
 20
-35.21727933380586
 30
0.0
 11
185.6842841774495
 21
-35.2359308371056
 31
0.0
  0
LINE
  5
2A4
330
70
100
AcDbEntity
  8
0
 62
   144
420
    29337
370
    18
100
AcDbLine
 10
185.58168096745
 20
-35.139396258106
 30
0.0
 11
185.55136223685
 21
-35.15689888870602
 31
0.0
  0
LINE
  5
2A5
330
70
100
AcDbEntity
  8
0
 62
   144
420
    29337
370
    18
100
AcDbLine
 10
185.3666530147497
 20
-35.35729893920585
 30
0.0
 11
185.3296237155497
 21
-35.37867549860586
 31
0.0
  0
SPLINE
  5
2A6
330
70
100
AcDbEntity
  8
0
 62
   144
420
    29337
370
    18
100
AcDbSpline
210
0.0
220
0.0
230
1.0
 70
     8
 71
     3
 72
    17
 73
    13
 74
     0
 42
0.0000000001
 43
0.0000000001
 40
0.0
 40
0.0
 40
0.0
 40
0.0
 40
1.0
 40
1.0
 40
1.0
 40
2.0
 40
2.0
 40
2.0
 40
3.0
 40
3.0
 40
3.0
 40
4.0
 40
4.0
 40
4.0
 40
4.0
 10
185.6679122013682
 20
-35.07043582159392
 30
0.0
 10
185.6768030544934
 20
-35.07571663015496
 30
0.0
 10
185.6856828799172
 20
-35.08050543103691
 30
0.0
 10
185.6945320504461
 20
-35.08402591665124
 30
0.0
 10
185.7033812209751
 20
-35.08754640226621
 30
0.0
 10
185.7121842817074
 20
-35.08977764058917
 30
0.0
 10
185.7198778527661
 20
-35.08859486659489
 30
0.0
 10
185.7275714238247
 20
-35.08741209260061
 30
0.0
 10
185.7336958578991
 20
-35.08217805576344
 30
0.0
 10
185.7372168674543
 20
-35.07417872616514
 30
0.0
 10
185.7407378770095
 20
-35.0661793965662
 30
0.0
 10
185.7420610069714
 20
-35.05606951129112
 30
0.0
 10
185.7424102273955
 20
-35.04542341244861
 30
0.0
  0
SPLINE
  5
2A7
330
70
100
AcDbEntity
  8
0
 62
   144
420
    29337
370
    18
100
AcDbSpline
210
0.0
220
0.0
230
1.0
 70
     8
 71
     3
 72
     8
 73
     4
 74
     0
 42
0.0000000001
 43
0.0000000001
 40
0.0
 40
0.0
 40
0.0
 40
0.0
 40
1.0
 40
1.0
 40
1.0
 40
1.0
 10
185.556200563329
 20
-35.00399839237152
 30
0.0
 10
185.593425428278
 20
-35.02616498853476
 30
0.0
 10
185.630662613767
 20
-35.04831088801739
 30
0.0
 10
185.6679121025119
 20
-35.07043608054066
 30
0.0
  0
LINE
  5
2A8
330
70
100
AcDbEntity
  8
0
 62
   144
420
    29337
370
    18
100
AcDbLine
 10
185.5602710269501
 20
-34.87974332050572
 30
0.0
 11
185.5562005633496
 21
-35.00399839240616
 31
0.0
  0
SPLINE
  5
2A9
330
70
100
AcDbEntity
  8
0
 62
   144
420
    29337
370
    18
100
AcDbSpline
210
0.0
220
0.0
230
1.0
 70
     8
 71
     3
 72
     8
 73
     4
 74
     0
 42
0.0000000001
 43
0.0000000001
 40
0.0
 40
0.0
 40
0.0
 40
0.0
 40
1.0
 40
1.0
 40
1.0
 40
1.0
 10
185.5602710269282
 20
-34.87974332049031
 30
0.0
 10
185.5974957424729
 20
-34.90191016762462
 30
0.0
 10
185.6347329280692
 20
-34.92405606717142
 30
0.0
 10
185.6719825660033
 20
-34.94618100859529
 30
0.0
  0
SPLINE
  5
2AA
330
70
100
AcDbEntity
  8
0
 62
   144
420
    29337
370
    18
100
AcDbSpline
210
0.0
220
0.0
230
1.0
 70
     8
 71
     3
 72
    17
 73
    13
 74
     0
 42
0.0000000001
 43
0.0000000001
 40
0.0
 40
0.0
 40
0.0
 40
0.0
 40
1.0
 40
1.0
 40
1.0
 40
2.0
 40
2.0
 40
2.0
 40
3.0
 40
3.0
 40
3.0
 40
4.0
 40
4.0
 40
4.0
 40
4.0
 10
185.7424102273955
 20
-35.04542341244861
 30
0.0
 10
185.7427322514003
 20
-35.03560640534078
 30
0.0
 10
185.7413161662843
 20
-35.0246857191857
 30
0.0
 10
185.7373151855266
 20
-35.01392504771591
 30
0.0
 10
185.7333142047689
 20
-35.00316437624612
 30
0.0
 10
185.7266936574584
 20
-34.99278673908347
 30
0.0
 10
185.7194555791768
 20
-34.98430599872777
 30
0.0
 10
185.7122175008952
 20
-34.97582525837206
 30
0.0
 10
185.7042295537313
 20
-34.96871167486209
 30
0.0
 10
185.6962394366443
 20
-34.96253192014392
 30
0.0
 10
185.6882493195572
 20
-34.95635216542574
 30
0.0
 10
185.6801466213589
 20
-34.95103007915624
 30
0.0
 10
185.6719823604549
 20
-34.9461808307375
 30
0.0
  0
SPLINE
  5
2AB
330
70
100
AcDbEntity
  8
0
 62
   144
420
    29337
370
    18
100
AcDbSpline
210
0.0
220
0.0
230
1.0
 70
     8
 71
     3
 72
     8
 73
     4
 74
     0
 42
0.0000000001
 43
0.0000000001
 40
0.0
 40
0.0
 40
0.0
 40
0.0
 40
1.0
 40
1.0
 40
1.0
 40
1.0
 10
187.8017280173127
 20
-36.51543117763293
 30
0.0
 10
187.8594152621456
 20
-36.54807068209909
 30
0.0
 10
187.9171296837792
 20
-36.58066213078491
 30
0.0
 10
187.974871222155
 20
-36.6132054897734
 30
0.0
  0
SPLINE
  5
2AC
330
70
100
AcDbEntity
  8
0
 62
   144
420
    29337
370
    18
100
AcDbSpline
210
0.0
220
0.0
230
1.0
 70
     8
 71
     3
 72
     8
 73
     4
 74
     0
 42
0.0000000001
 43
0.0000000001
 40
0.0
 40
0.0
 40
0.0
 40
0.0
 40
1.0
 40
1.0
 40
1.0
 40
1.0
 10
187.8092380587845
 20
-36.27754540153978
 30
0.0
 10
187.8066588236618
 20
-36.35683824624805
 30
0.0
 10
187.8041554753266
 20
-36.43613354121161
 30
0.0
 10
187.8017280172165
 20
-36.51543117751228
 30
0.0
  0
SPLINE
  5
2AD
330
70
100
AcDbEntity
  8
0
 62
   144
420
    29337
370
    18
100
AcDbSpline
210
0.0
220
0.0
230
1.0
 70
     8
 71
     3
 72
     8
 73
     4
 74
     0
 42
0.0000000001
 43
0.0000000001
 40
0.0
 40
0.0
 40
0.0
 40
0.0
 40
1.0
 40
1.0
 40
1.0
 40
1.0
 10
187.8092380588647
 20
-36.27754540170148
 30
0.0
 10
187.8669253037066
 20
-36.31018490617277
 30
0.0
 10
187.9246397253492
 20
-36.34277635486309
 30
0.0
 10
187.982381263734
 20
-36.37531971385736
 30
0.0
  0
SPLINE
  5
2AE
330
70
100
AcDbEntity
  8
0
 62
   144
420
    29337
370
    18
100
AcDbSpline
210
0.0
220
0.0
230
1.0
 70
     8
 71
     3
 72
     8
 73
     4
 74
     0
 42
0.0000000001
 43
0.0000000001
 40
0.0
 40
0.0
 40
0.0
 40
0.0
 40
1.0
 40
1.0
 40
1.0
 40
1.0
 10
187.9823812637147
 20
-36.37531971375661
 30
0.0
 10
187.9798020285901
 20
-36.45461255852649
 30
0.0
 10
187.9772986802523
 20
-36.53390785356513
 30
0.0
 10
187.9748712221409
 20
-36.61320548992741
 30
0.0
  0
LINE
  5
2AF
330
70
100
AcDbEntity
  8
0
 62
    18
420
        0
370
    25
100
AcDbLine
 10
120.6911565827496
 20
-5.17857472950587
 30
0.0
 11
120.8152632465498
 21
-5.122844728605579
 31
0.0
  0
LWPOLYLINE
  5
2B0
330
70
100
AcDbEntity
  8
0
 62
   144
420
    29337
370
    18
100
AcDbPolyline
 90
       12
 70
     0
 43
0.0
 10
127.27875279825
 20
-5.317790833005909
 10
127.2432941277497
 20
-4.933926181005785
 10
127.13870145485
 20
-4.528373340705639
 10
126.9702167937498
 20
-4.121466978005552
 10
126.7462853192498
 20
-3.733609329706119
 10
126.47814443485
 20
-3.384253883406112
 10
126.17923108265
 20
-3.090913599106123
 10
125.86453900405
 20
-2.868300886006106
 10
125.54984692545
 20
-2.727577858905891
 10
125.2509335733501
 20
-2.675800132905885
 10
124.98279005475
 20
-2.715565183205779
 10
124.8646208282495
 20
-2.769285103805882
  0
LINE
  5
2B1
330
70
100
AcDbEntity
  8
0
 62
   144
420
    29337
370
    18
100
AcDbLine
 10
122.91582002955
 20
-6.801161852805869
 30
0.0
 11
125.6750711393499
 21
-5.208280092505829
 31
0.0
  0
SPLINE
  5
2B2
330
70
100
AcDbEntity
  8
0
 62
   144
420
    29337
370
    18
100
AcDbSpline
210
0.0
220
0.0
230
1.0
 70
     8
 71
     3
 72
     8
 73
     4
 74
     0
 42
0.0000000001
 43
0.0000000001
 40
0.0
 40
0.0
 40
0.0
 40
0.0
 40
1.0
 40
1.0
 40
1.0
 40
1.0
 10
125.7613378356778
 20
-5.462216032782692
 30
0.0
 10
125.7362792667829
 20
-5.376359477463389
 30
0.0
 10
125.7074964755674
 20
-5.29163402190827
 30
0.0
 10
125.6750711393107
 20
-5.208280092576416
 30
0.0
  0
LWPOLYLINE
  5
2B3
330
70
100
AcDbEntity
  8
0
 62
    18
420
        0
370
    25
100
AcDbPolyline
 90
       10
 70
     0
 43
0.0
 10
122.7510867672497
 20
-6.805272057005608
 10
122.56330148365
 20
-6.420877967305703
 10
122.3266943444502
 20
-6.063965504005738
 10
122.0533272508499
 20
-5.752724187705697
 10
121.7571218337501
 20
-5.503007983305633
 10
121.4531745673496
 20
-5.327542961206162
 10
121.1569691501497
 20
-5.235267670505665
 10
120.8836020565501
 20
-5.230886058705776
 10
120.6469949173496
 20
-5.314617734006091
 10
120.45920963385
 20
-5.482199550205828
  0
SPLINE
  5
2B4
330
70
100
AcDbEntity
  8
0
 62
   144
420
    29337
370
    18
100
AcDbSpline
210
0.0
220
0.0
230
1.0
 70
     8
 71
     3
 72
    11
 73
     7
 74
     0
 42
0.0000000001
 43
0.0000000001
 40
0.0
 40
0.0
 40
0.0
 40
0.0
 40
1.0
 40
1.0
 40
1.0
 40
2.0
 40
2.0
 40
2.0
 40
2.0
 10
120.459210359541
 20
-5.482199932289478
 30
0.0
 10
120.442732589996
 20
-5.467776524747732
 30
0.0
 10
120.4330433593683
 20
-5.450886533344317
 30
0.0
 10
120.433452832057
 20
-5.433684329751865
 30
0.0
 10
120.4338623047458
 20
-5.416482126158771
 30
0.0
 10
120.4452084793157
 20
-5.399294263553558
 30
0.0
 10
120.4663296258171
 20
-5.387101285213248
 30
0.0
  0
SPLINE
  5
2B5
330
70
100
AcDbEntity
  8
0
 62
   144
420
    29337
370
    18
100
AcDbSpline
210
0.0
220
0.0
230
1.0
 70
     8
 71
     3
 72
    11
 73
     7
 74
     0
 42
0.0000000001
 43
0.0000000001
 40
0.0
 40
0.0
 40
0.0
 40
0.0
 40
1.0
 40
1.0
 40
1.0
 40
2.0
 40
2.0
 40
2.0
 40
2.0
 10
122.9158193686
 20
-6.801161614602051
 30
0.0
 10
122.8947783255553
 20
-6.813308350201168
 30
0.0
 10
122.8648965996694
 20
-6.819902458068734
 30
0.0
 10
122.8351444182093
 20
-6.820140840204299
 30
0.0
 10
122.8053922367486
 20
-6.820379222339862
 30
0.0
 10
122.7758644278789
 20
-6.814705393006639
 30
0.0
 10
122.7510858309113
 20
-6.805271479541926
 30
0.0
  0
SPLINE
  5
2B6
330
70
100
AcDbEntity
  8
0
 62
   144
420
    29337
370
    18
100
AcDbSpline
210
0.0
220
0.0
230
1.0
 70
     8
 71
     3
 72
     8
 73
     4
 74
     0
 42
0.0000000001
 43
0.0000000001
 40
0.0
 40
0.0
 40
0.0
 40
0.0
 40
1.0
 40
1.0
 40
1.0
 40
1.0
 10
120.4592096338295
 20
-5.482199550241121
 30
0.0
 10
121.1394823180022
 20
-6.054479209872798
 30
0.0
 10
121.9153132731397
 20
-6.502356886929047
 30
0.0
 10
122.7510867672298
 20
-6.805272056962614
 30
0.0
  0
SPLINE
  5
2B7
330
70
100
AcDbEntity
  8
0
 62
   144
420
    29337
370
    18
100
AcDbSpline
210
0.0
220
0.0
230
1.0
 70
     8
 71
     3
 72
     8
 73
     4
 74
     0
 42
0.0000000001
 43
0.0000000001
 40
0.0
 40
0.0
 40
0.0
 40
0.0
 40
1.0
 40
1.0
 40
1.0
 40
1.0
 10
126.9687047755482
 20
-6.159197969762454
 30
0.0
 10
127.1946764990318
 20
-5.940501917401433
 30
0.0
 10
127.3087894024208
 20
-5.630822757164389
 30
0.0
 10
127.2787527982629
 20
-5.317790833004625
 30
0.0
  0
SPLINE
  5
2B8
330
70
100
AcDbEntity
  8
0
 62
    18
420
        0
370
    25
100
AcDbSpline
210
0.0
220
0.0
230
1.0
 70
     8
 71
     3
 72
     8
 73
     4
 74
     0
 42
0.0000000001
 43
0.0000000001
 40
0.0
 40
0.0
 40
0.0
 40
0.0
 40
1.0
 40
1.0
 40
1.0
 40
1.0
 10
123.6953381757719
 20
1.933504396719601
 30
0.0
 10
122.9975044203587
 20
1.864593535490755
 30
0.0
 10
122.3646030155199
 20
1.49425240879869
 30
0.0
 10
121.9626785993091
 20
0.9196417400472302
 30
0.0
  0
LWPOLYLINE
  5
2B9
330
70
100
AcDbEntity
  8
0
 62
    18
420
        0
370
    25
100
AcDbPolyline
 90
       22
 70
     0
 43
0.0
 10
131.7978735557499
 20
-6.688947957705589
 10
131.7661843940495
 20
-6.030738549505935
 10
131.6715357431502
 20
-5.344525869906007
 10
131.5151577643499
 20
-4.639253037206152
 10
131.2990893112501
 20
-3.924114997105574
 10
131.0261489544498
 20
-3.208435900905826
 10
130.6998928343498
 20
-2.501543633006094
 10
130.3245777825496
 20
-1.812656505305541
 10
129.9050928334499
 20
-1.150752844305816
 10
129.4469065407499
 20
-0.5244618700058743
 10
128.9559958543498
 20
0.0580507477938518
 10
128.4387565585498
 20
0.5891923872938602
 10
127.9019321490497
 20
1.062038145693882
 10
127.3525242711498
 20
1.470422846794298
 10
126.7976926206497
 20
1.809023922294126
 10
126.2446706504495
 20
2.073426042794234
 10
125.7006681058497
 20
2.260183466993832
 10
125.1727761940501
 20
2.366861097693842
 10
124.6678753881497
 20
2.392069454393899
 10
124.1925537673499
 20
2.335476072394305
 10
123.7530016500497
 20
2.197822983993991
 10
123.4992934270501
 20
2.071541044893866
  0
SPLINE
  5
2BA
330
70
100
AcDbEntity
  8
0
 62
    18
420
        0
370
    25
100
AcDbSpline
210
0.0
220
0.0
230
1.0
 70
     8
 71
     3
 72
     8
 73
     4
 74
     0
 42
0.0000000001
 43
0.0000000001
 40
0.0
 40
0.0
 40
0.0
 40
0.0
 40
1.0
 40
1.0
 40
1.0
 40
1.0
 10
131.3872526157706
 20
-8.709971115777403
 30
0.0
 10
131.6762700614017
 20
-8.076364514167908
 30
0.0
 10
131.8167167500177
 20
-7.385104077739812
 30
0.0
 10
131.7978735557448
 20
-6.688947957669012
 30
0.0
  0
LINE
  5
2BB
330
70
100
AcDbEntity
  8
0
 62
   144
420
    29337
370
    18
100
AcDbLine
 10
125.6106891940498
 20
-5.311417099705626
 30
0.0
 11
125.6165107274496
 21
-5.378592898505742
 31
0.0
  0
LWPOLYLINE
  5
2BC
330
70
100
AcDbEntity
  8
0
 62
   144
420
    29337
370
    18
100
AcDbPolyline
 90
        3
 70
     0
 43
0.0
 10
125.6034899854497
 20
-5.24960221830577
 10
125.6072911043501
 20
-5.269630553005629
 10
125.6106891940498
 20
-5.311417099705626
  0
SPLINE
  5
2BD
330
70
100
AcDbEntity
  8
0
 62
    18
420
        0
370
    25
100
AcDbSpline
210
0.0
220
0.0
230
1.0
 70
     8
 71
     3
 72
     8
 73
     4
 74
     0
 42
0.0000000001
 43
0.0000000001
 40
0.0
 40
0.0
 40
0.0
 40
0.0
 40
1.0
 40
1.0
 40
1.0
 40
1.0
 10
174.3897418682607
 20
-51.78440903312115
 30
0.0
 10
174.4560459907174
 20
-51.82269180980199
 30
0.0
 10
174.5196344689384
 20
-51.82899354746487
 30
0.0
 10
174.5665185635468
 20
-51.80192793575537
 30
0.0
  0
LINE
  5
2BE
330
70
100
AcDbEntity
  8
0
 62
    18
420
        0
370
    25
100
AcDbLine
 10
174.5665191325497
 20
-51.80192828590615
 30
0.0
 11
174.5665191325497
 21
-52.82260427790575
 31
0.0
  0
SPLINE
  5
2BF
330
70
100
AcDbEntity
  8
0
 62
    18
420
        0
370
    25
100
AcDbSpline
210
0.0
220
0.0
230
1.0
 70
     8
 71
     3
 72
     8
 73
     4
 74
     0
 42
0.0000000001
 43
0.0000000001
 40
0.0
 40
0.0
 40
0.0
 40
0.0
 40
1.0
 40
1.0
 40
1.0
 40
1.0
 10
174.5665185644246
 20
-52.82260395011177
 30
0.0
 10
174.5196344694332
 20
-52.84966956204457
 30
0.0
 10
174.4560459909497
 20
-52.88638190451958
 30
0.0
 10
174.3897418682543
 20
-52.92466468133454
 30
0.0
  0
SPLINE
  5
2C0
330
70
100
AcDbEntity
  8
0
 62
    18
420
        0
370
    25
100
AcDbSpline
210
0.0
220
0.0
230
1.0
 70
     8
 71
     3
 72
     8
 73
     4
 74
     0
 42
0.0000000001
 43
0.0000000001
 40
0.0
 40
0.0
 40
0.0
 40
0.0
 40
1.0
 40
1.0
 40
1.0
 40
1.0
 10
174.3897418682453
 20
-52.92466468133454
 30
0.0
 10
174.323437745743
 20
-52.88638190463124
 30
0.0
 10
174.2598492674867
 20
-52.84966956228778
 30
0.0
 10
174.2129651729015
 20
-52.82260395058919
 30
0.0
  0
LINE
  5
2C1
330
70
100
AcDbEntity
  8
0
 62
    18
420
        0
370
    25
100
AcDbLine
 10
174.2129650254499
 20
-52.82260427790575
 30
0.0
 11
174.2129650254499
 21
-51.80192828590615
 31
0.0
  0
SPLINE
  5
2C2
330
70
100
AcDbEntity
  8
0
 62
    18
420
        0
370
    25
100
AcDbSpline
210
0.0
220
0.0
230
1.0
 70
     8
 71
     3
 72
     8
 73
     4
 74
     0
 42
0.0000000001
 43
0.0000000001
 40
0.0
 40
0.0
 40
0.0
 40
0.0
 40
1.0
 40
1.0
 40
1.0
 40
1.0
 10
174.2129651729534
 20
-51.80192793575537
 30
0.0
 10
174.2598492675611
 20
-51.82899354746487
 30
0.0
 10
174.3234377457822
 20
-51.82269180980199
 30
0.0
 10
174.3897418682395
 20
-51.78440903312115
 30
0.0
  0
LINE
  5
2C3
330
70
100
AcDbEntity
  8
0
 62
    18
420
        0
370
    25
100
AcDbLine
 10
103.8558412773498
 20
-10.98150644940608
 30
0.0
 11
174.3897407619497
 21
-51.69985990730566
 31
0.0
  0
LINE
  5
2C4
330
70
100
AcDbEntity
  8
0
 62
    18
420
        0
370
    25
100
AcDbLine
 10
174.3897407619497
 20
-51.69985990730566
 30
0.0
 11
174.3897414204497
 21
-51.78440909550585
 31
0.0
  0
LINE
  5
2C5
330
70
100
AcDbEntity
  8
0
 62
    18
420
        0
370
    25
100
AcDbLine
 10
174.2129650254499
 20
-51.80192828590615
 30
0.0
 11
103.8558399602496
 21
-11.18562452810586
 31
0.0
  0
SPLINE
  5
2C6
330
70
100
AcDbEntity
  8
0
 62
    18
420
        0
370
    25
100
AcDbSpline
210
0.0
220
0.0
230
1.0
 70
     8
 71
     3
 72
     8
 73
     4
 74
     0
 42
0.0000000001
 43
0.0000000001
 40
0.0
 40
0.0
 40
0.0
 40
0.0
 40
1.0
 40
1.0
 40
1.0
 40
1.0
 10
103.7826171402609
 20
-11.02378354201208
 30
0.0
 10
103.7826171402577
 20
-11.10034287384619
 30
0.0
 10
103.8089563503454
 20
-11.15855876094542
 30
0.0
 10
103.8558404449532
 20
-11.18562437265491
 30
0.0
  0
LINE
  5
2C7
330
70
100
AcDbEntity
  8
0
 62
    18
420
        0
370
    25
100
AcDbLine
 10
103.7826170549496
 20
-11.02378381350596
 30
0.0
 11
103.8558412773498
 21
-10.98150644940608
 31
0.0
  0
LINE
  5
2C8
330
70
100
AcDbEntity
  8
0
 62
    18
420
        0
370
    25
100
AcDbLine
 10
174.3897407619497
 20
-51.69985990730566
 30
0.0
 11
190.12286691725
 21
-42.61731950510608
 31
0.0
  0
LINE
  5
2C9
330
70
100
AcDbEntity
  8
0
 62
    18
420
        0
370
    25
100
AcDbLine
 10
190.12286691725
 20
-42.61731950510608
 30
0.0
 11
190.1960911396496
 21
-42.65959762960584
 31
0.0
  0
SPLINE
  5
2CA
330
70
100
AcDbEntity
  8
0
 62
    18
420
        0
370
    25
100
AcDbSpline
210
0.0
220
0.0
230
1.0
 70
     8
 71
     3
 72
     8
 73
     4
 74
     0
 42
0.0000000001
 43
0.0000000001
 40
0.0
 40
0.0
 40
0.0
 40
0.0
 40
1.0
 40
1.0
 40
1.0
 40
1.0
 10
190.1228677496466
 20
-42.82143870575502
 30
0.0
 10
190.1697518442544
 20
-42.79437309404553
 30
0.0
 10
190.1960910543421
 20
-42.73615720694631
 30
0.0
 10
190.1960910543395
 20
-42.6595978751122
 30
0.0
  0
LINE
  5
2CB
330
70
100
AcDbEntity
  8
0
 62
    18
420
        0
370
    25
100
AcDbLine
 10
190.1228682343501
 20
-42.82143910450552
 30
0.0
 11
174.5665191325497
 21
-51.80192828590615
 31
0.0
  0
LINE
  5
2CC
330
70
100
AcDbEntity
  8
0
 62
    18
420
        0
370
    25
100
AcDbLine
 10
119.5889674326501
 20
-1.898966047205865
 30
0.0
 11
103.8558412773498
 21
-10.98150644940608
 31
0.0
  0
LINE
  5
2CD
330
70
100
AcDbEntity
  8
0
 62
    18
420
        0
370
    25
100
AcDbLine
 10
190.12286691725
 20
-42.61731950510608
 30
0.0
 11
186.4904829252497
 21
-40.52038886100553
 31
0.0
  0
LINE
  5
2CE
330
70
100
AcDbEntity
  8
0
 62
    18
420
        0
370
    25
100
AcDbLine
 10
183.9727961483499
 20
-39.06695922180592
 30
0.0
 11
125.4982795977501
 21
-5.310339347005855
 31
0.0
  0
LINE
  5
2CF
330
70
100
AcDbEntity
  8
0
 62
    18
420
        0
370
    25
100
AcDbLine
 10
122.9805928209498
 20
-3.856909707905696
 30
0.0
 11
119.5889674326501
 21
-1.898966047205865
 31
0.0
  0
LINE
  5
2D0
330
70
100
AcDbEntity
  8
0
 62
    18
420
        0
370
    25
100
AcDbLine
 10
190.1228682343501
 20
-43.84211509650577
 30
0.0
 11
190.1228682343501
 21
-42.82143910450552
 31
0.0
  0
LINE
  5
2D1
330
70
100
AcDbEntity
  8
0
 62
    18
420
        0
370
    25
100
AcDbLine
 10
174.5665191325497
 20
-52.82260427790575
 30
0.0
 11
190.1228682343501
 21
-43.84211509650577
 31
0.0
  0
LINE
  5
2D2
330
70
100
AcDbEntity
  8
0
 62
    18
420
        0
370
    25
100
AcDbLine
 10
103.8558399602496
 20
-12.20630052010611
 30
0.0
 11
174.2129650254499
 21
-52.82260427790575
 31
0.0
  0
LINE
  5
2D3
330
70
100
AcDbEntity
  8
0
 62
    18
420
        0
370
    25
100
AcDbLine
 10
103.8558399602496
 20
-11.18562452810586
 30
0.0
 11
103.8558399602496
 21
-12.20630052010611
 31
0.0
  0
LINE
  5
2D4
330
70
100
AcDbEntity
  8
0
 62
    18
420
        0
370
    25
100
AcDbLine
 10
190.12286691725
 20
-43.84213073360571
 30
0.0
 11
174.3897407619497
 21
-52.92467113580594
 31
0.0
  0
LINE
  5
2D5
330
70
100
AcDbEntity
  8
0
 62
    18
420
        0
370
    25
100
AcDbLine
 10
174.3897407619497
 20
-52.92467113580594
 30
0.0
 11
174.3897414204497
 21
-52.9246646452056
 31
0.0
  0
LINE
  5
2D6
330
70
100
AcDbEntity
  8
0
 62
    18
420
        0
370
    25
100
AcDbLine
 10
190.1960911396496
 20
-43.79985317940571
 30
0.0
 11
190.1228682343501
 21
-43.84211509650577
 31
0.0
  0
LINE
  5
2D7
330
70
100
AcDbEntity
  8
0
 62
    18
420
        0
370
    25
100
AcDbLine
 10
190.12286691725
 20
-43.84213073360571
 30
0.0
 11
190.1960911396496
 21
-43.79985317940571
 31
0.0
  0
LINE
  5
2D8
330
70
100
AcDbEntity
  8
0
 62
    18
420
        0
370
    25
100
AcDbLine
 10
174.3897407619497
 20
-52.92467113580594
 30
0.0
 11
103.8558412773498
 21
-12.20631767790572
 31
0.0
  0
LINE
  5
2D9
330
70
100
AcDbEntity
  8
0
 62
    18
420
        0
370
    25
100
AcDbLine
 10
103.7826170549496
 20
-12.16403936330582
 30
0.0
 11
103.8558412773498
 21
-12.20631767790572
 31
0.0
  0
SPLINE
  5
2DA
330
70
100
AcDbEntity
  8
0
 62
    18
420
        0
370
    25
100
AcDbSpline
210
0.0
220
0.0
230
1.0
 70
     8
 71
     3
 72
     8
 73
     4
 74
     0
 42
0.0000000001
 43
0.0000000001
 40
0.0
 40
0.0
 40
0.0
 40
0.0
 40
1.0
 40
1.0
 40
1.0
 40
1.0
 10
103.8558404449898
 20
-12.20630038754007
 30
0.0
 10
103.8089563505123
 20
-12.17923477590437
 30
0.0
 10
103.7826171404945
 20
-12.16403296882687
 30
0.0
 10
103.7826171404765
 20
-12.16403919033713
 30
0.0
  0
LINE
  5
2DB
330
70
100
AcDbEntity
  8
0
 62
    18
420
        0
370
    25
100
AcDbLine
 10
181.6833599102499
 20
-40.38862424340609
 30
0.0
 11
181.8074692081496
 21
-40.3328957632061
 31
0.0
  0
LWPOLYLINE
  5
2DC
330
70
100
AcDbEntity
  8
0
 62
   144
420
    29337
370
    18
100
AcDbPolyline
 90
       12
 70
     0
 43
0.0
 10
188.2709561256501
 20
-40.52784034690612
 10
188.2354974551498
 20
-40.14397569500611
 10
188.1309047822501
 20
-39.73842285460586
 10
187.96242012115
 20
-39.33151649190577
 10
187.7384912808495
 20
-38.943660364306
 10
187.4703477622501
 20
-38.59430339730569
 10
187.1714344100501
 20
-38.3009631130057
 10
186.8567423314501
 20
-38.07835040000579
 10
186.5420502529496
 20
-37.93762737290558
 10
186.2431369007495
 20
-37.88584964690557
 10
185.9749960163497
 20
-37.92561621780567
 10
185.8568241556497
 20
-37.9793346177061
  0
LINE
  5
2DD
330
70
100
AcDbEntity
  8
0
 62
   144
420
    29337
370
    18
100
AcDbLine
 10
183.9080233569502
 20
-42.01121136670608
 30
0.0
 11
186.66727446675
 21
-40.41832960650615
 31
0.0
  0
SPLINE
  5
2DE
330
70
100
AcDbEntity
  8
0
 62
   144
420
    29337
370
    18
100
AcDbSpline
210
0.0
220
0.0
230
1.0
 70
     8
 71
     3
 72
     8
 73
     4
 74
     0
 42
0.0000000001
 43
0.0000000001
 40
0.0
 40
0.0
 40
0.0
 40
0.0
 40
1.0
 40
1.0
 40
1.0
 40
1.0
 10
186.7535411631068
 20
-40.6722655466688
 30
0.0
 10
186.7284825942119
 20
-40.58640899135013
 30
0.0
 10
186.6996998029971
 20
-40.50168353579565
 30
0.0
 10
186.6672744667404
 20
-40.41832960646508
 30
0.0
  0
LWPOLYLINE
  5
2DF
330
70
100
AcDbEntity
  8
0
 62
    18
420
        0
370
    25
100
AcDbPolyline
 90
       10
 70
     0
 43
0.0
 10
183.7432900946498
 20
-42.01532157090582
 10
183.5555048110501
 20
-41.63092748130602
 10
183.3188976719497
 20
-41.27401501790596
 10
183.04553057825
 20
-40.96277370170602
 10
182.7493251611496
 20
-40.71305749720585
 10
182.4453778947497
 20
-40.53759247520584
 10
182.1491724775498
 20
-40.44531718450598
 10
181.8758053839502
 20
-40.4409355727061
 10
181.6391982447497
 20
-40.52466724790567
 10
181.4514129612501
 20
-40.69224906420615
  0
SPLINE
  5
2E0
330
70
100
AcDbEntity
  8
0
 62
   144
420
    29337
370
    18
100
AcDbSpline
210
0.0
220
0.0
230
1.0
 70
     8
 71
     3
 72
    11
 73
     7
 74
     0
 42
0.0000000001
 43
0.0000000001
 40
0.0
 40
0.0
 40
0.0
 40
0.0
 40
1.0
 40
1.0
 40
1.0
 40
2.0
 40
2.0
 40
2.0
 40
2.0
 10
181.4514139123591
 20
-40.69224957635193
 30
0.0
 10
181.4349361428147
 20
-40.67782616881018
 30
0.0
 10
181.4252469121864
 20
-40.66093617740676
 30
0.0
 10
181.4256563848751
 20
-40.64373397381367
 30
0.0
 10
181.4260658575645
 20
-40.62653177022122
 30
0.0
 10
181.4374120321344
 20
-40.60934390761601
 30
0.0
 10
181.4585331786352
 20
-40.5971509292757
 30
0.0
  0
SPLINE
  5
2E1
330
70
100
AcDbEntity
  8
0
 62
   144
420
    29337
370
    18
100
AcDbSpline
210
0.0
220
0.0
230
1.0
 70
     8
 71
     3
 72
    11
 73
     7
 74
     0
 42
0.0000000001
 43
0.0000000001
 40
0.0
 40
0.0
 40
0.0
 40
0.0
 40
1.0
 40
1.0
 40
1.0
 40
2.0
 40
2.0
 40
2.0
 40
2.0
 10
183.9080229214181
 20
-42.01121125866386
 30
0.0
 10
183.886981878374
 20
-42.02335799426298
 30
0.0
 10
183.8571001524875
 20
-42.02995210213119
 30
0.0
 10
183.8273479710274
 20
-42.03019048426675
 30
0.0
 10
183.7975957895674
 20
-42.03042886640232
 30
0.0
 10
183.7680679806977
 20
-42.02475503706845
 30
0.0
 10
183.74328938373
 20
-42.01532112360438
 30
0.0
  0
SPLINE
  5
2E2
330
70
100
AcDbEntity
  8
0
 62
   144
420
    29337
370
    18
100
AcDbSpline
210
0.0
220
0.0
230
1.0
 70
     8
 71
     3
 72
     8
 73
     4
 74
     0
 42
0.0000000001
 43
0.0000000001
 40
0.0
 40
0.0
 40
0.0
 40
0.0
 40
1.0
 40
1.0
 40
1.0
 40
1.0
 10
181.4514129612289
 20
-40.69224906414198
 30
0.0
 10
182.1316856454017
 20
-41.2645287237743
 30
0.0
 10
182.9075166005392
 20
-41.71240640083055
 30
0.0
 10
183.7432900946293
 20
-42.01532157086411
 30
0.0
  0
SPLINE
  5
2E3
330
70
100
AcDbEntity
  8
0
 62
   144
420
    29337
370
    18
100
AcDbSpline
210
0.0
220
0.0
230
1.0
 70
     8
 71
     3
 72
     8
 73
     4
 74
     0
 42
0.0000000001
 43
0.0000000001
 40
0.0
 40
0.0
 40
0.0
 40
0.0
 40
1.0
 40
1.0
 40
1.0
 40
1.0
 10
187.9609081029484
 20
-41.36924748366203
 30
0.0
 10
188.1868798264313
 20
-41.15055143130165
 30
0.0
 10
188.3009927298203
 20
-40.84087227106397
 30
0.0
 10
188.2709561256623
 20
-40.52784034690485
 30
0.0
  0
LWPOLYLINE
  5
2E4
330
70
100
AcDbEntity
  8
0
 62
     8
420
  8421504
370
    25
100
AcDbPolyline
 90
        3
 70
     0
 43
0.0
 10
182.2832554321498
 20
-36.92720680890577
 10
182.3149946432502
 20
-37.57480224170592
 10
182.39283987245
 20
-38.15486994700576
  0
LWPOLYLINE
  5
2E5
330
70
100
AcDbEntity
  8
0
 62
     8
420
  8421504
370
    25
100
AcDbPolyline
 90
       41
 70
     0
 43
0.0
 10
187.5301640184496
 20
-45.33886752440561
 10
187.7923253187498
 20
-45.44560050800572
 10
188.3234730745496
 20
-45.60685929680564
 10
188.8364133918497
 20
-45.68738468080558
 10
189.32421047975
 20
-45.68608832810588
 10
189.7802709907501
 20
-45.60298929840586
 10
190.1984230457497
 20
-45.43920909340583
 10
190.5730163327499
 20
-45.19696518240582
 10
190.8989826933496
 20
-44.8795317865058
 10
191.1719125134497
 20
-44.49120106290581
 10
191.3881153095501
 20
-44.037224663106
 10
191.5446697783498
 20
-43.52374329010593
 10
191.6394580406496
 20
-42.95770038290577
 10
191.67119725175
 20
-42.34675026320608
 10
191.6394580406496
 20
-41.69915483040592
 10
191.5446697783498
 20
-41.02367172500581
 10
191.3881153095501
 20
-40.32943626720576
 10
191.1719125134497
 20
-39.62583750370597
 10
190.8989826933496
 20
-38.92238893120557
 10
190.5730163327499
 20
-38.22860283370613
 10
190.1984230457497
 20
-37.55386252940594
 10
189.7802709907501
 20
-36.90729423810575
 10
189.32421047975
 20
-36.29763895050555
 10
188.8364133918497
 20
-35.73314368780601
 10
188.3234730745496
 20
-35.22144135780577
 10
187.7923253187498
 20
-34.76945000110586
 10
187.2501561620497
 20
-34.38328458600559
 10
186.70429652185
 20
-34.06816652320573
 10
186.16212736515
 20
-33.82835675430573
 10
185.6309796093501
 20
-33.6670979655058
 10
185.1180392920501
 20
-33.58657201110601
 10
184.6302422041498
 20
-33.58786874410608
 10
184.1741816931496
 20
-33.67096777370599
 10
183.75602963815
 20
-33.83474797880613
 10
183.3814363511498
 20
-34.07699207980616
 10
183.0554726247497
 20
-34.394426948906
 10
182.78254017045
 20
-34.78275593800569
 10
182.5663373743496
 20
-35.23673226650566
 10
182.4097829055499
 20
-35.75021378200593
 10
182.3149946432502
 20
-36.31625668930554
 10
182.2832554321498
 20
-36.92720680890577
  0
LWPOLYLINE
  5
2E6
330
70
100
AcDbEntity
  8
0
 62
     8
420
  8421504
370
    25
100
AcDbPolyline
 90
       25
 70
     0
 43
0.0
 10
184.68329784245
 20
-33.27409530400591
 10
185.1342717556495
 20
-33.26283159730589
 10
185.6515110514495
 20
-33.32888173710585
 10
186.1883354609497
 20
-33.47584024900605
 10
186.7377433389497
 20
-33.70178838160577
 10
187.2925749894498
 20
-34.00378229440616
 10
187.8455969596499
 20
-34.37788574970558
 10
188.3895995042498
 20
-34.81922029420565
 10
188.91749141605
 20
-35.32203369140557
 10
189.4223922219497
 20
-35.87977139690564
 10
189.8977138427496
 20
-36.48515944080578
 10
190.3372659600497
 20
-37.13030860150556
 10
190.7353166024501
 20
-37.80680831700593
 10
191.0866764392499
 20
-38.50583846520557
 10
191.3867620006499
 20
-39.21828494820584
 10
191.6316668005497
 20
-39.93486288050556
 10
191.8181929470499
 20
-40.64622761420562
 10
191.9439117277496
 20
-41.34310705300594
 10
192.0071846841495
 20
-42.01641686090602
 10
192.0071846841495
 20
-42.65737795180615
 10
191.9439117277496
 20
-43.25763426420581
 10
191.8181929470499
 20
-43.80936198340599
 10
191.6316668005497
 20
-44.30536820060602
 10
191.3867620006499
 20
-44.73918503400564
 10
191.3773263748498
 20
-44.7529470182061
  0
LWPOLYLINE
  5
2E7
330
70
100
AcDbEntity
  8
0
 62
     8
420
  8421504
370
    25
100
AcDbPolyline
 90
       13
 70
     0
 43
0.0
 10
188.27802691805
 20
-40.51885883890555
 10
188.2449627154496
 20
-40.14870700940603
 10
188.14731900415
 20
-39.75768957500618
 10
187.9896581805496
 20
-39.36408820600586
 10
187.7793559431499
 20
-38.98630921450589
 10
187.5262430444497
 20
-38.64201590020588
 10
187.2421548462498
 20
-38.34730691250579
 10
186.94037814255
 20
-38.11596401430605
 10
186.6350189567499
 20
-37.95880232580593
 10
186.3403598020496
 20
-37.88317266230597
 10
186.0701747955499
 20
-37.89260912310603
 10
185.8371000890498
 20
-37.9866724959061
 10
185.8009038487501
 20
-38.01161565310604
  0
SPLINE
  5
2E8
330
70
100
AcDbEntity
  8
0
 62
     8
420
  8421504
370
    25
100
AcDbSpline
210
0.0
220
0.0
230
1.0
 70
     8
 71
     3
 72
     8
 73
     4
 74
     0
 42
0.0000000001
 43
0.0000000001
 40
0.0
 40
0.0
 40
0.0
 40
0.0
 40
1.0
 40
1.0
 40
1.0
 40
1.0
 10
188.0594928743052
 20
-41.26479876323231
 30
0.0
 10
188.215919739098
 20
-41.04866599348996
 30
0.0
 10
188.2930960428505
 20
-40.78523387459392
 30
0.0
 10
188.2780269180115
 20
-40.51885883886064
 30
0.0
  0
LINE
  5
2E9
330
70
100
AcDbEntity
  8
0
 62
     8
420
  8421504
370
    25
100
AcDbLine
 10
126.3949702634496
 20
-5.827987630505528
 30
0.0
 11
127.27875279825
 21
-5.317790833005909
 31
0.0
  0
LWPOLYLINE
  5
2EA
330
70
100
AcDbEntity
  8
0
 62
     8
420
  8421504
370
    25
100
AcDbPolyline
 90
        9
 70
     0
 43
0.0
 10
120.8152632465498
 20
-5.122844728605579
 10
120.91395272655
 20
-5.097629545506006
 10
121.2073843542499
 20
-5.09684877340613
 10
121.5268943444498
 20
-5.193853477505872
 10
121.8552551728499
 20
-5.383412148806031
 10
122.1747651630499
 20
-5.655305827205684
 10
122.4681967907498
 20
-5.994875545305884
 10
122.7197370851502
 20
-6.383817684705846
 10
122.91582002955
 20
-6.801161852805869
  0
LWPOLYLINE
  5
2EB
330
70
100
AcDbEntity
  8
0
 62
     8
420
  8421504
370
    25
100
AcDbPolyline
 90
        3
 70
     0
 43
0.0
 10
121.2952957655499
 20
-1.719607108205917
 10
121.3270349766496
 20
-2.367202541006071
 10
121.4048802058501
 20
-2.947270246305909
  0
LWPOLYLINE
  5
2EC
330
70
100
AcDbEntity
  8
0
 62
     8
420
  8421504
370
    25
100
AcDbPolyline
 90
       30
 70
     0
 43
0.0
 10
130.5736531448499
 20
-8.240290198906045
 10
130.6514983740497
 20
-7.750100682205929
 10
130.6832375851501
 20
-7.139150562505599
 10
130.6514983740497
 20
-6.491555129706086
 10
130.5567101117499
 20
-5.81607202430596
 10
130.4001556429496
 20
-5.121836566505916
 10
130.1839528468498
 20
-4.418237803006116
 10
129.9110203925501
 20
-3.714787709806051
 10
129.58505666615
 20
-3.021003133005639
 10
129.2104633791499
 20
-2.346262828706093
 10
128.7923113241496
 20
-1.699694537405899
 10
128.3362508131501
 20
-1.090039249805704
 10
127.8484537252498
 20
-0.5255439871055141
 10
127.3355134079497
 20
-0.0138416571059232
 10
126.8043656521499
 20
0.4381496995939881
 10
126.2621964954498
 20
0.8243151146942613
 10
125.7163368552501
 20
1.139433177494124
 10
125.1741676985501
 20
1.37924294639412
 10
124.6430199427496
 20
1.540501735194044
 10
124.1300796254495
 20
1.621027689593841
 10
123.6422825375499
 20
1.619730956594417
 10
123.1862220265498
 20
1.536631926993855
 10
122.7680699715501
 20
1.372851721894358
 10
122.3934766845499
 20
1.13060762089433
 10
122.0675103239496
 20
0.8131742724941622
 10
121.7945805038501
 20
0.4248437626941651
 10
121.5783777077497
 20
-0.0291325658058141
 10
121.42182323895
 20
-0.5426140813060785
 10
121.3270349766496
 20
-1.108656988605691
 10
121.2952957655499
 20
-1.719607108205917
  0
LWPOLYLINE
  5
2ED
330
70
100
AcDbEntity
  8
0
 62
     8
420
  8421504
370
    25
100
AcDbPolyline
 90
       22
 70
     0
 43
0.0
 10
123.6953381758495
 20
1.933504396693933
 10
124.1463120890496
 20
1.944768103393955
 10
124.6635513848497
 20
1.878717963594002
 10
125.2003731601496
 20
1.731760972293997
 10
125.7497836722497
 20
1.505811319094075
 10
126.3046153228499
 20
1.203817406294332
 10
126.85763729305
 20
0.8297139509942725
 10
127.4016398376499
 20
0.3883794064941956
 10
127.9295317494501
 20
-0.1144339907057253
 10
128.4344325553499
 20
-0.6721716962057917
 10
128.9097541761497
 20
-1.27755974010593
 10
129.3493062934498
 20
-1.922708900805714
 10
129.7473569358496
 20
-2.599208616306084
 10
130.0987167726501
 20
-3.298238764505714
 10
130.39880233405
 20
-4.010685247505985
 10
130.6437071339498
 20
-4.727263179805714
 10
130.83023328045
 20
-5.438627913505774
 10
130.9559520611498
 20
-6.135507352306089
 10
131.0192250175497
 20
-6.808817160206173
 10
131.0192250175497
 20
-7.449778251105664
 10
130.9559520611498
 20
-8.05003456350597
 10
130.88055398335
 20
-8.417459949705904
  0
LWPOLYLINE
  5
2EE
330
70
100
AcDbEntity
  8
0
 62
     8
420
  8421504
370
    25
100
AcDbPolyline
 90
       12
 70
     0
 43
0.0
 10
127.2900672514502
 20
-5.311259138205713
 10
127.2570030487496
 20
-4.941107308705542
 10
127.1593593375501
 20
-4.550089874305682
 10
127.0016985139498
 20
-4.15648850530601
 10
126.79139627655
 20
-3.778709513806036
 10
126.5382833778498
 20
-3.434416199506029
 10
126.2541951796499
 20
-3.139707211805941
 10
125.9524184759501
 20
-2.908364313605564
 10
125.64705929015
 20
-2.751202625106083
 10
125.3524001354497
 20
-2.675572961606116
 10
125.08221512895
 20
-2.68500942240618
 10
124.8702902378498
 20
-2.766050165105769
  0
SPLINE
  5
2EF
330
70
100
AcDbEntity
  8
0
 62
     8
420
  8421504
370
    25
100
AcDbSpline
210
0.0
220
0.0
230
1.0
 70
     8
 71
     3
 72
     8
 73
     4
 74
     0
 42
0.0000000001
 43
0.0000000001
 40
0.0
 40
0.0
 40
0.0
 40
0.0
 40
1.0
 40
1.0
 40
1.0
 40
1.0
 10
126.9708707284666
 20
-6.160448284747009
 30
0.0
 10
127.2021644896898
 20
-5.941511396542171
 30
0.0
 10
127.3198799236507
 20
-5.628341729293267
 30
0.0
 10
127.2900672514861
 20
-5.311259138197371
 30
0.0
  0
LINE
  5
2F0
330
70
100
AcDbEntity
  8
0
 62
     8
420
  8421504
370
    25
100
AcDbLine
 10
187.3871735908497
 20
-41.03803714440575
 30
0.0
 11
188.2709561256501
 21
-40.52784034690612
 31
0.0
  0
LWPOLYLINE
  5
2F1
330
70
100
AcDbEntity
  8
0
 62
     8
420
  8421504
370
    25
100
AcDbPolyline
 90
        9
 70
     0
 43
0.0
 10
181.8074692081496
 20
-40.3328957632061
 10
181.9061560539501
 20
-40.30767905940559
 10
182.19958768165
 20
-40.30689828730571
 10
182.5190976718499
 20
-40.40390299140609
 10
182.8474585002501
 20
-40.59346166280572
 10
183.16696849045
 20
-40.86535534120601
 10
183.4604001181499
 20
-41.20492505930556
 10
183.7119404126497
 20
-41.59386719860606
 10
183.9080233569495
 20
-42.01121136670608
  0
ENDSEC
  0
SECTION
  2
OBJECTS
  0
DICTIONARY
  5
C
330
0
100
AcDbDictionary
281
     1
  3
ACAD_COLOR
350
63
  3
ACAD_DETAILVIEWSTYLE
350
6A
  3
ACAD_GROUP
350
D
  3
ACAD_LAYOUT
350
62
  3
ACAD_MATERIAL
350
10
  3
ACAD_MLEADERSTYLE
350
66
  3
ACAD_MLINESTYLE
350
5F
  3
ACAD_PLOTSETTINGS
350
61
  3
ACAD_PLOTSTYLENAME
350
E
  3
ACAD_SCALELIST
350
42
  3
ACAD_SECTIONVIEWSTYLE
350
68
  3
ACAD_TABLESTYLE
350
64
  3
ACAD_VISUALSTYLE
350
29
  3
ACDB_RECOMPOSE_DATA
350
2FA
  3
AcDbVariableDictionary
350
2F2
  0
DICTIONARY
  5
63
102
{ACAD_REACTORS
330
C
102
}
330
C
100
AcDbDictionary
281
     1
  0
DICTIONARY
  5
6A
102
{ACAD_REACTORS
330
C
102
}
330
C
100
AcDbDictionary
281
     1
  3
Imperial24
350
6B
  0
DICTIONARY
  5
D
102
{ACAD_REACTORS
330
C
102
}
330
C
100
AcDbDictionary
281
     1
  0
DICTIONARY
  5
62
102
{ACAD_REACTORS
330
C
102
}
330
C
100
AcDbDictionary
281
     1
  3
Layout1
350
6F
  3
Layout2
350
77
  3
Model
350
73
  0
DICTIONARY
  5
10
102
{ACAD_REACTORS
330
C
102
}
330
C
100
AcDbDictionary
281
     1
  3
ByBlock
350
19
  3
ByLayer
350
11
  3
Global
350
21
  0
DICTIONARY
  5
66
102
{ACAD_REACTORS
330
C
102
}
330
C
100
AcDbDictionary
281
     1
  3
Standard
350
67
  0
DICTIONARY
  5
5F
102
{ACAD_REACTORS
330
C
102
}
330
C
100
AcDbDictionary
281
     1
  3
Standard
350
60
  0
DICTIONARY
  5
61
102
{ACAD_REACTORS
330
C
102
}
330
C
100
AcDbDictionary
281
     1
  0
ACDBDICTIONARYWDFLT
  5
E
102
{ACAD_REACTORS
330
C
102
}
330
C
100
AcDbDictionary
281
     1
  3
Normal
350
F
100
AcDbDictionaryWithDefault
340
F
  0
DICTIONARY
  5
42
102
{ACAD_REACTORS
330
C
102
}
330
C
100
AcDbDictionary
281
     1
  3
A0
350
43
  3
A1
350
44
  3
A2
350
45
  3
A3
350
46
  3
A4
350
47
  3
A5
350
48
  3
A6
350
49
  3
A7
350
4A
  3
A8
350
4B
  3
A9
350
4C
  3
B0
350
4D
  3
B1
350
4E
  3
B2
350
4F
  3
B3
350
50
  3
B4
350
51
  3
B5
350
52
  3
B6
350
53
  0
DICTIONARY
  5
68
102
{ACAD_REACTORS
330
C
102
}
330
C
100
AcDbDictionary
281
     1
  3
Imperial24
350
69
  0
DICTIONARY
  5
64
102
{ACAD_REACTORS
330
C
102
}
330
C
100
AcDbDictionary
281
     1
  3
Standard
350
65
  0
DICTIONARY
  5
29
102
{ACAD_REACTORS
330
C
102
}
330
C
100
AcDbDictionary
281
     1
  3
2dWireframe
350
2F
  3
Basic
350
2E
  3
Brighten
350
35
  3
ColorChange
350
39
  3
Conceptual
350
32
  3
Dim
350
34
  3
EdgeColorOff
350
41
  3
Facepattern
350
38
  3
Flat
350
2A
  3
FlatWithEdges
350
2B
  3
Gouraud
350
2C
  3
GouraudWithEdges
350
2D
  3
Hidden
350
31
  3
JitterOff
350
3F
  3
Linepattern
350
37
  3
OverhangOff
350
40
  3
Realistic
350
33
  3
Shaded
350
3E
  3
Shaded with edges
350
3D
  3
Shades of Gray
350
3A
  3
Sketchy
350
3B
  3
Thicken
350
36
  3
Wireframe
350
30
  3
X-Ray
350
3C
  0
XRECORD
  5
2FA
102
{ACAD_REACTORS
330
C
102
}
330
C
100
AcDbXrecord
280
     1
 90
        1
330
65
  0
DICTIONARY
  5
2F2
102
{ACAD_REACTORS
330
C
102
}
330
C
100
AcDbDictionary
281
     1
  3
CANNOSCALE
350
2F7
  3
CMLEADERSTYLE
350
2F4
  3
CTABLESTYLE
350
2F3
  3
CVIEWDETAILSTYLE
350
2F5
  3
CVIEWSECTIONSTYLE
350
2F6
  0
ACDBDETAILVIEWSTYLE
  5
6B
102
{ACAD_REACTORS
330
6A
102
}
330
6A
100
AcDbModelDocViewStyle
 70
     0
  3
Imperial24
290
     1
300
Imperial24
 90
        0
100
AcDbDetailViewStyle
 70
     0
 71
     0
 90
        3
 71
     1
340
55
 62
   256
 40
0.24
340
0
 62
   256
 40
0.24
300

 40
0.36
280
     3
 71
     2
340
5D
 90
       25
 62
   256
 71
     3
340
55
 62
   256
 40
0.24
 90
        1
 40
0.75
 90
        1
300
%<\AcVar ViewType \f "%tc1">% %<\AcVar ViewDetailId>%\PSCALE %<\AcVar ViewScale \f "%sn">%
 71
     4
340
5D
 90
       25
 62
   256
340
5D
 90
       25
 62
   256
280
     0
  0
LAYOUT
  5
6F
102
{ACAD_REACTORS
330
62
102
}
330
62
100
AcDbPlotSettings
  1

  2

  4

  6

 40
0.0
 41
0.0
 42
0.0
 43
0.0
 44
0.0
 45
0.0
 46
0.0
 47
0.0
 48
0.0
 49
0.0
140
0.0
141
0.0
142
1.0
143
1.0
 70
   688
 72
     0
 73
     0
 74
     5
  7

 75
    16
147
1.0
 76
     0
 77
     2
 78
   300
148
0.0
149
0.0
100
AcDbLayout
  1
Layout1
 70
     1
 71
     1
 10
0.0
 20
0.0
 11
12.0
 21
9.0
 12
0.0
 22
0.0
 32
0.0
 14
0.0
 24
0.0
 34
0.0
 15
0.0
 25
0.0
 35
0.0
146
0.0
 13
0.0
 23
0.0
 33
0.0
 16
1.0
 26
0.0
 36
0.0
 17
0.0
 27
1.0
 37
0.0
 76
     0
330
6C
  0
LAYOUT
  5
77
102
{ACAD_REACTORS
330
62
102
}
330
62
100
AcDbPlotSettings
  1

  2

  4

  6

 40
0.0
 41
0.0
 42
0.0
 43
0.0
 44
0.0
 45
0.0
 46
0.0
 47
0.0
 48
0.0
 49
0.0
140
0.0
141
0.0
142
1.0
143
1.0
 70
   688
 72
     0
 73
     0
 74
     5
  7

 75
    16
147
1.0
 76
     0
 77
     2
 78
   300
148
0.0
149
0.0
100
AcDbLayout
  1
Layout2
 70
     1
 71
     2
 10
0.0
 20
0.0
 11
12.0
 21
9.0
 12
0.0
 22
0.0
 32
0.0
 14
0.0
 24
0.0
 34
0.0
 15
0.0
 25
0.0
 35
0.0
146
0.0
 13
0.0
 23
0.0
 33
0.0
 16
1.0
 26
0.0
 36
0.0
 17
0.0
 27
1.0
 37
0.0
 76
     0
330
74
  0
LAYOUT
  5
73
102
{ACAD_REACTORS
330
62
102
}
330
62
100
AcDbPlotSettings
  1

  2

  4

  6

 40
0.0
 41
0.0
 42
0.0
 43
0.0
 44
0.0
 45
0.0
 46
0.0
 47
0.0
 48
0.0
 49
0.0
140
0.0
141
0.0
142
1.0
143
1.0
 70
  1712
 72
     0
 73
     0
 74
     0
  7

 75
     0
147
1.0
 76
     0
 77
     2
 78
   300
148
0.0
149
0.0
100
AcDbLayout
  1
Model
 70
     1
 71
     0
 10
0.0
 20
0.0
 11
12.0
 21
9.0
 12
0.0
 22
0.0
 32
0.0
 14
0.0
 24
0.0
 34
0.0
 15
0.0
 25
0.0
 35
0.0
146
0.0
 13
0.0
 23
0.0
 33
0.0
 16
1.0
 26
0.0
 36
0.0
 17
0.0
 27
1.0
 37
0.0
 76
     0
330
70
  0
MATERIAL
  5
19
102
{ACAD_XDICTIONARY
360
1A
102
}
102
{ACAD_REACTORS
330
10
102
}
330
10
100
AcDbMaterial
  1
ByBlock
 72
     0
 43
0.0208333333333333
 43
0.0
 43
0.0
 43
0.0
 43
0.0
 43
0.0208333333333333
 43
0.0
 43
0.0
 43
0.0
 43
0.0
 43
1.0
 43
0.0
 43
0.0
 43
0.0
 43
0.0
 43
1.0
 77
     0
 47
0.0208333333333333
 47
0.0
 47
0.0
 47
0.0
 47
0.0
 47
0.0208333333333333
 47
0.0
 47
0.0
 47
0.0
 47
0.0
 47
1.0
 47
0.0
 47
0.0
 47
0.0
 47
0.0
 47
1.0
171
     0
 49
0.0208333333333333
 49
0.0
 49
0.0
 49
0.0
 49
0.0
 49
0.0208333333333333
 49
0.0
 49
0.0
 49
0.0
 49
0.0
 49
1.0
 49
0.0
 49
0.0
 49
0.0
 49
0.0
 49
1.0
175
     0
142
0.0208333333333333
142
0.0
142
0.0
142
0.0
142
0.0
142
0.0208333333333333
142
0.0
142
0.0
142
0.0
142
0.0
142
1.0
142
0.0
142
0.0
142
0.0
142
0.0
142
1.0
179
     0
144
0.0208333333333333
144
0.0
144
0.0
144
0.0
144
0.0
144
0.0208333333333333
144
0.0
144
0.0
144
0.0
144
0.0
144
1.0
144
0.0
144
0.0
144
0.0
144
0.0
144
1.0
147
0.0208333333333333
147
0.0
147
0.0
147
0.0
147
0.0
147
0.0208333333333333
147
0.0
147
0.0
147
0.0
147
0.0
147
1.0
147
0.0
147
0.0
147
0.0
147
0.0
147
1.0
  0
MATERIAL
  5
11
102
{ACAD_XDICTIONARY
360
12
102
}
102
{ACAD_REACTORS
330
10
102
}
330
10
100
AcDbMaterial
  1
ByLayer
 72
     0
 43
0.0208333333333333
 43
0.0
 43
0.0
 43
0.0
 43
0.0
 43
0.0208333333333333
 43
0.0
 43
0.0
 43
0.0
 43
0.0
 43
1.0
 43
0.0
 43
0.0
 43
0.0
 43
0.0
 43
1.0
 77
     0
 47
0.0208333333333333
 47
0.0
 47
0.0
 47
0.0
 47
0.0
 47
0.0208333333333333
 47
0.0
 47
0.0
 47
0.0
 47
0.0
 47
1.0
 47
0.0
 47
0.0
 47
0.0
 47
0.0
 47
1.0
171
     0
 49
0.0208333333333333
 49
0.0
 49
0.0
 49
0.0
 49
0.0
 49
0.0208333333333333
 49
0.0
 49
0.0
 49
0.0
 49
0.0
 49
1.0
 49
0.0
 49
0.0
 49
0.0
 49
0.0
 49
1.0
175
     0
142
0.0208333333333333
142
0.0
142
0.0
142
0.0
142
0.0
142
0.0208333333333333
142
0.0
142
0.0
142
0.0
142
0.0
142
1.0
142
0.0
142
0.0
142
0.0
142
0.0
142
1.0
179
     0
144
0.0208333333333333
144
0.0
144
0.0
144
0.0
144
0.0
144
0.0208333333333333
144
0.0
144
0.0
144
0.0
144
0.0
144
1.0
144
0.0
144
0.0
144
0.0
144
0.0
144
1.0
147
0.0208333333333333
147
0.0
147
0.0
147
0.0
147
0.0
147
0.0208333333333333
147
0.0
147
0.0
147
0.0
147
0.0
147
1.0
147
0.0
147
0.0
147
0.0
147
0.0
147
1.0
  0
MATERIAL
  5
21
102
{ACAD_XDICTIONARY
360
22
102
}
102
{ACAD_REACTORS
330
10
102
}
330
10
100
AcDbMaterial
  1
Global
 72
     0
 43
0.0208333333333333
 43
0.0
 43
0.0
 43
0.0
 43
0.0
 43
0.0208333333333333
 43
0.0
 43
0.0
 43
0.0
 43
0.0
 43
1.0
 43
0.0
 43
0.0
 43
0.0
 43
0.0
 43
1.0
 77
     0
 47
0.0208333333333333
 47
0.0
 47
0.0
 47
0.0
 47
0.0
 47
0.0208333333333333
 47
0.0
 47
0.0
 47
0.0
 47
0.0
 47
1.0
 47
0.0
 47
0.0
 47
0.0
 47
0.0
 47
1.0
171
     0
 49
0.0208333333333333
 49
0.0
 49
0.0
 49
0.0
 49
0.0
 49
0.0208333333333333
 49
0.0
 49
0.0
 49
0.0
 49
0.0
 49
1.0
 49
0.0
 49
0.0
 49
0.0
 49
0.0
 49
1.0
175
     0
142
0.0208333333333333
142
0.0
142
0.0
142
0.0
142
0.0
142
0.0208333333333333
142
0.0
142
0.0
142
0.0
142
0.0
142
1.0
142
0.0
142
0.0
142
0.0
142
0.0
142
1.0
179
     0
144
0.0208333333333333
144
0.0
144
0.0
144
0.0
144
0.0
144
0.0208333333333333
144
0.0
144
0.0
144
0.0
144
0.0
144
1.0
144
0.0
144
0.0
144
0.0
144
0.0
144
1.0
147
0.0208333333333333
147
0.0
147
0.0
147
0.0
147
0.0
147
0.0208333333333333
147
0.0
147
0.0
147
0.0
147
0.0
147
1.0
147
0.0
147
0.0
147
0.0
147
0.0
147
1.0
  0
MLEADERSTYLE
  5
67
102
{ACAD_REACTORS
330
66
102
}
330
66
100
AcDbMLeaderStyle
179
     2
170
     2
171
     1
172
     0
 90
        2
 40
0.0
 41
0.0
173
     1
 91
-1056964608
340
5B
 92
       -2
290
     1
 42
0.09
291
     1
 43
0.36
  3
Standard
 44
0.18
300

342
55
174
     1
178
     6
175
     1
176
     0
 93
-1056964608
 45
0.18
292
     0
297
     0
 46
0.18
 94
-1056964608
 47
1.0
 49
1.0
140
1.0
293
     1
141
0.0
294
     1
177
     0
142
1.0
295
     1
296
     0
143
0.125
271
     0
272
     9
273
     9
298
     1
  0
MLINESTYLE
  5
60
102
{ACAD_REACTORS
330
5F
102
}
330
5F
100
AcDbMlineStyle
  2
STANDARD
 70
     0
  3

 62
   256
 51
90.0
 52
90.0
 71
     2
 49
0.5
 62
   256
  6
BYLAYER
 49
-0.5
 62
   256
  6
BYLAYER
  0
ACDBPLACEHOLDER
  5
F
102
{ACAD_REACTORS
330
E
102
}
330
E
  0
SCALE
  5
43
102
{ACAD_REACTORS
330
42
102
}
330
42
100
AcDbScale
 70
     0
300
1:1
140
1.0
141
1.0
290
     1
  0
SCALE
  5
44
102
{ACAD_REACTORS
330
42
102
}
330
42
100
AcDbScale
 70
     0
300
1/128" = 1'-0"
140
0.0078125
141
12.0
290
     0
  0
SCALE
  5
45
102
{ACAD_REACTORS
330
42
102
}
330
42
100
AcDbScale
 70
     0
300
1/64" = 1'-0"
140
0.015625
141
12.0
290
     0
  0
SCALE
  5
46
102
{ACAD_REACTORS
330
42
102
}
330
42
100
AcDbScale
 70
     0
300
1/32" = 1'-0"
140
0.03125
141
12.0
290
     0
  0
SCALE
  5
47
102
{ACAD_REACTORS
330
42
102
}
330
42
100
AcDbScale
 70
     0
300
1/16" = 1'-0"
140
0.0625
141
12.0
290
     0
  0
SCALE
  5
48
102
{ACAD_REACTORS
330
42
102
}
330
42
100
AcDbScale
 70
     0
300
3/32" = 1'-0"
140
0.09375
141
12.0
290
     0
  0
SCALE
  5
49
102
{ACAD_REACTORS
330
42
102
}
330
42
100
AcDbScale
 70
     0
300
1/8" = 1'-0"
140
0.125
141
12.0
290
     0
  0
SCALE
  5
4A
102
{ACAD_REACTORS
330
42
102
}
330
42
100
AcDbScale
 70
     0
300
3/16" = 1'-0"
140
0.1875
141
12.0
290
     0
  0
SCALE
  5
4B
102
{ACAD_REACTORS
330
42
102
}
330
42
100
AcDbScale
 70
     0
300
1/4" = 1'-0"
140
0.25
141
12.0
290
     0
  0
SCALE
  5
4C
102
{ACAD_REACTORS
330
42
102
}
330
42
100
AcDbScale
 70
     0
300
3/8" = 1'-0"
140
0.375
141
12.0
290
     0
  0
SCALE
  5
4D
102
{ACAD_REACTORS
330
42
102
}
330
42
100
AcDbScale
 70
     0
300
1/2" = 1'-0"
140
0.5
141
12.0
290
     0
  0
SCALE
  5
4E
102
{ACAD_REACTORS
330
42
102
}
330
42
100
AcDbScale
 70
     0
300
3/4" = 1'-0"
140
0.75
141
12.0
290
     0
  0
SCALE
  5
4F
102
{ACAD_REACTORS
330
42
102
}
330
42
100
AcDbScale
 70
     0
300
1" = 1'-0"
140
1.0
141
12.0
290
     0
  0
SCALE
  5
50
102
{ACAD_REACTORS
330
42
102
}
330
42
100
AcDbScale
 70
     0
300
1-1/2" = 1'-0"
140
1.5
141
12.0
290
     0
  0
SCALE
  5
51
102
{ACAD_REACTORS
330
42
102
}
330
42
100
AcDbScale
 70
     0
300
3" = 1'-0"
140
3.0
141
12.0
290
     0
  0
SCALE
  5
52
102
{ACAD_REACTORS
330
42
102
}
330
42
100
AcDbScale
 70
     0
300
6" = 1'-0"
140
6.0
141
12.0
290
     0
  0
SCALE
  5
53
102
{ACAD_REACTORS
330
42
102
}
330
42
100
AcDbScale
 70
     0
300
1'-0" = 1'-0"
140
12.0
141
12.0
290
     0
  0
ACDBSECTIONVIEWSTYLE
  5
69
102
{ACAD_REACTORS
330
68
102
}
330
68
100
AcDbModelDocViewStyle
 70
     0
  3
Imperial24
290
     1
300
Imperial24
 90
        0
100
AcDbSectionViewStyle
 70
     0
 71
     0
 90
       78
 71
     1
340
55
 62
   256
 40
0.24
340
0
340
0
 62
   256
 40
0.24
300
I, O, Q, S, X, Z
 40
0.48
 90
        3
 40
0.18
 90
        1
 71
     2
340
5D
 90
       25
 62
   256
340
5D
 90
       50
 62
   256
 40
0.24
 40
0.0
 40
0.24
 71
     3
340
55
 62
   256
 40
0.24
 90
        1
 40
0.75
 90
        1
300
%<\AcVar ViewType \f "%tc1">% %<\AcVar ViewSectionStartId>%-%<\AcVar ViewSectionEndId>%\PSCALE %<\AcVar ViewScale \f "%sn">%
 71
     4
 62
   256
 62
   257
300
ANSI31
 40
1.0
 90
        0
290
     0
290
     0
 90
        6
 40
0.0
 40
1.570796326794896
 40
0.2617993877991494
 40
1.308996938995747
 40
-0.2617993877991494
 40
1.832595714594046
  0
TABLESTYLE
  5
65
102
{ACAD_XDICTIONARY
360
2F8
102
}
102
{ACAD_REACTORS
330
64
102
}
330
64
100
AcDbTableStyle
280
     0
  3
Standard
 70
     0
 71
     0
 40
0.06
 41
0.06
280
     0
281
     0
  7
Standard
140
0.18
170
     2
 62
     0
 63
     7
283
     0
 90
      512
 91
        0
  1

274
    -2
284
     1
 64
     0
275
    -2
285
     1
 65
     0
276
    -2
286
     1
 66
     0
277
    -2
287
     1
 67
     0
278
    -2
288
     1
 68
     0
279
    -2
289
     1
 69
     0
  7
Standard
140
0.25
170
     5
 62
     0
 63
     7
283
     0
 90
      512
 91
        0
  1

274
    -2
284
     1
 64
     0
275
    -2
285
     1
 65
     0
276
    -2
286
     1
 66
     0
277
    -2
287
     1
 67
     0
278
    -2
288
     1
 68
     0
279
    -2
289
     1
 69
     0
  7
Standard
140
0.18
170
     5
 62
     0
 63
     7
283
     0
 90
      512
 91
        0
  1

274
    -2
284
     1
 64
     0
275
    -2
285
     1
 65
     0
276
    -2
286
     1
 66
     0
277
    -2
287
     1
 67
     0
278
    -2
288
     1
 68
     0
279
    -2
289
     1
 69
     0
  0
VISUALSTYLE
  5
2F
102
{ACAD_REACTORS
330
29
102
}
330
29
100
AcDbVisualStyle
  2
2dWireframe
 70
     4
177
     3
291
     0
 70
    58
 90
        0
176
     1
 90
        2
176
     1
 90
        0
176
     1
 90
        0
176
     1
 40
0.6
176
     1
 40
30.0
176
     1
 62
     7
420
 16777215
176
     1
 90
        1
176
     1
 90
        4
176
     1
 62
     7
176
     1
 62
   257
176
     1
 90
        1
176
     1
 90
        1
176
     1
 40
1.0
176
     1
 90
        0
176
     1
 62
   257
176
     1
 40
1.0
176
     1
 90
        1
176
     1
 90
        6
176
     1
 90
        2
176
     1
 62
     7
176
     1
 90
        5
176
     1
 90
        0
176
     1
 90
        0
176
     1
290
     0
176
     1
 90
        1
176
     1
 40
0.0
176
     1
 90
        0
176
     1
290
     1
176
     1
290
     1
176
     1
290
     0
176
     1
290
     0
176
     1
290
     0
176
     1
290
     0
176
     1
290
     0
176
     1
290
     0
176
     1
290
     0
176
     1
 90
       50
176
     1
 40
0.0
176
     1
 40
1.0
176
     1
 90
        0
176
     1
 62
    18
420
        0
176
     1
 90
       50
176
     1
 90
        3
176
     1
 62
     5
420
      255
176
     1
290
     0
176
     1
 90
       50
176
     1
 90
       50
176
     1
 90
       50
176
     1
290
     0
176
     1
 90
       50
176
     1
 62
   256
176
     0
 40
1.0
176
     0
 90
        2
176
     1
  1
strokes_ogs.tif
176
     1
290
     0
176
     1
 40
1.0
176
     1
 40
1.0
176
     1
  0
VISUALSTYLE
  5
2E
102
{ACAD_REACTORS
330
29
102
}
330
29
100
AcDbVisualStyle
  2
Basic
 70
     7
177
     3
291
     1
 70
    58
 90
        1
176
     1
 90
        0
176
     1
 90
        1
176
     1
 90
        0
176
     1
 40
0.6
176
     1
 40
30.0
176
     1
 62
     7
420
 16777215
176
     1
 90
        0
176
     1
 90
        4
176
     1
 62
     7
176
     1
 62
   257
176
     1
 90
        1
176
     1
 90
        1
176
     1
 40
1.0
176
     1
 90
        8
176
     1
 62
     7
176
     1
 40
1.0
176
     1
 90
        1
176
     1
 90
        6
176
     1
 90
        2
176
     1
 62
     7
176
     1
 90
        5
176
     1
 90
        0
176
     1
 90
        0
176
     1
290
     0
176
     1
 90
        1
176
     1
 40
0.0
176
     1
 90
        0
176
     1
290
     0
176
     1
290
     1
176
     1
290
     1
176
     1
290
     0
176
     1
290
     0
176
     1
290
     0
176
     1
290
     0
176
     1
290
     0
176
     1
290
     0
176
     1
 90
       50
176
     1
 40
0.0
176
     1
 40
1.0
176
     1
 90
        0
176
     1
 62
    18
420
        0
176
     1
 90
       50
176
     1
 90
        3
176
     1
 62
     5
420
      255
176
     1
290
     0
176
     1
 90
       50
176
     1
 90
       50
176
     1
 90
       50
176
     1
290
     0
176
     1
 90
       50
176
     1
 62
   256
176
     0
 40
1.0
176
     0
 90
        2
176
     1
  1
strokes_ogs.tif
176
     1
290
     0
176
     1
 40
1.0
176
     1
 40
1.0
176
     1
  0
VISUALSTYLE
  5
35
102
{ACAD_REACTORS
330
29
102
}
330
29
100
AcDbVisualStyle
  2
Brighten
 70
    12
177
     3
291
     1
 70
    58
 90
        2
176
     1
 90
        2
176
     1
 90
        0
176
     1
 90
        0
176
     1
 40
0.6
176
     1
 40
30.0
176
     1
 62
     7
420
 16777215
176
     1
 90
        1
176
     1
 90
        4
176
     1
 62
     7
176
     1
 62
   257
176
     1
 90
        1
176
     1
 90
        1
176
     1
 40
1.0
176
     1
 90
        8
176
     1
 62
     7
176
     1
 40
1.0
176
     1
 90
        1
176
     1
 90
        6
176
     1
 90
        2
176
     1
 62
     7
176
     1
 90
        5
176
     1
 90
        0
176
     1
 90
        0
176
     1
290
     0
176
     1
 90
        1
176
     1
 40
50.0
176
     1
 90
        0
176
     1
290
     0
176
     1
290
     1
176
     1
290
     1
176
     1
290
     0
176
     1
290
     0
176
     1
290
     0
176
     1
290
     0
176
     1
290
     0
176
     1
290
     0
176
     1
 90
       50
176
     1
 40
0.0
176
     1
 40
1.0
176
     1
 90
        0
176
     1
 62
    18
420
        0
176
     1
 90
       50
176
     1
 90
        3
176
     1
 62
     5
420
      255
176
     1
290
     0
176
     1
 90
       50
176
     1
 90
       50
176
     1
 90
       50
176
     1
290
     0
176
     1
 90
       50
176
     1
 62
   256
176
     0
 40
1.0
176
     0
 90
        2
176
     1
  1
strokes_ogs.tif
176
     1
290
     0
176
     1
 40
1.0
176
     1
 40
1.0
176
     1
  0
VISUALSTYLE
  5
39
102
{ACAD_REACTORS
330
29
102
}
330
29
100
AcDbVisualStyle
  2
ColorChange
 70
    16
177
     3
291
     1
 70
    58
 90
        2
176
     1
 90
        2
176
     1
 90
        3
176
     1
 90
        0
176
     1
 40
0.6
176
     1
 40
30.0
176
     1
 62
     8
420
  8421504
176
     1
 90
        1
176
     1
 90
        4
176
     1
 62
     7
176
     1
 62
   257
176
     1
 90
        1
176
     1
 90
        1
176
     1
 40
1.0
176
     1
 90
        8
176
     1
 62
     8
420
  8421504
176
     1
 40
1.0
176
     1
 90
        1
176
     1
 90
        6
176
     1
 90
        2
176
     1
 62
     7
176
     1
 90
        5
176
     1
 90
        0
176
     1
 90
        0
176
     1
290
     0
176
     1
 90
        1
176
     1
 40
0.0
176
     1
 90
        0
176
     1
290
     0
176
     1
290
     1
176
     1
290
     1
176
     1
290
     0
176
     1
290
     0
176
     1
290
     0
176
     1
290
     0
176
     1
290
     0
176
     1
290
     0
176
     1
 90
       50
176
     1
 40
0.0
176
     1
 40
1.0
176
     1
 90
        0
176
     1
 62
    18
420
        0
176
     1
 90
       50
176
     1
 90
        3
176
     1
 62
     5
420
      255
176
     1
290
     0
176
     1
 90
       50
176
     1
 90
       50
176
     1
 90
       50
176
     1
290
     0
176
     1
 90
       50
176
     1
 62
   256
176
     0
 40
1.0
176
     0
 90
        2
176
     1
  1
strokes_ogs.tif
176
     1
290
     0
176
     1
 40
1.0
176
     1
 40
1.0
176
     1
  0
VISUALSTYLE
  5
32
102
{ACAD_REACTORS
330
29
102
}
330
29
100
AcDbVisualStyle
  2
Conceptual
 70
     9
177
     3
291
     0
 70
    58
 90
        3
176
     1
 90
        2
176
     1
 90
        0
176
     1
 90
        0
176
     1
 40
0.6
176
     1
 40
30.0
176
     1
 62
     7
420
 16777215
176
     1
 90
        2
176
     1
 90
        2
176
     1
 62
     7
176
     1
 62
   257
176
     1
 90
        1
176
     1
 90
        1
176
     1
 40
179.0
176
     1
 90
        8
176
     1
 62
     7
176
     1
 40
1.0
176
     1
 90
        1
176
     1
 90
        6
176
     1
 90
        2
176
     1
 62
     7
176
     1
 90
        3
176
     1
 90
        0
176
     1
 90
        0
176
     1
290
     0
176
     1
 90
        1
176
     1
 40
0.0
176
     1
 90
        0
176
     1
290
     0
176
     1
290
     1
176
     1
290
     1
176
     1
290
     0
176
     1
290
     0
176
     1
290
     0
176
     1
290
     0
176
     1
290
     0
176
     1
290
     0
176
     1
 90
       50
176
     1
 40
0.0
176
     1
 40
1.0
176
     1
 90
        0
176
     1
 62
    18
420
        0
176
     1
 90
       50
176
     1
 90
        3
176
     1
 62
     5
420
      255
176
     1
290
     0
176
     1
 90
       50
176
     1
 90
       50
176
     1
 90
       50
176
     1
290
     0
176
     1
 90
       50
176
     1
 62
   256
176
     0
 40
1.0
176
     0
 90
        2
176
     1
  1
strokes_ogs.tif
176
     1
290
     0
176
     1
 40
1.0
176
     1
 40
1.0
176
     1
  0
VISUALSTYLE
  5
34
102
{ACAD_REACTORS
330
29
102
}
330
29
100
AcDbVisualStyle
  2
Dim
 70
    11
177
     3
291
     1
 70
    58
 90
        2
176
     1
 90
        2
176
     1
 90
        0
176
     1
 90
        0
176
     1
 40
0.6
176
     1
 40
30.0
176
     1
 62
     7
420
 16777215
176
     1
 90
        1
176
     1
 90
        4
176
     1
 62
     7
176
     1
 62
   257
176
     1
 90
        1
176
     1
 90
        1
176
     1
 40
1.0
176
     1
 90
        8
176
     1
 62
     7
176
     1
 40
1.0
176
     1
 90
        1
176
     1
 90
        6
176
     1
 90
        2
176
     1
 62
     7
176
     1
 90
        5
176
     1
 90
        0
176
     1
 90
        0
176
     1
290
     0
176
     1
 90
        1
176
     1
 40
-50.0
176
     1
 90
        0
176
     1
290
     0
176
     1
290
     1
176
     1
290
     1
176
     1
290
     0
176
     1
290
     0
176
     1
290
     0
176
     1
290
     0
176
     1
290
     0
176
     1
290
     0
176
     1
 90
       50
176
     1
 40
0.0
176
     1
 40
1.0
176
     1
 90
        0
176
     1
 62
    18
420
        0
176
     1
 90
       50
176
     1
 90
        3
176
     1
 62
     5
420
      255
176
     1
290
     0
176
     1
 90
       50
176
     1
 90
       50
176
     1
 90
       50
176
     1
290
     0
176
     1
 90
       50
176
     1
 62
   256
176
     0
 40
1.0
176
     0
 90
        2
176
     1
  1
strokes_ogs.tif
176
     1
290
     0
176
     1
 40
1.0
176
     1
 40
1.0
176
     1
  0
VISUALSTYLE
  5
41
102
{ACAD_REACTORS
330
29
102
}
330
29
100
AcDbVisualStyle
  2
EdgeColorOff
 70
    22
177
     3
291
     1
 70
    58
 90
        2
176
     0
 90
        2
176
     0
 90
        0
176
     0
 90
        0
176
     0
 40
0.6
176
     0
 40
30.0
176
     0
 62
     7
420
 16777215
176
     0
 90
        1
176
     0
 90
        4
176
     0
 62
     7
176
     0
 62
   257
176
     0
 90
        1
176
     0
 90
        1
176
     0
 40
1.0
176
     0
 90
        8
176
     2
 62
     7
176
     0
 40
1.0
176
     0
 90
        1
176
     0
 90
        6
176
     0
 90
        2
176
     0
 62
     7
176
     0
 90
        5
176
     0
 90
        0
176
     0
 90
        0
176
     0
290
     0
176
     0
 90
        1
176
     0
 40
0.0
176
     0
 90
        0
176
     0
290
     0
176
     0
290
     1
176
     0
290
     1
176
     0
290
     0
176
     0
290
     0
176
     0
290
     0
176
     0
290
     0
176
     0
290
     0
176
     0
290
     0
176
     0
 90
       50
176
     0
 40
0.0
176
     0
 40
1.0
176
     0
 90
        0
176
     0
 62
    18
420
        0
176
     0
 90
       50
176
     0
 90
        3
176
     0
 62
     5
420
      255
176
     0
290
     0
176
     0
 90
       50
176
     0
 90
       50
176
     0
 90
       50
176
     0
290
     0
176
     0
 90
       50
176
     0
 62
   256
176
     0
 40
1.0
176
     0
 90
        2
176
     0
  1
strokes_ogs.tif
176
     0
290
     0
176
     0
 40
1.0
176
     0
 40
1.0
176
     0
  0
VISUALSTYLE
  5
38
102
{ACAD_REACTORS
330
29
102
}
330
29
100
AcDbVisualStyle
  2
Facepattern
 70
    15
177
     3
291
     1
 70
    58
 90
        2
176
     1
 90
        2
176
     1
 90
        0
176
     1
 90
        0
176
     1
 40
0.6
176
     1
 40
30.0
176
     1
 62
     7
420
 16777215
176
     1
 90
        1
176
     1
 90
        4
176
     1
 62
     7
176
     1
 62
   257
176
     1
 90
        1
176
     1
 90
        1
176
     1
 40
1.0
176
     1
 90
        8
176
     1
 62
     7
176
     1
 40
1.0
176
     1
 90
        1
176
     1
 90
        6
176
     1
 90
        2
176
     1
 62
     7
176
     1
 90
        5
176
     1
 90
        0
176
     1
 90
        0
176
     1
290
     0
176
     1
 90
        1
176
     1
 40
0.0
176
     1
 90
        0
176
     1
290
     0
176
     1
290
     1
176
     1
290
     1
176
     1
290
     0
176
     1
290
     0
176
     1
290
     0
176
     1
290
     0
176
     1
290
     0
176
     1
290
     0
176
     1
 90
       50
176
     1
 40
0.0
176
     1
 40
1.0
176
     1
 90
        0
176
     1
 62
    18
420
        0
176
     1
 90
       50
176
     1
 90
        3
176
     1
 62
     5
420
      255
176
     1
290
     0
176
     1
 90
       50
176
     1
 90
       50
176
     1
 90
       50
176
     1
290
     0
176
     1
 90
       50
176
     1
 62
   256
176
     0
 40
1.0
176
     0
 90
        2
176
     1
  1
strokes_ogs.tif
176
     1
290
     0
176
     1
 40
1.0
176
     1
 40
1.0
176
     1
  0
VISUALSTYLE
  5
2A
102
{ACAD_REACTORS
330
29
102
}
330
29
100
AcDbVisualStyle
  2
Flat
 70
     0
177
     3
291
     1
 70
    58
 90
        2
176
     1
 90
        1
176
     1
 90
        1
176
     1
 90
        2
176
     1
 40
0.6
176
     1
 40
30.0
176
     1
 62
     7
420
 16777215
176
     1
 90
        0
176
     1
 90
        0
176
     1
 62
     7
176
     1
 62
   257
176
     1
 90
        1
176
     1
 90
        1
176
     1
 40
1.0
176
     1
 90
        8
176
     1
 62
     7
176
     1
 40
1.0
176
     1
 90
        1
176
     1
 90
        6
176
     1
 90
        2
176
     1
 62
     7
176
     1
 90
        5
176
     1
 90
        0
176
     1
 90
        0
176
     1
290
     0
176
     1
 90
       13
176
     1
 40
0.0
176
     1
 90
        0
176
     1
290
     0
176
     1
290
     1
176
     1
290
     1
176
     1
290
     0
176
     1
290
     0
176
     1
290
     0
176
     1
290
     0
176
     1
290
     0
176
     1
290
     0
176
     1
 90
       50
176
     1
 40
0.0
176
     1
 40
1.0
176
     1
 90
        0
176
     1
 62
    18
420
        0
176
     1
 90
       50
176
     1
 90
        3
176
     1
 62
     5
420
      255
176
     1
290
     0
176
     1
 90
       50
176
     1
 90
       50
176
     1
 90
       50
176
     1
290
     0
176
     1
 90
       50
176
     1
 62
   256
176
     0
 40
1.0
176
     0
 90
        2
176
     1
  1
strokes_ogs.tif
176
     1
290
     0
176
     1
 40
1.0
176
     1
 40
1.0
176
     1
  0
VISUALSTYLE
  5
2B
102
{ACAD_REACTORS
330
29
102
}
330
29
100
AcDbVisualStyle
  2
FlatWithEdges
 70
     1
177
     3
291
     1
 70
    58
 90
        2
176
     1
 90
        1
176
     1
 90
        1
176
     1
 90
        2
176
     1
 40
0.6
176
     1
 40
30.0
176
     1
 62
     7
420
 16777215
176
     1
 90
        1
176
     1
 90
        0
176
     1
 62
     7
176
     1
 62
   257
176
     1
 90
        1
176
     1
 90
        1
176
     1
 40
1.0
176
     1
 90
        0
176
     1
 62
   257
176
     1
 40
1.0
176
     1
 90
        1
176
     1
 90
        6
176
     1
 90
        2
176
     1
 62
     7
176
     1
 90
        5
176
     1
 90
        0
176
     1
 90
        0
176
     1
290
     0
176
     1
 90
       13
176
     1
 40
0.0
176
     1
 90
        0
176
     1
290
     0
176
     1
290
     1
176
     1
290
     1
176
     1
290
     0
176
     1
290
     0
176
     1
290
     0
176
     1
290
     0
176
     1
290
     0
176
     1
290
     0
176
     1
 90
       50
176
     1
 40
0.0
176
     1
 40
1.0
176
     1
 90
        0
176
     1
 62
    18
420
        0
176
     1
 90
       50
176
     1
 90
        3
176
     1
 62
     5
420
      255
176
     1
290
     0
176
     1
 90
       50
176
     1
 90
       50
176
     1
 90
       50
176
     1
290
     0
176
     1
 90
       50
176
     1
 62
   256
176
     0
 40
1.0
176
     0
 90
        2
176
     1
  1
strokes_ogs.tif
176
     1
290
     0
176
     1
 40
1.0
176
     1
 40
1.0
176
     1
  0
VISUALSTYLE
  5
2C
102
{ACAD_REACTORS
330
29
102
}
330
29
100
AcDbVisualStyle
  2
Gouraud
 70
     2
177
     3
291
     1
 70
    58
 90
        2
176
     1
 90
        2
176
     1
 90
        1
176
     1
 90
        2
176
     1
 40
0.6
176
     1
 40
30.0
176
     1
 62
     7
420
 16777215
176
     1
 90
        0
176
     1
 90
        0
176
     1
 62
     7
176
     1
 62
   257
176
     1
 90
        1
176
     1
 90
        1
176
     1
 40
1.0
176
     1
 90
        0
176
     1
 62
     7
176
     1
 40
1.0
176
     1
 90
        1
176
     1
 90
        6
176
     1
 90
        2
176
     1
 62
     7
176
     1
 90
        5
176
     1
 90
        0
176
     1
 90
        0
176
     1
290
     0
176
     1
 90
       13
176
     1
 40
0.0
176
     1
 90
        0
176
     1
290
     0
176
     1
290
     1
176
     1
290
     1
176
     1
290
     0
176
     1
290
     0
176
     1
290
     0
176
     1
290
     0
176
     1
290
     0
176
     1
290
     0
176
     1
 90
       50
176
     1
 40
0.0
176
     1
 40
1.0
176
     1
 90
        0
176
     1
 62
    18
420
        0
176
     1
 90
       50
176
     1
 90
        3
176
     1
 62
     5
420
      255
176
     1
290
     0
176
     1
 90
       50
176
     1
 90
       50
176
     1
 90
       50
176
     1
290
     0
176
     1
 90
       50
176
     1
 62
   256
176
     0
 40
1.0
176
     0
 90
        2
176
     1
  1
strokes_ogs.tif
176
     1
290
     0
176
     1
 40
1.0
176
     1
 40
1.0
176
     1
  0
VISUALSTYLE
  5
2D
102
{ACAD_REACTORS
330
29
102
}
330
29
100
AcDbVisualStyle
  2
GouraudWithEdges
 70
     3
177
     3
291
     1
 70
    58
 90
        2
176
     1
 90
        2
176
     1
 90
        1
176
     1
 90
        2
176
     1
 40
0.6
176
     1
 40
30.0
176
     1
 62
     7
420
 16777215
176
     1
 90
        1
176
     1
 90
        0
176
     1
 62
     7
176
     1
 62
   257
176
     1
 90
        1
176
     1
 90
        1
176
     1
 40
1.0
176
     1
 90
        0
176
     1
 62
   257
176
     1
 40
1.0
176
     1
 90
        1
176
     1
 90
        6
176
     1
 90
        2
176
     1
 62
     7
176
     1
 90
        5
176
     1
 90
        0
176
     1
 90
        0
176
     1
290
     0
176
     1
 90
       13
176
     1
 40
0.0
176
     1
 90
        0
176
     1
290
     0
176
     1
290
     1
176
     1
290
     1
176
     1
290
     0
176
     1
290
     0
176
     1
290
     0
176
     1
290
     0
176
     1
290
     0
176
     1
290
     0
176
     1
 90
       50
176
     1
 40
0.0
176
     1
 40
1.0
176
     1
 90
        0
176
     1
 62
    18
420
        0
176
     1
 90
       50
176
     1
 90
        3
176
     1
 62
     5
420
      255
176
     1
290
     0
176
     1
 90
       50
176
     1
 90
       50
176
     1
 90
       50
176
     1
290
     0
176
     1
 90
       50
176
     1
 62
   256
176
     0
 40
1.0
176
     0
 90
        2
176
     1
  1
strokes_ogs.tif
176
     1
290
     0
176
     1
 40
1.0
176
     1
 40
1.0
176
     1
  0
VISUALSTYLE
  5
31
102
{ACAD_REACTORS
330
29
102
}
330
29
100
AcDbVisualStyle
  2
Hidden
 70
     6
177
     3
291
     0
 70
    58
 90
        1
176
     1
 90
        2
176
     1
 90
        2
176
     1
 90
        0
176
     1
 40
0.6
176
     1
 40
30.0
176
     1
 62
     7
420
 16777215
176
     1
 90
        2
176
     1
 90
        2
176
     1
 62
     7
176
     1
 62
   257
176
     1
 90
        2
176
     1
 90
        1
176
     1
 40
40.0
176
     1
 90
        0
176
     1
 62
   257
176
     1
 40
1.0
176
     1
 90
        1
176
     1
 90
        6
176
     1
 90
        2
176
     1
 62
     7
176
     1
 90
        3
176
     1
 90
        0
176
     1
 90
        0
176
     1
290
     0
176
     1
 90
        1
176
     1
 40
0.0
176
     1
 90
        0
176
     1
290
     0
176
     1
290
     1
176
     1
290
     1
176
     1
290
     0
176
     1
290
     0
176
     1
290
     0
176
     1
290
     0
176
     1
290
     0
176
     1
290
     0
176
     1
 90
       50
176
     1
 40
0.0
176
     1
 40
1.0
176
     1
 90
        0
176
     1
 62
    18
420
        0
176
     1
 90
       50
176
     1
 90
        3
176
     1
 62
     5
420
      255
176
     1
290
     0
176
     1
 90
       50
176
     1
 90
       50
176
     1
 90
       50
176
     1
290
     0
176
     1
 90
       50
176
     1
 62
   256
176
     0
 40
1.0
176
     0
 90
        2
176
     1
  1
strokes_ogs.tif
176
     1
290
     0
176
     1
 40
1.0
176
     1
 40
1.0
176
     1
  0
VISUALSTYLE
  5
3F
102
{ACAD_REACTORS
330
29
102
}
330
29
100
AcDbVisualStyle
  2
JitterOff
 70
    20
177
     3
291
     1
 70
    58
 90
        2
176
     0
 90
        2
176
     0
 90
        0
176
     0
 90
        0
176
     0
 40
0.6
176
     0
 40
30.0
176
     0
 62
     7
420
 16777215
176
     0
 90
        1
176
     0
 90
        4
176
     0
 62
     7
176
     0
 62
   257
176
     0
 90
        1
176
     0
 90
        1
176
     0
 40
1.0
176
     0
 90
       10
176
     2
 62
     7
176
     0
 40
1.0
176
     0
 90
        1
176
     0
 90
        6
176
     0
 90
        2
176
     0
 62
     7
176
     0
 90
        5
176
     0
 90
        0
176
     0
 90
        0
176
     0
290
     0
176
     0
 90
        1
176
     0
 40
0.0
176
     0
 90
        0
176
     0
290
     0
176
     0
290
     1
176
     0
290
     1
176
     0
290
     0
176
     0
290
     0
176
     0
290
     0
176
     0
290
     0
176
     0
290
     0
176
     0
290
     0
176
     0
 90
       50
176
     0
 40
0.0
176
     0
 40
1.0
176
     0
 90
        0
176
     0
 62
    18
420
        0
176
     0
 90
       50
176
     0
 90
        3
176
     0
 62
     5
420
      255
176
     0
290
     0
176
     0
 90
       50
176
     0
 90
       50
176
     0
 90
       50
176
     0
290
     0
176
     0
 90
       50
176
     0
 62
   256
176
     0
 40
1.0
176
     0
 90
        2
176
     0
  1
strokes_ogs.tif
176
     0
290
     0
176
     0
 40
1.0
176
     0
 40
1.0
176
     0
  0
VISUALSTYLE
  5
37
102
{ACAD_REACTORS
330
29
102
}
330
29
100
AcDbVisualStyle
  2
Linepattern
 70
    14
177
     3
291
     1
 70
    58
 90
        2
176
     1
 90
        2
176
     1
 90
        0
176
     1
 90
        0
176
     1
 40
0.6
176
     1
 40
30.0
176
     1
 62
     7
420
 16777215
176
     1
 90
        1
176
     1
 90
        4
176
     1
 62
     7
176
     1
 62
   257
176
     1
 90
        7
176
     1
 90
        7
176
     1
 40
1.0
176
     1
 90
        8
176
     1
 62
     7
176
     1
 40
1.0
176
     1
 90
        1
176
     1
 90
        6
176
     1
 90
        2
176
     1
 62
     7
176
     1
 90
        5
176
     1
 90
        0
176
     1
 90
        0
176
     1
290
     0
176
     1
 90
        1
176
     1
 40
0.0
176
     1
 90
        0
176
     1
290
     0
176
     1
290
     1
176
     1
290
     1
176
     1
290
     0
176
     1
290
     0
176
     1
290
     0
176
     1
290
     0
176
     1
290
     0
176
     1
290
     0
176
     1
 90
       50
176
     1
 40
0.0
176
     1
 40
1.0
176
     1
 90
        0
176
     1
 62
    18
420
        0
176
     1
 90
       50
176
     1
 90
        3
176
     1
 62
     5
420
      255
176
     1
290
     0
176
     1
 90
       50
176
     1
 90
       50
176
     1
 90
       50
176
     1
290
     0
176
     1
 90
       50
176
     1
 62
   256
176
     0
 40
1.0
176
     0
 90
        2
176
     1
  1
strokes_ogs.tif
176
     1
290
     0
176
     1
 40
1.0
176
     1
 40
1.0
176
     1
  0
VISUALSTYLE
  5
40
102
{ACAD_REACTORS
330
29
102
}
330
29
100
AcDbVisualStyle
  2
OverhangOff
 70
    21
177
     3
291
     1
 70
    58
 90
        2
176
     0
 90
        2
176
     0
 90
        0
176
     0
 90
        0
176
     0
 40
0.6
176
     0
 40
30.0
176
     0
 62
     7
420
 16777215
176
     0
 90
        1
176
     0
 90
        4
176
     0
 62
     7
176
     0
 62
   257
176
     0
 90
        1
176
     0
 90
        1
176
     0
 40
1.0
176
     0
 90
        9
176
     2
 62
     7
176
     0
 40
1.0
176
     0
 90
        1
176
     0
 90
        6
176
     0
 90
        2
176
     0
 62
     7
176
     0
 90
        5
176
     0
 90
        0
176
     0
 90
        0
176
     0
290
     0
176
     0
 90
        1
176
     0
 40
0.0
176
     0
 90
        0
176
     0
290
     0
176
     0
290
     1
176
     0
290
     1
176
     0
290
     0
176
     0
290
     0
176
     0
290
     0
176
     0
290
     0
176
     0
290
     0
176
     0
290
     0
176
     0
 90
       50
176
     0
 40
0.0
176
     0
 40
1.0
176
     0
 90
        0
176
     0
 62
    18
420
        0
176
     0
 90
       50
176
     0
 90
        3
176
     0
 62
     5
420
      255
176
     0
290
     0
176
     0
 90
       50
176
     0
 90
       50
176
     0
 90
       50
176
     0
290
     0
176
     0
 90
       50
176
     0
 62
   256
176
     0
 40
1.0
176
     0
 90
        2
176
     0
  1
strokes_ogs.tif
176
     0
290
     0
176
     0
 40
1.0
176
     0
 40
1.0
176
     0
  0
VISUALSTYLE
  5
33
102
{ACAD_REACTORS
330
29
102
}
330
29
100
AcDbVisualStyle
  2
Realistic
 70
     8
177
     3
291
     0
 70
    58
 90
        2
176
     1
 90
        3
176
     1
 90
        0
176
     1
 90
        2
176
     1
 40
0.6
176
     1
 40
30.0
176
     1
 62
     7
420
 16777215
176
     1
 90
        0
176
     1
 90
        0
176
     1
 62
     7
176
     1
 62
   257
176
     1
 90
        1
176
     1
 90
        1
176
     1
 40
1.0
176
     1
 90
        8
176
     1
 62
   257
176
     1
 40
1.0
176
     1
 90
        1
176
     1
 90
        6
176
     1
 90
        2
176
     1
 62
     7
176
     1
 90
        3
176
     1
 90
        0
176
     1
 90
        0
176
     1
290
     0
176
     1
 90
       13
176
     1
 40
0.0
176
     1
 90
        0
176
     1
290
     0
176
     1
290
     1
176
     1
290
     1
176
     1
290
     0
176
     1
290
     0
176
     1
290
     0
176
     1
290
     0
176
     1
290
     0
176
     1
290
     0
176
     1
 90
       50
176
     1
 40
0.0
176
     1
 40
1.0
176
     1
 90
        0
176
     1
 62
    18
420
        0
176
     1
 90
       50
176
     1
 90
        3
176
     1
 62
     5
420
      255
176
     1
290
     0
176
     1
 90
       50
176
     1
 90
       50
176
     1
 90
       50
176
     1
290
     0
176
     1
 90
       50
176
     1
 62
   256
176
     0
 40
1.0
176
     0
 90
        2
176
     1
  1
strokes_ogs.tif
176
     1
290
     0
176
     1
 40
1.0
176
     1
 40
1.0
176
     1
  0
VISUALSTYLE
  5
3E
102
{ACAD_REACTORS
330
29
102
}
330
29
100
AcDbVisualStyle
  2
Shaded
 70
    27
177
     3
291
     0
 70
    58
 90
        2
176
     1
 90
        2
176
     1
 90
        1
176
     1
 90
        2
176
     1
 40
0.6
176
     1
 40
30.0
176
     1
 62
     7
420
 16777215
176
     1
 90
        0
176
     1
 90
        4
176
     1
 62
     7
176
     1
 62
   257
176
     1
 90
        1
176
     1
 90
        1
176
     1
 40
1.0
176
     1
 90
        8
176
     1
 62
   257
176
     1
 40
1.0
176
     1
 90
        1
176
     1
 90
        6
176
     1
 90
        2
176
     1
 62
     8
420
  7895160
176
     1
 90
        3
176
     1
 90
        0
176
     1
 90
        0
176
     1
290
     0
176
     1
 90
        5
176
     1
 40
0.0
176
     1
 90
        0
176
     1
290
     0
176
     1
290
     1
176
     1
290
     1
176
     1
290
     0
176
     1
290
     0
176
     1
290
     0
176
     1
290
     0
176
     1
290
     0
176
     1
290
     0
176
     1
 90
       50
176
     1
 40
0.0
176
     1
 40
1.0
176
     1
 90
        0
176
     1
 62
    18
420
        0
176
     1
 90
       50
176
     1
 90
        3
176
     1
 62
     5
420
      255
176
     1
290
     0
176
     1
 90
       50
176
     1
 90
       50
176
     1
 90
       50
176
     1
290
     0
176
     1
 90
       50
176
     1
 62
   256
176
     0
 40
1.0
176
     0
 90
        2
176
     1
  1
strokes_ogs.tif
176
     1
290
     0
176
     1
 40
1.0
176
     1
 40
1.0
176
     1
  0
VISUALSTYLE
  5
3D
102
{ACAD_REACTORS
330
29
102
}
330
29
100
AcDbVisualStyle
  2
Shaded with edges
 70
    26
177
     3
291
     0
 70
    58
 90
        2
176
     1
 90
        2
176
     1
 90
        1
176
     1
 90
        2
176
     1
 40
0.6
176
     1
 40
30.0
176
     1
 62
     7
420
 16777215
176
     1
 90
        1
176
     1
 90
        2
176
     1
 62
     7
176
     1
 62
   257
176
     1
 90
        2
176
     1
 90
        1
176
     1
 40
1.0
176
     1
 90
        8
176
     1
 62
   257
176
     1
 40
1.0
176
     1
 90
        1
176
     1
 90
        6
176
     1
 90
        2
176
     1
 62
     7
176
     1
 90
        3
176
     1
 90
        0
176
     1
 90
        0
176
     1
290
     0
176
     1
 90
        5
176
     1
 40
0.0
176
     1
 90
        0
176
     1
290
     0
176
     1
290
     1
176
     1
290
     1
176
     1
290
     0
176
     1
290
     0
176
     1
290
     0
176
     1
290
     0
176
     1
290
     0
176
     1
290
     0
176
     1
 90
       50
176
     1
 40
0.0
176
     1
 40
1.0
176
     1
 90
        0
176
     1
 62
    18
420
        0
176
     1
 90
       50
176
     1
 90
        3
176
     1
 62
     5
420
      255
176
     1
290
     0
176
     1
 90
       50
176
     1
 90
       50
176
     1
 90
       50
176
     1
290
     0
176
     1
 90
       50
176
     1
 62
   256
176
     0
 40
1.0
176
     0
 90
        2
176
     1
  1
strokes_ogs.tif
176
     1
290
     0
176
     1
 40
1.0
176
     1
 40
1.0
176
     1
  0
VISUALSTYLE
  5
3A
102
{ACAD_REACTORS
330
29
102
}
330
29
100
AcDbVisualStyle
  2
Shades of Gray
 70
    23
177
     3
291
     0
 70
    58
 90
        2
176
     1
 90
        2
176
     1
 90
        3
176
     1
 90
        0
176
     1
 40
0.6
176
     1
 40
30.0
176
     1
 62
     7
420
 16777215
176
     1
 90
        2
176
     1
 90
        2
176
     1
 62
     7
176
     1
 62
     7
176
     1
 90
        1
176
     1
 90
        1
176
     1
 40
40.0
176
     1
 90
        8
176
     1
 62
     7
176
     1
 40
1.0
176
     1
 90
        1
176
     1
 90
        6
176
     1
 90
        2
176
     1
 62
     7
176
     1
 90
        3
176
     1
 90
        0
176
     1
 90
        0
176
     1
290
     0
176
     1
 90
        1
176
     1
 40
0.0
176
     1
 90
        0
176
     1
290
     0
176
     1
290
     1
176
     1
290
     1
176
     1
290
     0
176
     1
290
     0
176
     1
290
     0
176
     1
290
     0
176
     1
290
     0
176
     1
290
     0
176
     1
 90
       50
176
     1
 40
0.0
176
     1
 40
1.0
176
     1
 90
        0
176
     1
 62
    18
420
        0
176
     1
 90
       50
176
     1
 90
        3
176
     1
 62
     5
420
      255
176
     1
290
     0
176
     1
 90
       50
176
     1
 90
       50
176
     1
 90
       50
176
     1
290
     0
176
     1
 90
       50
176
     1
 62
   256
176
     0
 40
1.0
176
     0
 90
        2
176
     1
  1
strokes_ogs.tif
176
     1
290
     0
176
     1
 40
1.0
176
     1
 40
1.0
176
     1
  0
VISUALSTYLE
  5
3B
102
{ACAD_REACTORS
330
29
102
}
330
29
100
AcDbVisualStyle
  2
Sketchy
 70
    24
177
     3
291
     0
 70
    58
 90
        1
176
     1
 90
        2
176
     1
 90
        2
176
     1
 90
        0
176
     1
 40
0.6
176
     1
 40
30.0
176
     1
 62
     7
420
 16777215
176
     1
 90
        2
176
     1
 90
        2
176
     1
 62
     7
176
     1
 62
     7
176
     1
 90
        1
176
     1
 90
        1
176
     1
 40
40.0
176
     1
 90
       11
176
     1
 62
     7
176
     1
 40
1.0
176
     1
 90
        1
176
     1
 90
        6
176
     1
 90
        2
176
     1
 62
     7
176
     1
 90
        6
176
     1
 90
        0
176
     1
 90
        0
176
     1
290
     0
176
     1
 90
        1
176
     1
 40
0.0
176
     1
 90
        0
176
     1
290
     0
176
     1
290
     1
176
     1
290
     1
176
     1
290
     0
176
     1
290
     0
176
     1
290
     0
176
     1
290
     0
176
     1
290
     0
176
     1
290
     0
176
     1
 90
       50
176
     1
 40
0.0
176
     1
 40
1.0
176
     1
 90
        0
176
     1
 62
    18
420
        0
176
     1
 90
       50
176
     1
 90
        3
176
     1
 62
     5
420
      255
176
     1
290
     0
176
     1
 90
       50
176
     1
 90
       50
176
     1
 90
       50
176
     1
290
     0
176
     1
 90
       50
176
     1
 62
   256
176
     0
 40
1.0
176
     0
 90
        2
176
     1
  1
strokes_ogs.tif
176
     1
290
     0
176
     1
 40
1.0
176
     1
 40
1.0
176
     1
  0
VISUALSTYLE
  5
36
102
{ACAD_REACTORS
330
29
102
}
330
29
100
AcDbVisualStyle
  2
Thicken
 70
    13
177
     3
291
     1
 70
    58
 90
        2
176
     1
 90
        2
176
     1
 90
        0
176
     1
 90
        0
176
     1
 40
0.6
176
     1
 40
30.0
176
     1
 62
     7
420
 16777215
176
     1
 90
        1
176
     1
 90
        4
176
     1
 62
     7
176
     1
 62
   257
176
     1
 90
        1
176
     1
 90
        1
176
     1
 40
1.0
176
     1
 90
       12
176
     1
 62
     7
176
     1
 40
1.0
176
     1
 90
        1
176
     1
 90
        6
176
     1
 90
        2
176
     1
 62
     7
176
     1
 90
        5
176
     1
 90
        0
176
     1
 90
        0
176
     1
290
     0
176
     1
 90
        1
176
     1
 40
0.0
176
     1
 90
        0
176
     1
290
     0
176
     1
290
     1
176
     1
290
     1
176
     1
290
     0
176
     1
290
     0
176
     1
290
     0
176
     1
290
     0
176
     1
290
     0
176
     1
290
     0
176
     1
 90
       50
176
     1
 40
0.0
176
     1
 40
1.0
176
     1
 90
        0
176
     1
 62
    18
420
        0
176
     1
 90
       50
176
     1
 90
        3
176
     1
 62
     5
420
      255
176
     1
290
     0
176
     1
 90
       50
176
     1
 90
       50
176
     1
 90
       50
176
     1
290
     0
176
     1
 90
       50
176
     1
 62
   256
176
     0
 40
1.0
176
     0
 90
        2
176
     1
  1
strokes_ogs.tif
176
     1
290
     0
176
     1
 40
1.0
176
     1
 40
1.0
176
     1
  0
VISUALSTYLE
  5
30
102
{ACAD_REACTORS
330
29
102
}
330
29
100
AcDbVisualStyle
  2
Wireframe
 70
     5
177
     3
291
     0
 70
    58
 90
        0
176
     1
 90
        2
176
     1
 90
        0
176
     1
 90
        0
176
     1
 40
0.6
176
     1
 40
30.0
176
     1
 62
     7
420
 16777215
176
     1
 90
        1
176
     1
 90
        4
176
     1
 62
     7
176
     1
 62
   257
176
     1
 90
        1
176
     1
 90
        1
176
     1
 40
1.0
176
     1
 90
        0
176
     1
 62
   257
176
     1
 40
1.0
176
     1
 90
        1
176
     1
 90
        6
176
     1
 90
        2
176
     1
 62
     7
176
     1
 90
        3
176
     1
 90
        0
176
     1
 90
        0
176
     1
290
     0
176
     1
 90
        1
176
     1
 40
0.0
176
     1
 90
        0
176
     1
290
     0
176
     1
290
     1
176
     1
290
     1
176
     1
290
     0
176
     1
290
     0
176
     1
290
     0
176
     1
290
     0
176
     1
290
     0
176
     1
290
     0
176
     1
 90
       50
176
     1
 40
0.0
176
     1
 40
1.0
176
     1
 90
        0
176
     1
 62
    18
420
        0
176
     1
 90
       50
176
     1
 90
        3
176
     1
 62
     5
420
      255
176
     1
290
     0
176
     1
 90
       50
176
     1
 90
       50
176
     1
 90
       50
176
     1
290
     0
176
     1
 90
       50
176
     1
 62
   256
176
     0
 40
1.0
176
     0
 90
        2
176
     1
  1
strokes_ogs.tif
176
     1
290
     0
176
     1
 40
1.0
176
     1
 40
1.0
176
     1
  0
VISUALSTYLE
  5
3C
102
{ACAD_REACTORS
330
29
102
}
330
29
100
AcDbVisualStyle
  2
X-Ray
 70
    25
177
     3
291
     0
 70
    58
 90
        2
176
     1
 90
        2
176
     1
 90
        1
176
     1
 90
        1
176
     1
 40
0.5
176
     1
 40
30.0
176
     1
 62
     7
420
 16777215
176
     1
 90
        1
176
     1
 90
        0
176
     1
 62
     7
176
     1
 62
   257
176
     1
 90
        1
176
     1
 90
        1
176
     1
 40
1.0
176
     1
 90
        8
176
     1
 62
     7
176
     1
 40
1.0
176
     1
 90
        1
176
     1
 90
        6
176
     1
 90
        2
176
     1
 62
     7
176
     1
 90
        3
176
     1
 90
        0
176
     1
 90
        0
176
     1
290
     0
176
     1
 90
       13
176
     1
 40
0.0
176
     1
 90
        0
176
     1
290
     0
176
     1
290
     1
176
     1
290
     1
176
     1
290
     0
176
     1
290
     0
176
     1
290
     0
176
     1
290
     0
176
     1
290
     0
176
     1
290
     0
176
     1
 90
       50
176
     1
 40
0.0
176
     1
 40
1.0
176
     1
 90
        0
176
     1
 62
    18
420
        0
176
     1
 90
       50
176
     1
 90
        3
176
     1
 62
     5
420
      255
176
     1
290
     0
176
     1
 90
       50
176
     1
 90
       50
176
     1
 90
       50
176
     1
290
     0
176
     1
 90
       50
176
     1
 62
   256
176
     0
 40
1.0
176
     0
 90
        2
176
     1
  1
strokes_ogs.tif
176
     1
290
     0
176
     1
 40
1.0
176
     1
 40
1.0
176
     1
  0
DICTIONARYVAR
  5
2F7
102
{ACAD_REACTORS
330
2F2
102
}
330
2F2
100
DictionaryVariables
280
     0
  1
1:1
  0
DICTIONARYVAR
  5
2F4
102
{ACAD_REACTORS
330
2F2
102
}
330
2F2
100
DictionaryVariables
280
     0
  1
STANDARD
  0
DICTIONARYVAR
  5
2F3
102
{ACAD_REACTORS
330
2F2
102
}
330
2F2
100
DictionaryVariables
280
     0
  1
STANDARD
  0
DICTIONARYVAR
  5
2F5
102
{ACAD_REACTORS
330
2F2
102
}
330
2F2
100
DictionaryVariables
280
     0
  1
Imperial24
  0
DICTIONARYVAR
  5
2F6
102
{ACAD_REACTORS
330
2F2
102
}
330
2F2
100
DictionaryVariables
280
     0
  1
Imperial24
  0
DICTIONARY
  5
1A
330
19
100
AcDbDictionary
280
     1
281
     1
  3
BUMPTILE
360
1C
  3
DIFFUSETILE
360
1B
  3
OPACITYTILE
360
1F
  3
REFLECTIONTILE
360
1E
  3
REFRACTIONTILE
360
20
  3
SPECULARTILE
360
1D
  0
DICTIONARY
  5
12
330
11
100
AcDbDictionary
280
     1
281
     1
  3
BUMPTILE
360
14
  3
DIFFUSETILE
360
13
  3
OPACITYTILE
360
17
  3
REFLECTIONTILE
360
16
  3
REFRACTIONTILE
360
18
  3
SPECULARTILE
360
15
  0
DICTIONARY
  5
22
330
21
100
AcDbDictionary
280
     1
281
     1
  3
BUMPTILE
360
24
  3
DIFFUSETILE
360
23
  3
OPACITYTILE
360
27
  3
REFLECTIONTILE
360
26
  3
REFRACTIONTILE
360
28
  3
SPECULARTILE
360
25
  0
DICTIONARY
  5
2F8
330
65
100
AcDbDictionary
280
     1
281
     1
  3
ACAD_ROUNDTRIP_2008_TABLESTYLE_CELLSTYLEMAP
360
2F9
  0
XRECORD
  5
1C
102
{ACAD_REACTORS
330
1A
102
}
330
1A
100
AcDbXrecord
280
     1
270
     1
271
     1
  0
XRECORD
  5
1B
102
{ACAD_REACTORS
330
1A
102
}
330
1A
100
AcDbXrecord
280
     1
270
     1
271
     1
  0
XRECORD
  5
1F
102
{ACAD_REACTORS
330
1A
102
}
330
1A
100
AcDbXrecord
280
     1
270
     1
271
     1
  0
XRECORD
  5
1E
102
{ACAD_REACTORS
330
1A
102
}
330
1A
100
AcDbXrecord
280
     1
270
     1
271
     1
  0
XRECORD
  5
20
102
{ACAD_REACTORS
330
1A
102
}
330
1A
100
AcDbXrecord
280
     1
270
     1
271
     1
  0
XRECORD
  5
1D
102
{ACAD_REACTORS
330
1A
102
}
330
1A
100
AcDbXrecord
280
     1
270
     1
271
     1
  0
XRECORD
  5
14
102
{ACAD_REACTORS
330
12
102
}
330
12
100
AcDbXrecord
280
     1
270
     1
271
     1
  0
XRECORD
  5
13
102
{ACAD_REACTORS
330
12
102
}
330
12
100
AcDbXrecord
280
     1
270
     1
271
     1
  0
XRECORD
  5
17
102
{ACAD_REACTORS
330
12
102
}
330
12
100
AcDbXrecord
280
     1
270
     1
271
     1
  0
XRECORD
  5
16
102
{ACAD_REACTORS
330
12
102
}
330
12
100
AcDbXrecord
280
     1
270
     1
271
     1
  0
XRECORD
  5
18
102
{ACAD_REACTORS
330
12
102
}
330
12
100
AcDbXrecord
280
     1
270
     1
271
     1
  0
XRECORD
  5
15
102
{ACAD_REACTORS
330
12
102
}
330
12
100
AcDbXrecord
280
     1
270
     1
271
     1
  0
XRECORD
  5
24
102
{ACAD_REACTORS
330
22
102
}
330
22
100
AcDbXrecord
280
     1
270
     1
271
     1
  0
XRECORD
  5
23
102
{ACAD_REACTORS
330
22
102
}
330
22
100
AcDbXrecord
280
     1
270
     1
271
     1
  0
XRECORD
  5
27
102
{ACAD_REACTORS
330
22
102
}
330
22
100
AcDbXrecord
280
     1
270
     1
271
     1
  0
XRECORD
  5
26
102
{ACAD_REACTORS
330
22
102
}
330
22
100
AcDbXrecord
280
     1
270
     1
271
     1
  0
XRECORD
  5
28
102
{ACAD_REACTORS
330
22
102
}
330
22
100
AcDbXrecord
280
     1
270
     1
271
     1
  0
XRECORD
  5
25
102
{ACAD_REACTORS
330
22
102
}
330
22
100
AcDbXrecord
280
     1
270
     1
271
     1
  0
CELLSTYLEMAP
  5
2F9
102
{ACAD_REACTORS
330
2F8
102
}
330
2F8
100
AcDbCellStyleMap
 90
        3
300
CELLSTYLE
  1
TABLEFORMAT_BEGIN
 90
        5
170
     1
 91
        0
 92
    32768
 62
   257
 93
        1
300
CONTENTFORMAT
  1
CONTENTFORMAT_BEGIN
 90
        0
 91
        0
 92
      512
 93
        0
300

 40
0.0
140
1.0
 94
        5
 62
     0
340
55
144
0.25
309
CONTENTFORMAT_END
171
     0
 94
        0
309
TABLEFORMAT_END
  1
CELLSTYLE_BEGIN
 90
        1
 91
        1
300
_TITLE
309
CELLSTYLE_END
300
CELLSTYLE
  1
TABLEFORMAT_BEGIN
 90
        5
170
     1
 91
        0
 92
        0
 62
   257
 93
        1
300
CONTENTFORMAT
  1
CONTENTFORMAT_BEGIN
 90
        0
 91
        0
 92
      512
 93
        0
300

 40
0.0
140
1.0
 94
        5
 62
     0
340
55
144
0.18
309
CONTENTFORMAT_END
171
     0
 94
        0
309
TABLEFORMAT_END
  1
CELLSTYLE_BEGIN
 90
        2
 91
        1
300
_HEADER
309
CELLSTYLE_END
300
CELLSTYLE
  1
TABLEFORMAT_BEGIN
 90
        5
170
     1
 91
        0
 92
        0
 62
   257
 93
        1
300
CONTENTFORMAT
  1
CONTENTFORMAT_BEGIN
 90
        0
 91
        0
 92
      512
 93
        0
300

 40
0.0
140
1.0
 94
        2
 62
     0
340
55
144
0.18
309
CONTENTFORMAT_END
171
     0
 94
        0
309
TABLEFORMAT_END
  1
CELLSTYLE_BEGIN
 90
        3
 91
        2
300
_DATA
309
CELLSTYLE_END
  0
ENDSEC
  0
EOF
