  0
SECTION
  2
HEADER
  9
$ACADVER
  1
AC1032
  9
$ACADMAINTVER
 90
      251
  9
$DWGCODEPAGE
  3
ANSI_1252
  9
$REQUIREDVERSIONS
160
                 0
  9
$INSBASE
 10
0.0
 20
0.0
 30
0.0
  9
$EXTMIN
 10
1.000000000000000E+20
 20
1.000000000000000E+20
 30
1.000000000000000E+20
  9
$EXTMAX
 10
-1.000000000000000E+20
 20
-1.000000000000000E+20
 30
-1.000000000000000E+20
  9
$LIMMIN
 10
0.0
 20
0.0
  9
$LIMMAX
 10
12.0
 20
9.0
  9
$ORTHOMODE
 70
     0
  9
$REGENMODE
 70
     1
  9
$FILLMODE
 70
     1
  9
$QTEXTMODE
 70
     0
  9
$MIRRTEXT
 70
     0
  9
$LTSCALE
 40
1.0
  9
$ATTMODE
 70
     1
  9
$TEXTSIZE
 40
0.2
  9
$TRACEWID
 40
0.05
  9
$TEXTSTYLE
  7
Standard
  9
$CLAYER
  8
0
  9
$CELTYPE
  6
ByLayer
  9
$CECOLOR
 62
   256
  9
$CELTSCALE
 40
1.0
  9
$DISPSILH
 70
     0
  9
$DIMSCALE
 40
1.0
  9
$DIMASZ
 40
0.18
  9
$DIMEXO
 40
0.0625
  9
$DIMDLI
 40
0.38
  9
$DIMRND
 40
0.0
  9
$DIMDLE
 40
0.0
  9
$DIMEXE
 40
0.18
  9
$DIMTP
 40
0.0
  9
$DIMTM
 40
0.0
  9
$DIMTXT
 40
0.18
  9
$DIMCEN
 40
0.09
  9
$DIMTSZ
 40
0.0
  9
$DIMTOL
 70
     0
  9
$DIMLIM
 70
     0
  9
$DIMTIH
 70
     1
  9
$DIMTOH
 70
     1
  9
$DIMSE1
 70
     0
  9
$DIMSE2
 70
     0
  9
$DIMTAD
 70
     0
  9
$DIMZIN
 70
     0
  9
$DIMBLK
  1

  9
$DIMASO
 70
     1
  9
$DIMSHO
 70
     1
  9
$DIMPOST
  1

  9
$DIMAPOST
  1

  9
$DIMALT
 70
     0
  9
$DIMALTD
 70
     2
  9
$DIMALTF
 40
25.4
  9
$DIMLFAC
 40
1.0
  9
$DIMTOFL
 70
     0
  9
$DIMTVP
 40
0.0
  9
$DIMTIX
 70
     0
  9
$DIMSOXD
 70
     0
  9
$DIMSAH
 70
     0
  9
$DIMBLK1
  1

  9
$DIMBLK2
  1

  9
$DIMSTYLE
  2
Standard
  9
$DIMCLRD
 70
     0
  9
$DIMCLRE
 70
     0
  9
$DIMCLRT
 70
     0
  9
$DIMTFAC
 40
1.0
  9
$DIMGAP
 40
0.09
  9
$DIMJUST
 70
     0
  9
$DIMSD1
 70
     0
  9
$DIMSD2
 70
     0
  9
$DIMTOLJ
 70
     1
  9
$DIMTZIN
 70
     0
  9
$DIMALTZ
 70
     0
  9
$DIMALTTZ
 70
     0
  9
$DIMUPT
 70
     0
  9
$DIMDEC
 70
     4
  9
$DIMTDEC
 70
     4
  9
$DIMALTU
 70
     2
  9
$DIMALTTD
 70
     2
  9
$DIMTXSTY
  7
Standard
  9
$DIMAUNIT
 70
     0
  9
$DIMADEC
 70
     0
  9
$DIMALTRND
 40
0.0
  9
$DIMAZIN
 70
     0
  9
$DIMDSEP
 70
    46
  9
$DIMATFIT
 70
     3
  9
$DIMFRAC
 70
     0
  9
$DIMLDRBLK
  1

  9
$DIMLUNIT
 70
     2
  9
$DIMLWD
 70
    -2
  9
$DIMLWE
 70
    -2
  9
$DIMTMOVE
 70
     0
  9
$DIMFXL
 40
1.0
  9
$DIMFXLON
 70
     0
  9
$DIMJOGANG
 40
0.7853981633974483
  9
$DIMTFILL
 70
     0
  9
$DIMTFILLCLR
 70
     0
  9
$DIMARCSYM
 70
     0
  9
$DIMLTYPE
  6

  9
$DIMLTEX1
  6

  9
$DIMLTEX2
  6

  9
$DIMTXTDIRECTION
 70
     0
  9
$LUNITS
 70
     2
  9
$LUPREC
 70
     4
  9
$SKETCHINC
 40
0.1
  9
$FILLETRAD
 40
0.0
  9
$AUNITS
 70
     0
  9
$AUPREC
 70
     0
  9
$MENU
  1
.
  9
$ELEVATION
 40
0.0
  9
$PELEVATION
 40
0.0
  9
$THICKNESS
 40
0.0
  9
$LIMCHECK
 70
     0
  9
$CHAMFERA
 40
0.0
  9
$CHAMFERB
 40
0.0
  9
$CHAMFERC
 40
0.0
  9
$CHAMFERD
 40
0.0
  9
$SKPOLY
 70
     0
  9
$TDCREATE
 40
2460035.485231482
  9
$TDUCREATE
 40
2460035.401898148
  9
$TDUPDATE
 40
2460035.485231482
  9
$TDUUPDATE
 40
2460035.401898148
  9
$TDINDWG
 40
0.0000115741
  9
$TDUSRTIMER
 40
0.0000115741
  9
$USRTIMER
 70
     1
  9
$ANGBASE
 50
0.0
  9
$ANGDIR
 70
     0
  9
$PDMODE
 70
     0
  9
$PDSIZE
 40
0.0
  9
$PLINEWID
 40
0.0
  9
$SPLFRAME
 70
     0
  9
$SPLINETYPE
 70
     6
  9
$SPLINESEGS
 70
     8
  9
$HANDSEED
  5
294
  9
$SURFTAB1
 70
     6
  9
$SURFTAB2
 70
     6
  9
$SURFTYPE
 70
     6
  9
$SURFU
 70
     6
  9
$SURFV
 70
     6
  9
$UCSBASE
  2

  9
$UCSNAME
  2

  9
$UCSORG
 10
0.0
 20
0.0
 30
0.0
  9
$UCSXDIR
 10
1.0
 20
0.0
 30
0.0
  9
$UCSYDIR
 10
0.0
 20
1.0
 30
0.0
  9
$UCSORTHOREF
  2

  9
$UCSORTHOVIEW
 70
     0
  9
$UCSORGTOP
 10
0.0
 20
0.0
 30
0.0
  9
$UCSORGBOTTOM
 10
0.0
 20
0.0
 30
0.0
  9
$UCSORGLEFT
 10
0.0
 20
0.0
 30
0.0
  9
$UCSORGRIGHT
 10
0.0
 20
0.0
 30
0.0
  9
$UCSORGFRONT
 10
0.0
 20
0.0
 30
0.0
  9
$UCSORGBACK
 10
0.0
 20
0.0
 30
0.0
  9
$PUCSBASE
  2

  9
$PUCSNAME
  2

  9
$PUCSORG
 10
0.0
 20
0.0
 30
0.0
  9
$PUCSXDIR
 10
1.0
 20
0.0
 30
0.0
  9
$PUCSYDIR
 10
0.0
 20
1.0
 30
0.0
  9
$PUCSORTHOREF
  2

  9
$PUCSORTHOVIEW
 70
     0
  9
$PUCSORGTOP
 10
0.0
 20
0.0
 30
0.0
  9
$PUCSORGBOTTOM
 10
0.0
 20
0.0
 30
0.0
  9
$PUCSORGLEFT
 10
0.0
 20
0.0
 30
0.0
  9
$PUCSORGRIGHT
 10
0.0
 20
0.0
 30
0.0
  9
$PUCSORGFRONT
 10
0.0
 20
0.0
 30
0.0
  9
$PUCSORGBACK
 10
0.0
 20
0.0
 30
0.0
  9
$USERI1
 70
     0
  9
$USERI2
 70
     0
  9
$USERI3
 70
     0
  9
$USERI4
 70
     0
  9
$USERI5
 70
     0
  9
$USERR1
 40
0.0
  9
$USERR2
 40
0.0
  9
$USERR3
 40
0.0
  9
$USERR4
 40
0.0
  9
$USERR5
 40
0.0
  9
$WORLDVIEW
 70
     1
  9
$SHADEDGE
 70
     3
  9
$SHADEDIF
 70
    70
  9
$TILEMODE
 70
     1
  9
$MAXACTVP
 70
    64
  9
$PINSBASE
 10
0.0
 20
0.0
 30
0.0
  9
$PLIMCHECK
 70
     0
  9
$PEXTMIN
 10
1.000000000000000E+20
 20
1.000000000000000E+20
 30
1.000000000000000E+20
  9
$PEXTMAX
 10
-1.000000000000000E+20
 20
-1.000000000000000E+20
 30
-1.000000000000000E+20
  9
$PLIMMIN
 10
0.0
 20
0.0
  9
$PLIMMAX
 10
12.0
 20
9.0
  9
$UNITMODE
 70
     0
  9
$VISRETAIN
 70
     1
  9
$PLINEGEN
 70
     0
  9
$PSLTSCALE
 70
     1
  9
$TREEDEPTH
 70
  3020
  9
$CMLSTYLE
  2
Standard
  9
$CMLJUST
 70
     0
  9
$CMLSCALE
 40
1.0
  9
$PROXYGRAPHICS
 70
     1
  9
$MEASUREMENT
 70
     0
  9
$CELWEIGHT
370
    -1
  9
$ENDCAPS
280
     0
  9
$JOINSTYLE
280
     0
  9
$LWDISPLAY
290
     1
  9
$INSUNITS
 70
     4
  9
$HYPERLINKBASE
  1

  9
$STYLESHEET
  1

  9
$XEDIT
290
     1
  9
$CEPSNTYPE
380
     0
  9
$PSTYLEMODE
290
     1
  9
$FINGERPRINTGUID
  2
{718FBC32-23E3-1D43-99CF-DD3BD8905C2B}
  9
$VERSIONGUID
  2
{7261EF75-D7B3-7748-A2F7-009A732684C2}
  9
$EXTNAMES
290
     1
  9
$PSVPSCALE
 40
0.0
  9
$OLESTARTUP
290
     0
  9
$SORTENTS
280
   127
  9
$INDEXCTL
280
     0
  9
$HIDETEXT
280
     1
  9
$XCLIPFRAME
280
     2
  9
$HALOGAP
280
     0
  9
$OBSCOLOR
 70
   257
  9
$OBSLTYPE
280
     0
  9
$INTERSECTIONDISPLAY
280
     0
  9
$INTERSECTIONCOLOR
 70
   257
  9
$DIMASSOC
280
     2
  9
$PROJECTNAME
  1

  9
$CAMERADISPLAY
290
     0
  9
$LENSLENGTH
 40
50.0
  9
$CAMERAHEIGHT
 40
0.0
  9
$STEPSPERSEC
 40
2.0
  9
$STEPSIZE
 40
6.0
  9
$3DDWFPREC
 40
2.0
  9
$PSOLWIDTH
 40
0.25
  9
$PSOLHEIGHT
 40
4.0
  9
$LOFTANG1
 40
1.570796326794896
  9
$LOFTANG2
 40
1.570796326794896
  9
$LOFTMAG1
 40
0.0
  9
$LOFTMAG2
 40
0.0
  9
$LOFTPARAM
 70
     7
  9
$LOFTNORMALS
280
     1
  9
$LATITUDE
 40
37.795
  9
$LONGITUDE
 40
-122.394
  9
$NORTHDIRECTION
 40
0.0
  9
$TIMEZONE
 70
 -8000
  9
$LIGHTGLYPHDISPLAY
280
     1
  9
$TILEMODELIGHTSYNCH
280
     1
  9
$CMATERIAL
347
11
  9
$SOLIDHIST
280
     0
  9
$SHOWHIST
280
     1
  9
$DWFFRAME
280
     2
  9
$DGNFRAME
280
     0
  9
$REALWORLDSCALE
290
     1
  9
$INTERFERECOLOR
 62
     1
  9
$INTERFEREOBJVS
345
33
  9
$INTERFEREVPVS
346
30
  9
$CSHADOW
280
     0
  9
$SHADOWPLANELOCATION
 40
0.0
  0
ENDSEC
  0
SECTION
  2
CLASSES
  0
CLASS
  1
ACDBDICTIONARYWDFLT
  2
AcDbDictionaryWithDefault
  3
ObjectDBX Classes
 90
        0
 91
        1
280
     0
281
     0
  0
CLASS
  1
MATERIAL
  2
AcDbMaterial
  3
ObjectDBX Classes
 90
     1153
 91
        3
280
     0
281
     0
  0
CLASS
  1
VISUALSTYLE
  2
AcDbVisualStyle
  3
ObjectDBX Classes
 90
     4095
 91
       24
280
     0
281
     0
  0
CLASS
  1
SCALE
  2
AcDbScale
  3
ObjectDBX Classes
 90
     1153
 91
       17
280
     0
281
     0
  0
CLASS
  1
TABLESTYLE
  2
AcDbTableStyle
  3
ObjectDBX Classes
 90
     4095
 91
        1
280
     0
281
     0
  0
CLASS
  1
MLEADERSTYLE
  2
AcDbMLeaderStyle
  3
ACDB_MLEADERSTYLE_CLASS
 90
     4095
 91
        1
280
     0
281
     0
  0
CLASS
  1
ACDBSECTIONVIEWSTYLE
  2
AcDbSectionViewStyle
  3
ObjectDBX Classes
 90
     1025
 91
        1
280
     0
281
     0
  0
CLASS
  1
ACDBDETAILVIEWSTYLE
  2
AcDbDetailViewStyle
  3
ObjectDBX Classes
 90
     1025
 91
        1
280
     0
281
     0
  0
CLASS
  1
DICTIONARYVAR
  2
AcDbDictionaryVar
  3
ObjectDBX Classes
 90
        0
 91
        5
280
     0
281
     0
  0
CLASS
  1
CELLSTYLEMAP
  2
AcDbCellStyleMap
  3
ObjectDBX Classes
 90
     1152
 91
        1
280
     0
281
     0
  0
ENDSEC
  0
SECTION
  2
TABLES
  0
TABLE
  2
VPORT
  5
8
330
0
100
AcDbSymbolTable
 70
     1
  0
VPORT
  5
57
330
8
100
AcDbSymbolTableRecord
100
AcDbViewportTableRecord
  2
*Active
 70
     0
 10
0.0
 20
0.0
 11
1.0
 21
1.0
 12
0.0
 22
0.0
 13
0.0
 23
0.0
 14
1.0
 24
1.0
 15
0.0
 25
0.0
 16
0.0
 26
0.0
 36
1.0
 17
104.9999999737499
 27
31.49999999212523
 37
0.0
 40
302.9399999242649
 41
0.7070707070707066
 42
50.0
 43
0.0
 44
0.0
 50
0.0
 51
0.0
 71
     0
 72
   100
 73
     1
 74
     1
 75
     0
 76
     0
 77
     0
 78
     0
281
     0
 65
     1
110
0.0
120
0.0
130
0.0
111
1.0
121
0.0
131
0.0
112
0.0
122
1.0
132
0.0
 79
     0
146
0.0
 60
     3
 61
     5
292
     1
282
     1
141
0.0
142
0.0
 63
   250
421
  3355443
  0
ENDTAB
  0
TABLE
  2
LTYPE
  5
5
330
0
100
AcDbSymbolTable
 70
     1
  0
LTYPE
  5
5B
330
5
100
AcDbSymbolTableRecord
100
AcDbLinetypeTableRecord
  2
ByBlock
 70
     0
  3

 72
    65
 73
     0
 40
0.0
  0
LTYPE
  5
5C
330
5
100
AcDbSymbolTableRecord
100
AcDbLinetypeTableRecord
  2
ByLayer
 70
     0
  3

 72
    65
 73
     0
 40
0.0
  0
LTYPE
  5
5D
330
5
100
AcDbSymbolTableRecord
100
AcDbLinetypeTableRecord
  2
Continuous
 70
     0
  3
Solid line
 72
    65
 73
     0
 40
0.0
  0
ENDTAB
  0
TABLE
  2
LAYER
  5
2
330
0
100
AcDbSymbolTable
 70
     2
  0
LAYER
  5
54
330
2
100
AcDbSymbolTableRecord
100
AcDbLayerTableRecord
  2
0
 70
     0
 62
     7
  6
Continuous
370
     0
390
F
347
21
348
0
  0
LAYER
  5
265
330
2
100
AcDbSymbolTableRecord
100
AcDbLayerTableRecord
  2
CAPA_BASE
 70
     0
 62
     7
  6
Continuous
370
     0
390
F
347
21
348
0
  0
ENDTAB
  0
TABLE
  2
STYLE
  5
3
330
0
100
AcDbSymbolTable
 70
     2
  0
STYLE
  5
55
330
3
100
AcDbSymbolTableRecord
100
AcDbTextStyleTableRecord
  2
Standard
 70
     0
 40
0.0
 41
1.0
 50
0.0
 71
     0
 42
0.2
  3
txt
  4

  0
STYLE
  5
5A
330
3
100
AcDbSymbolTableRecord
100
AcDbTextStyleTableRecord
  2
Annotative
 70
     0
 40
0.0
 41
1.0
 50
0.0
 71
     0
 42
0.2
  3
txt
  4

1001
AcadAnnotative
1000
AnnotativeData
1002
{
1070
     1
1070
     1
1002
}
  0
ENDTAB
  0
TABLE
  2
VIEW
  5
6
330
0
100
AcDbSymbolTable
 70
     0
  0
ENDTAB
  0
TABLE
  2
UCS
  5
7
330
0
100
AcDbSymbolTable
 70
     0
  0
ENDTAB
  0
TABLE
  2
APPID
  5
9
330
0
100
AcDbSymbolTable
 70
     2
  0
APPID
  5
56
330
9
100
AcDbSymbolTableRecord
100
AcDbRegAppTableRecord
  2
ACAD
 70
     0
  0
APPID
  5
5E
330
9
100
AcDbSymbolTableRecord
100
AcDbRegAppTableRecord
  2
AcadAnnotative
 70
     0
  0
ENDTAB
  0
TABLE
  2
DIMSTYLE
  5
A
330
0
100
AcDbSymbolTable
 70
     2
100
AcDbDimStyleTable
 71
     0
  0
DIMSTYLE
105
58
330
A
100
AcDbSymbolTableRecord
100
AcDbDimStyleTableRecord
  2
Standard
 70
     0
340
55
  0
DIMSTYLE
105
59
330
A
100
AcDbSymbolTableRecord
100
AcDbDimStyleTableRecord
  2
Annotative
 70
     0
340
55
1001
AcadAnnotative
1000
AnnotativeData
1002
{
1070
     1
1070
     1
1002
}
  0
ENDTAB
  0
TABLE
  2
BLOCK_RECORD
  5
1
330
0
100
AcDbSymbolTable
 70
     4
  0
BLOCK_RECORD
  5
70
330
1
100
AcDbSymbolTableRecord
100
AcDbBlockTableRecord
  2
*Model_Space
340
73
 70
     0
280
     1
281
     0
  0
BLOCK_RECORD
  5
6C
330
1
100
AcDbSymbolTableRecord
100
AcDbBlockTableRecord
  2
*Paper_Space
340
6F
 70
     0
280
     1
281
     0
  0
BLOCK_RECORD
  5
74
330
1
100
AcDbSymbolTableRecord
100
AcDbBlockTableRecord
  2
*Paper_Space0
340
77
 70
     0
280
     1
281
     0
  0
BLOCK_RECORD
  5
266
330
1
100
AcDbSymbolTableRecord
100
AcDbBlockTableRecord
  2
Block_0
340
0
102
{BLKREFS
331
267
102
}
 70
     0
280
     1
281
     0
  0
BLOCK_RECORD
  5
272
330
1
100
AcDbSymbolTableRecord
100
AcDbBlockTableRecord
  2
Block_1
340
0
102
{BLKREFS
331
273
102
}
 70
     0
280
     1
281
     0
  0
BLOCK_RECORD
  5
27E
330
1
100
AcDbSymbolTableRecord
100
AcDbBlockTableRecord
  2
Block_2
340
0
102
{BLKREFS
331
27F
102
}
 70
     0
280
     1
281
     0
  0
ENDTAB
  0
ENDSEC
  0
SECTION
  2
BLOCKS
  0
BLOCK
  5
71
330
70
100
AcDbEntity
  8
0
100
AcDbBlockBegin
  2
*Model_Space
 70
     0
 10
0.0
 20
0.0
 30
0.0
  3
*Model_Space
  1

  0
ENDBLK
  5
72
330
70
100
AcDbEntity
  8
0
100
AcDbBlockEnd
  0
BLOCK
  5
6D
330
6C
100
AcDbEntity
 67
     1
  8
0
100
AcDbBlockBegin
  2
*Paper_Space
 70
     0
 10
0.0
 20
0.0
 30
0.0
  3
*Paper_Space
  1

  0
ENDBLK
  5
6E
330
6C
100
AcDbEntity
 67
     1
  8
0
100
AcDbBlockEnd
  0
BLOCK
  5
75
330
74
100
AcDbEntity
 67
     1
  8
0
100
AcDbBlockBegin
  2
*Paper_Space0
 70
     0
 10
0.0
 20
0.0
 30
0.0
  3
*Paper_Space0
  1

  0
ENDBLK
  5
76
330
74
100
AcDbEntity
 67
     1
  8
0
100
AcDbBlockEnd
  0
BLOCK
  5
268
330
266
100
AcDbEntity
  8
0
100
AcDbBlockBegin
  2
Block_0
 70
     0
 10
0.0
 20
0.0
 30
0.0
  3
Block_0
  1

  0
LWPOLYLINE
  5
26A
330
266
100
AcDbEntity
  8
CAPA_BASE
100
AcDbPolyline
 90
        4
 70
     1
 43
0.0
 10
94.61137927083138
 20
95.20744414653696
 10
92.11137927083097
 20
95.517444146537
 10
92.11137927083097
 20
94.8974441465369
 10
92.11137927083097
 20
94.8974441465369
  0
HATCH
  5
26B
330
266
100
AcDbEntity
  8
CAPA_BASE
 62
    18
420
        0
440
 33554687
100
AcDbHatch
 10
0.0
 20
0.0
 30
0.0
210
0.0
220
0.0
230
1.0
  2
SOLID
 70
     1
 71
     1
 91
        1
 92
        1
 93
        3
 72
     1
 10
94.61137927083138
 20
95.20744414653696
 11
92.11137927083097
 21
95.517444146537
 72
     1
 10
92.11137927083097
 20
95.517444146537
 11
92.11137927083097
 21
94.8974441465369
 72
     1
 10
92.11137927083097
 20
94.8974441465369
 11
94.61137927083138
 21
95.20744414653696
 97
        1
330
26A
 75
     2
 76
     1
 98
        1
 10
0.0
 20
0.0
450
        0
451
        0
460
0.0
461
0.0
452
        0
462
0.0
453
        0
470

  0
LWPOLYLINE
  5
26C
330
266
100
AcDbEntity
  8
CAPA_BASE
100
AcDbPolyline
 90
        4
 70
     1
 43
0.0
 10
19.6113792708313
 20
95.20744414653696
 10
22.11137927083139
 20
94.8974441465369
 10
22.11137927083139
 20
95.517444146537
 10
22.11137927083139
 20
95.517444146537
  0
HATCH
  5
26D
330
266
100
AcDbEntity
  8
CAPA_BASE
 62
    18
420
        0
440
 33554687
100
AcDbHatch
 10
0.0
 20
0.0
 30
0.0
210
0.0
220
0.0
230
1.0
  2
SOLID
 70
     1
 71
     1
 91
        1
 92
        1
 93
        3
 72
     1
 10
19.6113792708313
 20
95.20744414653696
 11
22.11137927083139
 21
94.8974441465369
 72
     1
 10
22.11137927083139
 20
94.8974441465369
 11
22.11137927083139
 21
95.517444146537
 72
     1
 10
22.11137927083139
 20
95.517444146537
 11
19.6113792708313
 21
95.20744414653696
 97
        1
330
26C
 75
     2
 76
     1
 98
        1
 10
0.0
 20
0.0
450
        0
451
        0
460
0.0
461
0.0
452
        0
462
0.0
453
        0
470

  0
LINE
  5
26E
330
266
100
AcDbEntity
  8
CAPA_BASE
 62
    18
420
        0
370
    25
100
AcDbLine
 10
94.61137927083138
 20
115.907444146537
 30
0.0
 11
94.61137927083138
 21
94.20744414653693
 31
0.0
  0
LINE
  5
26F
330
266
100
AcDbEntity
  8
CAPA_BASE
 62
    18
420
        0
370
    25
100
AcDbLine
 10
19.6113792708313
 20
115.907444146537
 30
0.0
 11
19.6113792708313
 21
94.20744414653693
 31
0.0
  0
LINE
  5
270
330
266
100
AcDbEntity
  8
CAPA_BASE
 62
    18
420
        0
370
    25
100
AcDbLine
 10
94.61137927083138
 20
95.20744414653696
 30
0.0
 11
19.6113792708313
 21
95.20744414653696
 31
0.0
  0
MTEXT
  5
271
330
266
100
AcDbEntity
  8
CAPA_BASE
100
AcDbMText
 10
54.46554390287396
 20
96.00120304674623
 30
0.0
 40
0.2
 41
0.0
 46
0.0
 71
     7
 72
     1
  1
\C18;\c0;\FArial Bold|b1|i0|c1;\H2.997200;\W0.700000;150
 73
     1
 44
1.0
  0
ENDBLK
  5
269
330
266
100
AcDbEntity
  8
0
100
AcDbBlockEnd
  0
BLOCK
  5
274
330
272
100
AcDbEntity
  8
0
100
AcDbBlockBegin
  2
Block_1
 70
     0
 10
0.0
 20
0.0
 30
0.0
  3
Block_1
  1

  0
LWPOLYLINE
  5
276
330
272
100
AcDbEntity
  8
CAPA_BASE
100
AcDbPolyline
 90
        4
 70
     1
 43
0.0
 10
104.6113792708317
 20
70.78685120773704
 10
104.3013792708314
 20
68.28685120773663
 10
104.9213792708314
 20
68.28685120773663
 10
104.9213792708314
 20
68.28685120773663
  0
HATCH
  5
277
330
272
100
AcDbEntity
  8
CAPA_BASE
 62
    18
420
        0
440
 33554687
100
AcDbHatch
 10
0.0
 20
0.0
 30
0.0
210
0.0
220
0.0
230
1.0
  2
SOLID
 70
     1
 71
     1
 91
        1
 92
        1
 93
        3
 72
     1
 10
104.6113792708317
 20
70.78685120773704
 11
104.3013792708314
 21
68.28685120773663
 72
     1
 10
104.3013792708314
 20
68.28685120773663
 11
104.9213792708314
 21
68.28685120773663
 72
     1
 10
104.9213792708314
 20
68.28685120773663
 11
104.6113792708317
 21
70.78685120773704
 97
        1
330
276
 75
     2
 76
     1
 98
        1
 10
0.0
 20
0.0
450
        0
451
        0
460
0.0
461
0.0
452
        0
462
0.0
453
        0
470

  0
LWPOLYLINE
  5
278
330
272
100
AcDbEntity
  8
CAPA_BASE
100
AcDbPolyline
 90
        4
 70
     1
 43
0.0
 10
104.6113792708317
 20
17.78685120773709
 10
104.9213792708314
 20
20.28685120773686
 10
104.3013792708314
 20
20.28685120773686
 10
104.3013792708314
 20
20.28685120773686
  0
HATCH
  5
279
330
272
100
AcDbEntity
  8
CAPA_BASE
 62
    18
420
        0
440
 33554687
100
AcDbHatch
 10
0.0
 20
0.0
 30
0.0
210
0.0
220
0.0
230
1.0
  2
SOLID
 70
     1
 71
     1
 91
        1
 92
        1
 93
        3
 72
     1
 10
104.6113792708317
 20
17.78685120773709
 11
104.9213792708314
 21
20.28685120773686
 72
     1
 10
104.9213792708314
 20
20.28685120773686
 11
104.3013792708314
 21
20.28685120773686
 72
     1
 10
104.3013792708314
 20
20.28685120773686
 11
104.6113792708317
 21
17.78685120773709
 97
        1
330
278
 75
     2
 76
     1
 98
        1
 10
0.0
 20
0.0
450
        0
451
        0
460
0.0
461
0.0
452
        0
462
0.0
453
        0
470

  0
LINE
  5
27A
330
272
100
AcDbEntity
  8
CAPA_BASE
 62
    18
420
        0
370
    25
100
AcDbLine
 10
71.86137927083137
 20
70.78685120773704
 30
0.0
 11
105.6113792708311
 21
70.78685120773704
 31
0.0
  0
LINE
  5
27B
330
272
100
AcDbEntity
  8
CAPA_BASE
 62
    18
420
        0
370
    25
100
AcDbLine
 10
85.36137927083089
 20
17.78685120773709
 30
0.0
 11
105.6113792708311
 21
17.78685120773709
 31
0.0
  0
LINE
  5
27C
330
272
100
AcDbEntity
  8
CAPA_BASE
 62
    18
420
        0
370
    25
100
AcDbLine
 10
104.6113792708317
 20
70.78685120773704
 30
0.0
 11
104.6113792708317
 21
17.78685120773709
 31
0.0
  0
MTEXT
  5
27D
330
272
100
AcDbEntity
  8
CAPA_BASE
100
AcDbMText
 10
103.8176348532644
 20
41.64086913021414
 30
0.0
 40
0.2
 41
0.0
 46
0.0
 71
     7
 72
     1
  1
\C18;\c0;\FArial Bold|b1|i0|c1;\H2.997200;\W0.700000;106
 11
0.0000000000000003
 21
1.0
 31
0.0
 73
     1
 44
1.0
  0
ENDBLK
  5
275
330
272
100
AcDbEntity
  8
0
100
AcDbBlockEnd
  0
BLOCK
  5
280
330
27E
100
AcDbEntity
  8
0
100
AcDbBlockBegin
  2
Block_2
 70
     0
 10
0.0
 20
0.0
 30
0.0
  3
Block_2
  1

  0
LWPOLYLINE
  5
282
330
27E
100
AcDbEntity
  8
CAPA_BASE
100
AcDbPolyline
 90
        4
 70
     1
 43
0.0
 10
126.3683936750309
 20
132.707444146537
 10
126.0583936750312
 20
130.2074441465369
 10
126.6783936750306
 20
130.2074441465369
 10
126.6783936750306
 20
130.2074441465369
  0
HATCH
  5
283
330
27E
100
AcDbEntity
  8
CAPA_BASE
 62
    18
420
        0
440
 33554687
100
AcDbHatch
 10
0.0
 20
0.0
 30
0.0
210
0.0
220
0.0
230
1.0
  2
SOLID
 70
     1
 71
     1
 91
        1
 92
        1
 93
        3
 72
     1
 10
126.3683936750309
 20
132.707444146537
 11
126.0583936750312
 21
130.2074441465369
 72
     1
 10
126.0583936750312
 20
130.2074441465369
 11
126.6783936750306
 21
130.2074441465369
 72
     1
 10
126.6783936750306
 20
130.2074441465369
 11
126.3683936750309
 21
132.707444146537
 97
        1
330
282
 75
     2
 76
     1
 98
        1
 10
0.0
 20
0.0
450
        0
451
        0
460
0.0
461
0.0
452
        0
462
0.0
453
        0
470

  0
LWPOLYLINE
  5
284
330
27E
100
AcDbEntity
  8
CAPA_BASE
100
AcDbPolyline
 90
        4
 70
     1
 43
0.0
 10
126.3683936750309
 20
105.2074441465369
 10
126.6783936750306
 20
107.7074441465371
 10
126.0583936750312
 20
107.7074441465371
 10
126.0583936750312
 20
107.7074441465371
  0
HATCH
  5
285
330
27E
100
AcDbEntity
  8
CAPA_BASE
 62
    18
420
        0
440
 33554687
100
AcDbHatch
 10
0.0
 20
0.0
 30
0.0
210
0.0
220
0.0
230
1.0
  2
SOLID
 70
     1
 71
     1
 91
        1
 92
        1
 93
        3
 72
     1
 10
126.3683936750309
 20
105.2074441465369
 11
126.6783936750306
 21
107.7074441465371
 72
     1
 10
126.6783936750306
 20
107.7074441465371
 11
126.0583936750312
 21
107.7074441465371
 72
     1
 10
126.0583936750312
 20
107.7074441465371
 11
126.3683936750309
 21
105.2074441465369
 97
        1
330
284
 75
     2
 76
     1
 98
        1
 10
0.0
 20
0.0
450
        0
451
        0
460
0.0
461
0.0
452
        0
462
0.0
453
        0
470

  0
LINE
  5
286
330
27E
100
AcDbEntity
  8
CAPA_BASE
 62
    18
420
        0
370
    25
100
AcDbLine
 10
135.3683936750319
 20
132.707444146537
 30
0.0
 11
125.3683936750315
 21
132.707444146537
 31
0.0
  0
LINE
  5
287
330
27E
100
AcDbEntity
  8
CAPA_BASE
 62
    18
420
        0
370
    25
100
AcDbLine
 10
135.3683936750319
 20
105.2074441465369
 30
0.0
 11
125.3683936750315
 21
105.2074441465369
 31
0.0
  0
LINE
  5
288
330
27E
100
AcDbEntity
  8
CAPA_BASE
 62
    18
420
        0
370
    25
100
AcDbLine
 10
126.3683936750309
 20
132.707444146537
 30
0.0
 11
126.3683936750309
 21
105.2074441465369
 31
0.0
  0
MTEXT
  5
289
330
27E
100
AcDbEntity
  8
CAPA_BASE
100
AcDbMText
 10
125.5746428493646
 20
115.5071614294559
 30
0.0
 40
0.2
 41
0.0
 46
0.0
 71
     7
 72
     1
  1
\C18;\c0;\FArial Bold|b1|i0|c1;\H2.997200;\W0.700000;Ø
 11
0.0000000000000003
 21
1.0
 31
0.0
 73
     1
 44
1.0
  0
MTEXT
  5
28A
330
27E
100
AcDbEntity
  8
CAPA_BASE
100
AcDbMText
 10
125.5746428493646
 20
118.879565399967
 30
0.0
 40
0.2
 41
0.0
 46
0.0
 71
     7
 72
     1
  1
\C18;\c0;\FArial Bold|b1|i0|c1;\H2.997200;\W0.700000;55
 11
0.0000000000000003
 21
1.0
 31
0.0
 73
     1
 44
1.0
  0
ENDBLK
  5
281
330
27E
100
AcDbEntity
  8
0
100
AcDbBlockEnd
  0
ENDSEC
  0
SECTION
  2
ENTITIES
  0
LINE
  5
78
330
70
100
AcDbEntity
  8
0
 62
    18
420
        0
370
    25
100
AcDbLine
 10
35.86137927083139
 20
110.9074441465369
 30
0.0
 11
78.36137927083129
 21
110.9074441465369
 31
0.0
  0
LINE
  5
79
330
70
100
AcDbEntity
  8
0
 62
    18
420
        0
370
    25
100
AcDbLine
 10
78.36137927083129
 20
112.4074441465369
 30
0.0
 11
35.86137927083139
 21
112.4074441465369
 31
0.0
  0
SPLINE
  5
7A
330
70
100
AcDbEntity
  8
0
 62
    18
420
        0
370
    25
100
AcDbSpline
210
0.0
220
0.0
230
1.0
 70
     8
 71
     3
 72
     8
 73
     4
 74
     0
 42
0.0000000001
 43
0.0000000001
 40
0.0
 40
0.0
 40
0.0
 40
0.0
 40
1.0
 40
1.0
 40
1.0
 40
1.0
 10
34.11137927083117
 20
114.1574441465371
 30
0.0
 10
34.11137927083117
 20
113.1909458343331
 30
0.0
 10
34.89488095862738
 20
112.4074441465369
 30
0.0
 10
35.86137927083139
 20
112.4074441465369
 30
0.0
  0
SPLINE
  5
7B
330
70
100
AcDbEntity
  8
0
 62
    18
420
        0
370
    25
100
AcDbSpline
210
0.0
220
0.0
230
1.0
 70
     8
 71
     3
 72
     8
 73
     4
 74
     0
 42
0.0000000001
 43
0.0000000001
 40
0.0
 40
0.0
 40
0.0
 40
0.0
 40
1.0
 40
1.0
 40
1.0
 40
1.0
 10
32.61137927083144
 20
114.1574441465371
 30
0.0
 10
32.61137927083144
 20
112.362518709587
 30
0.0
 10
34.06645383388127
 20
110.9074441465372
 30
0.0
 10
35.86137927083139
 20
110.9074441465372
 30
0.0
  0
SPLINE
  5
7C
330
70
100
AcDbEntity
  8
0
 62
    18
420
        0
370
    25
100
AcDbSpline
210
0.0
220
0.0
230
1.0
 70
     8
 71
     3
 72
     8
 73
     4
 74
     0
 42
0.0000000001
 43
0.0000000001
 40
0.0
 40
0.0
 40
0.0
 40
0.0
 40
1.0
 40
1.0
 40
1.0
 40
1.0
 10
78.36137927083129
 20
112.4074441465369
 30
0.0
 10
79.32787758303561
 20
112.4074441465369
 30
0.0
 10
80.11137927083119
 20
113.1909458343331
 30
0.0
 10
80.11137927083119
 20
114.1574441465371
 30
0.0
  0
SPLINE
  5
7D
330
70
100
AcDbEntity
  8
0
 62
    18
420
        0
370
    25
100
AcDbSpline
210
0.0
220
0.0
230
1.0
 70
     8
 71
     3
 72
     8
 73
     4
 74
     0
 42
0.0000000001
 43
0.0000000001
 40
0.0
 40
0.0
 40
0.0
 40
0.0
 40
1.0
 40
1.0
 40
1.0
 40
1.0
 10
78.36137927083129
 20
110.9074441465372
 30
0.0
 10
80.15630470778109
 20
110.9074441465372
 30
0.0
 10
81.61137927083156
 20
112.362518709587
 30
0.0
 10
81.61137927083156
 20
114.1574441465371
 30
0.0
  0
LINE
  5
7E
330
70
100
AcDbEntity
  8
0
 62
    18
420
        0
370
    25
100
AcDbLine
 10
80.11137927083119
 20
116.6574441465369
 30
0.0
 11
80.11137927083119
 21
114.1574441465371
 31
0.0
  0
LINE
  5
7F
330
70
100
AcDbEntity
  8
0
 62
    18
420
        0
370
    25
100
AcDbLine
 10
81.61137927083156
 20
114.1574441465371
 30
0.0
 11
81.61137927083156
 21
116.6574441465369
 31
0.0
  0
LINE
  5
80
330
70
100
AcDbEntity
  8
0
 62
    18
420
        0
370
    25
100
AcDbLine
 10
32.61137927083144
 20
116.6574441465369
 30
0.0
 11
32.61137927083144
 21
114.1574441465371
 31
0.0
  0
LINE
  5
81
330
70
100
AcDbEntity
  8
0
 62
    18
420
        0
370
    25
100
AcDbLine
 10
34.11137927083117
 20
114.1574441465371
 30
0.0
 11
34.11137927083117
 21
116.6574441465369
 31
0.0
  0
SPLINE
  5
82
330
70
100
AcDbEntity
  8
0
 62
    18
420
        0
370
    25
100
AcDbSpline
210
0.0
220
0.0
230
1.0
 70
     8
 71
     3
 72
     8
 73
     4
 74
     0
 42
0.0000000001
 43
0.0000000001
 40
0.0
 40
0.0
 40
0.0
 40
0.0
 40
1.0
 40
1.0
 40
1.0
 40
1.0
 10
21.73637927083114
 20
109.157444146537
 30
0.0
 10
21.73637927083114
 20
108.1909458343333
 30
0.0
 10
22.51988095862735
 20
107.407444146537
 30
0.0
 10
23.48637927083136
 20
107.407444146537
 30
0.0
  0
SPLINE
  5
83
330
70
100
AcDbEntity
  8
0
 62
    18
420
        0
370
    25
100
AcDbSpline
210
0.0
220
0.0
230
1.0
 70
     8
 71
     3
 72
     8
 73
     4
 74
     0
 42
0.0000000001
 43
0.0000000001
 40
0.0
 40
0.0
 40
0.0
 40
0.0
 40
1.0
 40
1.0
 40
1.0
 40
1.0
 10
20.2363792708314
 20
109.157444146537
 30
0.0
 10
20.2363792708314
 20
107.3625187095868
 30
0.0
 10
21.69145383388123
 20
105.907444146537
 30
0.0
 10
23.48637927083136
 20
105.907444146537
 30
0.0
  0
LINE
  5
84
330
70
100
AcDbEntity
  8
0
 62
    18
420
        0
370
    25
100
AcDbLine
 10
20.2363792708314
 20
116.6574441465369
 30
0.0
 11
20.2363792708314
 21
109.157444146537
 31
0.0
  0
LINE
  5
85
330
70
100
AcDbEntity
  8
0
 62
    18
420
        0
370
    25
100
AcDbLine
 10
21.73637927083114
 20
109.157444146537
 30
0.0
 11
21.73637927083114
 21
116.6574441465369
 31
0.0
  0
SPLINE
  5
86
330
70
100
AcDbEntity
  8
0
 62
    18
420
        0
370
    25
100
AcDbSpline
210
0.0
220
0.0
230
1.0
 70
     8
 71
     3
 72
     8
 73
     4
 74
     0
 42
0.0000000001
 43
0.0000000001
 40
0.0
 40
0.0
 40
0.0
 40
0.0
 40
1.0
 40
1.0
 40
1.0
 40
1.0
 10
90.73637927083101
 20
107.407444146537
 30
0.0
 10
91.70287758303533
 20
107.407444146537
 30
0.0
 10
92.48637927083155
 20
108.1909458343333
 30
0.0
 10
92.48637927083155
 20
109.157444146537
 30
0.0
  0
SPLINE
  5
87
330
70
100
AcDbEntity
  8
0
 62
    18
420
        0
370
    25
100
AcDbSpline
210
0.0
220
0.0
230
1.0
 70
     8
 71
     3
 72
     8
 73
     4
 74
     0
 42
0.0000000001
 43
0.0000000001
 40
0.0
 40
0.0
 40
0.0
 40
0.0
 40
1.0
 40
1.0
 40
1.0
 40
1.0
 10
90.73637927083101
 20
105.907444146537
 30
0.0
 10
92.53130470778144
 20
105.907444146537
 30
0.0
 10
93.98637927083127
 20
107.3625187095868
 30
0.0
 10
93.98637927083127
 20
109.157444146537
 30
0.0
  0
LINE
  5
88
330
70
100
AcDbEntity
  8
0
 62
    18
420
        0
370
    25
100
AcDbLine
 10
90.73637927083101
 20
107.407444146537
 30
0.0
 11
23.48637927083136
 21
107.407444146537
 31
0.0
  0
LINE
  5
89
330
70
100
AcDbEntity
  8
0
 62
    18
420
        0
370
    25
100
AcDbLine
 10
23.48637927083136
 20
105.907444146537
 30
0.0
 11
90.73637927083101
 21
105.907444146537
 31
0.0
  0
LINE
  5
8A
330
70
100
AcDbEntity
  8
0
 62
    18
420
        0
370
    25
100
AcDbLine
 10
92.48637927083155
 20
116.6574441465369
 30
0.0
 11
92.48637927083155
 21
109.157444146537
 31
0.0
  0
LINE
  5
8B
330
70
100
AcDbEntity
  8
0
 62
    18
420
        0
370
    25
100
AcDbLine
 10
93.98637927083127
 20
109.157444146537
 30
0.0
 11
93.98637927083127
 21
116.6574441465369
 31
0.0
  0
SPLINE
  5
8C
330
70
100
AcDbEntity
  8
0
 62
    18
420
        0
370
    25
100
AcDbSpline
210
0.0
220
0.0
230
1.0
 70
     8
 71
     3
 72
    11
 73
     7
 74
     0
 42
0.0000000001
 43
0.0000000001
 40
0.0
 40
0.0
 40
0.0
 40
0.0
 40
1.0
 40
1.0
 40
1.0
 40
2.0
 40
2.0
 40
2.0
 40
2.0
 10
70.59368248652616
 20
121.6574441465486
 30
0.0
 10
69.10251366197648
 20
129.1035146051713
 30
0.0
 10
61.85744972944272
 20
133.9309161867815
 30
0.0
 10
54.41137927081969
 20
132.4397473622318
 30
0.0
 10
48.97103858691175
 20
131.3502510342222
 30
0.0
 10
44.71857238314608
 20
127.0977848304565
 30
0.0
 10
43.62907605513619
 20
121.6574441465486
 30
0.0
  0
SPLINE
  5
8D
330
70
100
AcDbEntity
  8
0
 62
    18
420
        0
370
    25
100
AcDbSpline
210
0.0
220
0.0
230
1.0
 70
     8
 71
     3
 72
     8
 73
     4
 74
     0
 42
0.0000000001
 43
0.0000000001
 40
0.0
 40
0.0
 40
0.0
 40
0.0
 40
1.0
 40
1.0
 40
1.0
 40
1.0
 10
69.20104427859695
 20
112.4074441465372
 30
0.0
 10
69.91977952926671
 20
113.734050010639
 30
0.0
 10
70.41527056512949
 20
115.1699067000268
 30
0.0
 10
70.66765088215785
 20
116.6574441465475
 30
0.0
  0
SPLINE
  5
8E
330
70
100
AcDbEntity
  8
0
 62
    18
420
        0
370
    25
100
AcDbSpline
210
0.0
220
0.0
230
1.0
 70
     8
 71
     3
 72
     8
 73
     4
 74
     0
 42
0.0000000001
 43
0.0000000001
 40
0.0
 40
0.0
 40
0.0
 40
0.0
 40
1.0
 40
1.0
 40
1.0
 40
1.0
 10
64.57194225227112
 20
107.4074441465383
 30
0.0
 10
66.00767435654535
 20
108.3348354702106
 30
0.0
 10
67.25791445827155
 20
109.521782800743
 30
0.0
 10
68.25857622791604
 20
110.9074441465401
 30
0.0
  0
SPLINE
  5
8F
330
70
100
AcDbEntity
  8
0
 62
    18
420
        0
370
    25
100
AcDbSpline
210
0.0
220
0.0
230
1.0
 70
     8
 71
     3
 72
     8
 73
     4
 74
     0
 42
0.0000000001
 43
0.0000000001
 40
0.0
 40
0.0
 40
0.0
 40
0.0
 40
1.0
 40
1.0
 40
1.0
 40
1.0
 10
52.78009770528652
 20
105.907444146538
 30
0.0
 10
55.5921984232147
 20
104.9741108132033
 30
0.0
 10
58.63056011844765
 20
104.9741108132033
 30
0.0
 10
61.44266083637583
 20
105.907444146538
 30
0.0
  0
SPLINE
  5
90
330
70
100
AcDbEntity
  8
0
 62
    18
420
        0
370
    25
100
AcDbSpline
210
0.0
220
0.0
230
1.0
 70
     8
 71
     3
 72
     8
 73
     4
 74
     0
 42
0.0000000001
 43
0.0000000001
 40
0.0
 40
0.0
 40
0.0
 40
0.0
 40
1.0
 40
1.0
 40
1.0
 40
1.0
 10
45.964182313746
 20
110.9074441465401
 30
0.0
 10
46.96484408339144
 20
109.521782800743
 30
0.0
 10
48.21508418511701
 20
108.3348354702106
 30
0.0
 10
49.65081628939123
 20
107.4074441465383
 30
0.0
  0
SPLINE
  5
91
330
70
100
AcDbEntity
  8
0
 62
    18
420
        0
370
    25
100
AcDbSpline
210
0.0
220
0.0
230
1.0
 70
     8
 71
     3
 72
     8
 73
     4
 74
     0
 42
0.0000000001
 43
0.0000000001
 40
0.0
 40
0.0
 40
0.0
 40
0.0
 40
1.0
 40
1.0
 40
1.0
 40
1.0
 10
43.55510765950514
 20
116.6574441465475
 30
0.0
 10
43.80748797653287
 20
115.1699067000268
 30
0.0
 10
44.30297901239566
 20
113.734050010639
 30
0.0
 10
45.0217142630654
 20
112.4074441465372
 30
0.0
  0
LINE
  5
92
330
70
100
AcDbEntity
  8
0
 62
    18
420
        0
370
    25
100
AcDbLine
 10
29.86137927083118
 20
121.6574441465371
 30
0.0
 11
20.98637927083127
 21
121.6574441465371
 31
0.0
  0
LINE
  5
93
330
70
100
AcDbEntity
  8
0
 62
    18
420
        0
370
    25
100
AcDbLine
 10
29.86137927083118
 20
121.6574441465371
 30
0.0
 11
29.86137927083118
 21
120.2824441465371
 31
0.0
  0
LINE
  5
94
330
70
100
AcDbEntity
  8
0
 62
    18
420
        0
370
    25
100
AcDbLine
 10
29.86137927083118
 20
120.2824441465371
 30
0.0
 11
19.6113792708313
 21
120.2824441465371
 31
0.0
  0
SPLINE
  5
95
330
70
100
AcDbEntity
  8
0
 62
    18
420
        0
370
    25
100
AcDbSpline
210
0.0
220
0.0
230
1.0
 70
     8
 71
     3
 72
     8
 73
     4
 74
     0
 42
0.0000000001
 43
0.0000000001
 40
0.0
 40
0.0
 40
0.0
 40
0.0
 40
1.0
 40
1.0
 40
1.0
 40
1.0
 10
20.98637927083127
 20
121.6574441465371
 30
0.0
 10
20.22698773981395
 20
121.6574441465371
 30
0.0
 10
19.6113792708313
 20
121.0418356775544
 30
0.0
 10
19.6113792708313
 20
120.2824441465371
 30
0.0
  0
LINE
  5
96
330
70
100
AcDbEntity
  8
0
 62
    18
420
        0
370
    25
100
AcDbLine
 10
19.6113792708313
 20
116.9074441465371
 30
0.0
 11
29.86137927083118
 21
116.9074441465371
 31
0.0
  0
LINE
  5
97
330
70
100
AcDbEntity
  8
0
 62
    18
420
        0
370
    25
100
AcDbLine
 10
29.86137927083118
 20
116.9074441465371
 30
0.0
 11
29.86137927083118
 21
116.6574441465369
 31
0.0
  0
LINE
  5
98
330
70
100
AcDbEntity
  8
0
 62
    18
420
        0
370
    25
100
AcDbLine
 10
29.86137927083118
 20
116.6574441465369
 30
0.0
 11
19.86137927083115
 21
116.6574441465369
 31
0.0
  0
SPLINE
  5
99
330
70
100
AcDbEntity
  8
0
 62
    18
420
        0
370
    25
100
AcDbSpline
210
0.0
220
0.0
230
1.0
 70
     8
 71
     3
 72
     8
 73
     4
 74
     0
 42
0.0000000001
 43
0.0000000001
 40
0.0
 40
0.0
 40
0.0
 40
0.0
 40
1.0
 40
1.0
 40
1.0
 40
1.0
 10
19.6113792708313
 20
116.9074441465371
 30
0.0
 10
19.6113792708313
 20
116.7693729590792
 30
0.0
 10
19.72330808337357
 20
116.6574441465369
 30
0.0
 10
19.86137927083115
 20
116.6574441465369
 30
0.0
  0
LINE
  5
9A
330
70
100
AcDbEntity
  8
0
 62
    18
420
        0
370
    25
100
AcDbLine
 10
29.86137927083118
 20
120.2824441465371
 30
0.0
 11
29.86137927083118
 21
116.9074441465371
 31
0.0
  0
LINE
  5
9B
330
70
100
AcDbEntity
  8
0
 62
    18
420
        0
370
    25
100
AcDbLine
 10
19.6113792708313
 20
120.2824441465371
 30
0.0
 11
19.6113792708313
 21
116.9074441465371
 31
0.0
  0
LINE
  5
9C
330
70
100
AcDbEntity
  8
0
 62
    18
420
        0
370
    25
100
AcDbLine
 10
84.3613792708315
 20
116.6574441465369
 30
0.0
 11
75.86137927083088
 21
116.6574441465369
 31
0.0
  0
SPLINE
  5
9D
330
70
100
AcDbEntity
  8
0
 62
    18
420
        0
370
    25
100
AcDbSpline
210
0.0
220
0.0
230
1.0
 70
     8
 71
     3
 72
     8
 73
     4
 74
     0
 42
0.0000000001
 43
0.0000000001
 40
0.0
 40
0.0
 40
0.0
 40
0.0
 40
1.0
 40
1.0
 40
1.0
 40
1.0
 10
75.6766891311596
 20
116.907444146478
 30
0.0
 10
75.7349903062433
 20
116.8217494740256
 30
0.0
 10
75.7966001873622
 20
116.7383531957483
 30
0.0
 10
75.86137927078853
 20
116.6574441464814
 30
0.0
  0
LINE
  5
9E
330
70
100
AcDbEntity
  8
0
 62
    18
420
        0
370
    25
100
AcDbLine
 10
75.67668913123148
 20
116.9074441465371
 30
0.0
 11
84.3613792708315
 21
116.9074441465371
 31
0.0
  0
LINE
  5
9F
330
70
100
AcDbEntity
  8
0
 62
    18
420
        0
370
    25
100
AcDbLine
 10
84.3613792708315
 20
116.6574441465369
 30
0.0
 11
84.3613792708315
 21
116.9074441465371
 31
0.0
  0
SPLINE
  5
A0
330
70
100
AcDbEntity
  8
0
 62
    18
420
        0
370
    25
100
AcDbSpline
210
0.0
220
0.0
230
1.0
 70
     8
 71
     3
 72
     8
 73
     4
 74
     0
 42
0.0000000001
 43
0.0000000001
 40
0.0
 40
0.0
 40
0.0
 40
0.0
 40
1.0
 40
1.0
 40
1.0
 40
1.0
 10
76.61217002493136
 20
121.6574441465371
 30
0.0
 10
76.08107194220903
 20
121.6574441465371
 30
0.0
 10
75.59746012245937
 20
121.3515811757789
 30
0.0
 10
75.36984665843606
 20
120.8717298608214
 30
0.0
  0
LINE
  5
A1
330
70
100
AcDbEntity
  8
0
 62
    18
420
        0
370
    25
100
AcDbLine
 10
84.3613792708315
 20
121.6574441465371
 30
0.0
 11
76.61217002493136
 21
121.6574441465371
 31
0.0
  0
LINE
  5
A2
330
70
100
AcDbEntity
  8
0
 62
    18
420
        0
370
    25
100
AcDbLine
 10
84.3613792708315
 20
121.6574441465371
 30
0.0
 11
84.3613792708315
 21
120.2824441465371
 31
0.0
  0
LINE
  5
A3
330
70
100
AcDbEntity
  8
0
 62
    18
420
        0
370
    25
100
AcDbLine
 10
84.3613792708315
 20
120.2824441465371
 30
0.0
 11
75.14534013683086
 21
120.2824441465371
 31
0.0
  0
LWPOLYLINE
  5
A4
330
70
100
AcDbEntity
  8
0
 62
    18
420
        0
370
    25
100
AcDbPolyline
 90
        3
 70
     0
 43
0.0
 10
75.14534013683086
 20
120.2824441465371
 10
75.3144385361309
 20
120.7496790660371
 10
75.36984665843156
 20
120.871729860737
  0
LINE
  5
A5
330
70
100
AcDbEntity
  8
0
 62
    18
420
        0
370
    25
100
AcDbLine
 10
29.86137927083118
 20
116.9074441465371
 30
0.0
 11
38.5460694104312
 21
116.9074441465371
 31
0.0
  0
SPLINE
  5
A6
330
70
100
AcDbEntity
  8
0
 62
    18
420
        0
370
    25
100
AcDbSpline
210
0.0
220
0.0
230
1.0
 70
     8
 71
     3
 72
     8
 73
     4
 74
     0
 42
0.0000000001
 43
0.0000000001
 40
0.0
 40
0.0
 40
0.0
 40
0.0
 40
1.0
 40
1.0
 40
1.0
 40
1.0
 10
38.36137927079747
 20
116.6574441464913
 30
0.0
 10
38.42615835422316
 20
116.7383531957583
 30
0.0
 10
38.48776823534173
 20
116.8217494740346
 30
0.0
 10
38.54606941042542
 20
116.9074441464864
 30
0.0
  0
LINE
  5
A7
330
70
100
AcDbEntity
  8
0
 62
    18
420
        0
370
    25
100
AcDbLine
 10
38.36137927083116
 20
116.6574441465369
 30
0.0
 11
29.86137927083118
 21
116.6574441465369
 31
0.0
  0
LINE
  5
A8
330
70
100
AcDbEntity
  8
0
 62
    18
420
        0
370
    25
100
AcDbLine
 10
37.61058851673132
 20
121.6574441465371
 30
0.0
 11
29.86137927083118
 21
121.6574441465371
 31
0.0
  0
SPLINE
  5
A9
330
70
100
AcDbEntity
  8
0
 62
    18
420
        0
370
    25
100
AcDbSpline
210
0.0
220
0.0
230
1.0
 70
     8
 71
     3
 72
     8
 73
     4
 74
     0
 42
0.0000000001
 43
0.0000000001
 40
0.0
 40
0.0
 40
0.0
 40
0.0
 40
1.0
 40
1.0
 40
1.0
 40
1.0
 10
38.85291188322662
 20
120.8717298608214
 30
0.0
 10
38.62529841920299
 20
121.3515811757789
 30
0.0
 10
38.14168659945333
 20
121.6574441465371
 30
0.0
 10
37.61058851673132
 20
121.6574441465371
 30
0.0
  0
LWPOLYLINE
  5
AA
330
70
100
AcDbEntity
  8
0
 62
    18
420
        0
370
    25
100
AcDbPolyline
 90
        3
 70
     0
 43
0.0
 10
38.85291188323144
 20
120.871729860737
 10
39.03469244573124
 20
120.4191136511369
 10
39.07741840483118
 20
120.2824441465371
  0
LINE
  5
AB
330
70
100
AcDbEntity
  8
0
 62
    18
420
        0
370
    25
100
AcDbLine
 10
39.07741840483118
 20
120.2824441465371
 30
0.0
 11
29.86137927083118
 21
120.2824441465371
 31
0.0
  0
SPLINE
  5
AC
330
70
100
AcDbEntity
  8
0
 62
    18
420
        0
370
    25
100
AcDbSpline
210
0.0
220
0.0
230
1.0
 70
     8
 71
     3
 72
     8
 73
     4
 74
     0
 42
0.0000000001
 43
0.0000000001
 40
0.0
 40
0.0
 40
0.0
 40
0.0
 40
1.0
 40
1.0
 40
1.0
 40
1.0
 10
38.54606941046264
 20
116.9074441465377
 30
0.0
 10
39.21889896150661
 20
117.8964106280926
 30
0.0
 10
39.41383318034964
 20
119.1345855292825
 30
0.0
 10
39.07741840482701
 20
120.2824441465381
 30
0.0
  0
LINE
  5
AD
330
70
100
AcDbEntity
  8
0
 62
    18
420
        0
370
    25
100
AcDbLine
 10
94.36137927083121
 20
116.6574441465369
 30
0.0
 11
84.3613792708315
 21
116.6574441465369
 31
0.0
  0
LINE
  5
AE
330
70
100
AcDbEntity
  8
0
 62
    18
420
        0
370
    25
100
AcDbLine
 10
84.3613792708315
 20
116.9074441465371
 30
0.0
 11
94.61137927083138
 21
116.9074441465371
 31
0.0
  0
SPLINE
  5
AF
330
70
100
AcDbEntity
  8
0
 62
    18
420
        0
370
    25
100
AcDbSpline
210
0.0
220
0.0
230
1.0
 70
     8
 71
     3
 72
     8
 73
     4
 74
     0
 42
0.0000000001
 43
0.0000000001
 40
0.0
 40
0.0
 40
0.0
 40
0.0
 40
1.0
 40
1.0
 40
1.0
 40
1.0
 10
94.36137927083121
 20
116.6574441465369
 30
0.0
 10
94.49945045828943
 20
116.6574441465369
 30
0.0
 10
94.61137927083138
 20
116.7693729590792
 30
0.0
 10
94.61137927083138
 20
116.9074441465371
 30
0.0
  0
LINE
  5
B0
330
70
100
AcDbEntity
  8
0
 62
    18
420
        0
370
    25
100
AcDbLine
 10
94.61137927083138
 20
120.2824441465371
 30
0.0
 11
84.3613792708315
 21
120.2824441465371
 31
0.0
  0
LINE
  5
B1
330
70
100
AcDbEntity
  8
0
 62
    18
420
        0
370
    25
100
AcDbLine
 10
94.61137927083138
 20
120.2824441465371
 30
0.0
 11
94.61137927083138
 21
116.9074441465371
 31
0.0
  0
LINE
  5
B2
330
70
100
AcDbEntity
  8
0
 62
    18
420
        0
370
    25
100
AcDbLine
 10
84.3613792708315
 20
120.2824441465371
 30
0.0
 11
84.3613792708315
 21
116.9074441465371
 31
0.0
  0
LINE
  5
B3
330
70
100
AcDbEntity
  8
0
 62
    18
420
        0
370
    25
100
AcDbLine
 10
93.2363792708314
 20
121.6574441465371
 30
0.0
 11
84.3613792708315
 21
121.6574441465371
 31
0.0
  0
SPLINE
  5
B4
330
70
100
AcDbEntity
  8
0
 62
    18
420
        0
370
    25
100
AcDbSpline
210
0.0
220
0.0
230
1.0
 70
     8
 71
     3
 72
     8
 73
     4
 74
     0
 42
0.0000000001
 43
0.0000000001
 40
0.0
 40
0.0
 40
0.0
 40
0.0
 40
1.0
 40
1.0
 40
1.0
 40
1.0
 10
94.61137927083138
 20
120.2824441465371
 30
0.0
 10
94.61137927083138
 20
121.0418356775544
 30
0.0
 10
93.99577080184874
 20
121.6574441465371
 30
0.0
 10
93.2363792708314
 20
121.6574441465371
 30
0.0
  0
SPLINE
  5
B5
330
70
100
AcDbEntity
  8
0
 62
    18
420
        0
370
    25
100
AcDbSpline
210
0.0
220
0.0
230
1.0
 70
     8
 71
     3
 72
     8
 73
     4
 74
     0
 42
0.0000000001
 43
0.0000000001
 40
0.0
 40
0.0
 40
0.0
 40
0.0
 40
1.0
 40
1.0
 40
1.0
 40
1.0
 10
75.145340136836
 20
120.2824441465381
 30
0.0
 10
74.80892536131304
 20
119.1345855292825
 30
0.0
 10
75.00385958015607
 20
117.8964106280926
 30
0.0
 10
75.67668913120003
 20
116.9074441465377
 30
0.0
  0
LINE
  5
B6
330
70
100
AcDbEntity
  8
0
 62
    18
420
        0
370
    25
100
AcDbLine
 10
75.86137927083088
 20
116.6574441465369
 30
0.0
 11
38.36137927083116
 21
116.6574441465369
 31
0.0
  0
LINE
  5
B7
330
70
100
AcDbEntity
  8
0
 62
    18
420
        0
370
    25
100
AcDbLine
 10
37.61058851673132
 20
121.6574441465371
 30
0.0
 11
76.61217002493136
 21
121.6574441465371
 31
0.0
  0
SPLINE
  5
B8
330
70
100
AcDbEntity
  8
0
 62
    18
420
        0
370
    25
100
AcDbSpline
210
0.0
220
0.0
230
1.0
 70
     8
 71
     3
 72
     8
 73
     4
 74
     0
 42
0.0000000001
 43
0.0000000001
 40
0.0
 40
0.0
 40
0.0
 40
0.0
 40
1.0
 40
1.0
 40
1.0
 40
1.0
 10
56.13158337371932
 20
116.6574441465366
 30
0.0
 10
56.75756408576302
 20
116.3907774798705
 30
0.0
 10
57.46519445589933
 20
116.3907774798705
 30
0.0
 10
58.09117516794336
 20
116.6574441465366
 30
0.0
  0
SPLINE
  5
B9
330
70
100
AcDbEntity
  8
0
 62
    18
420
        0
370
    25
100
AcDbSpline
210
0.0
220
0.0
230
1.0
 70
     8
 71
     3
 72
     8
 73
     4
 74
     0
 42
0.0000000001
 43
0.0000000001
 40
0.0
 40
0.0
 40
0.0
 40
0.0
 40
1.0
 40
1.0
 40
1.0
 40
1.0
 10
60.10137062133637
 20
121.6574441465371
 30
0.0
 10
59.33752029250324
 20
122.5033352118303
 30
0.0
 10
58.25111565228178
 20
122.9860975538304
 30
0.0
 10
57.11137927083134
 20
122.9860975538304
 30
0.0
  0
SPLINE
  5
BA
330
70
100
AcDbEntity
  8
0
 62
    18
420
        0
370
    25
100
AcDbSpline
210
0.0
220
0.0
230
1.0
 70
     8
 71
     3
 72
    11
 73
     7
 74
     0
 42
0.0000000001
 43
0.0000000001
 40
0.0
 40
0.0
 40
0.0
 40
0.0
 40
1.0
 40
1.0
 40
1.0
 40
2.0
 40
2.0
 40
2.0
 40
2.0
 10
53.80380489130624
 20
116.6574441465359
 30
0.0
 10
55.07405981591776
 20
114.8307212577933
 30
0.0
 10
57.58465638208946
 20
114.3796148424004
 30
0.0
 10
59.41137927083238
 20
115.6498697670119
 30
0.0
 10
59.80443741577867
 20
115.9231920357332
 30
0.0
 10
60.14563138163513
 20
116.2643860015897
 30
0.0
 10
60.41895365035644
 20
116.6574441465359
 30
0.0
  0
SPLINE
  5
BB
330
70
100
AcDbEntity
  8
0
 62
    18
420
        0
370
    25
100
AcDbSpline
210
0.0
220
0.0
230
1.0
 70
     8
 71
     3
 72
     8
 73
     4
 74
     0
 42
0.0000000001
 43
0.0000000001
 40
0.0
 40
0.0
 40
0.0
 40
0.0
 40
1.0
 40
1.0
 40
1.0
 40
1.0
 10
57.11137927083134
 20
122.9860975538304
 30
0.0
 10
55.97164288938089
 20
122.9860975538304
 30
0.0
 10
54.88523824915944
 20
122.5033352118303
 30
0.0
 10
54.12138792032599
 20
121.6574441465371
 30
0.0
  0
SPLINE
  5
BC
330
70
100
AcDbEntity
  8
0
 62
     8
420
  8421504
370
    25
100
AcDbSpline
210
0.0
220
0.0
230
1.0
 70
     8
 71
     3
 72
     8
 73
     4
 74
     0
 42
0.0000000001
 43
0.0000000001
 40
0.0
 40
0.0
 40
0.0
 40
0.0
 40
1.0
 40
1.0
 40
1.0
 40
1.0
 10
44.03556715907179
 20
116.6574441465279
 30
0.0
 10
44.29827033036151
 20
115.1639409687305
 30
0.0
 10
44.81489742365778
 20
113.726482355192
 30
0.0
 10
45.56303036798103
 20
112.4074441465279
 30
0.0
  0
SPLINE
  5
BD
330
70
100
AcDbEntity
  8
0
 62
     8
420
  8421504
370
    25
100
AcDbSpline
210
0.0
220
0.0
230
1.0
 70
     8
 71
     3
 72
     8
 73
     4
 74
     0
 42
0.0000000001
 43
0.0000000001
 40
0.0
 40
0.0
 40
0.0
 40
0.0
 40
1.0
 40
1.0
 40
1.0
 40
1.0
 10
46.55371085484295
 20
110.9074441465298
 30
0.0
 10
47.64058575730975
 20
109.4819950993378
 30
0.0
 10
49.00486197876334
 20
108.2914026214333
 30
0.0
 10
50.56429118664953
 20
107.4074441465351
 30
0.0
  0
SPLINE
  5
BE
330
70
100
AcDbEntity
  8
0
 62
     8
420
  8421504
370
    25
100
AcDbSpline
210
0.0
220
0.0
230
1.0
 70
     8
 71
     3
 72
     8
 73
     4
 74
     0
 42
0.0000000001
 43
0.0000000001
 40
0.0
 40
0.0
 40
0.0
 40
0.0
 40
1.0
 40
1.0
 40
1.0
 40
1.0
 10
54.66917486044952
 20
105.9074441465373
 30
0.0
 10
56.28330021021328
 20
105.6053733382538
 30
0.0
 10
57.93945833144907
 20
105.6053733382538
 30
0.0
 10
59.55358368121316
 20
105.9074441465373
 30
0.0
  0
SPLINE
  5
BF
330
70
100
AcDbEntity
  8
0
 62
     8
420
  8421504
370
    25
100
AcDbSpline
210
0.0
220
0.0
230
1.0
 70
     8
 71
     3
 72
     8
 73
     4
 74
     0
 42
0.0000000001
 43
0.0000000001
 40
0.0
 40
0.0
 40
0.0
 40
0.0
 40
1.0
 40
1.0
 40
1.0
 40
1.0
 10
63.65846735501314
 20
107.4074441465351
 30
0.0
 10
65.21789656289901
 20
108.2914026214333
 30
0.0
 10
66.58217278435293
 20
109.4819950993378
 30
0.0
 10
67.66904768681972
 20
110.9074441465298
 30
0.0
  0
SPLINE
  5
C0
330
70
100
AcDbEntity
  8
0
 62
     8
420
  8421504
370
    25
100
AcDbSpline
210
0.0
220
0.0
230
1.0
 70
     8
 71
     3
 72
     8
 73
     4
 74
     0
 42
0.0000000001
 43
0.0000000001
 40
0.0
 40
0.0
 40
0.0
 40
0.0
 40
1.0
 40
1.0
 40
1.0
 40
1.0
 10
68.659728173681
 20
112.4074441465279
 30
0.0
 10
69.40786111800457
 20
113.726482355192
 30
0.0
 10
69.9244882113015
 20
115.1639409687305
 30
0.0
 10
70.18719138259121
 20
116.6574441465279
 30
0.0
  0
SPLINE
  5
C1
330
70
100
AcDbEntity
  8
0
 62
     8
420
  8421504
370
    25
100
AcDbSpline
210
0.0
220
0.0
230
1.0
 70
     8
 71
     3
 72
    11
 73
     7
 74
     0
 42
0.0000000001
 43
0.0000000001
 40
0.0
 40
0.0
 40
0.0
 40
0.0
 40
1.0
 40
1.0
 40
1.0
 40
2.0
 40
2.0
 40
2.0
 40
2.0
 10
70.1104893319907
 20
121.6574441465262
 30
0.0
 10
68.61932050745322
 20
128.8366543946765
 30
0.0
 10
61.59058951899252
 20
133.4477230322338
 30
0.0
 10
54.41137927084215
 20
131.9565542076963
 30
0.0
 10
49.23354806458764
 20
130.8810848724068
 30
0.0
 10
45.18773854496151
 20
126.8352753527807
 30
0.0
 10
44.11226920967197
 20
121.6574441465262
 30
0.0
  0
LINE
  5
C2
330
70
100
AcDbEntity
  8
0
 62
     8
420
  8421504
370
    25
100
AcDbLine
 10
35.86137927083139
 20
110.9074441465369
 30
0.0
 11
35.86137927083139
 21
112.4074441465369
 31
0.0
  0
LINE
  5
C3
330
70
100
AcDbEntity
  8
0
 62
     8
420
  8421504
370
    25
100
AcDbLine
 10
78.36137927083129
 20
110.9074441465369
 30
0.0
 11
78.36137927083129
 21
112.4074441465369
 31
0.0
  0
LINE
  5
C4
330
70
100
AcDbEntity
  8
0
 62
     8
420
  8421504
370
    25
100
AcDbLine
 10
32.61137927083144
 20
114.1574441465371
 30
0.0
 11
34.11137927083117
 21
114.1574441465371
 31
0.0
  0
LINE
  5
C5
330
70
100
AcDbEntity
  8
0
 62
     8
420
  8421504
370
    25
100
AcDbLine
 10
81.61137927083156
 20
114.1574441465371
 30
0.0
 11
80.11137927083119
 21
114.1574441465371
 31
0.0
  0
LINE
  5
C6
330
70
100
AcDbEntity
  8
0
 62
     8
420
  8421504
370
    25
100
AcDbLine
 10
23.48637927083136
 20
105.907444146537
 30
0.0
 11
23.48637927083136
 21
107.407444146537
 31
0.0
  0
LINE
  5
C7
330
70
100
AcDbEntity
  8
0
 62
     8
420
  8421504
370
    25
100
AcDbLine
 10
20.2363792708314
 20
109.157444146537
 30
0.0
 11
21.73637927083114
 21
109.157444146537
 31
0.0
  0
LINE
  5
C8
330
70
100
AcDbEntity
  8
0
 62
     8
420
  8421504
370
    25
100
AcDbLine
 10
93.98637927083127
 20
109.157444146537
 30
0.0
 11
92.48637927083155
 21
109.157444146537
 31
0.0
  0
LINE
  5
C9
330
70
100
AcDbEntity
  8
0
 62
     8
420
  8421504
370
    25
100
AcDbLine
 10
90.73637927083101
 20
105.907444146537
 30
0.0
 11
90.73637927083101
 21
107.407444146537
 31
0.0
  0
LINE
  5
CA
330
70
100
AcDbEntity
  8
0
 62
     8
420
  8421504
370
    25
100
AcDbLine
 10
38.5460694104312
 20
116.9074441465371
 30
0.0
 11
75.67668913123148
 21
116.9074441465371
 31
0.0
  0
LINE
  5
CB
330
70
100
AcDbEntity
  8
0
 62
     8
420
  8421504
370
    25
100
AcDbLine
 10
75.14534013683086
 20
120.2824441465371
 30
0.0
 11
39.07741840483118
 21
120.2824441465371
 31
0.0
  0
LINE
  5
CC
330
70
100
AcDbEntity
  8
0
 62
    18
420
        0
370
    25
100
AcDbLine
 10
70.86137927083135
 20
68.60692623013662
 30
0.0
 11
70.86137927083135
 21
70.78685120773704
 31
0.0
  0
LINE
  5
CD
330
70
100
AcDbEntity
  8
0
 62
    18
420
        0
370
    25
100
AcDbLine
 10
43.36137927083133
 20
70.78685120773704
 30
0.0
 11
43.36137927083133
 21
68.60692623013662
 31
0.0
  0
SPLINE
  5
CE
330
70
100
AcDbEntity
  8
0
 62
    18
420
        0
370
    25
100
AcDbSpline
210
0.0
220
0.0
230
1.0
 70
     8
 71
     3
 72
     8
 73
     4
 74
     0
 42
0.0000000001
 43
0.0000000001
 40
0.0
 40
0.0
 40
0.0
 40
0.0
 40
1.0
 40
1.0
 40
1.0
 40
1.0
 10
43.36137927083133
 20
68.60692623013662
 30
0.0
 10
43.36137927083133
 20
68.34110220474977
 30
0.0
 10
43.56937725163344
 20
68.12174870256853
 30
0.0
 10
43.83482616461935
 20
68.10763179540841
 30
0.0
  0
SPLINE
  5
CF
330
70
100
AcDbEntity
  8
0
 62
    18
420
        0
370
    25
100
AcDbSpline
210
0.0
220
0.0
230
1.0
 70
     8
 71
     3
 72
     8
 73
     4
 74
     0
 42
0.0000000001
 43
0.0000000001
 40
0.0
 40
0.0
 40
0.0
 40
0.0
 40
1.0
 40
1.0
 40
1.0
 40
1.0
 10
70.38793237704332
 20
68.10763179540841
 30
0.0
 10
70.65338129002923
 20
68.12174870256853
 30
0.0
 10
70.86137927083135
 20
68.34110220474977
 30
0.0
 10
70.86137927083135
 20
68.60692623013662
 30
0.0
  0
SPLINE
  5
D0
330
70
100
AcDbEntity
  8
0
 62
    18
420
        0
370
    25
100
AcDbSpline
210
0.0
220
0.0
230
1.0
 70
     8
 71
     3
 72
     8
 73
     4
 74
     0
 42
0.0000000001
 43
0.0000000001
 40
0.0
 40
0.0
 40
0.0
 40
0.0
 40
1.0
 40
1.0
 40
1.0
 40
1.0
 10
43.83482616483496
 20
68.10763179546616
 30
0.0
 10
46.92475889103797
 20
67.94330528557491
 30
0.0
 10
50.01747618033401
 20
67.83635999477596
 30
0.0
 10
53.11137927098296
 20
67.78685120779662
 30
0.0
  0
SPLINE
  5
D1
330
70
100
AcDbEntity
  8
0
 62
    18
420
        0
370
    25
100
AcDbSpline
210
0.0
220
0.0
230
1.0
 70
     8
 71
     3
 72
     8
 73
     4
 74
     0
 42
0.0000000001
 43
0.0000000001
 40
0.0
 40
0.0
 40
0.0
 40
0.0
 40
1.0
 40
1.0
 40
1.0
 40
1.0
 10
61.11137927067971
 20
67.78685120779662
 30
0.0
 10
64.20528236147402
 20
67.83635999477787
 30
0.0
 10
67.29799965091507
 20
67.94330528558517
 30
0.0
 10
70.38793237726344
 20
68.10763179548927
 30
0.0
  0
LINE
  5
D2
330
70
100
AcDbEntity
  8
0
 62
    18
420
        0
370
    25
100
AcDbLine
 10
74.98387827003132
 20
20.53685120773703
 30
0.0
 11
74.98387827003132
 21
17.78685120773709
 31
0.0
  0
LINE
  5
D3
330
70
100
AcDbEntity
  8
0
 62
    18
420
        0
370
    25
100
AcDbLine
 10
39.23888027163136
 20
17.78685120773709
 30
0.0
 11
39.23888027163136
 21
20.53685120773703
 31
0.0
  0
LINE
  5
D4
330
70
100
AcDbEntity
  8
0
 62
    18
420
        0
370
    25
100
AcDbLine
 10
39.23888027163136
 20
18.41185120773719
 30
0.0
 11
74.98387827003132
 21
18.41185120773719
 31
0.0
  0
LINE
  5
D5
330
70
100
AcDbEntity
  8
0
 62
    18
420
        0
370
    25
100
AcDbLine
 10
74.98387827003132
 20
19.91185120773693
 30
0.0
 11
39.23888027163136
 21
19.91185120773693
 31
0.0
  0
LINE
  5
D6
330
70
100
AcDbEntity
  8
0
 62
    18
420
        0
370
    25
100
AcDbLine
 10
91.84469404433121
 20
53.03685120773721
 30
0.0
 11
90.73637927083101
 21
53.03685120773721
 31
0.0
  0
LINE
  5
D7
330
70
100
AcDbEntity
  8
0
 62
    18
420
        0
370
    25
100
AcDbLine
 10
90.73637927083101
 20
51.53685120773748
 30
0.0
 11
91.86137927083144
 21
51.53685120773748
 31
0.0
  0
LINE
  5
D8
330
70
100
AcDbEntity
  8
0
 62
    18
420
        0
370
    25
100
AcDbLine
 10
23.48637927083136
 20
53.03685120773721
 30
0.0
 11
22.37806449723136
 21
53.03685120773721
 31
0.0
  0
LINE
  5
D9
330
70
100
AcDbEntity
  8
0
 62
    18
420
        0
370
    25
100
AcDbLine
 10
22.36137927083124
 20
51.53685120773748
 30
0.0
 11
23.48637927083136
 21
51.53685120773748
 31
0.0
  0
LINE
  5
DA
330
70
100
AcDbEntity
  8
0
 62
    18
420
        0
370
    25
100
AcDbLine
 10
91.86137927083144
 20
45.03685120773693
 30
0.0
 11
90.73637927083101
 21
45.03685120773693
 31
0.0
  0
LINE
  5
DB
330
70
100
AcDbEntity
  8
0
 62
    18
420
        0
370
    25
100
AcDbLine
 10
90.73637927083101
 20
43.5368512077372
 30
0.0
 11
91.86137927083144
 21
43.5368512077372
 31
0.0
  0
LINE
  5
DC
330
70
100
AcDbEntity
  8
0
 62
    18
420
        0
370
    25
100
AcDbLine
 10
23.48637927083136
 20
45.03685120773693
 30
0.0
 11
22.36137927083124
 21
45.03685120773693
 31
0.0
  0
LINE
  5
DD
330
70
100
AcDbEntity
  8
0
 62
    18
420
        0
370
    25
100
AcDbLine
 10
22.36137927083124
 20
43.5368512077372
 30
0.0
 11
23.48637927083136
 21
43.5368512077372
 31
0.0
  0
LINE
  5
DE
330
70
100
AcDbEntity
  8
0
 62
    18
420
        0
370
    25
100
AcDbLine
 10
91.86137927083144
 20
37.03685120773729
 30
0.0
 11
90.73637927083101
 21
37.03685120773729
 31
0.0
  0
LINE
  5
DF
330
70
100
AcDbEntity
  8
0
 62
    18
420
        0
370
    25
100
AcDbLine
 10
90.73637927083101
 20
35.53685120773692
 30
0.0
 11
91.86137927083144
 21
35.53685120773692
 31
0.0
  0
LINE
  5
E0
330
70
100
AcDbEntity
  8
0
 62
    18
420
        0
370
    25
100
AcDbLine
 10
23.48637927083136
 20
37.03685120773729
 30
0.0
 11
22.36137927083124
 21
37.03685120773729
 31
0.0
  0
LINE
  5
E1
330
70
100
AcDbEntity
  8
0
 62
    18
420
        0
370
    25
100
AcDbLine
 10
22.36137927083124
 20
35.53685120773692
 30
0.0
 11
23.48637927083136
 21
35.53685120773692
 31
0.0
  0
LINE
  5
E2
330
70
100
AcDbEntity
  8
0
 62
    18
420
        0
370
    25
100
AcDbLine
 10
91.86137927083144
 20
29.03685120773701
 30
0.0
 11
90.73637927083101
 21
29.03685120773701
 31
0.0
  0
LINE
  5
E3
330
70
100
AcDbEntity
  8
0
 62
    18
420
        0
370
    25
100
AcDbLine
 10
90.73637927083101
 20
27.53685120773728
 30
0.0
 11
91.84469404433121
 21
27.53685120773728
 31
0.0
  0
LINE
  5
E4
330
70
100
AcDbEntity
  8
0
 62
    18
420
        0
370
    25
100
AcDbLine
 10
23.48637927083136
 20
29.03685120773701
 30
0.0
 11
22.36137927083124
 21
29.03685120773701
 31
0.0
  0
LINE
  5
E5
330
70
100
AcDbEntity
  8
0
 62
    18
420
        0
370
    25
100
AcDbLine
 10
22.37806449723136
 20
27.53685120773728
 30
0.0
 11
23.48637927083136
 21
27.53685120773728
 31
0.0
  0
LINE
  5
E6
330
70
100
AcDbEntity
  8
0
 62
    18
420
        0
370
    25
100
AcDbLine
 10
90.73637927083101
 20
53.03685120773721
 30
0.0
 11
23.48637927083136
 21
53.03685120773721
 31
0.0
  0
LINE
  5
E7
330
70
100
AcDbEntity
  8
0
 62
    18
420
        0
370
    25
100
AcDbLine
 10
23.48637927083136
 20
51.53685120773748
 30
0.0
 11
90.73637927083101
 21
51.53685120773748
 31
0.0
  0
LINE
  5
E8
330
70
100
AcDbEntity
  8
0
 62
    18
420
        0
370
    25
100
AcDbLine
 10
90.73637927083101
 20
45.03685120773693
 30
0.0
 11
23.48637927083136
 21
45.03685120773693
 31
0.0
  0
LINE
  5
E9
330
70
100
AcDbEntity
  8
0
 62
    18
420
        0
370
    25
100
AcDbLine
 10
23.48637927083136
 20
43.5368512077372
 30
0.0
 11
90.73637927083101
 21
43.5368512077372
 31
0.0
  0
LINE
  5
EA
330
70
100
AcDbEntity
  8
0
 62
    18
420
        0
370
    25
100
AcDbLine
 10
90.73637927083101
 20
37.03685120773729
 30
0.0
 11
23.48637927083136
 21
37.03685120773729
 31
0.0
  0
LINE
  5
EB
330
70
100
AcDbEntity
  8
0
 62
    18
420
        0
370
    25
100
AcDbLine
 10
23.48637927083136
 20
35.53685120773692
 30
0.0
 11
90.73637927083101
 21
35.53685120773692
 31
0.0
  0
LINE
  5
EC
330
70
100
AcDbEntity
  8
0
 62
    18
420
        0
370
    25
100
AcDbLine
 10
90.73637927083101
 20
29.03685120773701
 30
0.0
 11
23.48637927083136
 21
29.03685120773701
 31
0.0
  0
LINE
  5
ED
330
70
100
AcDbEntity
  8
0
 62
    18
420
        0
370
    25
100
AcDbLine
 10
23.48637927083136
 20
27.53685120773728
 30
0.0
 11
90.73637927083101
 21
27.53685120773728
 31
0.0
  0
LINE
  5
EE
330
70
100
AcDbEntity
  8
0
 62
    18
420
        0
370
    25
100
AcDbLine
 10
53.08272586353114
 20
67.78685120773693
 30
0.0
 11
54.61137927083125
 21
62.78685120773675
 31
0.0
  0
LINE
  5
EF
330
70
100
AcDbEntity
  8
0
 62
    18
420
        0
370
    25
100
AcDbLine
 10
59.61137927083143
 20
62.78685120773675
 30
0.0
 11
61.14003267813123
 21
67.78685120773693
 31
0.0
  0
LINE
  5
F0
330
70
100
AcDbEntity
  8
0
 62
    18
420
        0
370
    25
100
AcDbLine
 10
70.86137927083135
 20
70.78685120773704
 30
0.0
 11
43.36137927083133
 21
70.78685120773704
 31
0.0
  0
SPLINE
  5
F1
330
70
100
AcDbEntity
  8
0
 62
    18
420
        0
370
    25
100
AcDbSpline
210
0.0
220
0.0
230
1.0
 70
     8
 71
     3
 72
     8
 73
     4
 74
     0
 42
0.0000000001
 43
0.0000000001
 40
0.0
 40
0.0
 40
0.0
 40
0.0
 40
1.0
 40
1.0
 40
1.0
 40
1.0
 10
93.2363792708314
 20
52.53685120773687
 30
0.0
 10
93.2363792708314
 20
57.4383783624854
 30
0.0
 10
89.26290642557939
 20
61.41185120773679
 30
0.0
 10
84.3613792708315
 20
61.41185120773679
 30
0.0
  0
LINE
  5
F2
330
70
100
AcDbEntity
  8
0
 62
    18
420
        0
370
    25
100
AcDbLine
 10
84.3613792708315
 20
61.41185120773679
 30
0.0
 11
84.3613792708315
 21
62.78685120773675
 31
0.0
  0
SPLINE
  5
F3
330
70
100
AcDbEntity
  8
0
 62
    18
420
        0
370
    25
100
AcDbSpline
210
0.0
220
0.0
230
1.0
 70
     8
 71
     3
 72
     8
 73
     4
 74
     0
 42
0.0000000001
 43
0.0000000001
 40
0.0
 40
0.0
 40
0.0
 40
0.0
 40
1.0
 40
1.0
 40
1.0
 40
1.0
 10
94.61137927083138
 20
52.53685120773687
 30
0.0
 10
94.61137927083138
 20
58.19776989350272
 30
0.0
 10
90.02229795659735
 20
62.78685120773675
 30
0.0
 10
84.3613792708315
 20
62.78685120773675
 30
0.0
  0
LINE
  5
F4
330
70
100
AcDbEntity
  8
0
 62
    18
420
        0
370
    25
100
AcDbLine
 10
93.2363792708314
 20
52.53685120773687
 30
0.0
 11
94.61137927083138
 21
52.53685120773687
 31
0.0
  0
SPLINE
  5
F5
330
70
100
AcDbEntity
  8
0
 62
    18
420
        0
370
    25
100
AcDbSpline
210
0.0
220
0.0
230
1.0
 70
     8
 71
     3
 72
     8
 73
     4
 74
     0
 42
0.0000000001
 43
0.0000000001
 40
0.0
 40
0.0
 40
0.0
 40
0.0
 40
1.0
 40
1.0
 40
1.0
 40
1.0
 10
29.86137927083118
 20
61.41185120773679
 30
0.0
 10
24.95985211608298
 20
61.41185120773679
 30
0.0
 10
20.98637927083127
 20
57.4383783624854
 30
0.0
 10
20.98637927083127
 20
52.53685120773687
 30
0.0
  0
LINE
  5
F6
330
70
100
AcDbEntity
  8
0
 62
    18
420
        0
370
    25
100
AcDbLine
 10
20.98637927083127
 20
52.53685120773687
 30
0.0
 11
19.6113792708313
 21
52.53685120773687
 31
0.0
  0
SPLINE
  5
F7
330
70
100
AcDbEntity
  8
0
 62
    18
420
        0
370
    25
100
AcDbSpline
210
0.0
220
0.0
230
1.0
 70
     8
 71
     3
 72
     8
 73
     4
 74
     0
 42
0.0000000001
 43
0.0000000001
 40
0.0
 40
0.0
 40
0.0
 40
0.0
 40
1.0
 40
1.0
 40
1.0
 40
1.0
 10
29.86137927083118
 20
62.78685120773675
 30
0.0
 10
24.20046058506565
 20
62.78685120773675
 30
0.0
 10
19.6113792708313
 20
58.19776989350272
 30
0.0
 10
19.6113792708313
 20
52.53685120773687
 30
0.0
  0
LINE
  5
F8
330
70
100
AcDbEntity
  8
0
 62
    18
420
        0
370
    25
100
AcDbLine
 10
29.86137927083118
 20
61.41185120773679
 30
0.0
 11
29.86137927083118
 21
62.78685120773675
 31
0.0
  0
LINE
  5
F9
330
70
100
AcDbEntity
  8
0
 62
    18
420
        0
370
    25
100
AcDbLine
 10
59.23137337463119
 20
62.78685120773675
 30
0.0
 11
84.3613792708315
 21
62.78685120773675
 31
0.0
  0
LINE
  5
FA
330
70
100
AcDbEntity
  8
0
 62
    18
420
        0
370
    25
100
AcDbLine
 10
29.86137927083118
 20
61.41185120773679
 30
0.0
 11
84.3613792708315
 21
61.41185120773679
 31
0.0
  0
LINE
  5
FB
330
70
100
AcDbEntity
  8
0
 62
    18
420
        0
370
    25
100
AcDbLine
 10
29.86137927083118
 20
62.78685120773675
 30
0.0
 11
54.99138516703117
 21
62.78685120773675
 31
0.0
  0
LWPOLYLINE
  5
FC
330
70
100
AcDbEntity
  8
0
 62
    18
420
        0
370
    25
100
AcDbPolyline
 90
        9
 70
     0
 43
0.0
 10
54.99138516703117
 20
62.78685120773675
 10
55.43749818023119
 20
62.67980020023726
 10
56.11154093583113
 20
62.39000070983681
 10
56.75195553553138
 20
62.16707279083693
 10
57.22167991493119
 20
62.12998419553665
 10
57.67913788453114
 20
62.22378891403718
 10
58.43530756763132
 20
62.53325413513656
 10
58.97268543363114
 20
62.74312633283701
 10
59.23137337463119
 20
62.78685120773675
  0
LINE
  5
FD
330
70
100
AcDbEntity
  8
0
 62
    18
420
        0
370
    25
100
AcDbLine
 10
22.36137927083124
 20
52.53685120773687
 30
0.0
 11
20.98637927083127
 21
52.53685120773687
 31
0.0
  0
LINE
  5
FE
330
70
100
AcDbEntity
  8
0
 62
    18
420
        0
370
    25
100
AcDbLine
 10
29.86137927083118
 20
60.03685120773681
 30
0.0
 11
29.86137927083118
 21
61.41185120773679
 31
0.0
  0
SPLINE
  5
FF
330
70
100
AcDbEntity
  8
0
 62
    18
420
        0
370
    25
100
AcDbSpline
210
0.0
220
0.0
230
1.0
 70
     8
 71
     3
 72
     8
 73
     4
 74
     0
 42
0.0000000001
 43
0.0000000001
 40
0.0
 40
0.0
 40
0.0
 40
0.0
 40
1.0
 40
1.0
 40
1.0
 40
1.0
 10
29.86137927083118
 20
60.03685120773681
 30
0.0
 10
25.7192436471003
 20
60.03685120773681
 30
0.0
 10
22.36137927083124
 20
56.67898683146808
 30
0.0
 10
22.36137927083124
 20
52.53685120773687
 30
0.0
  0
LINE
  5
100
330
70
100
AcDbEntity
  8
0
 62
    18
420
        0
370
    25
100
AcDbLine
 10
84.3613792708315
 20
60.03685120773681
 30
0.0
 11
84.3613792708315
 21
61.41185120773679
 31
0.0
  0
LINE
  5
101
330
70
100
AcDbEntity
  8
0
 62
    18
420
        0
370
    25
100
AcDbLine
 10
84.3613792708315
 20
60.03685120773681
 30
0.0
 11
29.86137927083118
 21
60.03685120773681
 31
0.0
  0
LINE
  5
102
330
70
100
AcDbEntity
  8
0
 62
    18
420
        0
370
    25
100
AcDbLine
 10
91.86137927083144
 20
52.53685120773687
 30
0.0
 11
93.2363792708314
 21
52.53685120773687
 31
0.0
  0
SPLINE
  5
103
330
70
100
AcDbEntity
  8
0
 62
    18
420
        0
370
    25
100
AcDbSpline
210
0.0
220
0.0
230
1.0
 70
     8
 71
     3
 72
     8
 73
     4
 74
     0
 42
0.0000000001
 43
0.0000000001
 40
0.0
 40
0.0
 40
0.0
 40
0.0
 40
1.0
 40
1.0
 40
1.0
 40
1.0
 10
91.86137927083144
 20
52.53685120773687
 30
0.0
 10
91.86137927083144
 20
56.67898683146808
 30
0.0
 10
88.5035148945627
 20
60.03685120773681
 30
0.0
 10
84.3613792708315
 20
60.03685120773681
 30
0.0
  0
LINE
  5
104
330
70
100
AcDbEntity
  8
0
 62
    18
420
        0
370
    25
100
AcDbLine
 10
93.2363792708314
 20
52.53685120773687
 30
0.0
 11
93.2363792708314
 21
28.03685120773698
 31
0.0
  0
LINE
  5
105
330
70
100
AcDbEntity
  8
0
 62
    18
420
        0
370
    25
100
AcDbLine
 10
91.86137927083144
 20
28.03685120773698
 30
0.0
 11
93.2363792708314
 21
28.03685120773698
 31
0.0
  0
LINE
  5
106
330
70
100
AcDbEntity
  8
0
 62
    18
420
        0
370
    25
100
AcDbLine
 10
91.86137927083144
 20
28.03685120773698
 30
0.0
 11
91.86137927083144
 21
52.53685120773687
 31
0.0
  0
LINE
  5
107
330
70
100
AcDbEntity
  8
0
 62
    18
420
        0
370
    25
100
AcDbLine
 10
22.36137927083124
 20
28.03685120773698
 30
0.0
 11
20.98637927083127
 21
28.03685120773698
 31
0.0
  0
LINE
  5
108
330
70
100
AcDbEntity
  8
0
 62
    18
420
        0
370
    25
100
AcDbLine
 10
20.98637927083127
 20
28.03685120773698
 30
0.0
 11
20.98637927083127
 21
52.53685120773687
 31
0.0
  0
LINE
  5
109
330
70
100
AcDbEntity
  8
0
 62
    18
420
        0
370
    25
100
AcDbLine
 10
22.36137927083124
 20
52.53685120773687
 30
0.0
 11
22.36137927083124
 21
28.03685120773698
 31
0.0
  0
LINE
  5
10A
330
70
100
AcDbEntity
  8
0
 62
    18
420
        0
370
    25
100
AcDbLine
 10
94.61137927083138
 20
52.53685120773687
 30
0.0
 11
94.61137927083138
 21
28.03685120773698
 31
0.0
  0
LINE
  5
10B
330
70
100
AcDbEntity
  8
0
 62
    18
420
        0
370
    25
100
AcDbLine
 10
93.2363792708314
 20
28.03685120773698
 30
0.0
 11
94.61137927083138
 21
28.03685120773698
 31
0.0
  0
LINE
  5
10C
330
70
100
AcDbEntity
  8
0
 62
    18
420
        0
370
    25
100
AcDbLine
 10
20.98637927083127
 20
28.03685120773698
 30
0.0
 11
19.6113792708313
 21
28.03685120773698
 31
0.0
  0
LINE
  5
10D
330
70
100
AcDbEntity
  8
0
 62
    18
420
        0
370
    25
100
AcDbLine
 10
19.6113792708313
 20
28.03685120773698
 30
0.0
 11
19.6113792708313
 21
52.53685120773687
 31
0.0
  0
LINE
  5
10E
330
70
100
AcDbEntity
  8
0
 62
    18
420
        0
370
    25
100
AcDbLine
 10
29.86137927083118
 20
20.53685120773703
 30
0.0
 11
29.86137927083118
 21
19.16185120773706
 31
0.0
  0
SPLINE
  5
10F
330
70
100
AcDbEntity
  8
0
 62
    18
420
        0
370
    25
100
AcDbSpline
210
0.0
220
0.0
230
1.0
 70
     8
 71
     3
 72
     8
 73
     4
 74
     0
 42
0.0000000001
 43
0.0000000001
 40
0.0
 40
0.0
 40
0.0
 40
0.0
 40
1.0
 40
1.0
 40
1.0
 40
1.0
 10
20.98637927083127
 20
28.03685120773698
 30
0.0
 10
20.98637927083127
 20
23.13532405298845
 30
0.0
 10
24.95985211608298
 20
19.16185120773706
 30
0.0
 10
29.86137927083118
 20
19.16185120773706
 30
0.0
  0
SPLINE
  5
110
330
70
100
AcDbEntity
  8
0
 62
    18
420
        0
370
    25
100
AcDbSpline
210
0.0
220
0.0
230
1.0
 70
     8
 71
     3
 72
     8
 73
     4
 74
     0
 42
0.0000000001
 43
0.0000000001
 40
0.0
 40
0.0
 40
0.0
 40
0.0
 40
1.0
 40
1.0
 40
1.0
 40
1.0
 10
22.36137927083124
 20
28.03685120773698
 30
0.0
 10
22.36137927083124
 20
23.89471558400577
 30
0.0
 10
25.7192436471003
 20
20.53685120773703
 30
0.0
 10
29.86137927083118
 20
20.53685120773703
 30
0.0
  0
SPLINE
  5
111
330
70
100
AcDbEntity
  8
0
 62
    18
420
        0
370
    25
100
AcDbSpline
210
0.0
220
0.0
230
1.0
 70
     8
 71
     3
 72
     8
 73
     4
 74
     0
 42
0.0000000001
 43
0.0000000001
 40
0.0
 40
0.0
 40
0.0
 40
0.0
 40
1.0
 40
1.0
 40
1.0
 40
1.0
 10
84.3613792708315
 20
19.16185120773706
 30
0.0
 10
89.26290642557939
 20
19.16185120773706
 30
0.0
 10
93.2363792708314
 20
23.13532405298845
 30
0.0
 10
93.2363792708314
 20
28.03685120773698
 30
0.0
  0
LINE
  5
112
330
70
100
AcDbEntity
  8
0
 62
    18
420
        0
370
    25
100
AcDbLine
 10
84.3613792708315
 20
20.53685120773703
 30
0.0
 11
84.3613792708315
 21
19.16185120773706
 31
0.0
  0
SPLINE
  5
113
330
70
100
AcDbEntity
  8
0
 62
    18
420
        0
370
    25
100
AcDbSpline
210
0.0
220
0.0
230
1.0
 70
     8
 71
     3
 72
     8
 73
     4
 74
     0
 42
0.0000000001
 43
0.0000000001
 40
0.0
 40
0.0
 40
0.0
 40
0.0
 40
1.0
 40
1.0
 40
1.0
 40
1.0
 10
84.3613792708315
 20
20.53685120773703
 30
0.0
 10
88.5035148945627
 20
20.53685120773703
 30
0.0
 10
91.86137927083144
 20
23.89471558400577
 30
0.0
 10
91.86137927083144
 20
28.03685120773698
 30
0.0
  0
LINE
  5
114
330
70
100
AcDbEntity
  8
0
 62
    18
420
        0
370
    25
100
AcDbLine
 10
29.86137927083118
 20
19.16185120773706
 30
0.0
 11
29.86137927083118
 21
17.78685120773709
 31
0.0
  0
SPLINE
  5
115
330
70
100
AcDbEntity
  8
0
 62
    18
420
        0
370
    25
100
AcDbSpline
210
0.0
220
0.0
230
1.0
 70
     8
 71
     3
 72
     8
 73
     4
 74
     0
 42
0.0000000001
 43
0.0000000001
 40
0.0
 40
0.0
 40
0.0
 40
0.0
 40
1.0
 40
1.0
 40
1.0
 40
1.0
 10
19.6113792708313
 20
28.03685120773698
 30
0.0
 10
19.6113792708313
 20
22.37593252197112
 30
0.0
 10
24.20046058506565
 20
17.78685120773709
 30
0.0
 10
29.86137927083118
 20
17.78685120773709
 30
0.0
  0
SPLINE
  5
116
330
70
100
AcDbEntity
  8
0
 62
    18
420
        0
370
    25
100
AcDbSpline
210
0.0
220
0.0
230
1.0
 70
     8
 71
     3
 72
     8
 73
     4
 74
     0
 42
0.0000000001
 43
0.0000000001
 40
0.0
 40
0.0
 40
0.0
 40
0.0
 40
1.0
 40
1.0
 40
1.0
 40
1.0
 10
84.3613792708315
 20
17.78685120773709
 30
0.0
 10
90.02229795659735
 20
17.78685120773709
 30
0.0
 10
94.61137927083138
 20
22.37593252197112
 30
0.0
 10
94.61137927083138
 20
28.03685120773698
 30
0.0
  0
LINE
  5
117
330
70
100
AcDbEntity
  8
0
 62
    18
420
        0
370
    25
100
AcDbLine
 10
84.3613792708315
 20
19.16185120773706
 30
0.0
 11
84.3613792708315
 21
17.78685120773709
 31
0.0
  0
LINE
  5
118
330
70
100
AcDbEntity
  8
0
 62
    18
420
        0
370
    25
100
AcDbLine
 10
37.61058851673132
 20
19.16185120773706
 30
0.0
 11
29.86137927083118
 21
19.16185120773706
 31
0.0
  0
LINE
  5
119
330
70
100
AcDbEntity
  8
0
 62
    18
420
        0
370
    25
100
AcDbLine
 10
29.86137927083118
 20
20.53685120773703
 30
0.0
 11
39.07741840483118
 21
20.53685120773703
 31
0.0
  0
LWPOLYLINE
  5
11A
330
70
100
AcDbEntity
  8
0
 62
    18
420
        0
370
    25
100
AcDbPolyline
 90
        3
 70
     0
 43
0.0
 10
39.07741840483118
 20
20.53685120773703
 10
38.90832000553113
 20
20.45503198783686
 10
38.85291188323144
 20
20.40417457423686
  0
LINE
  5
11B
330
70
100
AcDbEntity
  8
0
 62
    18
420
        0
370
    25
100
AcDbLine
 10
38.85291188323144
 20
20.40417457423686
 30
0.0
 11
37.61058851673132
 21
19.16185120773706
 31
0.0
  0
LINE
  5
11C
330
70
100
AcDbEntity
  8
0
 62
    18
420
        0
370
    25
100
AcDbLine
 10
75.14534013683086
 20
20.53685120773703
 30
0.0
 11
84.3613792708315
 21
20.53685120773703
 31
0.0
  0
LINE
  5
11D
330
70
100
AcDbEntity
  8
0
 62
    18
420
        0
370
    25
100
AcDbLine
 10
84.3613792708315
 20
19.16185120773706
 30
0.0
 11
76.61217002493136
 21
19.16185120773706
 31
0.0
  0
LINE
  5
11E
330
70
100
AcDbEntity
  8
0
 62
    18
420
        0
370
    25
100
AcDbLine
 10
75.36984665843156
 20
20.40417457423686
 30
0.0
 11
76.61217002493136
 21
19.16185120773706
 31
0.0
  0
LWPOLYLINE
  5
11F
330
70
100
AcDbEntity
  8
0
 62
    18
420
        0
370
    25
100
AcDbPolyline
 90
        3
 70
     0
 43
0.0
 10
75.36984665843156
 20
20.40417457423686
 10
75.18806609593081
 20
20.53004214713672
 10
75.14534013683086
 20
20.53685120773703
  0
LINE
  5
120
330
70
100
AcDbEntity
  8
0
 62
    18
420
        0
370
    25
100
AcDbLine
 10
76.61217002493136
 20
19.16185120773706
 30
0.0
 11
75.36984665843156
 21
17.91952784123726
 31
0.0
  0
LINE
  5
121
330
70
100
AcDbEntity
  8
0
 62
    18
420
        0
370
    25
100
AcDbLine
 10
75.36984665843156
 20
17.91952784123726
 30
0.0
 11
75.36984665843156
 21
20.40417457423686
 31
0.0
  0
LINE
  5
122
330
70
100
AcDbEntity
  8
0
 62
    18
420
        0
370
    25
100
AcDbLine
 10
38.85291188323144
 20
17.91952784123726
 30
0.0
 11
37.61058851673132
 21
19.16185120773706
 31
0.0
  0
LINE
  5
123
330
70
100
AcDbEntity
  8
0
 62
    18
420
        0
370
    25
100
AcDbLine
 10
38.85291188323144
 20
20.40417457423686
 30
0.0
 11
38.85291188323144
 21
17.91952784123726
 31
0.0
  0
LINE
  5
124
330
70
100
AcDbEntity
  8
0
 62
    18
420
        0
370
    25
100
AcDbLine
 10
84.3613792708315
 20
17.78685120773709
 30
0.0
 11
75.14534013683086
 21
17.78685120773709
 31
0.0
  0
LWPOLYLINE
  5
125
330
70
100
AcDbEntity
  8
0
 62
    18
420
        0
370
    25
100
AcDbPolyline
 90
        3
 70
     0
 43
0.0
 10
75.14534013683086
 20
17.78685120773709
 10
75.3144385361309
 20
17.86867042773673
 10
75.36984665843156
 20
17.91952784123726
  0
LWPOLYLINE
  5
126
330
70
100
AcDbEntity
  8
0
 62
    18
420
        0
370
    25
100
AcDbPolyline
 90
        3
 70
     0
 43
0.0
 10
38.85291188323144
 20
17.91952784123726
 10
39.03469244573124
 20
17.79366026843687
 10
39.07741840483118
 20
17.78685120773709
  0
LINE
  5
127
330
70
100
AcDbEntity
  8
0
 62
    18
420
        0
370
    25
100
AcDbLine
 10
39.07741840483118
 20
17.78685120773709
 30
0.0
 11
29.86137927083118
 21
17.78685120773709
 31
0.0
  0
LINE
  5
128
330
70
100
AcDbEntity
  8
0
 62
    18
420
        0
370
    25
100
AcDbLine
 10
58.09117516793117
 20
62.53685120773723
 30
0.0
 11
58.09117516793117
 21
62.3924166861371
 31
0.0
  0
LWPOLYLINE
  5
129
330
70
100
AcDbEntity
  8
0
 62
    18
420
        0
370
    25
100
AcDbPolyline
 90
        7
 70
     0
 43
0.0
 10
58.54228807293144
 20
62.78685120773675
 10
58.33011555253115
 20
62.74865333763692
 10
58.20639858493129
 20
62.69022062193706
 10
58.13981027893117
 20
62.63789953483697
 10
58.10797780163135
 20
62.59654236833714
 10
58.09376969193131
 20
62.56035164913711
 10
58.09117516793117
 20
62.53685120773723
  0
LWPOLYLINE
  5
12A
330
70
100
AcDbEntity
  8
0
 62
    18
420
        0
370
    25
100
AcDbPolyline
 90
        6
 70
     0
 43
0.0
 10
56.13158337373119
 20
62.53685120773723
 10
56.12537202013138
 20
62.57319565773722
 10
56.10353506993133
 20
62.61384577253712
 10
56.04767772813135
 20
62.66867773963705
 10
55.90571945993143
 20
62.74393045333675
 10
55.68047046873124
 20
62.78685120773675
  0
LINE
  5
12B
330
70
100
AcDbEntity
  8
0
 62
    18
420
        0
370
    25
100
AcDbLine
 10
56.13158337373119
 20
62.38302394983687
 30
0.0
 11
56.13158337373119
 21
62.53685120773723
 31
0.0
  0
LINE
  5
12C
330
70
100
AcDbEntity
  8
0
 62
    18
420
        0
370
    25
100
AcDbLine
 10
74.98387827003132
 20
20.53685120773703
 30
0.0
 11
75.14534013683086
 21
20.53685120773703
 31
0.0
  0
LINE
  5
12D
330
70
100
AcDbEntity
  8
0
 62
    18
420
        0
370
    25
100
AcDbLine
 10
74.98387827003132
 20
17.78685120773709
 30
0.0
 11
75.14534013683086
 21
17.78685120773709
 31
0.0
  0
LINE
  5
12E
330
70
100
AcDbEntity
  8
0
 62
    18
420
        0
370
    25
100
AcDbLine
 10
39.23888027163136
 20
20.53685120773703
 30
0.0
 11
39.07741840483118
 21
20.53685120773703
 31
0.0
  0
LINE
  5
12F
330
70
100
AcDbEntity
  8
0
 62
    18
420
        0
370
    25
100
AcDbLine
 10
39.23888027163136
 20
17.78685120773709
 30
0.0
 11
39.07741840483118
 21
17.78685120773709
 31
0.0
  0
LINE
  5
130
330
70
100
AcDbEntity
  8
0
 62
    18
420
        0
370
    25
100
AcDbLine
 10
57.11137927083134
 20
62.78685120773675
 30
0.0
 11
59.23137337463119
 21
62.78685120773675
 31
0.0
  0
LINE
  5
131
330
70
100
AcDbEntity
  8
0
 62
    18
420
        0
370
    25
100
AcDbLine
 10
54.99138516703117
 20
62.78685120773675
 30
0.0
 11
57.11137927083134
 21
62.78685120773675
 31
0.0
  0
LINE
  5
132
330
70
100
AcDbEntity
  8
0
 62
    18
420
        0
370
    25
100
AcDbLine
 10
57.11137927083134
 20
67.78685120773693
 30
0.0
 11
61.14003267813123
 21
67.78685120773693
 31
0.0
  0
LINE
  5
133
330
70
100
AcDbEntity
  8
0
 62
    18
420
        0
370
    25
100
AcDbLine
 10
53.08272586353114
 20
67.78685120773693
 30
0.0
 11
57.11137927083134
 21
67.78685120773693
 31
0.0
  0
LINE
  5
134
330
70
100
AcDbEntity
  8
0
 62
     8
420
  8421504
370
    25
100
AcDbLine
 10
43.36137927083133
 20
68.60692623013662
 30
0.0
 11
70.86137927083135
 21
68.60692623013662
 31
0.0
  0
LINE
  5
135
330
70
100
AcDbEntity
  8
0
 62
     8
420
  8421504
370
    25
100
AcDbLine
 10
70.38793237703114
 20
68.10763179543664
 30
0.0
 11
43.83482616463122
 21
68.10763179543664
 31
0.0
  0
LINE
  5
136
330
70
100
AcDbEntity
  8
0
 62
     8
420
  8421504
370
    25
100
AcDbLine
 10
90.73637927083101
 20
52.28685120773735
 30
0.0
 11
90.73637927083101
 21
53.03685120773721
 31
0.0
  0
LINE
  5
137
330
70
100
AcDbEntity
  8
0
 62
     8
420
  8421504
370
    25
100
AcDbLine
 10
90.73637927083101
 20
51.53685120773748
 30
0.0
 11
90.73637927083101
 21
52.28685120773735
 31
0.0
  0
LINE
  5
138
330
70
100
AcDbEntity
  8
0
 62
     8
420
  8421504
370
    25
100
AcDbLine
 10
23.48637927083136
 20
52.28685120773735
 30
0.0
 11
23.48637927083136
 21
53.03685120773721
 31
0.0
  0
LINE
  5
139
330
70
100
AcDbEntity
  8
0
 62
     8
420
  8421504
370
    25
100
AcDbLine
 10
23.48637927083136
 20
51.53685120773748
 30
0.0
 11
23.48637927083136
 21
52.28685120773735
 31
0.0
  0
LINE
  5
13A
330
70
100
AcDbEntity
  8
0
 62
     8
420
  8421504
370
    25
100
AcDbLine
 10
90.73637927083101
 20
44.28685120773706
 30
0.0
 11
90.73637927083101
 21
45.03685120773693
 31
0.0
  0
LINE
  5
13B
330
70
100
AcDbEntity
  8
0
 62
     8
420
  8421504
370
    25
100
AcDbLine
 10
90.73637927083101
 20
43.5368512077372
 30
0.0
 11
90.73637927083101
 21
44.28685120773706
 31
0.0
  0
LINE
  5
13C
330
70
100
AcDbEntity
  8
0
 62
     8
420
  8421504
370
    25
100
AcDbLine
 10
23.48637927083136
 20
44.28685120773706
 30
0.0
 11
23.48637927083136
 21
45.03685120773693
 31
0.0
  0
LINE
  5
13D
330
70
100
AcDbEntity
  8
0
 62
     8
420
  8421504
370
    25
100
AcDbLine
 10
23.48637927083136
 20
43.5368512077372
 30
0.0
 11
23.48637927083136
 21
44.28685120773706
 31
0.0
  0
LINE
  5
13E
330
70
100
AcDbEntity
  8
0
 62
     8
420
  8421504
370
    25
100
AcDbLine
 10
90.73637927083101
 20
36.28685120773678
 30
0.0
 11
90.73637927083101
 21
37.03685120773729
 31
0.0
  0
LINE
  5
13F
330
70
100
AcDbEntity
  8
0
 62
     8
420
  8421504
370
    25
100
AcDbLine
 10
90.73637927083101
 20
35.53685120773692
 30
0.0
 11
90.73637927083101
 21
36.28685120773678
 31
0.0
  0
LINE
  5
140
330
70
100
AcDbEntity
  8
0
 62
     8
420
  8421504
370
    25
100
AcDbLine
 10
23.48637927083136
 20
36.28685120773678
 30
0.0
 11
23.48637927083136
 21
37.03685120773729
 31
0.0
  0
LINE
  5
141
330
70
100
AcDbEntity
  8
0
 62
     8
420
  8421504
370
    25
100
AcDbLine
 10
23.48637927083136
 20
35.53685120773692
 30
0.0
 11
23.48637927083136
 21
36.28685120773678
 31
0.0
  0
LINE
  5
142
330
70
100
AcDbEntity
  8
0
 62
     8
420
  8421504
370
    25
100
AcDbLine
 10
90.73637927083101
 20
28.28685120773715
 30
0.0
 11
90.73637927083101
 21
29.03685120773701
 31
0.0
  0
LINE
  5
143
330
70
100
AcDbEntity
  8
0
 62
     8
420
  8421504
370
    25
100
AcDbLine
 10
90.73637927083101
 20
27.53685120773728
 30
0.0
 11
90.73637927083101
 21
28.28685120773715
 31
0.0
  0
LINE
  5
144
330
70
100
AcDbEntity
  8
0
 62
     8
420
  8421504
370
    25
100
AcDbLine
 10
23.48637927083136
 20
28.28685120773715
 30
0.0
 11
23.48637927083136
 21
29.03685120773701
 31
0.0
  0
LINE
  5
145
330
70
100
AcDbEntity
  8
0
 62
     8
420
  8421504
370
    25
100
AcDbLine
 10
23.48637927083136
 20
27.53685120773728
 30
0.0
 11
23.48637927083136
 21
28.28685120773715
 31
0.0
  0
LWPOLYLINE
  5
146
330
70
100
AcDbEntity
  8
0
 62
    18
420
        0
370
    25
100
AcDbPolyline
 90
       16
 70
     0
 43
0.0
 10
166.1231477121318
 20
13.59646906423708
 10
165.6435943026319
 20
13.30489081983685
 10
165.1328319785313
 20
12.89337336273727
 10
164.6719498731313
 20
12.41240983403713
 10
164.2630032030318
 20
11.86430100803677
 10
163.9082312283311
 20
11.25151406703679
 10
163.6100275838317
 20
10.57712416553681
 10
163.3706981978316
 20
9.845068448636839
 10
163.1921733365313
 20
9.060126410537026
 10
163.0758148838315
 20
8.227706138837353
 10
163.0223618480315
 20
7.353586277836853
 10
163.0185598835315
 20
7.041397666136893
 10
163.0273413322311
 20
6.55891822703724
 10
163.0918841522318
 20
5.622790744537135
 10
163.218477277131
 20
4.662357616036928
 10
163.3590105541314
 20
3.928972729836728
  0
LWPOLYLINE
  5
147
330
70
100
AcDbEntity
  8
0
 62
    18
420
        0
370
    25
100
AcDbPolyline
 90
       19
 70
     0
 43
0.0
 10
166.4061803648316
 20
-3.380742873762784
 10
166.8648972716319
 20
-4.0761085678632
 10
167.5006574476318
 20
-4.947510047462714
 10
168.1700730480309
 20
-5.778023765262968
 10
168.8691213780311
 20
-6.562479550363036
 10
169.5936359270317
 20
-7.29596467626302
 10
170.3393333064307
 20
-7.973844978762973
 10
171.1018380485317
 20
-8.591780415063041
 10
171.876702281031
 20
-9.14573458656309
 10
172.6594158985308
 20
-9.631978751363167
 10
173.445401287431
 20
-10.04709304726294
 10
174.2299857411308
 20
-10.38797180836271
 10
175.0081603899319
 20
-10.65179254496292
 10
175.7747796997309
 20
-10.836224834963
 10
176.5244186389313
 20
-10.93951399916314
 10
177.2513943896315
 20
-10.96068036996322
 10
177.9499465832313
 20
-10.89972908396319
 10
178.614583540931
 20
-10.75774558436273
 10
178.9684670999316
 20
-10.63279664166296
  0
LINE
  5
148
330
70
100
AcDbEntity
  8
0
 62
    18
420
        0
370
    25
100
AcDbLine
 10
167.5547231815313
 20
14.43072000053711
 30
0.0
 11
166.0132834474309
 21
13.54086578303684
 31
0.0
  0
SPLINE
  5
149
330
70
100
AcDbEntity
  8
0
 62
    18
420
        0
370
    25
100
AcDbSpline
210
0.0
220
0.0
230
1.0
 70
     8
 71
     3
 72
     8
 73
     4
 74
     0
 42
0.0000000001
 43
0.0000000001
 40
0.0
 40
0.0
 40
0.0
 40
0.0
 40
1.0
 40
1.0
 40
1.0
 40
1.0
 10
157.8808808056937
 20
-27.40181300570343
 30
0.0
 10
161.3874464054138
 20
-29.20771528267972
 30
0.0
 10
165.5505723146486
 20
-29.20771528267972
 30
0.0
 10
169.05713791437
 20
-27.40181300570343
 30
0.0
  0
SPLINE
  5
14A
330
70
100
AcDbEntity
  8
0
 62
    18
420
        0
370
    25
100
AcDbSpline
210
0.0
220
0.0
230
1.0
 70
     8
 71
     3
 72
     8
 73
     4
 74
     0
 42
0.0000000001
 43
0.0000000001
 40
0.0
 40
0.0
 40
0.0
 40
0.0
 40
1.0
 40
1.0
 40
1.0
 40
1.0
 10
156.2729517065913
 20
-32.02419721010357
 30
0.0
 10
160.7802338791227
 20
-34.38357648472127
 30
0.0
 10
166.1577848409396
 20
-34.38357648472127
 30
0.0
 10
170.6650670134711
 20
-32.02419721010357
 30
0.0
  0
LINE
  5
14B
330
70
100
AcDbEntity
  8
0
 62
    18
420
        0
370
    25
100
AcDbLine
 10
186.3812540534308
 20
-17.40081363586269
 30
0.0
 11
169.0571379143315
 21
-27.401813005663
 31
0.0
  0
LINE
  5
14C
330
70
100
AcDbEntity
  8
0
 62
    18
420
        0
370
    25
100
AcDbLine
 10
157.8808808056308
 20
-27.401813005663
 30
0.0
 11
151.7139182703312
 21
-23.84170131316325
 31
0.0
  0
LINE
  5
14D
330
70
100
AcDbEntity
  8
0
 62
    18
420
        0
370
    25
100
AcDbLine
 10
150.2215759986319
 20
-28.5308123726629
 30
0.0
 11
156.272951706531
 21
-32.02419721006315
 31
0.0
  0
LINE
  5
14E
330
70
100
AcDbEntity
  8
0
 62
    18
420
        0
370
    25
100
AcDbLine
 10
170.6650670134313
 20
-32.02419721006315
 30
0.0
 11
187.9891831525307
 21
-22.02319784026284
 31
0.0
  0
LINE
  5
14F
330
70
100
AcDbEntity
  8
0
 62
    18
420
        0
370
    25
100
AcDbLine
 10
169.1713587383313
 20
-32.72979427616324
 30
0.0
 11
169.1713587383313
 21
-37.57459570976315
 31
0.0
  0
LINE
  5
150
330
70
100
AcDbEntity
  8
0
 62
    18
420
        0
370
    25
100
AcDbLine
 10
170.671358738331
 20
-37.57459570976315
 30
0.0
 11
170.671358738331
 21
-32.02056507466312
 31
0.0
  0
LINE
  5
151
330
70
100
AcDbEntity
  8
0
 62
    18
420
        0
370
    25
100
AcDbLine
 10
151.7139182703312
 20
-23.84170131316325
 30
0.0
 11
150.339030012931
 21
-24.63540740966324
 31
0.0
  0
LINE
  5
152
330
70
100
AcDbEntity
  8
0
 62
    18
420
        0
370
    25
100
AcDbLine
 10
153.9685629428319
 20
-30.69390189286284
 30
0.0
 11
153.9685629428319
 21
-32.16522846856278
 31
0.0
  0
LINE
  5
153
330
70
100
AcDbEntity
  8
0
 62
    18
420
        0
370
    25
100
AcDbLine
 10
155.4685629428316
 20
-32.16522846856278
 30
0.0
 11
155.4685629428316
 21
-31.55983346106274
 31
0.0
  0
LWPOLYLINE
  5
154
330
70
100
AcDbEntity
  8
0
 62
    18
420
        0
370
    25
100
AcDbPolyline
 90
       10
 70
     0
 43
0.0
 10
153.9685629428319
 20
-32.16522846856278
 10
153.963130150331
 20
-32.29249739016299
 10
153.9289550013307
 20
-32.48223602106324
 10
153.8812625127309
 20
-32.5973935700627
 10
153.8425028273312
 20
-32.64782806216272
 10
153.8126544067317
 20
-32.66646563646267
 10
153.7541026076312
 20
-32.67669598666316
 10
153.6422138538307
 20
-32.66567603686269
 10
153.4603319008309
 20
-32.6052513715627
 10
153.3257655146317
 20
-32.53653371176323
  0
SPLINE
  5
155
330
70
100
AcDbEntity
  8
0
 62
    18
420
        0
370
    25
100
AcDbSpline
210
0.0
220
0.0
230
1.0
 70
     8
 71
     3
 72
    11
 73
     7
 74
     0
 42
0.0000000001
 43
0.0000000001
 40
0.0
 40
0.0
 40
0.0
 40
0.0
 40
1.0
 40
1.0
 40
1.0
 40
2.0
 40
2.0
 40
2.0
 40
2.0
 10
152.5758264651073
 20
-33.83560700529982
 30
0.0
 10
153.400254699517
 20
-34.42470799048151
 30
0.0
 10
154.5461465394866
 20
-34.23393756219735
 30
0.0
 10
155.1352475246683
 20
-33.40950932778702
 30
0.0
 10
155.3930896871877
 20
-33.04866735985752
 30
0.0
 10
155.5114984966185
 20
-32.60664215754778
 30
0.0
 10
155.4685629428111
 20
-32.16522846857625
 30
0.0
  0
SPLINE
  5
156
330
70
100
AcDbEntity
  8
0
 62
    18
420
        0
370
    25
100
AcDbSpline
210
0.0
220
0.0
230
1.0
 70
     8
 71
     3
 72
    11
 73
     7
 74
     0
 42
0.0000000001
 43
0.0000000001
 40
0.0
 40
0.0
 40
0.0
 40
0.0
 40
1.0
 40
1.0
 40
1.0
 40
2.0
 40
2.0
 40
2.0
 40
2.0
 10
167.7786222606067
 20
-39.24497424640009
 30
0.0
 10
168.6030504950177
 20
-39.83407523158113
 30
0.0
 10
169.7489423349873
 20
-39.64330480329697
 30
0.0
 10
170.3380433201677
 20
-38.81887656888729
 30
0.0
 10
170.5958854826871
 20
-38.45803460095714
 30
0.0
 10
170.7142942921192
 20
-38.01600939864805
 30
0.0
 10
170.6713587383105
 20
-37.57459570967653
 30
0.0
  0
LWPOLYLINE
  5
157
330
70
100
AcDbEntity
  8
0
 62
    18
420
        0
370
    25
100
AcDbPolyline
 90
       10
 70
     0
 43
0.0
 10
169.1713587383313
 20
-37.57459570976315
 10
169.1659259458317
 20
-37.70186463126326
 10
169.1317507968314
 20
-37.89160326216286
 10
169.0840583082316
 20
-38.00676081126307
 10
169.0452986228319
 20
-38.05719530336308
 10
169.0154502022311
 20
-38.07583287766304
 10
168.9568984031307
 20
-38.08606322776278
 10
168.8450096494316
 20
-38.07504327796296
 10
168.6631276963316
 20
-38.01461861276307
 10
168.5285613101311
 20
-37.94590095286286
  0
LINE
  5
158
330
70
100
AcDbEntity
  8
0
 62
    18
420
        0
370
    25
100
AcDbLine
 10
174.8282129878314
 20
-29.62086419546269
 30
0.0
 11
174.8282129878314
 21
-34.30896326246294
 31
0.0
  0
LINE
  5
159
330
70
100
AcDbEntity
  8
0
 62
    18
420
        0
370
    25
100
AcDbLine
 10
176.3282129878311
 20
-34.30896326246294
 30
0.0
 11
176.3282129878311
 21
-28.75493262736291
 31
0.0
  0
LINE
  5
15A
330
70
100
AcDbEntity
  8
0
 62
    18
420
        0
370
    25
100
AcDbLine
 10
122.5237882647307
 20
-16.48693462906296
 30
0.0
 11
152.5758264651317
 21
-33.83560700526324
 31
0.0
  0
LINE
  5
15B
330
70
100
AcDbEntity
  8
0
 62
    18
420
        0
370
    25
100
AcDbLine
 10
153.3257655146317
 20
-32.53653371176323
 30
0.0
 11
123.2737273141318
 21
-15.18786133546285
 31
0.0
  0
LINE
  5
15C
330
70
100
AcDbEntity
  8
0
 62
    18
420
        0
370
    25
100
AcDbLine
 10
168.5285613101311
 20
-37.94590095286286
 30
0.0
 11
160.9266989679316
 21
-33.55743923376282
 31
0.0
  0
LINE
  5
15D
330
70
100
AcDbEntity
  8
0
 62
    18
420
        0
370
    25
100
AcDbLine
 10
149.669673077731
 20
-27.05889651266278
 30
0.0
 11
124.7967179235309
 21
-12.70004513896314
 31
0.0
  0
LINE
  5
15E
330
70
100
AcDbEntity
  8
0
 62
    18
420
        0
370
    25
100
AcDbLine
 10
120.2256912258312
 20
-11.79325148636303
 30
0.0
 11
120.3809908364319
 21
-11.88290404336272
 31
0.0
  0
LINE
  5
15F
330
70
100
AcDbEntity
  8
0
 62
    18
420
        0
370
    25
100
AcDbLine
 10
121.8809908364316
 20
-12.74883561146315
 30
0.0
 11
153.9685629428319
 21
-31.27259669906282
 31
0.0
  0
LINE
  5
160
330
70
100
AcDbEntity
  8
0
 62
    18
420
        0
370
    25
100
AcDbLine
 10
155.4685629428316
 20
-32.13852826726272
 30
0.0
 11
167.7786222606311
 21
-39.24497424646297
 31
0.0
  0
SPLINE
  5
161
330
70
100
AcDbEntity
  8
0
 62
    18
420
        0
370
    25
100
AcDbSpline
210
0.0
220
0.0
230
1.0
 70
     8
 71
     3
 72
    11
 73
     7
 74
     0
 42
0.0000000001
 43
0.0000000001
 40
0.0
 40
0.0
 40
0.0
 40
0.0
 40
1.0
 40
1.0
 40
1.0
 40
2.0
 40
2.0
 40
2.0
 40
2.0
 10
173.4354765101068
 20
-35.97934179919998
 30
0.0
 10
174.2599047445177
 20
-36.56844278438167
 30
0.0
 10
175.4057965844874
 20
-36.37767235609751
 30
0.0
 10
175.9948975696678
 20
-35.55324412168719
 30
0.0
 10
176.2527397321872
 20
-35.19240215375704
 30
0.0
 10
176.3711485416193
 20
-34.75037695144794
 30
0.0
 10
176.3282129878106
 20
-34.30896326247641
 30
0.0
  0
LWPOLYLINE
  5
162
330
70
100
AcDbEntity
  8
0
 62
    18
420
        0
370
    25
100
AcDbPolyline
 90
       10
 70
     0
 43
0.0
 10
174.8282129878314
 20
-34.30896326246294
 10
174.8227801953317
 20
-34.43623218396305
 10
174.7886050463314
 20
-34.62597081486329
 10
174.7409125577317
 20
-34.74112836396286
 10
174.7021528723307
 20
-34.79156285606288
 10
174.6723044517312
 20
-34.81020043036283
 10
174.6137526526307
 20
-34.8204307804632
 10
174.5018638989316
 20
-34.80941083066274
 10
174.3199819458316
 20
-34.74898616546286
 10
174.1854155596311
 20
-34.68026850556328
  0
LINE
  5
163
330
70
100
AcDbEntity
  8
0
 62
    18
420
        0
370
    25
100
AcDbLine
 10
180.4850672373314
 20
-26.35523174816313
 30
0.0
 11
180.4850672373314
 21
-31.04333081516273
 31
0.0
  0
LINE
  5
164
330
70
100
AcDbEntity
  8
0
 62
    18
420
        0
370
    25
100
AcDbLine
 10
181.9850672373312
 20
-31.04333081516273
 30
0.0
 11
181.9850672373312
 21
-25.4893001800627
 31
0.0
  0
LWPOLYLINE
  5
165
330
70
100
AcDbEntity
  8
0
 62
    18
420
        0
370
    25
100
AcDbPolyline
 90
       11
 70
     0
 43
0.0
 10
191.0381892594308
 20
-14.95736019446326
 10
191.0089197367313
 20
-14.42497290376326
 10
190.8902806499311
 20
-13.82347755676281
 10
190.6891840557308
 20
-13.23684606806275
 10
190.4070191142307
 20
-12.66729767826294
 10
190.0443275467317
 20
-12.11725219486297
 10
189.6016495458309
 20
-11.59000460566304
 10
189.0806710117308
 20
-11.09000696736286
 10
188.4851186981308
 20
-10.62253654516276
 10
187.8494919191316
 20
-10.20977802676315
 10
187.756142310831
 20
-10.15519164346325
  0
LINE
  5
166
330
70
100
AcDbEntity
  8
0
 62
    18
420
        0
370
    25
100
AcDbLine
 10
174.1854155596311
 20
-34.68026850556328
 30
0.0
 11
170.671358738331
 21
-32.65164668306302
 31
0.0
  0
LINE
  5
167
330
70
100
AcDbEntity
  8
0
 62
    18
420
        0
370
    25
100
AcDbLine
 10
163.8450390552314
 20
-28.71089621126287
 30
0.0
 11
126.6324845248313
 21
-7.228545745562814
 31
0.0
  0
LINE
  5
168
330
70
100
AcDbEntity
  8
0
 62
    18
420
        0
370
    25
100
AcDbLine
 10
125.8825454753313
 20
-8.527619039162928
 30
0.0
 11
160.1173804133308
 21
-28.29096857406307
 31
0.0
  0
LINE
  5
169
330
70
100
AcDbEntity
  8
0
 62
    18
420
        0
370
    25
100
AcDbLine
 10
168.3241155839317
 20
-33.02861594446308
 30
0.0
 11
169.1713587383313
 21
-33.51771900666317
 31
0.0
  0
LINE
  5
16A
330
70
100
AcDbEntity
  8
0
 62
    18
420
        0
370
    25
100
AcDbLine
 10
170.671358738331
 20
-34.38365057476296
 30
0.0
 11
173.4354765101311
 21
-35.97934179916276
 31
0.0
  0
LINE
  5
16B
330
70
100
AcDbEntity
  8
0
 62
    18
420
        0
370
    25
100
AcDbLine
 10
191.0431254990316
 20
-17.72464506556327
 30
0.0
 11
191.0431254990316
 21
-14.96881982546286
 31
0.0
  0
SPLINE
  5
16C
330
70
100
AcDbEntity
  8
0
 62
    18
420
        0
370
    25
100
AcDbSpline
210
0.0
220
0.0
230
1.0
 70
     8
 71
     3
 72
     8
 73
     4
 74
     0
 42
0.0000000001
 43
0.0000000001
 40
0.0
 40
0.0
 40
0.0
 40
0.0
 40
1.0
 40
1.0
 40
1.0
 40
1.0
 10
186.3812540534154
 20
-17.40081363587232
 30
0.0
 10
187.3955085845442
 20
-16.96989712214634
 30
0.0
 10
188.1173066839037
 20
-16.048197750258
 30
0.0
 10
188.2925250262858
 20
-14.96021804998403
 30
0.0
  0
SPLINE
  5
16D
330
70
100
AcDbEntity
  8
0
 62
    18
420
        0
370
    25
100
AcDbSpline
210
0.0
220
0.0
230
1.0
 70
     8
 71
     3
 72
    11
 73
     7
 74
     0
 42
0.0000000001
 43
0.0000000001
 40
0.0
 40
0.0
 40
0.0
 40
0.0
 40
1.0
 40
1.0
 40
1.0
 40
2.0
 40
2.0
 40
2.0
 40
2.0
 10
179.0923307596068
 20
-32.71370935189977
 30
0.0
 10
179.9167589940178
 20
-33.30281033708146
 30
0.0
 10
181.0626508339874
 20
-33.11203990879729
 30
0.0
 10
181.6517518191679
 20
-32.28761167438698
 30
0.0
 10
181.9095939816873
 20
-31.92676970645746
 30
0.0
 10
182.0280027911193
 20
-31.48474450414772
 30
0.0
 10
181.9850672373106
 20
-31.0433308151762
 30
0.0
  0
LWPOLYLINE
  5
16E
330
70
100
AcDbEntity
  8
0
 62
    18
420
        0
370
    25
100
AcDbPolyline
 90
       10
 70
     0
 43
0.0
 10
180.4850672373314
 20
-31.04333081516273
 10
180.4796344448318
 20
-31.17059973666284
 10
180.4454592958315
 20
-31.36033836756308
 10
180.3977668071316
 20
-31.47549591666329
 10
180.3590071218307
 20
-31.52593040876331
 10
180.3291587012313
 20
-31.54456798306326
 10
180.2706069021308
 20
-31.5547983332631
 10
180.1587181483316
 20
-31.54377838336317
 10
179.9768361953317
 20
-31.48335371816329
 10
179.8422698091312
 20
-31.41463605826308
  0
LINE
  5
16F
330
70
100
AcDbEntity
  8
0
 62
    18
420
        0
370
    25
100
AcDbLine
 10
186.1419214868315
 20
-23.08959930086292
 30
0.0
 11
186.1419214868315
 21
-27.77769836786316
 31
0.0
  0
LINE
  5
170
330
70
100
AcDbEntity
  8
0
 62
    18
420
        0
370
    25
100
AcDbLine
 10
187.6419214868312
 20
-27.77769836786316
 30
0.0
 11
187.6419214868312
 21
-22.22366773276313
 31
0.0
  0
SPLINE
  5
171
330
70
100
AcDbEntity
  8
0
 62
    18
420
        0
370
    25
100
AcDbSpline
210
0.0
220
0.0
230
1.0
 70
     8
 71
     3
 72
     8
 73
     4
 74
     0
 42
0.0000000001
 43
0.0000000001
 40
0.0
 40
0.0
 40
0.0
 40
0.0
 40
1.0
 40
1.0
 40
1.0
 40
1.0
 10
187.9891831525615
 20
-22.02319784029813
 30
0.0
 10
189.0844128420041
 20
-21.44181384140597
 30
0.0
 10
189.9898607556235
 20
-20.55842722793693
 30
0.0
 10
190.5980782697081
 20
-19.47786863055978
 30
0.0
  0
SPLINE
  5
172
330
70
100
AcDbEntity
  8
0
 62
    18
420
        0
370
    25
100
AcDbSpline
210
0.0
220
0.0
230
1.0
 70
     8
 71
     3
 72
     8
 73
     4
 74
     0
 42
0.0000000001
 43
0.0000000001
 40
0.0
 40
0.0
 40
0.0
 40
0.0
 40
1.0
 40
1.0
 40
1.0
 40
1.0
 10
187.7908544486559
 20
-16.23100565419225
 30
0.0
 10
187.3699611947888
 20
-15.61988000425347
 30
0.0
 10
186.8060439389684
 20
-15.12091886199105
 30
0.0
 10
186.1482132116645
 20
-14.77757584782169
 30
0.0
  0
LINE
  5
173
330
70
100
AcDbEntity
  8
0
 62
    18
420
        0
370
    25
100
AcDbLine
 10
179.8422698091312
 20
-31.41463605826308
 30
0.0
 11
176.3282129878311
 21
-29.38601423576281
 31
0.0
  0
LINE
  5
174
330
70
100
AcDbEntity
  8
0
 62
    18
420
        0
370
    25
100
AcDbLine
 10
170.974120570631
 20
-26.2951624739628
 30
0.0
 11
132.2893387743313
 21
-3.962913298263244
 31
0.0
  0
LINE
  5
175
330
70
100
AcDbEntity
  8
0
 62
    18
420
        0
370
    25
100
AcDbLine
 10
131.5393997248313
 20
-5.261986591862717
 30
0.0
 11
169.4739986596313
 21
-27.16116441976304
 31
0.0
  0
LINE
  5
176
330
70
100
AcDbEntity
  8
0
 62
    18
420
        0
370
    25
100
AcDbLine
 10
174.2814991477318
 20
-29.9364753773631
 30
0.0
 11
174.8282129878314
 21
-30.25208655936296
 31
0.0
  0
LINE
  5
177
330
70
100
AcDbEntity
  8
0
 62
    18
420
        0
370
    25
100
AcDbLine
 10
176.3282129878311
 20
-31.11801812746275
 30
0.0
 11
179.0923307596312
 21
-32.71370935186319
 31
0.0
  0
SPLINE
  5
178
330
70
100
AcDbEntity
  8
0
 62
    18
420
        0
370
    25
100
AcDbSpline
210
0.0
220
0.0
230
1.0
 70
     8
 71
     3
 72
    11
 73
     7
 74
     0
 42
0.0000000001
 43
0.0000000001
 40
0.0
 40
0.0
 40
0.0
 40
0.0
 40
1.0
 40
1.0
 40
1.0
 40
2.0
 40
2.0
 40
2.0
 40
2.0
 10
184.7491850091069
 20
-29.4480769046002
 30
0.0
 10
185.5736132435166
 20
-30.03717788978125
 30
0.0
 10
186.7195050834875
 20
-29.84640746149708
 30
0.0
 10
187.3086060686679
 20
-29.02197922708741
 30
0.0
 10
187.5664482311873
 20
-28.66113725915726
 30
0.0
 10
187.6848570406194
 20
-28.21911205684751
 30
0.0
 10
187.6419214868107
 20
-27.77769836787664
 30
0.0
  0
LWPOLYLINE
  5
179
330
70
100
AcDbEntity
  8
0
 62
    18
420
        0
370
    25
100
AcDbPolyline
 90
       10
 70
     0
 43
0.0
 10
186.1419214868315
 20
-27.77769836786316
 10
186.1364886943318
 20
-27.90496728936327
 10
186.1023135453315
 20
-28.09470592026287
 10
186.0546210566317
 20
-28.20986346936308
 10
186.0158613713308
 20
-28.26029796146309
 10
185.9860129507313
 20
-28.27893553576305
 10
185.9274611516308
 20
-28.28916588596289
 10
185.8155723978316
 20
-28.27814593606296
 10
185.6336904448317
 20
-28.21772127086307
 10
185.4991240586313
 20
-28.14900361096286
  0
LINE
  5
17A
330
70
100
AcDbEntity
  8
0
 62
    18
420
        0
370
    25
100
AcDbLine
 10
185.4991240586313
 20
-28.14900361096286
 30
0.0
 11
181.9850672373312
 21
-26.1203817885627
 31
0.0
  0
LINE
  5
17B
330
70
100
AcDbEntity
  8
0
 62
    18
420
        0
370
    25
100
AcDbLine
 10
176.630974820131
 20
-23.02953002666323
 30
0.0
 11
137.9461930238314
 21
-0.6972808509630337
 31
0.0
  0
LINE
  5
17C
330
70
100
AcDbEntity
  8
0
 62
    18
420
        0
370
    25
100
AcDbLine
 10
137.1962539743314
 20
-1.996354144563148
 30
0.0
 11
175.1308529091313
 21
-23.89553197246283
 31
0.0
  0
LINE
  5
17D
330
70
100
AcDbEntity
  8
0
 62
    18
420
        0
370
    25
100
AcDbLine
 10
179.9383533972319
 20
-26.67084293006289
 30
0.0
 11
180.4850672373314
 21
-26.98645411206275
 31
0.0
  0
LINE
  5
17E
330
70
100
AcDbEntity
  8
0
 62
    18
420
        0
370
    25
100
AcDbLine
 10
181.9850672373312
 20
-27.85238568016318
 30
0.0
 11
184.7491850091313
 21
-29.44807690456298
 31
0.0
  0
LINE
  5
17F
330
70
100
AcDbEntity
  8
0
 62
    18
420
        0
370
    25
100
AcDbLine
 10
167.7936969428314
 20
1.368882770636867
 30
0.0
 11
149.2188227361318
 21
12.09192940373706
 31
0.0
  0
LINE
  5
180
330
70
100
AcDbEntity
  8
0
 62
    18
420
        0
370
    25
100
AcDbLine
 10
187.756142310831
 20
-10.15519164346325
 30
0.0
 11
169.143995761231
 21
0.5893718551368696
 31
0.0
  0
LINE
  5
181
330
70
100
AcDbEntity
  8
0
 62
    18
420
        0
370
    25
100
AcDbLine
 10
125.5105237663312
 20
-8.714803651063174
 30
0.0
 11
119.3435612310316
 21
-5.154691958562782
 31
0.0
  0
LINE
  5
182
330
70
100
AcDbEntity
  8
0
 62
    18
420
        0
370
    25
100
AcDbLine
 10
147.6108936370307
 20
7.469545199336924
 30
0.0
 11
186.1482132117312
 21
-14.77757584786276
 31
0.0
  0
LINE
  5
183
330
70
100
AcDbEntity
  8
0
 62
    18
420
        0
370
    25
100
AcDbLine
 10
117.7356321319318
 20
-9.777076162962924
 30
0.0
 11
123.7872335990308
 21
-13.27059132836322
 31
0.0
  0
LWPOLYLINE
  5
184
330
70
100
AcDbEntity
  8
0
 62
    18
420
        0
370
    25
100
AcDbPolyline
 90
       11
 70
     0
 43
0.0
 10
117.9686729736314
 20
2.090930033936759
 10
117.5973912069313
 20
1.865148786136954
 10
116.9504421649313
 20
1.407971681737274
 10
116.3706686540312
 20
0.90659612003718
 10
115.867275801631
 20
0.366081502636775
 10
115.447836691631
 20
-0.2070698057632378
 10
115.1180990571317
 20
-0.8044561722628314
 10
114.8809377275316
 20
-1.416902689062991
 10
114.7363187981308
 20
-2.035851014462974
 10
114.6822310108308
 20
-2.654216273763144
 10
114.6866260250317
 20
-2.734157779063092
  0
LINE
  5
185
330
70
100
AcDbEntity
  8
0
 62
    18
420
        0
370
    25
100
AcDbLine
 10
120.3809908364319
 20
-11.30420923716274
 30
0.0
 11
120.3809908364319
 21
-12.77553581276321
 31
0.0
  0
LINE
  5
186
330
70
100
AcDbEntity
  8
0
 62
    18
420
        0
370
    25
100
AcDbLine
 10
121.8809908364316
 20
-12.77553581276321
 30
0.0
 11
121.8809908364316
 21
-12.17014080526317
 31
0.0
  0
LINE
  5
187
330
70
100
AcDbEntity
  8
0
 62
    18
420
        0
370
    25
100
AcDbLine
 10
114.6816897853308
 20
-2.72269814806285
 30
0.0
 11
114.6816897853308
 21
-5.478523388163257
 31
0.0
  0
SPLINE
  5
188
330
70
100
AcDbEntity
  8
0
 62
    18
420
        0
370
    25
100
AcDbSpline
210
0.0
220
0.0
230
1.0
 70
     8
 71
     3
 72
     8
 73
     4
 74
     0
 42
0.0000000001
 43
0.0000000001
 40
0.0
 40
0.0
 40
0.0
 40
0.0
 40
1.0
 40
1.0
 40
1.0
 40
1.0
 10
117.4322902581125
 20
-2.731299923549379
 30
0.0
 10
117.6190844064773
 20
-3.810102896103604
 30
0.0
 10
118.3379904980883
 20
-4.721638372256932
 30
0.0
 10
119.3435612309867
 20
-5.154691958540323
 30
0.0
  0
SPLINE
  5
189
330
70
100
AcDbEntity
  8
0
 62
    18
420
        0
370
    25
100
AcDbSpline
210
0.0
220
0.0
230
1.0
 70
     8
 71
     3
 72
     8
 73
     4
 74
     0
 42
0.0000000001
 43
0.0000000001
 40
0.0
 40
0.0
 40
0.0
 40
0.0
 40
1.0
 40
1.0
 40
1.0
 40
1.0
 10
121.8809908364714
 20
-12.77553581279209
 30
0.0
 10
121.9326491352401
 20
-13.7561283389205
 30
0.0
 10
122.4503451828775
 20
-14.65281727377089
 30
0.0
 10
123.2737273141755
 20
-15.18786133549943
 30
0.0
  0
SPLINE
  5
18A
330
70
100
AcDbEntity
  8
0
 62
    18
420
        0
370
    25
100
AcDbSpline
210
0.0
220
0.0
230
1.0
 70
     8
 71
     3
 72
     8
 73
     4
 74
     0
 42
0.0000000001
 43
0.0000000001
 40
0.0
 40
0.0
 40
0.0
 40
0.0
 40
1.0
 40
1.0
 40
1.0
 40
1.0
 10
120.3809908364447
 20
-12.77553581279401
 30
0.0
 10
120.4278730576686
 20
-14.29367218265586
 30
0.0
 10
121.2324781444888
 20
-15.68727585580559
 30
0.0
 10
122.5237882646742
 20
-16.48693462907644
 30
0.0
  0
SPLINE
  5
18B
330
70
100
AcDbEntity
  8
0
 62
    18
420
        0
370
    25
100
AcDbSpline
210
0.0
220
0.0
230
1.0
 70
     8
 71
     3
 72
     8
 73
     4
 74
     0
 42
0.0000000001
 43
0.0000000001
 40
0.0
 40
0.0
 40
0.0
 40
0.0
 40
1.0
 40
1.0
 40
1.0
 40
1.0
 10
115.13785755117
 20
-7.247855554113769
 30
0.0
 10
115.74167040705
 20
-8.323872099874977
 30
0.0
 10
116.6438557825083
 20
-9.202249254495468
 30
0.0
 10
117.7356321318844
 20
-9.77707616289747
 30
0.0
  0
SPLINE
  5
18C
330
70
100
AcDbEntity
  8
0
 62
    18
420
        0
370
    25
100
AcDbSpline
210
0.0
220
0.0
230
1.0
 70
     8
 71
     3
 72
     8
 73
     4
 74
     0
 42
0.0000000001
 43
0.0000000001
 40
0.0
 40
0.0
 40
0.0
 40
0.0
 40
1.0
 40
1.0
 40
1.0
 40
1.0
 10
119.5766020726992
 20
-2.531454170454398
 30
0.0
 10
118.9226045195799
 20
-2.882125786177317
 30
0.0
 10
118.3590503965679
 20
-3.379987036326757
 30
0.0
 10
117.9304098785172
 20
-3.985751584517341
 30
0.0
  0
LINE
  5
18D
330
70
100
AcDbEntity
  8
0
 62
    18
420
        0
370
    25
100
AcDbLine
 10
135.2927891127308
 20
12.09192940373706
 30
0.0
 11
117.9686729736314
 21
2.090930033936759
 31
0.0
  0
LINE
  5
18E
330
70
100
AcDbEntity
  8
0
 62
    18
420
        0
370
    25
100
AcDbLine
 10
119.5766020727313
 20
-2.53145417046274
 30
0.0
 11
136.9007182118319
 21
7.469545199336924
 31
0.0
  0
LINE
  5
18F
330
70
100
AcDbEntity
  8
0
 62
    18
420
        0
370
    25
100
AcDbLine
 10
118.0828937976313
 20
-3.781818595162976
 30
0.0
 11
118.0828937976313
 21
-4.160180501063186
 31
0.0
  0
LINE
  5
190
330
70
100
AcDbEntity
  8
0
 62
    18
420
        0
370
    25
100
AcDbLine
 10
119.582893797631
 20
-5.292855708362893
 30
0.0
 11
119.582893797631
 21
-2.527822035062714
 31
0.0
  0
SPLINE
  5
191
330
70
100
AcDbEntity
  8
0
 62
    18
420
        0
370
    25
100
AcDbSpline
210
0.0
220
0.0
230
1.0
 70
     8
 71
     3
 72
     8
 73
     4
 74
     0
 42
0.0000000001
 43
0.0000000001
 40
0.0
 40
0.0
 40
0.0
 40
0.0
 40
1.0
 40
1.0
 40
1.0
 40
1.0
 10
118.839658276568
 20
-10.41441689000389
 30
0.0
 10
119.1810668658286
 20
-10.98115983968954
 30
0.0
 10
119.6571782516886
 20
-11.4547985442264
 30
0.0
 10
120.2256912258543
 20
-11.79325148636688
 30
0.0
  0
LINE
  5
192
330
70
100
AcDbEntity
  8
0
 62
    18
420
        0
370
    25
100
AcDbLine
 10
123.7397480471313
 20
-0.1281211558629356
 30
0.0
 11
123.7397480471313
 21
-4.816220222863178
 31
0.0
  0
LINE
  5
193
330
70
100
AcDbEntity
  8
0
 62
    18
420
        0
370
    25
100
AcDbLine
 10
125.239748047131
 20
-4.816220222863178
 30
0.0
 11
125.239748047131
 21
0.7378104122368546
 31
0.0
  0
SPLINE
  5
194
330
70
100
AcDbEntity
  8
0
 62
    18
420
        0
370
    25
100
AcDbSpline
210
0.0
220
0.0
230
1.0
 70
     8
 71
     3
 72
     8
 73
     4
 74
     0
 42
0.0000000001
 43
0.0000000001
 40
0.0
 40
0.0
 40
0.0
 40
0.0
 40
1.0
 40
1.0
 40
1.0
 40
1.0
 10
149.2188227361485
 20
12.09192940375952
 30
0.0
 10
144.8603093481106
 20
14.38627031720417
 30
0.0
 10
139.651302500752
 20
14.38627031720417
 30
0.0
 10
135.2927891127141
 20
12.09192940375952
 30
0.0
  0
SPLINE
  5
195
330
70
100
AcDbEntity
  8
0
 62
    18
420
        0
370
    25
100
AcDbSpline
210
0.0
220
0.0
230
1.0
 70
     8
 71
     3
 72
     8
 73
     4
 74
     0
 42
0.0000000001
 43
0.0000000001
 40
0.0
 40
0.0
 40
0.0
 40
0.0
 40
1.0
 40
1.0
 40
1.0
 40
1.0
 10
123.7397480471454
 20
-4.816220222793875
 30
0.0
 10
123.7866302683693
 20
-6.334356592655717
 30
0.0
 10
124.5912353551882
 20
-7.727960265805449
 30
0.0
 10
125.8825454753749
 20
-8.527619039076299
 30
0.0
  0
SPLINE
  5
196
330
70
100
AcDbEntity
  8
0
 62
    18
420
        0
370
    25
100
AcDbSpline
210
0.0
220
0.0
230
1.0
 70
     8
 71
     3
 72
     8
 73
     4
 74
     0
 42
0.0000000001
 43
0.0000000001
 40
0.0
 40
0.0
 40
0.0
 40
0.0
 40
1.0
 40
1.0
 40
1.0
 40
1.0
 10
125.2397480470707
 20
-4.81622022279195
 30
0.0
 10
125.2914063458407
 20
-5.796812748920361
 30
0.0
 10
125.8091023934781
 20
-6.693501683771394
 30
0.0
 10
126.6324845247748
 20
-7.228545745499285
 30
0.0
  0
LINE
  5
197
330
70
100
AcDbEntity
  8
0
 62
    18
420
        0
370
    25
100
AcDbLine
 10
129.3966022966314
 20
3.137511291437275
 30
0.0
 11
129.3966022966314
 21
-1.550587775562967
 31
0.0
  0
LINE
  5
198
330
70
100
AcDbEntity
  8
0
 62
    18
420
        0
370
    25
100
AcDbLine
 10
130.8966022966311
 20
-1.550587775562967
 30
0.0
 11
130.8966022966311
 21
4.003442859537066
 31
0.0
  0
SPLINE
  5
199
330
70
100
AcDbEntity
  8
0
 62
    18
420
        0
370
    25
100
AcDbSpline
210
0.0
220
0.0
230
1.0
 70
     8
 71
     3
 72
     8
 73
     4
 74
     0
 42
0.0000000001
 43
0.0000000001
 40
0.0
 40
0.0
 40
0.0
 40
0.0
 40
1.0
 40
1.0
 40
1.0
 40
1.0
 10
147.610893637041
 20
7.469545199375426
 30
0.0
 10
144.2532081064104
 20
9.211020241037184
 30
0.0
 10
140.2584037424522
 20
9.211020241037184
 30
0.0
 10
136.9007182118216
 20
7.469545199375426
 30
0.0
  0
SPLINE
  5
19A
330
70
100
AcDbEntity
  8
0
 62
    18
420
        0
370
    25
100
AcDbSpline
210
0.0
220
0.0
230
1.0
 70
     8
 71
     3
 72
     8
 73
     4
 74
     0
 42
0.0000000001
 43
0.0000000001
 40
0.0
 40
0.0
 40
0.0
 40
0.0
 40
1.0
 40
1.0
 40
1.0
 40
1.0
 10
129.3966022965454
 20
-1.550587775593769
 30
0.0
 10
129.4434845177692
 20
-3.068724145455612
 30
0.0
 10
130.2480896045881
 20
-4.462327818605343
 30
0.0
 10
131.5393997247749
 20
-5.261986591876834
 30
0.0
  0
SPLINE
  5
19B
330
70
100
AcDbEntity
  8
0
 62
    18
420
        0
370
    25
100
AcDbSpline
210
0.0
220
0.0
230
1.0
 70
     8
 71
     3
 72
     8
 73
     4
 74
     0
 42
0.0000000001
 43
0.0000000001
 40
0.0
 40
0.0
 40
0.0
 40
0.0
 40
1.0
 40
1.0
 40
1.0
 40
1.0
 10
130.8966022965708
 20
-1.550587775592485
 30
0.0
 10
130.9482605953408
 20
-2.531180301720254
 30
0.0
 10
131.4659566429782
 20
-3.427869236571288
 30
0.0
 10
132.2893387742749
 20
-3.962913298299179
 30
0.0
  0
LINE
  5
19C
330
70
100
AcDbEntity
  8
0
 62
    18
420
        0
370
    25
100
AcDbLine
 10
135.0534565461314
 20
6.403143738736845
 30
0.0
 11
135.0534565461314
 21
1.715044671737243
 31
0.0
  0
LINE
  5
19D
330
70
100
AcDbEntity
  8
0
 62
    18
420
        0
370
    25
100
AcDbLine
 10
136.5534565461312
 20
1.715044671737243
 30
0.0
 11
136.5534565461312
 21
7.269075306837277
 31
0.0
  0
SPLINE
  5
19E
330
70
100
AcDbEntity
  8
0
 62
    18
420
        0
370
    25
100
AcDbSpline
210
0.0
220
0.0
230
1.0
 70
     8
 71
     3
 72
     8
 73
     4
 74
     0
 42
0.0000000001
 43
0.0000000001
 40
0.0
 40
0.0
 40
0.0
 40
0.0
 40
1.0
 40
1.0
 40
1.0
 40
1.0
 10
135.0534565460455
 20
1.715044671706442
 30
0.0
 10
135.1003387672693
 20
0.1969083018445991
 30
0.0
 10
135.9049438540882
 20
-1.196695371305132
 30
0.0
 10
137.1962539742749
 20
-1.996354144576623
 30
0.0
  0
SPLINE
  5
19F
330
70
100
AcDbEntity
  8
0
 62
    18
420
        0
370
    25
100
AcDbSpline
210
0.0
220
0.0
230
1.0
 70
     8
 71
     3
 72
     8
 73
     4
 74
     0
 42
0.0000000001
 43
0.0000000001
 40
0.0
 40
0.0
 40
0.0
 40
0.0
 40
1.0
 40
1.0
 40
1.0
 40
1.0
 10
136.5534565460709
 20
1.715044671707725
 30
0.0
 10
136.6051148448408
 20
0.7344521455793143
 30
0.0
 10
137.1228108924782
 20
-0.1622367892710768
 30
0.0
 10
137.9461930237749
 20
-0.6972808509996105
 30
0.0
  0
LINE
  5
1A0
330
70
100
AcDbEntity
  8
0
 62
    18
420
        0
370
    25
100
AcDbLine
 10
169.9057822394313
 20
4.452997182336935
 30
0.0
 11
167.5299435360306
 21
1.521144371436774
 31
0.0
  0
LINE
  5
1A1
330
70
100
AcDbEntity
  8
0
 62
    18
420
        0
370
    25
100
AcDbLine
 10
166.0132834474309
 20
13.54086578303684
 30
0.0
 11
166.1134272662314
 21
13.5970175014371
 31
0.0
  0
LWPOLYLINE
  5
1A2
330
70
100
AcDbEntity
  8
0
 62
    18
420
        0
370
    25
100
AcDbPolyline
 90
       30
 70
     0
 43
0.0
 10
184.1518827097311
 20
-3.090257625963109
 10
184.1177837683312
 20
-2.131085081863274
 10
184.0157261239317
 20
-1.139270644262666
 10
183.8464256373307
 20
-0.1217711788630065
 10
183.6110698299312
 20
0.9142762865367807
 10
183.3113095537308
 20
1.96160462353724
 10
182.9492474114309
 20
3.01286757633731
 10
182.5274230090315
 20
4.060691290536801
 10
182.0487951415317
 20
5.097726035637023
 10
181.5167210395308
 20
6.116697758236815
 10
180.9349328206313
 20
7.110459103537291
 10
180.3075113111307
 20
8.072039549937004
 10
179.6388574221311
 20
8.994694301437041
 10
178.9336612802317
 20
9.871951597837007
 10
178.1968693296317
 20
10.69765810953704
 10
177.433649636531
 20
11.4660220986368
 10
176.6493556386314
 20
12.17165404383707
 10
175.8494885949313
 20
12.809604443937
 10
175.0396589980315
 20
13.37539853533712
 10
174.2255472205307
 20
13.86506767903712
 10
173.4128636718312
 20
14.27517719783725
 10
172.607308743031
 20
14.60285046793671
 10
171.8145328230318
 20
14.84578909703672
 10
171.0400966655308
 20
15.00228904493698
 10
170.2894323835314
 20
15.07125257723688
 10
169.5678053477307
 20
15.05219596403698
 10
168.8802772533312
 20
14.94525287403729
 10
168.2316706158315
 20
14.75117343593695
 10
167.6265349448315
 20
14.47131897773735
 10
167.5547231815313
 20
14.43072000053711
  0
SPLINE
  5
1A3
330
70
100
AcDbEntity
  8
0
 62
    18
420
        0
370
    25
100
AcDbSpline
210
0.0
220
0.0
230
1.0
 70
     8
 71
     3
 72
     8
 73
     4
 74
     0
 42
0.0000000001
 43
0.0000000001
 40
0.0
 40
0.0
 40
0.0
 40
0.0
 40
1.0
 40
1.0
 40
1.0
 40
1.0
 10
183.141298988461
 20
-7.49109930029055
 30
0.0
 10
183.85487275893
 20
-6.13689800872636
 30
0.0
 10
184.203181488113
 20
-4.620099807226302
 30
0.0
 10
184.1518827097324
 20
-3.090257626047813
 30
0.0
  0
SPLINE
  5
1A4
330
70
100
AcDbEntity
  8
0
 62
    18
420
        0
370
    25
100
AcDbSpline
210
0.0
220
0.0
230
1.0
 70
     8
 71
     3
 72
     8
 73
     4
 74
     0
 42
0.0000000001
 43
0.0000000001
 40
0.0
 40
0.0
 40
0.0
 40
0.0
 40
1.0
 40
1.0
 40
1.0
 40
1.0
 10
157.193436677009
 20
-27.46988657509564
 30
0.0
 10
161.1271802460055
 20
-29.51518339114486
 30
0.0
 10
165.8108384740568
 20
-29.51518339114486
 30
0.0
 10
169.7445820430534
 20
-27.46988657509564
 30
0.0
  0
SPLINE
  5
1A5
330
70
100
AcDbEntity
  8
0
 62
    18
420
        0
370
    25
100
AcDbSpline
210
0.0
220
0.0
230
1.0
 70
     8
 71
     3
 72
     8
 73
     4
 74
     0
 42
0.0000000001
 43
0.0000000001
 40
0.0
 40
0.0
 40
0.0
 40
0.0
 40
1.0
 40
1.0
 40
1.0
 40
1.0
 10
170.7168538672119
 20
-29.15391076830314
 30
0.0
 10
170.6856382474402
 20
-28.46793685681113
 30
0.0
 10
170.3230450678202
 20
-27.83990704907452
 30
0.0
 10
169.7445820430791
 20
-27.46988657508345
 30
0.0
  0
SPLINE
  5
1A6
330
70
100
AcDbEntity
  8
0
 62
    18
420
        0
370
    25
100
AcDbSpline
210
0.0
220
0.0
230
1.0
 70
     8
 71
     3
 72
     8
 73
     4
 74
     0
 42
0.0000000001
 43
0.0000000001
 40
0.0
 40
0.0
 40
0.0
 40
0.0
 40
1.0
 40
1.0
 40
1.0
 40
1.0
 10
156.2211648528697
 20
-29.15391076835769
 30
0.0
 10
160.7661333321752
 20
-31.50882534875812
 30
0.0
 10
166.1718853878872
 20
-31.50882534875812
 30
0.0
 10
170.7168538671927
 20
-29.15391076835769
 30
0.0
  0
SPLINE
  5
1A7
330
70
100
AcDbEntity
  8
0
 62
    18
420
        0
370
    25
100
AcDbSpline
210
0.0
220
0.0
230
1.0
 70
     8
 71
     3
 72
     8
 73
     4
 74
     0
 42
0.0000000001
 43
0.0000000001
 40
0.0
 40
0.0
 40
0.0
 40
0.0
 40
1.0
 40
1.0
 40
1.0
 40
1.0
 10
157.1934366769833
 20
-27.46988657508345
 30
0.0
 10
156.6149736522421
 20
-27.83990704907452
 30
0.0
 10
156.2523804726221
 20
-28.46793685681113
 30
0.0
 10
156.2211648528505
 20
-29.15391076830314
 30
0.0
  0
LINE
  5
1A8
330
70
100
AcDbEntity
  8
0
 62
    18
420
        0
370
    25
100
AcDbLine
 10
170.7168538671311
 20
-29.15391076836282
 30
0.0
 11
170.7168538671311
 21
-31.90973600846323
 31
0.0
  0
SPLINE
  5
1A9
330
70
100
AcDbEntity
  8
0
 62
    18
420
        0
370
    25
100
AcDbSpline
210
0.0
220
0.0
230
1.0
 70
     8
 71
     3
 72
     8
 73
     4
 74
     0
 42
0.0000000001
 43
0.0000000001
 40
0.0
 40
0.0
 40
0.0
 40
0.0
 40
1.0
 40
1.0
 40
1.0
 40
1.0
 10
156.2211648528697
 20
-31.90973600845745
 30
0.0
 10
160.7661333321752
 20
-34.26465058885852
 30
0.0
 10
166.1718853878872
 20
-34.26465058885852
 30
0.0
 10
170.7168538671927
 20
-31.90973600845745
 30
0.0
  0
LINE
  5
1AA
330
70
100
AcDbEntity
  8
0
 62
    18
420
        0
370
    25
100
AcDbLine
 10
156.2211648528312
 20
-29.15391076836282
 30
0.0
 11
156.2211648528312
 21
-31.90973600846323
 31
0.0
  0
LINE
  5
1AB
330
70
100
AcDbEntity
  8
0
 62
    18
420
        0
370
    25
100
AcDbLine
 10
187.0686981821309
 20
-17.46888720526324
 30
0.0
 11
169.7445820430316
 21
-27.46988657516301
 31
0.0
  0
SPLINE
  5
1AC
330
70
100
AcDbEntity
  8
0
 62
    18
420
        0
370
    25
100
AcDbSpline
210
0.0
220
0.0
230
1.0
 70
     8
 71
     3
 72
     8
 73
     4
 74
     0
 42
0.0000000001
 43
0.0000000001
 40
0.0
 40
0.0
 40
0.0
 40
0.0
 40
1.0
 40
1.0
 40
1.0
 40
1.0
 10
188.0409700062111
 20
-19.15291139850283
 30
0.0
 10
188.0097543864408
 20
-18.46693748701145
 30
0.0
 10
187.6471612068195
 20
-17.83890767927421
 30
0.0
 10
187.0686981820796
 20
-17.46888720528313
 30
0.0
  0
LINE
  5
1AD
330
70
100
AcDbEntity
  8
0
 62
    18
420
        0
370
    25
100
AcDbLine
 10
188.0409700062317
 20
-19.15291139856315
 30
0.0
 11
170.7168538671311
 21
-29.15391076836282
 31
0.0
  0
SPLINE
  5
1AE
330
70
100
AcDbEntity
  8
0
 62
    18
420
        0
370
    25
100
AcDbSpline
210
0.0
220
0.0
230
1.0
 70
     8
 71
     3
 72
     8
 73
     4
 74
     0
 42
0.0000000001
 43
0.0000000001
 40
0.0
 40
0.0
 40
0.0
 40
0.0
 40
1.0
 40
1.0
 40
1.0
 40
1.0
 10
151.7139182703389
 20
-24.30662793086642
 30
0.0
 10
151.0641509322702
 20
-24.26412820803823
 30
0.0
 10
150.4264869227558
 20
-24.49698279621626
 30
0.0
 10
149.9570077165889
 20
-24.9481957116334
 30
0.0
  0
LINE
  5
1AF
330
70
100
AcDbEntity
  8
0
 62
    18
420
        0
370
    25
100
AcDbLine
 10
157.1934366769307
 20
-27.46988657516301
 30
0.0
 11
151.7139182703312
 21
-24.30662793086321
 31
0.0
  0
LINE
  5
1B0
330
70
100
AcDbEntity
  8
0
 62
    18
420
        0
370
    25
100
AcDbLine
 10
156.2211648528312
 20
-29.15391076836282
 30
0.0
 11
149.7044410855319
 21
-25.39188621446315
 31
0.0
  0
LWPOLYLINE
  5
1B1
330
70
100
AcDbEntity
  8
0
 62
    18
420
        0
370
    25
100
AcDbPolyline
 90
        3
 70
     0
 43
0.0
 10
149.7044410855319
 20
-25.39188621446315
 10
149.8818666355313
 20
-25.04599754886317
 10
149.9570077166313
 20
-24.94819571156282
  0
LINE
  5
1B2
330
70
100
AcDbEntity
  8
0
 62
    18
420
        0
370
    25
100
AcDbLine
 10
188.0409700062317
 20
-19.15291139856315
 30
0.0
 11
188.0409700062317
 21
-21.90873663866292
 31
0.0
  0
LINE
  5
1B3
330
70
100
AcDbEntity
  8
0
 62
    18
420
        0
370
    25
100
AcDbLine
 10
170.7168538671311
 20
-31.90973600846323
 30
0.0
 11
188.0409700062317
 21
-21.90873663866292
 31
0.0
  0
LINE
  5
1B4
330
70
100
AcDbEntity
  8
0
 62
    18
420
        0
370
    25
100
AcDbLine
 10
150.0801615626313
 20
-28.36461026916321
 30
0.0
 11
156.2211648528312
 21
-31.90973600846323
 31
0.0
  0
SPLINE
  5
1B5
330
70
100
AcDbEntity
  8
0
 62
    18
420
        0
370
    25
100
AcDbSpline
210
0.0
220
0.0
230
1.0
 70
     8
 71
     3
 72
     8
 73
     4
 74
     0
 42
0.0000000001
 43
0.0000000001
 40
0.0
 40
0.0
 40
0.0
 40
0.0
 40
1.0
 40
1.0
 40
1.0
 40
1.0
 10
149.7044410855422
 20
-25.39188621436497
 30
0.0
 10
149.4888543375259
 20
-26.39672586925156
 30
0.0
 10
149.6213459506319
 20
-27.44500784839811
 30
0.0
 10
150.0801615626338
 20
-28.36461026908685
 30
0.0
  0
LINE
  5
1B6
330
70
100
AcDbEntity
  8
0
 62
    18
420
        0
370
    25
100
AcDbLine
 10
151.7139182703312
 20
-23.84170131316325
 30
0.0
 11
151.7139182703312
 21
-24.30662793086321
 31
0.0
  0
SPLINE
  5
1B7
330
70
100
AcDbEntity
  8
0
 62
    18
420
        0
370
    25
100
AcDbSpline
210
0.0
220
0.0
230
1.0
 70
     8
 71
     3
 72
     8
 73
     4
 74
     0
 42
0.0000000001
 43
0.0000000001
 40
0.0
 40
0.0
 40
0.0
 40
0.0
 40
1.0
 40
1.0
 40
1.0
 40
1.0
 10
150.0801615625786
 20
-28.36461026917027
 30
0.0
 10
150.1067284227192
 20
-28.43454317576338
 30
0.0
 10
150.1569814314431
 20
-28.49294322957185
 30
0.0
 10
150.2221705545044
 20
-28.52964183604192
 30
0.0
  0
LWPOLYLINE
  5
1B8
330
70
100
AcDbEntity
  8
0
 62
    18
420
        0
370
    25
100
AcDbPolyline
 90
       16
 70
     0
 43
0.0
 10
187.0686981821309
 20
-10.22326521286316
 10
187.6902959070315
 20
-10.62179821676288
 10
188.2363267896309
 20
-11.05565708496288
 10
188.7008084012316
 20
-11.52008836906277
 10
189.0786517842309
 20
-12.01000366266328
 10
189.3657172074318
 20
-12.52003535136326
 10
189.5588595218308
 20
-13.04459542116285
 10
189.6559626200313
 20
-13.57793668216293
 10
189.6559626200313
 20
-14.11421573596283
 10
189.5588595218308
 20
-14.64755699706301
 10
189.3657172074318
 20
-15.17211706686325
 10
189.0786517842309
 20
-15.68214875546313
 10
188.7008084012316
 20
-16.17206404906299
 10
188.2363267896309
 20
-16.63649533316288
 10
187.6902959070315
 20
-17.07035420146298
 10
187.0686981821309
 20
-17.46888720526324
  0
SPLINE
  5
1B9
330
70
100
AcDbEntity
  8
0
 62
    18
420
        0
370
    25
100
AcDbSpline
210
0.0
220
0.0
230
1.0
 70
     8
 71
     3
 72
     8
 73
     4
 74
     0
 42
0.0000000001
 43
0.0000000001
 40
0.0
 40
0.0
 40
0.0
 40
0.0
 40
1.0
 40
1.0
 40
1.0
 40
1.0
 10
190.6206882720487
 20
-19.40588191822079
 30
0.0
 10
190.8937978454177
 20
-18.88726792358677
 30
0.0
 10
191.0386548348873
 20
-18.31075881529981
 30
0.0
 10
191.0431254990829
 20
-17.72464506553953
 30
0.0
  0
SPLINE
  5
1BA
330
70
100
AcDbEntity
  8
0
 62
    18
420
        0
370
    25
100
AcDbSpline
210
0.0
220
0.0
230
1.0
 70
     8
 71
     3
 72
     8
 73
     4
 74
     0
 42
0.0000000001
 43
0.0000000001
 40
0.0
 40
0.0
 40
0.0
 40
0.0
 40
1.0
 40
1.0
 40
1.0
 40
1.0
 10
187.0686981820835
 20
-10.22326521288306
 30
0.0
 10
186.4902351573423
 20
-10.59328568687413
 30
0.0
 10
186.1276419777223
 20
-11.22131549461138
 30
0.0
 10
186.0964263579506
 20
-11.90728940610275
 30
0.0
  0
LINE
  5
1BB
330
70
100
AcDbEntity
  8
0
 62
    18
420
        0
370
    25
100
AcDbLine
 10
186.0964263579313
 20
-14.66311464616273
 30
0.0
 11
186.0964263579313
 21
-11.90728940606297
 31
0.0
  0
SPLINE
  5
1BC
330
70
100
AcDbEntity
  8
0
 62
    18
420
        0
370
    25
100
AcDbSpline
210
0.0
220
0.0
230
1.0
 70
     8
 71
     3
 72
     8
 73
     4
 74
     0
 42
0.0000000001
 43
0.0000000001
 40
0.0
 40
0.0
 40
0.0
 40
0.0
 40
1.0
 40
1.0
 40
1.0
 40
1.0
 10
148.531378607483
 20
12.02385583431662
 30
0.0
 10
147.9529155827419
 20
11.65383536032555
 30
0.0
 10
147.5903224031219
 20
11.02580555258894
 30
0.0
 10
147.5591067833515
 20
10.33983164109692
 30
0.0
  0
LINE
  5
1BD
330
70
100
AcDbEntity
  8
0
 62
    18
420
        0
370
    25
100
AcDbLine
 10
148.5313786074317
 20
12.02385583433716
 30
0.0
 11
187.0686981821309
 21
-10.22326521286316
 31
0.0
  0
LINE
  5
1BE
330
70
100
AcDbEntity
  8
0
 62
    18
420
        0
370
    25
100
AcDbLine
 10
186.0964263579313
 20
-11.90728940606297
 30
0.0
 11
147.5591067833309
 21
10.33983164103725
 31
0.0
  0
LINE
  5
1BF
330
70
100
AcDbEntity
  8
0
 62
    18
420
        0
370
    25
100
AcDbLine
 10
147.5591067833309
 20
7.58400640093684
 30
0.0
 11
186.0964263579313
 21
-14.66311464616273
 31
0.0
  0
LINE
  5
1C0
330
70
100
AcDbEntity
  8
0
 62
    18
420
        0
370
    25
100
AcDbLine
 10
147.5591067833309
 20
7.58400640093684
 30
0.0
 11
147.5591067833309
 21
10.33983164103725
 31
0.0
  0
SPLINE
  5
1C1
330
70
100
AcDbEntity
  8
0
 62
    18
420
        0
370
    25
100
AcDbSpline
210
0.0
220
0.0
230
1.0
 70
     8
 71
     3
 72
     8
 73
     4
 74
     0
 42
0.0000000001
 43
0.0000000001
 40
0.0
 40
0.0
 40
0.0
 40
0.0
 40
1.0
 40
1.0
 40
1.0
 40
1.0
 10
167.7933116513338
 20
1.368117370824424
 30
0.0
 10
168.234273401373
 20
1.092943087204176
 30
0.0
 10
168.6816456416391
 20
0.8281772707867702
 30
0.0
 10
169.1350573237683
 20
0.5740395170539699
 30
0.0
  0
LINE
  5
1C2
330
70
100
AcDbEntity
  8
0
 62
    18
420
        0
370
    25
100
AcDbLine
 10
124.135635508931
 20
-8.386024172263141
 30
0.0
 11
118.6561171023315
 21
-5.222765527962691
 31
0.0
  0
LINE
  5
1C3
330
70
100
AcDbEntity
  8
0
 62
    18
420
        0
370
    25
100
AcDbLine
 10
124.135635508931
 20
-10.04183482696305
 30
0.0
 11
124.135635508931
 21
-8.386024172263141
 31
0.0
  0
LWPOLYLINE
  5
1C4
330
70
100
AcDbEntity
  8
0
 62
    18
420
        0
370
    25
100
AcDbPolyline
 90
        3
 70
     0
 43
0.0
 10
124.135635508931
 20
-10.04183482696305
 10
124.1751719630314
 20
-10.53699765086268
 10
124.2005690455314
 20
-10.66881427516291
  0
LINE
  5
1C5
330
70
100
AcDbEntity
  8
0
 62
    18
420
        0
370
    25
100
AcDbLine
 10
124.2005690455314
 20
-10.66881427516291
 30
0.0
 11
117.6838452781307
 21
-6.906789721163137
 31
0.0
  0
SPLINE
  5
1C6
330
70
100
AcDbEntity
  8
0
 62
    18
420
        0
370
    25
100
AcDbSpline
210
0.0
220
0.0
230
1.0
 70
     8
 71
     3
 72
     8
 73
     4
 74
     0
 42
0.0000000001
 43
0.0000000001
 40
0.0
 40
0.0
 40
0.0
 40
0.0
 40
1.0
 40
1.0
 40
1.0
 40
1.0
 10
118.6561171022828
 20
-5.222765527983225
 30
0.0
 10
118.0776540775429
 20
-5.592786001974299
 30
0.0
 10
117.7150608979216
 20
-6.220815809711547
 30
0.0
 10
117.6838452781512
 20
-6.906789721202923
 30
0.0
  0
SPLINE
  5
1C7
330
70
100
AcDbEntity
  8
0
 62
    18
420
        0
370
    25
100
AcDbSpline
210
0.0
220
0.0
230
1.0
 70
     8
 71
     3
 72
     8
 73
     4
 74
     0
 42
0.0000000001
 43
0.0000000001
 40
0.0
 40
0.0
 40
0.0
 40
0.0
 40
1.0
 40
1.0
 40
1.0
 40
1.0
 10
125.8925460626746
 20
-9.027591953033979
 30
0.0
 10
125.4230668565077
 20
-8.576379037616192
 30
0.0
 10
124.7854028469933
 20
-8.343524449438165
 30
0.0
 10
124.1356355089233
 20
-8.386024172266349
 30
0.0
  0
LINE
  5
1C8
330
70
100
AcDbEntity
  8
0
 62
    18
420
        0
370
    25
100
AcDbLine
 10
125.8925460627311
 20
-9.027591953062856
 30
0.0
 11
124.135635508931
 21
-10.04183482696305
 31
0.0
  0
LWPOLYLINE
  5
1C9
330
70
100
AcDbEntity
  8
0
 62
    18
420
        0
370
    25
100
AcDbPolyline
 90
        3
 70
     0
 43
0.0
 10
126.1451126937316
 20
-9.54625312136306
 10
125.9676871437309
 20
-9.12910902576317
 10
125.8925460627311
 20
-9.027591953062856
  0
SPLINE
  5
1CA
330
70
100
AcDbEntity
  8
0
 62
    18
420
        0
370
    25
100
AcDbSpline
210
0.0
220
0.0
230
1.0
 70
     8
 71
     3
 72
     8
 73
     4
 74
     0
 42
0.0000000001
 43
0.0000000001
 40
0.0
 40
0.0
 40
0.0
 40
0.0
 40
1.0
 40
1.0
 40
1.0
 40
1.0
 10
125.7693922166541
 20
-12.08517954685739
 30
0.0
 10
126.2810568179702
 20
-11.34272209603651
 30
0.0
 10
126.4198128461965
 20
-10.40507997046362
 30
0.0
 10
126.145112693747
 20
-9.546253121347017
 30
0.0
  0
SPLINE
  5
1CB
330
70
100
AcDbEntity
  8
0
 62
    18
420
        0
370
    25
100
AcDbSpline
210
0.0
220
0.0
230
1.0
 70
     8
 71
     3
 72
     8
 73
     4
 74
     0
 42
0.0000000001
 43
0.0000000001
 40
0.0
 40
0.0
 40
0.0
 40
0.0
 40
1.0
 40
1.0
 40
1.0
 40
1.0
 10
125.4620198711857
 20
-12.31597449970402
 30
0.0
 10
125.5748387898273
 20
-12.25390785632075
 30
0.0
 10
125.6783195612948
 20
-12.17620782856315
 30
0.0
 10
125.7693922166348
 20
-12.08517954683814
 30
0.0
  0
LWPOLYLINE
  5
1CC
330
70
100
AcDbEntity
  8
0
 62
    18
420
        0
370
    25
100
AcDbPolyline
 90
        6
 70
     0
 43
0.0
 10
123.8248485684307
 20
-13.20774070066302
 10
123.7894501041319
 20
-13.25294533256268
 10
123.7886905496317
 20
-13.27090135116305
 10
123.8113318372312
 20
-13.2652850574628
 10
123.8473477225319
 20
-13.24769038156282
 10
123.8710296135307
 20
-13.23443362556314
  0
SPLINE
  5
1CD
330
70
100
AcDbEntity
  8
0
 62
    18
420
        0
370
    25
100
AcDbSpline
210
0.0
220
0.0
230
1.0
 70
     8
 71
     3
 72
     8
 73
     4
 74
     0
 42
0.0000000001
 43
0.0000000001
 40
0.0
 40
0.0
 40
0.0
 40
0.0
 40
1.0
 40
1.0
 40
1.0
 40
1.0
 10
123.8248485684551
 20
-13.20774070065725
 30
0.0
 10
124.3365131697699
 20
-12.46528324983636
 30
0.0
 10
124.4752691979963
 20
-11.52764112426412
 30
0.0
 10
124.2005690455468
 20
-10.66881427514751
 30
0.0
  0
LINE
  5
1CE
330
70
100
AcDbEntity
  8
0
 62
    18
420
        0
370
    25
100
AcDbLine
 10
123.8710296135307
 20
-13.23443362556314
 30
0.0
 11
125.4620198712307
 21
-12.31597449976306
 31
0.0
  0
LINE
  5
1CF
330
70
100
AcDbEntity
  8
0
 62
    18
420
        0
370
    25
100
AcDbLine
 10
117.6838452781307
 20
-9.662614961262903
 30
0.0
 11
123.8248485684307
 21
-13.20774070066302
 31
0.0
  0
LINE
  5
1D0
330
70
100
AcDbEntity
  8
0
 62
    18
420
        0
370
    25
100
AcDbLine
 10
117.6838452781307
 20
-6.906789721163137
 30
0.0
 11
117.6838452781307
 21
-9.662614961262903
 31
0.0
  0
LWPOLYLINE
  5
1D1
330
70
100
AcDbEntity
  8
0
 62
    18
420
        0
370
    25
100
AcDbPolyline
 90
       16
 70
     0
 43
0.0
 10
118.6561171023315
 20
-5.222765527962691
 10
118.034519377431
 20
-4.824232524163075
 10
117.4884884948316
 20
-4.390373655862969
 10
117.0240068831308
 20
-3.925942371763086
 10
116.6461635001315
 20
-3.436027078163216
 10
116.3590980770306
 20
-2.925995389463239
 10
116.1659557625316
 20
-2.401435319662998
 10
116.0688526644311
 20
-1.868094058662924
 10
116.0688526644311
 20
-1.33181500486302
 10
116.1659557625316
 20
-0.7984737438629464
 10
116.3590980770306
 20
-0.2739136740627059
 10
116.6461635001315
 20
0.2361180146372708
 10
117.0240068831308
 20
0.7260333082371407
 10
117.4884884948316
 20
1.190464592337023
 10
118.034519377431
 20
1.624323460637129
 10
118.6561171023315
 20
2.022856464436745
  0
SPLINE
  5
1D2
330
70
100
AcDbEntity
  8
0
 62
    18
420
        0
370
    25
100
AcDbSpline
210
0.0
220
0.0
230
1.0
 70
     8
 71
     3
 72
     8
 73
     4
 74
     0
 42
0.0000000001
 43
0.0000000001
 40
0.0
 40
0.0
 40
0.0
 40
0.0
 40
1.0
 40
1.0
 40
1.0
 40
1.0
 10
114.681689785309
 20
-5.478523388163257
 30
0.0
 10
114.6862743309039
 20
-6.070713253221705
 30
0.0
 10
114.8340353012392
 20
-6.653006851064777
 30
0.0
 10
115.1123678616613
 20
-7.17573129103877
 30
0.0
  0
SPLINE
  5
1D3
330
70
100
AcDbEntity
  8
0
 62
    18
420
        0
370
    25
100
AcDbSpline
210
0.0
220
0.0
230
1.0
 70
     8
 71
     3
 72
     8
 73
     4
 74
     0
 42
0.0000000001
 43
0.0000000001
 40
0.0
 40
0.0
 40
0.0
 40
0.0
 40
1.0
 40
1.0
 40
1.0
 40
1.0
 10
119.6283889264118
 20
0.3388322711971556
 30
0.0
 10
119.5971733066414
 20
1.024806182688531
 30
0.0
 10
119.2345801270201
 20
1.652835990425779
 30
0.0
 10
118.6561171022789
 20
2.022856464416852
 30
0.0
  0
LINE
  5
1D4
330
70
100
AcDbEntity
  8
0
 62
    18
420
        0
370
    25
100
AcDbLine
 10
119.628388926431
 20
-2.416992968862824
 30
0.0
 11
119.628388926431
 21
0.3388322712369409
 31
0.0
  0
LINE
  5
1D5
330
70
100
AcDbEntity
  8
0
 62
    18
420
        0
370
    25
100
AcDbLine
 10
118.6561171023315
 20
2.022856464436745
 30
0.0
 11
135.9802332413308
 21
12.02385583433716
 31
0.0
  0
SPLINE
  5
1D6
330
70
100
AcDbEntity
  8
0
 62
    18
420
        0
370
    25
100
AcDbSpline
210
0.0
220
0.0
230
1.0
 70
     8
 71
     3
 72
     8
 73
     4
 74
     0
 42
0.0000000001
 43
0.0000000001
 40
0.0
 40
0.0
 40
0.0
 40
0.0
 40
1.0
 40
1.0
 40
1.0
 40
1.0
 10
136.9525050655111
 20
10.33983164109692
 30
0.0
 10
136.9212894457407
 20
11.02580555258894
 30
0.0
 10
136.5586962661207
 20
11.65383536032555
 30
0.0
 10
135.9802332413795
 20
12.02385583431726
 30
0.0
  0
LINE
  5
1D7
330
70
100
AcDbEntity
  8
0
 62
    18
420
        0
370
    25
100
AcDbLine
 10
136.9525050655316
 20
10.33983164103725
 30
0.0
 11
119.628388926431
 21
0.3388322712369409
 31
0.0
  0
LINE
  5
1D8
330
70
100
AcDbEntity
  8
0
 62
    18
420
        0
370
    25
100
AcDbLine
 10
136.9525050655316
 20
7.58400640093684
 30
0.0
 11
136.9525050655316
 21
10.33983164103725
 31
0.0
  0
LINE
  5
1D9
330
70
100
AcDbEntity
  8
0
 62
    18
420
        0
370
    25
100
AcDbLine
 10
119.628388926431
 20
-2.416992968862824
 30
0.0
 11
136.9525050655316
 21
7.58400640093684
 31
0.0
  0
SPLINE
  5
1DA
330
70
100
AcDbEntity
  8
0
 62
    18
420
        0
370
    25
100
AcDbSpline
210
0.0
220
0.0
230
1.0
 70
     8
 71
     3
 72
     8
 73
     4
 74
     0
 42
0.0000000001
 43
0.0000000001
 40
0.0
 40
0.0
 40
0.0
 40
0.0
 40
1.0
 40
1.0
 40
1.0
 40
1.0
 10
148.5313786074535
 20
12.02385583426978
 30
0.0
 10
144.5976350384569
 20
14.069152650319
 30
0.0
 10
139.9139768104056
 20
14.069152650319
 30
0.0
 10
135.9802332414091
 20
12.02385583426978
 30
0.0
  0
SPLINE
  5
1DB
330
70
100
AcDbEntity
  8
0
 62
    18
420
        0
370
    25
100
AcDbSpline
210
0.0
220
0.0
230
1.0
 70
     8
 71
     3
 72
     8
 73
     4
 74
     0
 42
0.0000000001
 43
0.0000000001
 40
0.0
 40
0.0
 40
0.0
 40
0.0
 40
1.0
 40
1.0
 40
1.0
 40
1.0
 10
147.5591067833232
 20
10.33983164111297
 30
0.0
 10
144.2348823129647
 20
12.06852094124695
 30
0.0
 10
140.2767295358978
 20
12.06852094124695
 30
0.0
 10
136.9525050655393
 20
10.33983164111297
 30
0.0
  0
SPLINE
  5
1DC
330
70
100
AcDbEntity
  8
0
 62
    18
420
        0
370
    25
100
AcDbSpline
210
0.0
220
0.0
230
1.0
 70
     8
 71
     3
 72
     8
 73
     4
 74
     0
 42
0.0000000001
 43
0.0000000001
 40
0.0
 40
0.0
 40
0.0
 40
0.0
 40
1.0
 40
1.0
 40
1.0
 40
1.0
 10
147.5591067833232
 20
7.584006400912455
 30
0.0
 10
144.2348823129647
 20
9.312695701047077
 30
0.0
 10
140.2767295358978
 20
9.312695701047077
 30
0.0
 10
136.9525050655393
 20
7.584006400912455
 30
0.0
  0
SPLINE
  5
1DD
330
70
100
AcDbEntity
  8
0
 62
    18
420
        0
370
    25
100
AcDbSpline
210
0.0
220
0.0
230
1.0
 70
     8
 71
     3
 72
     8
 73
     4
 74
     0
 42
0.0000000001
 43
0.0000000001
 40
0.0
 40
0.0
 40
0.0
 40
0.0
 40
1.0
 40
1.0
 40
1.0
 40
1.0
 10
169.9256653990063
 20
0.1381235783506373
 30
0.0
 10
169.6367373185768
 20
0.6093252076228955
 30
0.0
 10
169.241808027881
 20
1.006579161068341
 30
0.0
 10
168.7723102188988
 20
1.29826772520916
 30
0.0
  0
SPLINE
  5
1DE
330
70
100
AcDbEntity
  8
0
 62
    18
420
        0
370
    25
100
AcDbSpline
210
0.0
220
0.0
230
1.0
 70
     8
 71
     3
 72
     8
 73
     4
 74
     0
 42
0.0000000001
 43
0.0000000001
 40
0.0
 40
0.0
 40
0.0
 40
0.0
 40
1.0
 40
1.0
 40
1.0
 40
1.0
 10
168.7723102189411
 20
1.298267725253437
 30
0.0
 10
168.4363755897391
 20
1.534018190976231
 30
0.0
 10
168.0089476055344
 20
1.597572093913349
 30
0.0
 10
167.6189550388323
 20
1.46975912468876
 30
0.0
  0
LWPOLYLINE
  5
1DF
330
70
100
AcDbEntity
  8
0
 62
    18
420
        0
370
    25
100
AcDbPolyline
 90
       17
 70
     0
 43
0.0
 10
172.307844124831
 20
4.587495899037279
 10
172.7534771306319
 20
4.289737499336966
 10
173.1881371728312
 20
3.918311016836947
 10
173.6011214786309
 20
3.482362204337165
 10
173.9822610038309
 20
2.992625568437192
 10
174.3221708285316
 20
2.461160050336834
 10
174.6124812444314
 20
1.901052094937104
 10
174.8460438459307
 20
1.326093419037253
 10
175.0171075464315
 20
0.7504414134373225
 10
175.1214601900319
 20
0.1882705410367723
 10
175.1565322682317
 20
-0.3465766856627451
 10
175.1214601900319
 20
-0.8409305528631669
 10
175.0171075464315
 20
-1.282618427563024
 10
174.8460438459307
 20
-1.660764488562839
 10
174.6124812444314
 20
-1.966057524762933
 10
174.3221708285316
 20
-2.190980208463263
 10
174.1232837028316
 20
-2.28510988846272
  0
SPLINE
  5
1E0
330
70
100
AcDbEntity
  8
0
 62
    18
420
        0
370
    25
100
AcDbSpline
210
0.0
220
0.0
230
1.0
 70
     8
 71
     3
 72
     8
 73
     4
 74
     0
 42
0.0000000001
 43
0.0000000001
 40
0.0
 40
0.0
 40
0.0
 40
0.0
 40
1.0
 40
1.0
 40
1.0
 40
1.0
 10
172.3078441248631
 20
4.587495899053964
 30
0.0
 10
171.5861708342393
 20
5.149617603277986
 30
0.0
 10
170.5601914181125
 20
5.092169909815349
 30
0.0
 10
169.9057822394069
 20
4.452997182311267
 30
0.0
  0
SPLINE
  5
1E1
330
70
100
AcDbEntity
  8
0
 62
     8
420
  8421504
370
    25
100
AcDbSpline
210
0.0
220
0.0
230
1.0
 70
     8
 71
     3
 72
     8
 73
     4
 74
     0
 42
0.0000000001
 43
0.0000000001
 40
0.0
 40
0.0
 40
0.0
 40
0.0
 40
1.0
 40
1.0
 40
1.0
 40
1.0
 10
163.1467295215197
 20
6.848422738415171
 30
0.0
 10
163.1544762940271
 20
5.846933664244212
 30
0.0
 10
163.2609314777324
 20
4.848647313576382
 30
0.0
 10
163.4645507433988
 20
3.868045675388347
 30
0.0
  0
LWPOLYLINE
  5
1E2
330
70
100
AcDbEntity
  8
0
 62
     8
420
  8421504
370
    25
100
AcDbPolyline
 90
       18
 70
     0
 43
0.0
 10
166.5448274777315
 20
-3.46078214836303
 10
167.0493136297316
 20
-4.202262252962794
 10
167.7245578037307
 20
-5.104030346162672
 10
168.4354143674307
 20
-5.95743105756316
 10
169.1766203875308
 20
-6.75614610676325
 10
169.9426882339309
 20
-7.494262086962851
 10
170.7279462083317
 20
-8.166314245762734
 10
171.5265805354317
 20
-8.767326944063087
 10
172.3326784061318
 20
-9.292850494163051
 10
173.1402717538315
 20
-9.738994103562689
 10
173.9433814398307
 20
-10.10245468096312
 10
174.7360615211313
 20
-10.38054129156323
 10
175.5124432717307
 20
-10.57119507936293
 10
176.2667786326314
 20
-10.67300451026303
 10
176.9934827689317
 20
-10.68521582306274
 10
177.6871754173317
 20
-10.60773860936319
 10
178.3427207202313
 20
-10.4411464833627
 10
178.524513029631
 20
-10.37650741206305
  0
LWPOLYLINE
  5
1E3
330
70
100
AcDbEntity
  8
0
 62
     8
420
  8421504
370
    25
100
AcDbPolyline
 90
       42
 70
     0
 43
0.0
 10
181.6047897639317
 20
-6.60409140546298
 10
181.7061109228319
 20
-6.180427760662964
 10
181.8444781583312
 20
-5.341297144762934
 10
181.9139188333314
 20
-4.452042506662674
 10
181.9139188333314
 20
-3.519247576563155
 10
181.8444781583312
 20
-2.549818441663157
 10
181.7061109228319
 20
-1.550932416263225
 10
181.4998415494307
 20
-0.5299849028632828
 10
181.2271971844317
 20
0.5054653602367912
 10
180.8901963912315
 20
1.547752261636804
 10
180.4913342058313
 20
2.589159073737278
 10
180.0335636644319
 20
3.621975584836768
 10
179.5202739397307
 20
4.63855518293684
 10
178.9552652494317
 20
5.631371468237067
 10
178.3427207202313
 20
6.593073976437299
 10
177.6871754173317
 20
7.516542598536774
 10
176.9934827689317
 20
8.394940295937274
 10
176.2667786326314
 20
9.22176371953712
 10
175.5124432717307
 20
9.990891357937337
 10
174.7360615211313
 20
10.69662885913682
 10
173.9433814398307
 20
11.33375118963689
 10
173.1402717538315
 20
11.89754131863707
 10
172.3326784061318
 20
12.38382514113724
 10
171.5265805354317
 20
12.78900238203692
 10
170.7279462083317
 20
13.11007325073674
 10
169.9426882339309
 20
13.34466065083694
 10
169.1766203875308
 20
13.49102777933674
 10
168.4354143674307
 20
13.54809098513695
 10
167.7245578037307
 20
13.51542779233728
 10
167.0493136297316
 20
13.39328002773682
 10
166.4146811169312
 20
13.18255203063689
 10
165.8253588626307
 20
12.8848039574373
 10
165.2857100024314
 20
12.50224023073728
 10
164.7997299077315
 20
12.03769321833709
 10
164.3710166051315
 20
11.49460226403681
 10
164.0027441379311
 20
10.87698822303689
 10
163.6976390666319
 20
10.18942369373723
 10
163.4579602825315
 20
9.436999163337329
 10
163.2854822832309
 20
8.625285319737097
 10
163.181482035831
 20
7.760291808437119
 10
163.1467295214311
 20
6.848422738436989
 10
163.1467295214311
 20
6.848422738436989
  0
LWPOLYLINE
  5
1E4
330
70
100
AcDbEntity
  8
0
 62
     8
420
  8421504
370
    25
100
AcDbPolyline
 90
       33
 70
     0
 43
0.0
 10
166.1134272662314
 20
13.5970175014371
 10
166.3819563820313
 20
13.73200514103706
 10
167.0093778915318
 20
13.96918013193671
 10
167.6780317805315
 20
14.11982353583685
 10
168.3832279224309
 20
14.18287869753703
 10
169.1200198730309
 20
14.15790333033723
 10
169.8832395661316
 20
14.04507261853724
 10
170.6675335640311
 20
13.84517798843731
 10
171.4674006077313
 20
13.55962155733732
 10
172.277230204631
 20
13.19040629843695
 10
173.0913419820318
 20
12.74012199133709
 10
173.9040255308314
 20
12.21192705713711
 10
174.7095804596316
 20
11.60952640363704
 10
175.5023563796308
 20
10.93714543853684
 10
176.2767925371317
 20
10.19950043143689
 10
177.0274568191311
 20
9.401765431937258
 10
177.7490838549318
 20
8.549535977837107
 10
178.4366119493314
 20
7.64878984653698
 10
179.0852185868311
 20
6.705845124837282
 10
179.6903542578311
 20
5.727315892637291
 10
180.2477743704309
 20
4.720065829236821
 10
180.7535690230319
 20
3.691160070236703
 10
181.2041904295317
 20
2.647815650137127
 10
181.5964778045317
 20
1.597350880637078
 10
181.9276795339317
 20
0.5471340171368002
 10
182.195472475731
 20
-0.4954684235629491
 10
182.3979782546309
 20
-1.523143334462812
 10
182.5337764382311
 20
-2.528682314462866
 10
182.6019144997314
 20
-3.505032230063044
 10
182.6019144997314
 20
-4.445344688163187
 10
182.5337764382311
 20
-5.34302407246278
 10
182.3979782546309
 20
-6.191773807063142
 10
182.2060036050309
 20
-6.951164768163163
  0
LWPOLYLINE
  5
1E5
330
70
100
AcDbEntity
  8
0
 62
     8
420
  8421504
370
    25
100
AcDbPolyline
 90
       27
 70
     0
 43
0.0
 10
175.1362712496317
 20
-0.3348802485628807
 10
175.1014486181318
 20
0.1961629289368337
 10
174.9978381727308
 20
0.7543354155368231
 10
174.8279911461309
 20
1.325893151936752
 10
174.5960897361307
 20
1.896762489937145
 10
174.3078441248311
 20
2.45288673163705
 10
173.970351875931
 20
2.980572252736935
 10
173.5919231686314
 20
3.466825684337226
 10
173.1818761737315
 20
3.899673853137103
 10
172.7503076090311
 20
4.268458600636748
 10
172.307844124831
 20
4.564099222637269
 10
171.8653806406309
 20
4.779316065536941
 10
171.4338120759317
 20
4.908809776737067
 10
171.0237650810307
 20
4.949391791037098
 10
170.645336373731
 20
4.900062844636778
 10
170.3078441248309
 20
4.762037580037272
 10
170.0195985135314
 20
4.538714637136841
 10
169.7876971035311
 20
4.235592968136775
 10
169.6178500770313
 20
3.86013643433722
 10
169.5142396315315
 20
3.421590021836909
 10
169.4794170001317
 20
2.93075219873733
 10
169.5142396315315
 20
2.399709021136869
 10
169.6178500770313
 20
1.84153653453688
 10
169.7876971035311
 20
1.26997879813695
 10
170.0195985135314
 20
0.6991094601371993
 10
170.3078441248309
 20
0.1429852184372944
 10
170.5243652987316
 20
-0.2074985169632852
  0
SPLINE
  5
1E6
330
70
100
AcDbEntity
  8
0
 62
     8
420
  8421504
370
    25
100
AcDbSpline
210
0.0
220
0.0
230
1.0
 70
     8
 71
     3
 72
     8
 73
     4
 74
     0
 42
0.0000000001
 43
0.0000000001
 40
0.0
 40
0.0
 40
0.0
 40
0.0
 40
1.0
 40
1.0
 40
1.0
 40
1.0
 10
174.091322950942
 20
-2.266659339182419
 30
0.0
 10
174.8174358935531
 20
-1.913002107289252
 30
0.0
 10
175.2376543247452
 20
-1.136151061266726
 30
0.0
 10
175.1362712495804
 20
-0.3348802486398845
 30
0.0
  0
SPLINE
  5
1E7
330
70
100
AcDbEntity
  8
0
 62
     8
420
  8421504
370
    25
100
AcDbSpline
210
0.0
220
0.0
230
1.0
 70
     8
 71
     3
 72
     8
 73
     4
 74
     0
 42
0.0000000001
 43
0.0000000001
 40
0.0
 40
0.0
 40
0.0
 40
0.0
 40
1.0
 40
1.0
 40
1.0
 40
1.0
 10
169.7445820430265
 20
-27.46988657510655
 30
0.0
 10
169.5444128320201
 20
-27.32656447433754
 30
0.0
 10
169.2831842068716
 20
-27.30034142883742
 30
0.0
 10
169.0585216114127
 20
-27.40101742302224
 30
0.0
  0
SPLINE
  5
1E8
330
70
100
AcDbEntity
  8
0
 62
     8
420
  8421504
370
    25
100
AcDbSpline
210
0.0
220
0.0
230
1.0
 70
     8
 71
     3
 72
     8
 73
     4
 74
     0
 42
0.0000000001
 43
0.0000000001
 40
0.0
 40
0.0
 40
0.0
 40
0.0
 40
1.0
 40
1.0
 40
1.0
 40
1.0
 10
157.8807505855241
 20
-27.40173785967666
 30
0.0
 10
157.655887874142
 20
-27.30025004522159
 30
0.0
 10
157.3939915481203
 20
-27.32621765328063
 30
0.0
 10
157.1934366769332
 20
-27.46988657509756
 30
0.0
  0
SPLINE
  5
1E9
330
70
100
AcDbEntity
  8
0
 62
     8
420
  8421504
370
    25
100
AcDbSpline
210
0.0
220
0.0
230
1.0
 70
     8
 71
     3
 72
     8
 73
     4
 74
     0
 42
0.0000000001
 43
0.0000000001
 40
0.0
 40
0.0
 40
0.0
 40
0.0
 40
1.0
 40
1.0
 40
1.0
 40
1.0
 10
156.2211648528633
 20
-31.90973600843563
 30
0.0
 10
156.2167713628901
 20
-31.95438706850147
 30
0.0
 10
156.2364958477379
 20
-31.99799752500695
 30
0.0
 10
156.2729281154103
 20
-32.02418358601929
 30
0.0
  0
SPLINE
  5
1EA
330
70
100
AcDbEntity
  8
0
 62
     8
420
  8421504
370
    25
100
AcDbSpline
210
0.0
220
0.0
230
1.0
 70
     8
 71
     3
 72
     8
 73
     4
 74
     0
 42
0.0000000001
 43
0.0000000001
 40
0.0
 40
0.0
 40
0.0
 40
0.0
 40
1.0
 40
1.0
 40
1.0
 40
1.0
 10
170.6650906641144
 20
-32.02418355172753
 30
0.0
 10
170.7015228936007
 20
-31.99799747956824
 30
0.0
 10
170.721247352022
 20
-31.95438704446535
 30
0.0
 10
170.7168538671657
 20
-31.90973600851585
 30
0.0
  0
SPLINE
  5
1EB
330
70
100
AcDbEntity
  8
0
 62
     8
420
  8421504
370
    25
100
AcDbSpline
210
0.0
220
0.0
230
1.0
 70
     8
 71
     3
 72
     8
 73
     4
 74
     0
 42
0.0000000001
 43
0.0000000001
 40
0.0
 40
0.0
 40
0.0
 40
0.0
 40
1.0
 40
1.0
 40
1.0
 40
1.0
 10
187.0686981821502
 20
-17.46888720532485
 30
0.0
 10
186.8681032063299
 20
-17.32518220552271
 30
0.0
 10
186.6061374119633
 20
-17.29924126581993
 30
0.0
 10
186.3812540534629
 20
-17.40081363589414
 30
0.0
  0
SPLINE
  5
1EC
330
70
100
AcDbEntity
  8
0
 62
     8
420
  8421504
370
    25
100
AcDbSpline
210
0.0
220
0.0
230
1.0
 70
     8
 71
     3
 72
     8
 73
     4
 74
     0
 42
0.0000000001
 43
0.0000000001
 40
0.0
 40
0.0
 40
0.0
 40
0.0
 40
1.0
 40
1.0
 40
1.0
 40
1.0
 10
187.9891831525242
 20
-22.02319784025192
 30
0.0
 10
188.0260557036875
 20
-21.99736661268931
 30
0.0
 10
188.0459093898498
 20
-21.95348526806922
 30
0.0
 10
188.0409700062407
 20
-21.90873663863468
 30
0.0
  0
LWPOLYLINE
  5
1ED
330
70
100
AcDbEntity
  8
0
 62
     8
420
  8421504
370
    25
100
AcDbPolyline
 90
       10
 70
     0
 43
0.0
 10
170.671358738331
 20
-37.57459570976315
 10
170.6514372791311
 20
-37.67372346406296
 10
170.5401068443314
 20
-37.81928044046293
 10
170.3452110491312
 20
-37.93179138816302
 10
170.0930716508311
 20
-37.99606108016328
 10
169.8177414721313
 20
-38.00340953846283
 10
169.5564053794309
 20
-37.95284431306307
 10
169.3443582601312
 20
-37.85119451786273
 10
169.2102382526319
 20
-37.71218852086301
 10
169.1713587383313
 20
-37.57459570976315
  0
LWPOLYLINE
  5
1EE
330
70
100
AcDbEntity
  8
0
 62
     8
420
  8421504
370
    25
100
AcDbPolyline
 90
       10
 70
     0
 43
0.0
 10
155.4685629428316
 20
-32.16522846856278
 10
155.4486414836317
 20
-32.26435622296268
 10
155.3373110487318
 20
-32.40991319936266
 10
155.1424152536318
 20
-32.52242414706275
 10
154.8902758553317
 20
-32.58669383906302
 10
154.6149456766307
 20
-32.59404229736321
 10
154.3536095839314
 20
-32.54347707196281
 10
154.1415624646318
 20
-32.441827276663
 10
154.0074424571312
 20
-32.30282127976274
 10
153.9685629428319
 20
-32.16522846856278
  0
SPLINE
  5
1EF
330
70
100
AcDbEntity
  8
0
 62
     8
420
  8421504
370
    25
100
AcDbSpline
210
0.0
220
0.0
230
1.0
 70
     8
 71
     3
 72
     8
 73
     4
 74
     0
 42
0.0000000001
 43
0.0000000001
 40
0.0
 40
0.0
 40
0.0
 40
0.0
 40
1.0
 40
1.0
 40
1.0
 40
1.0
 10
153.3248880116629
 20
-32.53602950515825
 30
0.0
 10
153.2033162218507
 20
-32.47566106207318
 30
0.0
 10
153.0579065933281
 20
-32.49028988760154
 30
0.0
 10
152.95079598984
 20
-32.5736647496354
 30
0.0
  0
LWPOLYLINE
  5
1F0
330
70
100
AcDbEntity
  8
0
 62
     8
420
  8421504
370
    25
100
AcDbPolyline
 90
        8
 70
     0
 43
0.0
 10
152.5756457777313
 20
-33.83550259616309
 10
152.5275834451317
 20
-33.79944259156304
 10
152.4407109139315
 20
-33.64812895506308
 10
152.422728198631
 20
-33.43441174466295
 10
152.476063964631
 20
-33.18715465396294
 10
152.5935149213318
 20
-32.93975112326328
 10
152.7592186660318
 20
-32.72561437006326
 10
152.950795989831
 20
-32.57366474956289
  0
SPLINE
  5
1F1
330
70
100
AcDbEntity
  8
0
 62
     8
420
  8421504
370
    25
100
AcDbSpline
210
0.0
220
0.0
230
1.0
 70
     8
 71
     3
 72
     8
 73
     4
 74
     0
 42
0.0000000001
 43
0.0000000001
 40
0.0
 40
0.0
 40
0.0
 40
0.0
 40
1.0
 40
1.0
 40
1.0
 40
1.0
 10
168.5276838071636
 20
-37.94539674625787
 30
0.0
 10
168.4061120173502
 20
-37.88502830317345
 30
0.0
 10
168.2607023888288
 20
-37.8996571287018
 30
0.0
 10
168.1535917853407
 20
-37.98303199073567
 30
0.0
  0
LWPOLYLINE
  5
1F2
330
70
100
AcDbEntity
  8
0
 62
     8
420
  8421504
370
    25
100
AcDbPolyline
 90
        8
 70
     0
 43
0.0
 10
167.7784415732307
 20
-39.24486983726271
 10
167.7303792407312
 20
-39.20880983276278
 10
167.643506709431
 20
-39.0574961961627
 10
167.6255239941317
 20
-38.84377898586268
 10
167.6788597601318
 20
-38.59652189516267
 10
167.7963107168312
 20
-38.3491183643629
 10
167.9620144615312
 20
-38.13498161116288
 10
168.1535917853317
 20
-37.98303199076326
  0
LWPOLYLINE
  5
1F3
330
70
100
AcDbEntity
  8
0
 62
     8
420
  8421504
370
    25
100
AcDbPolyline
 90
       10
 70
     0
 43
0.0
 10
176.3282129878311
 20
-34.30896326246294
 10
176.3082915286312
 20
-34.40809101676274
 10
176.1969610937313
 20
-34.55364799316272
 10
176.0020652986313
 20
-34.66615894086281
 10
175.7499259003311
 20
-34.73042863286308
 10
175.4745957216314
 20
-34.73777709116326
 10
175.213259628931
 20
-34.68721186576286
 10
175.0012125096312
 20
-34.58556207056316
 10
174.8670925021307
 20
-34.4465560735628
 10
174.8282129878314
 20
-34.30896326246294
  0
SPLINE
  5
1F4
330
70
100
AcDbEntity
  8
0
 62
     8
420
  8421504
370
    25
100
AcDbSpline
210
0.0
220
0.0
230
1.0
 70
     8
 71
     3
 72
     8
 73
     4
 74
     0
 42
0.0000000001
 43
0.0000000001
 40
0.0
 40
0.0
 40
0.0
 40
0.0
 40
1.0
 40
1.0
 40
1.0
 40
1.0
 10
123.2737273141511
 20
-15.18786133548082
 30
0.0
 10
123.1520341670367
 20
-15.12689916454533
 30
0.0
 10
123.0061313046521
 20
-15.14134707124583
 30
0.0
 10
122.898757789412
 20
-15.22499237335235
 30
0.0
  0
LWPOLYLINE
  5
1F5
330
70
100
AcDbEntity
  8
0
 62
     8
420
  8421504
370
    25
100
AcDbPolyline
 90
        8
 70
     0
 43
0.0
 10
122.5237882647307
 20
-16.48693462906296
 10
122.4755452447306
 20
-16.45077021536277
 10
122.3886727134317
 20
-16.2994565788628
 10
122.3706899982313
 20
-16.08573936846267
 10
122.4240257642313
 20
-15.83848227776266
 10
122.5414767208307
 20
-15.5910787469629
 10
122.7071804655307
 20
-15.37694199386298
 10
122.8987577894312
 20
-15.22499237336325
  0
LWPOLYLINE
  5
1F6
330
70
100
AcDbEntity
  8
0
 62
     8
420
  8421504
370
    25
100
AcDbPolyline
 90
        5
 70
     0
 43
0.0
 10
120.2256912258312
 20
-11.79325148636303
 10
120.1774482059313
 20
-11.75708707276294
 10
120.090575674631
 20
-11.60577343616287
 10
120.0725929593319
 20
-11.39205622576274
 10
120.1224700253316
 20
-11.15496834956323
  0
SPLINE
  5
1F7
330
70
100
AcDbEntity
  8
0
 62
     8
420
  8421504
370
    25
100
AcDbSpline
210
0.0
220
0.0
230
1.0
 70
     8
 71
     3
 72
     8
 73
     4
 74
     0
 42
0.0000000001
 43
0.0000000001
 40
0.0
 40
0.0
 40
0.0
 40
0.0
 40
1.0
 40
1.0
 40
1.0
 40
1.0
 10
174.1845380566637
 20
-34.67976429895766
 30
0.0
 10
174.0629662668502
 20
-34.61939585587324
 30
0.0
 10
173.9175566383289
 20
-34.63402468140158
 30
0.0
 10
173.8104460348407
 20
-34.71739954343546
 30
0.0
  0
LWPOLYLINE
  5
1F8
330
70
100
AcDbEntity
  8
0
 62
     8
420
  8421504
370
    25
100
AcDbPolyline
 90
        8
 70
     0
 43
0.0
 10
173.4352958227308
 20
-35.97923738996315
 10
173.3872334901311
 20
-35.94317738546321
 10
173.300360958931
 20
-35.79186374886314
 10
173.2823782436318
 20
-35.57814653856311
 10
173.3357140096318
 20
-35.33088944786309
 10
173.4531649663313
 20
-35.08348591706269
 10
173.6188687110312
 20
-34.86934916386267
 10
173.8104460348317
 20
-34.71739954346305
  0
LWPOLYLINE
  5
1F9
330
70
100
AcDbEntity
  8
0
 62
     8
420
  8421504
370
    25
100
AcDbPolyline
 90
       10
 70
     0
 43
0.0
 10
181.9850672373312
 20
-31.04333081516273
 10
181.9651457781312
 20
-31.14245856956328
 10
181.8538153432314
 20
-31.28801554596325
 10
181.6589195481313
 20
-31.40052649356324
 10
181.4067801497311
 20
-31.46479618556286
 10
181.1314499711315
 20
-31.47214464386305
 10
180.870113878431
 20
-31.42157941846329
 10
180.6580667590312
 20
-31.31992962326295
 10
180.5239467516308
 20
-31.18092362626323
 10
180.4850672373314
 20
-31.04333081516273
  0
SPLINE
  5
1FA
330
70
100
AcDbEntity
  8
0
 62
     8
420
  8421504
370
    25
100
AcDbSpline
210
0.0
220
0.0
230
1.0
 70
     8
 71
     3
 72
     8
 73
     4
 74
     0
 42
0.0000000001
 43
0.0000000001
 40
0.0
 40
0.0
 40
0.0
 40
0.0
 40
1.0
 40
1.0
 40
1.0
 40
1.0
 10
187.7562751404402
 20
-10.15526835397474
 30
0.0
 10
187.5326120149897
 20
-10.04638384425799
 30
0.0
 10
187.266701515475
 20
-10.0726806514687
 30
0.0
 10
187.0686981821451
 20
-10.2232652128715
 30
0.0
  0
LWPOLYLINE
  5
1FB
330
70
100
AcDbEntity
  8
0
 62
     8
420
  8421504
370
    25
100
AcDbPolyline
 90
       10
 70
     0
 43
0.0
 10
191.0431136408312
 20
-14.95981905066297
 10
191.0431254990316
 20
-14.96881982546286
 10
190.993768947431
 20
-15.54880675496267
 10
190.8461746232317
 20
-16.12320809326282
 10
190.6017639403309
 20
-16.68649204156269
 10
190.2628907073312
 20
-17.2332338674632
 10
189.8328184586313
 20
-17.75816814826269
 10
189.3156890251315
 20
-18.25623947986308
 10
188.7164826460316
 20
-18.72265116306316
 10
188.0409700062317
 20
-19.15291139856315
  0
SPLINE
  5
1FC
330
70
100
AcDbEntity
  8
0
 62
     8
420
  8421504
370
    25
100
AcDbSpline
210
0.0
220
0.0
230
1.0
 70
     8
 71
     3
 72
     8
 73
     4
 74
     0
 42
0.0000000001
 43
0.0000000001
 40
0.0
 40
0.0
 40
0.0
 40
0.0
 40
1.0
 40
1.0
 40
1.0
 40
1.0
 10
126.6324845248505
 20
-7.228545745580781
 30
0.0
 10
126.5107913777374
 20
-7.167583574645935
 30
0.0
 10
126.3648885153515
 20
-7.182031481345794
 30
0.0
 10
126.2575150001114
 20
-7.265676783452311
 30
0.0
  0
LWPOLYLINE
  5
1FD
330
70
100
AcDbEntity
  8
0
 62
     8
420
  8421504
370
    25
100
AcDbPolyline
 90
        8
 70
     0
 43
0.0
 10
125.8825454753313
 20
-8.527619039162928
 10
125.8343024553313
 20
-8.491454625462734
 10
125.7474299241311
 20
-8.340140988862662
 10
125.7294472088306
 20
-8.126423778463173
 10
125.7827829748306
 20
-7.879166687863266
 10
125.9002339315314
 20
-7.631763157062861
 10
126.0659376762314
 20
-7.417626403862841
 10
126.2575150000319
 20
-7.26567678346322
  0
SPLINE
  5
1FE
330
70
100
AcDbEntity
  8
0
 62
     8
420
  8421504
370
    25
100
AcDbSpline
210
0.0
220
0.0
230
1.0
 70
     8
 71
     3
 72
     8
 73
     4
 74
     0
 42
0.0000000001
 43
0.0000000001
 40
0.0
 40
0.0
 40
0.0
 40
0.0
 40
1.0
 40
1.0
 40
1.0
 40
1.0
 10
188.040970006242
 20
-21.90873663858784
 30
0.0
 10
189.1262133948631
 20
-21.34340531205185
 30
0.0
 10
190.0227987950316
 20
-20.47353396570999
 30
0.0
 10
190.6206882720436
 20
-19.40588191818229
 30
0.0
  0
SPLINE
  5
1FF
330
70
100
AcDbEntity
  8
0
 62
     8
420
  8421504
370
    25
100
AcDbSpline
210
0.0
220
0.0
230
1.0
 70
     8
 71
     3
 72
     8
 73
     4
 74
     0
 42
0.0000000001
 43
0.0000000001
 40
0.0
 40
0.0
 40
0.0
 40
0.0
 40
1.0
 40
1.0
 40
1.0
 40
1.0
 10
188.2930892000703
 20
-14.95534929591531
 30
0.0
 10
188.1415653050611
 20
-13.62614629695689
 30
0.0
 10
187.3094409960836
 20
-12.47150176940036
 30
0.0
 10
186.0964263579583
 20
-11.90728940610725
 30
0.0
  0
SPLINE
  5
200
330
70
100
AcDbEntity
  8
0
 62
     8
420
  8421504
370
    25
100
AcDbSpline
210
0.0
220
0.0
230
1.0
 70
     8
 71
     3
 72
     8
 73
     4
 74
     0
 42
0.0000000001
 43
0.0000000001
 40
0.0
 40
0.0
 40
0.0
 40
0.0
 40
1.0
 40
1.0
 40
1.0
 40
1.0
 10
179.8413923061637
 20
-31.41413185165809
 30
0.0
 10
179.7198205163503
 20
-31.35376340857367
 30
0.0
 10
179.574410887829
 20
-31.36839223410202
 30
0.0
 10
179.4673002843408
 20
-31.45176709613525
 30
0.0
  0
LWPOLYLINE
  5
201
330
70
100
AcDbEntity
  8
0
 62
     8
420
  8421504
370
    25
100
AcDbPolyline
 90
        8
 70
     0
 43
0.0
 10
179.0921500722308
 20
-32.71360494266293
 10
179.0440877396312
 20
-32.677544938163
 10
178.9572152084311
 20
-32.52623130166302
 10
178.9392324931319
 20
-32.3125140912629
 10
178.9925682591319
 20
-32.06525700056289
 10
179.1100192158313
 20
-31.81785346976312
 10
179.2757229605313
 20
-31.60371671656311
 10
179.4673002843318
 20
-31.45176709616284
  0
SPLINE
  5
202
330
70
100
AcDbEntity
  8
0
 62
     8
420
  8421504
370
    25
100
AcDbSpline
210
0.0
220
0.0
230
1.0
 70
     8
 71
     3
 72
     8
 73
     4
 74
     0
 42
0.0000000001
 43
0.0000000001
 40
0.0
 40
0.0
 40
0.0
 40
0.0
 40
1.0
 40
1.0
 40
1.0
 40
1.0
 10
187.8195050584481
 20
-16.21043466126708
 30
0.0
 10
187.3767150823136
 20
-15.56466899314021
 30
0.0
 10
186.7859285480374
 20
-15.03414428243639
 30
0.0
 10
186.0964263579416
 20
-14.66311464622113
 30
0.0
  0
LWPOLYLINE
  5
203
330
70
100
AcDbEntity
  8
0
 62
     8
420
  8421504
370
    25
100
AcDbPolyline
 90
       10
 70
     0
 43
0.0
 10
187.6419214868312
 20
-27.77769836786316
 10
187.6220000275312
 20
-27.87682612226306
 10
187.5106695927314
 20
-28.02238309866304
 10
187.3157737976314
 20
-28.13489404626303
 10
187.0636343992312
 20
-28.19916373826329
 10
186.7883042206315
 20
-28.20651219656284
 10
186.5269681279311
 20
-28.15594697116308
 10
186.3149210085313
 20
-28.05429717596274
 10
186.1808010011308
 20
-27.91529117896301
 10
186.1419214868315
 20
-27.77769836786316
  0
SPLINE
  5
204
330
70
100
AcDbEntity
  8
0
 62
     8
420
  8421504
370
    25
100
AcDbSpline
210
0.0
220
0.0
230
1.0
 70
     8
 71
     3
 72
     8
 73
     4
 74
     0
 42
0.0000000001
 43
0.0000000001
 40
0.0
 40
0.0
 40
0.0
 40
0.0
 40
1.0
 40
1.0
 40
1.0
 40
1.0
 10
186.0964263580135
 20
-14.66311464621856
 30
0.0
 10
186.0920786301143
 20
-14.70754964663557
 30
0.0
 10
186.1115672382423
 20
-14.7509681127017
 30
0.0
 10
186.1476576256599
 20
-14.77725225118646
 30
0.0
  0
SPLINE
  5
205
330
70
100
AcDbEntity
  8
0
 62
     8
420
  8421504
370
    25
100
AcDbSpline
210
0.0
220
0.0
230
1.0
 70
     8
 71
     3
 72
     8
 73
     4
 74
     0
 42
0.0000000001
 43
0.0000000001
 40
0.0
 40
0.0
 40
0.0
 40
0.0
 40
1.0
 40
1.0
 40
1.0
 40
1.0
 10
132.2893387742505
 20
-3.96291329828057
 30
0.0
 10
132.1676456271374
 20
-3.901951127345724
 30
0.0
 10
132.0217427647528
 20
-3.916399034045582
 30
0.0
 10
131.9143692495127
 20
-4.000044336151458
 30
0.0
  0
LWPOLYLINE
  5
206
330
70
100
AcDbEntity
  8
0
 62
     8
420
  8421504
370
    25
100
AcDbPolyline
 90
        8
 70
     0
 43
0.0
 10
131.5393997248313
 20
-5.261986591862717
 10
131.4911567048313
 20
-5.225822178163165
 10
131.4042841736312
 20
-5.074508541563092
 10
131.3863014583307
 20
-4.860791331162962
 10
131.4396372243307
 20
-4.613534240563055
 10
131.5570881810314
 20
-4.366130709763291
 10
131.7227919257314
 20
-4.151993956563272
 10
131.9143692495306
 20
-4.000044336163009
  0
SPLINE
  5
207
330
70
100
AcDbEntity
  8
0
 62
     8
420
  8421504
370
    25
100
AcDbSpline
210
0.0
220
0.0
230
1.0
 70
     8
 71
     3
 72
     8
 73
     4
 74
     0
 42
0.0000000001
 43
0.0000000001
 40
0.0
 40
0.0
 40
0.0
 40
0.0
 40
1.0
 40
1.0
 40
1.0
 40
1.0
 10
185.4982465556625
 20
-28.14849940435724
 30
0.0
 10
185.3766747658504
 20
-28.08813096127281
 30
0.0
 10
185.2312651373278
 20
-28.10275978680117
 30
0.0
 10
185.1241545338396
 20
-28.18613464883503
 30
0.0
  0
LWPOLYLINE
  5
208
330
70
100
AcDbEntity
  8
0
 62
     8
420
  8421504
370
    25
100
AcDbPolyline
 90
        8
 70
     0
 43
0.0
 10
184.7490043216308
 20
-29.44797249536272
 10
184.7009419891313
 20
-29.41191249086278
 10
184.6140694579311
 20
-29.26059885436282
 10
184.5960867426306
 20
-29.04688164396269
 10
184.6494225086307
 20
-28.79962455326268
 10
184.7668734653314
 20
-28.55222102246291
 10
184.9325772100314
 20
-28.33808426936299
 10
185.1241545338319
 20
-28.18613464886327
  0
SPLINE
  5
209
330
70
100
AcDbEntity
  8
0
 62
     8
420
  8421504
370
    25
100
AcDbSpline
210
0.0
220
0.0
230
1.0
 70
     8
 71
     3
 72
     8
 73
     4
 74
     0
 42
0.0000000001
 43
0.0000000001
 40
0.0
 40
0.0
 40
0.0
 40
0.0
 40
1.0
 40
1.0
 40
1.0
 40
1.0
 10
137.9461930237505
 20
-0.6972808509810013
 30
0.0
 10
137.8244998766374
 20
-0.6363186800455133
 30
0.0
 10
137.6785970142516
 20
-0.6507665867453719
 30
0.0
 10
137.5712234990114
 20
-0.7344118888518893
 30
0.0
  0
LWPOLYLINE
  5
20A
330
70
100
AcDbEntity
  8
0
 62
     8
420
  8421504
370
    25
100
AcDbPolyline
 90
        8
 70
     0
 43
0.0
 10
137.1962539743314
 20
-1.996354144563148
 10
137.1480109543314
 20
-1.960189730862954
 10
137.0611384231313
 20
-1.808876094262881
 10
137.0431557078308
 20
-1.595158883962857
 10
137.0964914738308
 20
-1.347901793262844
 10
137.2139424305315
 20
-1.100498262463081
 10
137.3796461752315
 20
-0.8863615092630606
 10
137.5712234990307
 20
-0.7344118888627982
  0
SPLINE
  5
20B
330
70
100
AcDbEntity
  8
0
 62
     8
420
  8421504
370
    25
100
AcDbSpline
210
0.0
220
0.0
230
1.0
 70
     8
 71
     3
 72
     8
 73
     4
 74
     0
 42
0.0000000001
 43
0.0000000001
 40
0.0
 40
0.0
 40
0.0
 40
0.0
 40
1.0
 40
1.0
 40
1.0
 40
1.0
 10
149.2188227360984
 20
12.09192940370562
 30
0.0
 10
148.9939393775993
 20
12.19350177377982
 30
0.0
 10
148.7319735832327
 20
12.16756083407769
 30
0.0
 10
148.5313786074112
 20
12.02385583427491
 30
0.0
  0
SPLINE
  5
20C
330
70
100
AcDbEntity
  8
0
 62
     8
420
  8421504
370
    25
100
AcDbSpline
210
0.0
220
0.0
230
1.0
 70
     8
 71
     3
 72
     8
 73
     4
 74
     0
 42
0.0000000001
 43
0.0000000001
 40
0.0
 40
0.0
 40
0.0
 40
0.0
 40
1.0
 40
1.0
 40
1.0
 40
1.0
 10
119.3435612309996
 20
-5.154691958494121
 30
0.0
 10
119.1186778724991
 20
-5.053119588419918
 30
0.0
 10
118.8567120781326
 20
-5.079060528122692
 30
0.0
 10
118.6561171023123
 20
-5.22276552792483
 30
0.0
  0
SPLINE
  5
20D
330
70
100
AcDbEntity
  8
0
 62
     8
420
  8421504
370
    25
100
AcDbSpline
210
0.0
220
0.0
230
1.0
 70
     8
 71
     3
 72
     8
 73
     4
 74
     0
 42
0.0000000001
 43
0.0000000001
 40
0.0
 40
0.0
 40
0.0
 40
0.0
 40
1.0
 40
1.0
 40
1.0
 40
1.0
 10
147.5591067832937
 20
7.584006400907964
 30
0.0
 10
147.5541673997116
 20
7.539257771477279
 30
0.0
 10
147.5740210858687
 20
7.495376426870667
 30
0.0
 10
147.6108936370115
 20
7.469545199290722
 30
0.0
  0
SPLINE
  5
20E
330
70
100
AcDbEntity
  8
0
 62
     8
420
  8421504
370
    25
100
AcDbSpline
210
0.0
220
0.0
230
1.0
 70
     8
 71
     3
 72
     8
 73
     4
 74
     0
 42
0.0000000001
 43
0.0000000001
 40
0.0
 40
0.0
 40
0.0
 40
0.0
 40
1.0
 40
1.0
 40
1.0
 40
1.0
 10
117.6838452781717
 20
-9.66261496125071
 30
0.0
 10
117.6781326969043
 20
-9.707483053210651
 30
0.0
 10
117.6981594143583
 20
-9.751746837931628
 30
0.0
 10
117.7356321318882
 20
-9.777076162868594
 30
0.0
  0
LWPOLYLINE
  5
20F
330
70
100
AcDbEntity
  8
0
 62
     8
420
  8421504
370
    25
100
AcDbPolyline
 90
        9
 70
     0
 43
0.0
 10
117.6838452781307
 20
-6.906789721163137
 10
117.0083326383308
 20
-6.476529485763255
 10
116.4091262592308
 20
-6.010117802463068
 10
115.8919968257311
 20
-5.512046470862675
 10
115.4619245771313
 20
-4.987112190063183
 10
115.1230513441316
 20
-4.440370364262775
 10
114.8786406612308
 20
-3.87708641596291
 10
114.7310463369314
 20
-3.302685077662765
 10
114.6817016436313
 20
-2.731698922862748
  0
SPLINE
  5
210
330
70
100
AcDbEntity
  8
0
 62
     8
420
  8421504
370
    25
100
AcDbSpline
210
0.0
220
0.0
230
1.0
 70
     8
 71
     3
 72
     8
 73
     4
 74
     0
 42
0.0000000001
 43
0.0000000001
 40
0.0
 40
0.0
 40
0.0
 40
0.0
 40
1.0
 40
1.0
 40
1.0
 40
1.0
 10
118.6561171022738
 20
2.022856464453429
 30
0.0
 10
118.4581135174184
 20
2.173441273580295
 30
0.0
 10
118.1922025581185
 20
2.199737908995345
 30
0.0
 10
117.9685393136996
 20
2.090852843667975
 30
0.0
  0
SPLINE
  5
211
330
70
100
AcDbEntity
  8
0
 62
     8
420
  8421504
370
    25
100
AcDbSpline
210
0.0
220
0.0
230
1.0
 70
     8
 71
     3
 72
     8
 73
     4
 74
     0
 42
0.0000000001
 43
0.0000000001
 40
0.0
 40
0.0
 40
0.0
 40
0.0
 40
1.0
 40
1.0
 40
1.0
 40
1.0
 10
121.6613209223972
 20
-13.08168885473657
 30
0.0
 10
121.7874591330509
 20
-13.03054160265084
 30
0.0
 10
121.8729374184807
 20
-12.9114108732122
 30
0.0
 10
121.8809908365061
 20
-12.77553581280364
 30
0.0
  0
LWPOLYLINE
  5
212
330
70
100
AcDbEntity
  8
0
 62
     8
420
  8421504
370
    25
100
AcDbPolyline
 90
        8
 70
     0
 43
0.0
 10
120.3809908364319
 20
-12.77553581276321
 10
120.3881830133318
 20
-12.83535278736274
 10
120.4757740434317
 20
-12.98621890236289
 10
120.6518557322318
 20
-13.10863109876298
 10
120.8926472717312
 20
-13.18605693096269
 10
121.1656284304317
 20
-13.20803961146283
 10
121.4339315901314
 20
-13.17161025736326
 10
121.6613209223317
 20
-13.08168885476288
  0
SPLINE
  5
213
330
70
100
AcDbEntity
  8
0
 62
     8
420
  8421504
370
    25
100
AcDbSpline
210
0.0
220
0.0
230
1.0
 70
     8
 71
     3
 72
     8
 73
     4
 74
     0
 42
0.0000000001
 43
0.0000000001
 40
0.0
 40
0.0
 40
0.0
 40
0.0
 40
1.0
 40
1.0
 40
1.0
 40
1.0
 10
115.1123678616613
 20
-7.175731291037487
 30
0.0
 10
115.7109546440544
 20
-8.235957126312385
 30
0.0
 10
116.604196926607
 20
-9.099814468314113
 30
0.0
 10
117.6838452781499
 20
-9.662614961251993
 30
0.0
  0
LWPOLYLINE
  5
214
330
70
100
AcDbEntity
  8
0
 62
     8
420
  8421504
370
    25
100
AcDbPolyline
 90
        8
 70
     0
 43
0.0
 10
119.628388926431
 20
0.3388322712369409
 10
119.0278136807309
 20
-0.052516445763147
 10
118.5133302430316
 20
-0.4828024246628497
 10
118.0924409404315
 20
-0.9457511270626941
 10
117.7712832865319
 20
-1.434611718362759
 10
117.5545404832317
 20
-1.942255510263021
 10
117.4453731286318
 20
-2.461279913363294
 10
117.4317260843318
 20
-2.736168677663028
  0
SPLINE
  5
215
330
70
100
AcDbEntity
  8
0
 62
     8
420
  8421504
370
    25
100
AcDbSpline
210
0.0
220
0.0
230
1.0
 70
     8
 71
     3
 72
     8
 73
     4
 74
     0
 42
0.0000000001
 43
0.0000000001
 40
0.0
 40
0.0
 40
0.0
 40
0.0
 40
1.0
 40
1.0
 40
1.0
 40
1.0
 10
119.6283889264657
 20
-2.416992968891701
 30
0.0
 10
118.9396668782526
 20
-2.787640630655626
 30
0.0
 10
118.3494043970711
 20
-3.317385559990904
 30
0.0
 10
117.9067037015006
 20
-3.962159817393786
 30
0.0
  0
SPLINE
  5
216
330
70
100
AcDbEntity
  8
0
 62
     8
420
  8421504
370
    25
100
AcDbSpline
210
0.0
220
0.0
230
1.0
 70
     8
 71
     3
 72
     8
 73
     4
 74
     0
 42
0.0000000001
 43
0.0000000001
 40
0.0
 40
0.0
 40
0.0
 40
0.0
 40
1.0
 40
1.0
 40
1.0
 40
1.0
 10
119.5774685264139
 20
-2.530946995106452
 30
0.0
 10
119.6133587371215
 20
-2.504607026223069
 30
0.0
 10
119.6327099067652
 20
-2.461301323754417
 30
0.0
 10
119.6283889264541
 20
-2.416992968848065
 30
0.0
  0
SPLINE
  5
217
330
70
100
AcDbEntity
  8
0
 62
     8
420
  8421504
370
    25
100
AcDbSpline
210
0.0
220
0.0
230
1.0
 70
     8
 71
     3
 72
     8
 73
     4
 74
     0
 42
0.0000000001
 43
0.0000000001
 40
0.0
 40
0.0
 40
0.0
 40
0.0
 40
1.0
 40
1.0
 40
1.0
 40
1.0
 10
135.9802332413513
 20
12.02385583427491
 30
0.0
 10
135.7796382655297
 20
12.16756083407769
 30
0.0
 10
135.5176724711632
 20
12.19350177377982
 30
0.0
 10
135.292789112664
 20
12.09192940370562
 30
0.0
  0
SPLINE
  5
218
330
70
100
AcDbEntity
  8
0
 62
     8
420
  8421504
370
    25
100
AcDbSpline
210
0.0
220
0.0
230
1.0
 70
     8
 71
     3
 72
     8
 73
     4
 74
     0
 42
0.0000000001
 43
0.0000000001
 40
0.0
 40
0.0
 40
0.0
 40
0.0
 40
1.0
 40
1.0
 40
1.0
 40
1.0
 10
136.9007182117562
 20
7.469545199378635
 30
0.0
 10
136.9375907629309
 20
7.49537642693227
 30
0.0
 10
136.9574444490971
 20
7.539257771559416
 30
0.0
 10
136.9525050654726
 20
7.584006400995876
 30
0.0
  0
SPLINE
  5
219
330
70
100
AcDbEntity
  8
0
 62
     8
420
  8421504
370
    25
100
AcDbSpline
210
0.0
220
0.0
230
1.0
 70
     8
 71
     3
 72
     8
 73
     4
 74
     0
 42
0.0000000001
 43
0.0000000001
 40
0.0
 40
0.0
 40
0.0
 40
0.0
 40
1.0
 40
1.0
 40
1.0
 40
1.0
 10
125.0200781329965
 20
-5.122373264737073
 30
0.0
 10
125.1462163436502
 20
-5.0712260126507
 30
0.0
 10
125.2316946290801
 20
-4.952095283212061
 30
0.0
 10
125.2397480471067
 20
-4.8162202228035
 30
0.0
  0
LWPOLYLINE
  5
21A
330
70
100
AcDbEntity
  8
0
 62
     8
420
  8421504
370
    25
100
AcDbPolyline
 90
        8
 70
     0
 43
0.0
 10
123.7397480471313
 20
-4.816220222863178
 10
123.7469402239311
 20
-4.876037197363244
 10
123.8345312541312
 20
-5.026903312462859
 10
124.0106129428312
 20
-5.149315508762836
 10
124.2514044824319
 20
-5.2267413410633
 10
124.5243856411311
 20
-5.248724021462686
 10
124.7926888007307
 20
-5.21229466736312
 10
125.0200781330311
 20
-5.122373264762741
  0
SPLINE
  5
21B
330
70
100
AcDbEntity
  8
0
 62
     8
420
  8421504
370
    25
100
AcDbSpline
210
0.0
220
0.0
230
1.0
 70
     8
 71
     3
 72
     8
 73
     4
 74
     0
 42
0.0000000001
 43
0.0000000001
 40
0.0
 40
0.0
 40
0.0
 40
0.0
 40
1.0
 40
1.0
 40
1.0
 40
1.0
 10
130.6769323824953
 20
-1.85674081743622
 30
0.0
 10
130.8030705931502
 20
-1.805593565350489
 30
0.0
 10
130.8885488785801
 20
-1.686462835911208
 30
0.0
 10
130.8966022966054
 20
-1.550587775502648
 30
0.0
  0
LWPOLYLINE
  5
21C
330
70
100
AcDbEntity
  8
0
 62
     8
420
  8421504
370
    25
100
AcDbPolyline
 90
        8
 70
     0
 43
0.0
 10
129.3966022966314
 20
-1.550587775562967
 10
129.4037944734312
 20
-1.610404750063032
 10
129.4913855036312
 20
-1.761270865163289
 10
129.6674671923312
 20
-1.883683061463267
 10
129.9082587319307
 20
-1.961108893763089
 10
130.1812398905311
 20
-1.983091574163116
 10
130.4495430502308
 20
-1.946662220062909
 10
130.6769323824311
 20
-1.856740817463171
  0
SPLINE
  5
21D
330
70
100
AcDbEntity
  8
0
 62
     8
420
  8421504
370
    25
100
AcDbSpline
210
0.0
220
0.0
230
1.0
 70
     8
 71
     3
 72
     8
 73
     4
 74
     0
 42
0.0000000001
 43
0.0000000001
 40
0.0
 40
0.0
 40
0.0
 40
0.0
 40
1.0
 40
1.0
 40
1.0
 40
1.0
 10
136.3337866319954
 20
1.408891629763243
 30
0.0
 10
136.4599248426503
 20
1.460038881848975
 30
0.0
 10
136.5454031280802
 20
1.579169611288255
 30
0.0
 10
136.5534565461068
 20
1.715044671696816
 30
0.0
  0
LWPOLYLINE
  5
21E
330
70
100
AcDbEntity
  8
0
 62
     8
420
  8421504
370
    25
100
AcDbPolyline
 90
        8
 70
     0
 43
0.0
 10
135.0534565461314
 20
1.715044671737243
 10
135.0606487229312
 20
1.655227697237178
 10
135.1482397531313
 20
1.504361582136921
 10
135.3243214418313
 20
1.381949385836943
 10
135.5651129814307
 20
1.304523553537121
 10
135.8380941400311
 20
1.282540873036989
 10
136.1063972997309
 20
1.318970227237302
 10
136.3337866319312
 20
1.408891629837039
  0
LINE
  5
21F
330
70
100
AcDbEntity
  8
0
 62
    18
420
        0
370
    25
100
AcDbLine
 10
138.5483186526317
 20
132.707444146537
 30
0.0
 11
136.3683936750313
 21
132.707444146537
 31
0.0
  0
LINE
  5
220
330
70
100
AcDbEntity
  8
0
 62
    18
420
        0
370
    25
100
AcDbLine
 10
136.3683936750313
 20
105.2074441465369
 30
0.0
 11
138.5483186526317
 21
105.2074441465369
 31
0.0
  0
SPLINE
  5
221
330
70
100
AcDbEntity
  8
0
 62
    18
420
        0
370
    25
100
AcDbSpline
210
0.0
220
0.0
230
1.0
 70
     8
 71
     3
 72
     8
 73
     4
 74
     0
 42
0.0000000001
 43
0.0000000001
 40
0.0
 40
0.0
 40
0.0
 40
0.0
 40
1.0
 40
1.0
 40
1.0
 40
1.0
 10
138.5483186526317
 20
105.2074441465369
 30
0.0
 10
138.8141426780185
 20
105.2074441465369
 30
0.0
 10
139.0334961802004
 20
105.4154421273391
 30
0.0
 10
139.0476130873599
 20
105.680891040325
 30
0.0
  0
SPLINE
  5
222
330
70
100
AcDbEntity
  8
0
 62
    18
420
        0
370
    25
100
AcDbSpline
210
0.0
220
0.0
230
1.0
 70
     8
 71
     3
 72
     8
 73
     4
 74
     0
 42
0.0000000001
 43
0.0000000001
 40
0.0
 40
0.0
 40
0.0
 40
0.0
 40
1.0
 40
1.0
 40
1.0
 40
1.0
 10
139.0476130873599
 20
132.233997252749
 30
0.0
 10
139.0334961802004
 20
132.4994461657349
 30
0.0
 10
138.8141426780185
 20
132.707444146537
 30
0.0
 10
138.5483186526317
 20
132.707444146537
 30
0.0
  0
SPLINE
  5
223
330
70
100
AcDbEntity
  8
0
 62
    18
420
        0
370
    25
100
AcDbSpline
210
0.0
220
0.0
230
1.0
 70
     8
 71
     3
 72
     8
 73
     4
 74
     0
 42
0.0000000001
 43
0.0000000001
 40
0.0
 40
0.0
 40
0.0
 40
0.0
 40
1.0
 40
1.0
 40
1.0
 40
1.0
 10
139.0476130874023
 20
105.6808910405406
 30
0.0
 10
139.2119395972935
 20
108.7708237667436
 30
0.0
 10
139.3188848880924
 20
111.8635410560396
 30
0.0
 10
139.3683936750718
 20
114.9574441466886
 30
0.0
  0
SPLINE
  5
224
330
70
100
AcDbEntity
  8
0
 62
    18
420
        0
370
    25
100
AcDbSpline
210
0.0
220
0.0
230
1.0
 70
     8
 71
     3
 72
     8
 73
     4
 74
     0
 42
0.0000000001
 43
0.0000000001
 40
0.0
 40
0.0
 40
0.0
 40
0.0
 40
1.0
 40
1.0
 40
1.0
 40
1.0
 10
139.3683936750718
 20
122.9574441463853
 30
0.0
 10
139.3188848880924
 20
126.0513472370343
 30
0.0
 10
139.2119395972935
 20
129.1440645263303
 30
0.0
 10
139.0476130874023
 20
132.2339972525337
 30
0.0
  0
LINE
  5
225
330
70
100
AcDbEntity
  8
0
 62
    18
420
        0
370
    25
100
AcDbLine
 10
154.1183936750311
 20
116.6574441465369
 30
0.0
 11
154.1183936750311
 21
109.157444146537
 31
0.0
  0
LINE
  5
226
330
70
100
AcDbEntity
  8
0
 62
    18
420
        0
370
    25
100
AcDbLine
 10
155.6183936750308
 20
109.157444146537
 30
0.0
 11
155.6183936750308
 21
116.6574441465369
 31
0.0
  0
LINE
  5
227
330
70
100
AcDbEntity
  8
0
 62
    18
420
        0
370
    25
100
AcDbLine
 10
154.1183936750311
 20
109.157444146537
 30
0.0
 11
154.1183936750311
 21
106.6574441465369
 31
0.0
  0
LINE
  5
228
330
70
100
AcDbEntity
  8
0
 62
    18
420
        0
370
    25
100
AcDbLine
 10
155.6183936750308
 20
106.6574441465369
 30
0.0
 11
155.6183936750308
 21
109.157444146537
 31
0.0
  0
LINE
  5
229
330
70
100
AcDbEntity
  8
0
 62
    18
420
        0
370
    25
100
AcDbLine
 10
162.1183936750314
 20
116.6574441465369
 30
0.0
 11
162.1183936750314
 21
109.157444146537
 31
0.0
  0
LINE
  5
22A
330
70
100
AcDbEntity
  8
0
 62
    18
420
        0
370
    25
100
AcDbLine
 10
163.6183936750311
 20
109.157444146537
 30
0.0
 11
163.6183936750311
 21
116.6574441465369
 31
0.0
  0
LINE
  5
22B
330
70
100
AcDbEntity
  8
0
 62
    18
420
        0
370
    25
100
AcDbLine
 10
162.1183936750314
 20
109.157444146537
 30
0.0
 11
162.1183936750314
 21
106.6574441465369
 31
0.0
  0
LINE
  5
22C
330
70
100
AcDbEntity
  8
0
 62
    18
420
        0
370
    25
100
AcDbLine
 10
163.6183936750311
 20
106.6574441465369
 30
0.0
 11
163.6183936750311
 21
109.157444146537
 31
0.0
  0
LINE
  5
22D
330
70
100
AcDbEntity
  8
0
 62
    18
420
        0
370
    25
100
AcDbLine
 10
170.1183936750316
 20
109.157444146537
 30
0.0
 11
170.1183936750316
 21
106.6574441465369
 31
0.0
  0
LINE
  5
22E
330
70
100
AcDbEntity
  8
0
 62
    18
420
        0
370
    25
100
AcDbLine
 10
171.6183936750314
 20
106.6574441465369
 30
0.0
 11
171.6183936750314
 21
109.157444146537
 31
0.0
  0
LINE
  5
22F
330
70
100
AcDbEntity
  8
0
 62
    18
420
        0
370
    25
100
AcDbLine
 10
170.1183936750316
 20
116.6574441465369
 30
0.0
 11
170.1183936750316
 21
109.157444146537
 31
0.0
  0
LINE
  5
230
330
70
100
AcDbEntity
  8
0
 62
    18
420
        0
370
    25
100
AcDbLine
 10
171.6183936750314
 20
109.157444146537
 30
0.0
 11
171.6183936750314
 21
116.6574441465369
 31
0.0
  0
LINE
  5
231
330
70
100
AcDbEntity
  8
0
 62
    18
420
        0
370
    25
100
AcDbLine
 10
178.1183936750307
 20
109.157444146537
 30
0.0
 11
178.1183936750307
 21
106.6574441465369
 31
0.0
  0
LINE
  5
232
330
70
100
AcDbEntity
  8
0
 62
    18
420
        0
370
    25
100
AcDbLine
 10
179.6183936750317
 20
106.6574441465369
 30
0.0
 11
179.6183936750317
 21
109.157444146537
 31
0.0
  0
LINE
  5
233
330
70
100
AcDbEntity
  8
0
 62
    18
420
        0
370
    25
100
AcDbLine
 10
178.1183936750307
 20
116.6574441465369
 30
0.0
 11
178.1183936750307
 21
109.157444146537
 31
0.0
  0
LINE
  5
234
330
70
100
AcDbEntity
  8
0
 62
    18
420
        0
370
    25
100
AcDbLine
 10
179.6183936750317
 20
109.157444146537
 30
0.0
 11
179.6183936750317
 21
116.6574441465369
 31
0.0
  0
LINE
  5
235
330
70
100
AcDbEntity
  8
0
 62
    18
420
        0
370
    25
100
AcDbLine
 10
188.7433936750311
 20
111.657444146537
 30
0.0
 11
188.7433936750311
 21
114.1574441465371
 31
0.0
  0
LINE
  5
236
330
70
100
AcDbEntity
  8
0
 62
    18
420
        0
370
    25
100
AcDbLine
 10
187.2433936750314
 20
114.1574441465371
 30
0.0
 11
187.2433936750314
 21
111.657444146537
 31
0.0
  0
LINE
  5
237
330
70
100
AcDbEntity
  8
0
 62
    18
420
        0
370
    25
100
AcDbLine
 10
187.2433936750314
 20
116.6574441465369
 30
0.0
 11
187.2433936750314
 21
114.1574441465371
 31
0.0
  0
LINE
  5
238
330
70
100
AcDbEntity
  8
0
 62
    18
420
        0
370
    25
100
AcDbLine
 10
188.7433936750311
 20
114.1574441465371
 30
0.0
 11
188.7433936750311
 21
116.6574441465369
 31
0.0
  0
LINE
  5
239
330
70
100
AcDbEntity
  8
0
 62
    18
420
        0
370
    25
100
AcDbLine
 10
139.3683936750307
 20
114.9287907392371
 30
0.0
 11
144.3683936750316
 21
116.4574441465369
 31
0.0
  0
LINE
  5
23A
330
70
100
AcDbEntity
  8
0
 62
    18
420
        0
370
    25
100
AcDbLine
 10
144.3683936750316
 20
121.4574441465371
 30
0.0
 11
139.3683936750307
 21
122.9860975537371
 31
0.0
  0
LINE
  5
23B
330
70
100
AcDbEntity
  8
0
 62
    18
420
        0
370
    25
100
AcDbLine
 10
136.3683936750313
 20
132.707444146537
 30
0.0
 11
136.3683936750313
 21
105.2074441465369
 31
0.0
  0
LINE
  5
23C
330
70
100
AcDbEntity
  8
0
 62
    18
420
        0
370
    25
100
AcDbLine
 10
154.6183936750314
 20
120.2824441465371
 30
0.0
 11
144.3683936750316
 21
120.2824441465371
 31
0.0
  0
LINE
  5
23D
330
70
100
AcDbEntity
  8
0
 62
    18
420
        0
370
    25
100
AcDbLine
 10
154.6183936750314
 20
120.2824441465371
 30
0.0
 11
154.6183936750314
 21
116.9074441465371
 31
0.0
  0
LINE
  5
23E
330
70
100
AcDbEntity
  8
0
 62
    18
420
        0
370
    25
100
AcDbLine
 10
144.3683936750316
 20
116.9074441465371
 30
0.0
 11
154.6183936750314
 21
116.9074441465371
 31
0.0
  0
LINE
  5
23F
330
70
100
AcDbEntity
  8
0
 62
    18
420
        0
370
    25
100
AcDbLine
 10
144.3683936750316
 20
120.2824441465371
 30
0.0
 11
144.3683936750316
 21
116.9074441465371
 31
0.0
  0
LINE
  5
240
330
70
100
AcDbEntity
  8
0
 62
    18
420
        0
370
    25
100
AcDbLine
 10
154.6183936750314
 20
116.9074441465371
 30
0.0
 11
154.6183936750314
 21
116.6574441465369
 31
0.0
  0
LINE
  5
241
330
70
100
AcDbEntity
  8
0
 62
    18
420
        0
370
    25
100
AcDbLine
 10
154.6183936750314
 20
116.6574441465369
 30
0.0
 11
144.6183936750311
 21
116.6574441465369
 31
0.0
  0
SPLINE
  5
242
330
70
100
AcDbEntity
  8
0
 62
    18
420
        0
370
    25
100
AcDbSpline
210
0.0
220
0.0
230
1.0
 70
     8
 71
     3
 72
     8
 73
     4
 74
     0
 42
0.0000000001
 43
0.0000000001
 40
0.0
 40
0.0
 40
0.0
 40
0.0
 40
1.0
 40
1.0
 40
1.0
 40
1.0
 10
144.3683936750316
 20
116.9074441465371
 30
0.0
 10
144.3683936750316
 20
116.7693729590792
 30
0.0
 10
144.4803224875735
 20
116.6574441465369
 30
0.0
 10
144.6183936750311
 20
116.6574441465369
 30
0.0
  0
LINE
  5
243
330
70
100
AcDbEntity
  8
0
 62
    18
420
        0
370
    25
100
AcDbLine
 10
154.6183936750314
 20
121.6574441465371
 30
0.0
 11
145.7433936750315
 21
121.6574441465371
 31
0.0
  0
LINE
  5
244
330
70
100
AcDbEntity
  8
0
 62
    18
420
        0
370
    25
100
AcDbLine
 10
154.6183936750314
 20
121.6574441465371
 30
0.0
 11
154.6183936750314
 21
120.2824441465371
 31
0.0
  0
SPLINE
  5
245
330
70
100
AcDbEntity
  8
0
 62
    18
420
        0
370
    25
100
AcDbSpline
210
0.0
220
0.0
230
1.0
 70
     8
 71
     3
 72
     8
 73
     4
 74
     0
 42
0.0000000001
 43
0.0000000001
 40
0.0
 40
0.0
 40
0.0
 40
0.0
 40
1.0
 40
1.0
 40
1.0
 40
1.0
 10
145.7433936750315
 20
121.6574441465371
 30
0.0
 10
144.9840021440135
 20
121.6574441465371
 30
0.0
 10
144.3683936750316
 20
121.0418356775544
 30
0.0
 10
144.3683936750316
 20
120.2824441465371
 30
0.0
  0
LINE
  5
246
330
70
100
AcDbEntity
  8
0
 62
    18
420
        0
370
    25
100
AcDbLine
 10
179.1183936750313
 20
121.6574441465371
 30
0.0
 11
154.6183936750314
 21
121.6574441465371
 31
0.0
  0
LINE
  5
247
330
70
100
AcDbEntity
  8
0
 62
    18
420
        0
370
    25
100
AcDbLine
 10
179.1183936750313
 20
121.6574441465371
 30
0.0
 11
179.1183936750313
 21
120.2824441465371
 31
0.0
  0
LINE
  5
248
330
70
100
AcDbEntity
  8
0
 62
    18
420
        0
370
    25
100
AcDbLine
 10
179.1183936750313
 20
120.2824441465371
 30
0.0
 11
154.6183936750314
 21
120.2824441465371
 31
0.0
  0
LINE
  5
249
330
70
100
AcDbEntity
  8
0
 62
    18
420
        0
370
    25
100
AcDbLine
 10
179.1183936750313
 20
120.2824441465371
 30
0.0
 11
179.1183936750313
 21
116.9074441465371
 31
0.0
  0
LINE
  5
24A
330
70
100
AcDbEntity
  8
0
 62
    18
420
        0
370
    25
100
AcDbLine
 10
154.6183936750314
 20
116.9074441465371
 30
0.0
 11
179.1183936750313
 21
116.9074441465371
 31
0.0
  0
LINE
  5
24B
330
70
100
AcDbEntity
  8
0
 62
    18
420
        0
370
    25
100
AcDbLine
 10
179.1183936750313
 20
116.9074441465371
 30
0.0
 11
179.1183936750313
 21
116.6574441465369
 31
0.0
  0
LINE
  5
24C
330
70
100
AcDbEntity
  8
0
 62
    18
420
        0
370
    25
100
AcDbLine
 10
179.1183936750313
 20
116.6574441465369
 30
0.0
 11
154.6183936750314
 21
116.6574441465369
 31
0.0
  0
LINE
  5
24D
330
70
100
AcDbEntity
  8
0
 62
    18
420
        0
370
    25
100
AcDbLine
 10
189.3683936750312
 20
120.2824441465371
 30
0.0
 11
179.1183936750313
 21
120.2824441465371
 31
0.0
  0
LINE
  5
24E
330
70
100
AcDbEntity
  8
0
 62
    18
420
        0
370
    25
100
AcDbLine
 10
189.3683936750312
 20
120.2824441465371
 30
0.0
 11
189.3683936750312
 21
116.9074441465371
 31
0.0
  0
LINE
  5
24F
330
70
100
AcDbEntity
  8
0
 62
    18
420
        0
370
    25
100
AcDbLine
 10
179.1183936750313
 20
116.9074441465371
 30
0.0
 11
189.3683936750312
 21
116.9074441465371
 31
0.0
  0
LINE
  5
250
330
70
100
AcDbEntity
  8
0
 62
    18
420
        0
370
    25
100
AcDbLine
 10
187.9933936750312
 20
121.6574441465371
 30
0.0
 11
179.1183936750313
 21
121.6574441465371
 31
0.0
  0
SPLINE
  5
251
330
70
100
AcDbEntity
  8
0
 62
    18
420
        0
370
    25
100
AcDbSpline
210
0.0
220
0.0
230
1.0
 70
     8
 71
     3
 72
     8
 73
     4
 74
     0
 42
0.0000000001
 43
0.0000000001
 40
0.0
 40
0.0
 40
0.0
 40
0.0
 40
1.0
 40
1.0
 40
1.0
 40
1.0
 10
189.3683936750312
 20
120.2824441465371
 30
0.0
 10
189.3683936750312
 20
121.0418356775544
 30
0.0
 10
188.7527852060492
 20
121.6574441465371
 30
0.0
 10
187.9933936750312
 20
121.6574441465371
 30
0.0
  0
SPLINE
  5
252
330
70
100
AcDbEntity
  8
0
 62
    18
420
        0
370
    25
100
AcDbSpline
210
0.0
220
0.0
230
1.0
 70
     8
 71
     3
 72
     8
 73
     4
 74
     0
 42
0.0000000001
 43
0.0000000001
 40
0.0
 40
0.0
 40
0.0
 40
0.0
 40
1.0
 40
1.0
 40
1.0
 40
1.0
 10
189.1183936750317
 20
116.6574441465369
 30
0.0
 10
189.2564648624892
 20
116.6574441465369
 30
0.0
 10
189.3683936750312
 20
116.7693729590792
 30
0.0
 10
189.3683936750312
 20
116.9074441465371
 30
0.0
  0
LINE
  5
253
330
70
100
AcDbEntity
  8
0
 62
    18
420
        0
370
    25
100
AcDbLine
 10
189.1183936750317
 20
116.6574441465369
 30
0.0
 11
179.1183936750313
 21
116.6574441465369
 31
0.0
  0
SPLINE
  5
254
330
70
100
AcDbEntity
  8
0
 62
    18
420
        0
370
    25
100
AcDbSpline
210
0.0
220
0.0
230
1.0
 70
     8
 71
     3
 72
    11
 73
     7
 74
     0
 42
0.0000000001
 43
0.0000000001
 40
0.0
 40
0.0
 40
0.0
 40
0.0
 40
1.0
 40
1.0
 40
1.0
 40
2.0
 40
2.0
 40
2.0
 40
2.0
 10
154.1183936750311
 20
106.6574441465369
 30
0.0
 10
154.1183936750311
 20
106.2432305841638
 30
0.0
 10
154.4541801126582
 20
105.907444146537
 30
0.0
 10
154.8683936750309
 20
105.907444146537
 30
0.0
 10
155.282607237405
 20
105.907444146537
 30
0.0
 10
155.6183936750308
 20
106.2432305841638
 30
0.0
 10
155.6183936750308
 20
106.6574441465369
 30
0.0
  0
SPLINE
  5
255
330
70
100
AcDbEntity
  8
0
 62
    18
420
        0
370
    25
100
AcDbSpline
210
0.0
220
0.0
230
1.0
 70
     8
 71
     3
 72
    11
 73
     7
 74
     0
 42
0.0000000001
 43
0.0000000001
 40
0.0
 40
0.0
 40
0.0
 40
0.0
 40
1.0
 40
1.0
 40
1.0
 40
2.0
 40
2.0
 40
2.0
 40
2.0
 10
162.1183936750314
 20
106.6574441465369
 30
0.0
 10
162.1183936750314
 20
106.2432305841638
 30
0.0
 10
162.4541801126585
 20
105.907444146537
 30
0.0
 10
162.8683936750312
 20
105.907444146537
 30
0.0
 10
163.282607237404
 20
105.907444146537
 30
0.0
 10
163.6183936750311
 20
106.2432305841638
 30
0.0
 10
163.6183936750311
 20
106.6574441465369
 30
0.0
  0
SPLINE
  5
256
330
70
100
AcDbEntity
  8
0
 62
    18
420
        0
370
    25
100
AcDbSpline
210
0.0
220
0.0
230
1.0
 70
     8
 71
     3
 72
    11
 73
     7
 74
     0
 42
0.0000000001
 43
0.0000000001
 40
0.0
 40
0.0
 40
0.0
 40
0.0
 40
1.0
 40
1.0
 40
1.0
 40
2.0
 40
2.0
 40
2.0
 40
2.0
 10
170.1183936750316
 20
106.6574441465369
 30
0.0
 10
170.1183936750316
 20
106.2432305841638
 30
0.0
 10
170.4541801126588
 20
105.907444146537
 30
0.0
 10
170.8683936750315
 20
105.907444146537
 30
0.0
 10
171.2826072374042
 20
105.907444146537
 30
0.0
 10
171.6183936750314
 20
106.2432305841638
 30
0.0
 10
171.6183936750314
 20
106.6574441465369
 30
0.0
  0
SPLINE
  5
257
330
70
100
AcDbEntity
  8
0
 62
    18
420
        0
370
    25
100
AcDbSpline
210
0.0
220
0.0
230
1.0
 70
     8
 71
     3
 72
    11
 73
     7
 74
     0
 42
0.0000000001
 43
0.0000000001
 40
0.0
 40
0.0
 40
0.0
 40
0.0
 40
1.0
 40
1.0
 40
1.0
 40
2.0
 40
2.0
 40
2.0
 40
2.0
 10
178.1183936750307
 20
106.6574441465369
 30
0.0
 10
178.1183936750307
 20
106.2432305841638
 30
0.0
 10
178.4541801126578
 20
105.907444146537
 30
0.0
 10
178.8683936750318
 20
105.907444146537
 30
0.0
 10
179.2826072374045
 20
105.907444146537
 30
0.0
 10
179.6183936750317
 20
106.2432305841638
 30
0.0
 10
179.6183936750317
 20
106.6574441465369
 30
0.0
  0
SPLINE
  5
258
330
70
100
AcDbEntity
  8
0
 62
    18
420
        0
370
    25
100
AcDbSpline
210
0.0
220
0.0
230
1.0
 70
     8
 71
     3
 72
    11
 73
     7
 74
     0
 42
0.0000000001
 43
0.0000000001
 40
0.0
 40
0.0
 40
0.0
 40
0.0
 40
1.0
 40
1.0
 40
1.0
 40
2.0
 40
2.0
 40
2.0
 40
2.0
 10
187.2433936750314
 20
111.657444146537
 30
0.0
 10
187.2433936750314
 20
111.243230584164
 30
0.0
 10
187.5791801126585
 20
110.9074441465369
 30
0.0
 10
187.9933936750312
 20
110.9074441465369
 30
0.0
 10
188.407607237404
 20
110.9074441465369
 30
0.0
 10
188.7433936750311
 20
111.243230584164
 30
0.0
 10
188.7433936750311
 20
111.657444146537
 30
0.0
  0
LINE
  5
259
330
70
100
AcDbEntity
  8
0
 62
    18
420
        0
370
    25
100
AcDbLine
 10
144.3683936750316
 20
116.4574441465369
 30
0.0
 11
144.3683936750316
 21
116.9074441465371
 31
0.0
  0
LINE
  5
25A
330
70
100
AcDbEntity
  8
0
 62
    18
420
        0
370
    25
100
AcDbLine
 10
144.3683936750316
 20
120.2824441465371
 30
0.0
 11
144.3683936750316
 21
121.4574441465371
 31
0.0
  0
LINE
  5
25B
330
70
100
AcDbEntity
  8
0
 62
    18
420
        0
370
    25
100
AcDbLine
 10
139.3683936750307
 20
114.9287907392371
 30
0.0
 11
139.3683936750307
 21
122.9860975537371
 31
0.0
  0
LINE
  5
25C
330
70
100
AcDbEntity
  8
0
 62
     8
420
  8421504
370
    25
100
AcDbLine
 10
138.5483186526317
 20
118.957444146537
 30
0.0
 11
138.5483186526317
 21
132.707444146537
 31
0.0
  0
LINE
  5
25D
330
70
100
AcDbEntity
  8
0
 62
     8
420
  8421504
370
    25
100
AcDbLine
 10
138.5483186526317
 20
105.2074441465369
 30
0.0
 11
138.5483186526317
 21
118.957444146537
 31
0.0
  0
LINE
  5
25E
330
70
100
AcDbEntity
  8
0
 62
     8
420
  8421504
370
    25
100
AcDbLine
 10
139.0476130873317
 20
118.957444146537
 30
0.0
 11
139.0476130873317
 21
105.6808910402371
 31
0.0
  0
LINE
  5
25F
330
70
100
AcDbEntity
  8
0
 62
     8
420
  8421504
370
    25
100
AcDbLine
 10
139.0476130873317
 20
132.2339972527371
 30
0.0
 11
139.0476130873317
 21
118.957444146537
 31
0.0
  0
LINE
  5
260
330
70
100
AcDbEntity
  8
0
 62
     8
420
  8421504
370
    25
100
AcDbLine
 10
154.1183936750311
 20
109.157444146537
 30
0.0
 11
155.6183936750308
 21
109.157444146537
 31
0.0
  0
LINE
  5
261
330
70
100
AcDbEntity
  8
0
 62
     8
420
  8421504
370
    25
100
AcDbLine
 10
162.1183936750314
 20
109.157444146537
 30
0.0
 11
163.6183936750311
 21
109.157444146537
 31
0.0
  0
LINE
  5
262
330
70
100
AcDbEntity
  8
0
 62
     8
420
  8421504
370
    25
100
AcDbLine
 10
170.1183936750316
 20
109.157444146537
 30
0.0
 11
171.6183936750314
 21
109.157444146537
 31
0.0
  0
LINE
  5
263
330
70
100
AcDbEntity
  8
0
 62
     8
420
  8421504
370
    25
100
AcDbLine
 10
178.1183936750307
 20
109.157444146537
 30
0.0
 11
179.6183936750317
 21
109.157444146537
 31
0.0
  0
LINE
  5
264
330
70
100
AcDbEntity
  8
0
 62
     8
420
  8421504
370
    25
100
AcDbLine
 10
187.2433936750314
 20
114.1574441465371
 30
0.0
 11
188.7433936750311
 21
114.1574441465371
 31
0.0
  0
INSERT
  5
267
330
70
100
AcDbEntity
  8
CAPA_BASE
100
AcDbBlockReference
  2
Block_0
 10
0.0
 20
0.0
 30
0.0
  0
INSERT
  5
273
330
70
100
AcDbEntity
  8
CAPA_BASE
100
AcDbBlockReference
  2
Block_1
 10
0.0
 20
0.0
 30
0.0
  0
INSERT
  5
27F
330
70
100
AcDbEntity
  8
CAPA_BASE
100
AcDbBlockReference
  2
Block_2
 10
0.0
 20
0.0
 30
0.0
  0
ENDSEC
  0
SECTION
  2
OBJECTS
  0
DICTIONARY
  5
C
330
0
100
AcDbDictionary
281
     1
  3
ACAD_COLOR
350
63
  3
ACAD_DETAILVIEWSTYLE
350
6A
  3
ACAD_GROUP
350
D
  3
ACAD_LAYOUT
350
62
  3
ACAD_MATERIAL
350
10
  3
ACAD_MLEADERSTYLE
350
66
  3
ACAD_MLINESTYLE
350
5F
  3
ACAD_PLOTSETTINGS
350
61
  3
ACAD_PLOTSTYLENAME
350
E
  3
ACAD_SCALELIST
350
42
  3
ACAD_SECTIONVIEWSTYLE
350
68
  3
ACAD_TABLESTYLE
350
64
  3
ACAD_VISUALSTYLE
350
29
  3
ACDB_RECOMPOSE_DATA
350
293
  3
AcDbVariableDictionary
350
28B
  0
DICTIONARY
  5
63
102
{ACAD_REACTORS
330
C
102
}
330
C
100
AcDbDictionary
281
     1
  0
DICTIONARY
  5
6A
102
{ACAD_REACTORS
330
C
102
}
330
C
100
AcDbDictionary
281
     1
  3
Imperial24
350
6B
  0
DICTIONARY
  5
D
102
{ACAD_REACTORS
330
C
102
}
330
C
100
AcDbDictionary
281
     1
  0
DICTIONARY
  5
62
102
{ACAD_REACTORS
330
C
102
}
330
C
100
AcDbDictionary
281
     1
  3
Layout1
350
6F
  3
Layout2
350
77
  3
Model
350
73
  0
DICTIONARY
  5
10
102
{ACAD_REACTORS
330
C
102
}
330
C
100
AcDbDictionary
281
     1
  3
ByBlock
350
19
  3
ByLayer
350
11
  3
Global
350
21
  0
DICTIONARY
  5
66
102
{ACAD_REACTORS
330
C
102
}
330
C
100
AcDbDictionary
281
     1
  3
Standard
350
67
  0
DICTIONARY
  5
5F
102
{ACAD_REACTORS
330
C
102
}
330
C
100
AcDbDictionary
281
     1
  3
Standard
350
60
  0
DICTIONARY
  5
61
102
{ACAD_REACTORS
330
C
102
}
330
C
100
AcDbDictionary
281
     1
  0
ACDBDICTIONARYWDFLT
  5
E
102
{ACAD_REACTORS
330
C
102
}
330
C
100
AcDbDictionary
281
     1
  3
Normal
350
F
100
AcDbDictionaryWithDefault
340
F
  0
DICTIONARY
  5
42
102
{ACAD_REACTORS
330
C
102
}
330
C
100
AcDbDictionary
281
     1
  3
A0
350
43
  3
A1
350
44
  3
A2
350
45
  3
A3
350
46
  3
A4
350
47
  3
A5
350
48
  3
A6
350
49
  3
A7
350
4A
  3
A8
350
4B
  3
A9
350
4C
  3
B0
350
4D
  3
B1
350
4E
  3
B2
350
4F
  3
B3
350
50
  3
B4
350
51
  3
B5
350
52
  3
B6
350
53
  0
DICTIONARY
  5
68
102
{ACAD_REACTORS
330
C
102
}
330
C
100
AcDbDictionary
281
     1
  3
Imperial24
350
69
  0
DICTIONARY
  5
64
102
{ACAD_REACTORS
330
C
102
}
330
C
100
AcDbDictionary
281
     1
  3
Standard
350
65
  0
DICTIONARY
  5
29
102
{ACAD_REACTORS
330
C
102
}
330
C
100
AcDbDictionary
281
     1
  3
2dWireframe
350
2F
  3
Basic
350
2E
  3
Brighten
350
35
  3
ColorChange
350
39
  3
Conceptual
350
32
  3
Dim
350
34
  3
EdgeColorOff
350
41
  3
Facepattern
350
38
  3
Flat
350
2A
  3
FlatWithEdges
350
2B
  3
Gouraud
350
2C
  3
GouraudWithEdges
350
2D
  3
Hidden
350
31
  3
JitterOff
350
3F
  3
Linepattern
350
37
  3
OverhangOff
350
40
  3
Realistic
350
33
  3
Shaded
350
3E
  3
Shaded with edges
350
3D
  3
Shades of Gray
350
3A
  3
Sketchy
350
3B
  3
Thicken
350
36
  3
Wireframe
350
30
  3
X-Ray
350
3C
  0
XRECORD
  5
293
102
{ACAD_REACTORS
330
C
102
}
330
C
100
AcDbXrecord
280
     1
 90
        1
330
65
  0
DICTIONARY
  5
28B
102
{ACAD_REACTORS
330
C
102
}
330
C
100
AcDbDictionary
281
     1
  3
CANNOSCALE
350
290
  3
CMLEADERSTYLE
350
28D
  3
CTABLESTYLE
350
28C
  3
CVIEWDETAILSTYLE
350
28E
  3
CVIEWSECTIONSTYLE
350
28F
  0
ACDBDETAILVIEWSTYLE
  5
6B
102
{ACAD_REACTORS
330
6A
102
}
330
6A
100
AcDbModelDocViewStyle
 70
     0
  3
Imperial24
290
     1
300
Imperial24
 90
        0
100
AcDbDetailViewStyle
 70
     0
 71
     0
 90
        3
 71
     1
340
55
 62
   256
 40
0.24
340
0
 62
   256
 40
0.24
300

 40
0.36
280
     3
 71
     2
340
5D
 90
       25
 62
   256
 71
     3
340
55
 62
   256
 40
0.24
 90
        1
 40
0.75
 90
        1
300
%<\AcVar ViewType \f "%tc1">% %<\AcVar ViewDetailId>%\PSCALE %<\AcVar ViewScale \f "%sn">%
 71
     4
340
5D
 90
       25
 62
   256
340
5D
 90
       25
 62
   256
280
     0
  0
LAYOUT
  5
6F
102
{ACAD_REACTORS
330
62
102
}
330
62
100
AcDbPlotSettings
  1

  2

  4

  6

 40
0.0
 41
0.0
 42
0.0
 43
0.0
 44
0.0
 45
0.0
 46
0.0
 47
0.0
 48
0.0
 49
0.0
140
0.0
141
0.0
142
1.0
143
1.0
 70
   688
 72
     0
 73
     0
 74
     5
  7

 75
    16
147
1.0
 76
     0
 77
     2
 78
   300
148
0.0
149
0.0
100
AcDbLayout
  1
Layout1
 70
     1
 71
     1
 10
0.0
 20
0.0
 11
12.0
 21
9.0
 12
0.0
 22
0.0
 32
0.0
 14
0.0
 24
0.0
 34
0.0
 15
0.0
 25
0.0
 35
0.0
146
0.0
 13
0.0
 23
0.0
 33
0.0
 16
1.0
 26
0.0
 36
0.0
 17
0.0
 27
1.0
 37
0.0
 76
     0
330
6C
  0
LAYOUT
  5
77
102
{ACAD_REACTORS
330
62
102
}
330
62
100
AcDbPlotSettings
  1

  2

  4

  6

 40
0.0
 41
0.0
 42
0.0
 43
0.0
 44
0.0
 45
0.0
 46
0.0
 47
0.0
 48
0.0
 49
0.0
140
0.0
141
0.0
142
1.0
143
1.0
 70
   688
 72
     0
 73
     0
 74
     5
  7

 75
    16
147
1.0
 76
     0
 77
     2
 78
   300
148
0.0
149
0.0
100
AcDbLayout
  1
Layout2
 70
     1
 71
     2
 10
0.0
 20
0.0
 11
12.0
 21
9.0
 12
0.0
 22
0.0
 32
0.0
 14
0.0
 24
0.0
 34
0.0
 15
0.0
 25
0.0
 35
0.0
146
0.0
 13
0.0
 23
0.0
 33
0.0
 16
1.0
 26
0.0
 36
0.0
 17
0.0
 27
1.0
 37
0.0
 76
     0
330
74
  0
LAYOUT
  5
73
102
{ACAD_REACTORS
330
62
102
}
330
62
100
AcDbPlotSettings
  1

  2

  4

  6

 40
0.0
 41
0.0
 42
0.0
 43
0.0
 44
0.0
 45
0.0
 46
0.0
 47
0.0
 48
0.0
 49
0.0
140
0.0
141
0.0
142
1.0
143
1.0
 70
  1712
 72
     0
 73
     0
 74
     0
  7

 75
     0
147
1.0
 76
     0
 77
     2
 78
   300
148
0.0
149
0.0
100
AcDbLayout
  1
Model
 70
     1
 71
     0
 10
0.0
 20
0.0
 11
12.0
 21
9.0
 12
0.0
 22
0.0
 32
0.0
 14
0.0
 24
0.0
 34
0.0
 15
0.0
 25
0.0
 35
0.0
146
0.0
 13
0.0
 23
0.0
 33
0.0
 16
1.0
 26
0.0
 36
0.0
 17
0.0
 27
1.0
 37
0.0
 76
     0
330
70
  0
MATERIAL
  5
19
102
{ACAD_XDICTIONARY
360
1A
102
}
102
{ACAD_REACTORS
330
10
102
}
330
10
100
AcDbMaterial
  1
ByBlock
 72
     0
 43
0.0208333333333333
 43
0.0
 43
0.0
 43
0.0
 43
0.0
 43
0.0208333333333333
 43
0.0
 43
0.0
 43
0.0
 43
0.0
 43
1.0
 43
0.0
 43
0.0
 43
0.0
 43
0.0
 43
1.0
 77
     0
 47
0.0208333333333333
 47
0.0
 47
0.0
 47
0.0
 47
0.0
 47
0.0208333333333333
 47
0.0
 47
0.0
 47
0.0
 47
0.0
 47
1.0
 47
0.0
 47
0.0
 47
0.0
 47
0.0
 47
1.0
171
     0
 49
0.0208333333333333
 49
0.0
 49
0.0
 49
0.0
 49
0.0
 49
0.0208333333333333
 49
0.0
 49
0.0
 49
0.0
 49
0.0
 49
1.0
 49
0.0
 49
0.0
 49
0.0
 49
0.0
 49
1.0
175
     0
142
0.0208333333333333
142
0.0
142
0.0
142
0.0
142
0.0
142
0.0208333333333333
142
0.0
142
0.0
142
0.0
142
0.0
142
1.0
142
0.0
142
0.0
142
0.0
142
0.0
142
1.0
179
     0
144
0.0208333333333333
144
0.0
144
0.0
144
0.0
144
0.0
144
0.0208333333333333
144
0.0
144
0.0
144
0.0
144
0.0
144
1.0
144
0.0
144
0.0
144
0.0
144
0.0
144
1.0
147
0.0208333333333333
147
0.0
147
0.0
147
0.0
147
0.0
147
0.0208333333333333
147
0.0
147
0.0
147
0.0
147
0.0
147
1.0
147
0.0
147
0.0
147
0.0
147
0.0
147
1.0
  0
MATERIAL
  5
11
102
{ACAD_XDICTIONARY
360
12
102
}
102
{ACAD_REACTORS
330
10
102
}
330
10
100
AcDbMaterial
  1
ByLayer
 72
     0
 43
0.0208333333333333
 43
0.0
 43
0.0
 43
0.0
 43
0.0
 43
0.0208333333333333
 43
0.0
 43
0.0
 43
0.0
 43
0.0
 43
1.0
 43
0.0
 43
0.0
 43
0.0
 43
0.0
 43
1.0
 77
     0
 47
0.0208333333333333
 47
0.0
 47
0.0
 47
0.0
 47
0.0
 47
0.0208333333333333
 47
0.0
 47
0.0
 47
0.0
 47
0.0
 47
1.0
 47
0.0
 47
0.0
 47
0.0
 47
0.0
 47
1.0
171
     0
 49
0.0208333333333333
 49
0.0
 49
0.0
 49
0.0
 49
0.0
 49
0.0208333333333333
 49
0.0
 49
0.0
 49
0.0
 49
0.0
 49
1.0
 49
0.0
 49
0.0
 49
0.0
 49
0.0
 49
1.0
175
     0
142
0.0208333333333333
142
0.0
142
0.0
142
0.0
142
0.0
142
0.0208333333333333
142
0.0
142
0.0
142
0.0
142
0.0
142
1.0
142
0.0
142
0.0
142
0.0
142
0.0
142
1.0
179
     0
144
0.0208333333333333
144
0.0
144
0.0
144
0.0
144
0.0
144
0.0208333333333333
144
0.0
144
0.0
144
0.0
144
0.0
144
1.0
144
0.0
144
0.0
144
0.0
144
0.0
144
1.0
147
0.0208333333333333
147
0.0
147
0.0
147
0.0
147
0.0
147
0.0208333333333333
147
0.0
147
0.0
147
0.0
147
0.0
147
1.0
147
0.0
147
0.0
147
0.0
147
0.0
147
1.0
  0
MATERIAL
  5
21
102
{ACAD_XDICTIONARY
360
22
102
}
102
{ACAD_REACTORS
330
10
102
}
330
10
100
AcDbMaterial
  1
Global
 72
     0
 43
0.0208333333333333
 43
0.0
 43
0.0
 43
0.0
 43
0.0
 43
0.0208333333333333
 43
0.0
 43
0.0
 43
0.0
 43
0.0
 43
1.0
 43
0.0
 43
0.0
 43
0.0
 43
0.0
 43
1.0
 77
     0
 47
0.0208333333333333
 47
0.0
 47
0.0
 47
0.0
 47
0.0
 47
0.0208333333333333
 47
0.0
 47
0.0
 47
0.0
 47
0.0
 47
1.0
 47
0.0
 47
0.0
 47
0.0
 47
0.0
 47
1.0
171
     0
 49
0.0208333333333333
 49
0.0
 49
0.0
 49
0.0
 49
0.0
 49
0.0208333333333333
 49
0.0
 49
0.0
 49
0.0
 49
0.0
 49
1.0
 49
0.0
 49
0.0
 49
0.0
 49
0.0
 49
1.0
175
     0
142
0.0208333333333333
142
0.0
142
0.0
142
0.0
142
0.0
142
0.0208333333333333
142
0.0
142
0.0
142
0.0
142
0.0
142
1.0
142
0.0
142
0.0
142
0.0
142
0.0
142
1.0
179
     0
144
0.0208333333333333
144
0.0
144
0.0
144
0.0
144
0.0
144
0.0208333333333333
144
0.0
144
0.0
144
0.0
144
0.0
144
1.0
144
0.0
144
0.0
144
0.0
144
0.0
144
1.0
147
0.0208333333333333
147
0.0
147
0.0
147
0.0
147
0.0
147
0.0208333333333333
147
0.0
147
0.0
147
0.0
147
0.0
147
1.0
147
0.0
147
0.0
147
0.0
147
0.0
147
1.0
  0
MLEADERSTYLE
  5
67
102
{ACAD_REACTORS
330
66
102
}
330
66
100
AcDbMLeaderStyle
179
     2
170
     2
171
     1
172
     0
 90
        2
 40
0.0
 41
0.0
173
     1
 91
-1056964608
340
5B
 92
       -2
290
     1
 42
0.09
291
     1
 43
0.36
  3
Standard
 44
0.18
300

342
55
174
     1
178
     6
175
     1
176
     0
 93
-1056964608
 45
0.18
292
     0
297
     0
 46
0.18
 94
-1056964608
 47
1.0
 49
1.0
140
1.0
293
     1
141
0.0
294
     1
177
     0
142
1.0
295
     1
296
     0
143
0.125
271
     0
272
     9
273
     9
298
     1
  0
MLINESTYLE
  5
60
102
{ACAD_REACTORS
330
5F
102
}
330
5F
100
AcDbMlineStyle
  2
STANDARD
 70
     0
  3

 62
   256
 51
90.0
 52
90.0
 71
     2
 49
0.5
 62
   256
  6
BYLAYER
 49
-0.5
 62
   256
  6
BYLAYER
  0
ACDBPLACEHOLDER
  5
F
102
{ACAD_REACTORS
330
E
102
}
330
E
  0
SCALE
  5
43
102
{ACAD_REACTORS
330
42
102
}
330
42
100
AcDbScale
 70
     0
300
1:1
140
1.0
141
1.0
290
     1
  0
SCALE
  5
44
102
{ACAD_REACTORS
330
42
102
}
330
42
100
AcDbScale
 70
     0
300
1/128" = 1'-0"
140
0.0078125
141
12.0
290
     0
  0
SCALE
  5
45
102
{ACAD_REACTORS
330
42
102
}
330
42
100
AcDbScale
 70
     0
300
1/64" = 1'-0"
140
0.015625
141
12.0
290
     0
  0
SCALE
  5
46
102
{ACAD_REACTORS
330
42
102
}
330
42
100
AcDbScale
 70
     0
300
1/32" = 1'-0"
140
0.03125
141
12.0
290
     0
  0
SCALE
  5
47
102
{ACAD_REACTORS
330
42
102
}
330
42
100
AcDbScale
 70
     0
300
1/16" = 1'-0"
140
0.0625
141
12.0
290
     0
  0
SCALE
  5
48
102
{ACAD_REACTORS
330
42
102
}
330
42
100
AcDbScale
 70
     0
300
3/32" = 1'-0"
140
0.09375
141
12.0
290
     0
  0
SCALE
  5
49
102
{ACAD_REACTORS
330
42
102
}
330
42
100
AcDbScale
 70
     0
300
1/8" = 1'-0"
140
0.125
141
12.0
290
     0
  0
SCALE
  5
4A
102
{ACAD_REACTORS
330
42
102
}
330
42
100
AcDbScale
 70
     0
300
3/16" = 1'-0"
140
0.1875
141
12.0
290
     0
  0
SCALE
  5
4B
102
{ACAD_REACTORS
330
42
102
}
330
42
100
AcDbScale
 70
     0
300
1/4" = 1'-0"
140
0.25
141
12.0
290
     0
  0
SCALE
  5
4C
102
{ACAD_REACTORS
330
42
102
}
330
42
100
AcDbScale
 70
     0
300
3/8" = 1'-0"
140
0.375
141
12.0
290
     0
  0
SCALE
  5
4D
102
{ACAD_REACTORS
330
42
102
}
330
42
100
AcDbScale
 70
     0
300
1/2" = 1'-0"
140
0.5
141
12.0
290
     0
  0
SCALE
  5
4E
102
{ACAD_REACTORS
330
42
102
}
330
42
100
AcDbScale
 70
     0
300
3/4" = 1'-0"
140
0.75
141
12.0
290
     0
  0
SCALE
  5
4F
102
{ACAD_REACTORS
330
42
102
}
330
42
100
AcDbScale
 70
     0
300
1" = 1'-0"
140
1.0
141
12.0
290
     0
  0
SCALE
  5
50
102
{ACAD_REACTORS
330
42
102
}
330
42
100
AcDbScale
 70
     0
300
1-1/2" = 1'-0"
140
1.5
141
12.0
290
     0
  0
SCALE
  5
51
102
{ACAD_REACTORS
330
42
102
}
330
42
100
AcDbScale
 70
     0
300
3" = 1'-0"
140
3.0
141
12.0
290
     0
  0
SCALE
  5
52
102
{ACAD_REACTORS
330
42
102
}
330
42
100
AcDbScale
 70
     0
300
6" = 1'-0"
140
6.0
141
12.0
290
     0
  0
SCALE
  5
53
102
{ACAD_REACTORS
330
42
102
}
330
42
100
AcDbScale
 70
     0
300
1'-0" = 1'-0"
140
12.0
141
12.0
290
     0
  0
ACDBSECTIONVIEWSTYLE
  5
69
102
{ACAD_REACTORS
330
68
102
}
330
68
100
AcDbModelDocViewStyle
 70
     0
  3
Imperial24
290
     1
300
Imperial24
 90
        0
100
AcDbSectionViewStyle
 70
     0
 71
     0
 90
       78
 71
     1
340
55
 62
   256
 40
0.24
340
0
340
0
 62
   256
 40
0.24
300
I, O, Q, S, X, Z
 40
0.48
 90
        3
 40
0.18
 90
        1
 71
     2
340
5D
 90
       25
 62
   256
340
5D
 90
       50
 62
   256
 40
0.24
 40
0.0
 40
0.24
 71
     3
340
55
 62
   256
 40
0.24
 90
        1
 40
0.75
 90
        1
300
%<\AcVar ViewType \f "%tc1">% %<\AcVar ViewSectionStartId>%-%<\AcVar ViewSectionEndId>%\PSCALE %<\AcVar ViewScale \f "%sn">%
 71
     4
 62
   256
 62
   257
300
ANSI31
 40
1.0
 90
        0
290
     0
290
     0
 90
        6
 40
0.0
 40
1.570796326794896
 40
0.2617993877991494
 40
1.308996938995747
 40
-0.2617993877991494
 40
1.832595714594046
  0
TABLESTYLE
  5
65
102
{ACAD_XDICTIONARY
360
291
102
}
102
{ACAD_REACTORS
330
64
102
}
330
64
100
AcDbTableStyle
280
     0
  3
Standard
 70
     0
 71
     0
 40
0.06
 41
0.06
280
     0
281
     0
  7
Standard
140
0.18
170
     2
 62
     0
 63
     7
283
     0
 90
      512
 91
        0
  1

274
    -2
284
     1
 64
     0
275
    -2
285
     1
 65
     0
276
    -2
286
     1
 66
     0
277
    -2
287
     1
 67
     0
278
    -2
288
     1
 68
     0
279
    -2
289
     1
 69
     0
  7
Standard
140
0.25
170
     5
 62
     0
 63
     7
283
     0
 90
      512
 91
        0
  1

274
    -2
284
     1
 64
     0
275
    -2
285
     1
 65
     0
276
    -2
286
     1
 66
     0
277
    -2
287
     1
 67
     0
278
    -2
288
     1
 68
     0
279
    -2
289
     1
 69
     0
  7
Standard
140
0.18
170
     5
 62
     0
 63
     7
283
     0
 90
      512
 91
        0
  1

274
    -2
284
     1
 64
     0
275
    -2
285
     1
 65
     0
276
    -2
286
     1
 66
     0
277
    -2
287
     1
 67
     0
278
    -2
288
     1
 68
     0
279
    -2
289
     1
 69
     0
  0
VISUALSTYLE
  5
2F
102
{ACAD_REACTORS
330
29
102
}
330
29
100
AcDbVisualStyle
  2
2dWireframe
 70
     4
177
     3
291
     0
 70
    58
 90
        0
176
     1
 90
        2
176
     1
 90
        0
176
     1
 90
        0
176
     1
 40
0.6
176
     1
 40
30.0
176
     1
 62
     7
420
 16777215
176
     1
 90
        1
176
     1
 90
        4
176
     1
 62
     7
176
     1
 62
   257
176
     1
 90
        1
176
     1
 90
        1
176
     1
 40
1.0
176
     1
 90
        0
176
     1
 62
   257
176
     1
 40
1.0
176
     1
 90
        1
176
     1
 90
        6
176
     1
 90
        2
176
     1
 62
     7
176
     1
 90
        5
176
     1
 90
        0
176
     1
 90
        0
176
     1
290
     0
176
     1
 90
        1
176
     1
 40
0.0
176
     1
 90
        0
176
     1
290
     1
176
     1
290
     1
176
     1
290
     0
176
     1
290
     0
176
     1
290
     0
176
     1
290
     0
176
     1
290
     0
176
     1
290
     0
176
     1
290
     0
176
     1
 90
       50
176
     1
 40
0.0
176
     1
 40
1.0
176
     1
 90
        0
176
     1
 62
    18
420
        0
176
     1
 90
       50
176
     1
 90
        3
176
     1
 62
     5
420
      255
176
     1
290
     0
176
     1
 90
       50
176
     1
 90
       50
176
     1
 90
       50
176
     1
290
     0
176
     1
 90
       50
176
     1
 62
   256
176
     0
 40
1.0
176
     0
 90
        2
176
     1
  1
strokes_ogs.tif
176
     1
290
     0
176
     1
 40
1.0
176
     1
 40
1.0
176
     1
  0
VISUALSTYLE
  5
2E
102
{ACAD_REACTORS
330
29
102
}
330
29
100
AcDbVisualStyle
  2
Basic
 70
     7
177
     3
291
     1
 70
    58
 90
        1
176
     1
 90
        0
176
     1
 90
        1
176
     1
 90
        0
176
     1
 40
0.6
176
     1
 40
30.0
176
     1
 62
     7
420
 16777215
176
     1
 90
        0
176
     1
 90
        4
176
     1
 62
     7
176
     1
 62
   257
176
     1
 90
        1
176
     1
 90
        1
176
     1
 40
1.0
176
     1
 90
        8
176
     1
 62
     7
176
     1
 40
1.0
176
     1
 90
        1
176
     1
 90
        6
176
     1
 90
        2
176
     1
 62
     7
176
     1
 90
        5
176
     1
 90
        0
176
     1
 90
        0
176
     1
290
     0
176
     1
 90
        1
176
     1
 40
0.0
176
     1
 90
        0
176
     1
290
     0
176
     1
290
     1
176
     1
290
     1
176
     1
290
     0
176
     1
290
     0
176
     1
290
     0
176
     1
290
     0
176
     1
290
     0
176
     1
290
     0
176
     1
 90
       50
176
     1
 40
0.0
176
     1
 40
1.0
176
     1
 90
        0
176
     1
 62
    18
420
        0
176
     1
 90
       50
176
     1
 90
        3
176
     1
 62
     5
420
      255
176
     1
290
     0
176
     1
 90
       50
176
     1
 90
       50
176
     1
 90
       50
176
     1
290
     0
176
     1
 90
       50
176
     1
 62
   256
176
     0
 40
1.0
176
     0
 90
        2
176
     1
  1
strokes_ogs.tif
176
     1
290
     0
176
     1
 40
1.0
176
     1
 40
1.0
176
     1
  0
VISUALSTYLE
  5
35
102
{ACAD_REACTORS
330
29
102
}
330
29
100
AcDbVisualStyle
  2
Brighten
 70
    12
177
     3
291
     1
 70
    58
 90
        2
176
     1
 90
        2
176
     1
 90
        0
176
     1
 90
        0
176
     1
 40
0.6
176
     1
 40
30.0
176
     1
 62
     7
420
 16777215
176
     1
 90
        1
176
     1
 90
        4
176
     1
 62
     7
176
     1
 62
   257
176
     1
 90
        1
176
     1
 90
        1
176
     1
 40
1.0
176
     1
 90
        8
176
     1
 62
     7
176
     1
 40
1.0
176
     1
 90
        1
176
     1
 90
        6
176
     1
 90
        2
176
     1
 62
     7
176
     1
 90
        5
176
     1
 90
        0
176
     1
 90
        0
176
     1
290
     0
176
     1
 90
        1
176
     1
 40
50.0
176
     1
 90
        0
176
     1
290
     0
176
     1
290
     1
176
     1
290
     1
176
     1
290
     0
176
     1
290
     0
176
     1
290
     0
176
     1
290
     0
176
     1
290
     0
176
     1
290
     0
176
     1
 90
       50
176
     1
 40
0.0
176
     1
 40
1.0
176
     1
 90
        0
176
     1
 62
    18
420
        0
176
     1
 90
       50
176
     1
 90
        3
176
     1
 62
     5
420
      255
176
     1
290
     0
176
     1
 90
       50
176
     1
 90
       50
176
     1
 90
       50
176
     1
290
     0
176
     1
 90
       50
176
     1
 62
   256
176
     0
 40
1.0
176
     0
 90
        2
176
     1
  1
strokes_ogs.tif
176
     1
290
     0
176
     1
 40
1.0
176
     1
 40
1.0
176
     1
  0
VISUALSTYLE
  5
39
102
{ACAD_REACTORS
330
29
102
}
330
29
100
AcDbVisualStyle
  2
ColorChange
 70
    16
177
     3
291
     1
 70
    58
 90
        2
176
     1
 90
        2
176
     1
 90
        3
176
     1
 90
        0
176
     1
 40
0.6
176
     1
 40
30.0
176
     1
 62
     8
420
  8421504
176
     1
 90
        1
176
     1
 90
        4
176
     1
 62
     7
176
     1
 62
   257
176
     1
 90
        1
176
     1
 90
        1
176
     1
 40
1.0
176
     1
 90
        8
176
     1
 62
     8
420
  8421504
176
     1
 40
1.0
176
     1
 90
        1
176
     1
 90
        6
176
     1
 90
        2
176
     1
 62
     7
176
     1
 90
        5
176
     1
 90
        0
176
     1
 90
        0
176
     1
290
     0
176
     1
 90
        1
176
     1
 40
0.0
176
     1
 90
        0
176
     1
290
     0
176
     1
290
     1
176
     1
290
     1
176
     1
290
     0
176
     1
290
     0
176
     1
290
     0
176
     1
290
     0
176
     1
290
     0
176
     1
290
     0
176
     1
 90
       50
176
     1
 40
0.0
176
     1
 40
1.0
176
     1
 90
        0
176
     1
 62
    18
420
        0
176
     1
 90
       50
176
     1
 90
        3
176
     1
 62
     5
420
      255
176
     1
290
     0
176
     1
 90
       50
176
     1
 90
       50
176
     1
 90
       50
176
     1
290
     0
176
     1
 90
       50
176
     1
 62
   256
176
     0
 40
1.0
176
     0
 90
        2
176
     1
  1
strokes_ogs.tif
176
     1
290
     0
176
     1
 40
1.0
176
     1
 40
1.0
176
     1
  0
VISUALSTYLE
  5
32
102
{ACAD_REACTORS
330
29
102
}
330
29
100
AcDbVisualStyle
  2
Conceptual
 70
     9
177
     3
291
     0
 70
    58
 90
        3
176
     1
 90
        2
176
     1
 90
        0
176
     1
 90
        0
176
     1
 40
0.6
176
     1
 40
30.0
176
     1
 62
     7
420
 16777215
176
     1
 90
        2
176
     1
 90
        2
176
     1
 62
     7
176
     1
 62
   257
176
     1
 90
        1
176
     1
 90
        1
176
     1
 40
179.0
176
     1
 90
        8
176
     1
 62
     7
176
     1
 40
1.0
176
     1
 90
        1
176
     1
 90
        6
176
     1
 90
        2
176
     1
 62
     7
176
     1
 90
        3
176
     1
 90
        0
176
     1
 90
        0
176
     1
290
     0
176
     1
 90
        1
176
     1
 40
0.0
176
     1
 90
        0
176
     1
290
     0
176
     1
290
     1
176
     1
290
     1
176
     1
290
     0
176
     1
290
     0
176
     1
290
     0
176
     1
290
     0
176
     1
290
     0
176
     1
290
     0
176
     1
 90
       50
176
     1
 40
0.0
176
     1
 40
1.0
176
     1
 90
        0
176
     1
 62
    18
420
        0
176
     1
 90
       50
176
     1
 90
        3
176
     1
 62
     5
420
      255
176
     1
290
     0
176
     1
 90
       50
176
     1
 90
       50
176
     1
 90
       50
176
     1
290
     0
176
     1
 90
       50
176
     1
 62
   256
176
     0
 40
1.0
176
     0
 90
        2
176
     1
  1
strokes_ogs.tif
176
     1
290
     0
176
     1
 40
1.0
176
     1
 40
1.0
176
     1
  0
VISUALSTYLE
  5
34
102
{ACAD_REACTORS
330
29
102
}
330
29
100
AcDbVisualStyle
  2
Dim
 70
    11
177
     3
291
     1
 70
    58
 90
        2
176
     1
 90
        2
176
     1
 90
        0
176
     1
 90
        0
176
     1
 40
0.6
176
     1
 40
30.0
176
     1
 62
     7
420
 16777215
176
     1
 90
        1
176
     1
 90
        4
176
     1
 62
     7
176
     1
 62
   257
176
     1
 90
        1
176
     1
 90
        1
176
     1
 40
1.0
176
     1
 90
        8
176
     1
 62
     7
176
     1
 40
1.0
176
     1
 90
        1
176
     1
 90
        6
176
     1
 90
        2
176
     1
 62
     7
176
     1
 90
        5
176
     1
 90
        0
176
     1
 90
        0
176
     1
290
     0
176
     1
 90
        1
176
     1
 40
-50.0
176
     1
 90
        0
176
     1
290
     0
176
     1
290
     1
176
     1
290
     1
176
     1
290
     0
176
     1
290
     0
176
     1
290
     0
176
     1
290
     0
176
     1
290
     0
176
     1
290
     0
176
     1
 90
       50
176
     1
 40
0.0
176
     1
 40
1.0
176
     1
 90
        0
176
     1
 62
    18
420
        0
176
     1
 90
       50
176
     1
 90
        3
176
     1
 62
     5
420
      255
176
     1
290
     0
176
     1
 90
       50
176
     1
 90
       50
176
     1
 90
       50
176
     1
290
     0
176
     1
 90
       50
176
     1
 62
   256
176
     0
 40
1.0
176
     0
 90
        2
176
     1
  1
strokes_ogs.tif
176
     1
290
     0
176
     1
 40
1.0
176
     1
 40
1.0
176
     1
  0
VISUALSTYLE
  5
41
102
{ACAD_REACTORS
330
29
102
}
330
29
100
AcDbVisualStyle
  2
EdgeColorOff
 70
    22
177
     3
291
     1
 70
    58
 90
        2
176
     0
 90
        2
176
     0
 90
        0
176
     0
 90
        0
176
     0
 40
0.6
176
     0
 40
30.0
176
     0
 62
     7
420
 16777215
176
     0
 90
        1
176
     0
 90
        4
176
     0
 62
     7
176
     0
 62
   257
176
     0
 90
        1
176
     0
 90
        1
176
     0
 40
1.0
176
     0
 90
        8
176
     2
 62
     7
176
     0
 40
1.0
176
     0
 90
        1
176
     0
 90
        6
176
     0
 90
        2
176
     0
 62
     7
176
     0
 90
        5
176
     0
 90
        0
176
     0
 90
        0
176
     0
290
     0
176
     0
 90
        1
176
     0
 40
0.0
176
     0
 90
        0
176
     0
290
     0
176
     0
290
     1
176
     0
290
     1
176
     0
290
     0
176
     0
290
     0
176
     0
290
     0
176
     0
290
     0
176
     0
290
     0
176
     0
290
     0
176
     0
 90
       50
176
     0
 40
0.0
176
     0
 40
1.0
176
     0
 90
        0
176
     0
 62
    18
420
        0
176
     0
 90
       50
176
     0
 90
        3
176
     0
 62
     5
420
      255
176
     0
290
     0
176
     0
 90
       50
176
     0
 90
       50
176
     0
 90
       50
176
     0
290
     0
176
     0
 90
       50
176
     0
 62
   256
176
     0
 40
1.0
176
     0
 90
        2
176
     0
  1
strokes_ogs.tif
176
     0
290
     0
176
     0
 40
1.0
176
     0
 40
1.0
176
     0
  0
VISUALSTYLE
  5
38
102
{ACAD_REACTORS
330
29
102
}
330
29
100
AcDbVisualStyle
  2
Facepattern
 70
    15
177
     3
291
     1
 70
    58
 90
        2
176
     1
 90
        2
176
     1
 90
        0
176
     1
 90
        0
176
     1
 40
0.6
176
     1
 40
30.0
176
     1
 62
     7
420
 16777215
176
     1
 90
        1
176
     1
 90
        4
176
     1
 62
     7
176
     1
 62
   257
176
     1
 90
        1
176
     1
 90
        1
176
     1
 40
1.0
176
     1
 90
        8
176
     1
 62
     7
176
     1
 40
1.0
176
     1
 90
        1
176
     1
 90
        6
176
     1
 90
        2
176
     1
 62
     7
176
     1
 90
        5
176
     1
 90
        0
176
     1
 90
        0
176
     1
290
     0
176
     1
 90
        1
176
     1
 40
0.0
176
     1
 90
        0
176
     1
290
     0
176
     1
290
     1
176
     1
290
     1
176
     1
290
     0
176
     1
290
     0
176
     1
290
     0
176
     1
290
     0
176
     1
290
     0
176
     1
290
     0
176
     1
 90
       50
176
     1
 40
0.0
176
     1
 40
1.0
176
     1
 90
        0
176
     1
 62
    18
420
        0
176
     1
 90
       50
176
     1
 90
        3
176
     1
 62
     5
420
      255
176
     1
290
     0
176
     1
 90
       50
176
     1
 90
       50
176
     1
 90
       50
176
     1
290
     0
176
     1
 90
       50
176
     1
 62
   256
176
     0
 40
1.0
176
     0
 90
        2
176
     1
  1
strokes_ogs.tif
176
     1
290
     0
176
     1
 40
1.0
176
     1
 40
1.0
176
     1
  0
VISUALSTYLE
  5
2A
102
{ACAD_REACTORS
330
29
102
}
330
29
100
AcDbVisualStyle
  2
Flat
 70
     0
177
     3
291
     1
 70
    58
 90
        2
176
     1
 90
        1
176
     1
 90
        1
176
     1
 90
        2
176
     1
 40
0.6
176
     1
 40
30.0
176
     1
 62
     7
420
 16777215
176
     1
 90
        0
176
     1
 90
        0
176
     1
 62
     7
176
     1
 62
   257
176
     1
 90
        1
176
     1
 90
        1
176
     1
 40
1.0
176
     1
 90
        8
176
     1
 62
     7
176
     1
 40
1.0
176
     1
 90
        1
176
     1
 90
        6
176
     1
 90
        2
176
     1
 62
     7
176
     1
 90
        5
176
     1
 90
        0
176
     1
 90
        0
176
     1
290
     0
176
     1
 90
       13
176
     1
 40
0.0
176
     1
 90
        0
176
     1
290
     0
176
     1
290
     1
176
     1
290
     1
176
     1
290
     0
176
     1
290
     0
176
     1
290
     0
176
     1
290
     0
176
     1
290
     0
176
     1
290
     0
176
     1
 90
       50
176
     1
 40
0.0
176
     1
 40
1.0
176
     1
 90
        0
176
     1
 62
    18
420
        0
176
     1
 90
       50
176
     1
 90
        3
176
     1
 62
     5
420
      255
176
     1
290
     0
176
     1
 90
       50
176
     1
 90
       50
176
     1
 90
       50
176
     1
290
     0
176
     1
 90
       50
176
     1
 62
   256
176
     0
 40
1.0
176
     0
 90
        2
176
     1
  1
strokes_ogs.tif
176
     1
290
     0
176
     1
 40
1.0
176
     1
 40
1.0
176
     1
  0
VISUALSTYLE
  5
2B
102
{ACAD_REACTORS
330
29
102
}
330
29
100
AcDbVisualStyle
  2
FlatWithEdges
 70
     1
177
     3
291
     1
 70
    58
 90
        2
176
     1
 90
        1
176
     1
 90
        1
176
     1
 90
        2
176
     1
 40
0.6
176
     1
 40
30.0
176
     1
 62
     7
420
 16777215
176
     1
 90
        1
176
     1
 90
        0
176
     1
 62
     7
176
     1
 62
   257
176
     1
 90
        1
176
     1
 90
        1
176
     1
 40
1.0
176
     1
 90
        0
176
     1
 62
   257
176
     1
 40
1.0
176
     1
 90
        1
176
     1
 90
        6
176
     1
 90
        2
176
     1
 62
     7
176
     1
 90
        5
176
     1
 90
        0
176
     1
 90
        0
176
     1
290
     0
176
     1
 90
       13
176
     1
 40
0.0
176
     1
 90
        0
176
     1
290
     0
176
     1
290
     1
176
     1
290
     1
176
     1
290
     0
176
     1
290
     0
176
     1
290
     0
176
     1
290
     0
176
     1
290
     0
176
     1
290
     0
176
     1
 90
       50
176
     1
 40
0.0
176
     1
 40
1.0
176
     1
 90
        0
176
     1
 62
    18
420
        0
176
     1
 90
       50
176
     1
 90
        3
176
     1
 62
     5
420
      255
176
     1
290
     0
176
     1
 90
       50
176
     1
 90
       50
176
     1
 90
       50
176
     1
290
     0
176
     1
 90
       50
176
     1
 62
   256
176
     0
 40
1.0
176
     0
 90
        2
176
     1
  1
strokes_ogs.tif
176
     1
290
     0
176
     1
 40
1.0
176
     1
 40
1.0
176
     1
  0
VISUALSTYLE
  5
2C
102
{ACAD_REACTORS
330
29
102
}
330
29
100
AcDbVisualStyle
  2
Gouraud
 70
     2
177
     3
291
     1
 70
    58
 90
        2
176
     1
 90
        2
176
     1
 90
        1
176
     1
 90
        2
176
     1
 40
0.6
176
     1
 40
30.0
176
     1
 62
     7
420
 16777215
176
     1
 90
        0
176
     1
 90
        0
176
     1
 62
     7
176
     1
 62
   257
176
     1
 90
        1
176
     1
 90
        1
176
     1
 40
1.0
176
     1
 90
        0
176
     1
 62
     7
176
     1
 40
1.0
176
     1
 90
        1
176
     1
 90
        6
176
     1
 90
        2
176
     1
 62
     7
176
     1
 90
        5
176
     1
 90
        0
176
     1
 90
        0
176
     1
290
     0
176
     1
 90
       13
176
     1
 40
0.0
176
     1
 90
        0
176
     1
290
     0
176
     1
290
     1
176
     1
290
     1
176
     1
290
     0
176
     1
290
     0
176
     1
290
     0
176
     1
290
     0
176
     1
290
     0
176
     1
290
     0
176
     1
 90
       50
176
     1
 40
0.0
176
     1
 40
1.0
176
     1
 90
        0
176
     1
 62
    18
420
        0
176
     1
 90
       50
176
     1
 90
        3
176
     1
 62
     5
420
      255
176
     1
290
     0
176
     1
 90
       50
176
     1
 90
       50
176
     1
 90
       50
176
     1
290
     0
176
     1
 90
       50
176
     1
 62
   256
176
     0
 40
1.0
176
     0
 90
        2
176
     1
  1
strokes_ogs.tif
176
     1
290
     0
176
     1
 40
1.0
176
     1
 40
1.0
176
     1
  0
VISUALSTYLE
  5
2D
102
{ACAD_REACTORS
330
29
102
}
330
29
100
AcDbVisualStyle
  2
GouraudWithEdges
 70
     3
177
     3
291
     1
 70
    58
 90
        2
176
     1
 90
        2
176
     1
 90
        1
176
     1
 90
        2
176
     1
 40
0.6
176
     1
 40
30.0
176
     1
 62
     7
420
 16777215
176
     1
 90
        1
176
     1
 90
        0
176
     1
 62
     7
176
     1
 62
   257
176
     1
 90
        1
176
     1
 90
        1
176
     1
 40
1.0
176
     1
 90
        0
176
     1
 62
   257
176
     1
 40
1.0
176
     1
 90
        1
176
     1
 90
        6
176
     1
 90
        2
176
     1
 62
     7
176
     1
 90
        5
176
     1
 90
        0
176
     1
 90
        0
176
     1
290
     0
176
     1
 90
       13
176
     1
 40
0.0
176
     1
 90
        0
176
     1
290
     0
176
     1
290
     1
176
     1
290
     1
176
     1
290
     0
176
     1
290
     0
176
     1
290
     0
176
     1
290
     0
176
     1
290
     0
176
     1
290
     0
176
     1
 90
       50
176
     1
 40
0.0
176
     1
 40
1.0
176
     1
 90
        0
176
     1
 62
    18
420
        0
176
     1
 90
       50
176
     1
 90
        3
176
     1
 62
     5
420
      255
176
     1
290
     0
176
     1
 90
       50
176
     1
 90
       50
176
     1
 90
       50
176
     1
290
     0
176
     1
 90
       50
176
     1
 62
   256
176
     0
 40
1.0
176
     0
 90
        2
176
     1
  1
strokes_ogs.tif
176
     1
290
     0
176
     1
 40
1.0
176
     1
 40
1.0
176
     1
  0
VISUALSTYLE
  5
31
102
{ACAD_REACTORS
330
29
102
}
330
29
100
AcDbVisualStyle
  2
Hidden
 70
     6
177
     3
291
     0
 70
    58
 90
        1
176
     1
 90
        2
176
     1
 90
        2
176
     1
 90
        0
176
     1
 40
0.6
176
     1
 40
30.0
176
     1
 62
     7
420
 16777215
176
     1
 90
        2
176
     1
 90
        2
176
     1
 62
     7
176
     1
 62
   257
176
     1
 90
        2
176
     1
 90
        1
176
     1
 40
40.0
176
     1
 90
        0
176
     1
 62
   257
176
     1
 40
1.0
176
     1
 90
        1
176
     1
 90
        6
176
     1
 90
        2
176
     1
 62
     7
176
     1
 90
        3
176
     1
 90
        0
176
     1
 90
        0
176
     1
290
     0
176
     1
 90
        1
176
     1
 40
0.0
176
     1
 90
        0
176
     1
290
     0
176
     1
290
     1
176
     1
290
     1
176
     1
290
     0
176
     1
290
     0
176
     1
290
     0
176
     1
290
     0
176
     1
290
     0
176
     1
290
     0
176
     1
 90
       50
176
     1
 40
0.0
176
     1
 40
1.0
176
     1
 90
        0
176
     1
 62
    18
420
        0
176
     1
 90
       50
176
     1
 90
        3
176
     1
 62
     5
420
      255
176
     1
290
     0
176
     1
 90
       50
176
     1
 90
       50
176
     1
 90
       50
176
     1
290
     0
176
     1
 90
       50
176
     1
 62
   256
176
     0
 40
1.0
176
     0
 90
        2
176
     1
  1
strokes_ogs.tif
176
     1
290
     0
176
     1
 40
1.0
176
     1
 40
1.0
176
     1
  0
VISUALSTYLE
  5
3F
102
{ACAD_REACTORS
330
29
102
}
330
29
100
AcDbVisualStyle
  2
JitterOff
 70
    20
177
     3
291
     1
 70
    58
 90
        2
176
     0
 90
        2
176
     0
 90
        0
176
     0
 90
        0
176
     0
 40
0.6
176
     0
 40
30.0
176
     0
 62
     7
420
 16777215
176
     0
 90
        1
176
     0
 90
        4
176
     0
 62
     7
176
     0
 62
   257
176
     0
 90
        1
176
     0
 90
        1
176
     0
 40
1.0
176
     0
 90
       10
176
     2
 62
     7
176
     0
 40
1.0
176
     0
 90
        1
176
     0
 90
        6
176
     0
 90
        2
176
     0
 62
     7
176
     0
 90
        5
176
     0
 90
        0
176
     0
 90
        0
176
     0
290
     0
176
     0
 90
        1
176
     0
 40
0.0
176
     0
 90
        0
176
     0
290
     0
176
     0
290
     1
176
     0
290
     1
176
     0
290
     0
176
     0
290
     0
176
     0
290
     0
176
     0
290
     0
176
     0
290
     0
176
     0
290
     0
176
     0
 90
       50
176
     0
 40
0.0
176
     0
 40
1.0
176
     0
 90
        0
176
     0
 62
    18
420
        0
176
     0
 90
       50
176
     0
 90
        3
176
     0
 62
     5
420
      255
176
     0
290
     0
176
     0
 90
       50
176
     0
 90
       50
176
     0
 90
       50
176
     0
290
     0
176
     0
 90
       50
176
     0
 62
   256
176
     0
 40
1.0
176
     0
 90
        2
176
     0
  1
strokes_ogs.tif
176
     0
290
     0
176
     0
 40
1.0
176
     0
 40
1.0
176
     0
  0
VISUALSTYLE
  5
37
102
{ACAD_REACTORS
330
29
102
}
330
29
100
AcDbVisualStyle
  2
Linepattern
 70
    14
177
     3
291
     1
 70
    58
 90
        2
176
     1
 90
        2
176
     1
 90
        0
176
     1
 90
        0
176
     1
 40
0.6
176
     1
 40
30.0
176
     1
 62
     7
420
 16777215
176
     1
 90
        1
176
     1
 90
        4
176
     1
 62
     7
176
     1
 62
   257
176
     1
 90
        7
176
     1
 90
        7
176
     1
 40
1.0
176
     1
 90
        8
176
     1
 62
     7
176
     1
 40
1.0
176
     1
 90
        1
176
     1
 90
        6
176
     1
 90
        2
176
     1
 62
     7
176
     1
 90
        5
176
     1
 90
        0
176
     1
 90
        0
176
     1
290
     0
176
     1
 90
        1
176
     1
 40
0.0
176
     1
 90
        0
176
     1
290
     0
176
     1
290
     1
176
     1
290
     1
176
     1
290
     0
176
     1
290
     0
176
     1
290
     0
176
     1
290
     0
176
     1
290
     0
176
     1
290
     0
176
     1
 90
       50
176
     1
 40
0.0
176
     1
 40
1.0
176
     1
 90
        0
176
     1
 62
    18
420
        0
176
     1
 90
       50
176
     1
 90
        3
176
     1
 62
     5
420
      255
176
     1
290
     0
176
     1
 90
       50
176
     1
 90
       50
176
     1
 90
       50
176
     1
290
     0
176
     1
 90
       50
176
     1
 62
   256
176
     0
 40
1.0
176
     0
 90
        2
176
     1
  1
strokes_ogs.tif
176
     1
290
     0
176
     1
 40
1.0
176
     1
 40
1.0
176
     1
  0
VISUALSTYLE
  5
40
102
{ACAD_REACTORS
330
29
102
}
330
29
100
AcDbVisualStyle
  2
OverhangOff
 70
    21
177
     3
291
     1
 70
    58
 90
        2
176
     0
 90
        2
176
     0
 90
        0
176
     0
 90
        0
176
     0
 40
0.6
176
     0
 40
30.0
176
     0
 62
     7
420
 16777215
176
     0
 90
        1
176
     0
 90
        4
176
     0
 62
     7
176
     0
 62
   257
176
     0
 90
        1
176
     0
 90
        1
176
     0
 40
1.0
176
     0
 90
        9
176
     2
 62
     7
176
     0
 40
1.0
176
     0
 90
        1
176
     0
 90
        6
176
     0
 90
        2
176
     0
 62
     7
176
     0
 90
        5
176
     0
 90
        0
176
     0
 90
        0
176
     0
290
     0
176
     0
 90
        1
176
     0
 40
0.0
176
     0
 90
        0
176
     0
290
     0
176
     0
290
     1
176
     0
290
     1
176
     0
290
     0
176
     0
290
     0
176
     0
290
     0
176
     0
290
     0
176
     0
290
     0
176
     0
290
     0
176
     0
 90
       50
176
     0
 40
0.0
176
     0
 40
1.0
176
     0
 90
        0
176
     0
 62
    18
420
        0
176
     0
 90
       50
176
     0
 90
        3
176
     0
 62
     5
420
      255
176
     0
290
     0
176
     0
 90
       50
176
     0
 90
       50
176
     0
 90
       50
176
     0
290
     0
176
     0
 90
       50
176
     0
 62
   256
176
     0
 40
1.0
176
     0
 90
        2
176
     0
  1
strokes_ogs.tif
176
     0
290
     0
176
     0
 40
1.0
176
     0
 40
1.0
176
     0
  0
VISUALSTYLE
  5
33
102
{ACAD_REACTORS
330
29
102
}
330
29
100
AcDbVisualStyle
  2
Realistic
 70
     8
177
     3
291
     0
 70
    58
 90
        2
176
     1
 90
        3
176
     1
 90
        0
176
     1
 90
        2
176
     1
 40
0.6
176
     1
 40
30.0
176
     1
 62
     7
420
 16777215
176
     1
 90
        0
176
     1
 90
        0
176
     1
 62
     7
176
     1
 62
   257
176
     1
 90
        1
176
     1
 90
        1
176
     1
 40
1.0
176
     1
 90
        8
176
     1
 62
   257
176
     1
 40
1.0
176
     1
 90
        1
176
     1
 90
        6
176
     1
 90
        2
176
     1
 62
     7
176
     1
 90
        3
176
     1
 90
        0
176
     1
 90
        0
176
     1
290
     0
176
     1
 90
       13
176
     1
 40
0.0
176
     1
 90
        0
176
     1
290
     0
176
     1
290
     1
176
     1
290
     1
176
     1
290
     0
176
     1
290
     0
176
     1
290
     0
176
     1
290
     0
176
     1
290
     0
176
     1
290
     0
176
     1
 90
       50
176
     1
 40
0.0
176
     1
 40
1.0
176
     1
 90
        0
176
     1
 62
    18
420
        0
176
     1
 90
       50
176
     1
 90
        3
176
     1
 62
     5
420
      255
176
     1
290
     0
176
     1
 90
       50
176
     1
 90
       50
176
     1
 90
       50
176
     1
290
     0
176
     1
 90
       50
176
     1
 62
   256
176
     0
 40
1.0
176
     0
 90
        2
176
     1
  1
strokes_ogs.tif
176
     1
290
     0
176
     1
 40
1.0
176
     1
 40
1.0
176
     1
  0
VISUALSTYLE
  5
3E
102
{ACAD_REACTORS
330
29
102
}
330
29
100
AcDbVisualStyle
  2
Shaded
 70
    27
177
     3
291
     0
 70
    58
 90
        2
176
     1
 90
        2
176
     1
 90
        1
176
     1
 90
        2
176
     1
 40
0.6
176
     1
 40
30.0
176
     1
 62
     7
420
 16777215
176
     1
 90
        0
176
     1
 90
        4
176
     1
 62
     7
176
     1
 62
   257
176
     1
 90
        1
176
     1
 90
        1
176
     1
 40
1.0
176
     1
 90
        8
176
     1
 62
   257
176
     1
 40
1.0
176
     1
 90
        1
176
     1
 90
        6
176
     1
 90
        2
176
     1
 62
     8
420
  7895160
176
     1
 90
        3
176
     1
 90
        0
176
     1
 90
        0
176
     1
290
     0
176
     1
 90
        5
176
     1
 40
0.0
176
     1
 90
        0
176
     1
290
     0
176
     1
290
     1
176
     1
290
     1
176
     1
290
     0
176
     1
290
     0
176
     1
290
     0
176
     1
290
     0
176
     1
290
     0
176
     1
290
     0
176
     1
 90
       50
176
     1
 40
0.0
176
     1
 40
1.0
176
     1
 90
        0
176
     1
 62
    18
420
        0
176
     1
 90
       50
176
     1
 90
        3
176
     1
 62
     5
420
      255
176
     1
290
     0
176
     1
 90
       50
176
     1
 90
       50
176
     1
 90
       50
176
     1
290
     0
176
     1
 90
       50
176
     1
 62
   256
176
     0
 40
1.0
176
     0
 90
        2
176
     1
  1
strokes_ogs.tif
176
     1
290
     0
176
     1
 40
1.0
176
     1
 40
1.0
176
     1
  0
VISUALSTYLE
  5
3D
102
{ACAD_REACTORS
330
29
102
}
330
29
100
AcDbVisualStyle
  2
Shaded with edges
 70
    26
177
     3
291
     0
 70
    58
 90
        2
176
     1
 90
        2
176
     1
 90
        1
176
     1
 90
        2
176
     1
 40
0.6
176
     1
 40
30.0
176
     1
 62
     7
420
 16777215
176
     1
 90
        1
176
     1
 90
        2
176
     1
 62
     7
176
     1
 62
   257
176
     1
 90
        2
176
     1
 90
        1
176
     1
 40
1.0
176
     1
 90
        8
176
     1
 62
   257
176
     1
 40
1.0
176
     1
 90
        1
176
     1
 90
        6
176
     1
 90
        2
176
     1
 62
     7
176
     1
 90
        3
176
     1
 90
        0
176
     1
 90
        0
176
     1
290
     0
176
     1
 90
        5
176
     1
 40
0.0
176
     1
 90
        0
176
     1
290
     0
176
     1
290
     1
176
     1
290
     1
176
     1
290
     0
176
     1
290
     0
176
     1
290
     0
176
     1
290
     0
176
     1
290
     0
176
     1
290
     0
176
     1
 90
       50
176
     1
 40
0.0
176
     1
 40
1.0
176
     1
 90
        0
176
     1
 62
    18
420
        0
176
     1
 90
       50
176
     1
 90
        3
176
     1
 62
     5
420
      255
176
     1
290
     0
176
     1
 90
       50
176
     1
 90
       50
176
     1
 90
       50
176
     1
290
     0
176
     1
 90
       50
176
     1
 62
   256
176
     0
 40
1.0
176
     0
 90
        2
176
     1
  1
strokes_ogs.tif
176
     1
290
     0
176
     1
 40
1.0
176
     1
 40
1.0
176
     1
  0
VISUALSTYLE
  5
3A
102
{ACAD_REACTORS
330
29
102
}
330
29
100
AcDbVisualStyle
  2
Shades of Gray
 70
    23
177
     3
291
     0
 70
    58
 90
        2
176
     1
 90
        2
176
     1
 90
        3
176
     1
 90
        0
176
     1
 40
0.6
176
     1
 40
30.0
176
     1
 62
     7
420
 16777215
176
     1
 90
        2
176
     1
 90
        2
176
     1
 62
     7
176
     1
 62
     7
176
     1
 90
        1
176
     1
 90
        1
176
     1
 40
40.0
176
     1
 90
        8
176
     1
 62
     7
176
     1
 40
1.0
176
     1
 90
        1
176
     1
 90
        6
176
     1
 90
        2
176
     1
 62
     7
176
     1
 90
        3
176
     1
 90
        0
176
     1
 90
        0
176
     1
290
     0
176
     1
 90
        1
176
     1
 40
0.0
176
     1
 90
        0
176
     1
290
     0
176
     1
290
     1
176
     1
290
     1
176
     1
290
     0
176
     1
290
     0
176
     1
290
     0
176
     1
290
     0
176
     1
290
     0
176
     1
290
     0
176
     1
 90
       50
176
     1
 40
0.0
176
     1
 40
1.0
176
     1
 90
        0
176
     1
 62
    18
420
        0
176
     1
 90
       50
176
     1
 90
        3
176
     1
 62
     5
420
      255
176
     1
290
     0
176
     1
 90
       50
176
     1
 90
       50
176
     1
 90
       50
176
     1
290
     0
176
     1
 90
       50
176
     1
 62
   256
176
     0
 40
1.0
176
     0
 90
        2
176
     1
  1
strokes_ogs.tif
176
     1
290
     0
176
     1
 40
1.0
176
     1
 40
1.0
176
     1
  0
VISUALSTYLE
  5
3B
102
{ACAD_REACTORS
330
29
102
}
330
29
100
AcDbVisualStyle
  2
Sketchy
 70
    24
177
     3
291
     0
 70
    58
 90
        1
176
     1
 90
        2
176
     1
 90
        2
176
     1
 90
        0
176
     1
 40
0.6
176
     1
 40
30.0
176
     1
 62
     7
420
 16777215
176
     1
 90
        2
176
     1
 90
        2
176
     1
 62
     7
176
     1
 62
     7
176
     1
 90
        1
176
     1
 90
        1
176
     1
 40
40.0
176
     1
 90
       11
176
     1
 62
     7
176
     1
 40
1.0
176
     1
 90
        1
176
     1
 90
        6
176
     1
 90
        2
176
     1
 62
     7
176
     1
 90
        6
176
     1
 90
        0
176
     1
 90
        0
176
     1
290
     0
176
     1
 90
        1
176
     1
 40
0.0
176
     1
 90
        0
176
     1
290
     0
176
     1
290
     1
176
     1
290
     1
176
     1
290
     0
176
     1
290
     0
176
     1
290
     0
176
     1
290
     0
176
     1
290
     0
176
     1
290
     0
176
     1
 90
       50
176
     1
 40
0.0
176
     1
 40
1.0
176
     1
 90
        0
176
     1
 62
    18
420
        0
176
     1
 90
       50
176
     1
 90
        3
176
     1
 62
     5
420
      255
176
     1
290
     0
176
     1
 90
       50
176
     1
 90
       50
176
     1
 90
       50
176
     1
290
     0
176
     1
 90
       50
176
     1
 62
   256
176
     0
 40
1.0
176
     0
 90
        2
176
     1
  1
strokes_ogs.tif
176
     1
290
     0
176
     1
 40
1.0
176
     1
 40
1.0
176
     1
  0
VISUALSTYLE
  5
36
102
{ACAD_REACTORS
330
29
102
}
330
29
100
AcDbVisualStyle
  2
Thicken
 70
    13
177
     3
291
     1
 70
    58
 90
        2
176
     1
 90
        2
176
     1
 90
        0
176
     1
 90
        0
176
     1
 40
0.6
176
     1
 40
30.0
176
     1
 62
     7
420
 16777215
176
     1
 90
        1
176
     1
 90
        4
176
     1
 62
     7
176
     1
 62
   257
176
     1
 90
        1
176
     1
 90
        1
176
     1
 40
1.0
176
     1
 90
       12
176
     1
 62
     7
176
     1
 40
1.0
176
     1
 90
        1
176
     1
 90
        6
176
     1
 90
        2
176
     1
 62
     7
176
     1
 90
        5
176
     1
 90
        0
176
     1
 90
        0
176
     1
290
     0
176
     1
 90
        1
176
     1
 40
0.0
176
     1
 90
        0
176
     1
290
     0
176
     1
290
     1
176
     1
290
     1
176
     1
290
     0
176
     1
290
     0
176
     1
290
     0
176
     1
290
     0
176
     1
290
     0
176
     1
290
     0
176
     1
 90
       50
176
     1
 40
0.0
176
     1
 40
1.0
176
     1
 90
        0
176
     1
 62
    18
420
        0
176
     1
 90
       50
176
     1
 90
        3
176
     1
 62
     5
420
      255
176
     1
290
     0
176
     1
 90
       50
176
     1
 90
       50
176
     1
 90
       50
176
     1
290
     0
176
     1
 90
       50
176
     1
 62
   256
176
     0
 40
1.0
176
     0
 90
        2
176
     1
  1
strokes_ogs.tif
176
     1
290
     0
176
     1
 40
1.0
176
     1
 40
1.0
176
     1
  0
VISUALSTYLE
  5
30
102
{ACAD_REACTORS
330
29
102
}
330
29
100
AcDbVisualStyle
  2
Wireframe
 70
     5
177
     3
291
     0
 70
    58
 90
        0
176
     1
 90
        2
176
     1
 90
        0
176
     1
 90
        0
176
     1
 40
0.6
176
     1
 40
30.0
176
     1
 62
     7
420
 16777215
176
     1
 90
        1
176
     1
 90
        4
176
     1
 62
     7
176
     1
 62
   257
176
     1
 90
        1
176
     1
 90
        1
176
     1
 40
1.0
176
     1
 90
        0
176
     1
 62
   257
176
     1
 40
1.0
176
     1
 90
        1
176
     1
 90
        6
176
     1
 90
        2
176
     1
 62
     7
176
     1
 90
        3
176
     1
 90
        0
176
     1
 90
        0
176
     1
290
     0
176
     1
 90
        1
176
     1
 40
0.0
176
     1
 90
        0
176
     1
290
     0
176
     1
290
     1
176
     1
290
     1
176
     1
290
     0
176
     1
290
     0
176
     1
290
     0
176
     1
290
     0
176
     1
290
     0
176
     1
290
     0
176
     1
 90
       50
176
     1
 40
0.0
176
     1
 40
1.0
176
     1
 90
        0
176
     1
 62
    18
420
        0
176
     1
 90
       50
176
     1
 90
        3
176
     1
 62
     5
420
      255
176
     1
290
     0
176
     1
 90
       50
176
     1
 90
       50
176
     1
 90
       50
176
     1
290
     0
176
     1
 90
       50
176
     1
 62
   256
176
     0
 40
1.0
176
     0
 90
        2
176
     1
  1
strokes_ogs.tif
176
     1
290
     0
176
     1
 40
1.0
176
     1
 40
1.0
176
     1
  0
VISUALSTYLE
  5
3C
102
{ACAD_REACTORS
330
29
102
}
330
29
100
AcDbVisualStyle
  2
X-Ray
 70
    25
177
     3
291
     0
 70
    58
 90
        2
176
     1
 90
        2
176
     1
 90
        1
176
     1
 90
        1
176
     1
 40
0.5
176
     1
 40
30.0
176
     1
 62
     7
420
 16777215
176
     1
 90
        1
176
     1
 90
        0
176
     1
 62
     7
176
     1
 62
   257
176
     1
 90
        1
176
     1
 90
        1
176
     1
 40
1.0
176
     1
 90
        8
176
     1
 62
     7
176
     1
 40
1.0
176
     1
 90
        1
176
     1
 90
        6
176
     1
 90
        2
176
     1
 62
     7
176
     1
 90
        3
176
     1
 90
        0
176
     1
 90
        0
176
     1
290
     0
176
     1
 90
       13
176
     1
 40
0.0
176
     1
 90
        0
176
     1
290
     0
176
     1
290
     1
176
     1
290
     1
176
     1
290
     0
176
     1
290
     0
176
     1
290
     0
176
     1
290
     0
176
     1
290
     0
176
     1
290
     0
176
     1
 90
       50
176
     1
 40
0.0
176
     1
 40
1.0
176
     1
 90
        0
176
     1
 62
    18
420
        0
176
     1
 90
       50
176
     1
 90
        3
176
     1
 62
     5
420
      255
176
     1
290
     0
176
     1
 90
       50
176
     1
 90
       50
176
     1
 90
       50
176
     1
290
     0
176
     1
 90
       50
176
     1
 62
   256
176
     0
 40
1.0
176
     0
 90
        2
176
     1
  1
strokes_ogs.tif
176
     1
290
     0
176
     1
 40
1.0
176
     1
 40
1.0
176
     1
  0
DICTIONARYVAR
  5
290
102
{ACAD_REACTORS
330
28B
102
}
330
28B
100
DictionaryVariables
280
     0
  1
1:1
  0
DICTIONARYVAR
  5
28D
102
{ACAD_REACTORS
330
28B
102
}
330
28B
100
DictionaryVariables
280
     0
  1
STANDARD
  0
DICTIONARYVAR
  5
28C
102
{ACAD_REACTORS
330
28B
102
}
330
28B
100
DictionaryVariables
280
     0
  1
STANDARD
  0
DICTIONARYVAR
  5
28E
102
{ACAD_REACTORS
330
28B
102
}
330
28B
100
DictionaryVariables
280
     0
  1
Imperial24
  0
DICTIONARYVAR
  5
28F
102
{ACAD_REACTORS
330
28B
102
}
330
28B
100
DictionaryVariables
280
     0
  1
Imperial24
  0
DICTIONARY
  5
1A
330
19
100
AcDbDictionary
280
     1
281
     1
  3
BUMPTILE
360
1C
  3
DIFFUSETILE
360
1B
  3
OPACITYTILE
360
1F
  3
REFLECTIONTILE
360
1E
  3
REFRACTIONTILE
360
20
  3
SPECULARTILE
360
1D
  0
DICTIONARY
  5
12
330
11
100
AcDbDictionary
280
     1
281
     1
  3
BUMPTILE
360
14
  3
DIFFUSETILE
360
13
  3
OPACITYTILE
360
17
  3
REFLECTIONTILE
360
16
  3
REFRACTIONTILE
360
18
  3
SPECULARTILE
360
15
  0
DICTIONARY
  5
22
330
21
100
AcDbDictionary
280
     1
281
     1
  3
BUMPTILE
360
24
  3
DIFFUSETILE
360
23
  3
OPACITYTILE
360
27
  3
REFLECTIONTILE
360
26
  3
REFRACTIONTILE
360
28
  3
SPECULARTILE
360
25
  0
DICTIONARY
  5
291
330
65
100
AcDbDictionary
280
     1
281
     1
  3
ACAD_ROUNDTRIP_2008_TABLESTYLE_CELLSTYLEMAP
360
292
  0
XRECORD
  5
1C
102
{ACAD_REACTORS
330
1A
102
}
330
1A
100
AcDbXrecord
280
     1
270
     1
271
     1
  0
XRECORD
  5
1B
102
{ACAD_REACTORS
330
1A
102
}
330
1A
100
AcDbXrecord
280
     1
270
     1
271
     1
  0
XRECORD
  5
1F
102
{ACAD_REACTORS
330
1A
102
}
330
1A
100
AcDbXrecord
280
     1
270
     1
271
     1
  0
XRECORD
  5
1E
102
{ACAD_REACTORS
330
1A
102
}
330
1A
100
AcDbXrecord
280
     1
270
     1
271
     1
  0
XRECORD
  5
20
102
{ACAD_REACTORS
330
1A
102
}
330
1A
100
AcDbXrecord
280
     1
270
     1
271
     1
  0
XRECORD
  5
1D
102
{ACAD_REACTORS
330
1A
102
}
330
1A
100
AcDbXrecord
280
     1
270
     1
271
     1
  0
XRECORD
  5
14
102
{ACAD_REACTORS
330
12
102
}
330
12
100
AcDbXrecord
280
     1
270
     1
271
     1
  0
XRECORD
  5
13
102
{ACAD_REACTORS
330
12
102
}
330
12
100
AcDbXrecord
280
     1
270
     1
271
     1
  0
XRECORD
  5
17
102
{ACAD_REACTORS
330
12
102
}
330
12
100
AcDbXrecord
280
     1
270
     1
271
     1
  0
XRECORD
  5
16
102
{ACAD_REACTORS
330
12
102
}
330
12
100
AcDbXrecord
280
     1
270
     1
271
     1
  0
XRECORD
  5
18
102
{ACAD_REACTORS
330
12
102
}
330
12
100
AcDbXrecord
280
     1
270
     1
271
     1
  0
XRECORD
  5
15
102
{ACAD_REACTORS
330
12
102
}
330
12
100
AcDbXrecord
280
     1
270
     1
271
     1
  0
XRECORD
  5
24
102
{ACAD_REACTORS
330
22
102
}
330
22
100
AcDbXrecord
280
     1
270
     1
271
     1
  0
XRECORD
  5
23
102
{ACAD_REACTORS
330
22
102
}
330
22
100
AcDbXrecord
280
     1
270
     1
271
     1
  0
XRECORD
  5
27
102
{ACAD_REACTORS
330
22
102
}
330
22
100
AcDbXrecord
280
     1
270
     1
271
     1
  0
XRECORD
  5
26
102
{ACAD_REACTORS
330
22
102
}
330
22
100
AcDbXrecord
280
     1
270
     1
271
     1
  0
XRECORD
  5
28
102
{ACAD_REACTORS
330
22
102
}
330
22
100
AcDbXrecord
280
     1
270
     1
271
     1
  0
XRECORD
  5
25
102
{ACAD_REACTORS
330
22
102
}
330
22
100
AcDbXrecord
280
     1
270
     1
271
     1
  0
CELLSTYLEMAP
  5
292
102
{ACAD_REACTORS
330
291
102
}
330
291
100
AcDbCellStyleMap
 90
        3
300
CELLSTYLE
  1
TABLEFORMAT_BEGIN
 90
        5
170
     1
 91
        0
 92
    32768
 62
   257
 93
        1
300
CONTENTFORMAT
  1
CONTENTFORMAT_BEGIN
 90
        0
 91
        0
 92
      512
 93
        0
300

 40
0.0
140
1.0
 94
        5
 62
     0
340
55
144
0.25
309
CONTENTFORMAT_END
171
     0
 94
        0
309
TABLEFORMAT_END
  1
CELLSTYLE_BEGIN
 90
        1
 91
        1
300
_TITLE
309
CELLSTYLE_END
300
CELLSTYLE
  1
TABLEFORMAT_BEGIN
 90
        5
170
     1
 91
        0
 92
        0
 62
   257
 93
        1
300
CONTENTFORMAT
  1
CONTENTFORMAT_BEGIN
 90
        0
 91
        0
 92
      512
 93
        0
300

 40
0.0
140
1.0
 94
        5
 62
     0
340
55
144
0.18
309
CONTENTFORMAT_END
171
     0
 94
        0
309
TABLEFORMAT_END
  1
CELLSTYLE_BEGIN
 90
        2
 91
        1
300
_HEADER
309
CELLSTYLE_END
300
CELLSTYLE
  1
TABLEFORMAT_BEGIN
 90
        5
170
     1
 91
        0
 92
        0
 62
   257
 93
        1
300
CONTENTFORMAT
  1
CONTENTFORMAT_BEGIN
 90
        0
 91
        0
 92
      512
 93
        0
300

 40
0.0
140
1.0
 94
        2
 62
     0
340
55
144
0.18
309
CONTENTFORMAT_END
171
     0
 94
        0
309
TABLEFORMAT_END
  1
CELLSTYLE_BEGIN
 90
        3
 91
        2
300
_DATA
309
CELLSTYLE_END
  0
ENDSEC
  0
EOF
