  0
SECTION
  2
HEADER
  9
$ACADVER
  1
AC1032
  9
$ACADMAINTVER
 90
      251
  9
$DWGCODEPAGE
  3
ANSI_1252
  9
$REQUIREDVERSIONS
160
                 0
  9
$INSBASE
 10
0.0
 20
0.0
 30
0.0
  9
$EXTMIN
 10
1.000000000000000E+20
 20
1.000000000000000E+20
 30
1.000000000000000E+20
  9
$EXTMAX
 10
-1.000000000000000E+20
 20
-1.000000000000000E+20
 30
-1.000000000000000E+20
  9
$LIMMIN
 10
0.0
 20
0.0
  9
$LIMMAX
 10
12.0
 20
9.0
  9
$ORTHOMODE
 70
     0
  9
$REGENMODE
 70
     1
  9
$FILLMODE
 70
     1
  9
$QTEXTMODE
 70
     0
  9
$MIRRTEXT
 70
     0
  9
$LTSCALE
 40
1.0
  9
$ATTMODE
 70
     1
  9
$TEXTSIZE
 40
0.2
  9
$TRACEWID
 40
0.05
  9
$TEXTSTYLE
  7
Standard
  9
$CLAYER
  8
0
  9
$CELTYPE
  6
ByLayer
  9
$CECOLOR
 62
   256
  9
$CELTSCALE
 40
1.0
  9
$DISPSILH
 70
     0
  9
$DIMSCALE
 40
1.0
  9
$DIMASZ
 40
0.18
  9
$DIMEXO
 40
0.0625
  9
$DIMDLI
 40
0.38
  9
$DIMRND
 40
0.0
  9
$DIMDLE
 40
0.0
  9
$DIMEXE
 40
0.18
  9
$DIMTP
 40
0.0
  9
$DIMTM
 40
0.0
  9
$DIMTXT
 40
0.18
  9
$DIMCEN
 40
0.09
  9
$DIMTSZ
 40
0.0
  9
$DIMTOL
 70
     0
  9
$DIMLIM
 70
     0
  9
$DIMTIH
 70
     1
  9
$DIMTOH
 70
     1
  9
$DIMSE1
 70
     0
  9
$DIMSE2
 70
     0
  9
$DIMTAD
 70
     0
  9
$DIMZIN
 70
     0
  9
$DIMBLK
  1

  9
$DIMASO
 70
     1
  9
$DIMSHO
 70
     1
  9
$DIMPOST
  1

  9
$DIMAPOST
  1

  9
$DIMALT
 70
     0
  9
$DIMALTD
 70
     2
  9
$DIMALTF
 40
25.4
  9
$DIMLFAC
 40
1.0
  9
$DIMTOFL
 70
     0
  9
$DIMTVP
 40
0.0
  9
$DIMTIX
 70
     0
  9
$DIMSOXD
 70
     0
  9
$DIMSAH
 70
     0
  9
$DIMBLK1
  1

  9
$DIMBLK2
  1

  9
$DIMSTYLE
  2
Standard
  9
$DIMCLRD
 70
     0
  9
$DIMCLRE
 70
     0
  9
$DIMCLRT
 70
     0
  9
$DIMTFAC
 40
1.0
  9
$DIMGAP
 40
0.09
  9
$DIMJUST
 70
     0
  9
$DIMSD1
 70
     0
  9
$DIMSD2
 70
     0
  9
$DIMTOLJ
 70
     1
  9
$DIMTZIN
 70
     0
  9
$DIMALTZ
 70
     0
  9
$DIMALTTZ
 70
     0
  9
$DIMUPT
 70
     0
  9
$DIMDEC
 70
     4
  9
$DIMTDEC
 70
     4
  9
$DIMALTU
 70
     2
  9
$DIMALTTD
 70
     2
  9
$DIMTXSTY
  7
Standard
  9
$DIMAUNIT
 70
     0
  9
$DIMADEC
 70
     0
  9
$DIMALTRND
 40
0.0
  9
$DIMAZIN
 70
     0
  9
$DIMDSEP
 70
    46
  9
$DIMATFIT
 70
     3
  9
$DIMFRAC
 70
     0
  9
$DIMLDRBLK
  1

  9
$DIMLUNIT
 70
     2
  9
$DIMLWD
 70
    -2
  9
$DIMLWE
 70
    -2
  9
$DIMTMOVE
 70
     0
  9
$DIMFXL
 40
1.0
  9
$DIMFXLON
 70
     0
  9
$DIMJOGANG
 40
0.7853981633974483
  9
$DIMTFILL
 70
     0
  9
$DIMTFILLCLR
 70
     0
  9
$DIMARCSYM
 70
     0
  9
$DIMLTYPE
  6

  9
$DIMLTEX1
  6

  9
$DIMLTEX2
  6

  9
$DIMTXTDIRECTION
 70
     0
  9
$LUNITS
 70
     2
  9
$LUPREC
 70
     4
  9
$SKETCHINC
 40
0.1
  9
$FILLETRAD
 40
0.0
  9
$AUNITS
 70
     0
  9
$AUPREC
 70
     0
  9
$MENU
  1
.
  9
$ELEVATION
 40
0.0
  9
$PELEVATION
 40
0.0
  9
$THICKNESS
 40
0.0
  9
$LIMCHECK
 70
     0
  9
$CHAMFERA
 40
0.0
  9
$CHAMFERB
 40
0.0
  9
$CHAMFERC
 40
0.0
  9
$CHAMFERD
 40
0.0
  9
$SKPOLY
 70
     0
  9
$TDCREATE
 40
2460035.488506945
  9
$TDUCREATE
 40
2460035.405173611
  9
$TDUPDATE
 40
2460035.488506945
  9
$TDUUPDATE
 40
2460035.405173611
  9
$TDINDWG
 40
0.0000000000
  9
$TDUSRTIMER
 40
0.0000000000
  9
$USRTIMER
 70
     1
  9
$ANGBASE
 50
0.0
  9
$ANGDIR
 70
     0
  9
$PDMODE
 70
     0
  9
$PDSIZE
 40
0.0
  9
$PLINEWID
 40
0.0
  9
$SPLFRAME
 70
     0
  9
$SPLINETYPE
 70
     6
  9
$SPLINESEGS
 70
     8
  9
$HANDSEED
  5
151
  9
$SURFTAB1
 70
     6
  9
$SURFTAB2
 70
     6
  9
$SURFTYPE
 70
     6
  9
$SURFU
 70
     6
  9
$SURFV
 70
     6
  9
$UCSBASE
  2

  9
$UCSNAME
  2

  9
$UCSORG
 10
0.0
 20
0.0
 30
0.0
  9
$UCSXDIR
 10
1.0
 20
0.0
 30
0.0
  9
$UCSYDIR
 10
0.0
 20
1.0
 30
0.0
  9
$UCSORTHOREF
  2

  9
$UCSORTHOVIEW
 70
     0
  9
$UCSORGTOP
 10
0.0
 20
0.0
 30
0.0
  9
$UCSORGBOTTOM
 10
0.0
 20
0.0
 30
0.0
  9
$UCSORGLEFT
 10
0.0
 20
0.0
 30
0.0
  9
$UCSORGRIGHT
 10
0.0
 20
0.0
 30
0.0
  9
$UCSORGFRONT
 10
0.0
 20
0.0
 30
0.0
  9
$UCSORGBACK
 10
0.0
 20
0.0
 30
0.0
  9
$PUCSBASE
  2

  9
$PUCSNAME
  2

  9
$PUCSORG
 10
0.0
 20
0.0
 30
0.0
  9
$PUCSXDIR
 10
1.0
 20
0.0
 30
0.0
  9
$PUCSYDIR
 10
0.0
 20
1.0
 30
0.0
  9
$PUCSORTHOREF
  2

  9
$PUCSORTHOVIEW
 70
     0
  9
$PUCSORGTOP
 10
0.0
 20
0.0
 30
0.0
  9
$PUCSORGBOTTOM
 10
0.0
 20
0.0
 30
0.0
  9
$PUCSORGLEFT
 10
0.0
 20
0.0
 30
0.0
  9
$PUCSORGRIGHT
 10
0.0
 20
0.0
 30
0.0
  9
$PUCSORGFRONT
 10
0.0
 20
0.0
 30
0.0
  9
$PUCSORGBACK
 10
0.0
 20
0.0
 30
0.0
  9
$USERI1
 70
     0
  9
$USERI2
 70
     0
  9
$USERI3
 70
     0
  9
$USERI4
 70
     0
  9
$USERI5
 70
     0
  9
$USERR1
 40
0.0
  9
$USERR2
 40
0.0
  9
$USERR3
 40
0.0
  9
$USERR4
 40
0.0
  9
$USERR5
 40
0.0
  9
$WORLDVIEW
 70
     1
  9
$SHADEDGE
 70
     3
  9
$SHADEDIF
 70
    70
  9
$TILEMODE
 70
     1
  9
$MAXACTVP
 70
    64
  9
$PINSBASE
 10
0.0
 20
0.0
 30
0.0
  9
$PLIMCHECK
 70
     0
  9
$PEXTMIN
 10
1.000000000000000E+20
 20
1.000000000000000E+20
 30
1.000000000000000E+20
  9
$PEXTMAX
 10
-1.000000000000000E+20
 20
-1.000000000000000E+20
 30
-1.000000000000000E+20
  9
$PLIMMIN
 10
0.0
 20
0.0
  9
$PLIMMAX
 10
12.0
 20
9.0
  9
$UNITMODE
 70
     0
  9
$VISRETAIN
 70
     1
  9
$PLINEGEN
 70
     0
  9
$PSLTSCALE
 70
     1
  9
$TREEDEPTH
 70
  3020
  9
$CMLSTYLE
  2
Standard
  9
$CMLJUST
 70
     0
  9
$CMLSCALE
 40
1.0
  9
$PROXYGRAPHICS
 70
     1
  9
$MEASUREMENT
 70
     0
  9
$CELWEIGHT
370
    -1
  9
$ENDCAPS
280
     0
  9
$JOINSTYLE
280
     0
  9
$LWDISPLAY
290
     1
  9
$INSUNITS
 70
     4
  9
$HYPERLINKBASE
  1

  9
$STYLESHEET
  1

  9
$XEDIT
290
     1
  9
$CEPSNTYPE
380
     0
  9
$PSTYLEMODE
290
     1
  9
$FINGERPRINTGUID
  2
{5A73A89D-FFEF-E64C-9E0E-E2A3BFB8099D}
  9
$VERSIONGUID
  2
{F19C94AC-D648-8449-95D9-90A39BD9C918}
  9
$EXTNAMES
290
     1
  9
$PSVPSCALE
 40
0.0
  9
$OLESTARTUP
290
     0
  9
$SORTENTS
280
   127
  9
$INDEXCTL
280
     0
  9
$HIDETEXT
280
     1
  9
$XCLIPFRAME
280
     2
  9
$HALOGAP
280
     0
  9
$OBSCOLOR
 70
   257
  9
$OBSLTYPE
280
     0
  9
$INTERSECTIONDISPLAY
280
     0
  9
$INTERSECTIONCOLOR
 70
   257
  9
$DIMASSOC
280
     2
  9
$PROJECTNAME
  1

  9
$CAMERADISPLAY
290
     0
  9
$LENSLENGTH
 40
50.0
  9
$CAMERAHEIGHT
 40
0.0
  9
$STEPSPERSEC
 40
2.0
  9
$STEPSIZE
 40
6.0
  9
$3DDWFPREC
 40
2.0
  9
$PSOLWIDTH
 40
0.25
  9
$PSOLHEIGHT
 40
4.0
  9
$LOFTANG1
 40
1.570796326794896
  9
$LOFTANG2
 40
1.570796326794896
  9
$LOFTMAG1
 40
0.0
  9
$LOFTMAG2
 40
0.0
  9
$LOFTPARAM
 70
     7
  9
$LOFTNORMALS
280
     1
  9
$LATITUDE
 40
37.795
  9
$LONGITUDE
 40
-122.394
  9
$NORTHDIRECTION
 40
0.0
  9
$TIMEZONE
 70
 -8000
  9
$LIGHTGLYPHDISPLAY
280
     1
  9
$TILEMODELIGHTSYNCH
280
     1
  9
$CMATERIAL
347
11
  9
$SOLIDHIST
280
     0
  9
$SHOWHIST
280
     1
  9
$DWFFRAME
280
     2
  9
$DGNFRAME
280
     0
  9
$REALWORLDSCALE
290
     1
  9
$INTERFERECOLOR
 62
     1
  9
$INTERFEREOBJVS
345
33
  9
$INTERFEREVPVS
346
30
  9
$CSHADOW
280
     0
  9
$SHADOWPLANELOCATION
 40
0.0
  0
ENDSEC
  0
SECTION
  2
CLASSES
  0
CLASS
  1
ACDBDICTIONARYWDFLT
  2
AcDbDictionaryWithDefault
  3
ObjectDBX Classes
 90
        0
 91
        1
280
     0
281
     0
  0
CLASS
  1
MATERIAL
  2
AcDbMaterial
  3
ObjectDBX Classes
 90
     1153
 91
        3
280
     0
281
     0
  0
CLASS
  1
VISUALSTYLE
  2
AcDbVisualStyle
  3
ObjectDBX Classes
 90
     4095
 91
       24
280
     0
281
     0
  0
CLASS
  1
SCALE
  2
AcDbScale
  3
ObjectDBX Classes
 90
     1153
 91
       17
280
     0
281
     0
  0
CLASS
  1
TABLESTYLE
  2
AcDbTableStyle
  3
ObjectDBX Classes
 90
     4095
 91
        1
280
     0
281
     0
  0
CLASS
  1
MLEADERSTYLE
  2
AcDbMLeaderStyle
  3
ACDB_MLEADERSTYLE_CLASS
 90
     4095
 91
        1
280
     0
281
     0
  0
CLASS
  1
ACDBSECTIONVIEWSTYLE
  2
AcDbSectionViewStyle
  3
ObjectDBX Classes
 90
     1025
 91
        1
280
     0
281
     0
  0
CLASS
  1
ACDBDETAILVIEWSTYLE
  2
AcDbDetailViewStyle
  3
ObjectDBX Classes
 90
     1025
 91
        1
280
     0
281
     0
  0
CLASS
  1
DICTIONARYVAR
  2
AcDbDictionaryVar
  3
ObjectDBX Classes
 90
        0
 91
        5
280
     0
281
     0
  0
CLASS
  1
CELLSTYLEMAP
  2
AcDbCellStyleMap
  3
ObjectDBX Classes
 90
     1152
 91
        1
280
     0
281
     0
  0
ENDSEC
  0
SECTION
  2
TABLES
  0
TABLE
  2
VPORT
  5
8
330
0
100
AcDbSymbolTable
 70
     1
  0
VPORT
  5
57
330
8
100
AcDbSymbolTableRecord
100
AcDbViewportTableRecord
  2
*Active
 70
     0
 10
0.0
 20
0.0
 11
1.0
 21
1.0
 12
0.0
 22
0.0
 13
0.0
 23
0.0
 14
1.0
 24
1.0
 15
0.0
 25
0.0
 16
0.0
 26
0.0
 36
1.0
 17
104.9999999737499
 27
31.49999999212523
 37
0.0
 40
302.9399999242649
 41
0.7070707070707066
 42
50.0
 43
0.0
 44
0.0
 50
0.0
 51
0.0
 71
     0
 72
   100
 73
     1
 74
     1
 75
     0
 76
     0
 77
     0
 78
     0
281
     0
 65
     1
110
0.0
120
0.0
130
0.0
111
1.0
121
0.0
131
0.0
112
0.0
122
1.0
132
0.0
 79
     0
146
0.0
 60
     3
 61
     5
292
     1
282
     1
141
0.0
142
0.0
 63
   250
421
  3355443
  0
ENDTAB
  0
TABLE
  2
LTYPE
  5
5
330
0
100
AcDbSymbolTable
 70
     1
  0
LTYPE
  5
5B
330
5
100
AcDbSymbolTableRecord
100
AcDbLinetypeTableRecord
  2
ByBlock
 70
     0
  3

 72
    65
 73
     0
 40
0.0
  0
LTYPE
  5
5C
330
5
100
AcDbSymbolTableRecord
100
AcDbLinetypeTableRecord
  2
ByLayer
 70
     0
  3

 72
    65
 73
     0
 40
0.0
  0
LTYPE
  5
5D
330
5
100
AcDbSymbolTableRecord
100
AcDbLinetypeTableRecord
  2
Continuous
 70
     0
  3
Solid line
 72
    65
 73
     0
 40
0.0
  0
ENDTAB
  0
TABLE
  2
LAYER
  5
2
330
0
100
AcDbSymbolTable
 70
     2
  0
LAYER
  5
54
330
2
100
AcDbSymbolTableRecord
100
AcDbLayerTableRecord
  2
0
 70
     0
 62
     7
  6
Continuous
370
     0
390
F
347
21
348
0
  0
LAYER
  5
122
330
2
100
AcDbSymbolTableRecord
100
AcDbLayerTableRecord
  2
CAPA_BASE
 70
     0
 62
     7
  6
Continuous
370
     0
390
F
347
21
348
0
  0
ENDTAB
  0
TABLE
  2
STYLE
  5
3
330
0
100
AcDbSymbolTable
 70
     2
  0
STYLE
  5
55
330
3
100
AcDbSymbolTableRecord
100
AcDbTextStyleTableRecord
  2
Standard
 70
     0
 40
0.0
 41
1.0
 50
0.0
 71
     0
 42
0.2
  3
txt
  4

  0
STYLE
  5
5A
330
3
100
AcDbSymbolTableRecord
100
AcDbTextStyleTableRecord
  2
Annotative
 70
     0
 40
0.0
 41
1.0
 50
0.0
 71
     0
 42
0.2
  3
txt
  4

1001
AcadAnnotative
1000
AnnotativeData
1002
{
1070
     1
1070
     1
1002
}
  0
ENDTAB
  0
TABLE
  2
VIEW
  5
6
330
0
100
AcDbSymbolTable
 70
     0
  0
ENDTAB
  0
TABLE
  2
UCS
  5
7
330
0
100
AcDbSymbolTable
 70
     0
  0
ENDTAB
  0
TABLE
  2
APPID
  5
9
330
0
100
AcDbSymbolTable
 70
     2
  0
APPID
  5
56
330
9
100
AcDbSymbolTableRecord
100
AcDbRegAppTableRecord
  2
ACAD
 70
     0
  0
APPID
  5
5E
330
9
100
AcDbSymbolTableRecord
100
AcDbRegAppTableRecord
  2
AcadAnnotative
 70
     0
  0
ENDTAB
  0
TABLE
  2
DIMSTYLE
  5
A
330
0
100
AcDbSymbolTable
 70
     2
100
AcDbDimStyleTable
 71
     0
  0
DIMSTYLE
105
58
330
A
100
AcDbSymbolTableRecord
100
AcDbDimStyleTableRecord
  2
Standard
 70
     0
340
55
  0
DIMSTYLE
105
59
330
A
100
AcDbSymbolTableRecord
100
AcDbDimStyleTableRecord
  2
Annotative
 70
     0
340
55
1001
AcadAnnotative
1000
AnnotativeData
1002
{
1070
     1
1070
     1
1002
}
  0
ENDTAB
  0
TABLE
  2
BLOCK_RECORD
  5
1
330
0
100
AcDbSymbolTable
 70
     4
  0
BLOCK_RECORD
  5
70
330
1
100
AcDbSymbolTableRecord
100
AcDbBlockTableRecord
  2
*Model_Space
340
73
 70
     0
280
     1
281
     0
  0
BLOCK_RECORD
  5
6C
330
1
100
AcDbSymbolTableRecord
100
AcDbBlockTableRecord
  2
*Paper_Space
340
6F
 70
     0
280
     1
281
     0
  0
BLOCK_RECORD
  5
74
330
1
100
AcDbSymbolTableRecord
100
AcDbBlockTableRecord
  2
*Paper_Space0
340
77
 70
     0
280
     1
281
     0
  0
BLOCK_RECORD
  5
123
330
1
100
AcDbSymbolTableRecord
100
AcDbBlockTableRecord
  2
Block_0
340
0
102
{BLKREFS
331
124
102
}
 70
     0
280
     1
281
     0
  0
BLOCK_RECORD
  5
130
330
1
100
AcDbSymbolTableRecord
100
AcDbBlockTableRecord
  2
Block_1
340
0
102
{BLKREFS
331
131
102
}
 70
     0
280
     1
281
     0
  0
BLOCK_RECORD
  5
13C
330
1
100
AcDbSymbolTableRecord
100
AcDbBlockTableRecord
  2
Block_2
340
0
102
{BLKREFS
331
13D
102
}
 70
     0
280
     1
281
     0
  0
ENDTAB
  0
ENDSEC
  0
SECTION
  2
BLOCKS
  0
BLOCK
  5
71
330
70
100
AcDbEntity
  8
0
100
AcDbBlockBegin
  2
*Model_Space
 70
     0
 10
0.0
 20
0.0
 30
0.0
  3
*Model_Space
  1

  0
ENDBLK
  5
72
330
70
100
AcDbEntity
  8
0
100
AcDbBlockEnd
  0
BLOCK
  5
6D
330
6C
100
AcDbEntity
 67
     1
  8
0
100
AcDbBlockBegin
  2
*Paper_Space
 70
     0
 10
0.0
 20
0.0
 30
0.0
  3
*Paper_Space
  1

  0
ENDBLK
  5
6E
330
6C
100
AcDbEntity
 67
     1
  8
0
100
AcDbBlockEnd
  0
BLOCK
  5
75
330
74
100
AcDbEntity
 67
     1
  8
0
100
AcDbBlockBegin
  2
*Paper_Space0
 70
     0
 10
0.0
 20
0.0
 30
0.0
  3
*Paper_Space0
  1

  0
ENDBLK
  5
76
330
74
100
AcDbEntity
 67
     1
  8
0
100
AcDbBlockEnd
  0
BLOCK
  5
125
330
123
100
AcDbEntity
  8
0
100
AcDbBlockBegin
  2
Block_0
 70
     0
 10
0.0
 20
0.0
 30
0.0
  3
Block_0
  1

  0
LWPOLYLINE
  5
127
330
123
100
AcDbEntity
  8
CAPA_BASE
100
AcDbPolyline
 90
        4
 70
     1
 43
0.0
 10
29.65309061283499
 20
49.68271269017036
 10
32.15309061283508
 20
49.37271269017
 10
32.15309061283508
 20
49.99271269017072
 10
32.15309061283508
 20
49.99271269017072
  0
HATCH
  5
128
330
123
100
AcDbEntity
  8
CAPA_BASE
 62
    18
420
        0
440
 33554687
100
AcDbHatch
 10
0.0
 20
0.0
 30
0.0
210
0.0
220
0.0
230
1.0
  2
SOLID
 70
     1
 71
     1
 91
        1
 92
        1
 93
        3
 72
     1
 10
29.65309061283499
 20
49.68271269017036
 11
32.15309061283508
 21
49.37271269017
 72
     1
 10
32.15309061283508
 20
49.37271269017
 11
32.15309061283508
 21
49.99271269017072
 72
     1
 10
32.15309061283508
 20
49.99271269017072
 11
29.65309061283499
 21
49.68271269017036
 97
        1
330
127
 75
     2
 76
     1
 98
        1
 10
0.0
 20
0.0
450
        0
451
        0
460
0.0
461
0.0
452
        0
462
0.0
453
        0
470

  0
LWPOLYLINE
  5
129
330
123
100
AcDbEntity
  8
CAPA_BASE
100
AcDbPolyline
 90
        4
 70
     1
 43
0.0
 10
67.71523146813534
 20
49.68271269017036
 10
65.21523146813525
 20
49.99271269017072
 10
65.21523146813525
 20
49.37271269017
 10
65.21523146813525
 20
49.37271269017
  0
HATCH
  5
12A
330
123
100
AcDbEntity
  8
CAPA_BASE
 62
    18
420
        0
440
 33554687
100
AcDbHatch
 10
0.0
 20
0.0
 30
0.0
210
0.0
220
0.0
230
1.0
  2
SOLID
 70
     1
 71
     1
 91
        1
 92
        1
 93
        3
 72
     1
 10
67.71523146813534
 20
49.68271269017036
 11
65.21523146813525
 21
49.99271269017072
 72
     1
 10
65.21523146813525
 20
49.99271269017072
 11
65.21523146813525
 21
49.37271269017
 72
     1
 10
65.21523146813525
 20
49.37271269017
 11
67.71523146813534
 21
49.68271269017036
 97
        1
330
129
 75
     2
 76
     1
 98
        1
 10
0.0
 20
0.0
450
        0
451
        0
460
0.0
461
0.0
452
        0
462
0.0
453
        0
470

  0
LINE
  5
12B
330
123
100
AcDbEntity
  8
CAPA_BASE
 62
    18
420
        0
370
    25
100
AcDbLine
 10
29.65309061283499
 20
101.9348943240703
 30
0.0
 11
29.65309061283499
 21
48.68271269017032
 31
0.0
  0
LINE
  5
12C
330
123
100
AcDbEntity
  8
CAPA_BASE
 62
    18
420
        0
370
    25
100
AcDbLine
 10
67.71523146813534
 20
101.9348943240703
 30
0.0
 11
67.71523146813534
 21
48.68271269017032
 31
0.0
  0
LINE
  5
12D
330
123
100
AcDbEntity
  8
CAPA_BASE
 62
    18
420
        0
370
    25
100
AcDbLine
 10
29.65309061283499
 20
49.68271269017036
 30
0.0
 11
67.71523146813534
 21
49.68271269017036
 31
0.0
  0
MTEXT
  5
12E
330
123
100
AcDbEntity
  8
CAPA_BASE
100
AcDbMText
 10
45.23410372133036
 20
50.47646245754147
 30
0.0
 40
0.2
 41
0.0
 46
0.0
 71
     7
 72
     1
  1
\C18;\c0;\FArial Bold|b1|i0|c1;\H2.997200;\W0.700000;Ø
 73
     1
 44
1.0
  0
MTEXT
  5
12F
330
123
100
AcDbEntity
  8
CAPA_BASE
100
AcDbMText
 10
48.60643771333939
 20
50.47646245754147
 30
0.0
 40
0.2
 41
0.0
 46
0.0
 71
     7
 72
     1
  1
\C18;\c0;\FArial Bold|b1|i0|c1;\H2.997200;\W0.700000;76
 73
     1
 44
1.0
  0
ENDBLK
  5
126
330
123
100
AcDbEntity
  8
0
100
AcDbBlockEnd
  0
BLOCK
  5
132
330
130
100
AcDbEntity
  8
0
100
AcDbBlockBegin
  2
Block_1
 70
     0
 10
0.0
 20
0.0
 30
0.0
  3
Block_1
  1

  0
LWPOLYLINE
  5
134
330
130
100
AcDbEntity
  8
CAPA_BASE
100
AcDbPolyline
 90
        4
 70
     1
 43
0.0
 10
77.71524098743549
 20
11.89156597487051
 10
77.40524098743513
 20
9.391565974870106
 10
78.02524098743521
 20
9.391565974870106
 10
78.02524098743521
 20
9.391565974870106
  0
HATCH
  5
135
330
130
100
AcDbEntity
  8
CAPA_BASE
 62
    18
420
        0
440
 33554687
100
AcDbHatch
 10
0.0
 20
0.0
 30
0.0
210
0.0
220
0.0
230
1.0
  2
SOLID
 70
     1
 71
     1
 91
        1
 92
        1
 93
        3
 72
     1
 10
77.71524098743549
 20
11.89156597487051
 11
77.40524098743513
 21
9.391565974870106
 72
     1
 10
77.40524098743513
 20
9.391565974870106
 11
78.02524098743521
 21
9.391565974870106
 72
     1
 10
78.02524098743521
 20
9.391565974870106
 11
77.71524098743549
 21
11.89156597487051
 97
        1
330
134
 75
     2
 76
     1
 98
        1
 10
0.0
 20
0.0
450
        0
451
        0
460
0.0
461
0.0
452
        0
462
0.0
453
        0
470

  0
LWPOLYLINE
  5
136
330
130
100
AcDbEntity
  8
CAPA_BASE
100
AcDbPolyline
 90
        4
 70
     1
 43
0.0
 10
77.71524098743549
 20
-42.6084340251298
 10
78.02524098743521
 20
-40.10843402512938
 10
77.40524098743513
 20
-40.10843402512938
 10
77.40524098743513
 20
-40.10843402512938
  0
HATCH
  5
137
330
130
100
AcDbEntity
  8
CAPA_BASE
 62
    18
420
        0
440
 33554687
100
AcDbHatch
 10
0.0
 20
0.0
 30
0.0
210
0.0
220
0.0
230
1.0
  2
SOLID
 70
     1
 71
     1
 91
        1
 92
        1
 93
        3
 72
     1
 10
77.71524098743549
 20
-42.6084340251298
 11
78.02524098743521
 21
-40.10843402512938
 72
     1
 10
78.02524098743521
 20
-40.10843402512938
 11
77.40524098743513
 21
-40.10843402512938
 72
     1
 10
77.40524098743513
 20
-40.10843402512938
 11
77.71524098743549
 21
-42.6084340251298
 97
        1
330
136
 75
     2
 76
     1
 98
        1
 10
0.0
 20
0.0
450
        0
451
        0
460
0.0
461
0.0
452
        0
462
0.0
453
        0
470

  0
LINE
  5
138
330
130
100
AcDbEntity
  8
CAPA_BASE
 62
    18
420
        0
370
    25
100
AcDbLine
 10
63.43416104043515
 20
11.89156597487051
 30
0.0
 11
78.71524098743488
 21
11.89156597487051
 31
0.0
  0
LINE
  5
139
330
130
100
AcDbEntity
  8
CAPA_BASE
 62
    18
420
        0
370
    25
100
AcDbLine
 10
49.68416104043514
 20
-42.6084340251298
 30
0.0
 11
78.71524098743488
 21
-42.6084340251298
 31
0.0
  0
LINE
  5
13A
330
130
100
AcDbEntity
  8
CAPA_BASE
 62
    18
420
        0
370
    25
100
AcDbLine
 10
77.71524098743549
 20
11.89156597487051
 30
0.0
 11
77.71524098743549
 21
-42.6084340251298
 31
0.0
  0
MTEXT
  5
13B
330
130
100
AcDbEntity
  8
CAPA_BASE
100
AcDbMText
 10
76.9214891029491
 20
-18.00406900591629
 30
0.0
 40
0.2
 41
0.0
 46
0.0
 71
     7
 72
     1
  1
\C18;\c0;\FArial Bold|b1|i0|c1;\H2.997200;\W0.700000;109
 11
0.0000000000000003
 21
1.0
 31
0.0
 73
     1
 44
1.0
  0
ENDBLK
  5
133
330
130
100
AcDbEntity
  8
0
100
AcDbBlockEnd
  0
BLOCK
  5
13E
330
13C
100
AcDbEntity
  8
0
100
AcDbBlockBegin
  2
Block_2
 70
     0
 10
0.0
 20
0.0
 30
0.0
  3
Block_2
  1

  0
LWPOLYLINE
  5
140
330
13C
100
AcDbEntity
  8
CAPA_BASE
100
AcDbPolyline
 90
        4
 70
     1
 43
0.0
 10
115.4851220784351
 20
59.68271269017008
 10
115.7951220784348
 20
62.18271269017048
 10
115.1751220784354
 20
62.18271269017048
 10
115.1751220784354
 20
62.18271269017048
  0
HATCH
  5
141
330
13C
100
AcDbEntity
  8
CAPA_BASE
 62
    18
420
        0
440
 33554687
100
AcDbHatch
 10
0.0
 20
0.0
 30
0.0
210
0.0
220
0.0
230
1.0
  2
SOLID
 70
     1
 71
     1
 91
        1
 92
        1
 93
        3
 72
     1
 10
115.4851220784351
 20
59.68271269017008
 11
115.7951220784348
 21
62.18271269017048
 72
     1
 10
115.7951220784348
 20
62.18271269017048
 11
115.1751220784354
 21
62.18271269017048
 72
     1
 10
115.1751220784354
 20
62.18271269017048
 11
115.4851220784351
 21
59.68271269017008
 97
        1
330
140
 75
     2
 76
     1
 98
        1
 10
0.0
 20
0.0
450
        0
451
        0
460
0.0
461
0.0
452
        0
462
0.0
453
        0
470

  0
LWPOLYLINE
  5
142
330
13C
100
AcDbEntity
  8
CAPA_BASE
100
AcDbPolyline
 90
        4
 70
     1
 43
0.0
 10
115.4851220784351
 20
120.4452126901702
 10
115.1751220784354
 20
117.9452126901704
 10
115.7951220784348
 20
117.9452126901704
 10
115.7951220784348
 20
117.9452126901704
  0
HATCH
  5
143
330
13C
100
AcDbEntity
  8
CAPA_BASE
 62
    18
420
        0
440
 33554687
100
AcDbHatch
 10
0.0
 20
0.0
 30
0.0
210
0.0
220
0.0
230
1.0
  2
SOLID
 70
     1
 71
     1
 91
        1
 92
        1
 93
        3
 72
     1
 10
115.4851220784351
 20
120.4452126901702
 11
115.1751220784354
 21
117.9452126901704
 72
     1
 10
115.1751220784354
 20
117.9452126901704
 11
115.7951220784348
 21
117.9452126901704
 72
     1
 10
115.7951220784348
 20
117.9452126901704
 11
115.4851220784351
 21
120.4452126901702
 97
        1
330
142
 75
     2
 76
     1
 98
        1
 10
0.0
 20
0.0
450
        0
451
        0
460
0.0
461
0.0
452
        0
462
0.0
453
        0
470

  0
LINE
  5
144
330
13C
100
AcDbEntity
  8
CAPA_BASE
 62
    18
420
        0
370
    25
100
AcDbLine
 10
145.2278051802351
 20
59.68271269017008
 30
0.0
 11
114.4851220784357
 21
59.68271269017008
 31
0.0
  0
LINE
  5
145
330
13C
100
AcDbEntity
  8
CAPA_BASE
 62
    18
420
        0
370
    25
100
AcDbLine
 10
124.4851220784348
 20
120.4452126901702
 30
0.0
 11
114.4851220784357
 21
120.4452126901702
 31
0.0
  0
LINE
  5
146
330
13C
100
AcDbEntity
  8
CAPA_BASE
 62
    18
420
        0
370
    25
100
AcDbLine
 10
115.4851220784351
 20
59.68271269017008
 30
0.0
 11
115.4851220784351
 21
120.4452126901702
 31
0.0
  0
MTEXT
  5
147
330
13C
100
AcDbEntity
  8
CAPA_BASE
100
AcDbMText
 10
114.6913708929925
 20
87.4182644095684
 30
0.0
 40
0.2
 41
0.0
 46
0.0
 71
     7
 72
     1
  1
\C18;\c0;\FArial Bold|b1|i0|c1;\H2.997200;\W0.700000;122
 11
0.0000000000000003
 21
1.0
 31
0.0
 73
     1
 44
1.0
  0
ENDBLK
  5
13F
330
13C
100
AcDbEntity
  8
0
100
AcDbBlockEnd
  0
ENDSEC
  0
SECTION
  2
ENTITIES
  0
SPLINE
  5
78
330
70
100
AcDbEntity
  8
0
 62
    18
420
        0
370
    25
100
AcDbSpline
210
0.0
220
0.0
230
1.0
 70
     8
 71
     3
 72
    11
 73
     7
 74
     0
 42
0.0000000001
 43
0.0000000001
 40
0.0
 40
0.0
 40
0.0
 40
0.0
 40
1.0
 40
1.0
 40
1.0
 40
2.0
 40
2.0
 40
2.0
 40
2.0
 10
29.65309061276921
 20
102.9348943240443
 30
0.0
 10
29.65188572965056
 20
102.7968283939143
 30
0.0
 10
29.76283352953088
 20
102.6839270925226
 30
0.0
 10
29.90089945966085
 20
102.6827222094043
 30
0.0
 10
29.90162665364584
 20
102.6827158632783
 30
0.0
 10
29.90235387185977
 20
102.6827126901703
 30
0.0
 10
29.90308109353504
 20
102.6827126901703
 30
0.0
  0
SPLINE
  5
79
330
70
100
AcDbEntity
  8
0
 62
    18
420
        0
370
    25
100
AcDbSpline
210
0.0
220
0.0
230
1.0
 70
     8
 71
     3
 72
    11
 73
     7
 74
     0
 42
0.0000000001
 43
0.0000000001
 40
0.0
 40
0.0
 40
0.0
 40
0.0
 40
1.0
 40
1.0
 40
1.0
 40
2.0
 40
2.0
 40
2.0
 40
2.0
 10
67.46524098743496
 20
102.6827126901703
 30
0.0
 10
67.60331217489319
 20
102.6827126901703
 30
0.0
 10
67.71524098743514
 20
102.7946415027126
 30
0.0
 10
67.71524098743514
 20
102.9327126901701
 30
0.0
 10
67.71524098743514
 20
102.9334399118457
 30
0.0
 10
67.71523781432708
 20
102.9341671300596
 30
0.0
 10
67.71523146820079
 20
102.9348943240443
 30
0.0
  0
LINE
  5
7A
330
70
100
AcDbEntity
  8
0
 62
    18
420
        0
370
    25
100
AcDbLine
 10
67.71523146813534
 20
102.9348943240703
 30
0.0
 11
67.68416104043514
 21
106.4952126901701
 31
0.0
  0
LINE
  5
7B
330
70
100
AcDbEntity
  8
0
 62
    18
420
        0
370
    25
100
AcDbLine
 10
29.68416104043508
 20
106.4952126901701
 30
0.0
 11
29.65309061283499
 21
102.9348943240703
 31
0.0
  0
SPLINE
  5
7C
330
70
100
AcDbEntity
  8
0
 62
    18
420
        0
370
    25
100
AcDbSpline
210
0.0
220
0.0
230
1.0
 70
     8
 71
     3
 72
     8
 73
     4
 74
     0
 42
0.0000000001
 43
0.0000000001
 40
0.0
 40
0.0
 40
0.0
 40
0.0
 40
1.0
 40
1.0
 40
1.0
 40
1.0
 10
67.68416104043963
 20
106.4952126901701
 30
0.0
 10
67.68416104043963
 20
107.8127883193582
 30
0.0
 10
67.64944093071317
 20
109.1301351769999
 30
0.0
 10
67.58003686328918
 20
110.4458815864782
 30
0.0
  0
SPLINE
  5
7D
330
70
100
AcDbEntity
  8
0
 62
    18
420
        0
370
    25
100
AcDbSpline
210
0.0
220
0.0
230
1.0
 70
     8
 71
     3
 72
     8
 73
     4
 74
     0
 42
0.0000000001
 43
0.0000000001
 40
0.0
 40
0.0
 40
0.0
 40
0.0
 40
1.0
 40
1.0
 40
1.0
 40
1.0
 10
29.78828521758071
 20
110.4458815864782
 30
0.0
 10
29.71888115015737
 20
109.1301351769999
 30
0.0
 10
29.68416104043059
 20
107.8127883193582
 30
0.0
 10
29.68416104043059
 20
106.4952126901701
 30
0.0
  0
SPLINE
  5
7E
330
70
100
AcDbEntity
  8
0
 62
    18
420
        0
370
    25
100
AcDbSpline
210
0.0
220
0.0
230
1.0
 70
     8
 71
     3
 72
     8
 73
     4
 74
     0
 42
0.0000000001
 43
0.0000000001
 40
0.0
 40
0.0
 40
0.0
 40
0.0
 40
1.0
 40
1.0
 40
1.0
 40
1.0
 10
67.58003686334437
 20
110.4458815864914
 30
0.0
 10
67.57303345128605
 20
110.5786506677892
 30
0.0
 10
67.46333760777749
 20
110.6827126901702
 30
0.0
 10
67.330383943935
 20
110.6827126901702
 30
0.0
  0
SPLINE
  5
7F
330
70
100
AcDbEntity
  8
0
 62
    18
420
        0
370
    25
100
AcDbSpline
210
0.0
220
0.0
230
1.0
 70
     8
 71
     3
 72
     8
 73
     4
 74
     0
 42
0.0000000001
 43
0.0000000001
 40
0.0
 40
0.0
 40
0.0
 40
0.0
 40
1.0
 40
1.0
 40
1.0
 40
1.0
 10
30.037938137035
 20
110.6827126901702
 30
0.0
 10
29.90498447319251
 20
110.6827126901702
 30
0.0
 10
29.79528862968428
 20
110.5786506677892
 30
0.0
 10
29.78828521762563
 20
110.4458815864914
 30
0.0
  0
SPLINE
  5
80
330
70
100
AcDbEntity
  8
0
 62
    18
420
        0
370
    25
100
AcDbSpline
210
0.0
220
0.0
230
1.0
 70
     8
 71
     3
 72
    11
 73
     7
 74
     0
 42
0.0000000001
 43
0.0000000001
 40
0.0
 40
0.0
 40
0.0
 40
0.0
 40
1.0
 40
1.0
 40
1.0
 40
2.0
 40
2.0
 40
2.0
 40
2.0
 10
67.35059462370107
 20
115.4305310562957
 30
0.0
 10
67.35179950681973
 20
115.5685969864257
 30
0.0
 10
67.24085170693941
 20
115.6814982878177
 30
0.0
 10
67.10278577680977
 20
115.6827031709364
 30
0.0
 10
67.10205858282446
 20
115.682709517062
 30
0.0
 10
67.10133136461052
 20
115.6827126901704
 30
0.0
 10
67.10060414293526
 20
115.6827126901704
 30
0.0
  0
SPLINE
  5
81
330
70
100
AcDbEntity
  8
0
 62
    18
420
        0
370
    25
100
AcDbSpline
210
0.0
220
0.0
230
1.0
 70
     8
 71
     3
 72
    11
 73
     7
 74
     0
 42
0.0000000001
 43
0.0000000001
 40
0.0
 40
0.0
 40
0.0
 40
0.0
 40
1.0
 40
1.0
 40
1.0
 40
2.0
 40
2.0
 40
2.0
 40
2.0
 10
30.26771793803507
 20
115.6827126901704
 30
0.0
 10
30.12964675057749
 20
115.6827126901704
 30
0.0
 10
30.01771793803522
 20
115.5707838776282
 30
0.0
 10
30.01771793803522
 20
115.4327126901703
 30
0.0
 10
30.01771793803522
 20
115.4319854684947
 30
0.0
 10
30.01772111114329
 20
115.4312582502807
 30
0.0
 10
30.01772745726893
 20
115.4305310562957
 30
0.0
  0
LINE
  5
82
330
70
100
AcDbEntity
  8
0
 62
    18
420
        0
370
    25
100
AcDbLine
 10
30.01772745733502
 20
115.4305310562704
 30
0.0
 11
30.05699836233505
 21
110.9305310562702
 31
0.0
  0
LINE
  5
83
330
70
100
AcDbEntity
  8
0
 62
    18
420
        0
370
    25
100
AcDbLine
 10
67.31132371863495
 20
110.9305310562702
 30
0.0
 11
67.35059462363498
 21
115.4305310562704
 31
0.0
  0
SPLINE
  5
84
330
70
100
AcDbEntity
  8
0
 62
    18
420
        0
370
    25
100
AcDbSpline
210
0.0
220
0.0
230
1.0
 70
     8
 71
     3
 72
     8
 73
     4
 74
     0
 42
0.0000000001
 43
0.0000000001
 40
0.0
 40
0.0
 40
0.0
 40
0.0
 40
1.0
 40
1.0
 40
1.0
 40
1.0
 10
67.06133323783513
 20
110.6827126901702
 30
0.0
 10
67.19855320133314
 20
110.6827126901702
 30
0.0
 10
67.3101262637185
 20
110.793316317713
 30
0.0
 10
67.31132371860159
 20
110.9305310562956
 30
0.0
  0
SPLINE
  5
85
330
70
100
AcDbEntity
  8
0
 62
    18
420
        0
370
    25
100
AcDbSpline
210
0.0
220
0.0
230
1.0
 70
     8
 71
     3
 72
     8
 73
     4
 74
     0
 42
0.0000000001
 43
0.0000000001
 40
0.0
 40
0.0
 40
0.0
 40
0.0
 40
1.0
 40
1.0
 40
1.0
 40
1.0
 10
30.05699836236906
 20
110.9305310562956
 30
0.0
 10
30.0581958172515
 20
110.793316317713
 30
0.0
 10
30.16976887963654
 20
110.6827126901702
 30
0.0
 10
30.3069888431352
 20
110.6827126901702
 30
0.0
  0
LINE
  5
86
330
70
100
AcDbEntity
  8
0
 62
    18
420
        0
370
    25
100
AcDbLine
 10
32.76259241303528
 20
102.6827126901703
 30
0.0
 11
33.17688018353516
 21
60.42536010237024
 31
0.0
  0
LINE
  5
87
330
70
100
AcDbEntity
  8
0
 62
    18
420
        0
370
    25
100
AcDbLine
 10
64.19144189743516
 20
60.42536010237024
 30
0.0
 11
64.60572966793505
 21
102.6827126901703
 31
0.0
  0
SPLINE
  5
88
330
70
100
AcDbEntity
  8
0
 62
    18
420
        0
370
    25
100
AcDbSpline
210
0.0
220
0.0
230
1.0
 70
     8
 71
     3
 72
     8
 73
     4
 74
     0
 42
0.0000000001
 43
0.0000000001
 40
0.0
 40
0.0
 40
0.0
 40
0.0
 40
1.0
 40
1.0
 40
1.0
 40
1.0
 10
63.44147793873521
 20
59.68271269017008
 30
0.0
 10
63.85282299730967
 20
59.68271269017008
 30
0.0
 10
64.18740929660758
 20
60.01403481094068
 30
0.0
 10
64.19144189750382
 20
60.42536010233879
 30
0.0
  0
SPLINE
  5
89
330
70
100
AcDbEntity
  8
0
 62
    18
420
        0
370
    25
100
AcDbSpline
210
0.0
220
0.0
230
1.0
 70
     8
 71
     3
 72
     8
 73
     4
 74
     0
 42
0.0000000001
 43
0.0000000001
 40
0.0
 40
0.0
 40
0.0
 40
0.0
 40
1.0
 40
1.0
 40
1.0
 40
1.0
 10
33.17688018346618
 20
60.42536010233879
 30
0.0
 10
33.18091278436274
 20
60.01403481094068
 30
0.0
 10
33.51549908366065
 20
59.68271269017008
 30
0.0
 10
33.92684414223512
 20
59.68271269017008
 30
0.0
  0
SPLINE
  5
8A
330
70
100
AcDbEntity
  8
0
 62
    18
420
        0
370
    25
100
AcDbSpline
210
0.0
220
0.0
230
1.0
 70
     8
 71
     3
 72
    11
 73
     7
 74
     0
 42
0.0000000001
 43
0.0000000001
 40
0.0
 40
0.0
 40
0.0
 40
0.0
 40
1.0
 40
1.0
 40
1.0
 40
2.0
 40
2.0
 40
2.0
 40
2.0
 10
59.0902815351297
 20
115.6827126901647
 30
0.0
 10
54.1266223460286
 20
121.4298543442861
 30
0.0
 10
45.44380269456235
 20
122.0649923739658
 30
0.0
 10
39.69666104044093
 20
117.1013331848647
 30
0.0
 10
39.18987442054563
 20
116.6636345488909
 30
0.0
 10
38.71573918171439
 20
116.1894993100599
 30
0.0
 10
38.27804054574052
 20
115.6827126901647
 30
0.0
  0
LINE
  5
8B
330
70
100
AcDbEntity
  8
0
 62
    18
420
        0
370
    25
100
AcDbLine
 10
67.46524098743496
 20
102.6827126901703
 30
0.0
 11
29.90308109353504
 21
102.6827126901703
 31
0.0
  0
LINE
  5
8C
330
70
100
AcDbEntity
  8
0
 62
    18
420
        0
370
    25
100
AcDbLine
 10
30.037938137035
 20
110.6827126901702
 30
0.0
 11
67.330383943935
 21
110.6827126901702
 31
0.0
  0
LINE
  5
8D
330
70
100
AcDbEntity
  8
0
 62
    18
420
        0
370
    25
100
AcDbLine
 10
67.10060414293526
 20
115.6827126901704
 30
0.0
 11
30.26771793803507
 21
115.6827126901704
 31
0.0
  0
LINE
  5
8E
330
70
100
AcDbEntity
  8
0
 62
    18
420
        0
370
    25
100
AcDbLine
 10
63.44147793873521
 20
59.68271269017008
 30
0.0
 11
33.92684414223512
 21
59.68271269017008
 31
0.0
  0
SPLINE
  5
8F
330
70
100
AcDbEntity
  8
0
 62
     8
420
  8421504
370
    25
100
AcDbSpline
210
0.0
220
0.0
230
1.0
 70
     8
 71
     3
 72
    11
 73
     7
 74
     0
 42
0.0000000001
 43
0.0000000001
 40
0.0
 40
0.0
 40
0.0
 40
0.0
 40
1.0
 40
1.0
 40
1.0
 40
2.0
 40
2.0
 40
2.0
 40
2.0
 10
58.45614682286815
 20
115.6827126901708
 30
0.0
 10
53.49248763376352
 20
121.0796314133716
 30
0.0
 10
45.09357976363565
 20
121.4308576617078
 30
0.0
 10
39.69666104043483
 20
116.4671984726032
 30
0.0
 10
39.42434954775464
 20
116.2167478891749
 30
0.0
 10
39.1626258414303
 20
115.9550241828506
 30
0.0
 10
38.91217525800207
 20
115.6827126901708
 30
0.0
  0
LINE
  5
90
330
70
100
AcDbEntity
  8
0
 62
     8
420
  8421504
370
    25
100
AcDbLine
 10
29.65309061283499
 20
102.9348943240703
 30
0.0
 11
67.71523146813534
 21
102.9348943240703
 31
0.0
  0
LINE
  5
91
330
70
100
AcDbEntity
  8
0
 62
     8
420
  8421504
370
    25
100
AcDbLine
 10
29.68416104043508
 20
106.4952126901701
 30
0.0
 11
67.68416104043514
 21
106.4952126901701
 31
0.0
  0
LINE
  5
92
330
70
100
AcDbEntity
  8
0
 62
     8
420
  8421504
370
    25
100
AcDbLine
 10
67.58003686333539
 20
110.4458815864702
 30
0.0
 11
29.78828521763526
 21
110.4458815864702
 31
0.0
  0
LINE
  5
93
330
70
100
AcDbEntity
  8
0
 62
     8
420
  8421504
370
    25
100
AcDbLine
 10
67.35059462363498
 20
115.4305310562704
 30
0.0
 11
30.01772745733502
 21
115.4305310562704
 31
0.0
  0
LINE
  5
94
330
70
100
AcDbEntity
  8
0
 62
     8
420
  8421504
370
    25
100
AcDbLine
 10
67.31132371863495
 20
110.9305310562702
 30
0.0
 11
30.05699836233505
 21
110.9305310562702
 31
0.0
  0
LINE
  5
95
330
70
100
AcDbEntity
  8
0
 62
     8
420
  8421504
370
    25
100
AcDbLine
 10
64.19144189743516
 20
60.42536010237024
 30
0.0
 11
33.17688018353516
 21
60.42536010237024
 31
0.0
  0
LINE
  5
96
330
70
100
AcDbEntity
  8
0
 62
    18
420
        0
370
    25
100
AcDbLine
 10
62.43416104043511
 20
9.711640997270096
 30
0.0
 11
62.43416104043511
 21
11.89156597487051
 31
0.0
  0
LINE
  5
97
330
70
100
AcDbEntity
  8
0
 62
    18
420
        0
370
    25
100
AcDbLine
 10
34.93416104043511
 20
11.89156597487051
 30
0.0
 11
34.93416104043511
 21
9.711640997270096
 31
0.0
  0
SPLINE
  5
98
330
70
100
AcDbEntity
  8
0
 62
    18
420
        0
370
    25
100
AcDbSpline
210
0.0
220
0.0
230
1.0
 70
     8
 71
     3
 72
     8
 73
     4
 74
     0
 42
0.0000000001
 43
0.0000000001
 40
0.0
 40
0.0
 40
0.0
 40
0.0
 40
1.0
 40
1.0
 40
1.0
 40
1.0
 10
34.93416104043511
 20
9.711640997270096
 30
0.0
 10
34.93416104043511
 20
9.445816971883246
 30
0.0
 10
35.14215902123722
 20
9.226463469702022
 30
0.0
 10
35.40760793422312
 20
9.212346562541886
 30
0.0
  0
SPLINE
  5
99
330
70
100
AcDbEntity
  8
0
 62
    18
420
        0
370
    25
100
AcDbSpline
210
0.0
220
0.0
230
1.0
 70
     8
 71
     3
 72
     8
 73
     4
 74
     0
 42
0.0000000001
 43
0.0000000001
 40
0.0
 40
0.0
 40
0.0
 40
0.0
 40
1.0
 40
1.0
 40
1.0
 40
1.0
 10
61.9607141466471
 20
9.212346562541886
 30
0.0
 10
62.226163059633
 20
9.226463469702022
 30
0.0
 10
62.43416104043511
 20
9.445816971883246
 30
0.0
 10
62.43416104043511
 20
9.711640997270096
 30
0.0
  0
SPLINE
  5
9A
330
70
100
AcDbEntity
  8
0
 62
    18
420
        0
370
    25
100
AcDbSpline
210
0.0
220
0.0
230
1.0
 70
     8
 71
     3
 72
     8
 73
     4
 74
     0
 42
0.0000000001
 43
0.0000000001
 40
0.0
 40
0.0
 40
0.0
 40
0.0
 40
1.0
 40
1.0
 40
1.0
 40
1.0
 10
35.40760793443873
 20
9.212346562599639
 30
0.0
 10
38.49754066064175
 20
9.048020052708382
 30
0.0
 10
41.59025794993778
 20
8.941074761908796
 30
0.0
 10
44.68416104058673
 20
8.891565974930088
 30
0.0
  0
SPLINE
  5
9B
330
70
100
AcDbEntity
  8
0
 62
    18
420
        0
370
    25
100
AcDbSpline
210
0.0
220
0.0
230
1.0
 70
     8
 71
     3
 72
     8
 73
     4
 74
     0
 42
0.0000000001
 43
0.0000000001
 40
0.0
 40
0.0
 40
0.0
 40
0.0
 40
1.0
 40
1.0
 40
1.0
 40
1.0
 10
52.68416104028349
 20
8.891565974930088
 30
0.0
 10
55.77806413107778
 20
8.941074761911362
 30
0.0
 10
58.87078142051916
 20
9.04802005271865
 30
0.0
 10
61.9607141468672
 20
9.212346562622741
 30
0.0
  0
LINE
  5
9C
330
70
100
AcDbEntity
  8
0
 62
    18
420
        0
370
    25
100
AcDbLine
 10
44.68416104043529
 20
8.89156597487041
 30
0.0
 11
44.68416104043529
 21
-4.832443352429685
 31
0.0
  0
LINE
  5
9D
330
70
100
AcDbEntity
  8
0
 62
    18
420
        0
370
    25
100
AcDbLine
 10
52.68416104043525
 20
-4.832443352429685
 30
0.0
 11
52.68416104043525
 21
8.89156597487041
 31
0.0
  0
LWPOLYLINE
  5
9E
330
70
100
AcDbEntity
  8
0
 62
    18
420
        0
370
    25
100
AcDbPolyline
 90
       10
 70
     0
 43
0.0
 10
52.87397824803516
 20
-5.076159745429825
 10
52.87427348893505
 20
-5.07621792543002
 10
52.86311312973524
 20
-5.073273313129582
 10
52.84904508363512
 20
-5.068687689129856
 10
52.83071328743509
 20
-5.061245518829409
 10
52.7950754683351
 20
-5.041426045829986
 10
52.74856506613499
 20
-5.001224172229393
 10
52.70275694153512
 20
-4.928446379129674
 10
52.68426541903513
 20
-4.842966883229522
 10
52.68561999323498
 20
-4.833675948929452
  0
SPLINE
  5
9F
330
70
100
AcDbEntity
  8
0
 62
    18
420
        0
370
    25
100
AcDbSpline
210
0.0
220
0.0
230
1.0
 70
     8
 71
     3
 72
     8
 73
     4
 74
     0
 42
0.0000000001
 43
0.0000000001
 40
0.0
 40
0.0
 40
0.0
 40
0.0
 40
1.0
 40
1.0
 40
1.0
 40
1.0
 10
44.49527610317988
 20
-5.075895289273232
 30
0.0
 10
44.60729639976709
 20
-5.04903414494252
 30
0.0
 10
44.68487072962384
 20
-4.946953739177785
 30
0.0
 10
44.68074818685229
 20
-4.831831749257452
 30
0.0
  0
LWPOLYLINE
  5
A0
330
70
100
AcDbEntity
  8
0
 62
    18
420
        0
370
    25
100
AcDbPolyline
 90
      130
 70
     0
 43
0.0
 10
52.87078201253509
 20
-5.043569124429881
 10
53.23687196723504
 20
-5.129937680329955
 10
54.5009169733351
 20
-5.488076568229825
 10
55.73724070493526
 20
-5.932572767629906
 10
56.93995113723521
 20
-6.461307915329443
 10
58.10331643863516
 20
-7.071762185529983
 10
59.22179228703522
 20
-7.761026298330028
 10
60.29004829253505
 20
-8.52581538512987
 10
61.30299340123499
 20
-9.36248464302981
 10
62.25580015793514
 20
-10.26704670552947
 10
63.14392771233503
 20
-11.23519064513
 10
63.96314345983517
 20
-12.26230251802957
 10
64.7095432131352
 20
-13.34348735373001
 10
65.37956980863481
 20
-14.47359248232989
 10
65.97003005903525
 20
-15.64723209192969
 10
66.47810997123503
 20
-16.85881289542995
 10
66.90138815743513
 20
-18.10256078692949
 10
67.2378473744353
 20
-19.37254836003002
 10
67.48588413763513
 20
-20.66272315622992
 10
67.64431636293479
 20
-21.96693650932951
 10
67.71238900003519
 20
-23.27897284902964
 10
67.68977763083521
 20
-24.59257932222966
 10
67.57659001593475
 20
-25.90149559312981
 10
67.37336558033479
 20
-27.19948367832987
 10
67.08107284353534
 20
-28.48035767552961
 10
66.70110480313529
 20
-29.73801324392966
 10
66.23527229623512
 20
-30.96645669642999
 10
65.68579536993552
 20
-32.15983356402979
 10
65.05529270033502
 20
-33.31245649632992
 10
64.34676911313508
 20
-34.41883236682974
 10
63.56360126323504
 20
-35.47368845152973
 10
62.70952154213527
 20
-36.47199755722987
 10
61.78860029053514
 20
-37.40900198032977
 10
60.80522640003519
 20
-38.28023618072958
 10
59.76408639653528
 20
-39.08154806362989
 10
58.67014210553509
 20
-39.80911876722951
 10
57.52860700523505
 20
-40.45948086272969
 10
56.34492138013506
 20
-41.02953487902965
 10
55.12472639443508
 20
-41.51656407452999
 10
53.87383720683502
 20
-41.91824738392992
 10
52.59821525773499
 20
-42.23267048002979
 10
51.30393985763521
 20
-42.4583348974298
 10
49.99717921513514
 20
-42.59416517292957
 10
48.68416104043511
 20
-42.63951397202969
 10
47.36989274143524
 20
-42.59407867532958
 10
46.06189987923499
 20
-42.45798973202956
 10
44.7664279265352
 20
-42.2318969467295
 10
43.48966257023506
 20
-41.91687987912994
 10
42.23770017623528
 20
-41.51444268902943
 10
41.01651867983513
 20
-41.02650695452967
 10
39.83194904223526
 20
-40.45540249673003
 10
38.68964740833522
 20
-39.80385625492944
 10
37.59506809953509
 20
-39.07497926612941
 10
36.55343757033501
 20
-38.27225181022998
 10
35.56972945233515
 20
-37.39950679212942
 10
34.64864080653517
 20
-36.4609114403296
 10
33.79456969493527
 20
-35.46094740872991
 10
33.01159418093517
 20
-34.40438937792972
 10
32.30345285683499
 20
-33.29628225622951
 10
31.67352699283505
 20
-32.14191709142959
 10
31.12482439173501
 20
-30.94680580642988
 10
30.65996502733497
 20
-29.71665488102953
 10
30.28116853433521
 20
-28.45733810392971
 10
29.99024361013503
 20
-27.17486852672974
 10
29.78857937823514
 20
-25.8753697520295
 10
29.67713875533519
 20
-24.56504669432995
 10
29.65645385413503
 20
-23.25015595252986
 10
29.72662344193516
 20
-21.93697593552952
 10
29.88731246923525
 20
-20.63177688382971
 10
30.13775366983509
 20
-19.34079093002996
 10
30.47675122383501
 20
-18.0701823410295
 10
30.90268646823519
 20
-16.82601808512958
 10
31.41352562503505
 20
-15.61423886272985
 10
32.00682951293526
 20
-14.44063074052995
 10
32.67976519343503
 20
-13.31079752362974
 10
33.42911949823524
 20
-12.23013399882967
 10
34.25131437123502
 20
-11.20380017452963
 10
35.14242395343504
 20
-10.23669664322944
 10
36.09819332843527
 20
-9.333441181129556
 10
37.11405883873507
 20
-8.498346699529866
 10
38.18516987653497
 20
-7.73540065132975
 10
39.30641204523502
 20
-7.048245990929474
 10
40.47243157903505
 20
-6.440163780329619
 10
41.67766090703498
 20
-5.914057522229991
 10
42.91634523743515
 20
-5.472439296229674
 10
44.18257003563497
 20
-5.117417763929982
 10
44.52845124603519
 20
-5.036625280429658
 10
44.11610712453504
 20
-5.133724626429858
 10
42.85271812433513
 20
-5.492797755229625
 10
41.61710448633509
 20
-5.938156279529609
 10
40.4151514804351
 20
-6.467678941329713
 10
39.252584050035
 20
-7.078843606129889
 10
38.13493954363521
 20
-7.768739275629843
 10
37.06754134013511
 20
-8.534079953229475
 10
36.05547349373503
 20
-9.371220295129415
 10
35.10355651823522
 20
-10.27617297312973
 10
34.216324426835
 20
-11.24462766672946
 10
33.39800313623515
 20
-12.27197159312975
 10
32.65249033873523
 20
-13.35331147792959
 10
31.98333693743503
 20
-14.48349686232997
 10
31.39373013273525
 20
-15.65714463472978
 10
30.88647824213496
 20
-16.8686646704296
 10
30.46399732363527
 20
-18.11228645832947
 10
30.12829966833521
 20
-19.38208658502967
 10
29.88098421573514
 20
-20.6720169492299
 10
29.72322893773523
 20
-21.97593356852962
 10
29.65578522813527
 20
-23.28762584322978
 10
29.67897432363501
 20
-24.60084613842945
 10
29.79268577373515
 20
-25.9093395406299
 10
29.99637796693511
 20
-27.20687365122941
 10
30.28908071043497
 20
-28.4872682707296
 10
30.66939985093522
 20
-29.74442483572977
 10
31.13552391533499
 20
-30.97235546662942
 10
31.68523273893518
 20
-32.16521148762954
 10
32.31590803963499
 20
-33.31731128482973
 10
33.02454588943527
 20
-34.42316736752945
 10
33.80777102203522
 20
-35.47751250512983
 10
34.66185290933513
 20
-36.47532481582964
 10
35.58272353013506
 20
-37.41185168552964
 10
36.56599674593515
 20
-38.28263240452982
 10
37.60698919303502
 20
-39.08351941442968
 10
38.70074258863507
 20
-39.81069806322977
 10
39.84204734793502
 20
-40.46070477402995
 10
41.02546739733498
 20
-41.03044354252967
 10
42.24536606663496
 20
-41.51720068362996
 10
43.49593293663528
 20
-41.91865775632948
 10
44.77121151463501
 20
-42.23290260692996
 10
46.06512760513522
 20
-42.45843847632989
 10
47.37151824153519
 20
-42.59419112952994
 10
48.68416104043511
 20
-42.63951397202969
  0
CIRCLE
  5
A1
330
70
100
AcDbEntity
  8
0
 62
    18
420
        0
370
    25
100
AcDbCircle
 10
48.68416104043519
 20
-23.60843402512978
 30
0.0
 40
18.66644310240971
  0
LINE
  5
A2
330
70
100
AcDbEntity
  8
0
 62
    18
420
        0
370
    25
100
AcDbLine
 10
62.43416104043511
 20
11.89156597487051
 30
0.0
 11
34.93416104043511
 21
11.89156597487051
 31
0.0
  0
LINE
  5
A3
330
70
100
AcDbEntity
  8
0
 62
    18
420
        0
370
    25
100
AcDbLine
 10
52.68416104043525
 20
8.89156597487041
 30
0.0
 11
44.68416104043529
 21
8.89156597487041
 31
0.0
  0
SPLINE
  5
A4
330
70
100
AcDbEntity
  8
0
 62
    18
420
        0
370
    25
100
AcDbSpline
210
0.0
220
0.0
230
1.0
 70
     8
 71
     3
 72
     8
 73
     4
 74
     0
 42
0.0000000001
 43
0.0000000001
 40
0.0
 40
0.0
 40
0.0
 40
0.0
 40
1.0
 40
1.0
 40
1.0
 40
1.0
 10
48.68416104051693
 20
-4.962211121624743
 30
0.0
 10
48.10036180528625
 20
-4.723236988400977
 30
0.0
 10
47.47934368179007
 20
-4.587954864701719
 30
0.0
 10
46.84904240616427
 20
-4.562450250399585
 30
0.0
  0
SPLINE
  5
A5
330
70
100
AcDbEntity
  8
0
 62
    18
420
        0
370
    25
100
AcDbSpline
210
0.0
220
0.0
230
1.0
 70
     8
 71
     3
 72
     8
 73
     4
 74
     0
 42
0.0000000001
 43
0.0000000001
 40
0.0
 40
0.0
 40
0.0
 40
0.0
 40
1.0
 40
1.0
 40
1.0
 40
1.0
 10
48.68416104052077
 20
-4.962211121674796
 30
0.0
 10
48.04967486107219
 20
-4.845217203290946
 30
0.0
 10
47.40474827032621
 20
-4.794476018332336
 30
0.0
 10
46.7597725738712
 20
-4.810805128310746
 30
0.0
  0
LWPOLYLINE
  5
A6
330
70
100
AcDbEntity
  8
0
 62
    18
420
        0
370
    25
100
AcDbPolyline
 90
        9
 70
     0
 43
0.0
 10
46.84904240613508
 20
-4.562450250429745
 10
46.84980447153525
 20
-4.608249200329893
 10
46.84664114873527
 20
-4.652491045029597
 10
46.839659986635
 20
-4.693671619029436
 10
46.82909833563507
 20
-4.730390835829892
 10
46.81531527823517
 20
-4.761400289729496
 10
46.79877942073519
 20
-4.785645699029438
 10
46.78005296073526
 20
-4.802302751329714
 10
46.75977257383525
 20
-4.810805128329997
  0
SPLINE
  5
A7
330
70
100
AcDbEntity
  8
0
 62
    18
420
        0
370
    25
100
AcDbSpline
210
0.0
220
0.0
230
1.0
 70
     8
 71
     3
 72
     8
 73
     4
 74
     0
 42
0.0000000001
 43
0.0000000001
 40
0.0
 40
0.0
 40
0.0
 40
0.0
 40
1.0
 40
1.0
 40
1.0
 40
1.0
 10
50.60854950709881
 20
-4.810805128310746
 30
0.0
 10
49.9635738106441
 20
-4.794476018332336
 30
0.0
 10
49.31864721989814
 20
-4.845217203290946
 30
0.0
 10
48.68416104044954
 20
-4.962211121674796
 30
0.0
  0
SPLINE
  5
A8
330
70
100
AcDbEntity
  8
0
 62
    18
420
        0
370
    25
100
AcDbSpline
210
0.0
220
0.0
230
1.0
 70
     8
 71
     3
 72
    17
 73
    13
 74
     0
 42
0.0000000001
 43
0.0000000001
 40
0.0
 40
0.0
 40
0.0
 40
0.0
 40
1.0
 40
1.0
 40
1.0
 40
2.0
 40
2.0
 40
2.0
 40
3.0
 40
3.0
 40
3.0
 40
4.0
 40
4.0
 40
4.0
 40
4.0
 10
46.75977257377782
 20
-4.810805128326147
 30
0.0
 10
36.37812880109497
 20
-5.873615531211292
 30
0.0
 10
28.82372174074698
 20
-15.15117871910355
 30
0.0
 10
29.88653214363181
 20
-25.53282249178706
 30
0.0
 10
30.94934254651695
 20
-35.91446626446991
 30
0.0
 10
40.22690573440921
 20
-43.46887332481791
 30
0.0
 10
50.6085495070924
 20
-42.40606292193276
 30
0.0
 10
60.99019327977526
 20
-41.34325251904825
 30
0.0
 10
68.54460034012388
 20
-32.06568933115535
 30
0.0
 10
67.48178993723874
 20
-21.68404555847249
 30
0.0
 10
66.56927252043008
 20
-12.77047947748988
 30
0.0
 10
59.52211558807467
 20
-5.723322545134813
 30
0.0
 10
50.6085495070924
 20
-4.810805128326788
 30
0.0
  0
LWPOLYLINE
  5
A9
330
70
100
AcDbEntity
  8
0
 62
    18
420
        0
370
    25
100
AcDbPolyline
 90
        9
 70
     0
 43
0.0
 10
50.51927967483525
 20
-4.562450250429745
 10
50.51851760933497
 20
-4.608249200329893
 10
50.52168093213527
 20
-4.652491045029597
 10
50.52866209433499
 20
-4.693671619029436
 10
50.53922374533525
 20
-4.730390835829892
 10
50.55300680273516
 20
-4.761400289729496
 10
50.56954266023513
 20
-4.785645699029438
 10
50.58826912023506
 20
-4.802302751329714
 10
50.60854950713506
 20
-4.810805128329997
  0
SPLINE
  5
AA
330
70
100
AcDbEntity
  8
0
 62
    18
420
        0
370
    25
100
AcDbSpline
210
0.0
220
0.0
230
1.0
 70
     8
 71
     3
 72
     8
 73
     4
 74
     0
 42
0.0000000001
 43
0.0000000001
 40
0.0
 40
0.0
 40
0.0
 40
0.0
 40
1.0
 40
1.0
 40
1.0
 40
1.0
 10
50.51927967484775
 20
-4.562450250442578
 30
0.0
 10
49.8882188729989
 20
-4.581913374269626
 30
0.0
 10
49.26613808216622
 20
-4.717426988626383
 30
0.0
 10
48.68416104049575
 20
-4.962211121665812
 30
0.0
  0
SPLINE
  5
AB
330
70
100
AcDbEntity
  8
0
 62
    18
420
        0
370
    25
100
AcDbSpline
210
0.0
220
0.0
230
1.0
 70
     8
 71
     3
 72
     8
 73
     4
 74
     0
 42
0.0000000001
 43
0.0000000001
 40
0.0
 40
0.0
 40
0.0
 40
0.0
 40
1.0
 40
1.0
 40
1.0
 40
1.0
 10
52.87093731514861
 20
-5.076271699008041
 30
0.0
 10
52.12015806420062
 20
-4.961252984356351
 30
0.0
 10
51.36556117622549
 20
-4.872709257485727
 30
0.0
 10
50.60854950712255
 20
-4.810805128257485
 30
0.0
  0
LINE
  5
AC
330
70
100
AcDbEntity
  8
0
 62
    18
420
        0
370
    25
100
AcDbLine
 10
52.8749785414351
 20
-5.076379398729956
 30
0.0
 11
52.87488193223524
 21
-5.076357551929585
 31
0.0
  0
SPLINE
  5
AD
330
70
100
AcDbEntity
  8
0
 62
    18
420
        0
370
    25
100
AcDbSpline
210
0.0
220
0.0
230
1.0
 70
     8
 71
     3
 72
    17
 73
    13
 74
     0
 42
0.0000000001
 43
0.0000000001
 40
0.0
 40
0.0
 40
0.0
 40
0.0
 40
1.0
 40
1.0
 40
1.0
 40
2.0
 40
2.0
 40
2.0
 40
3.0
 40
3.0
 40
3.0
 40
4.0
 40
4.0
 40
4.0
 40
4.0
 10
44.49334353947136
 20
-5.076379398790917
 30
0.0
 10
34.25837238631294
 20
-7.390903993896769
 30
0.0
 10
27.83758181898976
 20
-17.56428037293541
 30
0.0
 10
30.15210641409594
 20
-27.79925152609352
 30
0.0
 10
32.46663100920243
 20
-38.03422267925163
 30
0.0
 10
42.64000738824074
 20
-44.45501324657512
 30
0.0
 10
52.87497854139886
 20
-42.14048865146863
 30
0.0
 10
63.10994969455729
 20
-39.82596405636214
 30
0.0
 10
69.53074026188045
 20
-29.65258767732414
 30
0.0
 10
67.21621566677396
 20
-19.41761652416603
 30
0.0
 10
65.60035341227283
 20
-12.27217352594941
 30
0.0
 10
60.02042153961515
 20
-6.692241653292049
 30
0.0
 10
52.87497854139918
 20
-5.076379398790917
 30
0.0
  0
LINE
  5
AE
330
70
100
AcDbEntity
  8
0
 62
    18
420
        0
370
    25
100
AcDbLine
 10
44.49344014873509
 20
-5.076357551929585
 30
0.0
 11
44.49334353953521
 21
-5.076379398729956
 31
0.0
  0
SPLINE
  5
AF
330
70
100
AcDbEntity
  8
0
 62
    18
420
        0
370
    25
100
AcDbSpline
210
0.0
220
0.0
230
1.0
 70
     8
 71
     3
 72
     8
 73
     4
 74
     0
 42
0.0000000001
 43
0.0000000001
 40
0.0
 40
0.0
 40
0.0
 40
0.0
 40
1.0
 40
1.0
 40
1.0
 40
1.0
 10
46.7597725738205
 20
-4.810805128315238
 30
0.0
 10
46.00032209418453
 20
-4.845256047006712
 30
0.0
 10
45.24430725895144
 20
-4.933970222282919
 30
0.0
 10
44.49751212278794
 20
-5.076268927199308
 30
0.0
  0
LINE
  5
B0
330
70
100
AcDbEntity
  8
0
 62
    18
420
        0
370
    25
100
AcDbLine
 10
44.5601273776352
 20
-5.048847373429918
 30
0.0
 11
44.49344004933527
 21
-5.076357574429477
 31
0.0
  0
LWPOLYLINE
  5
B1
330
70
100
AcDbEntity
  8
0
 62
    18
420
        0
370
    25
100
AcDbPolyline
 90
        3
 70
     0
 43
0.0
 10
44.49334353953521
 20
-5.076379398729956
 10
44.49714445063516
 20
-5.074861671729881
 10
44.52026212813507
 20
-5.068270166929869
  0
CIRCLE
  5
B2
330
70
100
AcDbEntity
  8
0
 62
    18
420
        0
370
    25
100
AcDbCircle
 10
48.68416104043511
 20
-23.60843402512978
 30
0.0
 40
18.41644310240966
  0
CIRCLE
  5
B3
330
70
100
AcDbEntity
  8
0
 62
    18
420
        0
370
    25
100
AcDbCircle
 10
48.68416104043511
 20
-23.60843402512978
 30
0.0
 40
14.7662877274
  0
CIRCLE
  5
B4
330
70
100
AcDbEntity
  8
0
 62
    18
420
        0
370
    25
100
AcDbCircle
 10
48.68416104043511
 20
-23.60843402512978
 30
0.0
 40
14.23446743297974
  0
CIRCLE
  5
B5
330
70
100
AcDbEntity
  8
0
 62
    18
420
        0
370
    25
100
AcDbCircle
 10
48.68416104043511
 20
-23.60843402512962
 30
0.0
 40
12.75000000000005
  0
CIRCLE
  5
B6
330
70
100
AcDbEntity
  8
0
 62
    18
420
        0
370
    25
100
AcDbCircle
 10
48.68416104043511
 20
-23.60843402512978
 30
0.0
 40
9.082192081210145
  0
LINE
  5
B7
330
70
100
AcDbEntity
  8
0
 62
     8
420
  8421504
370
    25
100
AcDbLine
 10
34.93416104043511
 20
9.711640997270096
 30
0.0
 11
62.43416104043511
 21
9.711640997270096
 31
0.0
  0
LINE
  5
B8
330
70
100
AcDbEntity
  8
0
 62
     8
420
  8421504
370
    25
100
AcDbLine
 10
61.96071414673501
 20
9.212346562570122
 30
0.0
 11
35.40760793423499
 21
9.212346562570122
 31
0.0
  0
SPLINE
  5
B9
330
70
100
AcDbEntity
  8
0
 62
     8
420
  8421504
370
    25
100
AcDbSpline
210
0.0
220
0.0
230
1.0
 70
     8
 71
     3
 72
     8
 73
     4
 74
     0
 42
0.0000000001
 43
0.0000000001
 40
0.0
 40
0.0
 40
0.0
 40
0.0
 40
1.0
 40
1.0
 40
1.0
 40
1.0
 10
52.67718858909592
 20
-4.832443352409151
 30
0.0
 10
51.96580683791273
 20
-4.68764807059489
 30
0.0
 10
51.24440657817139
 20
-4.597387961551144
 30
0.0
 10
50.51927967486926
 20
-4.562450250416911
 30
0.0
  0
SPLINE
  5
BA
330
70
100
AcDbEntity
  8
0
 62
     8
420
  8421504
370
    25
100
AcDbSpline
210
0.0
220
0.0
230
1.0
 70
     8
 71
     3
 72
     8
 73
     4
 74
     0
 42
0.0000000001
 43
0.0000000001
 40
0.0
 40
0.0
 40
0.0
 40
0.0
 40
1.0
 40
1.0
 40
1.0
 40
1.0
 10
46.84904240610555
 20
-4.562450250406001
 30
0.0
 10
46.12668068636953
 20
-4.626037643208508
 30
0.0
 10
45.40689397803438
 20
-4.716095868036163
 30
0.0
 10
44.69113349187536
 20
-4.832443352396317
 30
0.0
  0
LINE
  5
BB
330
70
100
AcDbEntity
  8
0
 62
     8
420
  8421504
370
    25
100
AcDbLine
 10
52.87488193223524
 20
-5.076357551929585
 30
0.0
 11
52.87093731513514
 21
-5.076271699029859
 31
0.0
  0
LINE
  5
BC
330
70
100
AcDbEntity
  8
0
 62
     8
420
  8421504
370
    25
100
AcDbLine
 10
44.49751212283511
 20
-5.076268927229468
 30
0.0
 11
44.49344014873509
 21
-5.076357551929585
 31
0.0
  0
SPLINE
  5
BD
330
70
100
AcDbEntity
  8
0
 62
     8
420
  8421504
370
    25
100
AcDbSpline
210
0.0
220
0.0
230
1.0
 70
     8
 71
     3
 72
    17
 73
    13
 74
     0
 42
0.0000000001
 43
0.0000000001
 40
0.0
 40
0.0
 40
0.0
 40
0.0
 40
1.0
 40
1.0
 40
1.0
 40
2.0
 40
2.0
 40
2.0
 40
3.0
 40
3.0
 40
3.0
 40
4.0
 40
4.0
 40
4.0
 40
4.0
 10
44.56803614114545
 20
-5.027821617662283
 30
0.0
 10
34.30624726598424
 20
-7.301094627938696
 30
0.0
 10
27.83027562269089
 20
-17.46277004925789
 30
0.0
 10
30.1035486329673
 20
-27.72455892441911
 30
0.0
 10
32.37682164324404
 20
-37.98634779958032
 30
0.0
 10
42.53849706456355
 20
-44.46231944287368
 30
0.0
 10
52.80028593972477
 20
-42.18904643259726
 30
0.0
 10
63.06207481488598
 20
-39.91577342232086
 30
0.0
 10
69.53804645817901
 20
-29.75409800100101
 30
0.0
 10
67.26477344790324
 20
-19.4923091258398
 30
0.0
 10
65.67106648907906
 20
-12.29815150975572
 30
0.0
 10
60.06762764841672
 20
-6.670484465524429
 30
0.0
 10
52.88041297917697
 20
-5.045753418878445
 30
0.0
  0
LWPOLYLINE
  5
BE
330
70
100
AcDbEntity
  8
0
 62
    18
420
        0
370
    25
100
AcDbPolyline
 90
       18
 70
     0
 43
0.0
 10
158.874498306635
 20
15.13608605547007
 10
158.5384666755354
 20
14.94253231977021
 10
158.0335156474357
 20
14.5580139904703
 10
157.5749366941345
 20
14.1076709980701
 10
157.1646211115354
 20
13.59361319857049
 10
156.8045887307347
 20
13.0180112390703
 10
156.4970218339351
 20
12.38348764607022
 10
156.2440921838352
 20
11.69338852087044
 10
156.0477100167352
 20
10.95183244407052
 10
155.909324298635
 20
10.16356643897002
 10
155.8298364444352
 20
9.333743919270126
 10
155.8088655168357
 20
8.607538359669995
 10
155.8171183587349
 20
8.139944351070106
 10
155.8777796977347
 20
7.233313537470404
 10
155.9967876113354
 20
6.303595058070498
 10
156.1731623736353
 20
5.356248475570345
 10
156.4056286640346
 20
4.396786361170056
 10
156.6528361963351
 20
3.564696022270158
  0
LWPOLYLINE
  5
BF
330
70
100
AcDbEntity
  8
0
 62
    18
420
        0
370
    25
100
AcDbPolyline
 90
       18
 70
     0
 43
0.0
 10
160.9323106365347
 20
-4.169694871429812
 10
161.3447212090348
 20
-4.653003478029534
 10
162.0361745635347
 20
-5.387351046029974
 10
162.7494610373353
 20
-6.071488777729507
 10
163.4806331570346
 20
-6.701329810129681
 10
164.2256710421353
 20
-7.273051701129841
 10
164.9804957277354
 20
-7.783102238529497
 10
165.7409724332345
 20
-8.228201479929904
 10
166.5028985602347
 20
-8.605343518729592
 10
167.2619230330352
 20
-8.911788361629479
 10
168.0134322936351
 20
-9.145099206329614
 10
168.7526682064346
 20
-9.303298208529396
 10
169.4746185039351
 20
-9.384960331630022
 10
170.174073572035
 20
-9.389395306929522
 10
170.8458186896351
 20
-9.316812984529656
 10
171.4849523252354
 20
-9.1683664431298
 10
172.0872191583346
 20
-8.945985122429684
 10
172.6270320367352
 20
-8.663609933029579
  0
LINE
  5
C0
330
70
100
AcDbEntity
  8
0
 62
    18
420
        0
370
    25
100
AcDbLine
 10
172.5524716544354
 20
-8.709337238929913
 30
0.0
 11
174.0939113885345
 21
-7.819483021529749
 31
0.0
  0
LINE
  5
C1
330
70
100
AcDbEntity
  8
0
 62
    18
420
        0
370
    25
100
AcDbLine
 10
160.3450288148354
 20
15.99686069397011
 30
0.0
 11
158.803589080735
 21
15.10700647656994
 31
0.0
  0
SPLINE
  5
C2
330
70
100
AcDbEntity
  8
0
 62
    18
420
        0
370
    25
100
AcDbSpline
210
0.0
220
0.0
230
1.0
 70
     8
 71
     3
 72
     8
 73
     4
 74
     0
 42
0.0000000001
 43
0.0000000001
 40
0.0
 40
0.0
 40
0.0
 40
0.0
 40
1.0
 40
1.0
 40
1.0
 40
1.0
 10
161.1070815814542
 20
-10.56602244864798
 30
0.0
 10
161.1264514055366
 20
-9.353501442365143
 30
0.0
 10
161.088146269456
 20
-8.140745233943441
 30
0.0
 10
160.9922959774055
 20
-6.931863476997781
 30
0.0
  0
SPLINE
  5
C3
330
70
100
AcDbEntity
  8
0
 62
    18
420
        0
370
    25
100
AcDbSpline
210
0.0
220
0.0
230
1.0
 70
     8
 71
     3
 72
     8
 73
     4
 74
     0
 42
0.0000000001
 43
0.0000000001
 40
0.0
 40
0.0
 40
0.0
 40
0.0
 40
1.0
 40
1.0
 40
1.0
 40
1.0
 10
123.2396405477943
 20
-6.933351789986588
 30
0.0
 10
123.1454000982907
 20
-8.141748604788883
 30
0.0
 10
123.1079043511204
 20
-9.353901466983312
 30
0.0
 10
123.1272769672829
 20
-10.56581269561731
 30
0.0
  0
LINE
  5
C4
330
70
100
AcDbEntity
  8
0
 62
    18
420
        0
370
    25
100
AcDbLine
 10
161.1478875684345
 20
-13.40522438072953
 30
0.0
 11
161.1168177321351
 21
-10.4981897970298
 31
0.0
  0
LINE
  5
C5
330
70
100
AcDbEntity
  8
0
 62
    18
420
        0
370
    25
100
AcDbLine
 10
123.1175410070352
 20
-10.4981897970298
 30
0.0
 11
123.0864711707357
 21
-13.40522438072953
 31
0.0
  0
SPLINE
  5
C6
330
70
100
AcDbEntity
  8
0
 62
    18
420
        0
370
    25
100
AcDbSpline
210
0.0
220
0.0
230
1.0
 70
     8
 71
     3
 72
     8
 73
     4
 74
     0
 42
0.0000000001
 43
0.0000000001
 40
0.0
 40
0.0
 40
0.0
 40
0.0
 40
1.0
 40
1.0
 40
1.0
 40
1.0
 10
123.7840179677182
 20
-16.4377763111354
 30
0.0
 10
124.8922116741284
 20
-18.53774210245518
 30
0.0
 10
126.6102186461637
 20
-20.25299364042125
 30
0.0
 10
128.7119605395696
 20
-21.35781517766027
 30
0.0
  0
LWPOLYLINE
  5
C7
330
70
100
AcDbEntity
  8
0
 62
    18
420
        0
370
    25
100
AcDbPolyline
 90
       34
 70
     0
 43
0.0
 10
128.711960539535
 20
-21.35781517762947
 10
129.1858416073345
 20
-21.62207478042997
 10
130.1271776384354
 20
-22.09671412842964
 10
131.1196320603349
 20
-22.5342631355299
 10
132.1588592823345
 20
-22.93289898092961
 10
133.2404026581347
 20
-23.29100000662961
 10
134.3596417780355
 20
-23.60711203992943
 10
135.511807826835
 20
-23.87995198173
 10
136.6920003663345
 20
-24.1084120060297
 10
137.8952054885357
 20
-24.29156384852996
 10
139.1163151811346
 20
-24.4286627966294
 10
140.3501476943348
 20
-24.51915111042986
 10
141.5914686868346
 20
-24.56266068862949
 10
142.8350129301349
 20
-24.55901485852942
 10
144.075505311935
 20
-24.50822927442967
 10
145.3076727721351
 20
-24.41051297172963
 10
146.5262906963348
 20
-24.26626607912978
 10
147.7261922754354
 20
-24.07607738792961
 10
148.9022899705358
 20
-23.84072112132966
 10
150.0495963260352
 20
-23.56115275012963
 10
151.1632438853355
 20
-23.23850394512948
 10
152.2385039530353
 20
-22.87407681572961
 10
153.2708039278352
 20
-22.4693376799296
 10
154.255742933035
 20
-22.02591074332961
 10
155.1891055185348
 20
-21.54557225682959
 10
156.066873342335
 20
-21.03024596802972
 10
156.8852350376355
 20
-20.48200096782958
 10
157.640585099035
 20
-19.90306142332964
 10
158.3295212144349
 20
-19.29583100323003
 10
158.9489100567347
 20
-18.66286741332978
 10
159.4958861931352
 20
-18.00691335532979
 10
159.967890232235
 20
-17.33090793632962
 10
160.3627216094356
 20
-16.63798400762974
 10
160.4475505684348
 20
-16.4482412560296
  0
LINE
  5
C8
330
70
100
AcDbEntity
  8
0
 62
    18
420
        0
370
    25
100
AcDbLine
 10
163.0983122928347
 20
6.318065357870296
 30
0.0
 11
157.3702854259356
 21
3.011345833070004
 31
0.0
  0
LINE
  5
C9
330
70
100
AcDbEntity
  8
0
 62
    18
420
        0
370
    25
100
AcDbLine
 10
160.7733698056355
 20
-4.261449460129814
 30
0.0
 11
167.0979872234355
 21
-0.6103255411296752
 31
0.0
  0
SPLINE
  5
CA
330
70
100
AcDbEntity
  8
0
 62
    18
420
        0
370
    25
100
AcDbSpline
210
0.0
220
0.0
230
1.0
 70
     8
 71
     3
 72
     8
 73
     4
 74
     0
 42
0.0000000001
 43
0.0000000001
 40
0.0
 40
0.0
 40
0.0
 40
0.0
 40
1.0
 40
1.0
 40
1.0
 40
1.0
 10
160.0973789764395
 20
-0.3554695967378548
 30
0.0
 10
159.0117028315934
 20
1.7039258739128
 30
0.0
 10
157.3264697164475
 20
3.385253764970034
 30
0.0
 10
155.2645610142132
 20
4.466149180666837
 30
0.0
  0
LWPOLYLINE
  5
CB
330
70
100
AcDbEntity
  8
0
 62
    18
420
        0
370
    25
100
AcDbPolyline
 90
       33
 70
     0
 43
0.0
 10
155.264561014235
 20
4.466149180670045
 10
154.7951070875349
 20
4.727850850670455
 10
153.8622164217352
 20
5.197602616270533
 10
152.8782768636351
 20
5.630221312370298
 10
151.8476807536347
 20
6.023871246070261
 10
150.7749339736345
 20
6.376921326670044
 10
149.6647084327357
 20
6.687911331870082
 10
148.5218262912345
 20
6.955555557370098
 10
147.3512426904352
 20
7.178747109770225
 10
146.1580270493353
 20
7.35656228767045
 10
144.9473430994347
 20
7.488264646869965
 10
143.7244278828345
 20
7.573308462570269
 10
142.4945699498348
 20
7.611341399170441
 10
141.2630869900346
 20
7.602206258970176
 10
140.0353058184351
 20
7.545941908170373
 10
138.8165451795348
 20
7.442784100870533
 10
137.6120729291348
 20
7.293162927270389
 10
136.4270948387351
 20
7.097700230070216
 10
135.2667325987355
 20
6.857206115970262
 10
134.1360025436357
 20
6.572674483570033
 10
133.0397953609356
 20
6.245277671970492
 10
131.9828570606348
 20
5.876360404870281
 10
130.9697715022352
 20
5.467433313370481
 10
130.0049447621348
 20
5.020166473669997
 10
129.0925915692356
 20
4.536383616170009
 10
128.2367238541348
 20
4.018057941970348
 10
127.4411410932354
 20
3.467310786170604
 10
126.7094415912348
 20
2.886431763470525
 10
126.0449959011346
 20
2.277884833970073
 10
125.4509036034356
 20
1.644300615370443
 10
124.9299827181346
 20
0.9885039719701671
 10
124.4847255766346
 20
0.3135235534699934
 10
124.1286217627351
 20
-0.356017635829716
  0
LINE
  5
CC
330
70
100
AcDbEntity
  8
0
 62
    18
420
        0
370
    25
100
AcDbLine
 10
123.4511010748349
 20
-3.336296627029796
 30
0.0
 11
123.4903712324352
 21
-7.010590406829729
 31
0.0
  0
LINE
  5
CD
330
70
100
AcDbEntity
  8
0
 62
    18
420
        0
370
    25
100
AcDbLine
 10
160.743987506735
 20
-7.010590406829729
 30
0.0
 11
160.7832576642353
 21
-3.336296627029796
 31
0.0
  0
LWPOLYLINE
  5
CE
330
70
100
AcDbEntity
  8
0
 62
    18
420
        0
370
    25
100
AcDbPolyline
 90
       41
 70
     0
 43
0.0
 10
124.2697004556354
 20
-10.04092531822988
 10
124.4920536788347
 20
-10.46614534862968
 10
124.9288557581346
 20
-11.13842302302967
 10
125.4412146256348
 20
-11.79248601362984
 10
126.0269358030351
 20
-12.42532860172975
 10
126.6834049030357
 20
-13.0340310256296
 10
127.4076341206355
 20
-13.61581533782942
 10
128.1963139992346
 20
-14.16807558862996
 10
129.0458579331356
 20
-14.68838822242979
 10
129.9524179661351
 20
-15.17450268722985
 10
130.9119273616355
 20
-15.62435092052965
 10
131.9201458709351
 20
-16.03605255982974
 10
132.9726457676355
 20
-16.40789568172962
 10
134.0648260275352
 20
-16.73833827722975
 10
135.1919275245357
 20
-17.02601138732976
 10
136.3490496489353
 20
-17.26972318302986
 10
137.5311684086354
 20
-17.46846337412985
 10
138.7331558894345
 20
-17.6214074749299
 10
139.9498008657347
 20
-17.72792058572967
 10
141.1758303273349
 20
-17.78756045853001
 10
142.4059316826356
 20
-17.80007968892996
 10
143.6347754095349
 20
-17.76542693792944
 10
144.8570277139345
 20
-17.68374800442966
 10
146.0673906163346
 20
-17.5553848149294
 10
147.2606218404347
 20
-17.38087265172972
 10
148.4315534010353
 20
-17.16093715582981
 10
149.5751133045357
 20
-16.89649027732993
 10
150.6863463830346
 20
-16.58862528942987
 10
151.7604339888346
 20
-16.23861100362953
 10
152.7927122597354
 20
-15.84788541702975
 10
153.7786886586355
 20
-15.41804915582943
 10
154.7140565224354
 20
-14.95085926682959
 10
155.5947074746354
 20
-14.44822416642969
 10
156.4167418258356
 20
-13.91220086102987
 10
157.1764752524347
 20
-13.34499773093003
 10
157.8704128402355
 20
-12.74901456102959
 10
158.4953364185348
 20
-12.12680344892955
 10
159.0482953168352
 20
-11.48110456062944
 10
159.5266436726348
 20
-10.81485975462962
 10
159.9280935768348
 20
-10.13121345722991
 10
159.9983630372348
 20
-9.979273143729633
  0
LINE
  5
CF
330
70
100
AcDbEntity
  8
0
 62
    18
420
        0
370
    25
100
AcDbLine
 10
126.2665114233345
 20
-19.61575415322962
 30
0.0
 11
126.6102710238352
 21
-48.24582820732956
 31
0.0
  0
LINE
  5
D0
330
70
100
AcDbEntity
  8
0
 62
    18
420
        0
370
    25
100
AcDbLine
 10
157.624087715335
 20
-48.24582820732956
 30
0.0
 11
157.9678611824348
 21
-19.61459927252961
 31
0.0
  0
LWPOLYLINE
  5
D1
330
70
100
AcDbEntity
  8
0
 62
    18
420
        0
370
    25
100
AcDbPolyline
 90
       45
 70
     0
 43
0.0
 10
126.6194061769349
 20
-48.18885705932959
 10
126.616001422635
 20
-48.44154662652969
 10
126.6880906196354
 20
-49.11810707692995
 10
126.840447430335
 20
-49.78762742492998
 10
127.0722222226345
 20
-50.44759473802987
 10
127.3827228029351
 20
-51.09551911892979
 10
127.7711345057351
 20
-51.72857308402995
 10
128.2361777692354
 20
-52.34351252032965
 10
128.7758475959356
 20
-52.93678824052967
 10
129.3873283629352
 20
-53.50477438132986
 10
130.0670789661347
 20
-54.04400313892963
 10
130.8110090388352
 20
-54.55132326432968
 10
131.6146576911354
 20
-55.02396101392942
 10
132.4732466709354
 20
-55.45947281763
 10
133.3818530019349
 20
-55.85576708342944
 10
134.335526620435
 20
-56.21107416093002
 10
135.3291878317357
 20
-56.52384540482959
 10
136.3576288446356
 20
-56.79273437663
 10
137.4155180545355
 20
-57.01658882022974
 10
138.4974094563346
 20
-57.19444958432962
 10
139.5977574373347
 20
-57.32555327062977
 10
140.7109362491357
 20
-57.40933627552993
 10
141.831263132935
 20
-57.44543866512991
 10
142.9530240410353
 20
-57.43370689492973
 10
144.0704869487345
 20
-57.37419583032945
 10
145.1779158213352
 20
-57.2671723775298
 10
146.269671953435
 20
-57.1131066318298
 10
147.3401973962351
 20
-56.91266565962973
 10
148.3840398218355
 20
-56.66670567912946
 10
149.395874335835
 20
-56.37626259262958
 10
150.3705209148348
 20
-56.04254172452979
 10
151.3029560099347
 20
-55.66690830352996
 10
152.1883168482349
 20
-55.25088128492942
 10
153.0218973928348
 20
-54.79613465032988
 10
153.7991363280348
 20
-54.30451229332959
 10
154.5155930147348
 20
-53.77807057302955
 10
155.1667854221354
 20
-53.2192904082294
 10
155.7485194945354
 20
-52.63096869792962
 10
156.2568437009351
 20
-52.0164039789297
 10
156.6882184858345
 20
-51.37946868252997
 10
157.0397569242356
 20
-50.72457906332996
 10
157.3094669425351
 20
-50.05650769322964
 10
157.4963769565354
 20
-49.38005181272967
 10
157.6004479100355
 20
-48.69966569542992
 10
157.6160217495357
 20
-48.2142215355299
  0
LINE
  5
D2
330
70
100
AcDbEntity
  8
0
 62
    18
420
        0
370
    25
100
AcDbLine
 10
158.803589080735
 20
15.10700647656994
 30
0.0
 11
158.8650770021355
 21
15.14187341647024
 31
0.0
  0
LWPOLYLINE
  5
D3
330
70
100
AcDbEntity
  8
0
 62
    18
420
        0
370
    25
100
AcDbPolyline
 90
        3
 70
     0
 43
0.0
 10
172.6228940307346
 20
-8.667841814429445
 10
172.622796354935
 20
-8.667900546229851
 10
172.5524716544354
 20
-8.709337238929913
  0
LWPOLYLINE
  5
D4
330
70
100
AcDbEntity
  8
0
 62
    18
420
        0
370
    25
100
AcDbPolyline
 90
       30
 70
     0
 43
0.0
 10
176.9421883430352
 20
-1.524116932529471
 10
176.9098368001345
 20
-0.5903005066295823
 10
176.812997465635
 20
0.3746538213703887
 10
176.6523147894347
 20
1.364324439670093
 10
176.428858088135
 20
2.372125253570594
 10
176.1441144291349
 20
3.391349514770065
 10
175.7999787346346
 20
4.415214454170012
 10
175.398741170935
 20
5.436906419470191
 10
174.9430719077356
 20
6.449626219170504
 10
174.4360033487355
 20
7.446634370170463
 10
173.8809099517352
 20
8.421295947570428
 10
173.2814857715352
 20
9.367124739570536
 10
172.6417198772355
 20
10.27782641147017
 10
171.9658698052345
 20
11.14734039397037
 10
171.2584332263353
 20
11.96988021487035
 10
170.5241180142353
 20
12.73997200747043
 10
169.7678109155345
 20
13.45249093797012
 10
168.9945450291356
 20
14.10269531047003
 10
168.2094663119356
 20
14.6862581219703
 10
167.4177993333354
 20
15.19929585837045
 10
166.6248125063348
 20
15.63839433817059
 10
165.8357830276349
 20
16.00063143337041
 10
165.0559617580355
 20
16.28359651597057
 10
164.2905382795357
 20
16.48540649997002
 10
163.5446063591352
 20
16.60471837327009
 10
162.8231300505357
 20
16.64073813497005
 10
162.1309106597349
 20
16.59322607957057
 10
161.4725547923354
 20
16.46249839187058
 10
160.8524436982347
 20
16.24942504307029
 10
160.3450288148354
 20
15.99686069397011
  0
LWPOLYLINE
  5
D5
330
70
100
AcDbEntity
  8
0
 62
    18
420
        0
370
    25
100
AcDbPolyline
 90
       11
 70
     0
 43
0.0
 10
174.0939113885345
 20
-7.819483021529749
 10
174.4360033487355
 20
-7.601288632429731
 10
174.9430719077356
 20
-7.189729378029639
 10
175.398741170935
 20
-6.703114111129965
 10
175.7999787346346
 20
-6.144681176229866
 10
176.1441144291349
 20
-5.518146852229478
 10
176.428858088135
 20
-4.827680621729475
 10
176.6523147894347
 20
-4.077877423629629
 10
176.812997465635
 20
-3.273727074429939
 10
176.9098368001345
 20
-2.42058106212969
 10
176.9421883430352
 20
-1.524116932529471
  0
SPLINE
  5
D6
330
70
100
AcDbEntity
  8
0
 62
    18
420
        0
370
    25
100
AcDbSpline
210
0.0
220
0.0
230
1.0
 70
     8
 71
     3
 72
     8
 73
     4
 74
     0
 42
0.0000000001
 43
0.0000000001
 40
0.0
 40
0.0
 40
0.0
 40
0.0
 40
1.0
 40
1.0
 40
1.0
 40
1.0
 10
160.5645471473927
 20
-9.702544210112352
 30
0.0
 10
161.0813235012504
 20
-8.379928908793337
 30
0.0
 10
161.1498120624212
 20
-6.924276208770801
 30
0.0
 10
160.7595020184972
 20
-5.558982429103104
 30
0.0
  0
SPLINE
  5
D7
330
70
100
AcDbEntity
  8
0
 62
    18
420
        0
370
    25
100
AcDbSpline
210
0.0
220
0.0
230
1.0
 70
     8
 71
     3
 72
     8
 73
     4
 74
     0
 42
0.0000000001
 43
0.0000000001
 40
0.0
 40
0.0
 40
0.0
 40
0.0
 40
1.0
 40
1.0
 40
1.0
 40
1.0
 10
123.4748567206871
 20
-5.558982429040859
 30
0.0
 10
123.0720870263839
 20
-6.962886297041754
 30
0.0
 10
123.155971306466
 20
-8.461744698756318
 30
0.0
 10
123.7128753909168
 20
-9.811939994985149
 30
0.0
  0
SPLINE
  5
D8
330
70
100
AcDbEntity
  8
0
 62
    18
420
        0
370
    25
100
AcDbSpline
210
0.0
220
0.0
230
1.0
 70
     8
 71
     3
 72
     8
 73
     4
 74
     0
 42
0.0000000001
 43
0.0000000001
 40
0.0
 40
0.0
 40
0.0
 40
0.0
 40
1.0
 40
1.0
 40
1.0
 40
1.0
 10
123.0864711707216
 20
-13.40522438075904
 30
0.0
 10
123.0828775000063
 20
-14.43140439770571
 30
0.0
 10
123.3129295515144
 20
-15.44493830889351
 30
0.0
 10
123.7591915986923
 20
-16.3690100198014
 30
0.0
  0
SPLINE
  5
D9
330
70
100
AcDbEntity
  8
0
 62
    18
420
        0
370
    25
100
AcDbSpline
210
0.0
220
0.0
230
1.0
 70
     8
 71
     3
 72
     8
 73
     4
 74
     0
 42
0.0000000001
 43
0.0000000001
 40
0.0
 40
0.0
 40
0.0
 40
0.0
 40
1.0
 40
1.0
 40
1.0
 40
1.0
 10
160.4706770269286
 20
-16.37847905458393
 30
0.0
 10
160.9219382411253
 20
-15.45261801337108
 30
0.0
 10
161.1536760038866
 20
-14.43518644079181
 30
0.0
 10
161.1478875684512
 20
-13.40522438076803
 30
0.0
  0
LWPOLYLINE
  5
DA
330
70
100
AcDbEntity
  8
0
 62
    18
420
        0
370
    25
100
AcDbPolyline
 90
       17
 70
     0
 43
0.0
 10
167.9265768829345
 20
1.221053684770578
 10
167.8934289156348
 20
1.738767080770403
 10
167.7947619740358
 20
2.282617541970257
 10
167.6328887277356
 20
2.839857674570331
 10
167.4116033482357
 20
3.397426241969975
 10
167.1360925774356
 20
3.942254309570393
 10
166.8128141542345
 20
4.461571569370508
 10
166.4493454508355
 20
4.943205664770443
 10
166.0542058656351
 20
5.375867500970236
 10
165.6366571356353
 20
5.749415851070319
 10
165.2064862490351
 20
6.055095058470048
 10
164.7737760469347
 20
6.285740261570067
 10
164.3486688897346
 20
6.43594533227028
 10
163.9411289288345
 20
6.502189591070204
 10
163.560708555635
 20
6.482920328770372
 10
163.2163245010353
 20
6.37858920037047
 10
163.0983122928347
 20
6.318065357870296
  0
SPLINE
  5
DB
330
70
100
AcDbEntity
  8
0
 62
    18
420
        0
370
    25
100
AcDbSpline
210
0.0
220
0.0
230
1.0
 70
     8
 71
     3
 72
     8
 73
     4
 74
     0
 42
0.0000000001
 43
0.0000000001
 40
0.0
 40
0.0
 40
0.0
 40
0.0
 40
1.0
 40
1.0
 40
1.0
 40
1.0
 10
167.0979872234035
 20
-0.6103255411790861
 30
0.0
 10
167.6880940652084
 20
-0.1971469972415917
 30
0.0
 10
168.0057943783855
 20
0.5050458758578232
 30
0.0
 10
167.9265768828794
 20
1.221053684698066
 30
0.0
  0
LWPOLYLINE
  5
DC
330
70
100
AcDbEntity
  8
0
 62
    18
420
        0
370
    25
100
AcDbPolyline
 90
       90
 70
     0
 43
0.0
 10
155.1395711726352
 20
4.453772168070373
 10
156.0257186842351
 20
3.904757460870513
 10
156.8425745525349
 20
3.321025279570273
 10
157.5860692427352
 20
2.705483748670213
 10
158.2524987017353
 20
2.061199464970296
 10
158.8385428114346
 20
1.391382220470173
 10
159.3412819296349
 20
0.6993690109705091
 10
159.7582114352353
 20
-0.0113925886300135
 10
160.0872542064354
 20
-0.7373615996295879
 10
160.3267709687347
 20
-1.47492128112996
 10
160.4755684616355
 20
-2.220397147729435
 10
160.5329053836348
 20
-2.970075276129968
 10
160.4984960848346
 20
-3.720220807829516
 10
160.3725119908352
 20
-4.467096555329423
 10
160.1555807480355
 20
-5.206981621229695
 10
159.8487830968355
 20
-5.936189935429998
 10
159.4536474878346
 20
-6.65108861872989
 10
158.9721424667357
 20
-7.348116081929698
 10
158.4066668673346
 20
-8.023799769229906
 10
157.7600378605356
 20
-8.674773458429562
 10
157.0354769196347
 20
-9.297794031429715
 10
156.2365937707354
 20
-9.889757631030009
 10
155.3673684095353
 20
-10.44771512442979
 10
154.4321312730346
 20
-10.96888679532995
 10
153.4355416656353
 20
-11.4506761928294
 10
152.3825645465356
 20
-11.89068306622967
 10
151.2784457949357
 20
-12.28671532352956
 10
150.1286860747352
 20
-12.6367999519294
 10
148.9390134312346
 20
-12.93919284732946
 10
147.7153547535355
 20
-13.19238750372997
 10
146.4638062476346
 20
-13.39512251792963
 10
145.1906030653356
 20
-13.54638787432989
 10
143.9020882407348
 20
-13.64542997652979
 10
142.6046810899347
 20
-13.69175540172995
 10
141.3048452301354
 20
-13.68513335902965
 10
140.0090563780356
 20
-13.62559683912942
 10
138.7237700887349
 20
-13.51344244992971
 10
137.4553895937353
 20
-13.34922893892964
 10
136.2102339009352
 20
-13.13377440972974
 10
134.9945063133355
 20
-12.86815224583
 10
133.8142635246353
 20
-12.55368576352954
 10
132.6753854449353
 20
-12.19194161892972
 10
131.5835459077346
 20
-11.78472200332988
 10
130.5441844025351
 20
-11.33405566422982
 10
129.5624789761346
 20
-10.84218779872967
 10
128.6433204355353
 20
-10.31156886782947
 10
127.7912879824345
 20
-9.744842388329544
 10
127.0106263995354
 20
-9.144831762929879
 10
126.3052249037352
 20
-8.514526214529851
 10
125.678597769735
 20
-7.857065893529968
 10
125.1338668223351
 20
-7.1757262343297
 10
124.6737458837348
 20
-6.473901636829781
 10
124.3005272533353
 20
-5.755088555729721
 10
124.0160702876357
 20
-5.022868081729951
 10
123.8217921368347
 20
-4.280888100329791
 10
123.7186606849351
 20
-3.532845118629589
 10
123.7071897276356
 20
-2.782465849029672
 10
123.7874364126351
 20
-2.033488643229894
 10
123.9590009551356
 20
-1.289644868229859
 10
124.2210286290346
 20
-0.5546403160298901
 10
124.572214025835
 20
0.1678632574702354
 10
125.0108075573345
 20
0.8742663758703809
 10
125.5346241727351
 20
1.561049774470137
 10
126.1410542440353
 20
2.224791932670514
 10
126.8270765670348
 20
2.862186120670421
 10
127.5892734131351
 20
3.470056872670296
 10
128.4238475558352
 20
4.045375806970503
 10
129.3266411889357
 20
4.585276713770475
 10
130.2931566398356
 20
5.087069833870084
 10
131.3185787772353
 20
5.548255259070463
 10
132.3977989996345
 20
5.96653538697035
 10
133.525440686035
 20
6.339826366770244
 10
134.695885982435
 20
6.666268481870465
 10
135.903303789135
 20
6.944235413870349
 10
137.1416788115351
 20
7.172342345570247
 10
138.4048415273352
 20
7.349452859669987
 10
139.6864989235351
 20
7.474684600470519
 10
140.9802658474356
 20
7.547413669870401
 10
142.2796968174348
 20
7.567277735270176
 10
143.5783181335353
 20
7.5341778347706
 10
144.8696601299357
 20
7.448278870470428
 10
146.1472894055346
 20
7.310008786770157
 10
147.4048408757357
 20
7.120056438270496
 10
148.6360494822349
 20
6.879368157870292
 10
149.8347814057345
 20
6.589143042570095
 10
150.9950646241346
 20
6.250826979270148
 10
152.1111186647353
 20
5.866105441570323
 10
153.1773834025349
 20
5.436895092970069
 10
154.1885467601351
 20
4.965334237570464
 10
155.1395711726352
 20
4.453772168070373
  0
SPLINE
  5
DD
330
70
100
AcDbEntity
  8
0
 62
    18
420
        0
370
    25
100
AcDbSpline
210
0.0
220
0.0
230
1.0
 70
     8
 71
     3
 72
     8
 73
     4
 74
     0
 42
0.0000000001
 43
0.0000000001
 40
0.0
 40
0.0
 40
0.0
 40
0.0
 40
1.0
 40
1.0
 40
1.0
 40
1.0
 10
160.0503086533166
 20
-6.260507944052473
 30
0.0
 10
160.9928140434353
 20
-4.435162319990002
 30
0.0
 10
161.019069622573
 20
-2.272177245153909
 30
0.0
 10
160.1211496380377
 20
-0.4244914604340011
 30
0.0
  0
SPLINE
  5
DE
330
70
100
AcDbEntity
  8
0
 62
    18
420
        0
370
    25
100
AcDbSpline
210
0.0
220
0.0
230
1.0
 70
     8
 71
     3
 72
     8
 73
     4
 74
     0
 42
0.0000000001
 43
0.0000000001
 40
0.0
 40
0.0
 40
0.0
 40
0.0
 40
1.0
 40
1.0
 40
1.0
 40
1.0
 10
124.1123227447551
 20
-0.426361210859323
 30
0.0
 10
123.2078515402562
 20
-2.288802722154992
 30
0.0
 10
123.2424483540037
 20
-4.470268616137198
 30
0.0
 10
124.205524365364
 20
-6.303091886151952
 30
0.0
  0
SPLINE
  5
DF
330
70
100
AcDbEntity
  8
0
 62
    18
420
        0
370
    25
100
AcDbSpline
210
0.0
220
0.0
230
1.0
 70
     8
 71
     3
 72
     8
 73
     4
 74
     0
 42
0.0000000001
 43
0.0000000001
 40
0.0
 40
0.0
 40
0.0
 40
0.0
 40
1.0
 40
1.0
 40
1.0
 40
1.0
 10
160.021539237407
 20
-9.910688590698832
 30
0.0
 10
160.4773042509315
 20
-9.010589748298995
 30
0.0
 10
160.7242442527538
 20
-8.019307353001307
 30
0.0
 10
160.7439875066542
 20
-7.010590406792511
 30
0.0
  0
SPLINE
  5
E0
330
70
100
AcDbEntity
  8
0
 62
    18
420
        0
370
    25
100
AcDbSpline
210
0.0
220
0.0
230
1.0
 70
     8
 71
     3
 72
     8
 73
     4
 74
     0
 42
0.0000000001
 43
0.0000000001
 40
0.0
 40
0.0
 40
0.0
 40
0.0
 40
1.0
 40
1.0
 40
1.0
 40
1.0
 10
123.4903712324506
 20
-7.010590406820104
 30
0.0
 10
123.5071875235925
 20
-8.042698719683151
 30
0.0
 10
123.7650255925764
 20
-9.056587845479635
 30
0.0
 10
124.2433082020769
 20
-9.971342513453185
 30
0.0
  0
LWPOLYLINE
  5
E1
330
70
100
AcDbEntity
  8
0
 62
    18
420
        0
370
    25
100
AcDbPolyline
 90
       81
 70
     0
 43
0.0
 10
152.5585215545355
 20
2.963763939269993
 10
153.3455526472348
 20
2.472258041170029
 10
154.0633570848351
 20
1.946619920970433
 10
154.7075093643356
 20
1.390090312670206
 10
155.2740380727351
 20
0.8061004062705288
 10
155.7594503721347
 20
0.1982506936705348
 10
156.1607535342347
 20
-0.4297112294299179
 10
156.4754733916357
 20
-1.073913768929595
 10
156.7016695918349
 20
-1.730385202029861
 10
156.8379475599346
 20
-2.395078164029818
 10
156.8834670969357
 20
-3.063894601829798
 10
156.8379475599346
 20
-3.732711039529672
 10
156.7016695918349
 20
-4.39740400152963
 10
156.4754733916357
 20
-5.053875434629896
 10
156.1607535342347
 20
-5.698077974129573
 10
155.7594503721347
 20
-6.326039897230026
 10
155.2740380727351
 20
-6.93388960983002
 10
154.7075093643356
 20
-7.517879516229697
 10
154.0633570848351
 20
-8.074409124529925
 10
153.3455526472348
 20
-8.600047244729521
 10
152.5585215545355
 20
-9.091553142829484
 10
151.7071161152352
 20
-9.545896521729774
 10
150.7965855268345
 20
-9.960276203229696
 10
149.8325435133346
 20
-10.33213739882943
 10
148.8209337142352
 20
-10.65918746072963
 10
147.7679930404349
 20
-10.93941001642965
 10
146.6802132211345
 20
-11.17107740082953
 10
145.5643007809355
 20
-11.3527613072296
 10
144.427135690835
 20
-11.48334159413001
 10
143.2757289519354
 20
-11.56201319052972
 10
142.1171793695357
 20
-11.58829105992994
 10
140.9586297872349
 20
-11.56201319052972
 10
139.8072230483352
 20
-11.48334159413001
 10
138.6700579582347
 20
-11.3527613072296
 10
137.5541455179357
 20
-11.17107740082953
 10
136.4663656987353
 20
-10.93941001642965
 10
135.4134250249351
 20
-10.65918746072963
 10
134.4018152258357
 20
-10.33213739882943
 10
133.4377732123357
 20
-9.960276203229696
 10
132.527242623935
 20
-9.545896521729774
 10
131.6758371845347
 20
-9.091553142829484
 10
130.8888060919355
 20
-8.600047244729521
 10
130.171001654235
 20
-8.074409124529925
 10
129.5268493748347
 20
-7.517879516229697
 10
128.9603206664352
 20
-6.93388960983002
 10
128.4749083670356
 20
-6.326039897230026
 10
128.0736052049356
 20
-5.698077974129573
 10
127.7588853475346
 20
-5.053875434629896
 10
127.5326891473354
 20
-4.39740400152963
 10
127.3964111792357
 20
-3.732711039529672
 10
127.3508916421357
 20
-3.063894601829798
 10
127.3964111792357
 20
-2.395078164029818
 10
127.5326891473354
 20
-1.730385202029861
 10
127.7588853475346
 20
-1.073913768929595
 10
128.0736052049356
 20
-0.4297112294299179
 10
128.4749083670356
 20
0.1982506936705348
 10
128.9603206664352
 20
0.8061004062705288
 10
129.5268493748347
 20
1.390090312670206
 10
130.171001654235
 20
1.946619920970433
 10
130.8888060919355
 20
2.472258041170029
 10
131.6758371845347
 20
2.963763939269993
 10
132.527242623935
 20
3.418107318170283
 10
133.4377732123357
 20
3.832486999670204
 10
134.4018152258357
 20
4.204348195270582
 10
135.4134250249351
 20
4.531398257170144
 10
136.4663656987353
 20
4.811620812870162
 10
137.5541455179357
 20
5.043288197270042
 10
138.6700579582347
 20
5.224972103670111
 10
139.8072230483352
 20
5.355552390570522
 10
140.9586297872349
 20
5.434223986970232
 10
142.1171793695357
 20
5.460501856370447
 10
143.2757289519354
 20
5.434223986970232
 10
144.427135690835
 20
5.355552390570522
 10
145.5643007809355
 20
5.224972103670111
 10
146.6802132211345
 20
5.043288197270042
 10
147.7679930404349
 20
4.811620812870162
 10
148.8209337142352
 20
4.531398257170144
 10
149.8325435133346
 20
4.204348195270582
 10
150.7965855268345
 20
3.832486999670204
 10
151.7071161152352
 20
3.418107318170283
 10
152.5585215545355
 20
2.963763939269993
  0
LWPOLYLINE
  5
E2
330
70
100
AcDbEntity
  8
0
 62
    18
420
        0
370
    25
100
AcDbPolyline
 90
       41
 70
     0
 43
0.0
 10
152.1824678180345
 20
2.338599378870098
 10
151.3399099644353
 20
2.787313915570339
 10
150.4375391639357
 20
3.195434607370271
 10
149.4812076373356
 20
3.560314635070066
 10
148.4771175616349
 20
3.879587611570472
 10
147.4317808462346
 20
4.151182929270032
 10
146.3519769009348
 20
4.37333918807052
 10
145.2447086685355
 20
4.544615619569966
 10
144.1171572085352
 20
4.663901430370077
 10
142.9766351248355
 20
4.730423006170187
 10
141.8305391406345
 20
4.743748928970119
 10
140.6863021284345
 20
4.703792775170614
 10
139.5513449041357
 20
4.610813675670073
 10
138.4330281010351
 20
4.46541463567059
 10
137.3386044325352
 20
4.268538623670541
 10
136.2751716562345
 20
4.021462456170275
 10
135.2496265417353
 20
3.725788516970176
 10
134.2686201426345
 20
3.383434365070329
 10
133.3385146618349
 20
2.996620298370519
 10
132.4653421903356
 20
2.567854954670189
 10
131.6547655866353
 20
2.099919041570254
 10
130.9120417510346
 20
1.595847303270231
 10
130.2419875327345
 20
1.05890883827006
 10
129.6489484903347
 20
0.4925858985700812
 10
129.1367707096348
 20
-0.0994486942297725
 10
128.7087758601353
 20
-0.7133553686295504
 10
128.3677396526351
 20
-1.345152704229604
 10
128.1158738377357
 20
-1.990743252929895
 10
127.9548118619346
 20
-2.645940112229452
 10
127.8855982740356
 20
-3.306494079129986
 10
127.9086819506354
 20
-3.968121207529597
 10
128.0239131851347
 20
-4.62653059192961
 10
128.2305446590353
 20
-5.277452194529891
 10
128.5272362876356
 20
-5.916664539029808
 10
128.9120639121352
 20
-6.540022088129942
 10
129.3825317775348
 20
-7.143482128929583
 10
129.9355887192346
 20
-7.723130991429494
 10
130.5676479508348
 20
-8.275209430429843
 10
131.2746103255353
 20
-8.796137005329722
 10
132.0518909211345
 20
-9.28253530092965
 10
132.567669281835
 20
-9.565756460129449
  0
LWPOLYLINE
  5
E3
330
70
100
AcDbEntity
  8
0
 62
    18
420
        0
370
    25
100
AcDbPolyline
 90
       22
 70
     0
 43
0.0
 10
151.6666894572352
 20
-9.565756460129449
 10
151.7690165488346
 20
-9.511790876629637
 10
152.5795931525349
 20
-9.043854963629806
 10
153.3223169881357
 20
-8.539783225329784
 10
153.9923712064357
 20
-8.002844760329612
 10
154.5854102488355
 20
-7.436521820629633
 10
155.0975880295355
 20
-6.844487227829779
 10
155.525582879035
 20
-6.230580553430002
 10
155.8666190865352
 20
-5.598783217829947
 10
156.1184849014346
 20
-4.953192669129657
 10
156.2795468772357
 20
-4.297995809829457
 10
156.3487604651347
 20
-3.637441842929565
 10
156.3256767885349
 20
-2.975814714429849
 10
156.2104455539355
 20
-2.317405330129942
 10
156.0038140801349
 20
-1.666483727529661
 10
155.7071224514346
 20
-1.027271383029744
 10
155.322294827035
 20
-0.4039138339296093
 10
154.8518269616355
 20
0.1995462068700304
 10
154.2987700199356
 20
0.7791950693705833
 10
153.6667107883355
 20
1.33127350837029
 10
152.959748413635
 20
1.852201083270169
 10
152.1824678180345
 20
2.338599378870098
  0
SPLINE
  5
E4
330
70
100
AcDbEntity
  8
0
 62
     8
420
  8421504
370
    25
100
AcDbSpline
210
0.0
220
0.0
230
1.0
 70
     8
 71
     3
 72
     8
 73
     4
 74
     0
 42
0.0000000001
 43
0.0000000001
 40
0.0
 40
0.0
 40
0.0
 40
0.0
 40
1.0
 40
1.0
 40
1.0
 40
1.0
 10
155.9370351547622
 20
8.414563431968165
 30
0.0
 10
155.9636414381401
 20
6.727587133714649
 30
0.0
 10
156.2463369332527
 20
5.054438552975399
 30
0.0
 10
156.7754490013441
 20
3.452365725485362
 30
0.0
  0
LWPOLYLINE
  5
E5
330
70
100
AcDbEntity
  8
0
 62
     8
420
  8421504
370
    25
100
AcDbPolyline
 90
       65
 70
     0
 43
0.0
 10
161.0002892521357
 20
-4.130451652029823
 10
161.5538830479354
 20
-4.75573277262994
 10
162.2767165143351
 20
-5.498717150529427
 10
163.0203726830356
 20
-6.183680687029703
 10
163.7797716285356
 20
-6.805944386629766
 10
164.5497258859345
 20
-7.361257557229563
 10
165.3249758869347
 20
-7.845826846929387
 10
166.1002258879348
 20
-8.256342156029599
 10
166.8701801453351
 20
-8.589999248729837
 10
167.6295790908351
 20
-8.844518908729604
 10
168.3732352596357
 20
-9.018162508729711
 10
169.0960687260354
 20
-9.109743886929436
 10
169.7931418044351
 20
-9.118637449429817
 10
170.4596927790357
 20
-9.044782444429893
 10
171.0911684306352
 20
-8.888683376429954
 10
171.6832551403348
 20
-8.651406560229409
 10
172.2319083556348
 20
-8.334572837229446
 10
172.7333802185349
 20
-7.940346502929567
 10
173.1842451678352
 20
-7.471420522929954
 10
173.5814233388347
 20
-6.930998137229592
 10
173.9222016017353
 20
-6.32277097862977
 10
174.2042520955353
 20
-5.650893855429396
 10
174.4256481293352
 20
-4.91995636962963
 10
174.5848773438357
 20
-4.134951565429793
 10
174.6808520419352
 20
-3.30124182152966
 10
174.7129166191354
 20
-2.424522221029597
 10
174.6808520419352
 20
-1.51078164762996
 10
174.5848773438357
 20
-0.5662618760294334
 10
174.4256481293352
 20
0.4025850660705242
 10
174.2042520955353
 20
1.389140971570325
 10
173.9222016017353
 20
2.386666663269981
 10
173.5814233388347
 20
3.388348029270275
 10
173.1842451678352
 20
4.387342570169994
 10
172.7333802185349
 20
5.376826140270589
 10
172.2319083556348
 20
6.350039563370393
 10
171.6832551403348
 20
7.300334805170465
 10
171.0911684306352
 20
8.221220385370388
 10
170.4596927790357
 20
9.106405721770236
 10
169.7931418044351
 20
9.9498441009704
 10
169.0960687260354
 20
10.74577398357043
 10
168.3732352596357
 20
11.48875836147056
 10
167.6295790908351
 20
12.17372189797019
 10
166.8701801453351
 20
12.79598559757026
 10
166.1002258879348
 20
13.35129876817006
 10
165.3249758869347
 20
13.83586805787052
 10
164.5497258859345
 20
14.24638336697009
 10
163.7797716285356
 20
14.58004045967033
 10
163.0203726830356
 20
14.8345601196701
 10
162.2767165143351
 20
15.0082037196702
 10
161.5538830479354
 20
15.09978509777046
 10
160.8568099695356
 20
15.10867866037031
 10
160.190258994935
 20
15.03482365537039
 10
159.5587833432354
 20
14.87872458727034
 10
158.9666966335345
 20
14.64144777117054
 10
158.4180434183347
 20
14.32461404817058
 10
157.9165715553357
 20
13.93038771387006
 10
157.4657066060354
 20
13.46146173387045
 10
157.0685284351347
 20
12.92103934817008
 10
156.7277501722355
 20
12.31281218957026
 10
156.4456996784354
 20
11.64093506637053
 10
156.2243036445354
 20
10.90999758057012
 10
156.065074430135
 20
10.12499277637028
 10
155.9690997320355
 20
9.291283032470152
 10
155.9370351547352
 20
8.414563431970091
 10
155.9370351547352
 20
8.414563431970091
  0
LWPOLYLINE
  5
E6
330
70
100
AcDbEntity
  8
0
 62
     8
420
  8421504
370
    25
100
AcDbPolyline
 90
       40
 70
     0
 43
0.0
 10
158.8650770021355
 20
15.14187341647024
 10
159.0165905175356
 20
15.22257647057023
 10
159.6160146977356
 20
15.4763248354704
 10
160.2557805920353
 20
15.64836852857002
 10
160.931630664035
 20
15.7375626274706
 10
161.6390672429355
 20
15.74331356026998
 10
162.3733824550355
 20
15.66558305547019
 10
163.129689553735
 20
15.50488839657024
 10
163.9029554401353
 20
15.26229898017026
 10
164.6880341573352
 20
14.93942919887009
 10
165.4797011359354
 20
14.5384276975705
 10
166.2726879629346
 20
14.0619630753701
 10
167.0617174416346
 20
13.51320612547013
 10
167.8415387112353
 20
12.89580873497049
 10
168.6069621897351
 20
12.21387958167038
 10
169.3528941101356
 20
11.47195679147059
 10
170.0743704187351
 20
10.67497773817048
 10
170.7665898095346
 20
9.828246185869975
 10
171.4249456769354
 20
8.937396993470219
 10
172.0450567710349
 20
8.008358615170362
 10
172.622796354935
 20
7.047313648270305
 10
173.1543196669349
 20
6.060657688270196
 10
173.6360895072348
 20
5.054956767970521
 10
174.0648997769355
 20
4.036903660970246
 10
174.4378968143353
 20
3.013273342870142
 10
174.7525983859345
 20
1.990877904370176
 10
175.0069102045346
 20
0.976521218470385
 10
175.1991398669346
 20
-0.0230463383299124
 10
175.3280081165348
 20
-1.001172808929934
 10
175.3926573564355
 20
-1.951348923129788
 10
175.3926573564355
 20
-2.867251415529906
 10
175.3280081165348
 20
-3.742785106229593
 10
175.1991398669346
 20
-4.572123462929394
 10
175.0069102045346
 20
-5.349747375729678
 10
174.7525983859345
 20
-6.070481885729995
 10
174.4378968143353
 20
-6.729530623729923
 10
174.0648997769355
 20
-7.322507729129862
 10
173.6360895072348
 20
-7.845467037129921
 10
173.1543196669349
 20
-8.29492833972986
 10
172.6228940307346
 20
-8.667841814429445
  0
LWPOLYLINE
  5
E7
330
70
100
AcDbEntity
  8
0
 62
     8
420
  8421504
370
    25
100
AcDbPolyline
 90
       17
 70
     0
 43
0.0
 10
167.9265768829345
 20
1.231260444870115
 10
167.8934289156348
 20
1.748973840970045
 10
167.7947619740358
 20
2.292824302170541
 10
167.6328887277356
 20
2.85006443467051
 10
167.4116033482357
 20
3.407633002070153
 10
167.1360925774356
 20
3.952461069770036
 10
166.8128141542345
 20
4.471778329470045
 10
166.4493454508355
 20
4.953412424970085
 10
166.0542058656351
 20
5.386074261070414
 10
165.6366571356353
 20
5.759622611170497
 10
165.2064862490351
 20
6.065301818570226
 10
164.7737760469347
 20
6.295947021670246
 10
164.3486688897346
 20
6.446152092470564
 10
163.9411289288345
 20
6.512396351270488
 10
163.5607085555349
 20
6.493127088870551
 10
163.2163245010353
 20
6.388795960470007
 10
162.9698315906353
 20
6.243895027270534
  0
LWPOLYLINE
  5
E8
330
70
100
AcDbEntity
  8
0
 62
     8
420
  8421504
370
    25
100
AcDbPolyline
 90
       41
 70
     0
 43
0.0
 10
160.5645471473349
 20
-9.702544210129676
 10
160.2574131561351
 20
-10.39393884212992
 10
159.8489840339346
 20
-11.1095072987297
 10
159.3559685537356
 20
-11.80709391342952
 10
158.7807185564349
 20
-12.48337097582984
 10
158.1259781678348
 20
-13.13511242892987
 10
157.3948707082345
 20
-13.75920925822998
 10
156.5908837931347
 20
-14.35268432312984
 10
155.7178526962349
 20
-14.91270655833
 10
154.7799420541355
 20
-15.43660447942968
 10
153.7816259994347
 20
-15.92187892642991
 10
152.727666817735
 20
-16.36621498562966
 10
151.6230922301351
 20
-16.76749303232996
 10
150.4731714094349
 20
-17.12379884242976
 10
149.2833898442345
 20
-17.43343272372997
 10
148.059423171835
 20
-17.69491762392991
 10
146.8071101031346
 20
-17.90700617682986
 10
145.5324245705355
 20
-18.06868665232948
 10
144.2414472301355
 20
-18.1791877830294
 10
142.9403364552351
 20
-18.23798244352946
 10
141.6352989587353
 20
-18.24479016432955
 10
140.3325601853353
 20
-18.1995784705294
 10
139.0383346140357
 20
-18.10256303642987
 10
137.7587961132348
 20
-17.95420665632981
 10
136.5000484893346
 20
-17.75521703762944
 10
135.2680963693354
 20
-17.50654342412975
 10
134.0688165575348
 20
-17.20937206812962
 10
132.9079300008356
 20
-16.86512057182941
 10
131.7909744978347
 20
-16.47543112452957
 10
130.7232782822346
 20
-16.04216266892981
 10
129.7099346051347
 20
-15.5673820337295
 10
128.7557774387357
 20
-15.05335407372997
 10
127.8653584169348
 20
-14.50253086622997
 10
127.0429251219345
 20
-13.9175400133296
 10
126.2924008226355
 20
-13.30117210782957
 10
125.6173657592346
 20
-12.65636742103
 10
125.0210400639357
 20
-11.9862018766294
 10
124.5062684002352
 20
-11.29387237792959
 10
124.0755063932356
 20
-10.58268155722983
 10
123.7308089147356
 20
-9.856022021329946
 10
123.7128753909348
 20
-9.811939995029426
  0
LWPOLYLINE
  5
E9
330
70
100
AcDbEntity
  8
0
 62
     8
420
  8421504
370
    25
100
AcDbPolyline
 90
       48
 70
     0
 43
0.0
 10
123.487046527335
 20
-6.699515940229948
 10
123.4737963762357
 20
-7.334460471729822
 10
123.5419109737347
 20
-8.084763589029686
 10
123.7005224117346
 20
-8.830496061129975
 10
123.9488579511353
 20
-9.568024754429947
 10
124.2857077262355
 20
-10.29375650313001
 10
124.7094306388349
 20
-11.00415561522942
 10
125.2179623533345
 20
-11.69576109762986
 10
125.8088253545345
 20
-12.36520351782944
 10
126.479141017135
 20
-13.00922141982967
 10
127.2256436306357
 20
-13.62467721292963
 10
128.0446963093357
 20
-14.20857245862964
 10
128.9323087110348
 20
-14.75806247782982
 10
129.8841564772346
 20
-15.27047021042955
 10
130.8956023012356
 20
-15.74329925742982
 10
131.9617185207353
 20
-16.1742460432297
 10
133.0773111247356
 20
-16.56121103842977
 10
134.2369450581355
 20
-16.90230898852962
 10
135.4349707009354
 20
-17.19587809852961
 10
136.6655513926346
 20
-17.44048812932976
 10
137.9226918679355
 20
-17.63494736532942
 10
139.2002674646346
 20
-17.77830842072994
 10
140.4920539630348
 20
-17.86987285482995
 10
141.7917579089357
 20
-17.90919457502976
 10
143.0930472755347
 20
-17.89608200972956
 10
144.3895823118347
 20
-17.83059904212987
 10
145.6750464293353
 20
-17.71306469862951
 10
146.9431769762357
 20
-17.54405159472941
 10
148.1877957478348
 20
-17.32438314522994
 10
149.4028390867346
 20
-17.05512955282968
 10
150.5823874237354
 20
-16.73760259392999
 10
151.7206941181357
 20
-16.37334922792984
 10
152.8122134539353
 20
-15.96414406072983
 10
153.8516276587352
 20
-15.51198069862953
 10
154.8338728110351
 20
-15.01906203612971
 10
155.7541635112345
 20
-14.48778952332984
 10
156.6080161954355
 20
-13.92075146662967
 10
157.3912709792347
 20
-13.32071041842998
 10
158.1001119240345
 20
-12.69058971832947
 10
158.7310856280355
 20
-12.03345925112979
 10
159.2811180507347
 20
-11.35252049032938
 10
159.7475294895354
 20
-10.65109090112966
 10
160.1280476347354
 20
-9.932587778030026
 10
160.4208186402347
 20
-9.200511596029638
 10
160.6244161550347
 20
-8.458428956629752
 10
160.7378482725346
 20
-7.70995521192955
 10
160.7605623629346
 20
-6.958736850729966
 10
160.7473122118353
 20
-6.699515940229948
  0
LWPOLYLINE
  5
EA
330
70
100
AcDbEntity
  8
0
 62
     8
420
  8421504
370
    25
100
AcDbPolyline
 90
       47
 70
     0
 43
0.0
 10
123.1171793695357
 20
-10.56586133052975
 10
123.1213079834353
 20
-10.79450880602967
 10
123.1946794705352
 20
-11.5555367780299
 10
123.359426749535
 20
-12.31178566702945
 10
123.614754263935
 20
-13.05960358562941
 10
123.9594290502347
 20
-13.79537935902962
 10
124.3917866914349
 20
-14.51555996332974
 10
124.9097393543347
 20
-15.21666768282956
 10
125.5107858718345
 20
-15.89531690412965
 10
126.1920238208354
 20
-16.54823046442958
 10
126.9501635378355
 20
-17.17225547732973
 10
127.7815440046347
 20
-17.76437855772942
 10
128.6821505270345
 20
-18.32174037332993
 10
129.6476341219351
 20
-18.8416494521299
 10
130.6733325181355
 20
-19.32159517962986
 10
131.7542926699355
 20
-19.75925992232975
 10
132.8852946758356
 20
-20.15253021922958
 10
134.0608769843345
 20
-20.4995069882298
 10
135.2753627682353
 20
-20.79851469592974
 10
136.5228873373347
 20
-21.04810944942998
 10
137.7974264587349
 20
-21.24708596822947
 10
139.0928254477346
 20
-21.39448340492993
 10
140.4028288883353
 20
-21.48958998463
 10
141.7211108404357
 20
-21.53194644252956
 10
143.0413053873345
 20
-21.52134824162996
 10
144.3570373766345
 20
-21.45784655982955
 10
145.6619532052356
 20
-21.34174804372942
 10
146.9497515009348
 20
-21.17361332702985
 10
148.2142135510346
 20
-20.95425432392982
 10
149.449233332435
 20
-20.68473030772977
 10
150.6488469973346
 20
-20.36634279632988
 10
151.8072616722355
 20
-20.00062926672957
 10
152.9188834314348
 20
-19.58935573122994
 10
153.9783443098345
 20
-19.13450820872989
 10
154.9805282247348
 20
-18.63828313482978
 10
155.9205956807351
 20
-18.10307675532986
 10
156.7940071398355
 20
-17.53147355452989
 10
157.5965449425354
 20
-16.92623377532949
 10
158.3243336743349
 20
-16.29028008992955
 10
158.9738588804349
 20
-15.62668348642991
 10
159.541984036635
 20
-14.93864843912997
 10
160.0259656953357
 20
-14.22949743432979
 10
160.4234667337353
 20
-13.50265492622993
 10
160.7325676394352
 20
-12.76163080052953
 10
160.9517757798348
 20
-12.01000342502993
 10
161.0800326099351
 20
-11.25140237012985
 10
161.1171793693355
 20
-10.56591432432985
  0
LWPOLYLINE
  5
EB
330
70
100
AcDbEntity
  8
0
 62
     8
420
  8421504
370
    25
100
AcDbPolyline
 90
       40
 70
     0
 43
0.0
 10
123.7591915986346
 20
-16.36901001972953
 10
123.948514980535
 20
-16.74278552362961
 10
124.3824529586356
 20
-17.45843170582982
 10
124.9008620454357
 20
-18.15509518112964
 10
125.5012730408346
 20
-18.82945771772959
 10
126.1808261665347
 20
-19.47830730372993
 10
126.9362846878353
 20
-20.09855344622982
 10
127.7640503300357
 20
-20.68724189182939
 10
128.6601804169347
 20
-21.24156869712999
 10
129.6204066503354
 20
-21.75889358472944
 10
130.6401554397352
 20
-22.23675251842999
 10
131.7145696868354
 20
-22.67286943982964
 10
132.8385319198348
 20
-23.06516710902983
 10
134.0066886681345
 20
-23.41177699882992
 10
135.2134759611355
 20
-23.71104819442997
 10
136.4531458297346
 20
-23.96155525702964
 10
137.7197936838357
 20
-24.16210501282944
 10
139.0073864365357
 20
-24.31174223642948
 10
140.3097912392351
 20
-24.40975420062977
 10
141.6208046935356
 20
-24.45567407112966
 10
142.9341823974352
 20
-24.44928313012996
 10
144.2436686878351
 20
-24.39061181762952
 10
145.5430264369349
 20
-24.27993958732975
 10
146.8260667592351
 20
-24.11779357472989
 10
148.0866784897348
 20
-23.90494608682987
 10
149.3188572916356
 20
-23.64241092352965
 10
150.5167342552347
 20
-23.33143854892987
 10
151.6746038515345
 20
-22.97351013482986
 10
152.7869511079353
 20
-22.57033050672968
 10
153.8484778764347
 20
-22.12382002292981
 10
154.8541280688345
 20
-21.63610542802965
 10
155.7991117386347
 20
-21.10950972352977
 10
156.6789278965356
 20
-20.54654110262971
 10
157.4893859478348
 20
-19.94988100422969
 10
158.2266256532352
 20
-19.32237134072942
 10
158.8871355147356
 20
-18.66700096212989
 10
159.4677695013347
 20
-17.98689142002943
 10
159.9657620334346
 20
-17.28528209943
 10
160.3787411556357
 20
-16.56551478952976
 10
160.470677026935
 20
-16.37847905452939
  0
LWPOLYLINE
  5
EC
330
70
100
AcDbEntity
  8
0
 62
     8
420
  8421504
370
    25
100
AcDbPolyline
 90
       39
 70
     0
 43
0.0
 10
160.0503086532357
 20
-6.260507944129477
 10
159.7666390626351
 20
-6.778101964229416
 10
159.2997220795346
 20
-7.480291834429515
 10
158.7490934755354
 20
-8.161968666129455
 10
158.1174358578346
 20
-8.819811398429491
 10
157.4078265988345
 20
-9.450615087629953
 10
156.6237228435357
 20
-10.05130652162981
 10
155.768944666635
 20
-10.61895919202941
 10
154.8476564615356
 20
-11.15080755212997
 10
153.864346651635
 20
-11.64426049022953
 10
152.8238058236346
 20
-12.09691395312964
 10
151.7311033877357
 20
-12.50656265872973
 10
150.5915628803347
 20
-12.8712108396297
 10
149.4107360284345
 20
-13.18908196672996
 10
148.1943757015349
 20
-13.45862740362939
 10
146.9484078850352
 20
-13.67853395212949
 10
145.6789028088357
 20
-13.84773024972995
 10
144.3920453740354
 20
-13.96539198892949
 10
143.0941050208355
 20
-14.03094593372991
 10
141.7914051839351
 20
-14.04407271172951
 10
140.4902924862349
 20
-14.00470837062965
 10
139.1971058177347
 20
-13.91304468962939
 10
137.9181454542357
 20
-13.7695282448294
 10
136.659642361735
 20
-13.5748582341295
 10
135.4277278410347
 20
-13.32998307002946
 10
134.2284036557352
 20
-13.0360957598297
 10
133.067512792735
 20
-12.6946280930296
 10
131.9507109956355
 20
-12.30724366562968
 10
130.8834392105349
 20
-11.87582977562992
 10
129.8708970782357
 20
-11.40248822822949
 10
128.918017602335
 20
-10.88952509592971
 10
128.0294431157351
 20
-10.33943948332973
 10
127.2095026641353
 20
-9.754911352429928
 10
126.4621909148346
 20
-9.138788465429655
 10
125.791148695735
 20
-8.49407251112987
 10
125.1996452569348
 20
-7.823904480829543
 10
124.6905623438348
 20
-7.131549365829425
 10
124.2663801571351
 20
-6.420380250729937
 10
124.2055243653357
 20
-6.303091886229597
  0
LWPOLYLINE
  5
ED
330
70
100
AcDbEntity
  8
0
 62
     8
420
  8421504
370
    25
100
AcDbPolyline
 90
       39
 70
     0
 43
0.0
 10
160.0215392374352
 20
-9.910688590729634
 10
159.7295076924353
 20
-10.4451547887299
 10
159.2635730208345
 20
-11.14586737442986
 10
158.7141028429352
 20
-11.82611007762971
 10
158.0837741221354
 20
-12.48256882412949
 10
157.3756577566354
 20
-13.11204541292967
 10
156.5932036182354
 20
-13.71147309732939
 10
155.7402237448356
 20
-14.27793152603
 10
154.820873768635
 20
-14.80866097042989
 10
153.8396326703346
 20
-15.30107576992953
 10
152.801280957835
 20
-15.75277692932998
 10
151.7108773763352
 20
-16.16156380582995
 10
150.573734262535
 20
-16.52544483092988
 10
149.3953916633356
 20
-16.84264721282965
 10
148.1815903454346
 20
-17.11162557333
 10
146.9382438269356
 20
-17.33106947702978
 10
145.6714095669357
 20
-17.49990981522971
 10
144.3872594546356
 20
-17.61732401483001
 10
143.0920497404351
 20
-17.68274004552977
 10
141.7920905557355
 20
-17.69583920712952
 10
140.4937151710357
 20
-17.65655768172997
 10
139.203249140835
 20
-17.56508684502983
 10
137.9269794857348
 20
-17.42187233372986
 10
136.6711240632351
 20
-17.22761187452961
 10
135.4418012747347
 20
-16.98325188492952
 10
134.2450002574353
 20
-16.68998286212987
 10
133.0865517053349
 20
-16.34923358342996
 10
131.9720994635348
 20
-15.96266414492995
 10
130.907073031235
 20
-15.53215787422994
 10
129.8966611101352
 20
-15.0598121545297
 10
128.9457863256353
 20
-14.54792820662955
 10
128.0590812440348
 20
-13.99899987782959
 10
127.2408658034356
 20
-13.41570149162982
 10
126.4951262671356
 20
-12.80087481922984
 10
125.8254958032346
 20
-12.15751523432981
 10
125.2352367840348
 20
-11.48875712012944
 10
124.7272248921354
 20
-10.79785859902958
 10
124.3039351104349
 20
-10.08818565902965
 10
124.2433082021346
 20
-9.971342513429442
  0
LWPOLYLINE
  5
EE
330
70
100
AcDbEntity
  8
0
 62
     8
420
  8421504
370
    25
100
AcDbPolyline
 90
       43
 70
     0
 43
0.0
 10
157.624087715335
 20
-48.24582820732956
 10
157.5988601839348
 20
-48.69795931822972
 10
157.4852526275347
 20
-49.38060068342949
 10
157.2814591063355
 20
-50.0562186179294
 10
156.9886755617354
 20
-50.7208483273297
 10
156.6086201642347
 20
-51.37058950002956
 10
156.1435232298353
 20
-52.00162919652985
 10
155.5961141323345
 20
-52.61026422492993
 10
154.9696052859357
 20
-53.1929228730295
 10
154.2676732937346
 20
-53.74618586792995
 10
153.4944373718355
 20
-54.26680644262948
 10
152.6544351759348
 20
-54.75172938842941
 10
151.7525961730352
 20
-55.1981089847299
 10
150.7942127129353
 20
-55.60332569852997
 10
149.7849089709345
 20
-55.9650015570294
 10
148.7306079427347
 20
-56.28101410253002
 10
147.6374966858348
 20
-56.54950884762993
 10
146.5119900120352
 20
-56.76891015862976
 10
145.3606928417346
 20
-56.93793050112988
 10
144.190361444735
 20
-57.05557799672964
 10
143.0078637908351
 20
-57.12116224312981
 10
141.8201392467349
 20
-57.13429836572987
 10
140.6341578520352
 20
-57.09490927682955
 10
139.4568794174346
 20
-57.00322612702952
 10
138.2952126807357
 20
-56.85978694952979
 10
137.1559747642349
 20
-56.66543350252963
 10
136.0458511692346
 20
-56.42130632932955
 10
134.971356542135
 20
-56.12883806532945
 10
133.9387964448345
 20
-55.7897450304294
 10
132.9542303505351
 20
-55.40601715742979
 10
132.0234360846352
 20
-54.97990631422978
 10
131.1518759178345
 20
-54.51391308852977
 10
130.3446645119352
 20
-54.01077211382993
 10
129.6065389042351
 20
-53.47343602163
 10
128.9418307095345
 20
-52.90505811362955
 10
128.3544406996347
 20
-52.30897385752946
 10
127.8478159128351
 20
-51.68868131262982
 10
127.4249294247352
 20
-51.04782060232989
 10
127.0882629014354
 20
-50.39015255202945
 10
126.8397920359352
 20
-49.7195366193296
 10
126.6809749541354
 20
-49.03990824532997
 10
126.6127436577356
 20
-48.35525575942989
 10
126.6102710238352
 20
-48.24582820732956
  0
LINE
  5
EF
330
70
100
AcDbEntity
  8
0
 62
    18
420
        0
370
    25
100
AcDbLine
 10
127.6650470560346
 20
120.4452126901702
 30
0.0
 11
125.4851220784355
 21
120.4452126901702
 31
0.0
  0
LINE
  5
F0
330
70
100
AcDbEntity
  8
0
 62
    18
420
        0
370
    25
100
AcDbLine
 10
125.4851220784355
 20
92.94521269017016
 30
0.0
 11
127.6650470560346
 21
92.94521269017016
 31
0.0
  0
SPLINE
  5
F1
330
70
100
AcDbEntity
  8
0
 62
    18
420
        0
370
    25
100
AcDbSpline
210
0.0
220
0.0
230
1.0
 70
     8
 71
     3
 72
     8
 73
     4
 74
     0
 42
0.0000000001
 43
0.0000000001
 40
0.0
 40
0.0
 40
0.0
 40
0.0
 40
1.0
 40
1.0
 40
1.0
 40
1.0
 10
127.6650470560346
 20
92.94521269017016
 30
0.0
 10
127.9308710814227
 20
92.94521269017016
 30
0.0
 10
128.1502245836033
 20
93.15321067097228
 30
0.0
 10
128.1643414907628
 20
93.41865958395818
 30
0.0
  0
SPLINE
  5
F2
330
70
100
AcDbEntity
  8
0
 62
    18
420
        0
370
    25
100
AcDbSpline
210
0.0
220
0.0
230
1.0
 70
     8
 71
     3
 72
     8
 73
     4
 74
     0
 42
0.0000000001
 43
0.0000000001
 40
0.0
 40
0.0
 40
0.0
 40
0.0
 40
1.0
 40
1.0
 40
1.0
 40
1.0
 10
128.1643414907628
 20
119.9717657963821
 30
0.0
 10
128.1502245836033
 20
120.237214709368
 30
0.0
 10
127.9308710814227
 20
120.4452126901702
 30
0.0
 10
127.6650470560346
 20
120.4452126901702
 30
0.0
  0
SPLINE
  5
F3
330
70
100
AcDbEntity
  8
0
 62
    18
420
        0
370
    25
100
AcDbSpline
210
0.0
220
0.0
230
1.0
 70
     8
 71
     3
 72
     8
 73
     4
 74
     0
 42
0.0000000001
 43
0.0000000001
 40
0.0
 40
0.0
 40
0.0
 40
0.0
 40
1.0
 40
1.0
 40
1.0
 40
1.0
 10
128.1643414907063
 20
93.41865958417379
 30
0.0
 10
128.3286680005963
 20
96.50859231037681
 30
0.0
 10
128.4356132913966
 20
99.60130959967315
 30
0.0
 10
128.4851220783759
 20
102.6952126903218
 30
0.0
  0
SPLINE
  5
F4
330
70
100
AcDbEntity
  8
0
 62
    18
420
        0
370
    25
100
AcDbSpline
210
0.0
220
0.0
230
1.0
 70
     8
 71
     3
 72
     8
 73
     4
 74
     0
 42
0.0000000001
 43
0.0000000001
 40
0.0
 40
0.0
 40
0.0
 40
0.0
 40
1.0
 40
1.0
 40
1.0
 40
1.0
 10
128.4851220783759
 20
110.6952126900188
 30
0.0
 10
128.4356132913966
 20
113.7891157806675
 30
0.0
 10
128.3286680005963
 20
116.8818330699635
 30
0.0
 10
128.1643414907063
 20
119.9717657961669
 30
0.0
  0
SPLINE
  5
F5
330
70
100
AcDbEntity
  8
0
 62
    18
420
        0
370
    25
100
AcDbSpline
210
0.0
220
0.0
230
1.0
 70
     8
 71
     3
 72
    11
 73
     7
 74
     0
 42
0.0000000001
 43
0.0000000001
 40
0.0
 40
0.0
 40
0.0
 40
0.0
 40
1.0
 40
1.0
 40
1.0
 40
2.0
 40
2.0
 40
2.0
 40
2.0
 10
179.7662020253349
 20
102.6827126901703
 30
0.0
 10
179.9042732127924
 20
102.6827126901703
 30
0.0
 10
180.0162020253357
 20
102.7946415027126
 30
0.0
 10
180.0162020253357
 20
102.9327126901701
 30
0.0
 10
180.0162020253357
 20
102.9334399118457
 30
0.0
 10
180.0161988522263
 20
102.9341671300596
 30
0.0
 10
180.0161925061013
 20
102.9348943240443
 30
0.0
  0
LINE
  5
F6
330
70
100
AcDbEntity
  8
0
 62
    18
420
        0
370
    25
100
AcDbLine
 10
180.0161925060346
 20
102.9348943240703
 30
0.0
 11
179.9851220784352
 21
106.4952126901701
 31
0.0
  0
SPLINE
  5
F7
330
70
100
AcDbEntity
  8
0
 62
    18
420
        0
370
    25
100
AcDbSpline
210
0.0
220
0.0
230
1.0
 70
     8
 71
     3
 72
     8
 73
     4
 74
     0
 42
0.0000000001
 43
0.0000000001
 40
0.0
 40
0.0
 40
0.0
 40
0.0
 40
1.0
 40
1.0
 40
1.0
 40
1.0
 10
179.985122078439
 20
106.4952126901701
 30
0.0
 10
179.985122078439
 20
107.8127883193582
 30
0.0
 10
179.9504019687125
 20
109.1301351769999
 30
0.0
 10
179.8809979012898
 20
110.4458815864782
 30
0.0
  0
SPLINE
  5
F8
330
70
100
AcDbEntity
  8
0
 62
    18
420
        0
370
    25
100
AcDbSpline
210
0.0
220
0.0
230
1.0
 70
     8
 71
     3
 72
     8
 73
     4
 74
     0
 42
0.0000000001
 43
0.0000000001
 40
0.0
 40
0.0
 40
0.0
 40
0.0
 40
1.0
 40
1.0
 40
1.0
 40
1.0
 10
179.8809979012449
 20
110.4458815864914
 30
0.0
 10
179.8739944891859
 20
110.5786506677892
 30
0.0
 10
179.7642986456774
 20
110.6827126901702
 30
0.0
 10
179.6313449818356
 20
110.6827126901702
 30
0.0
  0
LINE
  5
F9
330
70
100
AcDbEntity
  8
0
 62
    18
420
        0
370
    25
100
AcDbLine
 10
128.4851220784349
 20
102.6827126901703
 30
0.0
 11
142.2040421315353
 21
102.6827126901703
 31
0.0
  0
LINE
  5
FA
330
70
100
AcDbEntity
  8
0
 62
    18
420
        0
370
    25
100
AcDbLine
 10
142.3388991749346
 20
110.6827126901702
 30
0.0
 11
128.4851220784349
 21
110.6827126901702
 31
0.0
  0
SPLINE
  5
FB
330
70
100
AcDbEntity
  8
0
 62
    18
420
        0
370
    25
100
AcDbSpline
210
0.0
220
0.0
230
1.0
 70
     8
 71
     3
 72
    11
 73
     7
 74
     0
 42
0.0000000001
 43
0.0000000001
 40
0.0
 40
0.0
 40
0.0
 40
0.0
 40
1.0
 40
1.0
 40
1.0
 40
2.0
 40
2.0
 40
2.0
 40
2.0
 10
179.651555661601
 20
115.4305310562957
 30
0.0
 10
179.6527605447196
 20
115.5685969864257
 30
0.0
 10
179.54181274484
 20
115.6814982878177
 30
0.0
 10
179.4037468147096
 20
115.6827031709364
 30
0.0
 10
179.403019620725
 20
115.682709517062
 30
0.0
 10
179.4022924025111
 20
115.6827126901704
 30
0.0
 10
179.4015651808345
 20
115.6827126901704
 30
0.0
  0
SPLINE
  5
FC
330
70
100
AcDbEntity
  8
0
 62
    18
420
        0
370
    25
100
AcDbSpline
210
0.0
220
0.0
230
1.0
 70
     8
 71
     3
 72
    11
 73
     7
 74
     0
 42
0.0000000001
 43
0.0000000001
 40
0.0
 40
0.0
 40
0.0
 40
0.0
 40
1.0
 40
1.0
 40
1.0
 40
2.0
 40
2.0
 40
2.0
 40
2.0
 10
142.5686789760357
 20
115.6827126901704
 30
0.0
 10
142.4306077885769
 20
115.6827126901704
 30
0.0
 10
142.3186789760349
 20
115.5707838776282
 30
0.0
 10
142.3186789760349
 20
115.4327126901703
 30
0.0
 10
142.3186789760349
 20
115.4319854684947
 30
0.0
 10
142.318682149143
 20
115.4312582502807
 30
0.0
 10
142.3186884952692
 20
115.4305310562957
 30
0.0
  0
LINE
  5
FD
330
70
100
AcDbEntity
  8
0
 62
    18
420
        0
370
    25
100
AcDbLine
 10
142.3186884952346
 20
115.4305310562704
 30
0.0
 11
142.3579594003347
 21
110.9305310562702
 31
0.0
  0
LINE
  5
FE
330
70
100
AcDbEntity
  8
0
 62
    18
420
        0
370
    25
100
AcDbLine
 10
179.6122847565355
 20
110.9305310562702
 30
0.0
 11
179.6515556615355
 21
115.4305310562704
 31
0.0
  0
SPLINE
  5
FF
330
70
100
AcDbEntity
  8
0
 62
    18
420
        0
370
    25
100
AcDbSpline
210
0.0
220
0.0
230
1.0
 70
     8
 71
     3
 72
     8
 73
     4
 74
     0
 42
0.0000000001
 43
0.0000000001
 40
0.0
 40
0.0
 40
0.0
 40
0.0
 40
1.0
 40
1.0
 40
1.0
 40
1.0
 10
179.3622942757357
 20
110.6827126901702
 30
0.0
 10
179.4995142392337
 20
110.6827126901702
 30
0.0
 10
179.6110873016184
 20
110.793316317713
 30
0.0
 10
179.6122847565009
 20
110.9305310562956
 30
0.0
  0
SPLINE
  5
100
330
70
100
AcDbEntity
  8
0
 62
    18
420
        0
370
    25
100
AcDbSpline
210
0.0
220
0.0
230
1.0
 70
     8
 71
     3
 72
     8
 73
     4
 74
     0
 42
0.0000000001
 43
0.0000000001
 40
0.0
 40
0.0
 40
0.0
 40
0.0
 40
1.0
 40
1.0
 40
1.0
 40
1.0
 10
142.3579594002693
 20
110.9305310562956
 30
0.0
 10
142.3591568551517
 20
110.793316317713
 30
0.0
 10
142.4707299175364
 20
110.6827126901702
 30
0.0
 10
142.6079498810358
 20
110.6827126901702
 30
0.0
  0
LINE
  5
101
330
70
100
AcDbEntity
  8
0
 62
    18
420
        0
370
    25
100
AcDbLine
 10
145.0635534509352
 20
102.6827126901703
 30
0.0
 11
145.4778412214357
 21
60.42536010237024
 31
0.0
  0
LINE
  5
102
330
70
100
AcDbEntity
  8
0
 62
    18
420
        0
370
    25
100
AcDbLine
 10
176.4924029354345
 20
60.42536010237024
 30
0.0
 11
176.9066907058349
 21
102.6827126901703
 31
0.0
  0
SPLINE
  5
103
330
70
100
AcDbEntity
  8
0
 62
    18
420
        0
370
    25
100
AcDbSpline
210
0.0
220
0.0
230
1.0
 70
     8
 71
     3
 72
     8
 73
     4
 74
     0
 42
0.0000000001
 43
0.0000000001
 40
0.0
 40
0.0
 40
0.0
 40
0.0
 40
1.0
 40
1.0
 40
1.0
 40
1.0
 10
175.7424389766345
 20
59.68271269017008
 30
0.0
 10
176.1537840352096
 20
59.68271269017008
 30
0.0
 10
176.4883703345075
 20
60.01403481094068
 30
0.0
 10
176.4924029354037
 20
60.42536010233879
 30
0.0
  0
SPLINE
  5
104
330
70
100
AcDbEntity
  8
0
 62
    18
420
        0
370
    25
100
AcDbSpline
210
0.0
220
0.0
230
1.0
 70
     8
 71
     3
 72
     8
 73
     4
 74
     0
 42
0.0000000001
 43
0.0000000001
 40
0.0
 40
0.0
 40
0.0
 40
0.0
 40
1.0
 40
1.0
 40
1.0
 40
1.0
 10
145.4778412214665
 20
60.42536010233879
 30
0.0
 10
145.4818738223627
 20
60.01403481094068
 30
0.0
 10
145.8164601216607
 20
59.68271269017008
 30
0.0
 10
146.2278051802345
 20
59.68271269017008
 30
0.0
  0
LINE
  5
105
330
70
100
AcDbEntity
  8
0
 62
    18
420
        0
370
    25
100
AcDbLine
 10
125.4851220784355
 20
120.4452126901702
 30
0.0
 11
125.4851220784355
 21
92.94521269017016
 31
0.0
  0
LINE
  5
106
330
70
100
AcDbEntity
  8
0
 62
    18
420
        0
370
    25
100
AcDbLine
 10
128.4851220784349
 20
110.6952126901703
 30
0.0
 11
128.4851220784349
 21
106.6889626900702
 31
0.0
  0
LINE
  5
107
330
70
100
AcDbEntity
  8
0
 62
    18
420
        0
370
    25
100
AcDbLine
 10
179.7662020225345
 20
102.6827126901703
 30
0.0
 11
142.2040421315353
 21
102.6827126901703
 31
0.0
  0
LWPOLYLINE
  5
108
330
70
100
AcDbEntity
  8
0
 62
    18
420
        0
370
    25
100
AcDbPolyline
 90
        5
 70
     0
 43
0.0
 10
142.0575540597351
 20
102.9348943240703
 10
142.0460220992355
 20
102.7854401343702
 10
142.1784028181346
 20
102.6840959599701
 10
142.2024821254356
 20
102.6827175712704
 10
142.2040421315353
 20
102.6827126901703
  0
SPLINE
  5
109
330
70
100
AcDbEntity
  8
0
 62
    18
420
        0
370
    25
100
AcDbSpline
210
0.0
220
0.0
230
1.0
 70
     8
 71
     3
 72
     8
 73
     4
 74
     0
 42
0.0000000001
 43
0.0000000001
 40
0.0
 40
0.0
 40
0.0
 40
0.0
 40
1.0
 40
1.0
 40
1.0
 40
1.0
 10
142.0575540597235
 20
102.934894324053
 30
0.0
 10
142.2959367001237
 20
104.107398141011
 30
0.0
 10
142.428308463403
 20
105.2989775642567
 30
0.0
 10
142.4530674520854
 20
106.4952126901849
 30
0.0
  0
LINE
  5
10A
330
70
100
AcDbEntity
  8
0
 62
    18
420
        0
370
    25
100
AcDbLine
 10
142.4530456052349
 20
106.4952126901701
 30
0.0
 11
142.4530674520353
 21
106.4952126901701
 31
0.0
  0
SPLINE
  5
10B
330
70
100
AcDbEntity
  8
0
 62
    18
420
        0
370
    25
100
AcDbSpline
210
0.0
220
0.0
230
1.0
 70
     8
 71
     3
 72
     8
 73
     4
 74
     0
 42
0.0000000001
 43
0.0000000001
 40
0.0
 40
0.0
 40
0.0
 40
0.0
 40
1.0
 40
1.0
 40
1.0
 40
1.0
 10
142.4530456051785
 20
106.4952126901714
 30
0.0
 10
142.4652541018434
 20
107.8169430066548
 30
0.0
 10
142.376478360302
 20
109.137674921168
 30
0.0
 10
142.1874931815577
 20
110.4458815864609
 30
0.0
  0
LWPOLYLINE
  5
10C
330
70
100
AcDbEntity
  8
0
 62
    18
420
        0
370
    25
100
AcDbPolyline
 90
        5
 70
     0
 43
0.0
 10
142.3388991749346
 20
110.6827126901702
 10
142.3373391840354
 20
110.6827078090701
 10
142.2900739514348
 20
110.6774094379703
 10
142.1866637309355
 20
110.5947655569703
 10
142.1874931816347
 20
110.4458815864702
  0
LINE
  5
10D
330
70
100
AcDbEntity
  8
0
 62
    18
420
        0
370
    25
100
AcDbLine
 10
142.3388991749346
 20
110.6827126901702
 30
0.0
 11
179.6313449818356
 21
110.6827126901702
 31
0.0
  0
SPLINE
  5
10E
330
70
100
AcDbEntity
  8
0
 62
    18
420
        0
370
    25
100
AcDbSpline
210
0.0
220
0.0
230
1.0
 70
     8
 71
     3
 72
     8
 73
     4
 74
     0
 42
0.0000000001
 43
0.0000000001
 40
0.0
 40
0.0
 40
0.0
 40
0.0
 40
1.0
 40
1.0
 40
1.0
 40
1.0
 10
142.0575540596619
 20
102.9348943240674
 30
0.0
 10
142.0432705719083
 20
103.0614739291206
 30
0.0
 10
141.936305956312
 20
103.1572023413648
 30
0.0
 10
141.8089231775109
 20
103.1574075304272
 30
0.0
  0
SPLINE
  5
10F
330
70
100
AcDbEntity
  8
0
 62
    18
420
        0
370
    25
100
AcDbSpline
210
0.0
220
0.0
230
1.0
 70
     8
 71
     3
 72
     8
 73
     4
 74
     0
 42
0.0000000001
 43
0.0000000001
 40
0.0
 40
0.0
 40
0.0
 40
0.0
 40
1.0
 40
1.0
 40
1.0
 40
1.0
 10
141.8089231775211
 20
103.1574075303528
 30
0.0
 10
142.0501183885586
 20
104.2584983340951
 30
0.0
 10
142.184173459461
 20
105.3803494474202
 30
0.0
 10
142.2092133724656
 20
106.5072696267897
 30
0.0
  0
SPLINE
  5
110
330
70
100
AcDbEntity
  8
0
 62
    18
420
        0
370
    25
100
AcDbSpline
210
0.0
220
0.0
230
1.0
 70
     8
 71
     3
 72
     8
 73
     4
 74
     0
 42
0.0000000001
 43
0.0000000001
 40
0.0
 40
0.0
 40
0.0
 40
0.0
 40
1.0
 40
1.0
 40
1.0
 40
1.0
 10
142.4530456276559
 20
106.4952149634037
 30
0.0
 10
142.3720301652508
 20
106.5034312494221
 30
0.0
 10
142.2906441909501
 20
106.5074548373739
 30
0.0
 10
142.2092133724489
 20
106.5072696267872
 30
0.0
  0
SPLINE
  5
111
330
70
100
AcDbEntity
  8
0
 62
    18
420
        0
370
    25
100
AcDbSpline
210
0.0
220
0.0
230
1.0
 70
     8
 71
     3
 72
     8
 73
     4
 74
     0
 42
0.0000000001
 43
0.0000000001
 40
0.0
 40
0.0
 40
0.0
 40
0.0
 40
1.0
 40
1.0
 40
1.0
 40
1.0
 10
142.2092133724618
 20
106.5072696268116
 30
0.0
 10
142.2210907062277
 20
107.7557702430357
 30
0.0
 10
142.1307641581238
 20
109.0031486478674
 30
0.0
 10
141.9391383037043
 20
110.2369129655908
 30
0.0
  0
SPLINE
  5
112
330
70
100
AcDbEntity
  8
0
 62
    18
420
        0
370
    25
100
AcDbSpline
210
0.0
220
0.0
230
1.0
 70
     8
 71
     3
 72
     8
 73
     4
 74
     0
 42
0.0000000001
 43
0.0000000001
 40
0.0
 40
0.0
 40
0.0
 40
0.0
 40
1.0
 40
1.0
 40
1.0
 40
1.0
 10
141.9391383037851
 20
110.2369129656062
 30
0.0
 10
142.0621630151162
 20
110.2356960573799
 30
0.0
 10
142.1676575751285
 20
110.3244603808643
 30
0.0
 10
142.1874931816462
 20
110.4458815864994
 30
0.0
  0
LWPOLYLINE
  5
113
330
70
100
AcDbEntity
  8
0
 62
    18
420
        0
370
    25
100
AcDbPolyline
 90
        5
 70
     0
 43
0.0
 10
141.9391383037351
 20
110.2369129655702
 10
141.996683981935
 20
110.5171651452702
 10
142.2804843624351
 20
110.6794009962704
 10
142.3358383718357
 20
110.6827038603703
 10
142.3388991749346
 20
110.6827126901702
  0
LWPOLYLINE
  5
114
330
70
100
AcDbEntity
  8
0
 62
    18
420
        0
370
    25
100
AcDbPolyline
 90
        6
 70
     0
 43
0.0
 10
142.2040421315353
 20
102.6827126901703
 10
142.200981314835
 20
102.6827215199702
 10
142.1521411395346
 20
102.6853164921702
 10
141.976780986235
 20
102.7409841997702
 10
141.8444734931354
 20
102.8760819969704
 10
141.8089231775353
 20
103.1574075303704
  0
LINE
  5
115
330
70
100
AcDbEntity
  8
0
 62
    18
420
        0
370
    25
100
AcDbLine
 10
128.4851220784349
 20
106.6889626900702
 30
0.0
 11
128.4851220784349
 21
102.6827126901703
 31
0.0
  0
LINE
  5
116
330
70
100
AcDbEntity
  8
0
 62
    18
420
        0
370
    25
100
AcDbLine
 10
179.4015651805355
 20
115.6827126901704
 30
0.0
 11
142.5686789760357
 21
115.6827126901704
 31
0.0
  0
LINE
  5
117
330
70
100
AcDbEntity
  8
0
 62
    18
420
        0
370
    25
100
AcDbLine
 10
146.2278051802345
 20
59.68271269017008
 30
0.0
 11
175.7424389766345
 21
59.68271269017008
 31
0.0
  0
LINE
  5
118
330
70
100
AcDbEntity
  8
0
 62
     8
420
  8421504
370
    25
100
AcDbLine
 10
127.6650470560346
 20
106.6952126901701
 30
0.0
 11
127.6650470560346
 21
120.4452126901702
 31
0.0
  0
LINE
  5
119
330
70
100
AcDbEntity
  8
0
 62
     8
420
  8421504
370
    25
100
AcDbLine
 10
127.6650470560346
 20
92.94521269017016
 30
0.0
 11
127.6650470560346
 21
106.6952126901701
 31
0.0
  0
LINE
  5
11A
330
70
100
AcDbEntity
  8
0
 62
     8
420
  8421504
370
    25
100
AcDbLine
 10
128.1643414907346
 20
106.6952126901701
 30
0.0
 11
128.1643414907346
 21
93.41865958397036
 31
0.0
  0
LINE
  5
11B
330
70
100
AcDbEntity
  8
0
 62
     8
420
  8421504
370
    25
100
AcDbLine
 10
128.1643414907346
 20
119.9717657963703
 30
0.0
 11
128.1643414907346
 21
106.6952126901701
 31
0.0
  0
LINE
  5
11C
330
70
100
AcDbEntity
  8
0
 62
     8
420
  8421504
370
    25
100
AcDbLine
 10
142.0575540597351
 20
102.9348943240703
 30
0.0
 11
180.0161925060346
 21
102.9348943240703
 31
0.0
  0
LINE
  5
11D
330
70
100
AcDbEntity
  8
0
 62
     8
420
  8421504
370
    25
100
AcDbLine
 10
142.4530674520353
 20
106.4952126901701
 30
0.0
 11
179.9851220784352
 21
106.4952126901701
 31
0.0
  0
LINE
  5
11E
330
70
100
AcDbEntity
  8
0
 62
     8
420
  8421504
370
    25
100
AcDbLine
 10
179.8809979012347
 20
110.4458815864702
 30
0.0
 11
142.1874931816347
 21
110.4458815864702
 31
0.0
  0
LINE
  5
11F
330
70
100
AcDbEntity
  8
0
 62
     8
420
  8421504
370
    25
100
AcDbLine
 10
179.6515556615355
 20
115.4305310562704
 30
0.0
 11
142.3186884952346
 21
115.4305310562704
 31
0.0
  0
LINE
  5
120
330
70
100
AcDbEntity
  8
0
 62
     8
420
  8421504
370
    25
100
AcDbLine
 10
179.6122847565355
 20
110.9305310562702
 30
0.0
 11
142.3579594003347
 21
110.9305310562702
 31
0.0
  0
LINE
  5
121
330
70
100
AcDbEntity
  8
0
 62
     8
420
  8421504
370
    25
100
AcDbLine
 10
176.4924029354345
 20
60.42536010237024
 30
0.0
 11
145.4778412214357
 21
60.42536010237024
 31
0.0
  0
INSERT
  5
124
330
70
100
AcDbEntity
  8
CAPA_BASE
100
AcDbBlockReference
  2
Block_0
 10
0.0
 20
0.0
 30
0.0
  0
INSERT
  5
131
330
70
100
AcDbEntity
  8
CAPA_BASE
100
AcDbBlockReference
  2
Block_1
 10
0.0
 20
0.0
 30
0.0
  0
INSERT
  5
13D
330
70
100
AcDbEntity
  8
CAPA_BASE
100
AcDbBlockReference
  2
Block_2
 10
0.0
 20
0.0
 30
0.0
  0
ENDSEC
  0
SECTION
  2
OBJECTS
  0
DICTIONARY
  5
C
330
0
100
AcDbDictionary
281
     1
  3
ACAD_COLOR
350
63
  3
ACAD_DETAILVIEWSTYLE
350
6A
  3
ACAD_GROUP
350
D
  3
ACAD_LAYOUT
350
62
  3
ACAD_MATERIAL
350
10
  3
ACAD_MLEADERSTYLE
350
66
  3
ACAD_MLINESTYLE
350
5F
  3
ACAD_PLOTSETTINGS
350
61
  3
ACAD_PLOTSTYLENAME
350
E
  3
ACAD_SCALELIST
350
42
  3
ACAD_SECTIONVIEWSTYLE
350
68
  3
ACAD_TABLESTYLE
350
64
  3
ACAD_VISUALSTYLE
350
29
  3
ACDB_RECOMPOSE_DATA
350
150
  3
AcDbVariableDictionary
350
148
  0
DICTIONARY
  5
63
102
{ACAD_REACTORS
330
C
102
}
330
C
100
AcDbDictionary
281
     1
  0
DICTIONARY
  5
6A
102
{ACAD_REACTORS
330
C
102
}
330
C
100
AcDbDictionary
281
     1
  3
Imperial24
350
6B
  0
DICTIONARY
  5
D
102
{ACAD_REACTORS
330
C
102
}
330
C
100
AcDbDictionary
281
     1
  0
DICTIONARY
  5
62
102
{ACAD_REACTORS
330
C
102
}
330
C
100
AcDbDictionary
281
     1
  3
Layout1
350
6F
  3
Layout2
350
77
  3
Model
350
73
  0
DICTIONARY
  5
10
102
{ACAD_REACTORS
330
C
102
}
330
C
100
AcDbDictionary
281
     1
  3
ByBlock
350
19
  3
ByLayer
350
11
  3
Global
350
21
  0
DICTIONARY
  5
66
102
{ACAD_REACTORS
330
C
102
}
330
C
100
AcDbDictionary
281
     1
  3
Standard
350
67
  0
DICTIONARY
  5
5F
102
{ACAD_REACTORS
330
C
102
}
330
C
100
AcDbDictionary
281
     1
  3
Standard
350
60
  0
DICTIONARY
  5
61
102
{ACAD_REACTORS
330
C
102
}
330
C
100
AcDbDictionary
281
     1
  0
ACDBDICTIONARYWDFLT
  5
E
102
{ACAD_REACTORS
330
C
102
}
330
C
100
AcDbDictionary
281
     1
  3
Normal
350
F
100
AcDbDictionaryWithDefault
340
F
  0
DICTIONARY
  5
42
102
{ACAD_REACTORS
330
C
102
}
330
C
100
AcDbDictionary
281
     1
  3
A0
350
43
  3
A1
350
44
  3
A2
350
45
  3
A3
350
46
  3
A4
350
47
  3
A5
350
48
  3
A6
350
49
  3
A7
350
4A
  3
A8
350
4B
  3
A9
350
4C
  3
B0
350
4D
  3
B1
350
4E
  3
B2
350
4F
  3
B3
350
50
  3
B4
350
51
  3
B5
350
52
  3
B6
350
53
  0
DICTIONARY
  5
68
102
{ACAD_REACTORS
330
C
102
}
330
C
100
AcDbDictionary
281
     1
  3
Imperial24
350
69
  0
DICTIONARY
  5
64
102
{ACAD_REACTORS
330
C
102
}
330
C
100
AcDbDictionary
281
     1
  3
Standard
350
65
  0
DICTIONARY
  5
29
102
{ACAD_REACTORS
330
C
102
}
330
C
100
AcDbDictionary
281
     1
  3
2dWireframe
350
2F
  3
Basic
350
2E
  3
Brighten
350
35
  3
ColorChange
350
39
  3
Conceptual
350
32
  3
Dim
350
34
  3
EdgeColorOff
350
41
  3
Facepattern
350
38
  3
Flat
350
2A
  3
FlatWithEdges
350
2B
  3
Gouraud
350
2C
  3
GouraudWithEdges
350
2D
  3
Hidden
350
31
  3
JitterOff
350
3F
  3
Linepattern
350
37
  3
OverhangOff
350
40
  3
Realistic
350
33
  3
Shaded
350
3E
  3
Shaded with edges
350
3D
  3
Shades of Gray
350
3A
  3
Sketchy
350
3B
  3
Thicken
350
36
  3
Wireframe
350
30
  3
X-Ray
350
3C
  0
XRECORD
  5
150
102
{ACAD_REACTORS
330
C
102
}
330
C
100
AcDbXrecord
280
     1
 90
        1
330
65
  0
DICTIONARY
  5
148
102
{ACAD_REACTORS
330
C
102
}
330
C
100
AcDbDictionary
281
     1
  3
CANNOSCALE
350
14D
  3
CMLEADERSTYLE
350
14A
  3
CTABLESTYLE
350
149
  3
CVIEWDETAILSTYLE
350
14B
  3
CVIEWSECTIONSTYLE
350
14C
  0
ACDBDETAILVIEWSTYLE
  5
6B
102
{ACAD_REACTORS
330
6A
102
}
330
6A
100
AcDbModelDocViewStyle
 70
     0
  3
Imperial24
290
     1
300
Imperial24
 90
        0
100
AcDbDetailViewStyle
 70
     0
 71
     0
 90
        3
 71
     1
340
55
 62
   256
 40
0.24
340
0
 62
   256
 40
0.24
300

 40
0.36
280
     3
 71
     2
340
5D
 90
       25
 62
   256
 71
     3
340
55
 62
   256
 40
0.24
 90
        1
 40
0.75
 90
        1
300
%<\AcVar ViewType \f "%tc1">% %<\AcVar ViewDetailId>%\PSCALE %<\AcVar ViewScale \f "%sn">%
 71
     4
340
5D
 90
       25
 62
   256
340
5D
 90
       25
 62
   256
280
     0
  0
LAYOUT
  5
6F
102
{ACAD_REACTORS
330
62
102
}
330
62
100
AcDbPlotSettings
  1

  2

  4

  6

 40
0.0
 41
0.0
 42
0.0
 43
0.0
 44
0.0
 45
0.0
 46
0.0
 47
0.0
 48
0.0
 49
0.0
140
0.0
141
0.0
142
1.0
143
1.0
 70
   688
 72
     0
 73
     0
 74
     5
  7

 75
    16
147
1.0
 76
     0
 77
     2
 78
   300
148
0.0
149
0.0
100
AcDbLayout
  1
Layout1
 70
     1
 71
     1
 10
0.0
 20
0.0
 11
12.0
 21
9.0
 12
0.0
 22
0.0
 32
0.0
 14
0.0
 24
0.0
 34
0.0
 15
0.0
 25
0.0
 35
0.0
146
0.0
 13
0.0
 23
0.0
 33
0.0
 16
1.0
 26
0.0
 36
0.0
 17
0.0
 27
1.0
 37
0.0
 76
     0
330
6C
  0
LAYOUT
  5
77
102
{ACAD_REACTORS
330
62
102
}
330
62
100
AcDbPlotSettings
  1

  2

  4

  6

 40
0.0
 41
0.0
 42
0.0
 43
0.0
 44
0.0
 45
0.0
 46
0.0
 47
0.0
 48
0.0
 49
0.0
140
0.0
141
0.0
142
1.0
143
1.0
 70
   688
 72
     0
 73
     0
 74
     5
  7

 75
    16
147
1.0
 76
     0
 77
     2
 78
   300
148
0.0
149
0.0
100
AcDbLayout
  1
Layout2
 70
     1
 71
     2
 10
0.0
 20
0.0
 11
12.0
 21
9.0
 12
0.0
 22
0.0
 32
0.0
 14
0.0
 24
0.0
 34
0.0
 15
0.0
 25
0.0
 35
0.0
146
0.0
 13
0.0
 23
0.0
 33
0.0
 16
1.0
 26
0.0
 36
0.0
 17
0.0
 27
1.0
 37
0.0
 76
     0
330
74
  0
LAYOUT
  5
73
102
{ACAD_REACTORS
330
62
102
}
330
62
100
AcDbPlotSettings
  1

  2

  4

  6

 40
0.0
 41
0.0
 42
0.0
 43
0.0
 44
0.0
 45
0.0
 46
0.0
 47
0.0
 48
0.0
 49
0.0
140
0.0
141
0.0
142
1.0
143
1.0
 70
  1712
 72
     0
 73
     0
 74
     0
  7

 75
     0
147
1.0
 76
     0
 77
     2
 78
   300
148
0.0
149
0.0
100
AcDbLayout
  1
Model
 70
     1
 71
     0
 10
0.0
 20
0.0
 11
12.0
 21
9.0
 12
0.0
 22
0.0
 32
0.0
 14
0.0
 24
0.0
 34
0.0
 15
0.0
 25
0.0
 35
0.0
146
0.0
 13
0.0
 23
0.0
 33
0.0
 16
1.0
 26
0.0
 36
0.0
 17
0.0
 27
1.0
 37
0.0
 76
     0
330
70
  0
MATERIAL
  5
19
102
{ACAD_XDICTIONARY
360
1A
102
}
102
{ACAD_REACTORS
330
10
102
}
330
10
100
AcDbMaterial
  1
ByBlock
 72
     0
 43
0.0208333333333333
 43
0.0
 43
0.0
 43
0.0
 43
0.0
 43
0.0208333333333333
 43
0.0
 43
0.0
 43
0.0
 43
0.0
 43
1.0
 43
0.0
 43
0.0
 43
0.0
 43
0.0
 43
1.0
 77
     0
 47
0.0208333333333333
 47
0.0
 47
0.0
 47
0.0
 47
0.0
 47
0.0208333333333333
 47
0.0
 47
0.0
 47
0.0
 47
0.0
 47
1.0
 47
0.0
 47
0.0
 47
0.0
 47
0.0
 47
1.0
171
     0
 49
0.0208333333333333
 49
0.0
 49
0.0
 49
0.0
 49
0.0
 49
0.0208333333333333
 49
0.0
 49
0.0
 49
0.0
 49
0.0
 49
1.0
 49
0.0
 49
0.0
 49
0.0
 49
0.0
 49
1.0
175
     0
142
0.0208333333333333
142
0.0
142
0.0
142
0.0
142
0.0
142
0.0208333333333333
142
0.0
142
0.0
142
0.0
142
0.0
142
1.0
142
0.0
142
0.0
142
0.0
142
0.0
142
1.0
179
     0
144
0.0208333333333333
144
0.0
144
0.0
144
0.0
144
0.0
144
0.0208333333333333
144
0.0
144
0.0
144
0.0
144
0.0
144
1.0
144
0.0
144
0.0
144
0.0
144
0.0
144
1.0
147
0.0208333333333333
147
0.0
147
0.0
147
0.0
147
0.0
147
0.0208333333333333
147
0.0
147
0.0
147
0.0
147
0.0
147
1.0
147
0.0
147
0.0
147
0.0
147
0.0
147
1.0
  0
MATERIAL
  5
11
102
{ACAD_XDICTIONARY
360
12
102
}
102
{ACAD_REACTORS
330
10
102
}
330
10
100
AcDbMaterial
  1
ByLayer
 72
     0
 43
0.0208333333333333
 43
0.0
 43
0.0
 43
0.0
 43
0.0
 43
0.0208333333333333
 43
0.0
 43
0.0
 43
0.0
 43
0.0
 43
1.0
 43
0.0
 43
0.0
 43
0.0
 43
0.0
 43
1.0
 77
     0
 47
0.0208333333333333
 47
0.0
 47
0.0
 47
0.0
 47
0.0
 47
0.0208333333333333
 47
0.0
 47
0.0
 47
0.0
 47
0.0
 47
1.0
 47
0.0
 47
0.0
 47
0.0
 47
0.0
 47
1.0
171
     0
 49
0.0208333333333333
 49
0.0
 49
0.0
 49
0.0
 49
0.0
 49
0.0208333333333333
 49
0.0
 49
0.0
 49
0.0
 49
0.0
 49
1.0
 49
0.0
 49
0.0
 49
0.0
 49
0.0
 49
1.0
175
     0
142
0.0208333333333333
142
0.0
142
0.0
142
0.0
142
0.0
142
0.0208333333333333
142
0.0
142
0.0
142
0.0
142
0.0
142
1.0
142
0.0
142
0.0
142
0.0
142
0.0
142
1.0
179
     0
144
0.0208333333333333
144
0.0
144
0.0
144
0.0
144
0.0
144
0.0208333333333333
144
0.0
144
0.0
144
0.0
144
0.0
144
1.0
144
0.0
144
0.0
144
0.0
144
0.0
144
1.0
147
0.0208333333333333
147
0.0
147
0.0
147
0.0
147
0.0
147
0.0208333333333333
147
0.0
147
0.0
147
0.0
147
0.0
147
1.0
147
0.0
147
0.0
147
0.0
147
0.0
147
1.0
  0
MATERIAL
  5
21
102
{ACAD_XDICTIONARY
360
22
102
}
102
{ACAD_REACTORS
330
10
102
}
330
10
100
AcDbMaterial
  1
Global
 72
     0
 43
0.0208333333333333
 43
0.0
 43
0.0
 43
0.0
 43
0.0
 43
0.0208333333333333
 43
0.0
 43
0.0
 43
0.0
 43
0.0
 43
1.0
 43
0.0
 43
0.0
 43
0.0
 43
0.0
 43
1.0
 77
     0
 47
0.0208333333333333
 47
0.0
 47
0.0
 47
0.0
 47
0.0
 47
0.0208333333333333
 47
0.0
 47
0.0
 47
0.0
 47
0.0
 47
1.0
 47
0.0
 47
0.0
 47
0.0
 47
0.0
 47
1.0
171
     0
 49
0.0208333333333333
 49
0.0
 49
0.0
 49
0.0
 49
0.0
 49
0.0208333333333333
 49
0.0
 49
0.0
 49
0.0
 49
0.0
 49
1.0
 49
0.0
 49
0.0
 49
0.0
 49
0.0
 49
1.0
175
     0
142
0.0208333333333333
142
0.0
142
0.0
142
0.0
142
0.0
142
0.0208333333333333
142
0.0
142
0.0
142
0.0
142
0.0
142
1.0
142
0.0
142
0.0
142
0.0
142
0.0
142
1.0
179
     0
144
0.0208333333333333
144
0.0
144
0.0
144
0.0
144
0.0
144
0.0208333333333333
144
0.0
144
0.0
144
0.0
144
0.0
144
1.0
144
0.0
144
0.0
144
0.0
144
0.0
144
1.0
147
0.0208333333333333
147
0.0
147
0.0
147
0.0
147
0.0
147
0.0208333333333333
147
0.0
147
0.0
147
0.0
147
0.0
147
1.0
147
0.0
147
0.0
147
0.0
147
0.0
147
1.0
  0
MLEADERSTYLE
  5
67
102
{ACAD_REACTORS
330
66
102
}
330
66
100
AcDbMLeaderStyle
179
     2
170
     2
171
     1
172
     0
 90
        2
 40
0.0
 41
0.0
173
     1
 91
-1056964608
340
5B
 92
       -2
290
     1
 42
0.09
291
     1
 43
0.36
  3
Standard
 44
0.18
300

342
55
174
     1
178
     6
175
     1
176
     0
 93
-1056964608
 45
0.18
292
     0
297
     0
 46
0.18
 94
-1056964608
 47
1.0
 49
1.0
140
1.0
293
     1
141
0.0
294
     1
177
     0
142
1.0
295
     1
296
     0
143
0.125
271
     0
272
     9
273
     9
298
     1
  0
MLINESTYLE
  5
60
102
{ACAD_REACTORS
330
5F
102
}
330
5F
100
AcDbMlineStyle
  2
STANDARD
 70
     0
  3

 62
   256
 51
90.0
 52
90.0
 71
     2
 49
0.5
 62
   256
  6
BYLAYER
 49
-0.5
 62
   256
  6
BYLAYER
  0
ACDBPLACEHOLDER
  5
F
102
{ACAD_REACTORS
330
E
102
}
330
E
  0
SCALE
  5
43
102
{ACAD_REACTORS
330
42
102
}
330
42
100
AcDbScale
 70
     0
300
1:1
140
1.0
141
1.0
290
     1
  0
SCALE
  5
44
102
{ACAD_REACTORS
330
42
102
}
330
42
100
AcDbScale
 70
     0
300
1/128" = 1'-0"
140
0.0078125
141
12.0
290
     0
  0
SCALE
  5
45
102
{ACAD_REACTORS
330
42
102
}
330
42
100
AcDbScale
 70
     0
300
1/64" = 1'-0"
140
0.015625
141
12.0
290
     0
  0
SCALE
  5
46
102
{ACAD_REACTORS
330
42
102
}
330
42
100
AcDbScale
 70
     0
300
1/32" = 1'-0"
140
0.03125
141
12.0
290
     0
  0
SCALE
  5
47
102
{ACAD_REACTORS
330
42
102
}
330
42
100
AcDbScale
 70
     0
300
1/16" = 1'-0"
140
0.0625
141
12.0
290
     0
  0
SCALE
  5
48
102
{ACAD_REACTORS
330
42
102
}
330
42
100
AcDbScale
 70
     0
300
3/32" = 1'-0"
140
0.09375
141
12.0
290
     0
  0
SCALE
  5
49
102
{ACAD_REACTORS
330
42
102
}
330
42
100
AcDbScale
 70
     0
300
1/8" = 1'-0"
140
0.125
141
12.0
290
     0
  0
SCALE
  5
4A
102
{ACAD_REACTORS
330
42
102
}
330
42
100
AcDbScale
 70
     0
300
3/16" = 1'-0"
140
0.1875
141
12.0
290
     0
  0
SCALE
  5
4B
102
{ACAD_REACTORS
330
42
102
}
330
42
100
AcDbScale
 70
     0
300
1/4" = 1'-0"
140
0.25
141
12.0
290
     0
  0
SCALE
  5
4C
102
{ACAD_REACTORS
330
42
102
}
330
42
100
AcDbScale
 70
     0
300
3/8" = 1'-0"
140
0.375
141
12.0
290
     0
  0
SCALE
  5
4D
102
{ACAD_REACTORS
330
42
102
}
330
42
100
AcDbScale
 70
     0
300
1/2" = 1'-0"
140
0.5
141
12.0
290
     0
  0
SCALE
  5
4E
102
{ACAD_REACTORS
330
42
102
}
330
42
100
AcDbScale
 70
     0
300
3/4" = 1'-0"
140
0.75
141
12.0
290
     0
  0
SCALE
  5
4F
102
{ACAD_REACTORS
330
42
102
}
330
42
100
AcDbScale
 70
     0
300
1" = 1'-0"
140
1.0
141
12.0
290
     0
  0
SCALE
  5
50
102
{ACAD_REACTORS
330
42
102
}
330
42
100
AcDbScale
 70
     0
300
1-1/2" = 1'-0"
140
1.5
141
12.0
290
     0
  0
SCALE
  5
51
102
{ACAD_REACTORS
330
42
102
}
330
42
100
AcDbScale
 70
     0
300
3" = 1'-0"
140
3.0
141
12.0
290
     0
  0
SCALE
  5
52
102
{ACAD_REACTORS
330
42
102
}
330
42
100
AcDbScale
 70
     0
300
6" = 1'-0"
140
6.0
141
12.0
290
     0
  0
SCALE
  5
53
102
{ACAD_REACTORS
330
42
102
}
330
42
100
AcDbScale
 70
     0
300
1'-0" = 1'-0"
140
12.0
141
12.0
290
     0
  0
ACDBSECTIONVIEWSTYLE
  5
69
102
{ACAD_REACTORS
330
68
102
}
330
68
100
AcDbModelDocViewStyle
 70
     0
  3
Imperial24
290
     1
300
Imperial24
 90
        0
100
AcDbSectionViewStyle
 70
     0
 71
     0
 90
       78
 71
     1
340
55
 62
   256
 40
0.24
340
0
340
0
 62
   256
 40
0.24
300
I, O, Q, S, X, Z
 40
0.48
 90
        3
 40
0.18
 90
        1
 71
     2
340
5D
 90
       25
 62
   256
340
5D
 90
       50
 62
   256
 40
0.24
 40
0.0
 40
0.24
 71
     3
340
55
 62
   256
 40
0.24
 90
        1
 40
0.75
 90
        1
300
%<\AcVar ViewType \f "%tc1">% %<\AcVar ViewSectionStartId>%-%<\AcVar ViewSectionEndId>%\PSCALE %<\AcVar ViewScale \f "%sn">%
 71
     4
 62
   256
 62
   257
300
ANSI31
 40
1.0
 90
        0
290
     0
290
     0
 90
        6
 40
0.0
 40
1.570796326794896
 40
0.2617993877991494
 40
1.308996938995747
 40
-0.2617993877991494
 40
1.832595714594046
  0
TABLESTYLE
  5
65
102
{ACAD_XDICTIONARY
360
14E
102
}
102
{ACAD_REACTORS
330
64
102
}
330
64
100
AcDbTableStyle
280
     0
  3
Standard
 70
     0
 71
     0
 40
0.06
 41
0.06
280
     0
281
     0
  7
Standard
140
0.18
170
     2
 62
     0
 63
     7
283
     0
 90
      512
 91
        0
  1

274
    -2
284
     1
 64
     0
275
    -2
285
     1
 65
     0
276
    -2
286
     1
 66
     0
277
    -2
287
     1
 67
     0
278
    -2
288
     1
 68
     0
279
    -2
289
     1
 69
     0
  7
Standard
140
0.25
170
     5
 62
     0
 63
     7
283
     0
 90
      512
 91
        0
  1

274
    -2
284
     1
 64
     0
275
    -2
285
     1
 65
     0
276
    -2
286
     1
 66
     0
277
    -2
287
     1
 67
     0
278
    -2
288
     1
 68
     0
279
    -2
289
     1
 69
     0
  7
Standard
140
0.18
170
     5
 62
     0
 63
     7
283
     0
 90
      512
 91
        0
  1

274
    -2
284
     1
 64
     0
275
    -2
285
     1
 65
     0
276
    -2
286
     1
 66
     0
277
    -2
287
     1
 67
     0
278
    -2
288
     1
 68
     0
279
    -2
289
     1
 69
     0
  0
VISUALSTYLE
  5
2F
102
{ACAD_REACTORS
330
29
102
}
330
29
100
AcDbVisualStyle
  2
2dWireframe
 70
     4
177
     3
291
     0
 70
    58
 90
        0
176
     1
 90
        2
176
     1
 90
        0
176
     1
 90
        0
176
     1
 40
0.6
176
     1
 40
30.0
176
     1
 62
     7
420
 16777215
176
     1
 90
        1
176
     1
 90
        4
176
     1
 62
     7
176
     1
 62
   257
176
     1
 90
        1
176
     1
 90
        1
176
     1
 40
1.0
176
     1
 90
        0
176
     1
 62
   257
176
     1
 40
1.0
176
     1
 90
        1
176
     1
 90
        6
176
     1
 90
        2
176
     1
 62
     7
176
     1
 90
        5
176
     1
 90
        0
176
     1
 90
        0
176
     1
290
     0
176
     1
 90
        1
176
     1
 40
0.0
176
     1
 90
        0
176
     1
290
     1
176
     1
290
     1
176
     1
290
     0
176
     1
290
     0
176
     1
290
     0
176
     1
290
     0
176
     1
290
     0
176
     1
290
     0
176
     1
290
     0
176
     1
 90
       50
176
     1
 40
0.0
176
     1
 40
1.0
176
     1
 90
        0
176
     1
 62
    18
420
        0
176
     1
 90
       50
176
     1
 90
        3
176
     1
 62
     5
420
      255
176
     1
290
     0
176
     1
 90
       50
176
     1
 90
       50
176
     1
 90
       50
176
     1
290
     0
176
     1
 90
       50
176
     1
 62
   256
176
     0
 40
1.0
176
     0
 90
        2
176
     1
  1
strokes_ogs.tif
176
     1
290
     0
176
     1
 40
1.0
176
     1
 40
1.0
176
     1
  0
VISUALSTYLE
  5
2E
102
{ACAD_REACTORS
330
29
102
}
330
29
100
AcDbVisualStyle
  2
Basic
 70
     7
177
     3
291
     1
 70
    58
 90
        1
176
     1
 90
        0
176
     1
 90
        1
176
     1
 90
        0
176
     1
 40
0.6
176
     1
 40
30.0
176
     1
 62
     7
420
 16777215
176
     1
 90
        0
176
     1
 90
        4
176
     1
 62
     7
176
     1
 62
   257
176
     1
 90
        1
176
     1
 90
        1
176
     1
 40
1.0
176
     1
 90
        8
176
     1
 62
     7
176
     1
 40
1.0
176
     1
 90
        1
176
     1
 90
        6
176
     1
 90
        2
176
     1
 62
     7
176
     1
 90
        5
176
     1
 90
        0
176
     1
 90
        0
176
     1
290
     0
176
     1
 90
        1
176
     1
 40
0.0
176
     1
 90
        0
176
     1
290
     0
176
     1
290
     1
176
     1
290
     1
176
     1
290
     0
176
     1
290
     0
176
     1
290
     0
176
     1
290
     0
176
     1
290
     0
176
     1
290
     0
176
     1
 90
       50
176
     1
 40
0.0
176
     1
 40
1.0
176
     1
 90
        0
176
     1
 62
    18
420
        0
176
     1
 90
       50
176
     1
 90
        3
176
     1
 62
     5
420
      255
176
     1
290
     0
176
     1
 90
       50
176
     1
 90
       50
176
     1
 90
       50
176
     1
290
     0
176
     1
 90
       50
176
     1
 62
   256
176
     0
 40
1.0
176
     0
 90
        2
176
     1
  1
strokes_ogs.tif
176
     1
290
     0
176
     1
 40
1.0
176
     1
 40
1.0
176
     1
  0
VISUALSTYLE
  5
35
102
{ACAD_REACTORS
330
29
102
}
330
29
100
AcDbVisualStyle
  2
Brighten
 70
    12
177
     3
291
     1
 70
    58
 90
        2
176
     1
 90
        2
176
     1
 90
        0
176
     1
 90
        0
176
     1
 40
0.6
176
     1
 40
30.0
176
     1
 62
     7
420
 16777215
176
     1
 90
        1
176
     1
 90
        4
176
     1
 62
     7
176
     1
 62
   257
176
     1
 90
        1
176
     1
 90
        1
176
     1
 40
1.0
176
     1
 90
        8
176
     1
 62
     7
176
     1
 40
1.0
176
     1
 90
        1
176
     1
 90
        6
176
     1
 90
        2
176
     1
 62
     7
176
     1
 90
        5
176
     1
 90
        0
176
     1
 90
        0
176
     1
290
     0
176
     1
 90
        1
176
     1
 40
50.0
176
     1
 90
        0
176
     1
290
     0
176
     1
290
     1
176
     1
290
     1
176
     1
290
     0
176
     1
290
     0
176
     1
290
     0
176
     1
290
     0
176
     1
290
     0
176
     1
290
     0
176
     1
 90
       50
176
     1
 40
0.0
176
     1
 40
1.0
176
     1
 90
        0
176
     1
 62
    18
420
        0
176
     1
 90
       50
176
     1
 90
        3
176
     1
 62
     5
420
      255
176
     1
290
     0
176
     1
 90
       50
176
     1
 90
       50
176
     1
 90
       50
176
     1
290
     0
176
     1
 90
       50
176
     1
 62
   256
176
     0
 40
1.0
176
     0
 90
        2
176
     1
  1
strokes_ogs.tif
176
     1
290
     0
176
     1
 40
1.0
176
     1
 40
1.0
176
     1
  0
VISUALSTYLE
  5
39
102
{ACAD_REACTORS
330
29
102
}
330
29
100
AcDbVisualStyle
  2
ColorChange
 70
    16
177
     3
291
     1
 70
    58
 90
        2
176
     1
 90
        2
176
     1
 90
        3
176
     1
 90
        0
176
     1
 40
0.6
176
     1
 40
30.0
176
     1
 62
     8
420
  8421504
176
     1
 90
        1
176
     1
 90
        4
176
     1
 62
     7
176
     1
 62
   257
176
     1
 90
        1
176
     1
 90
        1
176
     1
 40
1.0
176
     1
 90
        8
176
     1
 62
     8
420
  8421504
176
     1
 40
1.0
176
     1
 90
        1
176
     1
 90
        6
176
     1
 90
        2
176
     1
 62
     7
176
     1
 90
        5
176
     1
 90
        0
176
     1
 90
        0
176
     1
290
     0
176
     1
 90
        1
176
     1
 40
0.0
176
     1
 90
        0
176
     1
290
     0
176
     1
290
     1
176
     1
290
     1
176
     1
290
     0
176
     1
290
     0
176
     1
290
     0
176
     1
290
     0
176
     1
290
     0
176
     1
290
     0
176
     1
 90
       50
176
     1
 40
0.0
176
     1
 40
1.0
176
     1
 90
        0
176
     1
 62
    18
420
        0
176
     1
 90
       50
176
     1
 90
        3
176
     1
 62
     5
420
      255
176
     1
290
     0
176
     1
 90
       50
176
     1
 90
       50
176
     1
 90
       50
176
     1
290
     0
176
     1
 90
       50
176
     1
 62
   256
176
     0
 40
1.0
176
     0
 90
        2
176
     1
  1
strokes_ogs.tif
176
     1
290
     0
176
     1
 40
1.0
176
     1
 40
1.0
176
     1
  0
VISUALSTYLE
  5
32
102
{ACAD_REACTORS
330
29
102
}
330
29
100
AcDbVisualStyle
  2
Conceptual
 70
     9
177
     3
291
     0
 70
    58
 90
        3
176
     1
 90
        2
176
     1
 90
        0
176
     1
 90
        0
176
     1
 40
0.6
176
     1
 40
30.0
176
     1
 62
     7
420
 16777215
176
     1
 90
        2
176
     1
 90
        2
176
     1
 62
     7
176
     1
 62
   257
176
     1
 90
        1
176
     1
 90
        1
176
     1
 40
179.0
176
     1
 90
        8
176
     1
 62
     7
176
     1
 40
1.0
176
     1
 90
        1
176
     1
 90
        6
176
     1
 90
        2
176
     1
 62
     7
176
     1
 90
        3
176
     1
 90
        0
176
     1
 90
        0
176
     1
290
     0
176
     1
 90
        1
176
     1
 40
0.0
176
     1
 90
        0
176
     1
290
     0
176
     1
290
     1
176
     1
290
     1
176
     1
290
     0
176
     1
290
     0
176
     1
290
     0
176
     1
290
     0
176
     1
290
     0
176
     1
290
     0
176
     1
 90
       50
176
     1
 40
0.0
176
     1
 40
1.0
176
     1
 90
        0
176
     1
 62
    18
420
        0
176
     1
 90
       50
176
     1
 90
        3
176
     1
 62
     5
420
      255
176
     1
290
     0
176
     1
 90
       50
176
     1
 90
       50
176
     1
 90
       50
176
     1
290
     0
176
     1
 90
       50
176
     1
 62
   256
176
     0
 40
1.0
176
     0
 90
        2
176
     1
  1
strokes_ogs.tif
176
     1
290
     0
176
     1
 40
1.0
176
     1
 40
1.0
176
     1
  0
VISUALSTYLE
  5
34
102
{ACAD_REACTORS
330
29
102
}
330
29
100
AcDbVisualStyle
  2
Dim
 70
    11
177
     3
291
     1
 70
    58
 90
        2
176
     1
 90
        2
176
     1
 90
        0
176
     1
 90
        0
176
     1
 40
0.6
176
     1
 40
30.0
176
     1
 62
     7
420
 16777215
176
     1
 90
        1
176
     1
 90
        4
176
     1
 62
     7
176
     1
 62
   257
176
     1
 90
        1
176
     1
 90
        1
176
     1
 40
1.0
176
     1
 90
        8
176
     1
 62
     7
176
     1
 40
1.0
176
     1
 90
        1
176
     1
 90
        6
176
     1
 90
        2
176
     1
 62
     7
176
     1
 90
        5
176
     1
 90
        0
176
     1
 90
        0
176
     1
290
     0
176
     1
 90
        1
176
     1
 40
-50.0
176
     1
 90
        0
176
     1
290
     0
176
     1
290
     1
176
     1
290
     1
176
     1
290
     0
176
     1
290
     0
176
     1
290
     0
176
     1
290
     0
176
     1
290
     0
176
     1
290
     0
176
     1
 90
       50
176
     1
 40
0.0
176
     1
 40
1.0
176
     1
 90
        0
176
     1
 62
    18
420
        0
176
     1
 90
       50
176
     1
 90
        3
176
     1
 62
     5
420
      255
176
     1
290
     0
176
     1
 90
       50
176
     1
 90
       50
176
     1
 90
       50
176
     1
290
     0
176
     1
 90
       50
176
     1
 62
   256
176
     0
 40
1.0
176
     0
 90
        2
176
     1
  1
strokes_ogs.tif
176
     1
290
     0
176
     1
 40
1.0
176
     1
 40
1.0
176
     1
  0
VISUALSTYLE
  5
41
102
{ACAD_REACTORS
330
29
102
}
330
29
100
AcDbVisualStyle
  2
EdgeColorOff
 70
    22
177
     3
291
     1
 70
    58
 90
        2
176
     0
 90
        2
176
     0
 90
        0
176
     0
 90
        0
176
     0
 40
0.6
176
     0
 40
30.0
176
     0
 62
     7
420
 16777215
176
     0
 90
        1
176
     0
 90
        4
176
     0
 62
     7
176
     0
 62
   257
176
     0
 90
        1
176
     0
 90
        1
176
     0
 40
1.0
176
     0
 90
        8
176
     2
 62
     7
176
     0
 40
1.0
176
     0
 90
        1
176
     0
 90
        6
176
     0
 90
        2
176
     0
 62
     7
176
     0
 90
        5
176
     0
 90
        0
176
     0
 90
        0
176
     0
290
     0
176
     0
 90
        1
176
     0
 40
0.0
176
     0
 90
        0
176
     0
290
     0
176
     0
290
     1
176
     0
290
     1
176
     0
290
     0
176
     0
290
     0
176
     0
290
     0
176
     0
290
     0
176
     0
290
     0
176
     0
290
     0
176
     0
 90
       50
176
     0
 40
0.0
176
     0
 40
1.0
176
     0
 90
        0
176
     0
 62
    18
420
        0
176
     0
 90
       50
176
     0
 90
        3
176
     0
 62
     5
420
      255
176
     0
290
     0
176
     0
 90
       50
176
     0
 90
       50
176
     0
 90
       50
176
     0
290
     0
176
     0
 90
       50
176
     0
 62
   256
176
     0
 40
1.0
176
     0
 90
        2
176
     0
  1
strokes_ogs.tif
176
     0
290
     0
176
     0
 40
1.0
176
     0
 40
1.0
176
     0
  0
VISUALSTYLE
  5
38
102
{ACAD_REACTORS
330
29
102
}
330
29
100
AcDbVisualStyle
  2
Facepattern
 70
    15
177
     3
291
     1
 70
    58
 90
        2
176
     1
 90
        2
176
     1
 90
        0
176
     1
 90
        0
176
     1
 40
0.6
176
     1
 40
30.0
176
     1
 62
     7
420
 16777215
176
     1
 90
        1
176
     1
 90
        4
176
     1
 62
     7
176
     1
 62
   257
176
     1
 90
        1
176
     1
 90
        1
176
     1
 40
1.0
176
     1
 90
        8
176
     1
 62
     7
176
     1
 40
1.0
176
     1
 90
        1
176
     1
 90
        6
176
     1
 90
        2
176
     1
 62
     7
176
     1
 90
        5
176
     1
 90
        0
176
     1
 90
        0
176
     1
290
     0
176
     1
 90
        1
176
     1
 40
0.0
176
     1
 90
        0
176
     1
290
     0
176
     1
290
     1
176
     1
290
     1
176
     1
290
     0
176
     1
290
     0
176
     1
290
     0
176
     1
290
     0
176
     1
290
     0
176
     1
290
     0
176
     1
 90
       50
176
     1
 40
0.0
176
     1
 40
1.0
176
     1
 90
        0
176
     1
 62
    18
420
        0
176
     1
 90
       50
176
     1
 90
        3
176
     1
 62
     5
420
      255
176
     1
290
     0
176
     1
 90
       50
176
     1
 90
       50
176
     1
 90
       50
176
     1
290
     0
176
     1
 90
       50
176
     1
 62
   256
176
     0
 40
1.0
176
     0
 90
        2
176
     1
  1
strokes_ogs.tif
176
     1
290
     0
176
     1
 40
1.0
176
     1
 40
1.0
176
     1
  0
VISUALSTYLE
  5
2A
102
{ACAD_REACTORS
330
29
102
}
330
29
100
AcDbVisualStyle
  2
Flat
 70
     0
177
     3
291
     1
 70
    58
 90
        2
176
     1
 90
        1
176
     1
 90
        1
176
     1
 90
        2
176
     1
 40
0.6
176
     1
 40
30.0
176
     1
 62
     7
420
 16777215
176
     1
 90
        0
176
     1
 90
        0
176
     1
 62
     7
176
     1
 62
   257
176
     1
 90
        1
176
     1
 90
        1
176
     1
 40
1.0
176
     1
 90
        8
176
     1
 62
     7
176
     1
 40
1.0
176
     1
 90
        1
176
     1
 90
        6
176
     1
 90
        2
176
     1
 62
     7
176
     1
 90
        5
176
     1
 90
        0
176
     1
 90
        0
176
     1
290
     0
176
     1
 90
       13
176
     1
 40
0.0
176
     1
 90
        0
176
     1
290
     0
176
     1
290
     1
176
     1
290
     1
176
     1
290
     0
176
     1
290
     0
176
     1
290
     0
176
     1
290
     0
176
     1
290
     0
176
     1
290
     0
176
     1
 90
       50
176
     1
 40
0.0
176
     1
 40
1.0
176
     1
 90
        0
176
     1
 62
    18
420
        0
176
     1
 90
       50
176
     1
 90
        3
176
     1
 62
     5
420
      255
176
     1
290
     0
176
     1
 90
       50
176
     1
 90
       50
176
     1
 90
       50
176
     1
290
     0
176
     1
 90
       50
176
     1
 62
   256
176
     0
 40
1.0
176
     0
 90
        2
176
     1
  1
strokes_ogs.tif
176
     1
290
     0
176
     1
 40
1.0
176
     1
 40
1.0
176
     1
  0
VISUALSTYLE
  5
2B
102
{ACAD_REACTORS
330
29
102
}
330
29
100
AcDbVisualStyle
  2
FlatWithEdges
 70
     1
177
     3
291
     1
 70
    58
 90
        2
176
     1
 90
        1
176
     1
 90
        1
176
     1
 90
        2
176
     1
 40
0.6
176
     1
 40
30.0
176
     1
 62
     7
420
 16777215
176
     1
 90
        1
176
     1
 90
        0
176
     1
 62
     7
176
     1
 62
   257
176
     1
 90
        1
176
     1
 90
        1
176
     1
 40
1.0
176
     1
 90
        0
176
     1
 62
   257
176
     1
 40
1.0
176
     1
 90
        1
176
     1
 90
        6
176
     1
 90
        2
176
     1
 62
     7
176
     1
 90
        5
176
     1
 90
        0
176
     1
 90
        0
176
     1
290
     0
176
     1
 90
       13
176
     1
 40
0.0
176
     1
 90
        0
176
     1
290
     0
176
     1
290
     1
176
     1
290
     1
176
     1
290
     0
176
     1
290
     0
176
     1
290
     0
176
     1
290
     0
176
     1
290
     0
176
     1
290
     0
176
     1
 90
       50
176
     1
 40
0.0
176
     1
 40
1.0
176
     1
 90
        0
176
     1
 62
    18
420
        0
176
     1
 90
       50
176
     1
 90
        3
176
     1
 62
     5
420
      255
176
     1
290
     0
176
     1
 90
       50
176
     1
 90
       50
176
     1
 90
       50
176
     1
290
     0
176
     1
 90
       50
176
     1
 62
   256
176
     0
 40
1.0
176
     0
 90
        2
176
     1
  1
strokes_ogs.tif
176
     1
290
     0
176
     1
 40
1.0
176
     1
 40
1.0
176
     1
  0
VISUALSTYLE
  5
2C
102
{ACAD_REACTORS
330
29
102
}
330
29
100
AcDbVisualStyle
  2
Gouraud
 70
     2
177
     3
291
     1
 70
    58
 90
        2
176
     1
 90
        2
176
     1
 90
        1
176
     1
 90
        2
176
     1
 40
0.6
176
     1
 40
30.0
176
     1
 62
     7
420
 16777215
176
     1
 90
        0
176
     1
 90
        0
176
     1
 62
     7
176
     1
 62
   257
176
     1
 90
        1
176
     1
 90
        1
176
     1
 40
1.0
176
     1
 90
        0
176
     1
 62
     7
176
     1
 40
1.0
176
     1
 90
        1
176
     1
 90
        6
176
     1
 90
        2
176
     1
 62
     7
176
     1
 90
        5
176
     1
 90
        0
176
     1
 90
        0
176
     1
290
     0
176
     1
 90
       13
176
     1
 40
0.0
176
     1
 90
        0
176
     1
290
     0
176
     1
290
     1
176
     1
290
     1
176
     1
290
     0
176
     1
290
     0
176
     1
290
     0
176
     1
290
     0
176
     1
290
     0
176
     1
290
     0
176
     1
 90
       50
176
     1
 40
0.0
176
     1
 40
1.0
176
     1
 90
        0
176
     1
 62
    18
420
        0
176
     1
 90
       50
176
     1
 90
        3
176
     1
 62
     5
420
      255
176
     1
290
     0
176
     1
 90
       50
176
     1
 90
       50
176
     1
 90
       50
176
     1
290
     0
176
     1
 90
       50
176
     1
 62
   256
176
     0
 40
1.0
176
     0
 90
        2
176
     1
  1
strokes_ogs.tif
176
     1
290
     0
176
     1
 40
1.0
176
     1
 40
1.0
176
     1
  0
VISUALSTYLE
  5
2D
102
{ACAD_REACTORS
330
29
102
}
330
29
100
AcDbVisualStyle
  2
GouraudWithEdges
 70
     3
177
     3
291
     1
 70
    58
 90
        2
176
     1
 90
        2
176
     1
 90
        1
176
     1
 90
        2
176
     1
 40
0.6
176
     1
 40
30.0
176
     1
 62
     7
420
 16777215
176
     1
 90
        1
176
     1
 90
        0
176
     1
 62
     7
176
     1
 62
   257
176
     1
 90
        1
176
     1
 90
        1
176
     1
 40
1.0
176
     1
 90
        0
176
     1
 62
   257
176
     1
 40
1.0
176
     1
 90
        1
176
     1
 90
        6
176
     1
 90
        2
176
     1
 62
     7
176
     1
 90
        5
176
     1
 90
        0
176
     1
 90
        0
176
     1
290
     0
176
     1
 90
       13
176
     1
 40
0.0
176
     1
 90
        0
176
     1
290
     0
176
     1
290
     1
176
     1
290
     1
176
     1
290
     0
176
     1
290
     0
176
     1
290
     0
176
     1
290
     0
176
     1
290
     0
176
     1
290
     0
176
     1
 90
       50
176
     1
 40
0.0
176
     1
 40
1.0
176
     1
 90
        0
176
     1
 62
    18
420
        0
176
     1
 90
       50
176
     1
 90
        3
176
     1
 62
     5
420
      255
176
     1
290
     0
176
     1
 90
       50
176
     1
 90
       50
176
     1
 90
       50
176
     1
290
     0
176
     1
 90
       50
176
     1
 62
   256
176
     0
 40
1.0
176
     0
 90
        2
176
     1
  1
strokes_ogs.tif
176
     1
290
     0
176
     1
 40
1.0
176
     1
 40
1.0
176
     1
  0
VISUALSTYLE
  5
31
102
{ACAD_REACTORS
330
29
102
}
330
29
100
AcDbVisualStyle
  2
Hidden
 70
     6
177
     3
291
     0
 70
    58
 90
        1
176
     1
 90
        2
176
     1
 90
        2
176
     1
 90
        0
176
     1
 40
0.6
176
     1
 40
30.0
176
     1
 62
     7
420
 16777215
176
     1
 90
        2
176
     1
 90
        2
176
     1
 62
     7
176
     1
 62
   257
176
     1
 90
        2
176
     1
 90
        1
176
     1
 40
40.0
176
     1
 90
        0
176
     1
 62
   257
176
     1
 40
1.0
176
     1
 90
        1
176
     1
 90
        6
176
     1
 90
        2
176
     1
 62
     7
176
     1
 90
        3
176
     1
 90
        0
176
     1
 90
        0
176
     1
290
     0
176
     1
 90
        1
176
     1
 40
0.0
176
     1
 90
        0
176
     1
290
     0
176
     1
290
     1
176
     1
290
     1
176
     1
290
     0
176
     1
290
     0
176
     1
290
     0
176
     1
290
     0
176
     1
290
     0
176
     1
290
     0
176
     1
 90
       50
176
     1
 40
0.0
176
     1
 40
1.0
176
     1
 90
        0
176
     1
 62
    18
420
        0
176
     1
 90
       50
176
     1
 90
        3
176
     1
 62
     5
420
      255
176
     1
290
     0
176
     1
 90
       50
176
     1
 90
       50
176
     1
 90
       50
176
     1
290
     0
176
     1
 90
       50
176
     1
 62
   256
176
     0
 40
1.0
176
     0
 90
        2
176
     1
  1
strokes_ogs.tif
176
     1
290
     0
176
     1
 40
1.0
176
     1
 40
1.0
176
     1
  0
VISUALSTYLE
  5
3F
102
{ACAD_REACTORS
330
29
102
}
330
29
100
AcDbVisualStyle
  2
JitterOff
 70
    20
177
     3
291
     1
 70
    58
 90
        2
176
     0
 90
        2
176
     0
 90
        0
176
     0
 90
        0
176
     0
 40
0.6
176
     0
 40
30.0
176
     0
 62
     7
420
 16777215
176
     0
 90
        1
176
     0
 90
        4
176
     0
 62
     7
176
     0
 62
   257
176
     0
 90
        1
176
     0
 90
        1
176
     0
 40
1.0
176
     0
 90
       10
176
     2
 62
     7
176
     0
 40
1.0
176
     0
 90
        1
176
     0
 90
        6
176
     0
 90
        2
176
     0
 62
     7
176
     0
 90
        5
176
     0
 90
        0
176
     0
 90
        0
176
     0
290
     0
176
     0
 90
        1
176
     0
 40
0.0
176
     0
 90
        0
176
     0
290
     0
176
     0
290
     1
176
     0
290
     1
176
     0
290
     0
176
     0
290
     0
176
     0
290
     0
176
     0
290
     0
176
     0
290
     0
176
     0
290
     0
176
     0
 90
       50
176
     0
 40
0.0
176
     0
 40
1.0
176
     0
 90
        0
176
     0
 62
    18
420
        0
176
     0
 90
       50
176
     0
 90
        3
176
     0
 62
     5
420
      255
176
     0
290
     0
176
     0
 90
       50
176
     0
 90
       50
176
     0
 90
       50
176
     0
290
     0
176
     0
 90
       50
176
     0
 62
   256
176
     0
 40
1.0
176
     0
 90
        2
176
     0
  1
strokes_ogs.tif
176
     0
290
     0
176
     0
 40
1.0
176
     0
 40
1.0
176
     0
  0
VISUALSTYLE
  5
37
102
{ACAD_REACTORS
330
29
102
}
330
29
100
AcDbVisualStyle
  2
Linepattern
 70
    14
177
     3
291
     1
 70
    58
 90
        2
176
     1
 90
        2
176
     1
 90
        0
176
     1
 90
        0
176
     1
 40
0.6
176
     1
 40
30.0
176
     1
 62
     7
420
 16777215
176
     1
 90
        1
176
     1
 90
        4
176
     1
 62
     7
176
     1
 62
   257
176
     1
 90
        7
176
     1
 90
        7
176
     1
 40
1.0
176
     1
 90
        8
176
     1
 62
     7
176
     1
 40
1.0
176
     1
 90
        1
176
     1
 90
        6
176
     1
 90
        2
176
     1
 62
     7
176
     1
 90
        5
176
     1
 90
        0
176
     1
 90
        0
176
     1
290
     0
176
     1
 90
        1
176
     1
 40
0.0
176
     1
 90
        0
176
     1
290
     0
176
     1
290
     1
176
     1
290
     1
176
     1
290
     0
176
     1
290
     0
176
     1
290
     0
176
     1
290
     0
176
     1
290
     0
176
     1
290
     0
176
     1
 90
       50
176
     1
 40
0.0
176
     1
 40
1.0
176
     1
 90
        0
176
     1
 62
    18
420
        0
176
     1
 90
       50
176
     1
 90
        3
176
     1
 62
     5
420
      255
176
     1
290
     0
176
     1
 90
       50
176
     1
 90
       50
176
     1
 90
       50
176
     1
290
     0
176
     1
 90
       50
176
     1
 62
   256
176
     0
 40
1.0
176
     0
 90
        2
176
     1
  1
strokes_ogs.tif
176
     1
290
     0
176
     1
 40
1.0
176
     1
 40
1.0
176
     1
  0
VISUALSTYLE
  5
40
102
{ACAD_REACTORS
330
29
102
}
330
29
100
AcDbVisualStyle
  2
OverhangOff
 70
    21
177
     3
291
     1
 70
    58
 90
        2
176
     0
 90
        2
176
     0
 90
        0
176
     0
 90
        0
176
     0
 40
0.6
176
     0
 40
30.0
176
     0
 62
     7
420
 16777215
176
     0
 90
        1
176
     0
 90
        4
176
     0
 62
     7
176
     0
 62
   257
176
     0
 90
        1
176
     0
 90
        1
176
     0
 40
1.0
176
     0
 90
        9
176
     2
 62
     7
176
     0
 40
1.0
176
     0
 90
        1
176
     0
 90
        6
176
     0
 90
        2
176
     0
 62
     7
176
     0
 90
        5
176
     0
 90
        0
176
     0
 90
        0
176
     0
290
     0
176
     0
 90
        1
176
     0
 40
0.0
176
     0
 90
        0
176
     0
290
     0
176
     0
290
     1
176
     0
290
     1
176
     0
290
     0
176
     0
290
     0
176
     0
290
     0
176
     0
290
     0
176
     0
290
     0
176
     0
290
     0
176
     0
 90
       50
176
     0
 40
0.0
176
     0
 40
1.0
176
     0
 90
        0
176
     0
 62
    18
420
        0
176
     0
 90
       50
176
     0
 90
        3
176
     0
 62
     5
420
      255
176
     0
290
     0
176
     0
 90
       50
176
     0
 90
       50
176
     0
 90
       50
176
     0
290
     0
176
     0
 90
       50
176
     0
 62
   256
176
     0
 40
1.0
176
     0
 90
        2
176
     0
  1
strokes_ogs.tif
176
     0
290
     0
176
     0
 40
1.0
176
     0
 40
1.0
176
     0
  0
VISUALSTYLE
  5
33
102
{ACAD_REACTORS
330
29
102
}
330
29
100
AcDbVisualStyle
  2
Realistic
 70
     8
177
     3
291
     0
 70
    58
 90
        2
176
     1
 90
        3
176
     1
 90
        0
176
     1
 90
        2
176
     1
 40
0.6
176
     1
 40
30.0
176
     1
 62
     7
420
 16777215
176
     1
 90
        0
176
     1
 90
        0
176
     1
 62
     7
176
     1
 62
   257
176
     1
 90
        1
176
     1
 90
        1
176
     1
 40
1.0
176
     1
 90
        8
176
     1
 62
   257
176
     1
 40
1.0
176
     1
 90
        1
176
     1
 90
        6
176
     1
 90
        2
176
     1
 62
     7
176
     1
 90
        3
176
     1
 90
        0
176
     1
 90
        0
176
     1
290
     0
176
     1
 90
       13
176
     1
 40
0.0
176
     1
 90
        0
176
     1
290
     0
176
     1
290
     1
176
     1
290
     1
176
     1
290
     0
176
     1
290
     0
176
     1
290
     0
176
     1
290
     0
176
     1
290
     0
176
     1
290
     0
176
     1
 90
       50
176
     1
 40
0.0
176
     1
 40
1.0
176
     1
 90
        0
176
     1
 62
    18
420
        0
176
     1
 90
       50
176
     1
 90
        3
176
     1
 62
     5
420
      255
176
     1
290
     0
176
     1
 90
       50
176
     1
 90
       50
176
     1
 90
       50
176
     1
290
     0
176
     1
 90
       50
176
     1
 62
   256
176
     0
 40
1.0
176
     0
 90
        2
176
     1
  1
strokes_ogs.tif
176
     1
290
     0
176
     1
 40
1.0
176
     1
 40
1.0
176
     1
  0
VISUALSTYLE
  5
3E
102
{ACAD_REACTORS
330
29
102
}
330
29
100
AcDbVisualStyle
  2
Shaded
 70
    27
177
     3
291
     0
 70
    58
 90
        2
176
     1
 90
        2
176
     1
 90
        1
176
     1
 90
        2
176
     1
 40
0.6
176
     1
 40
30.0
176
     1
 62
     7
420
 16777215
176
     1
 90
        0
176
     1
 90
        4
176
     1
 62
     7
176
     1
 62
   257
176
     1
 90
        1
176
     1
 90
        1
176
     1
 40
1.0
176
     1
 90
        8
176
     1
 62
   257
176
     1
 40
1.0
176
     1
 90
        1
176
     1
 90
        6
176
     1
 90
        2
176
     1
 62
     8
420
  7895160
176
     1
 90
        3
176
     1
 90
        0
176
     1
 90
        0
176
     1
290
     0
176
     1
 90
        5
176
     1
 40
0.0
176
     1
 90
        0
176
     1
290
     0
176
     1
290
     1
176
     1
290
     1
176
     1
290
     0
176
     1
290
     0
176
     1
290
     0
176
     1
290
     0
176
     1
290
     0
176
     1
290
     0
176
     1
 90
       50
176
     1
 40
0.0
176
     1
 40
1.0
176
     1
 90
        0
176
     1
 62
    18
420
        0
176
     1
 90
       50
176
     1
 90
        3
176
     1
 62
     5
420
      255
176
     1
290
     0
176
     1
 90
       50
176
     1
 90
       50
176
     1
 90
       50
176
     1
290
     0
176
     1
 90
       50
176
     1
 62
   256
176
     0
 40
1.0
176
     0
 90
        2
176
     1
  1
strokes_ogs.tif
176
     1
290
     0
176
     1
 40
1.0
176
     1
 40
1.0
176
     1
  0
VISUALSTYLE
  5
3D
102
{ACAD_REACTORS
330
29
102
}
330
29
100
AcDbVisualStyle
  2
Shaded with edges
 70
    26
177
     3
291
     0
 70
    58
 90
        2
176
     1
 90
        2
176
     1
 90
        1
176
     1
 90
        2
176
     1
 40
0.6
176
     1
 40
30.0
176
     1
 62
     7
420
 16777215
176
     1
 90
        1
176
     1
 90
        2
176
     1
 62
     7
176
     1
 62
   257
176
     1
 90
        2
176
     1
 90
        1
176
     1
 40
1.0
176
     1
 90
        8
176
     1
 62
   257
176
     1
 40
1.0
176
     1
 90
        1
176
     1
 90
        6
176
     1
 90
        2
176
     1
 62
     7
176
     1
 90
        3
176
     1
 90
        0
176
     1
 90
        0
176
     1
290
     0
176
     1
 90
        5
176
     1
 40
0.0
176
     1
 90
        0
176
     1
290
     0
176
     1
290
     1
176
     1
290
     1
176
     1
290
     0
176
     1
290
     0
176
     1
290
     0
176
     1
290
     0
176
     1
290
     0
176
     1
290
     0
176
     1
 90
       50
176
     1
 40
0.0
176
     1
 40
1.0
176
     1
 90
        0
176
     1
 62
    18
420
        0
176
     1
 90
       50
176
     1
 90
        3
176
     1
 62
     5
420
      255
176
     1
290
     0
176
     1
 90
       50
176
     1
 90
       50
176
     1
 90
       50
176
     1
290
     0
176
     1
 90
       50
176
     1
 62
   256
176
     0
 40
1.0
176
     0
 90
        2
176
     1
  1
strokes_ogs.tif
176
     1
290
     0
176
     1
 40
1.0
176
     1
 40
1.0
176
     1
  0
VISUALSTYLE
  5
3A
102
{ACAD_REACTORS
330
29
102
}
330
29
100
AcDbVisualStyle
  2
Shades of Gray
 70
    23
177
     3
291
     0
 70
    58
 90
        2
176
     1
 90
        2
176
     1
 90
        3
176
     1
 90
        0
176
     1
 40
0.6
176
     1
 40
30.0
176
     1
 62
     7
420
 16777215
176
     1
 90
        2
176
     1
 90
        2
176
     1
 62
     7
176
     1
 62
     7
176
     1
 90
        1
176
     1
 90
        1
176
     1
 40
40.0
176
     1
 90
        8
176
     1
 62
     7
176
     1
 40
1.0
176
     1
 90
        1
176
     1
 90
        6
176
     1
 90
        2
176
     1
 62
     7
176
     1
 90
        3
176
     1
 90
        0
176
     1
 90
        0
176
     1
290
     0
176
     1
 90
        1
176
     1
 40
0.0
176
     1
 90
        0
176
     1
290
     0
176
     1
290
     1
176
     1
290
     1
176
     1
290
     0
176
     1
290
     0
176
     1
290
     0
176
     1
290
     0
176
     1
290
     0
176
     1
290
     0
176
     1
 90
       50
176
     1
 40
0.0
176
     1
 40
1.0
176
     1
 90
        0
176
     1
 62
    18
420
        0
176
     1
 90
       50
176
     1
 90
        3
176
     1
 62
     5
420
      255
176
     1
290
     0
176
     1
 90
       50
176
     1
 90
       50
176
     1
 90
       50
176
     1
290
     0
176
     1
 90
       50
176
     1
 62
   256
176
     0
 40
1.0
176
     0
 90
        2
176
     1
  1
strokes_ogs.tif
176
     1
290
     0
176
     1
 40
1.0
176
     1
 40
1.0
176
     1
  0
VISUALSTYLE
  5
3B
102
{ACAD_REACTORS
330
29
102
}
330
29
100
AcDbVisualStyle
  2
Sketchy
 70
    24
177
     3
291
     0
 70
    58
 90
        1
176
     1
 90
        2
176
     1
 90
        2
176
     1
 90
        0
176
     1
 40
0.6
176
     1
 40
30.0
176
     1
 62
     7
420
 16777215
176
     1
 90
        2
176
     1
 90
        2
176
     1
 62
     7
176
     1
 62
     7
176
     1
 90
        1
176
     1
 90
        1
176
     1
 40
40.0
176
     1
 90
       11
176
     1
 62
     7
176
     1
 40
1.0
176
     1
 90
        1
176
     1
 90
        6
176
     1
 90
        2
176
     1
 62
     7
176
     1
 90
        6
176
     1
 90
        0
176
     1
 90
        0
176
     1
290
     0
176
     1
 90
        1
176
     1
 40
0.0
176
     1
 90
        0
176
     1
290
     0
176
     1
290
     1
176
     1
290
     1
176
     1
290
     0
176
     1
290
     0
176
     1
290
     0
176
     1
290
     0
176
     1
290
     0
176
     1
290
     0
176
     1
 90
       50
176
     1
 40
0.0
176
     1
 40
1.0
176
     1
 90
        0
176
     1
 62
    18
420
        0
176
     1
 90
       50
176
     1
 90
        3
176
     1
 62
     5
420
      255
176
     1
290
     0
176
     1
 90
       50
176
     1
 90
       50
176
     1
 90
       50
176
     1
290
     0
176
     1
 90
       50
176
     1
 62
   256
176
     0
 40
1.0
176
     0
 90
        2
176
     1
  1
strokes_ogs.tif
176
     1
290
     0
176
     1
 40
1.0
176
     1
 40
1.0
176
     1
  0
VISUALSTYLE
  5
36
102
{ACAD_REACTORS
330
29
102
}
330
29
100
AcDbVisualStyle
  2
Thicken
 70
    13
177
     3
291
     1
 70
    58
 90
        2
176
     1
 90
        2
176
     1
 90
        0
176
     1
 90
        0
176
     1
 40
0.6
176
     1
 40
30.0
176
     1
 62
     7
420
 16777215
176
     1
 90
        1
176
     1
 90
        4
176
     1
 62
     7
176
     1
 62
   257
176
     1
 90
        1
176
     1
 90
        1
176
     1
 40
1.0
176
     1
 90
       12
176
     1
 62
     7
176
     1
 40
1.0
176
     1
 90
        1
176
     1
 90
        6
176
     1
 90
        2
176
     1
 62
     7
176
     1
 90
        5
176
     1
 90
        0
176
     1
 90
        0
176
     1
290
     0
176
     1
 90
        1
176
     1
 40
0.0
176
     1
 90
        0
176
     1
290
     0
176
     1
290
     1
176
     1
290
     1
176
     1
290
     0
176
     1
290
     0
176
     1
290
     0
176
     1
290
     0
176
     1
290
     0
176
     1
290
     0
176
     1
 90
       50
176
     1
 40
0.0
176
     1
 40
1.0
176
     1
 90
        0
176
     1
 62
    18
420
        0
176
     1
 90
       50
176
     1
 90
        3
176
     1
 62
     5
420
      255
176
     1
290
     0
176
     1
 90
       50
176
     1
 90
       50
176
     1
 90
       50
176
     1
290
     0
176
     1
 90
       50
176
     1
 62
   256
176
     0
 40
1.0
176
     0
 90
        2
176
     1
  1
strokes_ogs.tif
176
     1
290
     0
176
     1
 40
1.0
176
     1
 40
1.0
176
     1
  0
VISUALSTYLE
  5
30
102
{ACAD_REACTORS
330
29
102
}
330
29
100
AcDbVisualStyle
  2
Wireframe
 70
     5
177
     3
291
     0
 70
    58
 90
        0
176
     1
 90
        2
176
     1
 90
        0
176
     1
 90
        0
176
     1
 40
0.6
176
     1
 40
30.0
176
     1
 62
     7
420
 16777215
176
     1
 90
        1
176
     1
 90
        4
176
     1
 62
     7
176
     1
 62
   257
176
     1
 90
        1
176
     1
 90
        1
176
     1
 40
1.0
176
     1
 90
        0
176
     1
 62
   257
176
     1
 40
1.0
176
     1
 90
        1
176
     1
 90
        6
176
     1
 90
        2
176
     1
 62
     7
176
     1
 90
        3
176
     1
 90
        0
176
     1
 90
        0
176
     1
290
     0
176
     1
 90
        1
176
     1
 40
0.0
176
     1
 90
        0
176
     1
290
     0
176
     1
290
     1
176
     1
290
     1
176
     1
290
     0
176
     1
290
     0
176
     1
290
     0
176
     1
290
     0
176
     1
290
     0
176
     1
290
     0
176
     1
 90
       50
176
     1
 40
0.0
176
     1
 40
1.0
176
     1
 90
        0
176
     1
 62
    18
420
        0
176
     1
 90
       50
176
     1
 90
        3
176
     1
 62
     5
420
      255
176
     1
290
     0
176
     1
 90
       50
176
     1
 90
       50
176
     1
 90
       50
176
     1
290
     0
176
     1
 90
       50
176
     1
 62
   256
176
     0
 40
1.0
176
     0
 90
        2
176
     1
  1
strokes_ogs.tif
176
     1
290
     0
176
     1
 40
1.0
176
     1
 40
1.0
176
     1
  0
VISUALSTYLE
  5
3C
102
{ACAD_REACTORS
330
29
102
}
330
29
100
AcDbVisualStyle
  2
X-Ray
 70
    25
177
     3
291
     0
 70
    58
 90
        2
176
     1
 90
        2
176
     1
 90
        1
176
     1
 90
        1
176
     1
 40
0.5
176
     1
 40
30.0
176
     1
 62
     7
420
 16777215
176
     1
 90
        1
176
     1
 90
        0
176
     1
 62
     7
176
     1
 62
   257
176
     1
 90
        1
176
     1
 90
        1
176
     1
 40
1.0
176
     1
 90
        8
176
     1
 62
     7
176
     1
 40
1.0
176
     1
 90
        1
176
     1
 90
        6
176
     1
 90
        2
176
     1
 62
     7
176
     1
 90
        3
176
     1
 90
        0
176
     1
 90
        0
176
     1
290
     0
176
     1
 90
       13
176
     1
 40
0.0
176
     1
 90
        0
176
     1
290
     0
176
     1
290
     1
176
     1
290
     1
176
     1
290
     0
176
     1
290
     0
176
     1
290
     0
176
     1
290
     0
176
     1
290
     0
176
     1
290
     0
176
     1
 90
       50
176
     1
 40
0.0
176
     1
 40
1.0
176
     1
 90
        0
176
     1
 62
    18
420
        0
176
     1
 90
       50
176
     1
 90
        3
176
     1
 62
     5
420
      255
176
     1
290
     0
176
     1
 90
       50
176
     1
 90
       50
176
     1
 90
       50
176
     1
290
     0
176
     1
 90
       50
176
     1
 62
   256
176
     0
 40
1.0
176
     0
 90
        2
176
     1
  1
strokes_ogs.tif
176
     1
290
     0
176
     1
 40
1.0
176
     1
 40
1.0
176
     1
  0
DICTIONARYVAR
  5
14D
102
{ACAD_REACTORS
330
148
102
}
330
148
100
DictionaryVariables
280
     0
  1
1:1
  0
DICTIONARYVAR
  5
14A
102
{ACAD_REACTORS
330
148
102
}
330
148
100
DictionaryVariables
280
     0
  1
STANDARD
  0
DICTIONARYVAR
  5
149
102
{ACAD_REACTORS
330
148
102
}
330
148
100
DictionaryVariables
280
     0
  1
STANDARD
  0
DICTIONARYVAR
  5
14B
102
{ACAD_REACTORS
330
148
102
}
330
148
100
DictionaryVariables
280
     0
  1
Imperial24
  0
DICTIONARYVAR
  5
14C
102
{ACAD_REACTORS
330
148
102
}
330
148
100
DictionaryVariables
280
     0
  1
Imperial24
  0
DICTIONARY
  5
1A
330
19
100
AcDbDictionary
280
     1
281
     1
  3
BUMPTILE
360
1C
  3
DIFFUSETILE
360
1B
  3
OPACITYTILE
360
1F
  3
REFLECTIONTILE
360
1E
  3
REFRACTIONTILE
360
20
  3
SPECULARTILE
360
1D
  0
DICTIONARY
  5
12
330
11
100
AcDbDictionary
280
     1
281
     1
  3
BUMPTILE
360
14
  3
DIFFUSETILE
360
13
  3
OPACITYTILE
360
17
  3
REFLECTIONTILE
360
16
  3
REFRACTIONTILE
360
18
  3
SPECULARTILE
360
15
  0
DICTIONARY
  5
22
330
21
100
AcDbDictionary
280
     1
281
     1
  3
BUMPTILE
360
24
  3
DIFFUSETILE
360
23
  3
OPACITYTILE
360
27
  3
REFLECTIONTILE
360
26
  3
REFRACTIONTILE
360
28
  3
SPECULARTILE
360
25
  0
DICTIONARY
  5
14E
330
65
100
AcDbDictionary
280
     1
281
     1
  3
ACAD_ROUNDTRIP_2008_TABLESTYLE_CELLSTYLEMAP
360
14F
  0
XRECORD
  5
1C
102
{ACAD_REACTORS
330
1A
102
}
330
1A
100
AcDbXrecord
280
     1
270
     1
271
     1
  0
XRECORD
  5
1B
102
{ACAD_REACTORS
330
1A
102
}
330
1A
100
AcDbXrecord
280
     1
270
     1
271
     1
  0
XRECORD
  5
1F
102
{ACAD_REACTORS
330
1A
102
}
330
1A
100
AcDbXrecord
280
     1
270
     1
271
     1
  0
XRECORD
  5
1E
102
{ACAD_REACTORS
330
1A
102
}
330
1A
100
AcDbXrecord
280
     1
270
     1
271
     1
  0
XRECORD
  5
20
102
{ACAD_REACTORS
330
1A
102
}
330
1A
100
AcDbXrecord
280
     1
270
     1
271
     1
  0
XRECORD
  5
1D
102
{ACAD_REACTORS
330
1A
102
}
330
1A
100
AcDbXrecord
280
     1
270
     1
271
     1
  0
XRECORD
  5
14
102
{ACAD_REACTORS
330
12
102
}
330
12
100
AcDbXrecord
280
     1
270
     1
271
     1
  0
XRECORD
  5
13
102
{ACAD_REACTORS
330
12
102
}
330
12
100
AcDbXrecord
280
     1
270
     1
271
     1
  0
XRECORD
  5
17
102
{ACAD_REACTORS
330
12
102
}
330
12
100
AcDbXrecord
280
     1
270
     1
271
     1
  0
XRECORD
  5
16
102
{ACAD_REACTORS
330
12
102
}
330
12
100
AcDbXrecord
280
     1
270
     1
271
     1
  0
XRECORD
  5
18
102
{ACAD_REACTORS
330
12
102
}
330
12
100
AcDbXrecord
280
     1
270
     1
271
     1
  0
XRECORD
  5
15
102
{ACAD_REACTORS
330
12
102
}
330
12
100
AcDbXrecord
280
     1
270
     1
271
     1
  0
XRECORD
  5
24
102
{ACAD_REACTORS
330
22
102
}
330
22
100
AcDbXrecord
280
     1
270
     1
271
     1
  0
XRECORD
  5
23
102
{ACAD_REACTORS
330
22
102
}
330
22
100
AcDbXrecord
280
     1
270
     1
271
     1
  0
XRECORD
  5
27
102
{ACAD_REACTORS
330
22
102
}
330
22
100
AcDbXrecord
280
     1
270
     1
271
     1
  0
XRECORD
  5
26
102
{ACAD_REACTORS
330
22
102
}
330
22
100
AcDbXrecord
280
     1
270
     1
271
     1
  0
XRECORD
  5
28
102
{ACAD_REACTORS
330
22
102
}
330
22
100
AcDbXrecord
280
     1
270
     1
271
     1
  0
XRECORD
  5
25
102
{ACAD_REACTORS
330
22
102
}
330
22
100
AcDbXrecord
280
     1
270
     1
271
     1
  0
CELLSTYLEMAP
  5
14F
102
{ACAD_REACTORS
330
14E
102
}
330
14E
100
AcDbCellStyleMap
 90
        3
300
CELLSTYLE
  1
TABLEFORMAT_BEGIN
 90
        5
170
     1
 91
        0
 92
    32768
 62
   257
 93
        1
300
CONTENTFORMAT
  1
CONTENTFORMAT_BEGIN
 90
        0
 91
        0
 92
      512
 93
        0
300

 40
0.0
140
1.0
 94
        5
 62
     0
340
55
144
0.25
309
CONTENTFORMAT_END
171
     0
 94
        0
309
TABLEFORMAT_END
  1
CELLSTYLE_BEGIN
 90
        1
 91
        1
300
_TITLE
309
CELLSTYLE_END
300
CELLSTYLE
  1
TABLEFORMAT_BEGIN
 90
        5
170
     1
 91
        0
 92
        0
 62
   257
 93
        1
300
CONTENTFORMAT
  1
CONTENTFORMAT_BEGIN
 90
        0
 91
        0
 92
      512
 93
        0
300

 40
0.0
140
1.0
 94
        5
 62
     0
340
55
144
0.18
309
CONTENTFORMAT_END
171
     0
 94
        0
309
TABLEFORMAT_END
  1
CELLSTYLE_BEGIN
 90
        2
 91
        1
300
_HEADER
309
CELLSTYLE_END
300
CELLSTYLE
  1
TABLEFORMAT_BEGIN
 90
        5
170
     1
 91
        0
 92
        0
 62
   257
 93
        1
300
CONTENTFORMAT
  1
CONTENTFORMAT_BEGIN
 90
        0
 91
        0
 92
      512
 93
        0
300

 40
0.0
140
1.0
 94
        2
 62
     0
340
55
144
0.18
309
CONTENTFORMAT_END
171
     0
 94
        0
309
TABLEFORMAT_END
  1
CELLSTYLE_BEGIN
 90
        3
 91
        2
300
_DATA
309
CELLSTYLE_END
  0
ENDSEC
  0
EOF
