  0
SECTION
  2
HEADER
  9
$ACADVER
  1
AC1032
  9
$ACADMAINTVER
 90
      251
  9
$DWGCODEPAGE
  3
ANSI_1252
  9
$REQUIREDVERSIONS
160
                 0
  9
$INSBASE
 10
0.0
 20
0.0
 30
0.0
  9
$EXTMIN
 10
1.000000000000000E+20
 20
1.000000000000000E+20
 30
1.000000000000000E+20
  9
$EXTMAX
 10
-1.000000000000000E+20
 20
-1.000000000000000E+20
 30
-1.000000000000000E+20
  9
$LIMMIN
 10
0.0
 20
0.0
  9
$LIMMAX
 10
12.0
 20
9.0
  9
$ORTHOMODE
 70
     0
  9
$REGENMODE
 70
     1
  9
$FILLMODE
 70
     1
  9
$QTEXTMODE
 70
     0
  9
$MIRRTEXT
 70
     0
  9
$LTSCALE
 40
1.0
  9
$ATTMODE
 70
     1
  9
$TEXTSIZE
 40
0.2
  9
$TRACEWID
 40
0.05
  9
$TEXTSTYLE
  7
Standard
  9
$CLAYER
  8
0
  9
$CELTYPE
  6
ByLayer
  9
$CECOLOR
 62
   256
  9
$CELTSCALE
 40
1.0
  9
$DISPSILH
 70
     0
  9
$DIMSCALE
 40
1.0
  9
$DIMASZ
 40
0.18
  9
$DIMEXO
 40
0.0625
  9
$DIMDLI
 40
0.38
  9
$DIMRND
 40
0.0
  9
$DIMDLE
 40
0.0
  9
$DIMEXE
 40
0.18
  9
$DIMTP
 40
0.0
  9
$DIMTM
 40
0.0
  9
$DIMTXT
 40
0.18
  9
$DIMCEN
 40
0.09
  9
$DIMTSZ
 40
0.0
  9
$DIMTOL
 70
     0
  9
$DIMLIM
 70
     0
  9
$DIMTIH
 70
     1
  9
$DIMTOH
 70
     1
  9
$DIMSE1
 70
     0
  9
$DIMSE2
 70
     0
  9
$DIMTAD
 70
     0
  9
$DIMZIN
 70
     0
  9
$DIMBLK
  1

  9
$DIMASO
 70
     1
  9
$DIMSHO
 70
     1
  9
$DIMPOST
  1

  9
$DIMAPOST
  1

  9
$DIMALT
 70
     0
  9
$DIMALTD
 70
     2
  9
$DIMALTF
 40
25.4
  9
$DIMLFAC
 40
1.0
  9
$DIMTOFL
 70
     0
  9
$DIMTVP
 40
0.0
  9
$DIMTIX
 70
     0
  9
$DIMSOXD
 70
     0
  9
$DIMSAH
 70
     0
  9
$DIMBLK1
  1

  9
$DIMBLK2
  1

  9
$DIMSTYLE
  2
Standard
  9
$DIMCLRD
 70
     0
  9
$DIMCLRE
 70
     0
  9
$DIMCLRT
 70
     0
  9
$DIMTFAC
 40
1.0
  9
$DIMGAP
 40
0.09
  9
$DIMJUST
 70
     0
  9
$DIMSD1
 70
     0
  9
$DIMSD2
 70
     0
  9
$DIMTOLJ
 70
     1
  9
$DIMTZIN
 70
     0
  9
$DIMALTZ
 70
     0
  9
$DIMALTTZ
 70
     0
  9
$DIMUPT
 70
     0
  9
$DIMDEC
 70
     4
  9
$DIMTDEC
 70
     4
  9
$DIMALTU
 70
     2
  9
$DIMALTTD
 70
     2
  9
$DIMTXSTY
  7
Standard
  9
$DIMAUNIT
 70
     0
  9
$DIMADEC
 70
     0
  9
$DIMALTRND
 40
0.0
  9
$DIMAZIN
 70
     0
  9
$DIMDSEP
 70
    46
  9
$DIMATFIT
 70
     3
  9
$DIMFRAC
 70
     0
  9
$DIMLDRBLK
  1

  9
$DIMLUNIT
 70
     2
  9
$DIMLWD
 70
    -2
  9
$DIMLWE
 70
    -2
  9
$DIMTMOVE
 70
     0
  9
$DIMFXL
 40
1.0
  9
$DIMFXLON
 70
     0
  9
$DIMJOGANG
 40
0.7853981633974483
  9
$DIMTFILL
 70
     0
  9
$DIMTFILLCLR
 70
     0
  9
$DIMARCSYM
 70
     0
  9
$DIMLTYPE
  6

  9
$DIMLTEX1
  6

  9
$DIMLTEX2
  6

  9
$DIMTXTDIRECTION
 70
     0
  9
$LUNITS
 70
     2
  9
$LUPREC
 70
     4
  9
$SKETCHINC
 40
0.1
  9
$FILLETRAD
 40
0.0
  9
$AUNITS
 70
     0
  9
$AUPREC
 70
     0
  9
$MENU
  1
.
  9
$ELEVATION
 40
0.0
  9
$PELEVATION
 40
0.0
  9
$THICKNESS
 40
0.0
  9
$LIMCHECK
 70
     0
  9
$CHAMFERA
 40
0.0
  9
$CHAMFERB
 40
0.0
  9
$CHAMFERC
 40
0.0
  9
$CHAMFERD
 40
0.0
  9
$SKPOLY
 70
     0
  9
$TDCREATE
 40
2460035.489884259
  9
$TDUCREATE
 40
2460035.406550926
  9
$TDUPDATE
 40
2460035.489884259
  9
$TDUUPDATE
 40
2460035.406550926
  9
$TDINDWG
 40
0.0000000000
  9
$TDUSRTIMER
 40
0.0000000000
  9
$USRTIMER
 70
     1
  9
$ANGBASE
 50
0.0
  9
$ANGDIR
 70
     0
  9
$PDMODE
 70
     0
  9
$PDSIZE
 40
0.0
  9
$PLINEWID
 40
0.0
  9
$SPLFRAME
 70
     0
  9
$SPLINETYPE
 70
     6
  9
$SPLINESEGS
 70
     8
  9
$HANDSEED
  5
11C
  9
$SURFTAB1
 70
     6
  9
$SURFTAB2
 70
     6
  9
$SURFTYPE
 70
     6
  9
$SURFU
 70
     6
  9
$SURFV
 70
     6
  9
$UCSBASE
  2

  9
$UCSNAME
  2

  9
$UCSORG
 10
0.0
 20
0.0
 30
0.0
  9
$UCSXDIR
 10
1.0
 20
0.0
 30
0.0
  9
$UCSYDIR
 10
0.0
 20
1.0
 30
0.0
  9
$UCSORTHOREF
  2

  9
$UCSORTHOVIEW
 70
     0
  9
$UCSORGTOP
 10
0.0
 20
0.0
 30
0.0
  9
$UCSORGBOTTOM
 10
0.0
 20
0.0
 30
0.0
  9
$UCSORGLEFT
 10
0.0
 20
0.0
 30
0.0
  9
$UCSORGRIGHT
 10
0.0
 20
0.0
 30
0.0
  9
$UCSORGFRONT
 10
0.0
 20
0.0
 30
0.0
  9
$UCSORGBACK
 10
0.0
 20
0.0
 30
0.0
  9
$PUCSBASE
  2

  9
$PUCSNAME
  2

  9
$PUCSORG
 10
0.0
 20
0.0
 30
0.0
  9
$PUCSXDIR
 10
1.0
 20
0.0
 30
0.0
  9
$PUCSYDIR
 10
0.0
 20
1.0
 30
0.0
  9
$PUCSORTHOREF
  2

  9
$PUCSORTHOVIEW
 70
     0
  9
$PUCSORGTOP
 10
0.0
 20
0.0
 30
0.0
  9
$PUCSORGBOTTOM
 10
0.0
 20
0.0
 30
0.0
  9
$PUCSORGLEFT
 10
0.0
 20
0.0
 30
0.0
  9
$PUCSORGRIGHT
 10
0.0
 20
0.0
 30
0.0
  9
$PUCSORGFRONT
 10
0.0
 20
0.0
 30
0.0
  9
$PUCSORGBACK
 10
0.0
 20
0.0
 30
0.0
  9
$USERI1
 70
     0
  9
$USERI2
 70
     0
  9
$USERI3
 70
     0
  9
$USERI4
 70
     0
  9
$USERI5
 70
     0
  9
$USERR1
 40
0.0
  9
$USERR2
 40
0.0
  9
$USERR3
 40
0.0
  9
$USERR4
 40
0.0
  9
$USERR5
 40
0.0
  9
$WORLDVIEW
 70
     1
  9
$SHADEDGE
 70
     3
  9
$SHADEDIF
 70
    70
  9
$TILEMODE
 70
     1
  9
$MAXACTVP
 70
    64
  9
$PINSBASE
 10
0.0
 20
0.0
 30
0.0
  9
$PLIMCHECK
 70
     0
  9
$PEXTMIN
 10
1.000000000000000E+20
 20
1.000000000000000E+20
 30
1.000000000000000E+20
  9
$PEXTMAX
 10
-1.000000000000000E+20
 20
-1.000000000000000E+20
 30
-1.000000000000000E+20
  9
$PLIMMIN
 10
0.0
 20
0.0
  9
$PLIMMAX
 10
12.0
 20
9.0
  9
$UNITMODE
 70
     0
  9
$VISRETAIN
 70
     1
  9
$PLINEGEN
 70
     0
  9
$PSLTSCALE
 70
     1
  9
$TREEDEPTH
 70
  3020
  9
$CMLSTYLE
  2
Standard
  9
$CMLJUST
 70
     0
  9
$CMLSCALE
 40
1.0
  9
$PROXYGRAPHICS
 70
     1
  9
$MEASUREMENT
 70
     0
  9
$CELWEIGHT
370
    -1
  9
$ENDCAPS
280
     0
  9
$JOINSTYLE
280
     0
  9
$LWDISPLAY
290
     1
  9
$INSUNITS
 70
     4
  9
$HYPERLINKBASE
  1

  9
$STYLESHEET
  1

  9
$XEDIT
290
     1
  9
$CEPSNTYPE
380
     0
  9
$PSTYLEMODE
290
     1
  9
$FINGERPRINTGUID
  2
{0F6352AE-2395-E541-9F47-8270E0F786FE}
  9
$VERSIONGUID
  2
{123F12E3-68C7-BC48-9A5F-8F21B6C8F91A}
  9
$EXTNAMES
290
     1
  9
$PSVPSCALE
 40
0.0
  9
$OLESTARTUP
290
     0
  9
$SORTENTS
280
   127
  9
$INDEXCTL
280
     0
  9
$HIDETEXT
280
     1
  9
$XCLIPFRAME
280
     2
  9
$HALOGAP
280
     0
  9
$OBSCOLOR
 70
   257
  9
$OBSLTYPE
280
     0
  9
$INTERSECTIONDISPLAY
280
     0
  9
$INTERSECTIONCOLOR
 70
   257
  9
$DIMASSOC
280
     2
  9
$PROJECTNAME
  1

  9
$CAMERADISPLAY
290
     0
  9
$LENSLENGTH
 40
50.0
  9
$CAMERAHEIGHT
 40
0.0
  9
$STEPSPERSEC
 40
2.0
  9
$STEPSIZE
 40
6.0
  9
$3DDWFPREC
 40
2.0
  9
$PSOLWIDTH
 40
0.25
  9
$PSOLHEIGHT
 40
4.0
  9
$LOFTANG1
 40
1.570796326794896
  9
$LOFTANG2
 40
1.570796326794896
  9
$LOFTMAG1
 40
0.0
  9
$LOFTMAG2
 40
0.0
  9
$LOFTPARAM
 70
     7
  9
$LOFTNORMALS
280
     1
  9
$LATITUDE
 40
37.795
  9
$LONGITUDE
 40
-122.394
  9
$NORTHDIRECTION
 40
0.0
  9
$TIMEZONE
 70
 -8000
  9
$LIGHTGLYPHDISPLAY
280
     1
  9
$TILEMODELIGHTSYNCH
280
     1
  9
$CMATERIAL
347
11
  9
$SOLIDHIST
280
     0
  9
$SHOWHIST
280
     1
  9
$DWFFRAME
280
     2
  9
$DGNFRAME
280
     0
  9
$REALWORLDSCALE
290
     1
  9
$INTERFERECOLOR
 62
     1
  9
$INTERFEREOBJVS
345
33
  9
$INTERFEREVPVS
346
30
  9
$CSHADOW
280
     0
  9
$SHADOWPLANELOCATION
 40
0.0
  0
ENDSEC
  0
SECTION
  2
CLASSES
  0
CLASS
  1
ACDBDICTIONARYWDFLT
  2
AcDbDictionaryWithDefault
  3
ObjectDBX Classes
 90
        0
 91
        1
280
     0
281
     0
  0
CLASS
  1
MATERIAL
  2
AcDbMaterial
  3
ObjectDBX Classes
 90
     1153
 91
        3
280
     0
281
     0
  0
CLASS
  1
VISUALSTYLE
  2
AcDbVisualStyle
  3
ObjectDBX Classes
 90
     4095
 91
       24
280
     0
281
     0
  0
CLASS
  1
SCALE
  2
AcDbScale
  3
ObjectDBX Classes
 90
     1153
 91
       17
280
     0
281
     0
  0
CLASS
  1
TABLESTYLE
  2
AcDbTableStyle
  3
ObjectDBX Classes
 90
     4095
 91
        1
280
     0
281
     0
  0
CLASS
  1
MLEADERSTYLE
  2
AcDbMLeaderStyle
  3
ACDB_MLEADERSTYLE_CLASS
 90
     4095
 91
        1
280
     0
281
     0
  0
CLASS
  1
ACDBSECTIONVIEWSTYLE
  2
AcDbSectionViewStyle
  3
ObjectDBX Classes
 90
     1025
 91
        1
280
     0
281
     0
  0
CLASS
  1
ACDBDETAILVIEWSTYLE
  2
AcDbDetailViewStyle
  3
ObjectDBX Classes
 90
     1025
 91
        1
280
     0
281
     0
  0
CLASS
  1
DICTIONARYVAR
  2
AcDbDictionaryVar
  3
ObjectDBX Classes
 90
        0
 91
        5
280
     0
281
     0
  0
CLASS
  1
CELLSTYLEMAP
  2
AcDbCellStyleMap
  3
ObjectDBX Classes
 90
     1152
 91
        1
280
     0
281
     0
  0
ENDSEC
  0
SECTION
  2
TABLES
  0
TABLE
  2
VPORT
  5
8
330
0
100
AcDbSymbolTable
 70
     1
  0
VPORT
  5
57
330
8
100
AcDbSymbolTableRecord
100
AcDbViewportTableRecord
  2
*Active
 70
     0
 10
0.0
 20
0.0
 11
1.0
 21
1.0
 12
0.0
 22
0.0
 13
0.0
 23
0.0
 14
1.0
 24
1.0
 15
0.0
 25
0.0
 16
0.0
 26
0.0
 36
1.0
 17
104.9999999737499
 27
31.49999999212523
 37
0.0
 40
302.9399999242649
 41
0.7070707070707066
 42
50.0
 43
0.0
 44
0.0
 50
0.0
 51
0.0
 71
     0
 72
   100
 73
     1
 74
     1
 75
     0
 76
     0
 77
     0
 78
     0
281
     0
 65
     1
110
0.0
120
0.0
130
0.0
111
1.0
121
0.0
131
0.0
112
0.0
122
1.0
132
0.0
 79
     0
146
0.0
 60
     3
 61
     5
292
     1
282
     1
141
0.0
142
0.0
 63
   250
421
  3355443
  0
ENDTAB
  0
TABLE
  2
LTYPE
  5
5
330
0
100
AcDbSymbolTable
 70
     1
  0
LTYPE
  5
5B
330
5
100
AcDbSymbolTableRecord
100
AcDbLinetypeTableRecord
  2
ByBlock
 70
     0
  3

 72
    65
 73
     0
 40
0.0
  0
LTYPE
  5
5C
330
5
100
AcDbSymbolTableRecord
100
AcDbLinetypeTableRecord
  2
ByLayer
 70
     0
  3

 72
    65
 73
     0
 40
0.0
  0
LTYPE
  5
5D
330
5
100
AcDbSymbolTableRecord
100
AcDbLinetypeTableRecord
  2
Continuous
 70
     0
  3
Solid line
 72
    65
 73
     0
 40
0.0
  0
ENDTAB
  0
TABLE
  2
LAYER
  5
2
330
0
100
AcDbSymbolTable
 70
     2
  0
LAYER
  5
54
330
2
100
AcDbSymbolTableRecord
100
AcDbLayerTableRecord
  2
0
 70
     0
 62
     7
  6
Continuous
370
     0
390
F
347
21
348
0
  0
LAYER
  5
ED
330
2
100
AcDbSymbolTableRecord
100
AcDbLayerTableRecord
  2
CAPA_BASE
 70
     0
 62
     7
  6
Continuous
370
     0
390
F
347
21
348
0
  0
ENDTAB
  0
TABLE
  2
STYLE
  5
3
330
0
100
AcDbSymbolTable
 70
     2
  0
STYLE
  5
55
330
3
100
AcDbSymbolTableRecord
100
AcDbTextStyleTableRecord
  2
Standard
 70
     0
 40
0.0
 41
1.0
 50
0.0
 71
     0
 42
0.2
  3
txt
  4

  0
STYLE
  5
5A
330
3
100
AcDbSymbolTableRecord
100
AcDbTextStyleTableRecord
  2
Annotative
 70
     0
 40
0.0
 41
1.0
 50
0.0
 71
     0
 42
0.2
  3
txt
  4

1001
AcadAnnotative
1000
AnnotativeData
1002
{
1070
     1
1070
     1
1002
}
  0
ENDTAB
  0
TABLE
  2
VIEW
  5
6
330
0
100
AcDbSymbolTable
 70
     0
  0
ENDTAB
  0
TABLE
  2
UCS
  5
7
330
0
100
AcDbSymbolTable
 70
     0
  0
ENDTAB
  0
TABLE
  2
APPID
  5
9
330
0
100
AcDbSymbolTable
 70
     2
  0
APPID
  5
56
330
9
100
AcDbSymbolTableRecord
100
AcDbRegAppTableRecord
  2
ACAD
 70
     0
  0
APPID
  5
5E
330
9
100
AcDbSymbolTableRecord
100
AcDbRegAppTableRecord
  2
AcadAnnotative
 70
     0
  0
ENDTAB
  0
TABLE
  2
DIMSTYLE
  5
A
330
0
100
AcDbSymbolTable
 70
     2
100
AcDbDimStyleTable
 71
     0
  0
DIMSTYLE
105
58
330
A
100
AcDbSymbolTableRecord
100
AcDbDimStyleTableRecord
  2
Standard
 70
     0
340
55
  0
DIMSTYLE
105
59
330
A
100
AcDbSymbolTableRecord
100
AcDbDimStyleTableRecord
  2
Annotative
 70
     0
340
55
1001
AcadAnnotative
1000
AnnotativeData
1002
{
1070
     1
1070
     1
1002
}
  0
ENDTAB
  0
TABLE
  2
BLOCK_RECORD
  5
1
330
0
100
AcDbSymbolTable
 70
     4
  0
BLOCK_RECORD
  5
70
330
1
100
AcDbSymbolTableRecord
100
AcDbBlockTableRecord
  2
*Model_Space
340
73
 70
     0
280
     1
281
     0
  0
BLOCK_RECORD
  5
6C
330
1
100
AcDbSymbolTableRecord
100
AcDbBlockTableRecord
  2
*Paper_Space
340
6F
 70
     0
280
     1
281
     0
  0
BLOCK_RECORD
  5
74
330
1
100
AcDbSymbolTableRecord
100
AcDbBlockTableRecord
  2
*Paper_Space0
340
77
 70
     0
280
     1
281
     0
  0
BLOCK_RECORD
  5
EE
330
1
100
AcDbSymbolTableRecord
100
AcDbBlockTableRecord
  2
Block_0
340
0
102
{BLKREFS
331
EF
102
}
 70
     0
280
     1
281
     0
  0
BLOCK_RECORD
  5
FA
330
1
100
AcDbSymbolTableRecord
100
AcDbBlockTableRecord
  2
Block_1
340
0
102
{BLKREFS
331
FB
102
}
 70
     0
280
     1
281
     0
  0
BLOCK_RECORD
  5
106
330
1
100
AcDbSymbolTableRecord
100
AcDbBlockTableRecord
  2
Block_2
340
0
102
{BLKREFS
331
107
102
}
 70
     0
280
     1
281
     0
  0
ENDTAB
  0
ENDSEC
  0
SECTION
  2
BLOCKS
  0
BLOCK
  5
71
330
70
100
AcDbEntity
  8
0
100
AcDbBlockBegin
  2
*Model_Space
 70
     0
 10
0.0
 20
0.0
 30
0.0
  3
*Model_Space
  1

  0
ENDBLK
  5
72
330
70
100
AcDbEntity
  8
0
100
AcDbBlockEnd
  0
BLOCK
  5
6D
330
6C
100
AcDbEntity
 67
     1
  8
0
100
AcDbBlockBegin
  2
*Paper_Space
 70
     0
 10
0.0
 20
0.0
 30
0.0
  3
*Paper_Space
  1

  0
ENDBLK
  5
6E
330
6C
100
AcDbEntity
 67
     1
  8
0
100
AcDbBlockEnd
  0
BLOCK
  5
75
330
74
100
AcDbEntity
 67
     1
  8
0
100
AcDbBlockBegin
  2
*Paper_Space0
 70
     0
 10
0.0
 20
0.0
 30
0.0
  3
*Paper_Space0
  1

  0
ENDBLK
  5
76
330
74
100
AcDbEntity
 67
     1
  8
0
100
AcDbBlockEnd
  0
BLOCK
  5
F0
330
EE
100
AcDbEntity
  8
0
100
AcDbBlockBegin
  2
Block_0
 70
     0
 10
0.0
 20
0.0
 30
0.0
  3
Block_0
  1

  0
LWPOLYLINE
  5
F2
330
EE
100
AcDbEntity
  8
CAPA_BASE
100
AcDbPolyline
 90
        4
 70
     1
 43
0.0
 10
99.53666966218314
 20
77.26421956028262
 10
97.03666966218271
 20
77.57421956028299
 10
97.03666966218271
 20
76.9542195602829
 10
97.03666966218271
 20
76.9542195602829
  0
HATCH
  5
F3
330
EE
100
AcDbEntity
  8
CAPA_BASE
 62
    18
420
        0
440
 33554687
100
AcDbHatch
 10
0.0
 20
0.0
 30
0.0
210
0.0
220
0.0
230
1.0
  2
SOLID
 70
     1
 71
     1
 91
        1
 92
        1
 93
        3
 72
     1
 10
99.53666966218314
 20
77.26421956028262
 11
97.03666966218271
 21
77.57421956028299
 72
     1
 10
97.03666966218271
 20
77.57421956028299
 11
97.03666966218271
 21
76.9542195602829
 72
     1
 10
97.03666966218271
 20
76.9542195602829
 11
99.53666966218314
 21
77.26421956028262
 97
        1
330
F2
 75
     2
 76
     1
 98
        1
 10
0.0
 20
0.0
450
        0
451
        0
460
0.0
461
0.0
452
        0
462
0.0
453
        0
470

  0
LWPOLYLINE
  5
F4
330
EE
100
AcDbEntity
  8
CAPA_BASE
100
AcDbPolyline
 90
        4
 70
     1
 43
0.0
 10
13.78666966218314
 20
77.26421956028262
 10
16.28666966218323
 20
76.9542195602829
 10
16.28666966218323
 20
77.57421956028299
 10
16.28666966218323
 20
77.57421956028299
  0
HATCH
  5
F5
330
EE
100
AcDbEntity
  8
CAPA_BASE
 62
    18
420
        0
440
 33554687
100
AcDbHatch
 10
0.0
 20
0.0
 30
0.0
210
0.0
220
0.0
230
1.0
  2
SOLID
 70
     1
 71
     1
 91
        1
 92
        1
 93
        3
 72
     1
 10
13.78666966218314
 20
77.26421956028262
 11
16.28666966218323
 21
76.9542195602829
 72
     1
 10
16.28666966218323
 20
76.9542195602829
 11
16.28666966218323
 21
77.57421956028299
 72
     1
 10
16.28666966218323
 20
77.57421956028299
 11
13.78666966218314
 21
77.26421956028262
 97
        1
330
F4
 75
     2
 76
     1
 98
        1
 10
0.0
 20
0.0
450
        0
451
        0
460
0.0
461
0.0
452
        0
462
0.0
453
        0
470

  0
LINE
  5
F6
330
EE
100
AcDbEntity
  8
CAPA_BASE
 62
    18
420
        0
370
    25
100
AcDbLine
 10
99.53666966218314
 20
100.0142195602829
 30
0.0
 11
99.53666966218314
 21
76.26421956028323
 31
0.0
  0
LINE
  5
F7
330
EE
100
AcDbEntity
  8
CAPA_BASE
 62
    18
420
        0
370
    25
100
AcDbLine
 10
13.78666966218314
 20
100.0142195602829
 30
0.0
 11
13.78666966218314
 21
76.26421956028323
 31
0.0
  0
LINE
  5
F8
330
EE
100
AcDbEntity
  8
CAPA_BASE
 62
    18
420
        0
370
    25
100
AcDbLine
 10
99.53666966218314
 20
77.26421956028262
 30
0.0
 11
13.78666966218314
 21
77.26421956028262
 31
0.0
  0
MTEXT
  5
F9
330
EE
100
AcDbEntity
  8
CAPA_BASE
100
AcDbMText
 10
54.01583513392985
 20
78.05797227391541
 30
0.0
 40
0.2
 41
0.0
 46
0.0
 71
     7
 72
     1
  1
\C18;\c0;\FArial Bold|b1|i0|c1;\H2.997200;\W0.700000;172
 73
     1
 44
1.0
  0
ENDBLK
  5
F1
330
EE
100
AcDbEntity
  8
0
100
AcDbBlockEnd
  0
BLOCK
  5
FC
330
FA
100
AcDbEntity
  8
0
100
AcDbBlockBegin
  2
Block_1
 70
     0
 10
0.0
 20
0.0
 30
0.0
  3
Block_1
  1

  0
LWPOLYLINE
  5
FE
330
FA
100
AcDbEntity
  8
CAPA_BASE
100
AcDbPolyline
 90
        4
 70
     1
 43
0.0
 10
109.5366696621834
 20
44.1674212644832
 10
109.2266696621831
 20
41.66742126448279
 10
109.8466696621832
 20
41.66742126448279
 10
109.8466696621832
 20
41.66742126448279
  0
HATCH
  5
FF
330
FA
100
AcDbEntity
  8
CAPA_BASE
 62
    18
420
        0
440
 33554687
100
AcDbHatch
 10
0.0
 20
0.0
 30
0.0
210
0.0
220
0.0
230
1.0
  2
SOLID
 70
     1
 71
     1
 91
        1
 92
        1
 93
        3
 72
     1
 10
109.5366696621834
 20
44.1674212644832
 11
109.2266696621831
 21
41.66742126448279
 72
     1
 10
109.2266696621831
 20
41.66742126448279
 11
109.8466696621832
 21
41.66742126448279
 72
     1
 10
109.8466696621832
 20
41.66742126448279
 11
109.5366696621834
 21
44.1674212644832
 97
        1
330
FE
 75
     2
 76
     1
 98
        1
 10
0.0
 20
0.0
450
        0
451
        0
460
0.0
461
0.0
452
        0
462
0.0
453
        0
470

  0
LWPOLYLINE
  5
100
330
FA
100
AcDbEntity
  8
CAPA_BASE
100
AcDbPolyline
 90
        4
 70
     1
 43
0.0
 10
109.5366696621834
 20
7.16742126448318
 10
109.8466696621832
 20
9.667421264482948
 10
109.2266696621831
 20
9.667421264482948
 10
109.2266696621831
 20
9.667421264482948
  0
HATCH
  5
101
330
FA
100
AcDbEntity
  8
CAPA_BASE
 62
    18
420
        0
440
 33554687
100
AcDbHatch
 10
0.0
 20
0.0
 30
0.0
210
0.0
220
0.0
230
1.0
  2
SOLID
 70
     1
 71
     1
 91
        1
 92
        1
 93
        3
 72
     1
 10
109.5366696621834
 20
7.16742126448318
 11
109.8466696621832
 21
9.667421264482948
 72
     1
 10
109.8466696621832
 20
9.667421264482948
 11
109.2266696621831
 21
9.667421264482948
 72
     1
 10
109.2266696621831
 20
9.667421264482948
 11
109.5366696621834
 21
7.16742126448318
 97
        1
330
100
 75
     2
 76
     1
 98
        1
 10
0.0
 20
0.0
450
        0
451
        0
460
0.0
461
0.0
452
        0
462
0.0
453
        0
470

  0
LINE
  5
102
330
FA
100
AcDbEntity
  8
CAPA_BASE
 62
    18
420
        0
370
    25
100
AcDbLine
 10
42.28666966218319
 20
44.1674212644832
 30
0.0
 11
110.5366696621828
 21
44.1674212644832
 31
0.0
  0
LINE
  5
103
330
FA
100
AcDbEntity
  8
CAPA_BASE
 62
    18
420
        0
370
    25
100
AcDbLine
 10
100.1550555889833
 20
7.16742126448318
 30
0.0
 11
110.5366696621828
 21
7.16742126448318
 31
0.0
  0
LINE
  5
104
330
FA
100
AcDbEntity
  8
CAPA_BASE
 62
    18
420
        0
370
    25
100
AcDbLine
 10
109.5366696621834
 20
44.1674212644832
 30
0.0
 11
109.5366696621834
 21
7.16742126448318
 31
0.0
  0
MTEXT
  5
105
330
FA
100
AcDbEntity
  8
CAPA_BASE
100
AcDbMText
 10
108.7429156137519
 20
23.90345051485683
 30
0.0
 40
0.2
 41
0.0
 46
0.0
 71
     7
 72
     1
  1
\C18;\c0;\FArial Bold|b1|i0|c1;\H2.997200;\W0.700000;74
 11
0.0000000000000003
 21
1.0
 31
0.0
 73
     1
 44
1.0
  0
ENDBLK
  5
FD
330
FA
100
AcDbEntity
  8
0
100
AcDbBlockEnd
  0
BLOCK
  5
108
330
106
100
AcDbEntity
  8
0
100
AcDbBlockBegin
  2
Block_2
 70
     0
 10
0.0
 20
0.0
 30
0.0
  3
Block_2
  1

  0
LWPOLYLINE
  5
10A
330
106
100
AcDbEntity
  8
CAPA_BASE
100
AcDbPolyline
 90
        4
 70
     1
 43
0.0
 10
134.2567867449834
 20
114.7642195602829
 10
133.946786744983
 20
112.2642195602829
 10
134.5667867449831
 20
112.2642195602829
 10
134.5667867449831
 20
112.2642195602829
  0
HATCH
  5
10B
330
106
100
AcDbEntity
  8
CAPA_BASE
 62
    18
420
        0
440
 33554687
100
AcDbHatch
 10
0.0
 20
0.0
 30
0.0
210
0.0
220
0.0
230
1.0
  2
SOLID
 70
     1
 71
     1
 91
        1
 92
        1
 93
        3
 72
     1
 10
134.2567867449834
 20
114.7642195602829
 11
133.946786744983
 21
112.2642195602829
 72
     1
 10
133.946786744983
 20
112.2642195602829
 11
134.5667867449831
 21
112.2642195602829
 72
     1
 10
134.5667867449831
 20
112.2642195602829
 11
134.2567867449834
 21
114.7642195602829
 97
        1
330
10A
 75
     2
 76
     1
 98
        1
 10
0.0
 20
0.0
450
        0
451
        0
460
0.0
461
0.0
452
        0
462
0.0
453
        0
470

  0
LWPOLYLINE
  5
10C
330
106
100
AcDbEntity
  8
CAPA_BASE
100
AcDbPolyline
 90
        4
 70
     1
 43
0.0
 10
134.2567867449834
 20
87.26421956028298
 10
134.5667867449831
 20
89.76421956028275
 10
133.946786744983
 20
89.76421956028275
 10
133.946786744983
 20
89.76421956028275
  0
HATCH
  5
10D
330
106
100
AcDbEntity
  8
CAPA_BASE
 62
    18
420
        0
440
 33554687
100
AcDbHatch
 10
0.0
 20
0.0
 30
0.0
210
0.0
220
0.0
230
1.0
  2
SOLID
 70
     1
 71
     1
 91
        1
 92
        1
 93
        3
 72
     1
 10
134.2567867449834
 20
87.26421956028298
 11
134.5667867449831
 21
89.76421956028275
 72
     1
 10
134.5667867449831
 20
89.76421956028275
 11
133.946786744983
 21
89.76421956028275
 72
     1
 10
133.946786744983
 20
89.76421956028275
 11
134.2567867449834
 21
87.26421956028298
 97
        1
330
10C
 75
     2
 76
     1
 98
        1
 10
0.0
 20
0.0
450
        0
451
        0
460
0.0
461
0.0
452
        0
462
0.0
453
        0
470

  0
LINE
  5
10E
330
106
100
AcDbEntity
  8
CAPA_BASE
 62
    18
420
        0
370
    25
100
AcDbLine
 10
143.256786744983
 20
114.7642195602829
 30
0.0
 11
133.2567867449833
 21
114.7642195602829
 31
0.0
  0
LINE
  5
10F
330
106
100
AcDbEntity
  8
CAPA_BASE
 62
    18
420
        0
370
    25
100
AcDbLine
 10
143.256786744983
 20
87.26421956028298
 30
0.0
 11
133.2567867449833
 21
87.26421956028298
 31
0.0
  0
LINE
  5
110
330
106
100
AcDbEntity
  8
CAPA_BASE
 62
    18
420
        0
370
    25
100
AcDbLine
 10
134.2567867449834
 20
114.7642195602829
 30
0.0
 11
134.2567867449834
 21
87.26421956028298
 31
0.0
  0
MTEXT
  5
111
330
106
100
AcDbEntity
  8
CAPA_BASE
100
AcDbMText
 10
133.4630381250516
 20
97.56407061362919
 30
0.0
 40
0.2
 41
0.0
 46
0.0
 71
     7
 72
     1
  1
\C18;\c0;\FArial Bold|b1|i0|c1;\H2.997200;\W0.700000;Ø
 11
0.0000000000000003
 21
1.0
 31
0.0
 73
     1
 44
1.0
  0
MTEXT
  5
112
330
106
100
AcDbEntity
  8
CAPA_BASE
100
AcDbMText
 10
133.4630381250516
 20
100.9364745841402
 30
0.0
 40
0.2
 41
0.0
 46
0.0
 71
     7
 72
     1
  1
\C18;\c0;\FArial Bold|b1|i0|c1;\H2.997200;\W0.700000;55
 11
0.0000000000000003
 21
1.0
 31
0.0
 73
     1
 44
1.0
  0
ENDBLK
  5
109
330
106
100
AcDbEntity
  8
0
100
AcDbBlockEnd
  0
ENDSEC
  0
SECTION
  2
ENTITIES
  0
LINE
  5
78
330
70
100
AcDbEntity
  8
0
 62
    18
420
        0
370
    25
100
AcDbLine
 10
97.53666966218306
 20
105.0142195602828
 30
0.0
 11
35.0366696621831
 21
105.0142195602828
 31
0.0
  0
LINE
  5
79
330
70
100
AcDbEntity
  8
0
 62
    18
420
        0
370
    25
100
AcDbLine
 10
35.0366696621831
 20
97.01421956028283
 30
0.0
 11
97.53666966218306
 21
97.01421956028283
 31
0.0
  0
SPLINE
  5
7A
330
70
100
AcDbEntity
  8
0
 62
    18
420
        0
370
    25
100
AcDbSpline
210
0.0
220
0.0
230
1.0
 70
     8
 71
     3
 72
     8
 73
     4
 74
     0
 42
0.0000000001
 43
0.0000000001
 40
0.0
 40
0.0
 40
0.0
 40
0.0
 40
1.0
 40
1.0
 40
1.0
 40
1.0
 10
97.78666966218324
 20
108.5142195602829
 30
0.0
 10
97.648598474725
 20
108.5142195602829
 30
0.0
 10
97.53666966218306
 20
108.4022907477406
 30
0.0
 10
97.53666966218306
 20
108.2642195602827
 30
0.0
  0
SPLINE
  5
7B
330
70
100
AcDbEntity
  8
0
 62
    18
420
        0
370
    25
100
AcDbSpline
210
0.0
220
0.0
230
1.0
 70
     8
 71
     3
 72
     8
 73
     4
 74
     0
 42
0.0000000001
 43
0.0000000001
 40
0.0
 40
0.0
 40
0.0
 40
0.0
 40
1.0
 40
1.0
 40
1.0
 40
1.0
 10
97.53666966218306
 20
93.76421956028288
 30
0.0
 10
97.53666966218306
 20
93.62614837282498
 30
0.0
 10
97.648598474725
 20
93.51421956028273
 30
0.0
 10
97.78666966218324
 20
93.51421956028273
 30
0.0
  0
LINE
  5
7C
330
70
100
AcDbEntity
  8
0
 62
    18
420
        0
370
    25
100
AcDbLine
 10
99.15505558898326
 20
108.5142195602829
 30
0.0
 11
97.78666966218324
 21
108.5142195602829
 31
0.0
  0
LINE
  5
7D
330
70
100
AcDbEntity
  8
0
 62
    18
420
        0
370
    25
100
AcDbLine
 10
97.78666966218324
 20
93.51421956028273
 30
0.0
 11
99.15505558898326
 21
93.51421956028273
 31
0.0
  0
SPLINE
  5
7E
330
70
100
AcDbEntity
  8
0
 62
    18
420
        0
370
    25
100
AcDbSpline
210
0.0
220
0.0
230
1.0
 70
     8
 71
     3
 72
     8
 73
     4
 74
     0
 42
0.0000000001
 43
0.0000000001
 40
0.0
 40
0.0
 40
0.0
 40
0.0
 40
1.0
 40
1.0
 40
1.0
 40
1.0
 10
99.15505558898326
 20
93.51421956028273
 30
0.0
 10
99.28959561996313
 20
93.51421956028273
 30
0.0
 10
99.40000768538906
 20
93.62069433461698
 30
0.0
 10
99.40489086548748
 20
93.75514571798005
 30
0.0
  0
SPLINE
  5
7F
330
70
100
AcDbEntity
  8
0
 62
    18
420
        0
370
    25
100
AcDbSpline
210
0.0
220
0.0
230
1.0
 70
     8
 71
     3
 72
     8
 73
     4
 74
     0
 42
0.0000000001
 43
0.0000000001
 40
0.0
 40
0.0
 40
0.0
 40
0.0
 40
1.0
 40
1.0
 40
1.0
 40
1.0
 10
99.40489086548748
 20
108.2732934025856
 30
0.0
 10
99.40000768538906
 20
108.4077447859487
 30
0.0
 10
99.28959561996313
 20
108.5142195602829
 30
0.0
 10
99.15505558898326
 20
108.5142195602829
 30
0.0
  0
SPLINE
  5
80
330
70
100
AcDbEntity
  8
0
 62
    18
420
        0
370
    25
100
AcDbSpline
210
0.0
220
0.0
230
1.0
 70
     8
 71
     3
 72
     8
 73
     4
 74
     0
 42
0.0000000001
 43
0.0000000001
 40
0.0
 40
0.0
 40
0.0
 40
0.0
 40
1.0
 40
1.0
 40
1.0
 40
1.0
 10
99.40489086544063
 20
93.75514571813246
 30
0.0
 10
99.49273615972224
 20
96.1738403189774
 30
0.0
 10
99.53666966218314
 20
98.59393024536929
 30
0.0
 10
99.53666966218314
 20
101.0142195602826
 30
0.0
  0
SPLINE
  5
81
330
70
100
AcDbEntity
  8
0
 62
    18
420
        0
370
    25
100
AcDbSpline
210
0.0
220
0.0
230
1.0
 70
     8
 71
     3
 72
     8
 73
     4
 74
     0
 42
0.0000000001
 43
0.0000000001
 40
0.0
 40
0.0
 40
0.0
 40
0.0
 40
1.0
 40
1.0
 40
1.0
 40
1.0
 10
99.53666966218314
 20
101.014219560283
 30
0.0
 10
99.53666966218314
 20
103.4345088751963
 30
0.0
 10
99.49273615972224
 20
105.8545988015882
 30
0.0
 10
99.40489086544063
 20
108.2732934024332
 30
0.0
  0
LINE
  5
82
330
70
100
AcDbEntity
  8
0
 62
    18
420
        0
370
    25
100
AcDbLine
 10
35.0366696621831
 20
105.0142195602828
 30
0.0
 11
27.53666966218315
 21
105.0142195602828
 31
0.0
  0
LINE
  5
83
330
70
100
AcDbEntity
  8
0
 62
    18
420
        0
370
    25
100
AcDbLine
 10
27.53666966218315
 20
97.01421956028283
 30
0.0
 11
35.0366696621831
 21
97.01421956028283
 31
0.0
  0
SPLINE
  5
84
330
70
100
AcDbEntity
  8
0
 62
    18
420
        0
370
    25
100
AcDbSpline
210
0.0
220
0.0
230
1.0
 70
     8
 71
     3
 72
    11
 73
     7
 74
     0
 42
0.0000000001
 43
0.0000000001
 40
0.0
 40
0.0
 40
0.0
 40
0.0
 40
1.0
 40
1.0
 40
1.0
 40
2.0
 40
2.0
 40
2.0
 40
2.0
 10
40.69199177910787
 20
105.014219560277
 30
0.0
 10
38.48285277978791
 20
112.279703344566
 30
0.0
 10
30.80215344647846
 20
116.3786806765273
 30
0.0
 10
23.53666966218911
 20
114.1695416772077
 30
0.0
 10
17.74526820180503
 20
112.4086113377142
 30
0.0
 10
13.78666966218314
 20
107.0674176023003
 30
0.0
 10
13.78666966218314
 20
101.014219560283
 30
0.0
  0
SPLINE
  5
85
330
70
100
AcDbEntity
  8
0
 62
    18
420
        0
370
    25
100
AcDbSpline
210
0.0
220
0.0
230
1.0
 70
     8
 71
     3
 72
    11
 73
     7
 74
     0
 42
0.0000000001
 43
0.0000000001
 40
0.0
 40
0.0
 40
0.0
 40
0.0
 40
1.0
 40
1.0
 40
1.0
 40
2.0
 40
2.0
 40
2.0
 40
2.0
 10
13.78666966218314
 20
101.0142195602826
 30
0.0
 10
13.78666966218314
 20
93.42030425010944
 30
0.0
 10
19.94275435200959
 20
87.26421956028298
 30
0.0
 10
27.53666966218315
 20
87.26421956028298
 30
0.0
 10
33.58986770420083
 20
87.26421956028298
 30
0.0
 10
38.93106143961436
 20
91.22281809990488
 30
0.0
 10
40.69199177910787
 20
97.01421956028863
 30
0.0
  0
LINE
  5
86
330
70
100
AcDbEntity
  8
0
 62
    18
420
        0
370
    25
100
AcDbLine
 10
35.0366696621831
 20
101.014219560283
 30
0.0
 11
35.0366696621831
 21
105.0142195602828
 31
0.0
  0
LINE
  5
87
330
70
100
AcDbEntity
  8
0
 62
    18
420
        0
370
    25
100
AcDbLine
 10
35.0366696621831
 20
97.01421956028283
 30
0.0
 11
35.0366696621831
 21
101.014219560283
 31
0.0
  0
LINE
  5
88
330
70
100
AcDbEntity
  8
0
 62
    18
420
        0
370
    25
100
AcDbLine
 10
97.53666966218306
 20
106.5529818888829
 30
0.0
 11
97.53666966218306
 21
108.2642195602827
 31
0.0
  0
LINE
  5
89
330
70
100
AcDbEntity
  8
0
 62
    18
420
        0
370
    25
100
AcDbLine
 10
97.53666966218306
 20
93.76421956028288
 30
0.0
 11
97.53666966218306
 21
106.5529818888829
 31
0.0
  0
LINE
  5
8A
330
70
100
AcDbEntity
  8
0
 62
    18
420
        0
370
    25
100
AcDbLine
 10
35.0366696621831
 20
97.01421956028283
 30
0.0
 11
35.0366696621831
 21
105.0142195602828
 31
0.0
  0
SPLINE
  5
8B
330
70
100
AcDbEntity
  8
0
 62
    18
420
        0
370
    25
100
AcDbSpline
210
0.0
220
0.0
230
1.0
 70
     8
 71
     3
 72
    11
 73
     7
 74
     0
 42
0.0000000001
 43
0.0000000001
 40
0.0
 40
0.0
 40
0.0
 40
0.0
 40
1.0
 40
1.0
 40
1.0
 40
2.0
 40
2.0
 40
2.0
 40
2.0
 10
27.53666966218315
 20
105.0142195602828
 30
0.0
 10
25.32753066285997
 20
105.0142195602828
 30
0.0
 10
23.53666966218301
 20
103.2233585596061
 30
0.0
 10
23.53666966218301
 20
101.014219560283
 30
0.0
 10
23.53666966218301
 20
98.80508056095948
 30
0.0
 10
25.32753066285997
 20
97.01421956028283
 30
0.0
 10
27.53666966218315
 20
97.01421956028283
 30
0.0
  0
SPLINE
  5
8C
330
70
100
AcDbEntity
  8
0
 62
     8
420
  8421504
370
    25
100
AcDbSpline
210
0.0
220
0.0
230
1.0
 70
     8
 71
     3
 72
    11
 73
     7
 74
     0
 42
0.0000000001
 43
0.0000000001
 40
0.0
 40
0.0
 40
0.0
 40
0.0
 40
1.0
 40
1.0
 40
1.0
 40
2.0
 40
2.0
 40
2.0
 40
2.0
 10
14.26011655597084
 20
101.014219560283
 30
0.0
 10
14.26011655597084
 20
93.68178174940313
 30
0.0
 10
20.20423185130329
 20
87.73766645407034
 30
0.0
 10
27.53666966218315
 20
87.73766645407034
 30
0.0
 10
33.32818304167401
 20
87.73766645407034
 30
0.0
 10
38.45143993509632
 20
91.49181022774367
 30
0.0
 10
40.19632456988398
 20
97.01421956028189
 30
0.0
  0
SPLINE
  5
8D
330
70
100
AcDbEntity
  8
0
 62
     8
420
  8421504
370
    25
100
AcDbSpline
210
0.0
220
0.0
230
1.0
 70
     8
 71
     3
 72
    11
 73
     7
 74
     0
 42
0.0000000001
 43
0.0000000001
 40
0.0
 40
0.0
 40
0.0
 40
0.0
 40
1.0
 40
1.0
 40
1.0
 40
2.0
 40
2.0
 40
2.0
 40
2.0
 10
40.19632456988398
 20
105.0142195602837
 30
0.0
 10
37.98718557056016
 20
112.0059539039276
 30
0.0
 10
30.52840400582593
 20
115.8830134673073
 30
0.0
 10
23.53666966218205
 20
113.6738744679835
 30
0.0
 10
18.01426032964416
 20
111.9289898331961
 30
0.0
 10
14.26011655597084
 20
106.8057329397735
 30
0.0
 10
14.26011655597084
 20
101.014219560283
 30
0.0
  0
LINE
  5
8E
330
70
100
AcDbEntity
  8
0
 62
     8
420
  8421504
370
    25
100
AcDbLine
 10
97.78666966218324
 20
106.7439736932828
 30
0.0
 11
97.78666966218324
 21
93.51421956028273
 31
0.0
  0
LINE
  5
8F
330
70
100
AcDbEntity
  8
0
 62
     8
420
  8421504
370
    25
100
AcDbLine
 10
97.78666966218324
 20
108.5142195602829
 30
0.0
 11
97.78666966218324
 21
106.7439736932828
 31
0.0
  0
LINE
  5
90
330
70
100
AcDbEntity
  8
0
 62
     8
420
  8421504
370
    25
100
AcDbLine
 10
99.15505558898326
 20
93.51421956028273
 30
0.0
 11
99.15505558898326
 21
108.5142195602829
 31
0.0
  0
LINE
  5
91
330
70
100
AcDbEntity
  8
0
 62
     8
420
  8421504
370
    25
100
AcDbLine
 10
99.40489086548298
 20
108.273293402583
 30
0.0
 11
99.40489086548298
 21
93.75514571798294
 31
0.0
  0
LINE
  5
92
330
70
100
AcDbEntity
  8
0
 62
    18
420
        0
370
    25
100
AcDbLine
 10
41.28666966218315
 20
41.98749628688278
 30
0.0
 11
41.28666966218315
 21
44.1674212644832
 31
0.0
  0
LINE
  5
93
330
70
100
AcDbEntity
  8
0
 62
    18
420
        0
370
    25
100
AcDbLine
 10
13.78666966218314
 20
44.1674212644832
 30
0.0
 11
13.78666966218314
 21
41.98749628688278
 31
0.0
  0
SPLINE
  5
94
330
70
100
AcDbEntity
  8
0
 62
    18
420
        0
370
    25
100
AcDbSpline
210
0.0
220
0.0
230
1.0
 70
     8
 71
     3
 72
     8
 73
     4
 74
     0
 42
0.0000000001
 43
0.0000000001
 40
0.0
 40
0.0
 40
0.0
 40
0.0
 40
1.0
 40
1.0
 40
1.0
 40
1.0
 10
13.78666966218314
 20
41.98749628688278
 30
0.0
 10
13.78666966218314
 20
41.72167226149593
 30
0.0
 10
13.99466764298526
 20
41.50231875931406
 30
0.0
 10
14.26011655597116
 20
41.48820185215457
 30
0.0
  0
SPLINE
  5
95
330
70
100
AcDbEntity
  8
0
 62
    18
420
        0
370
    25
100
AcDbSpline
210
0.0
220
0.0
230
1.0
 70
     8
 71
     3
 72
     8
 73
     4
 74
     0
 42
0.0000000001
 43
0.0000000001
 40
0.0
 40
0.0
 40
0.0
 40
0.0
 40
1.0
 40
1.0
 40
1.0
 40
1.0
 10
40.81322276839514
 20
41.48820185215457
 30
0.0
 10
41.07867168138104
 20
41.50231875931406
 30
0.0
 10
41.28666966218315
 20
41.72167226149593
 30
0.0
 10
41.28666966218315
 20
41.98749628688278
 30
0.0
  0
SPLINE
  5
96
330
70
100
AcDbEntity
  8
0
 62
    18
420
        0
370
    25
100
AcDbSpline
210
0.0
220
0.0
230
1.0
 70
     8
 71
     3
 72
     8
 73
     4
 74
     0
 42
0.0000000001
 43
0.0000000001
 40
0.0
 40
0.0
 40
0.0
 40
0.0
 40
1.0
 40
1.0
 40
1.0
 40
1.0
 10
31.53666966203153
 20
41.16742126444267
 30
0.0
 10
34.63057275282583
 20
41.2169300514233
 30
0.0
 10
37.7232900422672
 20
41.32387534223123
 30
0.0
 10
40.81322276861524
 20
41.48820185213533
 30
0.0
  0
SPLINE
  5
97
330
70
100
AcDbEntity
  8
0
 62
    18
420
        0
370
    25
100
AcDbSpline
210
0.0
220
0.0
230
1.0
 70
     8
 71
     3
 72
     8
 73
     4
 74
     0
 42
0.0000000001
 43
0.0000000001
 40
0.0
 40
0.0
 40
0.0
 40
0.0
 40
1.0
 40
1.0
 40
1.0
 40
1.0
 10
14.26011655618677
 20
41.48820185211222
 30
0.0
 10
17.35004928238978
 20
41.32387534222096
 30
0.0
 10
20.44276657168582
 20
41.21693005142137
 30
0.0
 10
23.53666966233477
 20
41.16742126444267
 30
0.0
  0
LINE
  5
98
330
70
100
AcDbEntity
  8
0
 62
    18
420
        0
370
    25
100
AcDbLine
 10
97.53666966218306
 20
18.66742126448262
 30
0.0
 11
35.0366696621831
 21
18.66742126448262
 31
0.0
  0
LINE
  5
99
330
70
100
AcDbEntity
  8
0
 62
    18
420
        0
370
    25
100
AcDbLine
 10
35.0366696621831
 20
10.66742126448298
 30
0.0
 11
97.53666966218306
 21
10.66742126448298
 31
0.0
  0
SPLINE
  5
9A
330
70
100
AcDbEntity
  8
0
 62
    18
420
        0
370
    25
100
AcDbSpline
210
0.0
220
0.0
230
1.0
 70
     8
 71
     3
 72
     8
 73
     4
 74
     0
 42
0.0000000001
 43
0.0000000001
 40
0.0
 40
0.0
 40
0.0
 40
0.0
 40
1.0
 40
1.0
 40
1.0
 40
1.0
 10
99.15505558898326
 20
7.16742126448318
 30
0.0
 10
99.28959561996313
 20
7.16742126448318
 30
0.0
 10
99.40000768538906
 20
7.273896038816797
 30
0.0
 10
99.40489086548748
 20
7.408347422180196
 30
0.0
  0
SPLINE
  5
9B
330
70
100
AcDbEntity
  8
0
 62
    18
420
        0
370
    25
100
AcDbSpline
210
0.0
220
0.0
230
1.0
 70
     8
 71
     3
 72
     8
 73
     4
 74
     0
 42
0.0000000001
 43
0.0000000001
 40
0.0
 40
0.0
 40
0.0
 40
0.0
 40
1.0
 40
1.0
 40
1.0
 40
1.0
 10
99.40489086548748
 20
21.92649510678541
 30
0.0
 10
99.40000768538906
 20
22.06094649014881
 30
0.0
 10
99.28959561996313
 20
22.16742126448307
 30
0.0
 10
99.15505558898326
 20
22.16742126448307
 30
0.0
  0
LINE
  5
9C
330
70
100
AcDbEntity
  8
0
 62
    18
420
        0
370
    25
100
AcDbLine
 10
99.15505558898326
 20
22.16742126448307
 30
0.0
 11
97.78666966218324
 21
22.16742126448307
 31
0.0
  0
LINE
  5
9D
330
70
100
AcDbEntity
  8
0
 62
    18
420
        0
370
    25
100
AcDbLine
 10
97.78666966218324
 20
7.16742126448318
 30
0.0
 11
99.15505558898326
 21
7.16742126448318
 31
0.0
  0
SPLINE
  5
9E
330
70
100
AcDbEntity
  8
0
 62
    18
420
        0
370
    25
100
AcDbSpline
210
0.0
220
0.0
230
1.0
 70
     8
 71
     3
 72
     8
 73
     4
 74
     0
 42
0.0000000001
 43
0.0000000001
 40
0.0
 40
0.0
 40
0.0
 40
0.0
 40
1.0
 40
1.0
 40
1.0
 40
1.0
 10
97.78666966218324
 20
22.16742126448307
 30
0.0
 10
97.648598474725
 20
22.16742126448307
 30
0.0
 10
97.53666966218306
 20
22.05549245194048
 30
0.0
 10
97.53666966218306
 20
21.9174212644829
 30
0.0
  0
SPLINE
  5
9F
330
70
100
AcDbEntity
  8
0
 62
    18
420
        0
370
    25
100
AcDbSpline
210
0.0
220
0.0
230
1.0
 70
     8
 71
     3
 72
     8
 73
     4
 74
     0
 42
0.0000000001
 43
0.0000000001
 40
0.0
 40
0.0
 40
0.0
 40
0.0
 40
1.0
 40
1.0
 40
1.0
 40
1.0
 10
97.53666966218306
 20
7.417421264482707
 30
0.0
 10
97.53666966218306
 20
7.279350077025129
 30
0.0
 10
97.648598474725
 20
7.16742126448318
 30
0.0
 10
97.78666966218324
 20
7.16742126448318
 30
0.0
  0
SPLINE
  5
A0
330
70
100
AcDbEntity
  8
0
 62
    18
420
        0
370
    25
100
AcDbSpline
210
0.0
220
0.0
230
1.0
 70
     8
 71
     3
 72
     8
 73
     4
 74
     0
 42
0.0000000001
 43
0.0000000001
 40
0.0
 40
0.0
 40
0.0
 40
0.0
 40
1.0
 40
1.0
 40
1.0
 40
1.0
 10
99.40489086544063
 20
7.408347422332279
 30
0.0
 10
99.58059592776374
 20
12.24613513832141
 30
0.0
 10
99.58059592776374
 20
17.0887073906442
 30
0.0
 10
99.40489086544063
 20
21.92649510663333
 30
0.0
  0
LINE
  5
A1
330
70
100
AcDbEntity
  8
0
 62
    18
420
        0
370
    25
100
AcDbLine
 10
23.53666966218301
 20
41.16742126448245
 30
0.0
 11
23.53666966218301
 21
10.66742126448298
 31
0.0
  0
LINE
  5
A2
330
70
100
AcDbEntity
  8
0
 62
    18
420
        0
370
    25
100
AcDbLine
 10
31.53666966218329
 20
18.66742126448262
 30
0.0
 11
31.53666966218329
 21
41.16742126448245
 31
0.0
  0
LINE
  5
A3
330
70
100
AcDbEntity
  8
0
 62
    18
420
        0
370
    25
100
AcDbLine
 10
35.0366696621831
 20
18.66742126448262
 30
0.0
 11
31.53666966218329
 21
18.66742126448262
 31
0.0
  0
LINE
  5
A4
330
70
100
AcDbEntity
  8
0
 62
    18
420
        0
370
    25
100
AcDbLine
 10
23.53666966218301
 20
10.66742126448298
 30
0.0
 11
35.0366696621831
 21
10.66742126448298
 31
0.0
  0
LINE
  5
A5
330
70
100
AcDbEntity
  8
0
 62
    18
420
        0
370
    25
100
AcDbLine
 10
41.28666966218315
 20
44.1674212644832
 30
0.0
 11
13.78666966218314
 21
44.1674212644832
 31
0.0
  0
LINE
  5
A6
330
70
100
AcDbEntity
  8
0
 62
    18
420
        0
370
    25
100
AcDbLine
 10
31.53666966218329
 20
41.16742126448245
 30
0.0
 11
23.53666966218301
 21
41.16742126448245
 31
0.0
  0
LINE
  5
A7
330
70
100
AcDbEntity
  8
0
 62
    18
420
        0
370
    25
100
AcDbLine
 10
35.0366696621831
 20
10.66742126448298
 30
0.0
 11
35.0366696621831
 21
18.66742126448262
 31
0.0
  0
LINE
  5
A8
330
70
100
AcDbEntity
  8
0
 62
    18
420
        0
370
    25
100
AcDbLine
 10
97.53666966218306
 20
9.989322091983099
 30
0.0
 11
97.53666966218306
 21
21.9174212644829
 31
0.0
  0
LINE
  5
A9
330
70
100
AcDbEntity
  8
0
 62
    18
420
        0
370
    25
100
AcDbLine
 10
97.53666966218306
 20
7.417421264482707
 30
0.0
 11
97.53666966218306
 21
9.989322091983099
 31
0.0
  0
LINE
  5
AA
330
70
100
AcDbEntity
  8
0
 62
    18
420
        0
370
    25
100
AcDbLine
 10
31.53666966218329
 20
18.66742126448262
 30
0.0
 11
23.53666966218301
 21
10.66742126448298
 31
0.0
  0
LINE
  5
AB
330
70
100
AcDbEntity
  8
0
 62
    18
420
        0
370
    25
100
AcDbLine
 10
35.0366696621831
 20
14.66742126448312
 30
0.0
 11
35.0366696621831
 21
18.66742126448262
 31
0.0
  0
LINE
  5
AC
330
70
100
AcDbEntity
  8
0
 62
    18
420
        0
370
    25
100
AcDbLine
 10
35.0366696621831
 20
10.66742126448298
 30
0.0
 11
35.0366696621831
 21
14.66742126448312
 31
0.0
  0
LINE
  5
AD
330
70
100
AcDbEntity
  8
0
 62
     8
420
  8421504
370
    25
100
AcDbLine
 10
13.78666966218314
 20
41.98749628688278
 30
0.0
 11
41.28666966218315
 21
41.98749628688278
 31
0.0
  0
LINE
  5
AE
330
70
100
AcDbEntity
  8
0
 62
     8
420
  8421504
370
    25
100
AcDbLine
 10
40.81322276838327
 20
41.48820185218281
 30
0.0
 11
14.26011655598303
 21
41.48820185218281
 31
0.0
  0
LINE
  5
AF
330
70
100
AcDbEntity
  8
0
 62
     8
420
  8421504
370
    25
100
AcDbLine
 10
99.40489086548298
 20
21.92649510678284
 30
0.0
 11
99.40489086548298
 21
7.408347422182763
 31
0.0
  0
LINE
  5
B0
330
70
100
AcDbEntity
  8
0
 62
     8
420
  8421504
370
    25
100
AcDbLine
 10
99.15505558898326
 20
7.16742126448318
 30
0.0
 11
99.15505558898326
 21
22.16742126448307
 31
0.0
  0
LINE
  5
B1
330
70
100
AcDbEntity
  8
0
 62
     8
420
  8421504
370
    25
100
AcDbLine
 10
97.78666966218324
 20
9.828008327382645
 30
0.0
 11
97.78666966218324
 21
7.16742126448318
 31
0.0
  0
LINE
  5
B2
330
70
100
AcDbEntity
  8
0
 62
     8
420
  8421504
370
    25
100
AcDbLine
 10
97.78666966218324
 20
22.16742126448307
 30
0.0
 11
97.78666966218324
 21
9.828008327382645
 31
0.0
  0
LWPOLYLINE
  5
B3
330
70
100
AcDbEntity
  8
0
 62
    18
420
        0
370
    25
100
AcDbPolyline
 90
       18
 70
     0
 43
0.0
 10
137.7196502001833
 20
3.387322390483157
 10
137.3087274649831
 20
3.0957105369828
 10
136.8210570577829
 20
2.642723637583065
 10
136.3851812493833
 20
2.120515722782819
 10
136.0032835263832
 20
1.531474515182949
 10
135.6777567029834
 20
0.8784188771829555
 10
135.4110326062831
 20
0.1649731415826432
 10
135.205281856083
 20
-0.6043279085168103
 10
135.0621583002829
 20
-1.424190844417216
 10
134.9826819259833
 20
-2.288830002117175
 10
134.965100309083
 20
-2.954721596017428
 10
134.9740179440829
 20
-3.440964220417036
 10
135.0395607136829
 20
-4.384554275417384
 10
135.1681074337832
 20
-5.352759923017185
 10
135.358531277483
 20
-6.339431369217217
 10
135.6093613898832
 20
-7.338366798716895
 10
135.9187993331829
 20
-8.343330513616958
 10
136.083772808483
 20
-8.796300001616982
  0
LWPOLYLINE
  5
B4
330
70
100
AcDbEntity
  8
0
 62
    18
420
        0
370
    25
100
AcDbPolyline
 90
       18
 70
     0
 43
0.0
 10
140.0807808778834
 20
-15.72623044681728
 10
140.1885641992833
 20
-15.85861276041739
 10
140.8960212809834
 20
-16.64379567881729
 10
141.6288561517832
 20
-17.37667093011733
 10
142.382673052783
 20
-18.05253035011718
 10
143.1529841691829
 20
-18.66697065651695
 10
143.9352291822829
 20
-19.21590256161731
 10
144.7247841730829
 20
-19.6955543005168
 10
145.5169534032833
 20
-20.10247287201725
 10
146.3069196338829
 20
-20.43352472151735
 10
147.0895214839832
 20
-20.68588854801685
 10
147.859454254883
 20
-20.85726976991723
 10
148.6111136195834
 20
-20.94599566901692
 10
149.3386485273831
 20
-20.95123408511699
 10
150.0361817176828
 20
-20.87320104971685
 10
150.6981942213834
 20
-20.71322134991742
 10
151.3199331104831
 20
-20.47352425531735
 10
151.7993531351834
 20
-20.21067938521686
  0
LINE
  5
B5
330
70
100
AcDbEntity
  8
0
 62
    18
420
        0
370
    25
100
AcDbLine
 10
151.7087064466834
 20
-20.27159719461733
 30
0.0
 11
153.2501461807832
 21
-19.38174297711707
 31
0.0
  0
LINE
  5
B6
330
70
100
AcDbEntity
  8
0
 62
    18
420
        0
370
    25
100
AcDbLine
 10
139.5012636070834
 20
4.434600738382791
 30
0.0
 11
137.959823872983
 21
3.544746520883164
 31
0.0
  0
LINE
  5
B7
330
70
100
AcDbEntity
  8
0
 62
    18
420
        0
370
    25
100
AcDbLine
 10
173.9384595624831
 20
-42.8505729551173
 30
0.0
 11
132.8191931730828
 21
-19.11292573861723
 31
0.0
  0
LINE
  5
B8
330
70
100
AcDbEntity
  8
0
 62
    18
420
        0
370
    25
100
AcDbLine
 10
128.8195182425834
 20
-26.0413166376172
 30
0.0
 11
169.9421459465833
 21
-49.78090429981734
 31
0.0
  0
LWPOLYLINE
  5
B9
330
70
100
AcDbEntity
  8
0
 62
    18
420
        0
370
    25
100
AcDbPolyline
 90
       13
 70
     0
 43
0.0
 10
173.7909754778832
 20
-55.60808209531735
 10
174.0684516416829
 20
-55.61306635231719
 10
174.614804699483
 20
-55.54195708081703
 10
175.1802717052834
 20
-55.39048836041703
 10
175.7578177172833
 20
-55.16008469331737
 10
176.3400428247828
 20
-54.85359148901707
 10
176.9196803942832
 20
-54.47502303731724
 10
177.4896723940832
 20
-54.0293693656174
 10
178.0435127227834
 20
-53.5221604083168
 10
178.574958674683
 20
-52.95951482771687
 10
179.078036486983
 20
-52.34809138511703
 10
179.5470751969833
 20
-51.69503785511699
 10
179.6759949126831
 20
-51.49888333981712
  0
LWPOLYLINE
  5
BA
330
70
100
AcDbEntity
  8
0
 62
    18
420
        0
370
    25
100
AcDbPolyline
 90
       14
 70
     0
 43
0.0
 10
179.6759949126831
 20
-51.49888333981712
 10
179.9012920980832
 20
-51.13586557231702
 10
180.295024944183
 20
-50.42705101091741
 10
180.6409579590834
 20
-49.69854849911693
 10
180.9348965529829
 20
-48.95897746351683
 10
181.1733540056834
 20
-48.21676289401705
 10
181.3534085760834
 20
-47.48032045651692
 10
181.4727148696833
 20
-46.75796759881691
 10
181.5295023107828
 20
-46.05785111941717
 10
181.5225673811829
 20
-45.38790581611688
 10
181.4512799711834
 20
-44.75586227661733
 10
181.315698218883
 20
-44.1694793893173
 10
181.1168168820835
 20
-43.63646698901694
 10
180.8814808914829
 20
-43.20895244881702
  0
LINE
  5
BB
330
70
100
AcDbEntity
  8
0
 62
    18
420
        0
370
    25
100
AcDbLine
 10
179.9075964427832
 20
-42.25513991401705
 30
0.0
 11
178.9400014746831
 21
-41.69655922871718
 31
0.0
  0
LINE
  5
BC
330
70
100
AcDbEntity
  8
0
 62
    18
420
        0
370
    25
100
AcDbLine
 10
171.4406109798833
 20
-54.68729216441737
 30
0.0
 11
172.4082059479833
 21
-55.24587284971723
 31
0.0
  0
LWPOLYLINE
  5
BD
330
70
100
AcDbEntity
  8
0
 62
    18
420
        0
370
    25
100
AcDbPolyline
 90
       13
 70
     0
 43
0.0
 10
177.578592147783
 20
-41.3347336728171
 10
177.2797557809829
 20
-41.32936572611722
 10
176.7334027232829
 20
-41.40047499761737
 10
176.1679357173831
 20
-41.55194371801738
 10
175.5903897053831
 20
-41.78234738521715
 10
175.008164597883
 20
-42.08884058941734
 10
174.4285270284834
 20
-42.46740904121728
 10
173.8585350285833
 20
-42.913062712817
 10
173.3046946999832
 20
-43.42027167021707
 10
172.7732487479834
 20
-43.982917250817
 10
172.2701709357829
 20
-44.59434069331737
 10
171.8011322256832
 20
-45.24739422331742
 10
171.6722125100829
 20
-45.44354873861729
  0
LWPOLYLINE
  5
BE
330
70
100
AcDbEntity
  8
0
 62
    18
420
        0
370
    25
100
AcDbPolyline
 90
       14
 70
     0
 43
0.0
 10
171.6722125100829
 20
-45.44354873861729
 10
171.4469153246833
 20
-45.80656650611738
 10
171.0531824784834
 20
-46.515381067517
 10
170.7072494635831
 20
-47.24388357931684
 10
170.4133108696829
 20
-47.98345461491694
 10
170.1748534169831
 20
-48.72566918441736
 10
169.9947988465831
 20
-49.46211162201696
 10
169.8754925529832
 20
-50.18446447971696
 10
169.8187051119831
 20
-50.88458095901724
 10
169.825640041483
 20
-51.55452626231689
 10
169.896927451483
 20
-52.18656980181708
 10
170.0325092038829
 20
-52.77295268911711
 10
170.231390540583
 20
-53.30596508941683
 10
170.4455870317829
 20
-53.69507732921743
  0
LINE
  5
BF
330
70
100
AcDbEntity
  8
0
 62
    18
420
        0
370
    25
100
AcDbLine
 10
132.8191931730828
 20
-19.11292573861723
 30
0.0
 11
129.5157297794829
 21
-17.20587691411684
 31
0.0
  0
LINE
  5
C0
330
70
100
AcDbEntity
  8
0
 62
    18
420
        0
370
    25
100
AcDbLine
 10
121.5163799183833
 20
-21.82530462341726
 30
0.0
 11
128.8195182425834
 21
-26.0413166376172
 31
0.0
  0
LINE
  5
C1
330
70
100
AcDbEntity
  8
0
 62
    18
420
        0
370
    25
100
AcDbLine
 10
142.2545470850833
 20
-5.233987837616843
 30
0.0
 11
121.5163799183833
 21
-17.20587691411684
 31
0.0
  0
LINE
  5
C2
330
70
100
AcDbEntity
  8
0
 62
    18
420
        0
370
    25
100
AcDbLine
 10
133.5167050406828
 20
-19.51559076881743
 30
0.0
 11
146.2542220156828
 21
-12.16237873661681
 31
0.0
  0
LWPOLYLINE
  5
C3
330
70
100
AcDbEntity
  8
0
 62
    18
420
        0
370
    25
100
AcDbPolyline
 90
        3
 70
     0
 43
0.0
 10
137.7320088120829
 20
3.404212533783151
 10
137.8148894756829
 20
3.45747347258265
 10
137.959823872983
 20
3.544746520883164
  0
LINE
  5
C4
330
70
100
AcDbEntity
  8
0
 62
    18
420
        0
370
    25
100
AcDbLine
 10
151.7962708960832
 20
-20.21974303131692
 30
0.0
 11
151.7087064466834
 21
-20.27159719461733
 31
0.0
  0
LWPOLYLINE
  5
C5
330
70
100
AcDbEntity
  8
0
 62
    18
420
        0
370
    25
100
AcDbPolyline
 90
       29
 70
     0
 43
0.0
 10
156.0984231352832
 20
-13.08637688821689
 10
156.0633969313834
 20
-12.11400358771728
 10
155.9585706843828
 20
-11.10819586511693
 10
155.7846996697834
 20
-10.07620058781689
 10
155.5430366322829
 20
-9.025453305616856
 10
155.2353227594834
 20
-7.963524676617001
 10
154.8637751368834
 20
-6.898065921117092
 10
154.4310707737829
 20
-5.836753693717244
 10
153.9403273148834
 20
-4.787234773317318
 10
153.3950805780832
 20
-3.757070967917381
 10
152.7992590786832
 20
-2.753684631217231
 10
152.1571557240829
 20
-1.784305184916816
 10
151.4733968838828
 20
-0.8559170299171199
 10
150.7529090559832
 20
0.0247907755831137
 10
150.0008833718829
 20
0.8514727118825947
 10
149.2227381936832
 20
1.618172516582965
 10
148.4240800753834
 20
2.319366100082613
 10
147.610663366983
 20
2.950001346582918
 10
146.7883487544831
 20
3.505534514482941
 10
145.9630610334828
 20
3.981962974783161
 10
145.1407464208829
 20
4.375854049382963
 10
144.3273297124831
 20
4.684369744082877
 10
143.5286715941834
 20
4.905287196282749
 10
142.7505264160831
 20
5.037014690682839
 10
141.9985007318833
 20
5.078603127682849
 10
141.2780129040831
 20
5.029752861582927
 10
140.5942540637829
 20
4.890815859682754
 10
139.9521507092834
 20
4.662793166182989
 10
139.5012636070834
 20
4.434600738382791
  0
LWPOLYLINE
  5
C6
330
70
100
AcDbEntity
  8
0
 62
    18
420
        0
370
    25
100
AcDbPolyline
 90
       11
 70
     0
 43
0.0
 10
153.2501461807832
 20
-19.38174297711707
 10
153.3950805780832
 20
-19.2944699288172
 10
153.9403273148834
 20
-18.89383460581684
 10
154.4310707737829
 20
-18.41091602261694
 10
154.8637751368834
 20
-17.84919361891725
 10
155.2353227594834
 20
-17.21271461721688
 10
155.5430366322829
 20
-16.5060648635171
 10
155.7846996697834
 20
-15.7343357854171
 10
155.9585706843828
 20
-14.90308770851697
 10
156.0633969313834
 20
-14.018309794417
 10
156.0984231352832
 20
-13.08637688821689
  0
LWPOLYLINE
  5
C7
330
70
100
AcDbEntity
  8
0
 62
    18
420
        0
370
    25
100
AcDbPolyline
 90
       16
 70
     0
 43
0.0
 10
127.9909285830831
 20
-24.20993741171695
 10
128.0257512144828
 20
-23.67889423421724
 10
128.1293616599834
 20
-23.12072174761725
 10
128.2992086864832
 20
-22.54916401121732
 10
128.5311100965829
 20
-21.97829467321692
 10
128.8193557078831
 20
-21.42217043151702
 10
129.1568479567832
 20
-20.89448491041713
 10
129.5352766639834
 20
-20.40823147881685
 10
129.9453236589832
 20
-19.97538331001696
 10
130.3768922236831
 20
-19.60659856251732
 10
130.8193557078832
 20
-19.3109579406169
 10
131.2618191919831
 20
-19.09574109761713
 10
131.6933877567831
 20
-18.966247386417
 10
132.1034347516829
 20
-18.92566537211697
 10
132.4818634589831
 20
-18.97499431851729
 10
132.8191931730828
 20
-19.11292573861723
  0
SPLINE
  5
C8
330
70
100
AcDbEntity
  8
0
 62
    18
420
        0
370
    25
100
AcDbSpline
210
0.0
220
0.0
230
1.0
 70
     8
 71
     3
 72
     8
 73
     4
 74
     0
 42
0.0000000001
 43
0.0000000001
 40
0.0
 40
0.0
 40
0.0
 40
0.0
 40
1.0
 40
1.0
 40
1.0
 40
1.0
 10
127.9909285830927
 20
-24.20993741180487
 30
0.0
 10
127.9099391934143
 20
-24.9262252545663
 30
0.0
 10
128.2280313245469
 20
-25.62928413806908
 30
0.0
 10
128.8195182425673
 20
-26.04131663768394
 30
0.0
  0
LWPOLYLINE
  5
C9
330
70
100
AcDbEntity
  8
0
 62
    18
420
        0
370
    25
100
AcDbPolyline
 90
       55
 70
     0
 43
0.0
 10
179.6466171311834
 20
-51.46876693351741
 10
180.0794687338829
 20
-50.74425480541687
 10
180.4616768894828
 20
-49.99415980561725
 10
180.7880728881834
 20
-49.22862568241726
 10
181.054242784183
 20
-48.45800497141684
 10
181.2565870861831
 20
-47.69271899581695
 10
181.3923694345831
 20
-46.94311693551721
 10
181.4597536060833
 20
-46.21933587251691
 10
181.4578283453831
 20
-45.53116370411708
 10
181.3866196882833
 20
-44.88790677821718
 10
181.2470906097829
 20
-44.29826404141734
 10
181.0411280012832
 20
-43.77020940001743
 10
180.7715171536829
 20
-43.31088388731718
 10
180.441904091183
 20
-42.92649909281716
 10
180.056746265083
 20
-42.62225316141714
 10
179.6212522742829
 20
-42.40226049761695
 10
179.1413114277833
 20
-42.26949612461739
 10
178.6234141022834
 20
-42.2257554528173
 10
178.0745639706832
 20
-42.27162999981693
 10
177.5021832894832
 20
-42.40649939111698
 10
176.914012525383
 20
-42.62853974941722
 10
176.3180056790834
 20
-42.93474836001706
 10
175.7222227205833
 20
-43.32098427641737
 10
175.1347205925832
 20
-43.78202432071733
 10
174.5634442532831
 20
-44.31163371711742
 10
174.0161192352832
 20
-44.90265040711689
 10
173.500147170583
 20
-45.54708190381738
 10
173.0225056959832
 20
-46.23621337661679
 10
172.589654093283
 20
-46.96072550481743
 10
172.2074459376831
 20
-47.71082050451695
 10
171.8810499389831
 20
-48.47635462781703
 10
171.6148800429829
 20
-49.24697533881682
 10
171.4125357410829
 20
-50.01226131441735
 10
171.2767533925835
 20
-50.76186337461699
 10
171.2093692210832
 20
-51.48564443761729
 10
171.2112944817834
 20
-52.17381660601712
 10
171.2825031388832
 20
-52.81707353191701
 10
171.422032217383
 20
-53.40671626881697
 10
171.6279948259834
 20
-53.93477091011741
 10
171.897605673483
 20
-54.39409642291712
 10
172.2272187359829
 20
-54.77848121741715
 10
172.612376562083
 20
-55.08272714871706
 10
173.047870552883
 20
-55.30271981261735
 10
173.5278113993833
 20
-55.43548418561691
 10
174.0457087248832
 20
-55.47922485731689
 10
174.5945588564833
 20
-55.43335031031727
 10
175.1669395376834
 20
-55.29848091901722
 10
175.7551103017829
 20
-55.07644056071697
 10
176.3511171480832
 20
-54.77023195021724
 10
176.9469001065832
 20
-54.38399603371683
 10
177.5344022345833
 20
-53.92295598941686
 10
178.1056785738828
 20
-53.39334659301742
 10
178.6530035918833
 20
-52.80232990301731
 10
179.1689756565829
 20
-52.15789840641693
 10
179.6466171311834
 20
-51.46876693351741
  0
SPLINE
  5
CA
330
70
100
AcDbEntity
  8
0
 62
    18
420
        0
370
    25
100
AcDbSpline
210
0.0
220
0.0
230
1.0
 70
     8
 71
     3
 72
     8
 73
     4
 74
     0
 42
0.0000000001
 43
0.0000000001
 40
0.0
 40
0.0
 40
0.0
 40
0.0
 40
1.0
 40
1.0
 40
1.0
 40
1.0
 10
171.455267750654
 20
-54.29627161243629
 30
0.0
 10
171.9283420063081
 20
-55.09410833146237
 30
0.0
 10
172.783672275522
 20
-55.58702266044664
 30
0.0
 10
173.7111723065245
 20
-55.5963164260403
 30
0.0
  0
SPLINE
  5
CB
330
70
100
AcDbEntity
  8
0
 62
    18
420
        0
370
    25
100
AcDbSpline
210
0.0
220
0.0
230
1.0
 70
     8
 71
     3
 72
     8
 73
     4
 74
     0
 42
0.0000000001
 43
0.0000000001
 40
0.0
 40
0.0
 40
0.0
 40
0.0
 40
1.0
 40
1.0
 40
1.0
 40
1.0
 10
180.8288031539283
 20
-43.15385477172549
 30
0.0
 10
180.361650936117
 20
-42.40339582632796
 30
0.0
 10
179.5507944596845
 20
-41.93557207215508
 30
0.0
 10
178.6672843881073
 20
-41.90676622630312
 30
0.0
  0
SPLINE
  5
CC
330
70
100
AcDbEntity
  8
0
 62
    18
420
        0
370
    25
100
AcDbSpline
210
0.0
220
0.0
230
1.0
 70
     8
 71
     3
 72
     8
 73
     4
 74
     0
 42
0.0000000001
 43
0.0000000001
 40
0.0
 40
0.0
 40
0.0
 40
0.0
 40
1.0
 40
1.0
 40
1.0
 40
1.0
 10
170.4967117225556
 20
-53.75240536275328
 30
0.0
 10
170.7292677443151
 20
-54.13723650206253
 30
0.0
 10
171.0535664797136
 20
-54.45843879685513
 30
0.0
 10
171.4406109799667
 20
-54.68729216445779
 30
0.0
  0
SPLINE
  5
CD
330
70
100
AcDbEntity
  8
0
 62
    18
420
        0
370
    25
100
AcDbSpline
210
0.0
220
0.0
230
1.0
 70
     8
 71
     3
 72
     8
 73
     4
 74
     0
 42
0.0000000001
 43
0.0000000001
 40
0.0
 40
0.0
 40
0.0
 40
0.0
 40
1.0
 40
1.0
 40
1.0
 40
1.0
 10
178.9400014747383
 20
-41.69655922866904
 30
0.0
 10
178.5482395568037
 20
-41.47395534818861
 30
0.0
 10
178.106722160403
 20
-41.35360652542623
 30
0.0
 10
177.6561879897568
 20
-41.34661731738
 30
0.0
  0
SPLINE
  5
CE
330
70
100
AcDbEntity
  8
0
 62
    18
420
        0
370
    25
100
AcDbSpline
210
0.0
220
0.0
230
1.0
 70
     8
 71
     3
 72
     8
 73
     4
 74
     0
 42
0.0000000001
 43
0.0000000001
 40
0.0
 40
0.0
 40
0.0
 40
0.0
 40
1.0
 40
1.0
 40
1.0
 40
1.0
 10
132.8191931730918
 20
-19.11292573855755
 30
0.0
 10
132.1656236104663
 20
-18.8135976872361
 30
0.0
 10
131.4015264595866
 20
-18.88926175691368
 30
0.0
 10
130.8193557078183
 20
-19.31095794053798
 30
0.0
  0
LWPOLYLINE
  5
CF
330
70
100
AcDbEntity
  8
0
 62
    18
420
        0
370
    25
100
AcDbPolyline
 90
       17
 70
     0
 43
0.0
 10
128.8195182425834
 20
-26.0413166376172
 10
128.8193557078831
 20
-26.041222793117
 10
128.5311100965829
 20
-25.81789985021721
 10
128.2992086864832
 20
-25.51477818121715
 10
128.1293616599834
 20
-25.13932164741695
 10
128.0257512144828
 20
-24.70077523491728
 10
127.9909285830831
 20
-24.20993741171695
 10
128.0257512144828
 20
-23.67889423421724
 10
128.1293616599834
 20
-23.12072174761725
 10
128.2992086864832
 20
-22.54916401121732
 10
128.5311100965829
 20
-21.97829467321692
 10
128.8193557078831
 20
-21.42217043151702
 10
129.1568479567832
 20
-20.89448491041713
 10
129.5352766639834
 20
-20.40823147881685
 10
129.9453236589832
 20
-19.97538331001696
 10
130.3768922236831
 20
-19.60659856251732
 10
130.8193557078832
 20
-19.3109579406169
  0
LWPOLYLINE
  5
D0
330
70
100
AcDbEntity
  8
0
 62
    18
420
        0
370
    25
100
AcDbPolyline
 90
       26
 70
     0
 43
0.0
 10
129.5157297794829
 20
-17.20587691411684
 10
129.4486570876832
 20
-17.16779527101694
 10
128.8715862086829
 20
-16.88610054951719
 10
128.234635792983
 20
-16.6513291433173
 10
127.5491722359828
 20
-16.46767055371721
 10
126.8274276510833
 20
-16.33840217241719
 10
126.0822815874832
 20
-16.26583079701727
 10
125.3270311942831
 20
-16.25125146521734
 10
124.5751539326834
 20
-16.29492434571703
 10
123.8400670701834
 20
-16.39607009481736
 10
123.1348882493831
 20
-16.55288376411735
 10
122.4722014028829
 20
-16.7625670102174
 10
121.8638321932829
 20
-17.02137803051683
 10
121.3206369834834
 20
-17.32469833621736
 10
120.8523091048834
 20
-17.66711516921713
 10
120.4672058795833
 20
-18.04251809311684
 10
120.1721994836833
 20
-18.44420803381732
 10
119.972554313483
 20
-18.86501682481708
 10
119.8718330415832
 20
-19.29743512321711
 10
119.8718330415832
 20
-19.733746414317
 10
119.972554313483
 20
-20.16616471271703
 10
120.1721994836833
 20
-20.58697350371743
 10
120.4672058795833
 20
-20.98866344441727
 10
120.8523091048834
 20
-21.36406636831698
 10
121.3206369834834
 20
-21.70648320141685
 10
121.5163799183833
 20
-21.82530462341726
  0
LWPOLYLINE
  5
D1
330
70
100
AcDbEntity
  8
0
 62
    18
420
        0
370
    25
100
AcDbPolyline
 90
       22
 70
     0
 43
0.0
 10
146.2542220156828
 20
-12.16237873661681
 10
146.2543845503831
 20
-12.16228489211725
 10
146.5426301616834
 20
-11.93896194921682
 10
146.7745315717831
 20
-11.63584028021739
 10
146.9443785982828
 20
-11.26038374641719
 10
147.0479890436833
 20
-10.82183733391689
 10
147.0828116751832
 20
-10.33099951081731
 10
147.0479890436833
 20
-9.799956333216847
 10
146.9443785982828
 20
-9.241783846616858
 10
146.7745315717831
 20
-8.670226110216928
 10
146.5426301616834
 20
-8.099356772217177
 10
146.2543845503831
 20
-7.543232530517271
 10
145.916892301483
 20
-7.015547009417386
 10
145.5384635942829
 20
-6.529293577817096
 10
145.128416599283
 20
-6.096445409117324
 10
144.6968480345831
 20
-5.727660661516932
 10
144.2543845503831
 20
-5.432020039617158
 10
143.811921066183
 20
-5.21680319661738
 10
143.3803525014832
 20
-5.087309485517359
 10
142.9703055065834
 20
-5.046727471117224
 10
142.5918767992831
 20
-5.096056417516901
 10
142.2545470850833
 20
-5.233987837616843
  0
SPLINE
  5
D2
330
70
100
AcDbEntity
  8
0
 62
     8
420
  8421504
370
    25
100
AcDbSpline
210
0.0
220
0.0
230
1.0
 70
     8
 71
     3
 72
     8
 73
     4
 74
     0
 42
0.0000000001
 43
0.0000000001
 40
0.0
 40
0.0
 40
0.0
 40
0.0
 40
1.0
 40
1.0
 40
1.0
 40
1.0
 10
135.0932699469838
 20
-3.14769652375776
 30
0.0
 10
135.1273884289781
 20
-5.063850537123662
 30
0.0
 10
135.4850086201266
 20
-6.960468290248485
 30
0.0
 10
136.1510313934538
 20
-8.757472446938256
 30
0.0
  0
LWPOLYLINE
  5
D3
330
70
100
AcDbEntity
  8
0
 62
     8
420
  8421504
370
    25
100
AcDbPolyline
 90
       63
 70
     0
 43
0.0
 10
140.1507063240835
 20
-15.68586334591705
 10
140.3819547929834
 20
-15.95355031971684
 10
141.1231608130835
 20
-16.75226536891693
 10
141.889228659483
 20
-17.49038134911717
 10
142.6744866338831
 20
-18.16243350791706
 10
143.4731209609832
 20
-18.76344620621741
 10
144.2792188316832
 20
-19.28896975631737
 10
145.086812179383
 20
-19.73511336571701
 10
145.8899218653835
 20
-20.0985739431168
 10
146.6826019466834
 20
-20.37666055371692
 10
147.4589836972835
 20
-20.56731434151725
 10
148.2133190581828
 20
-20.66912377251682
 10
148.9400231944831
 20
-20.68133508521706
 10
149.6337158428832
 20
-20.60385787151687
 10
150.2892611457834
 20
-20.43726574561713
 10
150.9018056749832
 20
-20.18279209711717
 10
151.4668143652835
 20
-19.8423209600174
 10
151.9801040899833
 20
-19.41837306351685
 10
152.4378746314828
 20
-18.91408716951729
 10
152.8367368167829
 20
-18.33319683431703
 10
153.1737376099832
 20
-17.68000276661698
 10
153.4463819749835
 20
-16.95934098691735
 10
153.6526513483833
 20
-16.17654702281729
 10
153.7910185838833
 20
-15.33741640691725
 10
153.8604592588829
 20
-14.4481617689171
 10
153.8604592588829
 20
-13.51536683871684
 10
153.7910185838833
 20
-12.54593770391694
 10
153.6526513483833
 20
-11.5470516784169
 10
153.4463819749835
 20
-10.52610416511707
 10
153.1737376099832
 20
-9.490653901916889
 10
152.8367368167829
 20
-8.448367000616981
 10
152.4378746314828
 20
-7.406960188517149
 10
151.9801040899833
 20
-6.374143677316912
 10
151.4668143652835
 20
-5.357564079316945
 10
150.9018056749832
 20
-4.364747793917254
 10
150.2892611457834
 20
-3.403045285817128
 10
149.6337158428832
 20
-2.479576663717011
 10
148.9400231944831
 20
-1.601178966217047
 10
148.2133190581828
 20
-0.7743555426172025
 10
147.4589836972828
 20
-0.0052279042169849
 10
146.6826019466834
 20
0.7005095969831431
 10
145.8899218653835
 20
1.33763192748257
 10
145.086812179383
 20
1.901422056382648
 10
144.2792188316832
 20
2.387705878982918
 10
143.4731209609832
 20
2.792883119882595
 10
142.6744866338831
 20
3.113953988583058
 10
141.889228659483
 20
3.348541388682622
 10
141.1231608130828
 20
3.494908517183056
 10
140.3819547929834
 20
3.551971722982633
 10
139.6710982292834
 20
3.519308530182957
 10
138.995854055283
 20
3.397160765583138
 10
138.3612215425834
 20
3.186432768482567
 10
137.7718992881834
 20
2.888684695282976
 10
137.2322504279828
 20
2.50612096848285
 10
136.7462703332829
 20
2.041573956182769
 10
136.3175570306829
 20
1.498483001883136
 10
135.9492845634832
 20
0.8808689608825734
 10
135.6441794921833
 20
0.1933044315829075
 10
135.4045007080829
 20
-0.5591200988169924
 10
135.232022708783
 20
-1.370833942417225
 10
135.128022461383
 20
-2.235827453817307
 10
135.0932699469832
 20
-3.147696523717332
 10
135.0932699469832
 20
-3.147696523717332
  0
LWPOLYLINE
  5
D4
330
70
100
AcDbEntity
  8
0
 62
     8
420
  8421504
370
    25
100
AcDbPolyline
 90
       39
 70
     0
 43
0.0
 10
137.959823872983
 20
3.544746520883164
 10
138.410710975183
 20
3.772938948782825
 10
139.0528143296832
 20
4.000961642183126
 10
139.7365731698833
 20
4.139898644082657
 10
140.4570609977829
 20
4.188748910282685
 10
141.2090866818832
 20
4.147160473282674
 10
141.9872318600829
 20
4.015432978882585
 10
142.7858899783834
 20
3.794515526682713
 10
143.5993066867832
 20
3.485999831882694
 10
144.421621299283
 20
3.092108757282891
 10
145.2469090202832
 20
2.615680297082777
 10
146.0692236328832
 20
2.060147129082649
 10
146.882640341283
 20
1.429511882683091
 10
147.6812984595834
 20
0.7283182991828009
 10
148.459443637683
 20
-0.0383815055169279
 10
149.2114693218834
 20
-0.8650634418170504
 10
149.9319571496829
 20
-1.745771247417389
 10
150.6157159899832
 20
-2.67415940231698
 10
151.2578193444833
 20
-3.643538848716858
 10
151.8536408439834
 20
-4.646925185316904
 10
152.3988875806829
 20
-5.677088990716841
 10
152.889631039583
 20
-6.726607911117408
 10
153.322335402783
 20
-7.787920138517256
 10
153.6938830252829
 20
-8.853378894017165
 10
154.0015968980831
 20
-9.91530752301702
 10
154.243259935683
 20
-10.96605480521705
 10
154.4171309502831
 20
-11.99805008251709
 10
154.521957197283
 20
-13.0038578052169
 10
154.5569834011834
 20
-13.97623110561706
 10
154.521957197283
 20
-14.90816401181716
 10
154.4171309502831
 20
-15.79294192601723
 10
154.243259935683
 20
-16.62419000281727
 10
154.0015968980831
 20
-17.39591908091726
 10
153.6938830252829
 20
-18.10256883461704
 10
153.322335402783
 20
-18.73904783631742
 10
152.889631039583
 20
-19.30077024011721
 10
152.3988875806829
 20
-19.78368882321701
 10
151.8536408439834
 20
-20.18432414621736
 10
151.7962708960832
 20
-20.21974303131692
  0
LWPOLYLINE
  5
D5
330
70
100
AcDbEntity
  8
0
 62
     8
420
  8421504
370
    25
100
AcDbPolyline
 90
       16
 70
     0
 43
0.0
 10
147.0828116751832
 20
-10.33099951081731
 10
147.0479890436833
 20
-9.799956333216847
 10
146.9443785982828
 20
-9.241783846616858
 10
146.7745315717831
 20
-8.670226110216928
 10
146.5426301616834
 20
-8.099356772217177
 10
146.2543845503831
 20
-7.543232530517271
 10
145.916892301483
 20
-7.015547009417386
 10
145.5384635942829
 20
-6.529293577817096
 10
145.128416599283
 20
-6.096445409117324
 10
144.6968480345831
 20
-5.727660661516932
 10
144.2543845503831
 20
-5.432020039617158
 10
143.811921066183
 20
-5.21680319661738
 10
143.3803525014832
 20
-5.087309485517359
 10
142.9703055065834
 20
-5.046727471117224
 10
142.5918767992831
 20
-5.096056417516901
 10
142.2545470850833
 20
-5.233987837616843
  0
SPLINE
  5
D6
330
70
100
AcDbEntity
  8
0
 62
     8
420
  8421504
370
    25
100
AcDbSpline
210
0.0
220
0.0
230
1.0
 70
     8
 71
     3
 72
     8
 73
     4
 74
     0
 42
0.0000000001
 43
0.0000000001
 40
0.0
 40
0.0
 40
0.0
 40
0.0
 40
1.0
 40
1.0
 40
1.0
 40
1.0
 10
146.2542220156315
 20
-12.16237873665275
 30
0.0
 10
146.8457089336629
 20
-11.75034623704687
 30
0.0
 10
147.163801064798
 20
-11.04728735353767
 30
0.0
 10
147.0828116751055
 20
-10.33099951077431
 30
0.0
  0
LWPOLYLINE
  5
D7
330
70
100
AcDbEntity
  8
0
 62
     8
420
  8421504
370
    25
100
AcDbPolyline
 90
       24
 70
     0
 43
0.0
 10
171.4552677506829
 20
-54.29627161241705
 10
171.3695287999829
 20
-54.14715099471713
 10
171.1408880196833
 20
-53.63167581191738
 10
170.9776516786829
 20
-53.05256712071699
 10
170.8819478121829
 20
-52.41737448861697
 10
170.8550240666829
 20
-51.73437862311708
 10
170.897231434283
 20
-51.01248341961682
 10
171.0080196772834
 20
-50.26109988611699
 10
171.1859445016831
 20
-49.49002345621696
 10
171.4286863851832
 20
-48.70930629031733
 10
171.7330808160832
 20
-47.92912623061737
 10
172.0951595475829
 20
-47.15965411731717
 10
172.5102023295834
 20
-46.41092119621697
 10
172.9727984447831
 20
-45.692688345917
 10
173.476917245283
 20
-45.01431883001708
 10
174.015986771583
 20
-44.38465623261707
 10
174.5829794280832
 20
-43.81190916861731
 10
175.170503598383
 20
-43.30354427191724
 10
175.7709000062834
 20
-42.86618885641735
 10
176.3763415665833
 20
-42.50554451871736
 10
176.9789354226833
 20
-42.22631280941708
 10
177.570825841883
 20
-42.03213394071731
 10
178.1442966275832
 20
-41.92553933121724
 10
178.6672843880829
 20
-41.90676622631723
  0
LWPOLYLINE
  5
D8
330
70
100
AcDbEntity
  8
0
 62
     8
420
  8421504
370
    25
100
AcDbPolyline
 90
       13
 70
     0
 43
0.0
 10
171.7683245225832
 20
-45.48881559401744
 10
171.328788235983
 20
-46.22349666821693
 10
170.9395927417833
 20
-46.98383922511689
 10
170.605811798583
 20
-47.7599310367168
 10
170.3317967512829
 20
-48.54165455941712
 10
170.1211198051834
 20
-49.31881883141691
 10
169.9765274563833
 20
-50.08129232811743
 10
169.8999046872833
 20
-50.81913504141701
 10
169.8922503928832
 20
-51.52272806301692
 10
169.9536643586831
 20
-52.18289898201719
 10
170.0833459595833
 20
-52.79104146081692
 10
170.2796045977831
 20
-53.33922743211708
 10
170.4967117224831
 20
-53.75240536271735
  0
LWPOLYLINE
  5
D9
330
70
100
AcDbEntity
  8
0
 62
     8
420
  8421504
370
    25
100
AcDbPolyline
 90
       12
 70
     0
 43
0.0
 10
177.656187989683
 20
-41.34661731741721
 10
177.4541813462831
 20
-41.34698489551681
 10
176.8927427636834
 20
-41.40919402011718
 10
176.3091103173834
 20
-41.55982642501728
 10
175.710892548783
 20
-41.79691838641726
 10
175.1058881412834
 20
-42.11737904791684
 10
174.5019842526833
 20
-42.51703071491689
 10
173.9070536935834
 20
-42.99066331651729
 10
173.3288522938829
 20
-43.53210232761728
 10
172.7749177928834
 20
-44.13428926261699
 10
172.2524715738833
 20
-44.7893736939174
 10
171.7683245225832
 20
-45.4888155940168
  0
LINE
  5
DA
330
70
100
AcDbEntity
  8
0
 62
    18
420
        0
370
    25
100
AcDbLine
 10
146.4367117225835
 20
114.7642195602829
 30
0.0
 11
144.2567867449831
 21
114.7642195602829
 31
0.0
  0
LINE
  5
DB
330
70
100
AcDbEntity
  8
0
 62
    18
420
        0
370
    25
100
AcDbLine
 10
144.2567867449831
 20
87.26421956028298
 30
0.0
 11
146.4367117225835
 21
87.26421956028298
 31
0.0
  0
SPLINE
  5
DC
330
70
100
AcDbEntity
  8
0
 62
    18
420
        0
370
    25
100
AcDbSpline
210
0.0
220
0.0
230
1.0
 70
     8
 71
     3
 72
     8
 73
     4
 74
     0
 42
0.0000000001
 43
0.0000000001
 40
0.0
 40
0.0
 40
0.0
 40
0.0
 40
1.0
 40
1.0
 40
1.0
 40
1.0
 10
146.4367117225835
 20
87.26421956028298
 30
0.0
 10
146.7025357479703
 20
87.26421956028298
 30
0.0
 10
146.9218892501515
 20
87.4722175410851
 30
0.0
 10
146.936006157311
 20
87.73766645407098
 30
0.0
  0
SPLINE
  5
DD
330
70
100
AcDbEntity
  8
0
 62
    18
420
        0
370
    25
100
AcDbSpline
210
0.0
220
0.0
230
1.0
 70
     8
 71
     3
 72
     8
 73
     4
 74
     0
 42
0.0000000001
 43
0.0000000001
 40
0.0
 40
0.0
 40
0.0
 40
0.0
 40
1.0
 40
1.0
 40
1.0
 40
1.0
 10
146.936006157311
 20
114.2907726664949
 30
0.0
 10
146.9218892501515
 20
114.5562215794809
 30
0.0
 10
146.7025357479703
 20
114.7642195602829
 30
0.0
 10
146.4367117225835
 20
114.7642195602829
 30
0.0
  0
SPLINE
  5
DE
330
70
100
AcDbEntity
  8
0
 62
    18
420
        0
370
    25
100
AcDbSpline
210
0.0
220
0.0
230
1.0
 70
     8
 71
     3
 72
     8
 73
     4
 74
     0
 42
0.0000000001
 43
0.0000000001
 40
0.0
 40
0.0
 40
0.0
 40
0.0
 40
1.0
 40
1.0
 40
1.0
 40
1.0
 10
146.936006157354
 20
87.7376664542866
 30
0.0
 10
147.1003326672447
 20
90.82759918048962
 30
0.0
 10
147.2072779580442
 20
93.92031646978564
 30
0.0
 10
147.2567867450236
 20
97.01421956043461
 30
0.0
  0
SPLINE
  5
DF
330
70
100
AcDbEntity
  8
0
 62
    18
420
        0
370
    25
100
AcDbSpline
210
0.0
220
0.0
230
1.0
 70
     8
 71
     3
 72
     8
 73
     4
 74
     0
 42
0.0000000001
 43
0.0000000001
 40
0.0
 40
0.0
 40
0.0
 40
0.0
 40
1.0
 40
1.0
 40
1.0
 40
1.0
 10
147.2567867450236
 20
105.0142195601313
 30
0.0
 10
147.2072779580442
 20
108.1081226507803
 30
0.0
 10
147.1003326672447
 20
111.2008399400763
 30
0.0
 10
146.936006157354
 20
114.2907726662796
 30
0.0
  0
LINE
  5
E0
330
70
100
AcDbEntity
  8
0
 62
    18
420
        0
370
    25
100
AcDbLine
 10
147.2567867449831
 20
97.01421956028283
 30
0.0
 11
173.7567867449832
 21
97.01421956028283
 31
0.0
  0
LINE
  5
E1
330
70
100
AcDbEntity
  8
0
 62
    18
420
        0
370
    25
100
AcDbLine
 10
173.7567867449832
 20
105.0142195602828
 30
0.0
 11
147.2567867449831
 21
105.0142195602828
 31
0.0
  0
LINE
  5
E2
330
70
100
AcDbEntity
  8
0
 62
    18
420
        0
370
    25
100
AcDbLine
 10
144.2567867449831
 20
114.7642195602829
 30
0.0
 11
144.2567867449831
 21
87.26421956028298
 31
0.0
  0
LINE
  5
E3
330
70
100
AcDbEntity
  8
0
 62
    18
420
        0
370
    25
100
AcDbLine
 10
147.2567867449831
 20
105.0142195602828
 30
0.0
 11
147.2567867449831
 21
97.01421956028283
 31
0.0
  0
SPLINE
  5
E4
330
70
100
AcDbEntity
  8
0
 62
    18
420
        0
370
    25
100
AcDbSpline
210
0.0
220
0.0
230
1.0
 70
     8
 71
     3
 72
    14
 73
    10
 74
     0
 42
0.0000000001
 43
0.0000000001
 40
0.0
 40
0.0
 40
0.0
 40
0.0
 40
1.0
 40
1.0
 40
1.0
 40
2.0
 40
2.0
 40
2.0
 40
3.0
 40
3.0
 40
3.0
 40
3.0
 10
167.4124979747585
 20
97.01421956028317
 30
0.0
 10
169.6216369740811
 20
93.51036562396506
 30
0.0
 10
174.2529328086649
 20
92.46079179073486
 30
0.0
 10
177.7567867449826
 20
94.66993079005805
 30
0.0
 10
181.260640681301
 20
96.87906978938091
 30
0.0
 10
182.3102145145309
 20
101.5103656239647
 30
0.0
 10
180.1010755152077
 20
105.0142195602825
 30
0.0
 10
179.6910666659694
 20
105.6645231947622
 30
0.0
 10
179.1835121566609
 20
106.2479231609584
 30
0.0
 10
178.5961996820374
 20
106.7439736932864
 30
0.0
  0
SPLINE
  5
E5
330
70
100
AcDbEntity
  8
0
 62
    18
420
        0
370
    25
100
AcDbSpline
210
0.0
220
0.0
230
1.0
 70
     8
 71
     3
 72
    11
 73
     7
 74
     0
 42
0.0000000001
 43
0.0000000001
 40
0.0
 40
0.0
 40
0.0
 40
0.0
 40
1.0
 40
1.0
 40
1.0
 40
2.0
 40
2.0
 40
2.0
 40
2.0
 10
178.5961996820374
 20
106.7439736932864
 30
0.0
 10
175.4317438540994
 20
109.4167076565553
 30
0.0
 10
170.6997665752487
 20
109.0180883252749
 30
0.0
 10
168.0270326119797
 20
105.8536324973369
 30
0.0
 10
167.8030055193272
 20
105.5883895480943
 30
0.0
 10
167.5976667921878
 20
105.3079106725362
 30
0.0
 10
167.4124979747585
 20
105.0142195602825
 30
0.0
  0
SPLINE
  5
E6
330
70
100
AcDbEntity
  8
0
 62
    18
420
        0
370
    25
100
AcDbSpline
210
0.0
220
0.0
230
1.0
 70
     8
 71
     3
 72
    11
 73
     7
 74
     0
 42
0.0000000001
 43
0.0000000001
 40
0.0
 40
0.0
 40
0.0
 40
0.0
 40
1.0
 40
1.0
 40
1.0
 40
2.0
 40
2.0
 40
2.0
 40
2.0
 10
173.7567867449832
 20
97.01421956028283
 30
0.0
 10
175.9659257443063
 20
97.01421956028283
 30
0.0
 10
177.7567867449833
 20
98.80508056095948
 30
0.0
 10
177.7567867449833
 20
101.014219560283
 30
0.0
 10
177.7567867449833
 20
103.2233585596061
 30
0.0
 10
175.9659257443063
 20
105.0142195602828
 30
0.0
 10
173.7567867449832
 20
105.0142195602828
 30
0.0
  0
LINE
  5
E7
330
70
100
AcDbEntity
  8
0
 62
     8
420
  8421504
370
    25
100
AcDbLine
 10
146.4367117225835
 20
101.014219560283
 30
0.0
 11
146.4367117225835
 21
114.7642195602829
 31
0.0
  0
LINE
  5
E8
330
70
100
AcDbEntity
  8
0
 62
     8
420
  8421504
370
    25
100
AcDbLine
 10
146.4367117225835
 20
87.26421956028298
 30
0.0
 11
146.4367117225835
 21
101.014219560283
 31
0.0
  0
LINE
  5
E9
330
70
100
AcDbEntity
  8
0
 62
     8
420
  8421504
370
    25
100
AcDbLine
 10
146.9360061573829
 20
101.014219560283
 30
0.0
 11
146.9360061573829
 21
87.73766645408255
 31
0.0
  0
LINE
  5
EA
330
70
100
AcDbEntity
  8
0
 62
     8
420
  8421504
370
    25
100
AcDbLine
 10
146.9360061573829
 20
114.2907726665828
 30
0.0
 11
146.9360061573829
 21
101.014219560283
 31
0.0
  0
SPLINE
  5
EB
330
70
100
AcDbEntity
  8
0
 62
     8
420
  8421504
370
    25
100
AcDbSpline
210
0.0
220
0.0
230
1.0
 70
     8
 71
     3
 72
    11
 73
     7
 74
     0
 42
0.0000000001
 43
0.0000000001
 40
0.0
 40
0.0
 40
0.0
 40
0.0
 40
1.0
 40
1.0
 40
1.0
 40
2.0
 40
2.0
 40
2.0
 40
2.0
 10
178.434885917469
 20
106.5529818888531
 30
0.0
 10
175.3759119504625
 20
109.1366247200128
 30
0.0
 10
170.8016672475731
 20
108.7512926997751
 30
0.0
 10
168.218024416413
 20
105.6923187327685
 30
0.0
 10
168.0356403947241
 20
105.4763802262477
 30
0.0
 10
167.8660405524199
 20
105.2499606601104
 30
0.0
 10
167.71009343376
 20
105.0142195602837
 30
0.0
  0
SPLINE
  5
EC
330
70
100
AcDbEntity
  8
0
 62
     8
420
  8421504
370
    25
100
AcDbSpline
210
0.0
220
0.0
230
1.0
 70
     8
 71
     3
 72
    14
 73
    10
 74
     0
 42
0.0000000001
 43
0.0000000001
 40
0.0
 40
0.0
 40
0.0
 40
0.0
 40
1.0
 40
1.0
 40
1.0
 40
2.0
 40
2.0
 40
2.0
 40
3.0
 40
3.0
 40
3.0
 40
3.0
 10
167.71009343376
 20
97.01421956028189
 30
0.0
 10
169.9192324330832
 20
93.67472305758941
 30
0.0
 10
174.4172902422914
 20
92.75838724973572
 30
0.0
 10
177.7567867449839
 20
94.96752624905957
 30
0.0
 10
181.0962832476764
 20
97.17666524838307
 30
0.0
 10
182.0126190555301
 20
101.6747230575909
 30
0.0
 10
179.8034800562063
 20
105.0142195602837
 30
0.0
 10
179.4228234449263
 20
105.5896480066087
 30
0.0
 10
178.9619775421384
 20
106.1077945442954
 30
0.0
 10
178.434885917469
 20
106.5529818888531
 30
0.0
  0
INSERT
  5
EF
330
70
100
AcDbEntity
  8
CAPA_BASE
100
AcDbBlockReference
  2
Block_0
 10
0.0
 20
0.0
 30
0.0
  0
INSERT
  5
FB
330
70
100
AcDbEntity
  8
CAPA_BASE
100
AcDbBlockReference
  2
Block_1
 10
0.0
 20
0.0
 30
0.0
  0
INSERT
  5
107
330
70
100
AcDbEntity
  8
CAPA_BASE
100
AcDbBlockReference
  2
Block_2
 10
0.0
 20
0.0
 30
0.0
  0
ENDSEC
  0
SECTION
  2
OBJECTS
  0
DICTIONARY
  5
C
330
0
100
AcDbDictionary
281
     1
  3
ACAD_COLOR
350
63
  3
ACAD_DETAILVIEWSTYLE
350
6A
  3
ACAD_GROUP
350
D
  3
ACAD_LAYOUT
350
62
  3
ACAD_MATERIAL
350
10
  3
ACAD_MLEADERSTYLE
350
66
  3
ACAD_MLINESTYLE
350
5F
  3
ACAD_PLOTSETTINGS
350
61
  3
ACAD_PLOTSTYLENAME
350
E
  3
ACAD_SCALELIST
350
42
  3
ACAD_SECTIONVIEWSTYLE
350
68
  3
ACAD_TABLESTYLE
350
64
  3
ACAD_VISUALSTYLE
350
29
  3
ACDB_RECOMPOSE_DATA
350
11B
  3
AcDbVariableDictionary
350
113
  0
DICTIONARY
  5
63
102
{ACAD_REACTORS
330
C
102
}
330
C
100
AcDbDictionary
281
     1
  0
DICTIONARY
  5
6A
102
{ACAD_REACTORS
330
C
102
}
330
C
100
AcDbDictionary
281
     1
  3
Imperial24
350
6B
  0
DICTIONARY
  5
D
102
{ACAD_REACTORS
330
C
102
}
330
C
100
AcDbDictionary
281
     1
  0
DICTIONARY
  5
62
102
{ACAD_REACTORS
330
C
102
}
330
C
100
AcDbDictionary
281
     1
  3
Layout1
350
6F
  3
Layout2
350
77
  3
Model
350
73
  0
DICTIONARY
  5
10
102
{ACAD_REACTORS
330
C
102
}
330
C
100
AcDbDictionary
281
     1
  3
ByBlock
350
19
  3
ByLayer
350
11
  3
Global
350
21
  0
DICTIONARY
  5
66
102
{ACAD_REACTORS
330
C
102
}
330
C
100
AcDbDictionary
281
     1
  3
Standard
350
67
  0
DICTIONARY
  5
5F
102
{ACAD_REACTORS
330
C
102
}
330
C
100
AcDbDictionary
281
     1
  3
Standard
350
60
  0
DICTIONARY
  5
61
102
{ACAD_REACTORS
330
C
102
}
330
C
100
AcDbDictionary
281
     1
  0
ACDBDICTIONARYWDFLT
  5
E
102
{ACAD_REACTORS
330
C
102
}
330
C
100
AcDbDictionary
281
     1
  3
Normal
350
F
100
AcDbDictionaryWithDefault
340
F
  0
DICTIONARY
  5
42
102
{ACAD_REACTORS
330
C
102
}
330
C
100
AcDbDictionary
281
     1
  3
A0
350
43
  3
A1
350
44
  3
A2
350
45
  3
A3
350
46
  3
A4
350
47
  3
A5
350
48
  3
A6
350
49
  3
A7
350
4A
  3
A8
350
4B
  3
A9
350
4C
  3
B0
350
4D
  3
B1
350
4E
  3
B2
350
4F
  3
B3
350
50
  3
B4
350
51
  3
B5
350
52
  3
B6
350
53
  0
DICTIONARY
  5
68
102
{ACAD_REACTORS
330
C
102
}
330
C
100
AcDbDictionary
281
     1
  3
Imperial24
350
69
  0
DICTIONARY
  5
64
102
{ACAD_REACTORS
330
C
102
}
330
C
100
AcDbDictionary
281
     1
  3
Standard
350
65
  0
DICTIONARY
  5
29
102
{ACAD_REACTORS
330
C
102
}
330
C
100
AcDbDictionary
281
     1
  3
2dWireframe
350
2F
  3
Basic
350
2E
  3
Brighten
350
35
  3
ColorChange
350
39
  3
Conceptual
350
32
  3
Dim
350
34
  3
EdgeColorOff
350
41
  3
Facepattern
350
38
  3
Flat
350
2A
  3
FlatWithEdges
350
2B
  3
Gouraud
350
2C
  3
GouraudWithEdges
350
2D
  3
Hidden
350
31
  3
JitterOff
350
3F
  3
Linepattern
350
37
  3
OverhangOff
350
40
  3
Realistic
350
33
  3
Shaded
350
3E
  3
Shaded with edges
350
3D
  3
Shades of Gray
350
3A
  3
Sketchy
350
3B
  3
Thicken
350
36
  3
Wireframe
350
30
  3
X-Ray
350
3C
  0
XRECORD
  5
11B
102
{ACAD_REACTORS
330
C
102
}
330
C
100
AcDbXrecord
280
     1
 90
        1
330
65
  0
DICTIONARY
  5
113
102
{ACAD_REACTORS
330
C
102
}
330
C
100
AcDbDictionary
281
     1
  3
CANNOSCALE
350
118
  3
CMLEADERSTYLE
350
115
  3
CTABLESTYLE
350
114
  3
CVIEWDETAILSTYLE
350
116
  3
CVIEWSECTIONSTYLE
350
117
  0
ACDBDETAILVIEWSTYLE
  5
6B
102
{ACAD_REACTORS
330
6A
102
}
330
6A
100
AcDbModelDocViewStyle
 70
     0
  3
Imperial24
290
     1
300
Imperial24
 90
        0
100
AcDbDetailViewStyle
 70
     0
 71
     0
 90
        3
 71
     1
340
55
 62
   256
 40
0.24
340
0
 62
   256
 40
0.24
300

 40
0.36
280
     3
 71
     2
340
5D
 90
       25
 62
   256
 71
     3
340
55
 62
   256
 40
0.24
 90
        1
 40
0.75
 90
        1
300
%<\AcVar ViewType \f "%tc1">% %<\AcVar ViewDetailId>%\PSCALE %<\AcVar ViewScale \f "%sn">%
 71
     4
340
5D
 90
       25
 62
   256
340
5D
 90
       25
 62
   256
280
     0
  0
LAYOUT
  5
6F
102
{ACAD_REACTORS
330
62
102
}
330
62
100
AcDbPlotSettings
  1

  2

  4

  6

 40
0.0
 41
0.0
 42
0.0
 43
0.0
 44
0.0
 45
0.0
 46
0.0
 47
0.0
 48
0.0
 49
0.0
140
0.0
141
0.0
142
1.0
143
1.0
 70
   688
 72
     0
 73
     0
 74
     5
  7

 75
    16
147
1.0
 76
     0
 77
     2
 78
   300
148
0.0
149
0.0
100
AcDbLayout
  1
Layout1
 70
     1
 71
     1
 10
0.0
 20
0.0
 11
12.0
 21
9.0
 12
0.0
 22
0.0
 32
0.0
 14
0.0
 24
0.0
 34
0.0
 15
0.0
 25
0.0
 35
0.0
146
0.0
 13
0.0
 23
0.0
 33
0.0
 16
1.0
 26
0.0
 36
0.0
 17
0.0
 27
1.0
 37
0.0
 76
     0
330
6C
  0
LAYOUT
  5
77
102
{ACAD_REACTORS
330
62
102
}
330
62
100
AcDbPlotSettings
  1

  2

  4

  6

 40
0.0
 41
0.0
 42
0.0
 43
0.0
 44
0.0
 45
0.0
 46
0.0
 47
0.0
 48
0.0
 49
0.0
140
0.0
141
0.0
142
1.0
143
1.0
 70
   688
 72
     0
 73
     0
 74
     5
  7

 75
    16
147
1.0
 76
     0
 77
     2
 78
   300
148
0.0
149
0.0
100
AcDbLayout
  1
Layout2
 70
     1
 71
     2
 10
0.0
 20
0.0
 11
12.0
 21
9.0
 12
0.0
 22
0.0
 32
0.0
 14
0.0
 24
0.0
 34
0.0
 15
0.0
 25
0.0
 35
0.0
146
0.0
 13
0.0
 23
0.0
 33
0.0
 16
1.0
 26
0.0
 36
0.0
 17
0.0
 27
1.0
 37
0.0
 76
     0
330
74
  0
LAYOUT
  5
73
102
{ACAD_REACTORS
330
62
102
}
330
62
100
AcDbPlotSettings
  1

  2

  4

  6

 40
0.0
 41
0.0
 42
0.0
 43
0.0
 44
0.0
 45
0.0
 46
0.0
 47
0.0
 48
0.0
 49
0.0
140
0.0
141
0.0
142
1.0
143
1.0
 70
  1712
 72
     0
 73
     0
 74
     0
  7

 75
     0
147
1.0
 76
     0
 77
     2
 78
   300
148
0.0
149
0.0
100
AcDbLayout
  1
Model
 70
     1
 71
     0
 10
0.0
 20
0.0
 11
12.0
 21
9.0
 12
0.0
 22
0.0
 32
0.0
 14
0.0
 24
0.0
 34
0.0
 15
0.0
 25
0.0
 35
0.0
146
0.0
 13
0.0
 23
0.0
 33
0.0
 16
1.0
 26
0.0
 36
0.0
 17
0.0
 27
1.0
 37
0.0
 76
     0
330
70
  0
MATERIAL
  5
19
102
{ACAD_XDICTIONARY
360
1A
102
}
102
{ACAD_REACTORS
330
10
102
}
330
10
100
AcDbMaterial
  1
ByBlock
 72
     0
 43
0.0208333333333333
 43
0.0
 43
0.0
 43
0.0
 43
0.0
 43
0.0208333333333333
 43
0.0
 43
0.0
 43
0.0
 43
0.0
 43
1.0
 43
0.0
 43
0.0
 43
0.0
 43
0.0
 43
1.0
 77
     0
 47
0.0208333333333333
 47
0.0
 47
0.0
 47
0.0
 47
0.0
 47
0.0208333333333333
 47
0.0
 47
0.0
 47
0.0
 47
0.0
 47
1.0
 47
0.0
 47
0.0
 47
0.0
 47
0.0
 47
1.0
171
     0
 49
0.0208333333333333
 49
0.0
 49
0.0
 49
0.0
 49
0.0
 49
0.0208333333333333
 49
0.0
 49
0.0
 49
0.0
 49
0.0
 49
1.0
 49
0.0
 49
0.0
 49
0.0
 49
0.0
 49
1.0
175
     0
142
0.0208333333333333
142
0.0
142
0.0
142
0.0
142
0.0
142
0.0208333333333333
142
0.0
142
0.0
142
0.0
142
0.0
142
1.0
142
0.0
142
0.0
142
0.0
142
0.0
142
1.0
179
     0
144
0.0208333333333333
144
0.0
144
0.0
144
0.0
144
0.0
144
0.0208333333333333
144
0.0
144
0.0
144
0.0
144
0.0
144
1.0
144
0.0
144
0.0
144
0.0
144
0.0
144
1.0
147
0.0208333333333333
147
0.0
147
0.0
147
0.0
147
0.0
147
0.0208333333333333
147
0.0
147
0.0
147
0.0
147
0.0
147
1.0
147
0.0
147
0.0
147
0.0
147
0.0
147
1.0
  0
MATERIAL
  5
11
102
{ACAD_XDICTIONARY
360
12
102
}
102
{ACAD_REACTORS
330
10
102
}
330
10
100
AcDbMaterial
  1
ByLayer
 72
     0
 43
0.0208333333333333
 43
0.0
 43
0.0
 43
0.0
 43
0.0
 43
0.0208333333333333
 43
0.0
 43
0.0
 43
0.0
 43
0.0
 43
1.0
 43
0.0
 43
0.0
 43
0.0
 43
0.0
 43
1.0
 77
     0
 47
0.0208333333333333
 47
0.0
 47
0.0
 47
0.0
 47
0.0
 47
0.0208333333333333
 47
0.0
 47
0.0
 47
0.0
 47
0.0
 47
1.0
 47
0.0
 47
0.0
 47
0.0
 47
0.0
 47
1.0
171
     0
 49
0.0208333333333333
 49
0.0
 49
0.0
 49
0.0
 49
0.0
 49
0.0208333333333333
 49
0.0
 49
0.0
 49
0.0
 49
0.0
 49
1.0
 49
0.0
 49
0.0
 49
0.0
 49
0.0
 49
1.0
175
     0
142
0.0208333333333333
142
0.0
142
0.0
142
0.0
142
0.0
142
0.0208333333333333
142
0.0
142
0.0
142
0.0
142
0.0
142
1.0
142
0.0
142
0.0
142
0.0
142
0.0
142
1.0
179
     0
144
0.0208333333333333
144
0.0
144
0.0
144
0.0
144
0.0
144
0.0208333333333333
144
0.0
144
0.0
144
0.0
144
0.0
144
1.0
144
0.0
144
0.0
144
0.0
144
0.0
144
1.0
147
0.0208333333333333
147
0.0
147
0.0
147
0.0
147
0.0
147
0.0208333333333333
147
0.0
147
0.0
147
0.0
147
0.0
147
1.0
147
0.0
147
0.0
147
0.0
147
0.0
147
1.0
  0
MATERIAL
  5
21
102
{ACAD_XDICTIONARY
360
22
102
}
102
{ACAD_REACTORS
330
10
102
}
330
10
100
AcDbMaterial
  1
Global
 72
     0
 43
0.0208333333333333
 43
0.0
 43
0.0
 43
0.0
 43
0.0
 43
0.0208333333333333
 43
0.0
 43
0.0
 43
0.0
 43
0.0
 43
1.0
 43
0.0
 43
0.0
 43
0.0
 43
0.0
 43
1.0
 77
     0
 47
0.0208333333333333
 47
0.0
 47
0.0
 47
0.0
 47
0.0
 47
0.0208333333333333
 47
0.0
 47
0.0
 47
0.0
 47
0.0
 47
1.0
 47
0.0
 47
0.0
 47
0.0
 47
0.0
 47
1.0
171
     0
 49
0.0208333333333333
 49
0.0
 49
0.0
 49
0.0
 49
0.0
 49
0.0208333333333333
 49
0.0
 49
0.0
 49
0.0
 49
0.0
 49
1.0
 49
0.0
 49
0.0
 49
0.0
 49
0.0
 49
1.0
175
     0
142
0.0208333333333333
142
0.0
142
0.0
142
0.0
142
0.0
142
0.0208333333333333
142
0.0
142
0.0
142
0.0
142
0.0
142
1.0
142
0.0
142
0.0
142
0.0
142
0.0
142
1.0
179
     0
144
0.0208333333333333
144
0.0
144
0.0
144
0.0
144
0.0
144
0.0208333333333333
144
0.0
144
0.0
144
0.0
144
0.0
144
1.0
144
0.0
144
0.0
144
0.0
144
0.0
144
1.0
147
0.0208333333333333
147
0.0
147
0.0
147
0.0
147
0.0
147
0.0208333333333333
147
0.0
147
0.0
147
0.0
147
0.0
147
1.0
147
0.0
147
0.0
147
0.0
147
0.0
147
1.0
  0
MLEADERSTYLE
  5
67
102
{ACAD_REACTORS
330
66
102
}
330
66
100
AcDbMLeaderStyle
179
     2
170
     2
171
     1
172
     0
 90
        2
 40
0.0
 41
0.0
173
     1
 91
-1056964608
340
5B
 92
       -2
290
     1
 42
0.09
291
     1
 43
0.36
  3
Standard
 44
0.18
300

342
55
174
     1
178
     6
175
     1
176
     0
 93
-1056964608
 45
0.18
292
     0
297
     0
 46
0.18
 94
-1056964608
 47
1.0
 49
1.0
140
1.0
293
     1
141
0.0
294
     1
177
     0
142
1.0
295
     1
296
     0
143
0.125
271
     0
272
     9
273
     9
298
     1
  0
MLINESTYLE
  5
60
102
{ACAD_REACTORS
330
5F
102
}
330
5F
100
AcDbMlineStyle
  2
STANDARD
 70
     0
  3

 62
   256
 51
90.0
 52
90.0
 71
     2
 49
0.5
 62
   256
  6
BYLAYER
 49
-0.5
 62
   256
  6
BYLAYER
  0
ACDBPLACEHOLDER
  5
F
102
{ACAD_REACTORS
330
E
102
}
330
E
  0
SCALE
  5
43
102
{ACAD_REACTORS
330
42
102
}
330
42
100
AcDbScale
 70
     0
300
1:1
140
1.0
141
1.0
290
     1
  0
SCALE
  5
44
102
{ACAD_REACTORS
330
42
102
}
330
42
100
AcDbScale
 70
     0
300
1/128" = 1'-0"
140
0.0078125
141
12.0
290
     0
  0
SCALE
  5
45
102
{ACAD_REACTORS
330
42
102
}
330
42
100
AcDbScale
 70
     0
300
1/64" = 1'-0"
140
0.015625
141
12.0
290
     0
  0
SCALE
  5
46
102
{ACAD_REACTORS
330
42
102
}
330
42
100
AcDbScale
 70
     0
300
1/32" = 1'-0"
140
0.03125
141
12.0
290
     0
  0
SCALE
  5
47
102
{ACAD_REACTORS
330
42
102
}
330
42
100
AcDbScale
 70
     0
300
1/16" = 1'-0"
140
0.0625
141
12.0
290
     0
  0
SCALE
  5
48
102
{ACAD_REACTORS
330
42
102
}
330
42
100
AcDbScale
 70
     0
300
3/32" = 1'-0"
140
0.09375
141
12.0
290
     0
  0
SCALE
  5
49
102
{ACAD_REACTORS
330
42
102
}
330
42
100
AcDbScale
 70
     0
300
1/8" = 1'-0"
140
0.125
141
12.0
290
     0
  0
SCALE
  5
4A
102
{ACAD_REACTORS
330
42
102
}
330
42
100
AcDbScale
 70
     0
300
3/16" = 1'-0"
140
0.1875
141
12.0
290
     0
  0
SCALE
  5
4B
102
{ACAD_REACTORS
330
42
102
}
330
42
100
AcDbScale
 70
     0
300
1/4" = 1'-0"
140
0.25
141
12.0
290
     0
  0
SCALE
  5
4C
102
{ACAD_REACTORS
330
42
102
}
330
42
100
AcDbScale
 70
     0
300
3/8" = 1'-0"
140
0.375
141
12.0
290
     0
  0
SCALE
  5
4D
102
{ACAD_REACTORS
330
42
102
}
330
42
100
AcDbScale
 70
     0
300
1/2" = 1'-0"
140
0.5
141
12.0
290
     0
  0
SCALE
  5
4E
102
{ACAD_REACTORS
330
42
102
}
330
42
100
AcDbScale
 70
     0
300
3/4" = 1'-0"
140
0.75
141
12.0
290
     0
  0
SCALE
  5
4F
102
{ACAD_REACTORS
330
42
102
}
330
42
100
AcDbScale
 70
     0
300
1" = 1'-0"
140
1.0
141
12.0
290
     0
  0
SCALE
  5
50
102
{ACAD_REACTORS
330
42
102
}
330
42
100
AcDbScale
 70
     0
300
1-1/2" = 1'-0"
140
1.5
141
12.0
290
     0
  0
SCALE
  5
51
102
{ACAD_REACTORS
330
42
102
}
330
42
100
AcDbScale
 70
     0
300
3" = 1'-0"
140
3.0
141
12.0
290
     0
  0
SCALE
  5
52
102
{ACAD_REACTORS
330
42
102
}
330
42
100
AcDbScale
 70
     0
300
6" = 1'-0"
140
6.0
141
12.0
290
     0
  0
SCALE
  5
53
102
{ACAD_REACTORS
330
42
102
}
330
42
100
AcDbScale
 70
     0
300
1'-0" = 1'-0"
140
12.0
141
12.0
290
     0
  0
ACDBSECTIONVIEWSTYLE
  5
69
102
{ACAD_REACTORS
330
68
102
}
330
68
100
AcDbModelDocViewStyle
 70
     0
  3
Imperial24
290
     1
300
Imperial24
 90
        0
100
AcDbSectionViewStyle
 70
     0
 71
     0
 90
       78
 71
     1
340
55
 62
   256
 40
0.24
340
0
340
0
 62
   256
 40
0.24
300
I, O, Q, S, X, Z
 40
0.48
 90
        3
 40
0.18
 90
        1
 71
     2
340
5D
 90
       25
 62
   256
340
5D
 90
       50
 62
   256
 40
0.24
 40
0.0
 40
0.24
 71
     3
340
55
 62
   256
 40
0.24
 90
        1
 40
0.75
 90
        1
300
%<\AcVar ViewType \f "%tc1">% %<\AcVar ViewSectionStartId>%-%<\AcVar ViewSectionEndId>%\PSCALE %<\AcVar ViewScale \f "%sn">%
 71
     4
 62
   256
 62
   257
300
ANSI31
 40
1.0
 90
        0
290
     0
290
     0
 90
        6
 40
0.0
 40
1.570796326794896
 40
0.2617993877991494
 40
1.308996938995747
 40
-0.2617993877991494
 40
1.832595714594046
  0
TABLESTYLE
  5
65
102
{ACAD_XDICTIONARY
360
119
102
}
102
{ACAD_REACTORS
330
64
102
}
330
64
100
AcDbTableStyle
280
     0
  3
Standard
 70
     0
 71
     0
 40
0.06
 41
0.06
280
     0
281
     0
  7
Standard
140
0.18
170
     2
 62
     0
 63
     7
283
     0
 90
      512
 91
        0
  1

274
    -2
284
     1
 64
     0
275
    -2
285
     1
 65
     0
276
    -2
286
     1
 66
     0
277
    -2
287
     1
 67
     0
278
    -2
288
     1
 68
     0
279
    -2
289
     1
 69
     0
  7
Standard
140
0.25
170
     5
 62
     0
 63
     7
283
     0
 90
      512
 91
        0
  1

274
    -2
284
     1
 64
     0
275
    -2
285
     1
 65
     0
276
    -2
286
     1
 66
     0
277
    -2
287
     1
 67
     0
278
    -2
288
     1
 68
     0
279
    -2
289
     1
 69
     0
  7
Standard
140
0.18
170
     5
 62
     0
 63
     7
283
     0
 90
      512
 91
        0
  1

274
    -2
284
     1
 64
     0
275
    -2
285
     1
 65
     0
276
    -2
286
     1
 66
     0
277
    -2
287
     1
 67
     0
278
    -2
288
     1
 68
     0
279
    -2
289
     1
 69
     0
  0
VISUALSTYLE
  5
2F
102
{ACAD_REACTORS
330
29
102
}
330
29
100
AcDbVisualStyle
  2
2dWireframe
 70
     4
177
     3
291
     0
 70
    58
 90
        0
176
     1
 90
        2
176
     1
 90
        0
176
     1
 90
        0
176
     1
 40
0.6
176
     1
 40
30.0
176
     1
 62
     7
420
 16777215
176
     1
 90
        1
176
     1
 90
        4
176
     1
 62
     7
176
     1
 62
   257
176
     1
 90
        1
176
     1
 90
        1
176
     1
 40
1.0
176
     1
 90
        0
176
     1
 62
   257
176
     1
 40
1.0
176
     1
 90
        1
176
     1
 90
        6
176
     1
 90
        2
176
     1
 62
     7
176
     1
 90
        5
176
     1
 90
        0
176
     1
 90
        0
176
     1
290
     0
176
     1
 90
        1
176
     1
 40
0.0
176
     1
 90
        0
176
     1
290
     1
176
     1
290
     1
176
     1
290
     0
176
     1
290
     0
176
     1
290
     0
176
     1
290
     0
176
     1
290
     0
176
     1
290
     0
176
     1
290
     0
176
     1
 90
       50
176
     1
 40
0.0
176
     1
 40
1.0
176
     1
 90
        0
176
     1
 62
    18
420
        0
176
     1
 90
       50
176
     1
 90
        3
176
     1
 62
     5
420
      255
176
     1
290
     0
176
     1
 90
       50
176
     1
 90
       50
176
     1
 90
       50
176
     1
290
     0
176
     1
 90
       50
176
     1
 62
   256
176
     0
 40
1.0
176
     0
 90
        2
176
     1
  1
strokes_ogs.tif
176
     1
290
     0
176
     1
 40
1.0
176
     1
 40
1.0
176
     1
  0
VISUALSTYLE
  5
2E
102
{ACAD_REACTORS
330
29
102
}
330
29
100
AcDbVisualStyle
  2
Basic
 70
     7
177
     3
291
     1
 70
    58
 90
        1
176
     1
 90
        0
176
     1
 90
        1
176
     1
 90
        0
176
     1
 40
0.6
176
     1
 40
30.0
176
     1
 62
     7
420
 16777215
176
     1
 90
        0
176
     1
 90
        4
176
     1
 62
     7
176
     1
 62
   257
176
     1
 90
        1
176
     1
 90
        1
176
     1
 40
1.0
176
     1
 90
        8
176
     1
 62
     7
176
     1
 40
1.0
176
     1
 90
        1
176
     1
 90
        6
176
     1
 90
        2
176
     1
 62
     7
176
     1
 90
        5
176
     1
 90
        0
176
     1
 90
        0
176
     1
290
     0
176
     1
 90
        1
176
     1
 40
0.0
176
     1
 90
        0
176
     1
290
     0
176
     1
290
     1
176
     1
290
     1
176
     1
290
     0
176
     1
290
     0
176
     1
290
     0
176
     1
290
     0
176
     1
290
     0
176
     1
290
     0
176
     1
 90
       50
176
     1
 40
0.0
176
     1
 40
1.0
176
     1
 90
        0
176
     1
 62
    18
420
        0
176
     1
 90
       50
176
     1
 90
        3
176
     1
 62
     5
420
      255
176
     1
290
     0
176
     1
 90
       50
176
     1
 90
       50
176
     1
 90
       50
176
     1
290
     0
176
     1
 90
       50
176
     1
 62
   256
176
     0
 40
1.0
176
     0
 90
        2
176
     1
  1
strokes_ogs.tif
176
     1
290
     0
176
     1
 40
1.0
176
     1
 40
1.0
176
     1
  0
VISUALSTYLE
  5
35
102
{ACAD_REACTORS
330
29
102
}
330
29
100
AcDbVisualStyle
  2
Brighten
 70
    12
177
     3
291
     1
 70
    58
 90
        2
176
     1
 90
        2
176
     1
 90
        0
176
     1
 90
        0
176
     1
 40
0.6
176
     1
 40
30.0
176
     1
 62
     7
420
 16777215
176
     1
 90
        1
176
     1
 90
        4
176
     1
 62
     7
176
     1
 62
   257
176
     1
 90
        1
176
     1
 90
        1
176
     1
 40
1.0
176
     1
 90
        8
176
     1
 62
     7
176
     1
 40
1.0
176
     1
 90
        1
176
     1
 90
        6
176
     1
 90
        2
176
     1
 62
     7
176
     1
 90
        5
176
     1
 90
        0
176
     1
 90
        0
176
     1
290
     0
176
     1
 90
        1
176
     1
 40
50.0
176
     1
 90
        0
176
     1
290
     0
176
     1
290
     1
176
     1
290
     1
176
     1
290
     0
176
     1
290
     0
176
     1
290
     0
176
     1
290
     0
176
     1
290
     0
176
     1
290
     0
176
     1
 90
       50
176
     1
 40
0.0
176
     1
 40
1.0
176
     1
 90
        0
176
     1
 62
    18
420
        0
176
     1
 90
       50
176
     1
 90
        3
176
     1
 62
     5
420
      255
176
     1
290
     0
176
     1
 90
       50
176
     1
 90
       50
176
     1
 90
       50
176
     1
290
     0
176
     1
 90
       50
176
     1
 62
   256
176
     0
 40
1.0
176
     0
 90
        2
176
     1
  1
strokes_ogs.tif
176
     1
290
     0
176
     1
 40
1.0
176
     1
 40
1.0
176
     1
  0
VISUALSTYLE
  5
39
102
{ACAD_REACTORS
330
29
102
}
330
29
100
AcDbVisualStyle
  2
ColorChange
 70
    16
177
     3
291
     1
 70
    58
 90
        2
176
     1
 90
        2
176
     1
 90
        3
176
     1
 90
        0
176
     1
 40
0.6
176
     1
 40
30.0
176
     1
 62
     8
420
  8421504
176
     1
 90
        1
176
     1
 90
        4
176
     1
 62
     7
176
     1
 62
   257
176
     1
 90
        1
176
     1
 90
        1
176
     1
 40
1.0
176
     1
 90
        8
176
     1
 62
     8
420
  8421504
176
     1
 40
1.0
176
     1
 90
        1
176
     1
 90
        6
176
     1
 90
        2
176
     1
 62
     7
176
     1
 90
        5
176
     1
 90
        0
176
     1
 90
        0
176
     1
290
     0
176
     1
 90
        1
176
     1
 40
0.0
176
     1
 90
        0
176
     1
290
     0
176
     1
290
     1
176
     1
290
     1
176
     1
290
     0
176
     1
290
     0
176
     1
290
     0
176
     1
290
     0
176
     1
290
     0
176
     1
290
     0
176
     1
 90
       50
176
     1
 40
0.0
176
     1
 40
1.0
176
     1
 90
        0
176
     1
 62
    18
420
        0
176
     1
 90
       50
176
     1
 90
        3
176
     1
 62
     5
420
      255
176
     1
290
     0
176
     1
 90
       50
176
     1
 90
       50
176
     1
 90
       50
176
     1
290
     0
176
     1
 90
       50
176
     1
 62
   256
176
     0
 40
1.0
176
     0
 90
        2
176
     1
  1
strokes_ogs.tif
176
     1
290
     0
176
     1
 40
1.0
176
     1
 40
1.0
176
     1
  0
VISUALSTYLE
  5
32
102
{ACAD_REACTORS
330
29
102
}
330
29
100
AcDbVisualStyle
  2
Conceptual
 70
     9
177
     3
291
     0
 70
    58
 90
        3
176
     1
 90
        2
176
     1
 90
        0
176
     1
 90
        0
176
     1
 40
0.6
176
     1
 40
30.0
176
     1
 62
     7
420
 16777215
176
     1
 90
        2
176
     1
 90
        2
176
     1
 62
     7
176
     1
 62
   257
176
     1
 90
        1
176
     1
 90
        1
176
     1
 40
179.0
176
     1
 90
        8
176
     1
 62
     7
176
     1
 40
1.0
176
     1
 90
        1
176
     1
 90
        6
176
     1
 90
        2
176
     1
 62
     7
176
     1
 90
        3
176
     1
 90
        0
176
     1
 90
        0
176
     1
290
     0
176
     1
 90
        1
176
     1
 40
0.0
176
     1
 90
        0
176
     1
290
     0
176
     1
290
     1
176
     1
290
     1
176
     1
290
     0
176
     1
290
     0
176
     1
290
     0
176
     1
290
     0
176
     1
290
     0
176
     1
290
     0
176
     1
 90
       50
176
     1
 40
0.0
176
     1
 40
1.0
176
     1
 90
        0
176
     1
 62
    18
420
        0
176
     1
 90
       50
176
     1
 90
        3
176
     1
 62
     5
420
      255
176
     1
290
     0
176
     1
 90
       50
176
     1
 90
       50
176
     1
 90
       50
176
     1
290
     0
176
     1
 90
       50
176
     1
 62
   256
176
     0
 40
1.0
176
     0
 90
        2
176
     1
  1
strokes_ogs.tif
176
     1
290
     0
176
     1
 40
1.0
176
     1
 40
1.0
176
     1
  0
VISUALSTYLE
  5
34
102
{ACAD_REACTORS
330
29
102
}
330
29
100
AcDbVisualStyle
  2
Dim
 70
    11
177
     3
291
     1
 70
    58
 90
        2
176
     1
 90
        2
176
     1
 90
        0
176
     1
 90
        0
176
     1
 40
0.6
176
     1
 40
30.0
176
     1
 62
     7
420
 16777215
176
     1
 90
        1
176
     1
 90
        4
176
     1
 62
     7
176
     1
 62
   257
176
     1
 90
        1
176
     1
 90
        1
176
     1
 40
1.0
176
     1
 90
        8
176
     1
 62
     7
176
     1
 40
1.0
176
     1
 90
        1
176
     1
 90
        6
176
     1
 90
        2
176
     1
 62
     7
176
     1
 90
        5
176
     1
 90
        0
176
     1
 90
        0
176
     1
290
     0
176
     1
 90
        1
176
     1
 40
-50.0
176
     1
 90
        0
176
     1
290
     0
176
     1
290
     1
176
     1
290
     1
176
     1
290
     0
176
     1
290
     0
176
     1
290
     0
176
     1
290
     0
176
     1
290
     0
176
     1
290
     0
176
     1
 90
       50
176
     1
 40
0.0
176
     1
 40
1.0
176
     1
 90
        0
176
     1
 62
    18
420
        0
176
     1
 90
       50
176
     1
 90
        3
176
     1
 62
     5
420
      255
176
     1
290
     0
176
     1
 90
       50
176
     1
 90
       50
176
     1
 90
       50
176
     1
290
     0
176
     1
 90
       50
176
     1
 62
   256
176
     0
 40
1.0
176
     0
 90
        2
176
     1
  1
strokes_ogs.tif
176
     1
290
     0
176
     1
 40
1.0
176
     1
 40
1.0
176
     1
  0
VISUALSTYLE
  5
41
102
{ACAD_REACTORS
330
29
102
}
330
29
100
AcDbVisualStyle
  2
EdgeColorOff
 70
    22
177
     3
291
     1
 70
    58
 90
        2
176
     0
 90
        2
176
     0
 90
        0
176
     0
 90
        0
176
     0
 40
0.6
176
     0
 40
30.0
176
     0
 62
     7
420
 16777215
176
     0
 90
        1
176
     0
 90
        4
176
     0
 62
     7
176
     0
 62
   257
176
     0
 90
        1
176
     0
 90
        1
176
     0
 40
1.0
176
     0
 90
        8
176
     2
 62
     7
176
     0
 40
1.0
176
     0
 90
        1
176
     0
 90
        6
176
     0
 90
        2
176
     0
 62
     7
176
     0
 90
        5
176
     0
 90
        0
176
     0
 90
        0
176
     0
290
     0
176
     0
 90
        1
176
     0
 40
0.0
176
     0
 90
        0
176
     0
290
     0
176
     0
290
     1
176
     0
290
     1
176
     0
290
     0
176
     0
290
     0
176
     0
290
     0
176
     0
290
     0
176
     0
290
     0
176
     0
290
     0
176
     0
 90
       50
176
     0
 40
0.0
176
     0
 40
1.0
176
     0
 90
        0
176
     0
 62
    18
420
        0
176
     0
 90
       50
176
     0
 90
        3
176
     0
 62
     5
420
      255
176
     0
290
     0
176
     0
 90
       50
176
     0
 90
       50
176
     0
 90
       50
176
     0
290
     0
176
     0
 90
       50
176
     0
 62
   256
176
     0
 40
1.0
176
     0
 90
        2
176
     0
  1
strokes_ogs.tif
176
     0
290
     0
176
     0
 40
1.0
176
     0
 40
1.0
176
     0
  0
VISUALSTYLE
  5
38
102
{ACAD_REACTORS
330
29
102
}
330
29
100
AcDbVisualStyle
  2
Facepattern
 70
    15
177
     3
291
     1
 70
    58
 90
        2
176
     1
 90
        2
176
     1
 90
        0
176
     1
 90
        0
176
     1
 40
0.6
176
     1
 40
30.0
176
     1
 62
     7
420
 16777215
176
     1
 90
        1
176
     1
 90
        4
176
     1
 62
     7
176
     1
 62
   257
176
     1
 90
        1
176
     1
 90
        1
176
     1
 40
1.0
176
     1
 90
        8
176
     1
 62
     7
176
     1
 40
1.0
176
     1
 90
        1
176
     1
 90
        6
176
     1
 90
        2
176
     1
 62
     7
176
     1
 90
        5
176
     1
 90
        0
176
     1
 90
        0
176
     1
290
     0
176
     1
 90
        1
176
     1
 40
0.0
176
     1
 90
        0
176
     1
290
     0
176
     1
290
     1
176
     1
290
     1
176
     1
290
     0
176
     1
290
     0
176
     1
290
     0
176
     1
290
     0
176
     1
290
     0
176
     1
290
     0
176
     1
 90
       50
176
     1
 40
0.0
176
     1
 40
1.0
176
     1
 90
        0
176
     1
 62
    18
420
        0
176
     1
 90
       50
176
     1
 90
        3
176
     1
 62
     5
420
      255
176
     1
290
     0
176
     1
 90
       50
176
     1
 90
       50
176
     1
 90
       50
176
     1
290
     0
176
     1
 90
       50
176
     1
 62
   256
176
     0
 40
1.0
176
     0
 90
        2
176
     1
  1
strokes_ogs.tif
176
     1
290
     0
176
     1
 40
1.0
176
     1
 40
1.0
176
     1
  0
VISUALSTYLE
  5
2A
102
{ACAD_REACTORS
330
29
102
}
330
29
100
AcDbVisualStyle
  2
Flat
 70
     0
177
     3
291
     1
 70
    58
 90
        2
176
     1
 90
        1
176
     1
 90
        1
176
     1
 90
        2
176
     1
 40
0.6
176
     1
 40
30.0
176
     1
 62
     7
420
 16777215
176
     1
 90
        0
176
     1
 90
        0
176
     1
 62
     7
176
     1
 62
   257
176
     1
 90
        1
176
     1
 90
        1
176
     1
 40
1.0
176
     1
 90
        8
176
     1
 62
     7
176
     1
 40
1.0
176
     1
 90
        1
176
     1
 90
        6
176
     1
 90
        2
176
     1
 62
     7
176
     1
 90
        5
176
     1
 90
        0
176
     1
 90
        0
176
     1
290
     0
176
     1
 90
       13
176
     1
 40
0.0
176
     1
 90
        0
176
     1
290
     0
176
     1
290
     1
176
     1
290
     1
176
     1
290
     0
176
     1
290
     0
176
     1
290
     0
176
     1
290
     0
176
     1
290
     0
176
     1
290
     0
176
     1
 90
       50
176
     1
 40
0.0
176
     1
 40
1.0
176
     1
 90
        0
176
     1
 62
    18
420
        0
176
     1
 90
       50
176
     1
 90
        3
176
     1
 62
     5
420
      255
176
     1
290
     0
176
     1
 90
       50
176
     1
 90
       50
176
     1
 90
       50
176
     1
290
     0
176
     1
 90
       50
176
     1
 62
   256
176
     0
 40
1.0
176
     0
 90
        2
176
     1
  1
strokes_ogs.tif
176
     1
290
     0
176
     1
 40
1.0
176
     1
 40
1.0
176
     1
  0
VISUALSTYLE
  5
2B
102
{ACAD_REACTORS
330
29
102
}
330
29
100
AcDbVisualStyle
  2
FlatWithEdges
 70
     1
177
     3
291
     1
 70
    58
 90
        2
176
     1
 90
        1
176
     1
 90
        1
176
     1
 90
        2
176
     1
 40
0.6
176
     1
 40
30.0
176
     1
 62
     7
420
 16777215
176
     1
 90
        1
176
     1
 90
        0
176
     1
 62
     7
176
     1
 62
   257
176
     1
 90
        1
176
     1
 90
        1
176
     1
 40
1.0
176
     1
 90
        0
176
     1
 62
   257
176
     1
 40
1.0
176
     1
 90
        1
176
     1
 90
        6
176
     1
 90
        2
176
     1
 62
     7
176
     1
 90
        5
176
     1
 90
        0
176
     1
 90
        0
176
     1
290
     0
176
     1
 90
       13
176
     1
 40
0.0
176
     1
 90
        0
176
     1
290
     0
176
     1
290
     1
176
     1
290
     1
176
     1
290
     0
176
     1
290
     0
176
     1
290
     0
176
     1
290
     0
176
     1
290
     0
176
     1
290
     0
176
     1
 90
       50
176
     1
 40
0.0
176
     1
 40
1.0
176
     1
 90
        0
176
     1
 62
    18
420
        0
176
     1
 90
       50
176
     1
 90
        3
176
     1
 62
     5
420
      255
176
     1
290
     0
176
     1
 90
       50
176
     1
 90
       50
176
     1
 90
       50
176
     1
290
     0
176
     1
 90
       50
176
     1
 62
   256
176
     0
 40
1.0
176
     0
 90
        2
176
     1
  1
strokes_ogs.tif
176
     1
290
     0
176
     1
 40
1.0
176
     1
 40
1.0
176
     1
  0
VISUALSTYLE
  5
2C
102
{ACAD_REACTORS
330
29
102
}
330
29
100
AcDbVisualStyle
  2
Gouraud
 70
     2
177
     3
291
     1
 70
    58
 90
        2
176
     1
 90
        2
176
     1
 90
        1
176
     1
 90
        2
176
     1
 40
0.6
176
     1
 40
30.0
176
     1
 62
     7
420
 16777215
176
     1
 90
        0
176
     1
 90
        0
176
     1
 62
     7
176
     1
 62
   257
176
     1
 90
        1
176
     1
 90
        1
176
     1
 40
1.0
176
     1
 90
        0
176
     1
 62
     7
176
     1
 40
1.0
176
     1
 90
        1
176
     1
 90
        6
176
     1
 90
        2
176
     1
 62
     7
176
     1
 90
        5
176
     1
 90
        0
176
     1
 90
        0
176
     1
290
     0
176
     1
 90
       13
176
     1
 40
0.0
176
     1
 90
        0
176
     1
290
     0
176
     1
290
     1
176
     1
290
     1
176
     1
290
     0
176
     1
290
     0
176
     1
290
     0
176
     1
290
     0
176
     1
290
     0
176
     1
290
     0
176
     1
 90
       50
176
     1
 40
0.0
176
     1
 40
1.0
176
     1
 90
        0
176
     1
 62
    18
420
        0
176
     1
 90
       50
176
     1
 90
        3
176
     1
 62
     5
420
      255
176
     1
290
     0
176
     1
 90
       50
176
     1
 90
       50
176
     1
 90
       50
176
     1
290
     0
176
     1
 90
       50
176
     1
 62
   256
176
     0
 40
1.0
176
     0
 90
        2
176
     1
  1
strokes_ogs.tif
176
     1
290
     0
176
     1
 40
1.0
176
     1
 40
1.0
176
     1
  0
VISUALSTYLE
  5
2D
102
{ACAD_REACTORS
330
29
102
}
330
29
100
AcDbVisualStyle
  2
GouraudWithEdges
 70
     3
177
     3
291
     1
 70
    58
 90
        2
176
     1
 90
        2
176
     1
 90
        1
176
     1
 90
        2
176
     1
 40
0.6
176
     1
 40
30.0
176
     1
 62
     7
420
 16777215
176
     1
 90
        1
176
     1
 90
        0
176
     1
 62
     7
176
     1
 62
   257
176
     1
 90
        1
176
     1
 90
        1
176
     1
 40
1.0
176
     1
 90
        0
176
     1
 62
   257
176
     1
 40
1.0
176
     1
 90
        1
176
     1
 90
        6
176
     1
 90
        2
176
     1
 62
     7
176
     1
 90
        5
176
     1
 90
        0
176
     1
 90
        0
176
     1
290
     0
176
     1
 90
       13
176
     1
 40
0.0
176
     1
 90
        0
176
     1
290
     0
176
     1
290
     1
176
     1
290
     1
176
     1
290
     0
176
     1
290
     0
176
     1
290
     0
176
     1
290
     0
176
     1
290
     0
176
     1
290
     0
176
     1
 90
       50
176
     1
 40
0.0
176
     1
 40
1.0
176
     1
 90
        0
176
     1
 62
    18
420
        0
176
     1
 90
       50
176
     1
 90
        3
176
     1
 62
     5
420
      255
176
     1
290
     0
176
     1
 90
       50
176
     1
 90
       50
176
     1
 90
       50
176
     1
290
     0
176
     1
 90
       50
176
     1
 62
   256
176
     0
 40
1.0
176
     0
 90
        2
176
     1
  1
strokes_ogs.tif
176
     1
290
     0
176
     1
 40
1.0
176
     1
 40
1.0
176
     1
  0
VISUALSTYLE
  5
31
102
{ACAD_REACTORS
330
29
102
}
330
29
100
AcDbVisualStyle
  2
Hidden
 70
     6
177
     3
291
     0
 70
    58
 90
        1
176
     1
 90
        2
176
     1
 90
        2
176
     1
 90
        0
176
     1
 40
0.6
176
     1
 40
30.0
176
     1
 62
     7
420
 16777215
176
     1
 90
        2
176
     1
 90
        2
176
     1
 62
     7
176
     1
 62
   257
176
     1
 90
        2
176
     1
 90
        1
176
     1
 40
40.0
176
     1
 90
        0
176
     1
 62
   257
176
     1
 40
1.0
176
     1
 90
        1
176
     1
 90
        6
176
     1
 90
        2
176
     1
 62
     7
176
     1
 90
        3
176
     1
 90
        0
176
     1
 90
        0
176
     1
290
     0
176
     1
 90
        1
176
     1
 40
0.0
176
     1
 90
        0
176
     1
290
     0
176
     1
290
     1
176
     1
290
     1
176
     1
290
     0
176
     1
290
     0
176
     1
290
     0
176
     1
290
     0
176
     1
290
     0
176
     1
290
     0
176
     1
 90
       50
176
     1
 40
0.0
176
     1
 40
1.0
176
     1
 90
        0
176
     1
 62
    18
420
        0
176
     1
 90
       50
176
     1
 90
        3
176
     1
 62
     5
420
      255
176
     1
290
     0
176
     1
 90
       50
176
     1
 90
       50
176
     1
 90
       50
176
     1
290
     0
176
     1
 90
       50
176
     1
 62
   256
176
     0
 40
1.0
176
     0
 90
        2
176
     1
  1
strokes_ogs.tif
176
     1
290
     0
176
     1
 40
1.0
176
     1
 40
1.0
176
     1
  0
VISUALSTYLE
  5
3F
102
{ACAD_REACTORS
330
29
102
}
330
29
100
AcDbVisualStyle
  2
JitterOff
 70
    20
177
     3
291
     1
 70
    58
 90
        2
176
     0
 90
        2
176
     0
 90
        0
176
     0
 90
        0
176
     0
 40
0.6
176
     0
 40
30.0
176
     0
 62
     7
420
 16777215
176
     0
 90
        1
176
     0
 90
        4
176
     0
 62
     7
176
     0
 62
   257
176
     0
 90
        1
176
     0
 90
        1
176
     0
 40
1.0
176
     0
 90
       10
176
     2
 62
     7
176
     0
 40
1.0
176
     0
 90
        1
176
     0
 90
        6
176
     0
 90
        2
176
     0
 62
     7
176
     0
 90
        5
176
     0
 90
        0
176
     0
 90
        0
176
     0
290
     0
176
     0
 90
        1
176
     0
 40
0.0
176
     0
 90
        0
176
     0
290
     0
176
     0
290
     1
176
     0
290
     1
176
     0
290
     0
176
     0
290
     0
176
     0
290
     0
176
     0
290
     0
176
     0
290
     0
176
     0
290
     0
176
     0
 90
       50
176
     0
 40
0.0
176
     0
 40
1.0
176
     0
 90
        0
176
     0
 62
    18
420
        0
176
     0
 90
       50
176
     0
 90
        3
176
     0
 62
     5
420
      255
176
     0
290
     0
176
     0
 90
       50
176
     0
 90
       50
176
     0
 90
       50
176
     0
290
     0
176
     0
 90
       50
176
     0
 62
   256
176
     0
 40
1.0
176
     0
 90
        2
176
     0
  1
strokes_ogs.tif
176
     0
290
     0
176
     0
 40
1.0
176
     0
 40
1.0
176
     0
  0
VISUALSTYLE
  5
37
102
{ACAD_REACTORS
330
29
102
}
330
29
100
AcDbVisualStyle
  2
Linepattern
 70
    14
177
     3
291
     1
 70
    58
 90
        2
176
     1
 90
        2
176
     1
 90
        0
176
     1
 90
        0
176
     1
 40
0.6
176
     1
 40
30.0
176
     1
 62
     7
420
 16777215
176
     1
 90
        1
176
     1
 90
        4
176
     1
 62
     7
176
     1
 62
   257
176
     1
 90
        7
176
     1
 90
        7
176
     1
 40
1.0
176
     1
 90
        8
176
     1
 62
     7
176
     1
 40
1.0
176
     1
 90
        1
176
     1
 90
        6
176
     1
 90
        2
176
     1
 62
     7
176
     1
 90
        5
176
     1
 90
        0
176
     1
 90
        0
176
     1
290
     0
176
     1
 90
        1
176
     1
 40
0.0
176
     1
 90
        0
176
     1
290
     0
176
     1
290
     1
176
     1
290
     1
176
     1
290
     0
176
     1
290
     0
176
     1
290
     0
176
     1
290
     0
176
     1
290
     0
176
     1
290
     0
176
     1
 90
       50
176
     1
 40
0.0
176
     1
 40
1.0
176
     1
 90
        0
176
     1
 62
    18
420
        0
176
     1
 90
       50
176
     1
 90
        3
176
     1
 62
     5
420
      255
176
     1
290
     0
176
     1
 90
       50
176
     1
 90
       50
176
     1
 90
       50
176
     1
290
     0
176
     1
 90
       50
176
     1
 62
   256
176
     0
 40
1.0
176
     0
 90
        2
176
     1
  1
strokes_ogs.tif
176
     1
290
     0
176
     1
 40
1.0
176
     1
 40
1.0
176
     1
  0
VISUALSTYLE
  5
40
102
{ACAD_REACTORS
330
29
102
}
330
29
100
AcDbVisualStyle
  2
OverhangOff
 70
    21
177
     3
291
     1
 70
    58
 90
        2
176
     0
 90
        2
176
     0
 90
        0
176
     0
 90
        0
176
     0
 40
0.6
176
     0
 40
30.0
176
     0
 62
     7
420
 16777215
176
     0
 90
        1
176
     0
 90
        4
176
     0
 62
     7
176
     0
 62
   257
176
     0
 90
        1
176
     0
 90
        1
176
     0
 40
1.0
176
     0
 90
        9
176
     2
 62
     7
176
     0
 40
1.0
176
     0
 90
        1
176
     0
 90
        6
176
     0
 90
        2
176
     0
 62
     7
176
     0
 90
        5
176
     0
 90
        0
176
     0
 90
        0
176
     0
290
     0
176
     0
 90
        1
176
     0
 40
0.0
176
     0
 90
        0
176
     0
290
     0
176
     0
290
     1
176
     0
290
     1
176
     0
290
     0
176
     0
290
     0
176
     0
290
     0
176
     0
290
     0
176
     0
290
     0
176
     0
290
     0
176
     0
 90
       50
176
     0
 40
0.0
176
     0
 40
1.0
176
     0
 90
        0
176
     0
 62
    18
420
        0
176
     0
 90
       50
176
     0
 90
        3
176
     0
 62
     5
420
      255
176
     0
290
     0
176
     0
 90
       50
176
     0
 90
       50
176
     0
 90
       50
176
     0
290
     0
176
     0
 90
       50
176
     0
 62
   256
176
     0
 40
1.0
176
     0
 90
        2
176
     0
  1
strokes_ogs.tif
176
     0
290
     0
176
     0
 40
1.0
176
     0
 40
1.0
176
     0
  0
VISUALSTYLE
  5
33
102
{ACAD_REACTORS
330
29
102
}
330
29
100
AcDbVisualStyle
  2
Realistic
 70
     8
177
     3
291
     0
 70
    58
 90
        2
176
     1
 90
        3
176
     1
 90
        0
176
     1
 90
        2
176
     1
 40
0.6
176
     1
 40
30.0
176
     1
 62
     7
420
 16777215
176
     1
 90
        0
176
     1
 90
        0
176
     1
 62
     7
176
     1
 62
   257
176
     1
 90
        1
176
     1
 90
        1
176
     1
 40
1.0
176
     1
 90
        8
176
     1
 62
   257
176
     1
 40
1.0
176
     1
 90
        1
176
     1
 90
        6
176
     1
 90
        2
176
     1
 62
     7
176
     1
 90
        3
176
     1
 90
        0
176
     1
 90
        0
176
     1
290
     0
176
     1
 90
       13
176
     1
 40
0.0
176
     1
 90
        0
176
     1
290
     0
176
     1
290
     1
176
     1
290
     1
176
     1
290
     0
176
     1
290
     0
176
     1
290
     0
176
     1
290
     0
176
     1
290
     0
176
     1
290
     0
176
     1
 90
       50
176
     1
 40
0.0
176
     1
 40
1.0
176
     1
 90
        0
176
     1
 62
    18
420
        0
176
     1
 90
       50
176
     1
 90
        3
176
     1
 62
     5
420
      255
176
     1
290
     0
176
     1
 90
       50
176
     1
 90
       50
176
     1
 90
       50
176
     1
290
     0
176
     1
 90
       50
176
     1
 62
   256
176
     0
 40
1.0
176
     0
 90
        2
176
     1
  1
strokes_ogs.tif
176
     1
290
     0
176
     1
 40
1.0
176
     1
 40
1.0
176
     1
  0
VISUALSTYLE
  5
3E
102
{ACAD_REACTORS
330
29
102
}
330
29
100
AcDbVisualStyle
  2
Shaded
 70
    27
177
     3
291
     0
 70
    58
 90
        2
176
     1
 90
        2
176
     1
 90
        1
176
     1
 90
        2
176
     1
 40
0.6
176
     1
 40
30.0
176
     1
 62
     7
420
 16777215
176
     1
 90
        0
176
     1
 90
        4
176
     1
 62
     7
176
     1
 62
   257
176
     1
 90
        1
176
     1
 90
        1
176
     1
 40
1.0
176
     1
 90
        8
176
     1
 62
   257
176
     1
 40
1.0
176
     1
 90
        1
176
     1
 90
        6
176
     1
 90
        2
176
     1
 62
     8
420
  7895160
176
     1
 90
        3
176
     1
 90
        0
176
     1
 90
        0
176
     1
290
     0
176
     1
 90
        5
176
     1
 40
0.0
176
     1
 90
        0
176
     1
290
     0
176
     1
290
     1
176
     1
290
     1
176
     1
290
     0
176
     1
290
     0
176
     1
290
     0
176
     1
290
     0
176
     1
290
     0
176
     1
290
     0
176
     1
 90
       50
176
     1
 40
0.0
176
     1
 40
1.0
176
     1
 90
        0
176
     1
 62
    18
420
        0
176
     1
 90
       50
176
     1
 90
        3
176
     1
 62
     5
420
      255
176
     1
290
     0
176
     1
 90
       50
176
     1
 90
       50
176
     1
 90
       50
176
     1
290
     0
176
     1
 90
       50
176
     1
 62
   256
176
     0
 40
1.0
176
     0
 90
        2
176
     1
  1
strokes_ogs.tif
176
     1
290
     0
176
     1
 40
1.0
176
     1
 40
1.0
176
     1
  0
VISUALSTYLE
  5
3D
102
{ACAD_REACTORS
330
29
102
}
330
29
100
AcDbVisualStyle
  2
Shaded with edges
 70
    26
177
     3
291
     0
 70
    58
 90
        2
176
     1
 90
        2
176
     1
 90
        1
176
     1
 90
        2
176
     1
 40
0.6
176
     1
 40
30.0
176
     1
 62
     7
420
 16777215
176
     1
 90
        1
176
     1
 90
        2
176
     1
 62
     7
176
     1
 62
   257
176
     1
 90
        2
176
     1
 90
        1
176
     1
 40
1.0
176
     1
 90
        8
176
     1
 62
   257
176
     1
 40
1.0
176
     1
 90
        1
176
     1
 90
        6
176
     1
 90
        2
176
     1
 62
     7
176
     1
 90
        3
176
     1
 90
        0
176
     1
 90
        0
176
     1
290
     0
176
     1
 90
        5
176
     1
 40
0.0
176
     1
 90
        0
176
     1
290
     0
176
     1
290
     1
176
     1
290
     1
176
     1
290
     0
176
     1
290
     0
176
     1
290
     0
176
     1
290
     0
176
     1
290
     0
176
     1
290
     0
176
     1
 90
       50
176
     1
 40
0.0
176
     1
 40
1.0
176
     1
 90
        0
176
     1
 62
    18
420
        0
176
     1
 90
       50
176
     1
 90
        3
176
     1
 62
     5
420
      255
176
     1
290
     0
176
     1
 90
       50
176
     1
 90
       50
176
     1
 90
       50
176
     1
290
     0
176
     1
 90
       50
176
     1
 62
   256
176
     0
 40
1.0
176
     0
 90
        2
176
     1
  1
strokes_ogs.tif
176
     1
290
     0
176
     1
 40
1.0
176
     1
 40
1.0
176
     1
  0
VISUALSTYLE
  5
3A
102
{ACAD_REACTORS
330
29
102
}
330
29
100
AcDbVisualStyle
  2
Shades of Gray
 70
    23
177
     3
291
     0
 70
    58
 90
        2
176
     1
 90
        2
176
     1
 90
        3
176
     1
 90
        0
176
     1
 40
0.6
176
     1
 40
30.0
176
     1
 62
     7
420
 16777215
176
     1
 90
        2
176
     1
 90
        2
176
     1
 62
     7
176
     1
 62
     7
176
     1
 90
        1
176
     1
 90
        1
176
     1
 40
40.0
176
     1
 90
        8
176
     1
 62
     7
176
     1
 40
1.0
176
     1
 90
        1
176
     1
 90
        6
176
     1
 90
        2
176
     1
 62
     7
176
     1
 90
        3
176
     1
 90
        0
176
     1
 90
        0
176
     1
290
     0
176
     1
 90
        1
176
     1
 40
0.0
176
     1
 90
        0
176
     1
290
     0
176
     1
290
     1
176
     1
290
     1
176
     1
290
     0
176
     1
290
     0
176
     1
290
     0
176
     1
290
     0
176
     1
290
     0
176
     1
290
     0
176
     1
 90
       50
176
     1
 40
0.0
176
     1
 40
1.0
176
     1
 90
        0
176
     1
 62
    18
420
        0
176
     1
 90
       50
176
     1
 90
        3
176
     1
 62
     5
420
      255
176
     1
290
     0
176
     1
 90
       50
176
     1
 90
       50
176
     1
 90
       50
176
     1
290
     0
176
     1
 90
       50
176
     1
 62
   256
176
     0
 40
1.0
176
     0
 90
        2
176
     1
  1
strokes_ogs.tif
176
     1
290
     0
176
     1
 40
1.0
176
     1
 40
1.0
176
     1
  0
VISUALSTYLE
  5
3B
102
{ACAD_REACTORS
330
29
102
}
330
29
100
AcDbVisualStyle
  2
Sketchy
 70
    24
177
     3
291
     0
 70
    58
 90
        1
176
     1
 90
        2
176
     1
 90
        2
176
     1
 90
        0
176
     1
 40
0.6
176
     1
 40
30.0
176
     1
 62
     7
420
 16777215
176
     1
 90
        2
176
     1
 90
        2
176
     1
 62
     7
176
     1
 62
     7
176
     1
 90
        1
176
     1
 90
        1
176
     1
 40
40.0
176
     1
 90
       11
176
     1
 62
     7
176
     1
 40
1.0
176
     1
 90
        1
176
     1
 90
        6
176
     1
 90
        2
176
     1
 62
     7
176
     1
 90
        6
176
     1
 90
        0
176
     1
 90
        0
176
     1
290
     0
176
     1
 90
        1
176
     1
 40
0.0
176
     1
 90
        0
176
     1
290
     0
176
     1
290
     1
176
     1
290
     1
176
     1
290
     0
176
     1
290
     0
176
     1
290
     0
176
     1
290
     0
176
     1
290
     0
176
     1
290
     0
176
     1
 90
       50
176
     1
 40
0.0
176
     1
 40
1.0
176
     1
 90
        0
176
     1
 62
    18
420
        0
176
     1
 90
       50
176
     1
 90
        3
176
     1
 62
     5
420
      255
176
     1
290
     0
176
     1
 90
       50
176
     1
 90
       50
176
     1
 90
       50
176
     1
290
     0
176
     1
 90
       50
176
     1
 62
   256
176
     0
 40
1.0
176
     0
 90
        2
176
     1
  1
strokes_ogs.tif
176
     1
290
     0
176
     1
 40
1.0
176
     1
 40
1.0
176
     1
  0
VISUALSTYLE
  5
36
102
{ACAD_REACTORS
330
29
102
}
330
29
100
AcDbVisualStyle
  2
Thicken
 70
    13
177
     3
291
     1
 70
    58
 90
        2
176
     1
 90
        2
176
     1
 90
        0
176
     1
 90
        0
176
     1
 40
0.6
176
     1
 40
30.0
176
     1
 62
     7
420
 16777215
176
     1
 90
        1
176
     1
 90
        4
176
     1
 62
     7
176
     1
 62
   257
176
     1
 90
        1
176
     1
 90
        1
176
     1
 40
1.0
176
     1
 90
       12
176
     1
 62
     7
176
     1
 40
1.0
176
     1
 90
        1
176
     1
 90
        6
176
     1
 90
        2
176
     1
 62
     7
176
     1
 90
        5
176
     1
 90
        0
176
     1
 90
        0
176
     1
290
     0
176
     1
 90
        1
176
     1
 40
0.0
176
     1
 90
        0
176
     1
290
     0
176
     1
290
     1
176
     1
290
     1
176
     1
290
     0
176
     1
290
     0
176
     1
290
     0
176
     1
290
     0
176
     1
290
     0
176
     1
290
     0
176
     1
 90
       50
176
     1
 40
0.0
176
     1
 40
1.0
176
     1
 90
        0
176
     1
 62
    18
420
        0
176
     1
 90
       50
176
     1
 90
        3
176
     1
 62
     5
420
      255
176
     1
290
     0
176
     1
 90
       50
176
     1
 90
       50
176
     1
 90
       50
176
     1
290
     0
176
     1
 90
       50
176
     1
 62
   256
176
     0
 40
1.0
176
     0
 90
        2
176
     1
  1
strokes_ogs.tif
176
     1
290
     0
176
     1
 40
1.0
176
     1
 40
1.0
176
     1
  0
VISUALSTYLE
  5
30
102
{ACAD_REACTORS
330
29
102
}
330
29
100
AcDbVisualStyle
  2
Wireframe
 70
     5
177
     3
291
     0
 70
    58
 90
        0
176
     1
 90
        2
176
     1
 90
        0
176
     1
 90
        0
176
     1
 40
0.6
176
     1
 40
30.0
176
     1
 62
     7
420
 16777215
176
     1
 90
        1
176
     1
 90
        4
176
     1
 62
     7
176
     1
 62
   257
176
     1
 90
        1
176
     1
 90
        1
176
     1
 40
1.0
176
     1
 90
        0
176
     1
 62
   257
176
     1
 40
1.0
176
     1
 90
        1
176
     1
 90
        6
176
     1
 90
        2
176
     1
 62
     7
176
     1
 90
        3
176
     1
 90
        0
176
     1
 90
        0
176
     1
290
     0
176
     1
 90
        1
176
     1
 40
0.0
176
     1
 90
        0
176
     1
290
     0
176
     1
290
     1
176
     1
290
     1
176
     1
290
     0
176
     1
290
     0
176
     1
290
     0
176
     1
290
     0
176
     1
290
     0
176
     1
290
     0
176
     1
 90
       50
176
     1
 40
0.0
176
     1
 40
1.0
176
     1
 90
        0
176
     1
 62
    18
420
        0
176
     1
 90
       50
176
     1
 90
        3
176
     1
 62
     5
420
      255
176
     1
290
     0
176
     1
 90
       50
176
     1
 90
       50
176
     1
 90
       50
176
     1
290
     0
176
     1
 90
       50
176
     1
 62
   256
176
     0
 40
1.0
176
     0
 90
        2
176
     1
  1
strokes_ogs.tif
176
     1
290
     0
176
     1
 40
1.0
176
     1
 40
1.0
176
     1
  0
VISUALSTYLE
  5
3C
102
{ACAD_REACTORS
330
29
102
}
330
29
100
AcDbVisualStyle
  2
X-Ray
 70
    25
177
     3
291
     0
 70
    58
 90
        2
176
     1
 90
        2
176
     1
 90
        1
176
     1
 90
        1
176
     1
 40
0.5
176
     1
 40
30.0
176
     1
 62
     7
420
 16777215
176
     1
 90
        1
176
     1
 90
        0
176
     1
 62
     7
176
     1
 62
   257
176
     1
 90
        1
176
     1
 90
        1
176
     1
 40
1.0
176
     1
 90
        8
176
     1
 62
     7
176
     1
 40
1.0
176
     1
 90
        1
176
     1
 90
        6
176
     1
 90
        2
176
     1
 62
     7
176
     1
 90
        3
176
     1
 90
        0
176
     1
 90
        0
176
     1
290
     0
176
     1
 90
       13
176
     1
 40
0.0
176
     1
 90
        0
176
     1
290
     0
176
     1
290
     1
176
     1
290
     1
176
     1
290
     0
176
     1
290
     0
176
     1
290
     0
176
     1
290
     0
176
     1
290
     0
176
     1
290
     0
176
     1
 90
       50
176
     1
 40
0.0
176
     1
 40
1.0
176
     1
 90
        0
176
     1
 62
    18
420
        0
176
     1
 90
       50
176
     1
 90
        3
176
     1
 62
     5
420
      255
176
     1
290
     0
176
     1
 90
       50
176
     1
 90
       50
176
     1
 90
       50
176
     1
290
     0
176
     1
 90
       50
176
     1
 62
   256
176
     0
 40
1.0
176
     0
 90
        2
176
     1
  1
strokes_ogs.tif
176
     1
290
     0
176
     1
 40
1.0
176
     1
 40
1.0
176
     1
  0
DICTIONARYVAR
  5
118
102
{ACAD_REACTORS
330
113
102
}
330
113
100
DictionaryVariables
280
     0
  1
1:1
  0
DICTIONARYVAR
  5
115
102
{ACAD_REACTORS
330
113
102
}
330
113
100
DictionaryVariables
280
     0
  1
STANDARD
  0
DICTIONARYVAR
  5
114
102
{ACAD_REACTORS
330
113
102
}
330
113
100
DictionaryVariables
280
     0
  1
STANDARD
  0
DICTIONARYVAR
  5
116
102
{ACAD_REACTORS
330
113
102
}
330
113
100
DictionaryVariables
280
     0
  1
Imperial24
  0
DICTIONARYVAR
  5
117
102
{ACAD_REACTORS
330
113
102
}
330
113
100
DictionaryVariables
280
     0
  1
Imperial24
  0
DICTIONARY
  5
1A
330
19
100
AcDbDictionary
280
     1
281
     1
  3
BUMPTILE
360
1C
  3
DIFFUSETILE
360
1B
  3
OPACITYTILE
360
1F
  3
REFLECTIONTILE
360
1E
  3
REFRACTIONTILE
360
20
  3
SPECULARTILE
360
1D
  0
DICTIONARY
  5
12
330
11
100
AcDbDictionary
280
     1
281
     1
  3
BUMPTILE
360
14
  3
DIFFUSETILE
360
13
  3
OPACITYTILE
360
17
  3
REFLECTIONTILE
360
16
  3
REFRACTIONTILE
360
18
  3
SPECULARTILE
360
15
  0
DICTIONARY
  5
22
330
21
100
AcDbDictionary
280
     1
281
     1
  3
BUMPTILE
360
24
  3
DIFFUSETILE
360
23
  3
OPACITYTILE
360
27
  3
REFLECTIONTILE
360
26
  3
REFRACTIONTILE
360
28
  3
SPECULARTILE
360
25
  0
DICTIONARY
  5
119
330
65
100
AcDbDictionary
280
     1
281
     1
  3
ACAD_ROUNDTRIP_2008_TABLESTYLE_CELLSTYLEMAP
360
11A
  0
XRECORD
  5
1C
102
{ACAD_REACTORS
330
1A
102
}
330
1A
100
AcDbXrecord
280
     1
270
     1
271
     1
  0
XRECORD
  5
1B
102
{ACAD_REACTORS
330
1A
102
}
330
1A
100
AcDbXrecord
280
     1
270
     1
271
     1
  0
XRECORD
  5
1F
102
{ACAD_REACTORS
330
1A
102
}
330
1A
100
AcDbXrecord
280
     1
270
     1
271
     1
  0
XRECORD
  5
1E
102
{ACAD_REACTORS
330
1A
102
}
330
1A
100
AcDbXrecord
280
     1
270
     1
271
     1
  0
XRECORD
  5
20
102
{ACAD_REACTORS
330
1A
102
}
330
1A
100
AcDbXrecord
280
     1
270
     1
271
     1
  0
XRECORD
  5
1D
102
{ACAD_REACTORS
330
1A
102
}
330
1A
100
AcDbXrecord
280
     1
270
     1
271
     1
  0
XRECORD
  5
14
102
{ACAD_REACTORS
330
12
102
}
330
12
100
AcDbXrecord
280
     1
270
     1
271
     1
  0
XRECORD
  5
13
102
{ACAD_REACTORS
330
12
102
}
330
12
100
AcDbXrecord
280
     1
270
     1
271
     1
  0
XRECORD
  5
17
102
{ACAD_REACTORS
330
12
102
}
330
12
100
AcDbXrecord
280
     1
270
     1
271
     1
  0
XRECORD
  5
16
102
{ACAD_REACTORS
330
12
102
}
330
12
100
AcDbXrecord
280
     1
270
     1
271
     1
  0
XRECORD
  5
18
102
{ACAD_REACTORS
330
12
102
}
330
12
100
AcDbXrecord
280
     1
270
     1
271
     1
  0
XRECORD
  5
15
102
{ACAD_REACTORS
330
12
102
}
330
12
100
AcDbXrecord
280
     1
270
     1
271
     1
  0
XRECORD
  5
24
102
{ACAD_REACTORS
330
22
102
}
330
22
100
AcDbXrecord
280
     1
270
     1
271
     1
  0
XRECORD
  5
23
102
{ACAD_REACTORS
330
22
102
}
330
22
100
AcDbXrecord
280
     1
270
     1
271
     1
  0
XRECORD
  5
27
102
{ACAD_REACTORS
330
22
102
}
330
22
100
AcDbXrecord
280
     1
270
     1
271
     1
  0
XRECORD
  5
26
102
{ACAD_REACTORS
330
22
102
}
330
22
100
AcDbXrecord
280
     1
270
     1
271
     1
  0
XRECORD
  5
28
102
{ACAD_REACTORS
330
22
102
}
330
22
100
AcDbXrecord
280
     1
270
     1
271
     1
  0
XRECORD
  5
25
102
{ACAD_REACTORS
330
22
102
}
330
22
100
AcDbXrecord
280
     1
270
     1
271
     1
  0
CELLSTYLEMAP
  5
11A
102
{ACAD_REACTORS
330
119
102
}
330
119
100
AcDbCellStyleMap
 90
        3
300
CELLSTYLE
  1
TABLEFORMAT_BEGIN
 90
        5
170
     1
 91
        0
 92
    32768
 62
   257
 93
        1
300
CONTENTFORMAT
  1
CONTENTFORMAT_BEGIN
 90
        0
 91
        0
 92
      512
 93
        0
300

 40
0.0
140
1.0
 94
        5
 62
     0
340
55
144
0.25
309
CONTENTFORMAT_END
171
     0
 94
        0
309
TABLEFORMAT_END
  1
CELLSTYLE_BEGIN
 90
        1
 91
        1
300
_TITLE
309
CELLSTYLE_END
300
CELLSTYLE
  1
TABLEFORMAT_BEGIN
 90
        5
170
     1
 91
        0
 92
        0
 62
   257
 93
        1
300
CONTENTFORMAT
  1
CONTENTFORMAT_BEGIN
 90
        0
 91
        0
 92
      512
 93
        0
300

 40
0.0
140
1.0
 94
        5
 62
     0
340
55
144
0.18
309
CONTENTFORMAT_END
171
     0
 94
        0
309
TABLEFORMAT_END
  1
CELLSTYLE_BEGIN
 90
        2
 91
        1
300
_HEADER
309
CELLSTYLE_END
300
CELLSTYLE
  1
TABLEFORMAT_BEGIN
 90
        5
170
     1
 91
        0
 92
        0
 62
   257
 93
        1
300
CONTENTFORMAT
  1
CONTENTFORMAT_BEGIN
 90
        0
 91
        0
 92
      512
 93
        0
300

 40
0.0
140
1.0
 94
        2
 62
     0
340
55
144
0.18
309
CONTENTFORMAT_END
171
     0
 94
        0
309
TABLEFORMAT_END
  1
CELLSTYLE_BEGIN
 90
        3
 91
        2
300
_DATA
309
CELLSTYLE_END
  0
ENDSEC
  0
EOF
