  0
SECTION
  2
HEADER
  9
$ACADVER
  1
AC1032
  9
$ACADMAINTVER
 90
      251
  9
$DWGCODEPAGE
  3
ANSI_1252
  9
$REQUIREDVERSIONS
160
                 0
  9
$INSBASE
 10
0.0
 20
0.0
 30
0.0
  9
$EXTMIN
 10
1.000000000000000E+20
 20
1.000000000000000E+20
 30
1.000000000000000E+20
  9
$EXTMAX
 10
-1.000000000000000E+20
 20
-1.000000000000000E+20
 30
-1.000000000000000E+20
  9
$LIMMIN
 10
0.0
 20
0.0
  9
$LIMMAX
 10
12.0
 20
9.0
  9
$ORTHOMODE
 70
     0
  9
$REGENMODE
 70
     1
  9
$FILLMODE
 70
     1
  9
$QTEXTMODE
 70
     0
  9
$MIRRTEXT
 70
     0
  9
$LTSCALE
 40
1.0
  9
$ATTMODE
 70
     1
  9
$TEXTSIZE
 40
0.2
  9
$TRACEWID
 40
0.05
  9
$TEXTSTYLE
  7
Standard
  9
$CLAYER
  8
0
  9
$CELTYPE
  6
ByLayer
  9
$CECOLOR
 62
   256
  9
$CELTSCALE
 40
1.0
  9
$DISPSILH
 70
     0
  9
$DIMSCALE
 40
1.0
  9
$DIMASZ
 40
0.18
  9
$DIMEXO
 40
0.0625
  9
$DIMDLI
 40
0.38
  9
$DIMRND
 40
0.0
  9
$DIMDLE
 40
0.0
  9
$DIMEXE
 40
0.18
  9
$DIMTP
 40
0.0
  9
$DIMTM
 40
0.0
  9
$DIMTXT
 40
0.18
  9
$DIMCEN
 40
0.09
  9
$DIMTSZ
 40
0.0
  9
$DIMTOL
 70
     0
  9
$DIMLIM
 70
     0
  9
$DIMTIH
 70
     1
  9
$DIMTOH
 70
     1
  9
$DIMSE1
 70
     0
  9
$DIMSE2
 70
     0
  9
$DIMTAD
 70
     0
  9
$DIMZIN
 70
     0
  9
$DIMBLK
  1

  9
$DIMASO
 70
     1
  9
$DIMSHO
 70
     1
  9
$DIMPOST
  1

  9
$DIMAPOST
  1

  9
$DIMALT
 70
     0
  9
$DIMALTD
 70
     2
  9
$DIMALTF
 40
25.4
  9
$DIMLFAC
 40
1.0
  9
$DIMTOFL
 70
     0
  9
$DIMTVP
 40
0.0
  9
$DIMTIX
 70
     0
  9
$DIMSOXD
 70
     0
  9
$DIMSAH
 70
     0
  9
$DIMBLK1
  1

  9
$DIMBLK2
  1

  9
$DIMSTYLE
  2
Standard
  9
$DIMCLRD
 70
     0
  9
$DIMCLRE
 70
     0
  9
$DIMCLRT
 70
     0
  9
$DIMTFAC
 40
1.0
  9
$DIMGAP
 40
0.09
  9
$DIMJUST
 70
     0
  9
$DIMSD1
 70
     0
  9
$DIMSD2
 70
     0
  9
$DIMTOLJ
 70
     1
  9
$DIMTZIN
 70
     0
  9
$DIMALTZ
 70
     0
  9
$DIMALTTZ
 70
     0
  9
$DIMUPT
 70
     0
  9
$DIMDEC
 70
     4
  9
$DIMTDEC
 70
     4
  9
$DIMALTU
 70
     2
  9
$DIMALTTD
 70
     2
  9
$DIMTXSTY
  7
Standard
  9
$DIMAUNIT
 70
     0
  9
$DIMADEC
 70
     0
  9
$DIMALTRND
 40
0.0
  9
$DIMAZIN
 70
     0
  9
$DIMDSEP
 70
    46
  9
$DIMATFIT
 70
     3
  9
$DIMFRAC
 70
     0
  9
$DIMLDRBLK
  1

  9
$DIMLUNIT
 70
     2
  9
$DIMLWD
 70
    -2
  9
$DIMLWE
 70
    -2
  9
$DIMTMOVE
 70
     0
  9
$DIMFXL
 40
1.0
  9
$DIMFXLON
 70
     0
  9
$DIMJOGANG
 40
0.7853981633974483
  9
$DIMTFILL
 70
     0
  9
$DIMTFILLCLR
 70
     0
  9
$DIMARCSYM
 70
     0
  9
$DIMLTYPE
  6

  9
$DIMLTEX1
  6

  9
$DIMLTEX2
  6

  9
$DIMTXTDIRECTION
 70
     0
  9
$LUNITS
 70
     2
  9
$LUPREC
 70
     4
  9
$SKETCHINC
 40
0.1
  9
$FILLETRAD
 40
0.0
  9
$AUNITS
 70
     0
  9
$AUPREC
 70
     0
  9
$MENU
  1
.
  9
$ELEVATION
 40
0.0
  9
$PELEVATION
 40
0.0
  9
$THICKNESS
 40
0.0
  9
$LIMCHECK
 70
     0
  9
$CHAMFERA
 40
0.0
  9
$CHAMFERB
 40
0.0
  9
$CHAMFERC
 40
0.0
  9
$CHAMFERD
 40
0.0
  9
$SKPOLY
 70
     0
  9
$TDCREATE
 40
2460035.498587963
  9
$TDUCREATE
 40
2460035.415254630
  9
$TDUPDATE
 40
2460035.498587963
  9
$TDUUPDATE
 40
2460035.415254630
  9
$TDINDWG
 40
0.0000000000
  9
$TDUSRTIMER
 40
0.0000000000
  9
$USRTIMER
 70
     1
  9
$ANGBASE
 50
0.0
  9
$ANGDIR
 70
     0
  9
$PDMODE
 70
     0
  9
$PDSIZE
 40
0.0
  9
$PLINEWID
 40
0.0
  9
$SPLFRAME
 70
     0
  9
$SPLINETYPE
 70
     6
  9
$SPLINESEGS
 70
     8
  9
$HANDSEED
  5
2A7
  9
$SURFTAB1
 70
     6
  9
$SURFTAB2
 70
     6
  9
$SURFTYPE
 70
     6
  9
$SURFU
 70
     6
  9
$SURFV
 70
     6
  9
$UCSBASE
  2

  9
$UCSNAME
  2

  9
$UCSORG
 10
0.0
 20
0.0
 30
0.0
  9
$UCSXDIR
 10
1.0
 20
0.0
 30
0.0
  9
$UCSYDIR
 10
0.0
 20
1.0
 30
0.0
  9
$UCSORTHOREF
  2

  9
$UCSORTHOVIEW
 70
     0
  9
$UCSORGTOP
 10
0.0
 20
0.0
 30
0.0
  9
$UCSORGBOTTOM
 10
0.0
 20
0.0
 30
0.0
  9
$UCSORGLEFT
 10
0.0
 20
0.0
 30
0.0
  9
$UCSORGRIGHT
 10
0.0
 20
0.0
 30
0.0
  9
$UCSORGFRONT
 10
0.0
 20
0.0
 30
0.0
  9
$UCSORGBACK
 10
0.0
 20
0.0
 30
0.0
  9
$PUCSBASE
  2

  9
$PUCSNAME
  2

  9
$PUCSORG
 10
0.0
 20
0.0
 30
0.0
  9
$PUCSXDIR
 10
1.0
 20
0.0
 30
0.0
  9
$PUCSYDIR
 10
0.0
 20
1.0
 30
0.0
  9
$PUCSORTHOREF
  2

  9
$PUCSORTHOVIEW
 70
     0
  9
$PUCSORGTOP
 10
0.0
 20
0.0
 30
0.0
  9
$PUCSORGBOTTOM
 10
0.0
 20
0.0
 30
0.0
  9
$PUCSORGLEFT
 10
0.0
 20
0.0
 30
0.0
  9
$PUCSORGRIGHT
 10
0.0
 20
0.0
 30
0.0
  9
$PUCSORGFRONT
 10
0.0
 20
0.0
 30
0.0
  9
$PUCSORGBACK
 10
0.0
 20
0.0
 30
0.0
  9
$USERI1
 70
     0
  9
$USERI2
 70
     0
  9
$USERI3
 70
     0
  9
$USERI4
 70
     0
  9
$USERI5
 70
     0
  9
$USERR1
 40
0.0
  9
$USERR2
 40
0.0
  9
$USERR3
 40
0.0
  9
$USERR4
 40
0.0
  9
$USERR5
 40
0.0
  9
$WORLDVIEW
 70
     1
  9
$SHADEDGE
 70
     3
  9
$SHADEDIF
 70
    70
  9
$TILEMODE
 70
     1
  9
$MAXACTVP
 70
    64
  9
$PINSBASE
 10
0.0
 20
0.0
 30
0.0
  9
$PLIMCHECK
 70
     0
  9
$PEXTMIN
 10
1.000000000000000E+20
 20
1.000000000000000E+20
 30
1.000000000000000E+20
  9
$PEXTMAX
 10
-1.000000000000000E+20
 20
-1.000000000000000E+20
 30
-1.000000000000000E+20
  9
$PLIMMIN
 10
0.0
 20
0.0
  9
$PLIMMAX
 10
12.0
 20
9.0
  9
$UNITMODE
 70
     0
  9
$VISRETAIN
 70
     1
  9
$PLINEGEN
 70
     0
  9
$PSLTSCALE
 70
     1
  9
$TREEDEPTH
 70
  3020
  9
$CMLSTYLE
  2
Standard
  9
$CMLJUST
 70
     0
  9
$CMLSCALE
 40
1.0
  9
$PROXYGRAPHICS
 70
     1
  9
$MEASUREMENT
 70
     0
  9
$CELWEIGHT
370
    -1
  9
$ENDCAPS
280
     0
  9
$JOINSTYLE
280
     0
  9
$LWDISPLAY
290
     1
  9
$INSUNITS
 70
     4
  9
$HYPERLINKBASE
  1

  9
$STYLESHEET
  1

  9
$XEDIT
290
     1
  9
$CEPSNTYPE
380
     0
  9
$PSTYLEMODE
290
     1
  9
$FINGERPRINTGUID
  2
{432A8FF2-1C16-1647-A3A0-200367795D1E}
  9
$VERSIONGUID
  2
{2C7BCC06-22AE-904B-A93A-69D70828F2CF}
  9
$EXTNAMES
290
     1
  9
$PSVPSCALE
 40
0.0
  9
$OLESTARTUP
290
     0
  9
$SORTENTS
280
   127
  9
$INDEXCTL
280
     0
  9
$HIDETEXT
280
     1
  9
$XCLIPFRAME
280
     2
  9
$HALOGAP
280
     0
  9
$OBSCOLOR
 70
   257
  9
$OBSLTYPE
280
     0
  9
$INTERSECTIONDISPLAY
280
     0
  9
$INTERSECTIONCOLOR
 70
   257
  9
$DIMASSOC
280
     2
  9
$PROJECTNAME
  1

  9
$CAMERADISPLAY
290
     0
  9
$LENSLENGTH
 40
50.0
  9
$CAMERAHEIGHT
 40
0.0
  9
$STEPSPERSEC
 40
2.0
  9
$STEPSIZE
 40
6.0
  9
$3DDWFPREC
 40
2.0
  9
$PSOLWIDTH
 40
0.25
  9
$PSOLHEIGHT
 40
4.0
  9
$LOFTANG1
 40
1.570796326794896
  9
$LOFTANG2
 40
1.570796326794896
  9
$LOFTMAG1
 40
0.0
  9
$LOFTMAG2
 40
0.0
  9
$LOFTPARAM
 70
     7
  9
$LOFTNORMALS
280
     1
  9
$LATITUDE
 40
37.795
  9
$LONGITUDE
 40
-122.394
  9
$NORTHDIRECTION
 40
0.0
  9
$TIMEZONE
 70
 -8000
  9
$LIGHTGLYPHDISPLAY
280
     1
  9
$TILEMODELIGHTSYNCH
280
     1
  9
$CMATERIAL
347
11
  9
$SOLIDHIST
280
     0
  9
$SHOWHIST
280
     1
  9
$DWFFRAME
280
     2
  9
$DGNFRAME
280
     0
  9
$REALWORLDSCALE
290
     1
  9
$INTERFERECOLOR
 62
     1
  9
$INTERFEREOBJVS
345
33
  9
$INTERFEREVPVS
346
30
  9
$CSHADOW
280
     0
  9
$SHADOWPLANELOCATION
 40
0.0
  0
ENDSEC
  0
SECTION
  2
CLASSES
  0
CLASS
  1
ACDBDICTIONARYWDFLT
  2
AcDbDictionaryWithDefault
  3
ObjectDBX Classes
 90
        0
 91
        1
280
     0
281
     0
  0
CLASS
  1
MATERIAL
  2
AcDbMaterial
  3
ObjectDBX Classes
 90
     1153
 91
        3
280
     0
281
     0
  0
CLASS
  1
VISUALSTYLE
  2
AcDbVisualStyle
  3
ObjectDBX Classes
 90
     4095
 91
       24
280
     0
281
     0
  0
CLASS
  1
SCALE
  2
AcDbScale
  3
ObjectDBX Classes
 90
     1153
 91
       17
280
     0
281
     0
  0
CLASS
  1
TABLESTYLE
  2
AcDbTableStyle
  3
ObjectDBX Classes
 90
     4095
 91
        1
280
     0
281
     0
  0
CLASS
  1
MLEADERSTYLE
  2
AcDbMLeaderStyle
  3
ACDB_MLEADERSTYLE_CLASS
 90
     4095
 91
        1
280
     0
281
     0
  0
CLASS
  1
ACDBSECTIONVIEWSTYLE
  2
AcDbSectionViewStyle
  3
ObjectDBX Classes
 90
     1025
 91
        1
280
     0
281
     0
  0
CLASS
  1
ACDBDETAILVIEWSTYLE
  2
AcDbDetailViewStyle
  3
ObjectDBX Classes
 90
     1025
 91
        1
280
     0
281
     0
  0
CLASS
  1
DICTIONARYVAR
  2
AcDbDictionaryVar
  3
ObjectDBX Classes
 90
        0
 91
        5
280
     0
281
     0
  0
CLASS
  1
CELLSTYLEMAP
  2
AcDbCellStyleMap
  3
ObjectDBX Classes
 90
     1152
 91
        1
280
     0
281
     0
  0
ENDSEC
  0
SECTION
  2
TABLES
  0
TABLE
  2
VPORT
  5
8
330
0
100
AcDbSymbolTable
 70
     1
  0
VPORT
  5
57
330
8
100
AcDbSymbolTableRecord
100
AcDbViewportTableRecord
  2
*Active
 70
     0
 10
0.0
 20
0.0
 11
1.0
 21
1.0
 12
0.0
 22
0.0
 13
0.0
 23
0.0
 14
1.0
 24
1.0
 15
0.0
 25
0.0
 16
0.0
 26
0.0
 36
1.0
 17
104.9999999737499
 27
31.49999999212523
 37
0.0
 40
302.9399999242649
 41
0.7070707070707066
 42
50.0
 43
0.0
 44
0.0
 50
0.0
 51
0.0
 71
     0
 72
   100
 73
     1
 74
     1
 75
     0
 76
     0
 77
     0
 78
     0
281
     0
 65
     1
110
0.0
120
0.0
130
0.0
111
1.0
121
0.0
131
0.0
112
0.0
122
1.0
132
0.0
 79
     0
146
0.0
 60
     3
 61
     5
292
     1
282
     1
141
0.0
142
0.0
 63
   250
421
  3355443
  0
ENDTAB
  0
TABLE
  2
LTYPE
  5
5
330
0
100
AcDbSymbolTable
 70
     1
  0
LTYPE
  5
5B
330
5
100
AcDbSymbolTableRecord
100
AcDbLinetypeTableRecord
  2
ByBlock
 70
     0
  3

 72
    65
 73
     0
 40
0.0
  0
LTYPE
  5
5C
330
5
100
AcDbSymbolTableRecord
100
AcDbLinetypeTableRecord
  2
ByLayer
 70
     0
  3

 72
    65
 73
     0
 40
0.0
  0
LTYPE
  5
5D
330
5
100
AcDbSymbolTableRecord
100
AcDbLinetypeTableRecord
  2
Continuous
 70
     0
  3
Solid line
 72
    65
 73
     0
 40
0.0
  0
ENDTAB
  0
TABLE
  2
LAYER
  5
2
330
0
100
AcDbSymbolTable
 70
     1
  0
LAYER
  5
54
330
2
100
AcDbSymbolTableRecord
100
AcDbLayerTableRecord
  2
0
 70
     0
 62
     7
  6
Continuous
370
     0
390
F
347
21
348
0
  0
ENDTAB
  0
TABLE
  2
STYLE
  5
3
330
0
100
AcDbSymbolTable
 70
     2
  0
STYLE
  5
55
330
3
100
AcDbSymbolTableRecord
100
AcDbTextStyleTableRecord
  2
Standard
 70
     0
 40
0.0
 41
1.0
 50
0.0
 71
     0
 42
0.2
  3
txt
  4

  0
STYLE
  5
5A
330
3
100
AcDbSymbolTableRecord
100
AcDbTextStyleTableRecord
  2
Annotative
 70
     0
 40
0.0
 41
1.0
 50
0.0
 71
     0
 42
0.2
  3
txt
  4

1001
AcadAnnotative
1000
AnnotativeData
1002
{
1070
     1
1070
     1
1002
}
  0
ENDTAB
  0
TABLE
  2
VIEW
  5
6
330
0
100
AcDbSymbolTable
 70
     0
  0
ENDTAB
  0
TABLE
  2
UCS
  5
7
330
0
100
AcDbSymbolTable
 70
     0
  0
ENDTAB
  0
TABLE
  2
APPID
  5
9
330
0
100
AcDbSymbolTable
 70
     2
  0
APPID
  5
56
330
9
100
AcDbSymbolTableRecord
100
AcDbRegAppTableRecord
  2
ACAD
 70
     0
  0
APPID
  5
5E
330
9
100
AcDbSymbolTableRecord
100
AcDbRegAppTableRecord
  2
AcadAnnotative
 70
     0
  0
ENDTAB
  0
TABLE
  2
DIMSTYLE
  5
A
330
0
100
AcDbSymbolTable
 70
     2
100
AcDbDimStyleTable
 71
     0
  0
DIMSTYLE
105
58
330
A
100
AcDbSymbolTableRecord
100
AcDbDimStyleTableRecord
  2
Standard
 70
     0
340
55
  0
DIMSTYLE
105
59
330
A
100
AcDbSymbolTableRecord
100
AcDbDimStyleTableRecord
  2
Annotative
 70
     0
340
55
1001
AcadAnnotative
1000
AnnotativeData
1002
{
1070
     1
1070
     1
1002
}
  0
ENDTAB
  0
TABLE
  2
BLOCK_RECORD
  5
1
330
0
100
AcDbSymbolTable
 70
     7
  0
BLOCK_RECORD
  5
70
330
1
100
AcDbSymbolTableRecord
100
AcDbBlockTableRecord
  2
*Model_Space
340
73
 70
     0
280
     1
281
     0
  0
BLOCK_RECORD
  5
6C
330
1
100
AcDbSymbolTableRecord
100
AcDbBlockTableRecord
  2
*Paper_Space
340
6F
 70
     0
280
     1
281
     0
  0
BLOCK_RECORD
  5
74
330
1
100
AcDbSymbolTableRecord
100
AcDbBlockTableRecord
  2
*Paper_Space0
340
77
 70
     0
280
     1
281
     0
  0
BLOCK_RECORD
  5
C8
330
1
100
AcDbSymbolTableRecord
100
AcDbBlockTableRecord
  2
Block_0
340
0
102
{BLKREFS
331
C9
102
}
 70
     0
280
     1
281
     0
  0
BLOCK_RECORD
  5
D4
330
1
100
AcDbSymbolTableRecord
100
AcDbBlockTableRecord
  2
Block_1
340
0
102
{BLKREFS
331
D5
102
}
 70
     0
280
     1
281
     0
  0
BLOCK_RECORD
  5
FF
330
1
100
AcDbSymbolTableRecord
100
AcDbBlockTableRecord
  2
Block_2
340
0
102
{BLKREFS
331
100
102
}
 70
     0
280
     1
281
     0
  0
BLOCK_RECORD
  5
10E
330
1
100
AcDbSymbolTableRecord
100
AcDbBlockTableRecord
  2
Block_3
340
0
102
{BLKREFS
331
10F
102
}
 70
     0
280
     1
281
     0
  0
BLOCK_RECORD
  5
1B8
330
1
100
AcDbSymbolTableRecord
100
AcDbBlockTableRecord
  2
Block_4
340
0
102
{BLKREFS
331
1B9
102
}
 70
     0
280
     1
281
     0
  0
BLOCK_RECORD
  5
1C4
330
1
100
AcDbSymbolTableRecord
100
AcDbBlockTableRecord
  2
Block_5
340
0
102
{BLKREFS
331
1C5
102
}
 70
     0
280
     1
281
     0
  0
ENDTAB
  0
ENDSEC
  0
SECTION
  2
BLOCKS
  0
BLOCK
  5
71
330
70
100
AcDbEntity
  8
0
100
AcDbBlockBegin
  2
*Model_Space
 70
     0
 10
0.0
 20
0.0
 30
0.0
  3
*Model_Space
  1

  0
ENDBLK
  5
72
330
70
100
AcDbEntity
  8
0
100
AcDbBlockEnd
  0
BLOCK
  5
6D
330
6C
100
AcDbEntity
 67
     1
  8
0
100
AcDbBlockBegin
  2
*Paper_Space
 70
     0
 10
0.0
 20
0.0
 30
0.0
  3
*Paper_Space
  1

  0
ENDBLK
  5
6E
330
6C
100
AcDbEntity
 67
     1
  8
0
100
AcDbBlockEnd
  0
BLOCK
  5
75
330
74
100
AcDbEntity
 67
     1
  8
0
100
AcDbBlockBegin
  2
*Paper_Space0
 70
     0
 10
0.0
 20
0.0
 30
0.0
  3
*Paper_Space0
  1

  0
ENDBLK
  5
76
330
74
100
AcDbEntity
 67
     1
  8
0
100
AcDbBlockEnd
  0
BLOCK
  5
CA
330
C8
100
AcDbEntity
  8
0
100
AcDbBlockBegin
  2
Block_0
 70
     0
 10
0.0
 20
0.0
 30
0.0
  3
Block_0
  1

  0
LWPOLYLINE
  5
CC
330
C8
100
AcDbEntity
  8
0
100
AcDbPolyline
 90
        4
 70
     1
 43
0.0
 10
115.1577582249333
 20
102.6516396940382
 10
112.6577582249329
 20
102.9616396940383
 10
112.6577582249329
 20
102.3416396940385
 10
112.6577582249329
 20
102.3416396940385
  0
HATCH
  5
CD
330
C8
100
AcDbEntity
  8
0
 62
    18
420
        0
440
 33554687
100
AcDbHatch
 10
0.0
 20
0.0
 30
0.0
210
0.0
220
0.0
230
1.0
  2
SOLID
 70
     1
 71
     1
 91
        1
 92
        1
 93
        3
 72
     1
 10
115.1577582249333
 20
102.6516396940382
 11
112.6577582249329
 21
102.9616396940383
 72
     1
 10
112.6577582249329
 20
102.9616396940383
 11
112.6577582249329
 21
102.3416396940385
 72
     1
 10
112.6577582249329
 20
102.3416396940385
 11
115.1577582249333
 21
102.6516396940382
 97
        1
330
CC
 75
     2
 76
     1
 98
        1
 10
0.0
 20
0.0
450
        0
451
        0
460
0.0
461
0.0
452
        0
462
0.0
453
        0
470

  0
LWPOLYLINE
  5
CE
330
C8
100
AcDbEntity
  8
0
100
AcDbPolyline
 90
        4
 70
     1
 43
0.0
 10
22.49109155833302
 20
102.6516396940382
 10
24.99109155833311
 20
102.3416396940385
 10
24.99109155833311
 20
102.9616396940383
 10
24.99109155833311
 20
102.9616396940383
  0
HATCH
  5
CF
330
C8
100
AcDbEntity
  8
0
 62
    18
420
        0
440
 33554687
100
AcDbHatch
 10
0.0
 20
0.0
 30
0.0
210
0.0
220
0.0
230
1.0
  2
SOLID
 70
     1
 71
     1
 91
        1
 92
        1
 93
        3
 72
     1
 10
22.49109155833302
 20
102.6516396940382
 11
24.99109155833311
 21
102.3416396940385
 72
     1
 10
24.99109155833311
 20
102.3416396940385
 11
24.99109155833311
 21
102.9616396940383
 72
     1
 10
24.99109155833311
 20
102.9616396940383
 11
22.49109155833302
 21
102.6516396940382
 97
        1
330
CE
 75
     2
 76
     1
 98
        1
 10
0.0
 20
0.0
450
        0
451
        0
460
0.0
461
0.0
452
        0
462
0.0
453
        0
470

  0
LINE
  5
D0
330
C8
100
AcDbEntity
  8
0
 62
    18
420
        0
370
    25
100
AcDbLine
 10
115.1577582249333
 20
90.71312655493827
 30
0.0
 11
115.1577582249333
 21
103.6516396940383
 31
0.0
  0
LINE
  5
D1
330
C8
100
AcDbEntity
  8
0
 62
    18
420
        0
370
    25
100
AcDbLine
 10
22.49109155833302
 20
90.71312655493827
 30
0.0
 11
22.49109155833302
 21
103.6516396940383
 31
0.0
  0
LINE
  5
D2
330
C8
100
AcDbEntity
  8
0
 62
    18
420
        0
370
    25
100
AcDbLine
 10
115.1577582249333
 20
102.6516396940382
 30
0.0
 11
22.49109155833302
 21
102.6516396940382
 31
0.0
  0
MTEXT
  5
D3
330
C8
100
AcDbEntity
  8
0
100
AcDbMText
 10
66.17858863871522
 20
103.3399777471956
 30
0.0
 40
0.2
 41
0.0
 46
0.0
 71
     7
 72
     1
  1
\C18;\c0;\FArial Bold|b1|i0|c1;\H2.997200;\W0.605000;556
 73
     1
 44
1.0
  0
ENDBLK
  5
CB
330
C8
100
AcDbEntity
  8
0
100
AcDbBlockEnd
  0
BLOCK
  5
D6
330
D4
100
AcDbEntity
  8
0
100
AcDbBlockBegin
  2
Block_1
 70
     0
 10
0.0
 20
0.0
 30
0.0
  3
Block_1
  1

  0
LWPOLYLINE
  5
D8
330
D4
100
AcDbEntity
  8
0
100
AcDbPolyline
 90
        4
 70
     1
 43
0.0
 10
17.90775822493327
 20
75.12979322163824
 10
20.40775822493304
 20
74.81979322163851
 10
20.40775822493304
 20
75.43979322163861
 10
20.40775822493304
 20
75.43979322163861
  0
HATCH
  5
D9
330
D4
100
AcDbEntity
  8
0
 62
    18
420
        0
440
 33554687
100
AcDbHatch
 10
0.0
 20
0.0
 30
0.0
210
0.0
220
0.0
230
1.0
  2
SOLID
 70
     1
 71
     1
 91
        1
 92
        1
 93
        3
 72
     1
 10
17.90775822493327
 20
75.12979322163824
 11
20.40775822493304
 21
74.81979322163851
 72
     1
 10
20.40775822493304
 20
74.81979322163851
 11
20.40775822493304
 21
75.43979322163861
 72
     1
 10
20.40775822493304
 20
75.43979322163861
 11
17.90775822493327
 21
75.12979322163824
 97
        1
330
D8
 75
     2
 76
     1
 98
        1
 10
0.0
 20
0.0
450
        0
451
        0
460
0.0
461
0.0
452
        0
462
0.0
453
        0
470

  0
LWPOLYLINE
  5
DA
330
D4
100
AcDbEntity
  8
0
100
AcDbPolyline
 90
        4
 70
     1
 43
0.0
 10
119.7410915583337
 20
75.12979322163824
 10
117.2410915583333
 20
75.43979322163861
 10
117.2410915583333
 20
74.81979322163851
 10
117.2410915583333
 20
74.81979322163851
  0
HATCH
  5
DB
330
D4
100
AcDbEntity
  8
0
 62
    18
420
        0
440
 33554687
100
AcDbHatch
 10
0.0
 20
0.0
 30
0.0
210
0.0
220
0.0
230
1.0
  2
SOLID
 70
     1
 71
     1
 91
        1
 92
        1
 93
        3
 72
     1
 10
119.7410915583337
 20
75.12979322163824
 11
117.2410915583333
 21
75.43979322163861
 72
     1
 10
117.2410915583333
 20
75.43979322163861
 11
117.2410915583333
 21
74.81979322163851
 72
     1
 10
117.2410915583333
 20
74.81979322163851
 11
119.7410915583337
 21
75.12979322163824
 97
        1
330
DA
 75
     2
 76
     1
 98
        1
 10
0.0
 20
0.0
450
        0
451
        0
460
0.0
461
0.0
452
        0
462
0.0
453
        0
470

  0
LINE
  5
DC
330
D4
100
AcDbEntity
  8
0
 62
    18
420
        0
370
    25
100
AcDbLine
 10
17.90775822493327
 20
88.71312655493886
 30
0.0
 11
17.90775822493327
 21
74.1297932216382
 31
0.0
  0
LINE
  5
DD
330
D4
100
AcDbEntity
  8
0
 62
    18
420
        0
370
    25
100
AcDbLine
 10
119.7410915583337
 20
88.71312655493886
 30
0.0
 11
119.7410915583337
 21
74.1297932216382
 31
0.0
  0
LINE
  5
DE
330
D4
100
AcDbEntity
  8
0
 62
    18
420
        0
370
    25
100
AcDbLine
 10
17.90775822493327
 20
75.12979322163824
 30
0.0
 11
119.7410915583337
 21
75.12979322163824
 31
0.0
  0
MTEXT
  5
DF
330
D4
100
AcDbEntity
  8
0
100
AcDbMText
 10
66.17858863871522
 20
75.81813806121854
 30
0.0
 40
0.2
 41
0.0
 46
0.0
 71
     7
 72
     1
  1
\C18;\c0;\FArial Bold|b1|i0|c1;\H2.997200;\W0.605000;611
 73
     1
 44
1.0
  0
ENDBLK
  5
D7
330
D4
100
AcDbEntity
  8
0
100
AcDbBlockEnd
  0
BLOCK
  5
101
330
FF
100
AcDbEntity
  8
0
100
AcDbBlockBegin
  2
Block_2
 70
     0
 10
0.0
 20
0.0
 30
0.0
  3
Block_2
  1

  0
LWPOLYLINE
  5
103
330
FF
100
AcDbEntity
  8
0
100
AcDbPolyline
 90
        4
 70
     1
 43
0.0
 10
136.9123892099335
 20
94.29645988823853
 10
137.2223892099332
 20
96.7964598882383
 10
136.6023892099325
 20
96.7964598882383
 10
136.6023892099325
 20
96.7964598882383
  0
HATCH
  5
104
330
FF
100
AcDbEntity
  8
0
 62
    18
420
        0
440
 33554687
100
AcDbHatch
 10
0.0
 20
0.0
 30
0.0
210
0.0
220
0.0
230
1.0
  2
SOLID
 70
     1
 71
     1
 91
        1
 92
        1
 93
        3
 72
     1
 10
136.9123892099335
 20
94.29645988823853
 11
137.2223892099332
 21
96.7964598882383
 72
     1
 10
137.2223892099332
 20
96.7964598882383
 11
136.6023892099325
 21
96.7964598882383
 72
     1
 10
136.6023892099325
 20
96.7964598882383
 11
136.9123892099335
 21
94.29645988823853
 97
        1
330
103
 75
     2
 76
     1
 98
        1
 10
0.0
 20
0.0
450
        0
451
        0
460
0.0
461
0.0
452
        0
462
0.0
453
        0
470

  0
LWPOLYLINE
  5
105
330
FF
100
AcDbEntity
  8
0
100
AcDbPolyline
 90
        4
 70
     1
 43
0.0
 10
136.9123892099335
 20
85.12979322163795
 10
136.6023892099325
 20
82.62979322163884
 10
137.2223892099332
 20
82.62979322163884
 10
137.2223892099332
 20
82.62979322163884
  0
HATCH
  5
106
330
FF
100
AcDbEntity
  8
0
 62
    18
420
        0
440
 33554687
100
AcDbHatch
 10
0.0
 20
0.0
 30
0.0
210
0.0
220
0.0
230
1.0
  2
SOLID
 70
     1
 71
     1
 91
        1
 92
        1
 93
        3
 72
     1
 10
136.9123892099335
 20
85.12979322163795
 11
136.6023892099325
 21
82.62979322163884
 72
     1
 10
136.6023892099325
 20
82.62979322163884
 11
137.2223892099332
 21
82.62979322163884
 72
     1
 10
137.2223892099332
 20
82.62979322163884
 11
136.9123892099335
 21
85.12979322163795
 97
        1
330
105
 75
     2
 76
     1
 98
        1
 10
0.0
 20
0.0
450
        0
451
        0
460
0.0
461
0.0
452
        0
462
0.0
453
        0
470

  0
LINE
  5
107
330
FF
100
AcDbEntity
  8
0
 62
    18
420
        0
370
    25
100
AcDbLine
 10
146.0540558766335
 20
94.29645988823853
 30
0.0
 11
135.9123892099328
 21
94.29645988823853
 31
0.0
  0
LINE
  5
108
330
FF
100
AcDbEntity
  8
0
 62
    18
420
        0
370
    25
100
AcDbLine
 10
146.0540558766335
 20
85.12979322163795
 30
0.0
 11
135.9123892099328
 21
85.12979322163795
 31
0.0
  0
LINE
  5
109
330
FF
100
AcDbEntity
  8
0
 62
    18
420
        0
370
    25
100
AcDbLine
 10
136.9123892099335
 20
94.29645988823853
 30
0.0
 11
136.9123892099335
 21
97.29645988823833
 31
0.0
  0
LINE
  5
10A
330
FF
100
AcDbEntity
  8
0
 62
    18
420
        0
370
    25
100
AcDbLine
 10
136.9123892099335
 20
94.29645988823853
 30
0.0
 11
136.9123892099335
 21
85.12979322163795
 31
0.0
  0
LINE
  5
10B
330
FF
100
AcDbEntity
  8
0
 62
    18
420
        0
370
    25
100
AcDbLine
 10
136.9123892099335
 20
85.12979322163795
 30
0.0
 11
136.9123892099335
 21
82.1297932216385
 31
0.0
  0
MTEXT
  5
10C
330
FF
100
AcDbEntity
  8
0
100
AcDbMText
 10
136.2240493433681
 20
86.26312389338274
 30
0.0
 40
0.2
 41
0.0
 46
0.0
 71
     7
 72
     1
  1
\C18;\c0;\FMyriad Pro|b0|i0|c1;\H2.997200;\W0.605000;∅
 11
-0.0000000000000062
 21
1.0
 31
0.0
 73
     1
 44
1.0
  0
MTEXT
  5
10D
330
FF
100
AcDbEntity
  8
0
100
AcDbMText
 10
136.2240493433681
 20
89.63518335434528
 30
0.0
 40
0.2
 41
0.0
 46
0.0
 71
     7
 72
     1
  1
\C18;\c0;\FArial Bold|b1|i0|c1;\H2.997200;\W0.605000;55
 11
-0.0000000000000062
 21
1.0
 31
0.0
 73
     1
 44
1.0
  0
ENDBLK
  5
102
330
FF
100
AcDbEntity
  8
0
100
AcDbBlockEnd
  0
BLOCK
  5
110
330
10E
100
AcDbEntity
  8
0
100
AcDbBlockBegin
  2
Block_3
 70
     0
 10
0.0
 20
0.0
 30
0.0
  3
Block_3
  1

  0
LWPOLYLINE
  5
112
330
10E
100
AcDbEntity
  8
0
100
AcDbPolyline
 90
        4
 70
     1
 43
0.0
 10
185.2100886932337
 20
91.04645988823826
 10
185.5200886932334
 20
93.54645988823834
 10
184.9000886932327
 20
93.54645988823834
 10
184.9000886932327
 20
93.54645988823834
  0
HATCH
  5
113
330
10E
100
AcDbEntity
  8
0
 62
    18
420
        0
440
 33554687
100
AcDbHatch
 10
0.0
 20
0.0
 30
0.0
210
0.0
220
0.0
230
1.0
  2
SOLID
 70
     1
 71
     1
 91
        1
 92
        1
 93
        3
 72
     1
 10
185.2100886932337
 20
91.04645988823826
 11
185.5200886932334
 21
93.54645988823834
 72
     1
 10
185.5200886932334
 20
93.54645988823834
 11
184.9000886932327
 21
93.54645988823834
 72
     1
 10
184.9000886932327
 20
93.54645988823834
 11
185.2100886932337
 21
91.04645988823826
 97
        1
330
112
 75
     2
 76
     1
 98
        1
 10
0.0
 20
0.0
450
        0
451
        0
460
0.0
461
0.0
452
        0
462
0.0
453
        0
470

  0
LWPOLYLINE
  5
114
330
10E
100
AcDbEntity
  8
0
100
AcDbPolyline
 90
        4
 70
     1
 43
0.0
 10
185.2100886932337
 20
88.37979322163823
 10
184.9000886932327
 20
85.87979322163846
 10
185.5200886932334
 20
85.87979322163846
 10
185.5200886932334
 20
85.87979322163846
  0
HATCH
  5
115
330
10E
100
AcDbEntity
  8
0
 62
    18
420
        0
440
 33554687
100
AcDbHatch
 10
0.0
 20
0.0
 30
0.0
210
0.0
220
0.0
230
1.0
  2
SOLID
 70
     1
 71
     1
 91
        1
 92
        1
 93
        3
 72
     1
 10
185.2100886932337
 20
88.37979322163823
 11
184.9000886932327
 21
85.87979322163846
 72
     1
 10
184.9000886932327
 20
85.87979322163846
 11
185.5200886932334
 21
85.87979322163846
 72
     1
 10
185.5200886932334
 20
85.87979322163846
 11
185.2100886932337
 21
88.37979322163823
 97
        1
330
114
 75
     2
 76
     1
 98
        1
 10
0.0
 20
0.0
450
        0
451
        0
460
0.0
461
0.0
452
        0
462
0.0
453
        0
470

  0
LINE
  5
116
330
10E
100
AcDbEntity
  8
0
 62
    18
420
        0
370
    25
100
AcDbLine
 10
180.3980565594333
 20
91.04645988823826
 30
0.0
 11
186.2100886932331
 21
91.04645988823826
 31
0.0
  0
LINE
  5
117
330
10E
100
AcDbEntity
  8
0
 62
    18
420
        0
370
    25
100
AcDbLine
 10
180.3980565594333
 20
88.37979322163823
 30
0.0
 11
186.2100886932331
 21
88.37979322163823
 31
0.0
  0
LINE
  5
118
330
10E
100
AcDbEntity
  8
0
 62
    18
420
        0
370
    25
100
AcDbLine
 10
185.2100886932337
 20
91.04645988823826
 30
0.0
 11
185.2100886932337
 21
100.8384230994383
 31
0.0
  0
LINE
  5
119
330
10E
100
AcDbEntity
  8
0
 62
    18
420
        0
370
    25
100
AcDbLine
 10
185.2100886932337
 20
91.04645988823826
 30
0.0
 11
185.2100886932337
 21
88.37979322163823
 31
0.0
  0
LINE
  5
11A
330
10E
100
AcDbEntity
  8
0
 62
    18
420
        0
370
    25
100
AcDbLine
 10
185.2100886932337
 20
88.37979322163823
 30
0.0
 11
185.2100886932337
 21
85.37979322163876
 31
0.0
  0
MTEXT
  5
11B
330
10E
100
AcDbEntity
  8
0
100
AcDbMText
 10
184.521744597167
 20
93.93810761542523
 30
0.0
 40
0.2
 41
0.0
 46
0.0
 71
     7
 72
     1
  1
\C18;\c0;\FMyriad Pro|b0|i0|c1;\H2.997200;\W0.605000;∅
 11
-0.000000000000007
 21
1.0
 31
0.0
 73
     1
 44
1.0
  0
MTEXT
  5
11C
330
10E
100
AcDbEntity
  8
0
100
AcDbMText
 10
184.521744597167
 20
97.31051158593629
 30
0.0
 40
0.2
 41
0.0
 46
0.0
 71
     7
 72
     1
  1
\C18;\c0;\FArial Bold|b1|i0|c1;\H2.997200;\W0.605000;16
 11
-0.000000000000007
 21
1.0
 31
0.0
 73
     1
 44
1.0
  0
ENDBLK
  5
111
330
10E
100
AcDbEntity
  8
0
100
AcDbBlockEnd
  0
BLOCK
  5
1BA
330
1B8
100
AcDbEntity
  8
0
100
AcDbBlockBegin
  2
Block_4
 70
     0
 10
0.0
 20
0.0
 30
0.0
  3
Block_4
  1

  0
LWPOLYLINE
  5
1BC
330
1B8
100
AcDbEntity
  8
0
100
AcDbPolyline
 90
        4
 70
     1
 43
0.0
 10
135.741091558333
 20
42.46781931413808
 10
135.4310915583333
 20
39.96781931413832
 10
136.0510915583327
 20
39.96781931413832
 10
136.0510915583327
 20
39.96781931413832
  0
HATCH
  5
1BD
330
1B8
100
AcDbEntity
  8
0
 62
    18
420
        0
440
 33554687
100
AcDbHatch
 10
0.0
 20
0.0
 30
0.0
210
0.0
220
0.0
230
1.0
  2
SOLID
 70
     1
 71
     1
 91
        1
 92
        1
 93
        3
 72
     1
 10
135.741091558333
 20
42.46781931413808
 11
135.4310915583333
 21
39.96781931413832
 72
     1
 10
135.4310915583333
 20
39.96781931413832
 11
136.0510915583327
 21
39.96781931413832
 72
     1
 10
136.0510915583327
 20
39.96781931413832
 11
135.741091558333
 21
42.46781931413808
 97
        1
330
1BC
 75
     2
 76
     1
 98
        1
 10
0.0
 20
0.0
450
        0
451
        0
460
0.0
461
0.0
452
        0
462
0.0
453
        0
470

  0
LWPOLYLINE
  5
1BE
330
1B8
100
AcDbEntity
  8
0
100
AcDbPolyline
 90
        4
 70
     1
 43
0.0
 10
135.741091558333
 20
9.815485298038387
 10
136.0510915583327
 20
12.31548529803816
 10
135.4310915583333
 20
12.31548529803816
 10
135.4310915583333
 20
12.31548529803816
  0
HATCH
  5
1BF
330
1B8
100
AcDbEntity
  8
0
 62
    18
420
        0
440
 33554687
100
AcDbHatch
 10
0.0
 20
0.0
 30
0.0
210
0.0
220
0.0
230
1.0
  2
SOLID
 70
     1
 71
     1
 91
        1
 92
        1
 93
        3
 72
     1
 10
135.741091558333
 20
9.815485298038387
 11
136.0510915583327
 21
12.31548529803816
 72
     1
 10
136.0510915583327
 20
12.31548529803816
 11
135.4310915583333
 21
12.31548529803816
 72
     1
 10
135.4310915583333
 20
12.31548529803816
 11
135.741091558333
 21
9.815485298038387
 97
        1
330
1BE
 75
     2
 76
     1
 98
        1
 10
0.0
 20
0.0
450
        0
451
        0
460
0.0
461
0.0
452
        0
462
0.0
453
        0
470

  0
LINE
  5
1C0
330
1B8
100
AcDbEntity
  8
0
 62
    18
420
        0
370
    25
100
AcDbLine
 10
120.4077582249337
 20
42.46781931413808
 30
0.0
 11
136.7410915583337
 21
42.46781931413808
 31
0.0
  0
LINE
  5
1C1
330
1B8
100
AcDbEntity
  8
0
 62
    18
420
        0
370
    25
100
AcDbLine
 10
117.5244248916337
 20
9.815485298038387
 30
0.0
 11
136.7410915583337
 21
9.815485298038387
 31
0.0
  0
LINE
  5
1C2
330
1B8
100
AcDbEntity
  8
0
 62
    18
420
        0
370
    25
100
AcDbLine
 10
135.741091558333
 20
42.46781931413808
 30
0.0
 11
135.741091558333
 21
9.815485298038387
 31
0.0
  0
MTEXT
  5
1C3
330
1B8
100
AcDbEntity
  8
0
100
AcDbMText
 10
135.0527491761507
 20
23.49555120942443
 30
0.0
 40
0.2
 41
0.0
 46
0.0
 71
     7
 72
     1
  1
\C18;\c0;\FArial Bold|b1|i0|c1;\H2.997200;\W0.605000;196
 11
-0.000000000000007
 21
1.0
 31
0.0
 73
     1
 44
1.0
  0
ENDBLK
  5
1BB
330
1B8
100
AcDbEntity
  8
0
100
AcDbBlockEnd
  0
BLOCK
  5
1C6
330
1C4
100
AcDbEntity
  8
0
100
AcDbBlockBegin
  2
Block_5
 70
     0
 10
0.0
 20
0.0
 30
0.0
  3
Block_5
  1

  0
LWPOLYLINE
  5
1C8
330
1C4
100
AcDbEntity
  8
0
100
AcDbPolyline
 90
        4
 70
     1
 43
0.0
 10
127.7782114448328
 20
13.81548529803853
 10
127.468211444833
 20
11.31548529803812
 10
128.0882114448338
 20
11.31548529803812
 10
128.0882114448338
 20
11.31548529803812
  0
HATCH
  5
1C9
330
1C4
100
AcDbEntity
  8
0
 62
     8
420
  8421504
440
 33554687
100
AcDbHatch
 10
0.0
 20
0.0
 30
0.0
210
0.0
220
0.0
230
1.0
  2
SOLID
 70
     1
 71
     1
 91
        1
 92
        1
 93
        3
 72
     1
 10
127.7782114448328
 20
13.81548529803853
 11
127.468211444833
 21
11.31548529803812
 72
     1
 10
127.468211444833
 20
11.31548529803812
 11
128.0882114448338
 21
11.31548529803812
 72
     1
 10
128.0882114448338
 20
11.31548529803812
 11
127.7782114448328
 21
13.81548529803853
 97
        1
330
1C8
 75
     2
 76
     1
 98
        1
 10
0.0
 20
0.0
450
        0
451
        0
460
0.0
461
0.0
452
        0
462
0.0
453
        0
470

  0
LWPOLYLINE
  5
1CA
330
1C4
100
AcDbEntity
  8
0
100
AcDbPolyline
 90
        4
 70
     1
 43
0.0
 10
127.7782114448328
 20
19.64881863143848
 10
128.0882114448338
 20
22.14881863143825
 10
127.468211444833
 20
22.14881863143825
 10
127.468211444833
 20
22.14881863143825
  0
HATCH
  5
1CB
330
1C4
100
AcDbEntity
  8
0
 62
     8
420
  8421504
440
 33554687
100
AcDbHatch
 10
0.0
 20
0.0
 30
0.0
210
0.0
220
0.0
230
1.0
  2
SOLID
 70
     1
 71
     1
 91
        1
 92
        1
 93
        3
 72
     1
 10
127.7782114448328
 20
19.64881863143848
 11
128.0882114448338
 21
22.14881863143825
 72
     1
 10
128.0882114448338
 20
22.14881863143825
 11
127.468211444833
 21
22.14881863143825
 72
     1
 10
127.468211444833
 20
22.14881863143825
 11
127.7782114448328
 21
19.64881863143848
 97
        1
330
1CA
 75
     2
 76
     1
 98
        1
 10
0.0
 20
0.0
450
        0
451
        0
460
0.0
461
0.0
452
        0
462
0.0
453
        0
470

  0
LINE
  5
1CC
330
1C4
100
AcDbEntity
  8
0
 62
     8
420
  8421504
370
    25
100
AcDbLine
 10
115.5844355211333
 20
13.81548529803853
 30
0.0
 11
128.7782114448334
 21
13.81548529803853
 31
0.0
  0
LINE
  5
1CD
330
1C4
100
AcDbEntity
  8
0
 62
     8
420
  8421504
370
    25
100
AcDbLine
 10
115.5844355211333
 20
19.64881863143848
 30
0.0
 11
128.7782114448334
 21
19.64881863143848
 31
0.0
  0
LINE
  5
1CE
330
1C4
100
AcDbEntity
  8
0
 62
     8
420
  8421504
370
    25
100
AcDbLine
 10
127.7782114448328
 20
13.81548529803853
 30
0.0
 11
127.7782114448328
 21
10.81548529803842
 31
0.0
  0
LINE
  5
1CF
330
1C4
100
AcDbEntity
  8
0
 62
     8
420
  8421504
370
    25
100
AcDbLine
 10
127.7782114448328
 20
13.81548529803853
 30
0.0
 11
127.7782114448328
 21
19.64881863143848
 31
0.0
  0
LINE
  5
1D0
330
1C4
100
AcDbEntity
  8
0
 62
     8
420
  8421504
370
    25
100
AcDbLine
 10
127.7782114448328
 20
19.64881863143848
 30
0.0
 11
127.7782114448328
 21
22.64881863143859
 31
0.0
  0
MTEXT
  5
1D1
330
1C4
100
AcDbEntity
  8
0
100
AcDbMText
 10
127.0898685137597
 20
14.96825086431349
 30
0.0
 40
0.2
 41
0.0
 46
0.0
 71
     7
 72
     1
  1
\C8;\c8421504;\FArial Bold|b1|i0|c1;\H2.997200;\W0.605000;35
 11
0.0000000000000001
 21
1.0
 31
0.0
 73
     1
 44
1.0
  0
ENDBLK
  5
1C7
330
1C4
100
AcDbEntity
  8
0
100
AcDbBlockEnd
  0
ENDSEC
  0
SECTION
  2
ENTITIES
  0
LINE
  5
78
330
70
100
AcDbEntity
  8
0
 62
    18
420
        0
370
    25
100
AcDbLine
 10
114.1569853514337
 20
90.55479318883842
 30
0.0
 11
114.1542336036328
 21
90.55479318883842
 31
0.0
  0
LINE
  5
79
330
70
100
AcDbEntity
  8
0
 62
    18
420
        0
370
    25
100
AcDbLine
 10
114.1500811467329
 20
88.87145992103807
 30
0.0
 11
114.1569853514337
 21
88.87145992103807
 31
0.0
  0
LINE
  5
7A
330
70
100
AcDbEntity
  8
0
 62
    18
420
        0
370
    25
100
AcDbLine
 10
114.1502599606326
 20
90.54645986963826
 30
0.0
 11
23.5319245515332
 21
90.54645986963826
 31
0.0
  0
LINE
  5
7B
330
70
100
AcDbEntity
  8
0
 62
    18
420
        0
370
    25
100
AcDbLine
 10
23.5319245515332
 20
88.87979324023886
 30
0.0
 11
114.1502599606326
 21
88.87979324023886
 31
0.0
  0
SPLINE
  5
7C
330
70
100
AcDbEntity
  8
0
 62
    18
420
        0
370
    25
100
AcDbSpline
210
0.0
220
0.0
230
1.0
 70
     8
 71
     3
 72
    11
 73
     7
 74
     0
 42
0.0000000001
 43
0.0000000001
 40
0.0
 40
0.0
 40
0.0
 40
0.0
 40
1.0
 40
1.0
 40
1.0
 40
2.0
 40
2.0
 40
2.0
 40
2.0
 10
26.99803065266289
 20
90.54645988827257
 30
0.0
 10
26.53779336113699
 20
93.03557361848696
 30
0.0
 10
24.14687195521374
 20
94.68030294079433
 30
0.0
 10
21.65775822499902
 20
94.2200656492681
 30
0.0
 10
19.48468348872835
 20
93.81826398839397
 30
0.0
 10
17.90775822499969
 20
91.92303568974443
 30
0.0
 10
17.90775822499969
 20
89.71312655493823
 30
0.0
  0
SPLINE
  5
7D
330
70
100
AcDbEntity
  8
0
 62
    18
420
        0
370
    25
100
AcDbSpline
210
0.0
220
0.0
230
1.0
 70
     8
 71
     3
 72
    11
 73
     7
 74
     0
 42
0.0000000001
 43
0.0000000001
 40
0.0
 40
0.0
 40
0.0
 40
0.0
 40
1.0
 40
1.0
 40
1.0
 40
2.0
 40
2.0
 40
2.0
 40
2.0
 10
17.90775822499969
 20
89.71312655493823
 30
0.0
 10
17.90775822499969
 20
87.18182145154738
 30
0.0
 10
19.95978645494216
 20
85.12979322160459
 30
0.0
 10
22.49109155833302
 20
85.12979322160459
 30
0.0
 10
24.70100069313922
 20
85.12979322160459
 30
0.0
 10
26.59622899178874
 20
86.70671848533357
 30
0.0
 10
26.99803065266289
 20
88.87979322160392
 30
0.0
  0
SPLINE
  5
7E
330
70
100
AcDbEntity
  8
0
 62
   144
420
    29337
370
    25
100
AcDbSpline
210
0.0
220
0.0
230
1.0
 70
     8
 71
     3
 72
    20
 73
    16
 74
     0
 42
0.0000000001
 43
0.0000000001
 40
0.0
 40
0.0
 40
0.0
 40
0.0
 40
1.0
 40
1.0
 40
1.0
 40
2.0
 40
2.0
 40
2.0
 40
3.0
 40
3.0
 40
3.0
 40
4.0
 40
4.0
 40
4.0
 40
5.0
 40
5.0
 40
5.0
 40
5.0
 10
114.023232528514
 20
93.1297933159834
 30
0.0
 10
114.0559928708213
 20
93.12798607400342
 30
0.0
 10
114.0887532131285
 20
93.12617883202376
 30
0.0
 10
114.1198019871573
 20
93.1166762584017
 30
0.0
 10
114.1374834144929
 20
93.11126480270827
 30
0.0
 10
114.1546097817964
 20
93.10335775797797
 30
0.0
 10
114.1698301523397
 20
93.09268011138506
 30
0.0
 10
114.1851820658419
 20
93.08191018259424
 30
0.0
 10
114.1985948948385
 20
93.06832155481002
 30
0.0
 10
114.2088910628819
 20
93.0526226856872
 30
0.0
 10
114.2178114766716
 20
93.03902146938874
 30
0.0
 10
114.224392469824
 20
93.02383626875245
 30
0.0
 10
114.2280837585001
 20
93.00811881557756
 30
0.0
 10
114.2314047496324
 20
92.99397808392276
 30
0.0
 10
114.2323867266502
 20
92.97940653098146
 30
0.0
 10
114.2333687036694
 20
92.96483497804048
 30
0.0
  0
LINE
  5
7F
330
70
100
AcDbEntity
  8
0
 62
   144
420
    29337
370
    25
100
AcDbLine
 10
113.6628926485329
 20
93.12979331593847
 30
0.0
 11
114.0232325285333
 21
93.12979331593847
 31
0.0
  0
LINE
  5
80
330
70
100
AcDbEntity
  8
0
 62
   144
420
    29337
370
    25
100
AcDbLine
 10
113.6628926485329
 20
92.47176238383854
 30
0.0
 11
113.6628926485329
 21
93.12979331593847
 31
0.0
  0
LINE
  5
81
330
70
100
AcDbEntity
  8
0
 62
   144
420
    29337
370
    25
100
AcDbLine
 10
114.0361667364333
 20
92.47176238383854
 30
0.0
 11
113.6628926485329
 21
92.47176238383854
 31
0.0
  0
SPLINE
  5
82
330
70
100
AcDbEntity
  8
0
 62
    18
420
        0
370
    25
100
AcDbSpline
210
0.0
220
0.0
230
1.0
 70
     8
 71
     3
 72
    20
 73
    16
 74
     0
 42
0.0000000001
 43
0.0000000001
 40
0.0
 40
0.0
 40
0.0
 40
0.0
 40
1.0
 40
1.0
 40
1.0
 40
2.0
 40
2.0
 40
2.0
 40
3.0
 40
3.0
 40
3.0
 40
4.0
 40
4.0
 40
4.0
 40
5.0
 40
5.0
 40
5.0
 40
5.0
 10
114.266548622594
 20
92.67176142320705
 30
0.0
 10
114.2647832076615
 20
92.65042970674981
 30
0.0
 10
114.263017792729
 20
92.62909799029287
 30
0.0
 10
114.2567337244217
 20
92.6089036686783
 30
0.0
 10
114.2504218707925
 20
92.58862005686072
 30
0.0
 10
114.2395513165439
 20
92.56948392021795
 30
0.0
 10
114.2259479253946
 20
92.55289051419136
 30
0.0
 10
114.2132588638804
 20
92.53741240674848
 30
0.0
 10
114.1981919858069
 20
92.52414670611264
 30
0.0
 10
114.1815822014667
 20
92.51304449871836
 30
0.0
 10
114.159191074728
 20
92.49807796286503
 30
0.0
 10
114.1339960419768
 20
92.48704311867705
 30
0.0
 10
114.1079307287399
 20
92.48081049308842
 30
0.0
 10
114.0844790643047
 20
92.47520283195935
 30
0.0
 10
114.0603229003671
 20
92.47348260789717
 30
0.0
 10
114.0361667364308
 20
92.47176238383501
 30
0.0
  0
SPLINE
  5
83
330
70
100
AcDbEntity
  8
0
 62
   144
420
    29337
370
    25
100
AcDbSpline
210
0.0
220
0.0
230
1.0
 70
     8
 71
     3
 72
    17
 73
    13
 74
     0
 42
0.0000000001
 43
0.0000000001
 40
0.0
 40
0.0
 40
0.0
 40
0.0
 40
1.0
 40
1.0
 40
1.0
 40
2.0
 40
2.0
 40
2.0
 40
3.0
 40
3.0
 40
3.0
 40
4.0
 40
4.0
 40
4.0
 40
4.0
 10
114.1522567162377
 20
92.83580209797268
 30
0.0
 10
114.1703136168112
 20
92.82822143372431
 30
0.0
 10
114.1883705173834
 20
92.82064076947593
 30
0.0
 10
114.2040432184403
 20
92.80934074010124
 30
0.0
 10
114.2198237609019
 20
92.79796295699112
 30
0.0
 10
114.2331871803584
 20
92.78281444791758
 30
0.0
 10
114.2432432064869
 20
92.76586070394177
 30
0.0
 10
114.2518563939016
 20
92.75133948329607
 30
0.0
 10
114.2580431899417
 20
92.73549389449486
 30
0.0
 10
114.2615219642181
 20
92.71917443459901
 30
0.0
 10
114.2648300354936
 20
92.7036557684817
 30
0.0
 10
114.2656893290445
 20
92.68770859584423
 30
0.0
 10
114.266548622594
 20
92.67176142320705
 30
0.0
  0
SPLINE
  5
84
330
70
100
AcDbEntity
  8
0
 62
   144
420
    29337
370
    25
100
AcDbSpline
210
0.0
220
0.0
230
1.0
 70
     8
 71
     3
 72
    17
 73
    13
 74
     0
 42
0.0000000001
 43
0.0000000001
 40
0.0
 40
0.0
 40
0.0
 40
0.0
 40
1.0
 40
1.0
 40
1.0
 40
2.0
 40
2.0
 40
2.0
 40
3.0
 40
3.0
 40
3.0
 40
4.0
 40
4.0
 40
4.0
 40
4.0
 10
114.2333687036694
 20
92.96483497804048
 30
0.0
 10
114.2322173652199
 20
92.94805937098248
 30
0.0
 10
114.2310660267692
 20
92.93128376392447
 30
0.0
 10
114.2260273982549
 20
92.91549412891933
 30
0.0
 10
114.2219064888609
 20
92.90258036577206
 30
0.0
 10
114.2151853696115
 20
92.8903261197192
 30
0.0
 10
114.2067651638847
 20
92.87951682742098
 30
0.0
 10
114.1983744893658
 20
92.86874544529544
 30
0.0
 10
114.1882966254875
 20
92.85940889926186
 30
0.0
 10
114.1772707988282
 20
92.85150543834435
 30
0.0
 10
114.169265883961
 20
92.84576740764949
 30
0.0
 10
114.1607613000994
 20
92.84078475281107
 30
0.0
 10
114.1522567162377
 20
92.83580209797268
 30
0.0
  0
LWPOLYLINE
  5
85
330
70
100
AcDbEntity
  8
0
 62
    18
420
        0
370
    25
100
AcDbPolyline
 90
        9
 70
     0
 43
0.0
 10
114.7229513217335
 20
93.12979331593847
 10
114.7528927216336
 20
93.04755070293829
 10
114.7828440556329
 20
92.96530467503849
 10
114.8127953896334
 20
92.88305523233853
 10
114.8427467236327
 20
92.80080268513842
 10
114.8726980576333
 20
92.71854703363834
 10
114.9026493916325
 20
92.63628858813829
 10
114.9326106597336
 20
92.55402672773829
 10
114.9625619937328
 20
92.47176238383854
  0
LINE
  5
86
330
70
100
AcDbEntity
  8
0
 62
   144
420
    29337
370
    25
100
AcDbLine
 10
114.5248155484328
 20
93.12979331593847
 30
0.0
 11
114.7229513217335
 21
93.12979331593847
 31
0.0
  0
LWPOLYLINE
  5
87
330
70
100
AcDbEntity
  8
0
 62
    18
420
        0
370
    25
100
AcDbPolyline
 90
        9
 70
     0
 43
0.0
 10
114.2824133922332
 20
92.47176238383854
 10
114.3127124199327
 20
92.55402548593835
 10
114.3430213818328
 20
92.63628610453841
 10
114.3733204096337
 20
92.71854423963835
 10
114.4036194373332
 20
92.80079989123855
 10
114.4339184651328
 20
92.88305243833825
 10
114.4642174929337
 20
92.9653021915384
 10
114.4945165206332
 20
93.04754915073827
 10
114.5248155484328
 20
93.12979331593847
  0
LINE
  5
88
330
70
100
AcDbEntity
  8
0
 62
   144
420
    29337
370
    25
100
AcDbLine
 10
114.4860923975326
 20
92.47176238383854
 30
0.0
 11
114.2824133922332
 21
92.47176238383854
 31
0.0
  0
LWPOLYLINE
  5
89
330
70
100
AcDbEntity
  8
0
 62
   144
420
    29337
370
    25
100
AcDbPolyline
 90
        9
 70
     0
 43
0.0
 10
114.5155966966331
 20
92.5657759829385
 10
114.5119111428329
 20
92.55402455463828
 10
114.5082156548334
 20
92.54227281593832
 10
114.5045301009331
 20
92.53052138773853
 10
114.5008445471329
 20
92.51876964903823
 10
114.4971589932326
 20
92.50701791033824
 10
114.4934734393336
 20
92.49526617163827
 10
114.4897779514329
 20
92.48351443293829
 10
114.4860923975326
 20
92.47176238383854
  0
LINE
  5
8A
330
70
100
AcDbEntity
  8
0
 62
   144
420
    29337
370
    25
100
AcDbLine
 10
114.7248089998331
 20
92.5657759829385
 30
0.0
 11
114.5155966966331
 21
92.5657759829385
 31
0.0
  0
LWPOLYLINE
  5
8B
330
70
100
AcDbEntity
  8
0
 62
    18
420
        0
370
    25
100
AcDbPolyline
 90
        9
 70
     0
 43
0.0
 10
114.7524556209328
 20
92.47176238383854
 10
114.7490084856326
 20
92.48351443293829
 10
114.7455514162333
 20
92.49526617163827
 10
114.7420943468326
 20
92.50701791033824
 10
114.7386372774332
 20
92.51876964903823
 10
114.7351802080325
 20
92.53052138773821
 10
114.7317231386332
 20
92.54227312643852
 10
114.7282660692325
 20
92.55402455463828
 10
114.7248089998331
 20
92.5657759829385
  0
LINE
  5
8C
330
70
100
AcDbEntity
  8
0
 62
   144
420
    29337
370
    25
100
AcDbLine
 10
114.9625619937328
 20
92.47176238383854
 30
0.0
 11
114.7524556209328
 21
92.47176238383854
 31
0.0
  0
LINE
  5
8D
330
70
100
AcDbEntity
  8
0
 62
   144
420
    29337
370
    25
100
AcDbLine
 10
115.3017024884327
 20
92.47176238383854
 30
0.0
 11
115.0989672233332
 21
92.47176238383854
 31
0.0
  0
LINE
  5
8E
330
70
100
AcDbEntity
  8
0
 62
   144
420
    29337
370
    25
100
AcDbLine
 10
115.3017024884327
 20
92.96115377033826
 30
0.0
 11
115.3017024884327
 21
92.47176238383854
 31
0.0
  0
LINE
  5
8F
330
70
100
AcDbEntity
  8
0
 62
   144
420
    29337
370
    25
100
AcDbLine
 10
115.4860497206328
 20
92.96115377033826
 30
0.0
 11
115.3017024884327
 21
92.96115377033826
 31
0.0
  0
LINE
  5
90
330
70
100
AcDbEntity
  8
0
 62
   144
420
    29337
370
    25
100
AcDbLine
 10
115.4860497206328
 20
93.12979331593847
 30
0.0
 11
115.4860497206328
 21
92.96115377033826
 31
0.0
  0
LINE
  5
91
330
70
100
AcDbEntity
  8
0
 62
   144
420
    29337
370
    25
100
AcDbLine
 10
114.9146597275337
 20
93.12979331593847
 30
0.0
 11
115.4860497206328
 21
93.12979331593847
 31
0.0
  0
LINE
  5
92
330
70
100
AcDbEntity
  8
0
 62
   144
420
    29337
370
    25
100
AcDbLine
 10
114.9146597275337
 20
92.96115377033826
 30
0.0
 11
114.9146597275337
 21
93.12979331593847
 31
0.0
  0
LINE
  5
93
330
70
100
AcDbEntity
  8
0
 62
   144
420
    29337
370
    25
100
AcDbLine
 10
115.0989672233332
 20
92.96115377033826
 30
0.0
 11
114.9146597275337
 21
92.96115377033826
 31
0.0
  0
LINE
  5
94
330
70
100
AcDbEntity
  8
0
 62
   144
420
    29337
370
    25
100
AcDbLine
 10
115.0989672233332
 20
92.47176238383854
 30
0.0
 11
115.0989672233332
 21
92.96115377033826
 31
0.0
  0
LINE
  5
95
330
70
100
AcDbEntity
  8
0
 62
   144
420
    29337
370
    25
100
AcDbLine
 10
116.223935354733
 20
92.47176238383854
 30
0.0
 11
116.223935354733
 21
92.70981371143852
 31
0.0
  0
LINE
  5
96
330
70
100
AcDbEntity
  8
0
 62
   144
420
    29337
370
    25
100
AcDbLine
 10
116.4233029573336
 20
92.47176238383854
 30
0.0
 11
116.223935354733
 21
92.47176238383854
 31
0.0
  0
LINE
  5
97
330
70
100
AcDbEntity
  8
0
 62
   144
420
    29337
370
    25
100
AcDbLine
 10
116.4233029573336
 20
92.70981371143852
 30
0.0
 11
116.4233029573336
 21
92.47176238383854
 31
0.0
  0
LINE
  5
98
330
70
100
AcDbEntity
  8
0
 62
   144
420
    29337
370
    25
100
AcDbLine
 10
116.6526318281327
 20
92.70981371143852
 30
0.0
 11
116.4233029573336
 21
92.70981371143852
 31
0.0
  0
LINE
  5
99
330
70
100
AcDbEntity
  8
0
 62
   144
420
    29337
370
    25
100
AcDbLine
 10
116.6526318281327
 20
92.9004967310384
 30
0.0
 11
116.6526318281327
 21
92.70981371143852
 31
0.0
  0
LINE
  5
9A
330
70
100
AcDbEntity
  8
0
 62
   144
420
    29337
370
    25
100
AcDbLine
 10
116.4233029573336
 20
92.9004967310384
 30
0.0
 11
116.6526318281327
 21
92.9004967310384
 31
0.0
  0
LINE
  5
9B
330
70
100
AcDbEntity
  8
0
 62
   144
420
    29337
370
    25
100
AcDbLine
 10
116.4233029573336
 20
93.12979331593847
 30
0.0
 11
116.4233029573336
 21
92.9004967310384
 31
0.0
  0
LINE
  5
9C
330
70
100
AcDbEntity
  8
0
 62
   144
420
    29337
370
    25
100
AcDbLine
 10
116.223935354733
 20
93.12979331593847
 30
0.0
 11
116.4233029573336
 21
93.12979331593847
 31
0.0
  0
LINE
  5
9D
330
70
100
AcDbEntity
  8
0
 62
   144
420
    29337
370
    25
100
AcDbLine
 10
116.223935354733
 20
92.9004967310384
 30
0.0
 11
116.223935354733
 21
93.12979331593847
 31
0.0
  0
LINE
  5
9E
330
70
100
AcDbEntity
  8
0
 62
   144
420
    29337
370
    25
100
AcDbLine
 10
116.1560555984326
 20
92.9004967310384
 30
0.0
 11
116.223935354733
 21
92.9004967310384
 31
0.0
  0
LINE
  5
9F
330
70
100
AcDbEntity
  8
0
 62
   144
420
    29337
370
    25
100
AcDbLine
 10
116.1560555984326
 20
93.12979331593847
 30
0.0
 11
116.1560555984326
 21
92.9004967310384
 31
0.0
  0
LINE
  5
A0
330
70
100
AcDbEntity
  8
0
 62
   144
420
    29337
370
    25
100
AcDbLine
 10
115.9533004651334
 20
93.12979331593847
 30
0.0
 11
116.1560555984326
 21
93.12979331593847
 31
0.0
  0
LINE
  5
A1
330
70
100
AcDbEntity
  8
0
 62
   144
420
    29337
370
    25
100
AcDbLine
 10
115.9533004651334
 20
92.90123061323848
 30
0.0
 11
115.9533004651334
 21
93.12979331593847
 31
0.0
  0
LINE
  5
A2
330
70
100
AcDbEntity
  8
0
 62
    18
420
        0
370
    25
100
AcDbLine
 10
115.7634298691331
 20
92.90123061323848
 30
0.0
 11
115.9533004651334
 21
92.90123061323848
 31
0.0
  0
LINE
  5
A3
330
70
100
AcDbEntity
  8
0
 62
   144
420
    29337
370
    25
100
AcDbLine
 10
115.7634298691331
 20
93.12979331593847
 30
0.0
 11
115.7634298691331
 21
92.90123061323848
 31
0.0
  0
LINE
  5
A4
330
70
100
AcDbEntity
  8
0
 62
    18
420
        0
370
    25
100
AcDbLine
 10
115.5607045381328
 20
93.12979331593847
 30
0.0
 11
115.7634298691331
 21
93.12979331593847
 31
0.0
  0
LINE
  5
A5
330
70
100
AcDbEntity
  8
0
 62
   144
420
    29337
370
    25
100
AcDbLine
 10
115.5607045381328
 20
92.47176238383854
 30
0.0
 11
115.5607045381328
 21
93.12979331593847
 31
0.0
  0
LINE
  5
A6
330
70
100
AcDbEntity
  8
0
 62
    18
420
        0
370
    25
100
AcDbLine
 10
115.7634298691331
 20
92.47176238383854
 30
0.0
 11
115.5607045381328
 21
92.47176238383854
 31
0.0
  0
LINE
  5
A7
330
70
100
AcDbEntity
  8
0
 62
   144
420
    29337
370
    25
100
AcDbLine
 10
115.7634298691331
 20
92.70981371143852
 30
0.0
 11
115.7634298691331
 21
92.47176238383854
 31
0.0
  0
LINE
  5
A8
330
70
100
AcDbEntity
  8
0
 62
   144
420
    29337
370
    25
100
AcDbLine
 10
115.9533004651334
 20
92.70981371143852
 30
0.0
 11
115.7634298691331
 21
92.70981371143852
 31
0.0
  0
LINE
  5
A9
330
70
100
AcDbEntity
  8
0
 62
   144
420
    29337
370
    25
100
AcDbLine
 10
115.9533004651334
 20
92.47176238383854
 30
0.0
 11
115.9533004651334
 21
92.70981371143852
 31
0.0
  0
LINE
  5
AA
330
70
100
AcDbEntity
  8
0
 62
    18
420
        0
370
    25
100
AcDbLine
 10
116.1560555984326
 20
92.47176238383854
 30
0.0
 11
115.9533004651334
 21
92.47176238383854
 31
0.0
  0
LINE
  5
AB
330
70
100
AcDbEntity
  8
0
 62
   144
420
    29337
370
    25
100
AcDbLine
 10
116.1560555984326
 20
92.70981371143852
 30
0.0
 11
116.1560555984326
 21
92.47176238383854
 31
0.0
  0
LINE
  5
AC
330
70
100
AcDbEntity
  8
0
 62
   144
420
    29337
370
    25
100
AcDbLine
 10
116.223935354733
 20
92.70981371143852
 30
0.0
 11
116.1560555984326
 21
92.70981371143852
 31
0.0
  0
LINE
  5
AD
330
70
100
AcDbEntity
  8
0
 62
    18
420
        0
370
    25
100
AcDbLine
 10
113.992814291433
 20
92.75101821603831
 30
0.0
 11
113.8656179795332
 21
92.75101821603831
 31
0.0
  0
SPLINE
  5
AE
330
70
100
AcDbEntity
  8
0
 62
   144
420
    29337
370
    25
100
AcDbSpline
210
0.0
220
0.0
230
1.0
 70
     8
 71
     3
 72
    17
 73
    13
 74
     0
 42
0.0000000001
 43
0.0000000001
 40
0.0
 40
0.0
 40
0.0
 40
0.0
 40
1.0
 40
1.0
 40
1.0
 40
2.0
 40
2.0
 40
2.0
 40
3.0
 40
3.0
 40
3.0
 40
4.0
 40
4.0
 40
4.0
 40
4.0
 10
114.0637929249501
 20
92.69109521660942
 30
0.0
 10
114.0637929249501
 20
92.6999896853634
 30
0.0
 10
114.0626302632527
 20
92.70881723507782
 30
0.0
 10
114.059354050204
 20
92.71708211554562
 30
0.0
 10
114.0560778371541
 20
92.72534699601372
 30
0.0
 10
114.0505512837131
 20
92.73264738534699
 30
0.0
 10
114.0434178531154
 20
92.73790972477526
 30
0.0
 10
114.0362844225189
 20
92.74317206420382
 30
0.0
 10
114.0278542922683
 20
92.74643657667967
 30
0.0
 10
114.0191832479488
 20
92.74838735713302
 30
0.0
 10
114.0105122036293
 20
92.75033813758669
 30
0.0
 10
114.0017013994344
 20
92.7510182616092
 30
0.0
 10
113.9928157999506
 20
92.7510182616092
 30
0.0
  0
LINE
  5
AF
330
70
100
AcDbEntity
  8
0
 62
   144
420
    29337
370
    25
100
AcDbLine
 10
113.8656179795332
 20
92.75101821603831
 30
0.0
 11
113.8656179795332
 21
92.62845181903852
 31
0.0
  0
LINE
  5
B0
330
70
100
AcDbEntity
  8
0
 62
   144
420
    29337
370
    25
100
AcDbLine
 10
113.8656179795332
 20
92.62845181903852
 30
0.0
 11
113.9845391799332
 21
92.62845181903852
 31
0.0
  0
SPLINE
  5
B1
330
70
100
AcDbEntity
  8
0
 62
   144
420
    29337
370
    25
100
AcDbSpline
210
0.0
220
0.0
230
1.0
 70
     8
 71
     3
 72
    17
 73
    13
 74
     0
 42
0.0000000001
 43
0.0000000001
 40
0.0
 40
0.0
 40
0.0
 40
0.0
 40
1.0
 40
1.0
 40
1.0
 40
2.0
 40
2.0
 40
2.0
 40
3.0
 40
3.0
 40
3.0
 40
4.0
 40
4.0
 40
4.0
 40
4.0
 10
113.9845391777771
 20
92.62845183163218
 30
0.0
 10
113.9941958426329
 20
92.62845197279988
 30
0.0
 10
114.0037820907536
 20
92.62906181550897
 30
0.0
 10
114.0132284791633
 20
92.63088248739991
 30
0.0
 10
114.0226748675731
 20
92.63270315929085
 30
0.0
 10
114.0320386686106
 20
92.63577731245316
 30
0.0
 10
114.040168629293
 20
92.64107431189144
 30
0.0
 10
114.0482985899755
 20
92.64637131133001
 30
0.0
 10
114.0547636384698
 20
92.65397094922713
 30
0.0
 10
114.0585991921464
 20
92.66283523328159
 30
0.0
 10
114.0624347458217
 20
92.67169951733572
 30
0.0
 10
114.0637929249501
 20
92.68140438542715
 30
0.0
 10
114.0637929249501
 20
92.69109521660942
 30
0.0
  0
LWPOLYLINE
  5
B2
330
70
100
AcDbEntity
  8
0
 62
   144
420
    29337
370
    25
100
AcDbPolyline
 90
        9
 70
     0
 43
0.0
 10
114.6234314332336
 20
92.90954297763843
 10
114.6154742131326
 20
92.88419858603827
 10
114.6075269271335
 20
92.85885388393824
 10
114.599579641133
 20
92.83350887133833
 10
114.5916323552326
 20
92.80816385883854
 10
114.5836850692335
 20
92.78281822533834
 10
114.5757278491325
 20
92.75747259193826
 10
114.5677805631333
 20
92.73212664803828
 10
114.559833277233
 20
92.70678039373823
  0
LINE
  5
B3
330
70
100
AcDbEntity
  8
0
 62
   144
420
    29337
370
    25
100
AcDbLine
 10
113.8656179795332
 20
92.97310388073849
 30
0.0
 11
113.9725288440334
 21
92.97310388073849
 31
0.0
  0
SPLINE
  5
B4
330
70
100
AcDbEntity
  8
0
 62
   144
420
    29337
370
    25
100
AcDbSpline
210
0.0
220
0.0
230
1.0
 70
     8
 71
     3
 72
    23
 73
    19
 74
     0
 42
0.0000000001
 43
0.0000000001
 40
0.0
 40
0.0
 40
0.0
 40
0.0
 40
1.0
 40
1.0
 40
1.0
 40
2.0
 40
2.0
 40
2.0
 40
3.0
 40
3.0
 40
3.0
 40
4.0
 40
4.0
 40
4.0
 40
5.0
 40
5.0
 40
5.0
 40
6.0
 40
6.0
 40
6.0
 40
6.0
 10
113.9725288440244
 20
92.97310388073977
 30
0.0
 10
113.9820044800124
 20
92.97278423527847
 30
0.0
 10
113.9914801160005
 20
92.97246458981717
 30
0.0
 10
114.0008311161855
 20
92.97071814274461
 30
0.0
 10
114.0084484865793
 20
92.96929547843465
 30
0.0
 10
114.0159831510084
 20
92.96692601552431
 30
0.0
 10
114.0226364820657
 20
92.96298226699885
 30
0.0
 10
114.0255550314247
 20
92.96125230277047
 30
0.0
 10
114.0283039924268
 20
92.95921941059242
 30
0.0
 10
114.030712911434
 20
92.95683584844727
 30
0.0
 10
114.0330447366467
 20
92.95452856858728
 30
0.0
 10
114.0350579366419
 20
92.95189270491524
 30
0.0
 10
114.0366733759106
 20
92.9490260877773
 30
0.0
 10
114.0383620779779
 20
92.94602946488867
 30
0.0
 10
114.0396161230242
 20
92.94278068383707
 30
0.0
 10
114.040368863887
 20
92.93944402024818
 30
0.0
 10
114.0412142249415
 20
92.93569680046331
 30
0.0
 10
114.0414273272927
 20
92.93183874079074
 30
0.0
 10
114.0416404296426
 20
92.92798068111784
 30
0.0
  0
SPLINE
  5
B5
330
70
100
AcDbEntity
  8
0
 62
   144
420
    29337
370
    25
100
AcDbSpline
210
0.0
220
0.0
230
1.0
 70
     8
 71
     3
 72
    23
 73
    19
 74
     0
 42
0.0000000001
 43
0.0000000001
 40
0.0
 40
0.0
 40
0.0
 40
0.0
 40
1.0
 40
1.0
 40
1.0
 40
2.0
 40
2.0
 40
2.0
 40
3.0
 40
3.0
 40
3.0
 40
4.0
 40
4.0
 40
4.0
 40
5.0
 40
5.0
 40
5.0
 40
6.0
 40
6.0
 40
6.0
 40
6.0
 10
114.0416404296426
 20
92.92798068111784
 30
0.0
 10
114.0414160089344
 20
92.92249240337826
 30
0.0
 10
114.0411915882275
 20
92.91700412563868
 30
0.0
 10
114.0401503135225
 20
92.91162696714854
 30
0.0
 10
114.0392854414201
 20
92.9071607543906
 30
0.0
 10
114.0378570386195
 20
92.90277120050726
 30
0.0
 10
114.0357594380237
 20
92.89871355876973
 30
0.0
 10
114.0338910412914
 20
92.89509929369653
 30
0.0
 10
114.0314917025313
 20
92.89174836796691
 30
0.0
 10
114.0286068806518
 20
92.88889307266135
 30
0.0
 10
114.025741551768
 20
92.88605707083888
 30
0.0
 10
114.0223972785047
 20
92.88371002403309
 30
0.0
 10
114.0188317189084
 20
92.88181781506191
 30
0.0
 10
114.0125290535098
 20
92.87847304976402
 30
0.0
 10
114.0055349589452
 20
92.87654946642822
 30
0.0
 10
113.9984866668251
 20
92.87541000530792
 30
0.0
 10
113.9898878365741
 20
92.87401987666617
 30
0.0
 10
113.9812083402993
 20
92.87379681214881
 30
0.0
 10
113.9725288440244
 20
92.87357374763145
 30
0.0
  0
LINE
  5
B6
330
70
100
AcDbEntity
  8
0
 62
   144
420
    29337
370
    25
100
AcDbLine
 10
113.9725288440334
 20
92.87357374763852
 30
0.0
 11
113.8656179795332
 21
92.87357374763852
 31
0.0
  0
LINE
  5
B7
330
70
100
AcDbEntity
  8
0
 62
   144
420
    29337
370
    25
100
AcDbLine
 10
113.8656179795332
 20
92.87357374763852
 30
0.0
 11
113.8656179795332
 21
92.97310388073849
 31
0.0
  0
SPLINE
  5
B8
330
70
100
AcDbEntity
  8
0
 62
   144
420
    29337
370
    25
100
AcDbSpline
210
0.0
220
0.0
230
1.0
 70
     8
 71
     3
 72
    23
 73
    19
 74
     0
 42
0.0000000001
 43
0.0000000001
 40
0.0
 40
0.0
 40
0.0
 40
0.0
 40
1.0
 40
1.0
 40
1.0
 40
2.0
 40
2.0
 40
2.0
 40
3.0
 40
3.0
 40
3.0
 40
4.0
 40
4.0
 40
4.0
 40
5.0
 40
5.0
 40
5.0
 40
6.0
 40
6.0
 40
6.0
 40
6.0
 10
114.2333687036694
 20
92.96483497804048
 30
0.0
 10
114.232526935638
 20
92.97829214885755
 30
0.0
 10
114.2316851676053
 20
92.99174931967462
 30
0.0
 10
114.2288685529896
 20
93.00486601626531
 30
0.0
 10
114.2257641048101
 20
93.01932312537955
 30
0.0
 10
114.2202605622411
 20
93.03336661765264
 30
0.0
 10
114.2127752988996
 20
93.04624654090053
 30
0.0
 10
114.2044809481435
 20
93.06051866417188
 30
0.0
 10
114.1937533117753
 20
93.07336208174247
 30
0.0
 10
114.1812047053841
 20
93.08398031677453
 30
0.0
 10
114.1697209897486
 20
93.0936974748281
 30
0.0
 10
114.1567122501697
 20
93.10155108949437
 30
0.0
 10
114.1430080621904
 20
93.10781658674935
 30
0.0
 10
114.1264339202969
 20
93.11539421489401
 30
0.0
 10
114.108842545488
 20
93.12064890247416
 30
0.0
 10
114.0909831414081
 20
93.12389525011829
 30
0.0
 10
114.0686783151729
 20
93.12794965304131
 30
0.0
 10
114.0459554218441
 20
93.12887148451235
 30
0.0
 10
114.023232528514
 20
93.1297933159834
 30
0.0
  0
LINE
  5
B9
330
70
100
AcDbEntity
  8
0
 62
   144
420
    29337
370
    25
100
AcDbLine
 10
114.6234314332336
 20
92.90954297763843
 30
0.0
 11
114.6252990454336
 21
92.90954297763843
 31
0.0
  0
LINE
  5
BA
330
70
100
AcDbEntity
  8
0
 62
   144
420
    29337
370
    25
100
AcDbLine
 10
114.6252990454336
 20
92.90954297763843
 30
0.0
 11
114.6842579731335
 21
92.70678039373855
 31
0.0
  0
LINE
  5
BB
330
70
100
AcDbEntity
  8
0
 62
   144
420
    29337
370
    25
100
AcDbLine
 10
114.6842579731335
 20
92.70678039373855
 30
0.0
 11
114.559833277233
 21
92.70678039373855
 31
0.0
  0
SPLINE
  5
BC
330
70
100
AcDbEntity
  8
0
 62
    18
420
        0
370
    25
100
AcDbSpline
210
0.0
220
0.0
230
1.0
 70
     8
 71
     3
 72
    17
 73
    13
 74
     0
 42
0.0000000001
 43
0.0000000001
 40
0.0
 40
0.0
 40
0.0
 40
0.0
 40
1.0
 40
1.0
 40
1.0
 40
2.0
 40
2.0
 40
2.0
 40
3.0
 40
3.0
 40
3.0
 40
4.0
 40
4.0
 40
4.0
 40
4.0
 10
110.6508191306034
 20
88.87979322160392
 30
0.0
 10
111.11105642213
 20
86.39067949138953
 30
0.0
 10
113.5019778280526
 20
84.74595016908248
 30
0.0
 10
115.9910915582676
 20
85.20618746060838
 30
0.0
 10
118.4802052884814
 20
85.66642475213491
 30
0.0
 10
120.1249346107884
 20
88.05734615805752
 30
0.0
 10
119.6646973192632
 20
90.54645988827257
 30
0.0
 10
119.2044600277366
 20
93.03557361848696
 30
0.0
 10
116.813538621814
 20
94.68030294079433
 30
0.0
 10
114.324424891599
 20
94.2200656492681
 30
0.0
 10
112.4571041950516
 20
93.87479793033772
 30
0.0
 10
110.9960868495338
 20
92.41378058481997
 30
0.0
 10
110.6508191306034
 20
90.54645988827257
 30
0.0
  0
LINE
  5
BD
330
70
100
AcDbEntity
  8
0
 62
   144
420
    29337
370
    25
100
AcDbLine
 10
116.1560555984326
 20
92.70981371143852
 30
0.0
 11
115.9945965498334
 21
92.70981371143852
 31
0.0
  0
LINE
  5
BE
330
70
100
AcDbEntity
  8
0
 62
   144
420
    29337
370
    25
100
AcDbLine
 10
115.9945965498334
 20
92.70981371143852
 30
0.0
 11
115.9945965498334
 21
92.9004967310384
 31
0.0
  0
LINE
  5
BF
330
70
100
AcDbEntity
  8
0
 62
   144
420
    29337
370
    25
100
AcDbLine
 10
115.9945965498334
 20
92.9004967310384
 30
0.0
 11
116.1560555984326
 21
92.9004967310384
 31
0.0
  0
LINE
  5
C0
330
70
100
AcDbEntity
  8
0
 62
   144
420
    29337
370
    25
100
AcDbLine
 10
116.1560555984326
 20
92.9004967310384
 30
0.0
 11
116.1560555984326
 21
92.70981371143852
 31
0.0
  0
CIRCLE
  5
C1
330
70
100
AcDbEntity
  8
0
 62
    18
420
        0
370
    25
100
AcDbCircle
 10
115.1910915583331
 20
89.71312655493823
 30
0.0
 40
1.33333333333338
  0
CIRCLE
  5
C2
330
70
100
AcDbEntity
  8
0
 62
    18
420
        0
370
    25
100
AcDbCircle
 10
22.49109155833302
 20
89.71312655493823
 30
0.0
 40
1.33333333333338
  0
SPLINE
  5
C3
330
70
100
AcDbEntity
  8
0
 62
     8
420
  8421504
370
    25
100
AcDbSpline
210
0.0
220
0.0
230
1.0
 70
     8
 71
     3
 72
    11
 73
     7
 74
     0
 42
0.0000000001
 43
0.0000000001
 40
0.0
 40
0.0
 40
0.0
 40
0.0
 40
1.0
 40
1.0
 40
1.0
 40
2.0
 40
2.0
 40
2.0
 40
2.0
 10
18.06557385626246
 20
89.71312655493823
 30
0.0
 10
18.06557385626246
 20
87.26898061797882
 30
0.0
 10
20.04694562137328
 20
85.2876088528677
 30
0.0
 10
22.49109155833302
 20
85.2876088528677
 30
0.0
 10
24.61390908234483
 20
85.2876088528677
 30
0.0
 10
26.43771149231686
 20
86.79495036624178
 30
0.0
 10
26.83744203740241
 20
88.87979322160905
 30
0.0
  0
SPLINE
  5
C4
330
70
100
AcDbEntity
  8
0
 62
     8
420
  8421504
370
    25
100
AcDbSpline
210
0.0
220
0.0
230
1.0
 70
     8
 71
     3
 72
    11
 73
     7
 74
     0
 42
0.0000000001
 43
0.0000000001
 40
0.0
 40
0.0
 40
0.0
 40
0.0
 40
1.0
 40
1.0
 40
1.0
 40
2.0
 40
2.0
 40
2.0
 40
2.0
 10
26.83744203740081
 20
90.54645988827545
 30
0.0
 10
26.3772047458733
 20
92.94688297528415
 30
0.0
 10
24.05818131200514
 20
94.51971432553385
 30
0.0
 10
21.65775822499613
 20
94.05947703400602
 30
0.0
 10
19.57291536963239
 20
93.65974648891727
 30
0.0
 10
18.06557385626246
 20
91.83594407894716
 30
0.0
 10
18.06557385626246
 20
89.71312655493823
 30
0.0
  0
SPLINE
  5
C5
330
70
100
AcDbEntity
  8
0
 62
     8
420
  8421504
370
    25
100
AcDbSpline
210
0.0
220
0.0
230
1.0
 70
     8
 71
     3
 72
     8
 73
     4
 74
     0
 42
0.0000000001
 43
0.0000000001
 40
0.0
 40
0.0
 40
0.0
 40
0.0
 40
1.0
 40
1.0
 40
1.0
 40
1.0
 10
115.174424859418
 20
91.04635571793805
 30
0.0
 10
114.7637465809498
 20
91.05148958760443
 30
0.0
 10
114.3736192041666
 20
90.86707056524053
 30
0.0
 10
114.1169252252
 20
90.54645988827193
 30
0.0
  0
SPLINE
  5
C6
330
70
100
AcDbEntity
  8
0
 62
     8
420
  8421504
370
    25
100
AcDbSpline
210
0.0
220
0.0
230
1.0
 70
     8
 71
     3
 72
     8
 73
     4
 74
     0
 42
0.0000000001
 43
0.0000000001
 40
0.0
 40
0.0
 40
0.0
 40
0.0
 40
1.0
 40
1.0
 40
1.0
 40
1.0
 10
114.1169252252
 20
88.8797932216052
 30
0.0
 10
114.3736192041743
 20
88.55918254462567
 30
0.0
 10
114.7637465809742
 20
88.37476352226081
 30
0.0
 10
115.1744248594552
 20
88.37989739193906
 30
0.0
  0
SPLINE
  5
C7
330
70
100
AcDbEntity
  8
0
 62
     8
420
  8421504
370
    25
100
AcDbSpline
210
0.0
220
0.0
230
1.0
 70
     8
 71
     3
 72
    17
 73
    13
 74
     0
 42
0.0000000001
 43
0.0000000001
 40
0.0
 40
0.0
 40
0.0
 40
0.0
 40
1.0
 40
1.0
 40
1.0
 40
2.0
 40
2.0
 40
2.0
 40
3.0
 40
3.0
 40
3.0
 40
4.0
 40
4.0
 40
4.0
 40
4.0
 10
110.8114077458655
 20
88.87979322160134
 30
0.0
 10
111.2716450373934
 20
86.47937013459234
 30
0.0
 10
113.5906684712612
 20
84.90653878434264
 30
0.0
 10
115.9910915582702
 20
85.36677607587046
 30
0.0
 10
118.3915146452792
 20
85.82701336739829
 30
0.0
 10
119.9643459955289
 20
88.14603680126612
 30
0.0
 10
119.5041087040011
 20
90.54645988827545
 30
0.0
 10
119.0438714124733
 20
92.94688297528415
 30
0.0
 10
116.7248479786054
 20
94.51971432553385
 30
0.0
 10
114.3244248915964
 20
94.05947703400602
 30
0.0
 10
112.5445812534792
 20
93.71822451907135
 30
0.0
 10
111.1526602608008
 20
92.32630352639167
 30
0.0
 10
110.8114077458655
 20
90.54645988827545
 30
0.0
  0
INSERT
  5
C9
330
70
100
AcDbEntity
  8
0
100
AcDbBlockReference
  2
Block_0
 10
0.0
 20
0.0
 30
0.0
  0
INSERT
  5
D5
330
70
100
AcDbEntity
  8
0
100
AcDbBlockReference
  2
Block_1
 10
0.0
 20
0.0
 30
0.0
  0
LINE
  5
E0
330
70
100
AcDbEntity
  8
0
 62
    18
420
        0
370
    25
100
AcDbLine
 10
151.8147424179336
 20
88.37979315823837
 30
0.0
 11
179.3980559029335
 21
88.37979315823837
 31
0.0
  0
LINE
  5
E1
330
70
100
AcDbEntity
  8
0
 62
    18
420
        0
370
    25
100
AcDbLine
 10
148.0647230216337
 20
88.37979315823837
 30
0.0
 11
151.1462303815337
 21
88.37979315823837
 31
0.0
  0
LINE
  5
E2
330
70
100
AcDbEntity
  8
0
 62
    18
420
        0
370
    25
100
AcDbLine
 10
149.8146638590336
 20
91.04645995163844
 30
0.0
 11
148.0647230216337
 21
91.04645995163844
 31
0.0
  0
LINE
  5
E3
330
70
100
AcDbEntity
  8
0
 62
    18
420
        0
370
    25
100
AcDbLine
 10
179.3980559029335
 20
91.04645995163844
 30
0.0
 11
150.4843853730326
 21
91.04645995163844
 31
0.0
  0
LINE
  5
E4
330
70
100
AcDbEntity
  8
0
 62
    18
420
        0
370
    25
100
AcDbLine
 10
147.7806975760337
 20
94.29645986343848
 30
0.0
 11
147.0540561098327
 21
94.29645986343848
 31
0.0
  0
LINE
  5
E5
330
70
100
AcDbEntity
  8
0
 62
    18
420
        0
370
    25
100
AcDbLine
 10
147.0540561098327
 20
85.12979324643834
 30
0.0
 11
147.7806975760337
 21
85.12979324643834
 31
0.0
  0
SPLINE
  5
E6
330
70
100
AcDbEntity
  8
0
 62
    18
420
        0
370
    25
100
AcDbSpline
210
0.0
220
0.0
230
1.0
 70
     8
 71
     3
 72
     8
 73
     4
 74
     0
 42
0.0000000001
 43
0.0000000001
 40
0.0
 40
0.0
 40
0.0
 40
0.0
 40
1.0
 40
1.0
 40
1.0
 40
1.0
 10
147.7806975358326
 20
85.12979322157185
 30
0.0
 10
147.8693055442949
 20
85.12979322157185
 30
0.0
 10
147.9424233783563
 20
85.19912588183879
 30
0.0
 10
147.9471290140757
 20
85.2876088528343
 30
0.0
  0
SPLINE
  5
E7
330
70
100
AcDbEntity
  8
0
 62
    18
420
        0
370
    25
100
AcDbSpline
210
0.0
220
0.0
230
1.0
 70
     8
 71
     3
 72
     8
 73
     4
 74
     0
 42
0.0000000001
 43
0.0000000001
 40
0.0
 40
0.0
 40
0.0
 40
0.0
 40
1.0
 40
1.0
 40
1.0
 40
1.0
 10
147.9471290140757
 20
94.13864425704248
 30
0.0
 10
147.9424233783563
 20
94.22712722803767
 30
0.0
 10
147.8693055442962
 20
94.29645988830493
 30
0.0
 10
147.7806975358326
 20
94.29645988830493
 30
0.0
  0
SPLINE
  5
E8
330
70
100
AcDbEntity
  8
0
 62
    18
420
        0
370
    25
100
AcDbSpline
210
0.0
220
0.0
230
1.0
 70
     8
 71
     3
 72
     8
 73
     4
 74
     0
 42
0.0000000001
 43
0.0000000001
 40
0.0
 40
0.0
 40
0.0
 40
0.0
 40
1.0
 40
1.0
 40
1.0
 40
1.0
 10
147.9471290140899
 20
85.28760885293955
 30
0.0
 10
148.0019045173874
 20
86.31758642834066
 30
0.0
 10
148.0375529476541
 20
87.34849219143944
 30
0.0
 10
148.0540558766464
 20
88.37979322165557
 30
0.0
  0
SPLINE
  5
E9
330
70
100
AcDbEntity
  8
0
 62
    18
420
        0
370
    25
100
AcDbSpline
210
0.0
220
0.0
230
1.0
 70
     8
 71
     3
 72
     8
 73
     4
 74
     0
 42
0.0000000001
 43
0.0000000001
 40
0.0
 40
0.0
 40
0.0
 40
0.0
 40
1.0
 40
1.0
 40
1.0
 40
1.0
 10
148.0540558766464
 20
91.04645988822126
 30
0.0
 10
148.0375529476541
 20
92.07776091843767
 30
0.0
 10
148.0019045173874
 20
93.10866668153613
 30
0.0
 10
147.9471290140899
 20
94.13864425693725
 30
0.0
  0
LINE
  5
EA
330
70
100
AcDbEntity
  8
0
 62
    18
420
        0
370
    25
100
AcDbLine
 10
179.3980559029335
 20
88.37979315823837
 30
0.0
 11
179.5647229073337
 21
88.37979315823837
 31
0.0
  0
LINE
  5
EB
330
70
100
AcDbEntity
  8
0
 62
    18
420
        0
370
    25
100
AcDbLine
 10
179.5647229073337
 20
91.04645995163844
 30
0.0
 11
179.3980559029335
 21
91.04645995163844
 31
0.0
  0
LINE
  5
EC
330
70
100
AcDbEntity
  8
0
 62
    18
420
        0
370
    25
100
AcDbLine
 10
146.9123889076333
 20
85.46312663443867
 30
0.0
 11
147.0540561098327
 21
85.46312663443867
 31
0.0
  0
LINE
  5
ED
330
70
100
AcDbEntity
  8
0
 62
    18
420
        0
370
    25
100
AcDbLine
 10
147.0540561098327
 20
93.96312647543846
 30
0.0
 11
146.9123889076333
 21
93.96312647543846
 31
0.0
  0
SPLINE
  5
EE
330
70
100
AcDbEntity
  8
0
 62
    18
420
        0
370
    25
100
AcDbSpline
210
0.0
220
0.0
230
1.0
 70
     8
 71
     3
 72
    14
 73
    10
 74
     0
 42
0.0000000001
 43
0.0000000001
 40
0.0
 40
0.0
 40
0.0
 40
0.0
 40
1.0
 40
1.0
 40
1.0
 40
2.0
 40
2.0
 40
2.0
 40
3.0
 40
3.0
 40
3.0
 40
3.0
 10
149.9204167791214
 20
91.02766912167911
 30
0.0
 10
149.8981039980345
 20
91.03106794255415
 30
0.0
 10
149.8757912169463
 20
91.03446676342919
 30
0.0
 10
149.8574575104326
 20
91.0375974859858
 30
0.0
 10
149.8367182356408
 20
91.04113899110092
 30
0.0
 10
149.8210707294734
 20
91.0443374278517
 30
0.0
 10
149.8162800141189
 20
91.04531287263482
 30
0.0
 10
149.8137970437112
 20
91.0458184339868
 30
0.0
 10
149.8142304513609
 20
91.04572684972643
 30
0.0
 10
149.8146638590105
 20
91.04563526546607
 30
0.0
  0
SPLINE
  5
EF
330
70
100
AcDbEntity
  8
0
 62
    18
420
        0
370
    25
100
AcDbSpline
210
0.0
220
0.0
230
1.0
 70
     8
 71
     3
 72
    29
 73
    25
 74
     0
 42
0.0000000001
 43
0.0000000001
 40
0.0
 40
0.0
 40
0.0
 40
0.0
 40
1.0
 40
1.0
 40
1.0
 40
2.0
 40
2.0
 40
2.0
 40
3.0
 40
3.0
 40
3.0
 40
4.0
 40
4.0
 40
4.0
 40
5.0
 40
5.0
 40
5.0
 40
6.0
 40
6.0
 40
6.0
 40
7.0
 40
7.0
 40
7.0
 40
8.0
 40
8.0
 40
8.0
 40
8.0
 10
150.484385372998
 20
91.04622805228475
 30
0.0
 10
150.484773564236
 20
91.04630483410984
 30
0.0
 10
150.4851617554753
 20
91.04638161593461
 30
0.0
 10
150.4854719160011
 20
91.04644272213826
 30
0.0
 10
150.4895574435462
 20
91.04724763139554
 30
0.0
 10
150.4801039016937
 20
91.04533267159421
 30
0.0
 10
150.4683299926924
 20
91.04306202119238
 30
0.0
 10
150.456540876566
 20
91.04078843802957
 30
0.0
 10
150.4424253954684
 20
91.03815824485623
 30
0.0
 10
150.4242896107845
 20
91.03513072292647
 30
0.0
 10
150.4045822025902
 20
91.0318408398848
 30
0.0
 10
150.380127510856
 20
91.02808178026881
 30
0.0
 10
150.3531359452017
 20
91.02467491960171
 30
0.0
 10
150.3230816546535
 20
91.02088148347226
 30
0.0
 10
150.2898821103339
 20
91.01752470880382
 30
0.0
 10
150.2550533978154
 20
91.01521485532995
 30
0.0
 10
150.2173793059379
 20
91.0127162952137
 30
0.0
 10
150.1777989780567
 20
91.01144270307583
 30
0.0
 10
150.1380885956695
 20
91.01167893395484
 30
0.0
 10
150.0971609159143
 20
91.01192240634622
 30
0.0
 10
150.0560950859614
 20
91.01376968591596
 30
0.0
 10
150.0187476791954
 20
91.01685227563638
 30
0.0
 10
149.9838001082931
 20
91.01973678709622
 30
0.0
 10
149.9521084437079
 20
91.02370295438767
 30
0.0
 10
149.9204167791214
 20
91.02766912167911
 30
0.0
  0
SPLINE
  5
F0
330
70
100
AcDbEntity
  8
0
 62
    18
420
        0
370
    25
100
AcDbSpline
210
0.0
220
0.0
230
1.0
 70
     8
 71
     3
 72
    26
 73
    22
 74
     0
 42
0.0000000001
 43
0.0000000001
 40
0.0
 40
0.0
 40
0.0
 40
0.0
 40
1.0
 40
1.0
 40
1.0
 40
2.0
 40
2.0
 40
2.0
 40
3.0
 40
3.0
 40
3.0
 40
4.0
 40
4.0
 40
4.0
 40
5.0
 40
5.0
 40
5.0
 40
6.0
 40
6.0
 40
6.0
 40
7.0
 40
7.0
 40
7.0
 40
7.0
 10
151.2537503310059
 20
88.39858398820636
 30
0.0
 10
151.2860389502399
 20
88.40261767521479
 30
0.0
 10
151.318327569474
 20
88.40665136222259
 30
0.0
 10
151.3539724367864
 20
88.40955139806503
 30
0.0
 10
151.389779967332
 20
88.41246466804859
 30
0.0
 10
151.4289744479285
 20
88.41423391655856
 30
0.0
 10
151.4680796308328
 20
88.41454988393318
 30
0.0
 10
151.5088528042132
 20
88.41487932856489
 30
0.0
 10
151.5495288996393
 20
88.41362887166217
 30
0.0
 10
151.5883776364741
 20
88.41103887543786
 30
0.0
 10
151.6273664061143
 20
88.40843954340241
 30
0.0
 10
151.6645146197537
 20
88.40449099772646
 30
0.0
 10
151.6968236310295
 20
88.40024127672753
 30
0.0
 10
151.7281468323625
 20
88.39612122287299
 30
0.0
 10
151.7549216328488
 20
88.39171809218287
 30
0.0
 10
151.7765165932989
 20
88.38785406560376
 30
0.0
 10
151.7961186583488
 20
88.38434663151774
 30
0.0
 10
151.8114528141699
 20
88.38128339018643
 30
0.0
 10
151.8148395859208
 20
88.38060682376875
 30
0.0
 10
151.8163113699905
 20
88.38031280936556
 30
0.0
 10
151.8155268939608
 20
88.38046951784415
 30
0.0
 10
151.8147424179323
 20
88.38062622632209
 30
0.0
  0
SPLINE
  5
F1
330
70
100
AcDbEntity
  8
0
 62
    18
420
        0
370
    25
100
AcDbSpline
210
0.0
220
0.0
230
1.0
 70
     8
 71
     3
 72
    17
 73
    13
 74
     0
 42
0.0000000001
 43
0.0000000001
 40
0.0
 40
0.0
 40
0.0
 40
0.0
 40
1.0
 40
1.0
 40
1.0
 40
2.0
 40
2.0
 40
2.0
 40
3.0
 40
3.0
 40
3.0
 40
4.0
 40
4.0
 40
4.0
 40
4.0
 10
151.1462303815299
 20
88.38025897478763
 30
0.0
 10
151.1454737520941
 20
88.38010867026524
 30
0.0
 10
151.1447171226571
 20
88.3799583657435
 30
0.0
 10
151.144310304821
 20
88.37987806385426
 30
0.0
 10
151.1419029559808
 20
88.37940287657586
 30
0.0
 10
151.1517449358816
 20
88.38137896665996
 30
0.0
 10
151.1639649364367
 20
88.3837369989423
 30
0.0
 10
151.1763129295198
 20
88.38611972930177
 30
0.0
 10
151.1910890190106
 20
88.38889244469966
 30
0.0
 10
151.2103547347598
 20
88.39198572298569
 30
0.0
 10
151.2234393293525
 20
88.39408656849057
 30
0.0
 10
151.2385948301792
 20
88.39633527834877
 30
0.0
 10
151.2537503310059
 20
88.39858398820636
 30
0.0
  0
LINE
  5
F2
330
70
100
AcDbEntity
  8
0
 62
   144
420
    29337
370
    25
100
AcDbLine
 10
148.0647230216337
 20
91.04645995163844
 30
0.0
 11
148.0647230216337
 21
88.37979315823837
 31
0.0
  0
LINE
  5
F3
330
70
100
AcDbEntity
  8
0
 62
   144
420
    29337
370
    25
100
AcDbLine
 10
179.3980559029335
 20
91.04645995163844
 30
0.0
 11
179.3980559029335
 21
88.37979315823837
 31
0.0
  0
LINE
  5
F4
330
70
100
AcDbEntity
  8
0
 62
    18
420
        0
370
    25
100
AcDbLine
 10
147.0540561098327
 20
94.29645986343848
 30
0.0
 11
147.0540561098327
 21
85.12979324643834
 31
0.0
  0
LINE
  5
F5
330
70
100
AcDbEntity
  8
0
 62
    18
420
        0
370
    25
100
AcDbLine
 10
148.0540556528333
 20
91.04645995163844
 30
0.0
 11
148.0540556528333
 21
88.37979315823837
 31
0.0
  0
LINE
  5
F6
330
70
100
AcDbEntity
  8
0
 62
    18
420
        0
370
    25
100
AcDbLine
 10
179.5647229073337
 20
90.7103948393383
 30
0.0
 11
179.5647229073337
 21
91.04645995163844
 31
0.0
  0
LINE
  5
F7
330
70
100
AcDbEntity
  8
0
 62
    18
420
        0
370
    25
100
AcDbLine
 10
179.5647229073337
 20
88.37979315823837
 30
0.0
 11
179.5647229073337
 21
90.7103948393383
 31
0.0
  0
LINE
  5
F8
330
70
100
AcDbEntity
  8
0
 62
    18
420
        0
370
    25
100
AcDbLine
 10
179.3980559029335
 20
90.7103948393383
 30
0.0
 11
179.3980559029335
 21
91.04645995163844
 31
0.0
  0
LINE
  5
F9
330
70
100
AcDbEntity
  8
0
 62
    18
420
        0
370
    25
100
AcDbLine
 10
179.3980559029335
 20
88.37979315823837
 30
0.0
 11
179.3980559029335
 21
90.7103948393383
 31
0.0
  0
LINE
  5
FA
330
70
100
AcDbEntity
  8
0
 62
    18
420
        0
370
    25
100
AcDbLine
 10
146.9123889076333
 20
93.96312647543846
 30
0.0
 11
146.9123889076333
 21
85.46312663443867
 31
0.0
  0
LINE
  5
FB
330
70
100
AcDbEntity
  8
0
 62
     8
420
  8421504
370
    25
100
AcDbLine
 10
147.7806975760337
 20
89.71312655493823
 30
0.0
 11
147.7806975760337
 21
94.29645986343848
 31
0.0
  0
LINE
  5
FC
330
70
100
AcDbEntity
  8
0
 62
     8
420
  8421504
370
    25
100
AcDbLine
 10
147.7806975760337
 20
85.12979324643834
 30
0.0
 11
147.7806975760337
 21
89.71312655493823
 31
0.0
  0
LINE
  5
FD
330
70
100
AcDbEntity
  8
0
 62
     8
420
  8421504
370
    25
100
AcDbLine
 10
147.9471292662327
 20
89.71312655493823
 30
0.0
 11
147.9471292662327
 21
85.28760896113835
 31
0.0
  0
LINE
  5
FE
330
70
100
AcDbEntity
  8
0
 62
     8
420
  8421504
370
    25
100
AcDbLine
 10
147.9471292662327
 20
94.13864414873845
 30
0.0
 11
147.9471292662327
 21
89.71312655493823
 31
0.0
  0
INSERT
  5
100
330
70
100
AcDbEntity
  8
0
100
AcDbBlockReference
  2
Block_2
 10
0.0
 20
0.0
 30
0.0
  0
INSERT
  5
10F
330
70
100
AcDbEntity
  8
0
100
AcDbBlockReference
  2
Block_3
 10
0.0
 20
0.0
 30
0.0
  0
LINE
  5
11D
330
70
100
AcDbEntity
  8
0
 62
    18
420
        0
370
    25
100
AcDbLine
 10
110.9077573507329
 20
42.46781961643864
 30
0.0
 11
110.9077573507329
 21
42.32615241433806
 31
0.0
  0
LINE
  5
11E
330
70
100
AcDbEntity
  8
0
 62
    18
420
        0
370
    25
100
AcDbLine
 10
119.4077571918334
 20
42.32615241433806
 30
0.0
 11
119.4077571918334
 21
42.46781961643864
 31
0.0
  0
LINE
  5
11F
330
70
100
AcDbEntity
  8
0
 62
    18
420
        0
370
    25
100
AcDbLine
 10
21.15775816163315
 20
41.31548550253839
 30
0.0
 11
21.15775816163315
 21
9.982152621238578
 31
0.0
  0
LINE
  5
120
330
70
100
AcDbEntity
  8
0
 62
    18
420
        0
370
    25
100
AcDbLine
 10
23.82442495493311
 20
36.32284492533877
 30
0.0
 11
23.82442495493311
 21
41.31548550253839
 31
0.0
  0
LINE
  5
121
330
70
100
AcDbEntity
  8
0
 62
    18
420
        0
370
    25
100
AcDbLine
 10
23.82442495493311
 20
28.817716765138
 30
0.0
 11
23.82442495493311
 21
34.6321519585384
 31
0.0
  0
LINE
  5
122
330
70
100
AcDbEntity
  8
0
 62
    18
420
        0
370
    25
100
AcDbLine
 10
23.82442495493311
 20
21.32284526053808
 30
0.0
 11
23.82442495493311
 21
27.14048521243868
 31
0.0
  0
LINE
  5
123
330
70
100
AcDbEntity
  8
0
 62
    18
420
        0
370
    25
100
AcDbLine
 10
23.82442495493311
 20
13.8177164795384
 30
0.0
 11
23.82442495493311
 21
19.63215206093828
 31
0.0
  0
LINE
  5
124
330
70
100
AcDbEntity
  8
0
 62
    18
420
        0
370
    25
100
AcDbLine
 10
23.82442495493311
 20
9.982152621238578
 30
0.0
 11
23.82442495493311
 21
12.14048647903847
 31
0.0
  0
LINE
  5
125
330
70
100
AcDbEntity
  8
0
 62
    18
420
        0
370
    25
100
AcDbLine
 10
113.8577601005333
 20
12.14048647903847
 30
0.0
 11
113.8577601005333
 21
9.982152621238578
 31
0.0
  0
LINE
  5
126
330
70
100
AcDbEntity
  8
0
 62
    18
420
        0
370
    25
100
AcDbLine
 10
113.8577601005333
 20
19.63215206093828
 30
0.0
 11
113.8577601005333
 21
13.8177164795384
 31
0.0
  0
LINE
  5
127
330
70
100
AcDbEntity
  8
0
 62
    18
420
        0
370
    25
100
AcDbLine
 10
113.8577601005333
 20
27.14048521243868
 30
0.0
 11
113.8577601005333
 21
21.32284526053808
 31
0.0
  0
LINE
  5
128
330
70
100
AcDbEntity
  8
0
 62
    18
420
        0
370
    25
100
AcDbLine
 10
113.8577601005333
 20
34.6321519585384
 30
0.0
 11
113.8577601005333
 21
28.817716765138
 31
0.0
  0
LINE
  5
129
330
70
100
AcDbEntity
  8
0
 62
    18
420
        0
370
    25
100
AcDbLine
 10
113.8577601005333
 20
41.31548550253839
 30
0.0
 11
113.8577601005333
 21
36.32284492533877
 31
0.0
  0
LINE
  5
12A
330
70
100
AcDbEntity
  8
0
 62
    18
420
        0
370
    25
100
AcDbLine
 10
116.5244222372334
 20
9.982152621238578
 30
0.0
 11
116.5244222372334
 21
41.31548550253839
 31
0.0
  0
LINE
  5
12B
330
70
100
AcDbEntity
  8
0
 62
    18
420
        0
370
    25
100
AcDbLine
 10
27.07442486673314
 20
41.59951094813831
 30
0.0
 11
27.07442486673314
 21
42.32615241433806
 31
0.0
  0
LINE
  5
12C
330
70
100
AcDbEntity
  8
0
 62
    18
420
        0
370
    25
100
AcDbLine
 10
17.90775824983312
 20
42.32615241433806
 30
0.0
 11
17.90775824983312
 21
41.59951094813831
 31
0.0
  0
SPLINE
  5
12D
330
70
100
AcDbEntity
  8
0
 62
    18
420
        0
370
    25
100
AcDbSpline
210
0.0
220
0.0
230
1.0
 70
     8
 71
     3
 72
     8
 73
     4
 74
     0
 42
0.0000000001
 43
0.0000000001
 40
0.0
 40
0.0
 40
0.0
 40
0.0
 40
1.0
 40
1.0
 40
1.0
 40
1.0
 10
17.90775822496664
 20
41.59951098833819
 30
0.0
 10
17.90775822496664
 20
41.5109029798759
 30
0.0
 10
17.9770908852339
 20
41.43778514581572
 30
0.0
 10
18.0655738562291
 20
41.43307951009567
 30
0.0
  0
SPLINE
  5
12E
330
70
100
AcDbEntity
  8
0
 62
    18
420
        0
370
    25
100
AcDbSpline
210
0.0
220
0.0
230
1.0
 70
     8
 71
     3
 72
     8
 73
     4
 74
     0
 42
0.0000000001
 43
0.0000000001
 40
0.0
 40
0.0
 40
0.0
 40
0.0
 40
1.0
 40
1.0
 40
1.0
 40
1.0
 10
26.91660926033716
 20
41.43307951009567
 30
0.0
 10
27.00509223133236
 20
41.43778514581572
 30
0.0
 10
27.07442489159995
 20
41.5109029798759
 30
0.0
 10
27.07442489159995
 20
41.59951098833819
 30
0.0
  0
SPLINE
  5
12F
330
70
100
AcDbEntity
  8
0
 62
    18
420
        0
370
    25
100
AcDbSpline
210
0.0
220
0.0
230
1.0
 70
     8
 71
     3
 72
     8
 73
     4
 74
     0
 42
0.0000000001
 43
0.0000000001
 40
0.0
 40
0.0
 40
0.0
 40
0.0
 40
1.0
 40
1.0
 40
1.0
 40
1.0
 10
18.06557385633433
 20
41.43307951008155
 30
0.0
 10
19.09555143173545
 20
41.37830400678468
 30
0.0
 10
20.12645719483423
 20
41.34265557651794
 30
0.0
 10
21.15775822505034
 20
41.32615264752503
 30
0.0
  0
SPLINE
  5
130
330
70
100
AcDbEntity
  8
0
 62
    18
420
        0
370
    25
100
AcDbSpline
210
0.0
220
0.0
230
1.0
 70
     8
 71
     3
 72
     8
 73
     4
 74
     0
 42
0.0000000001
 43
0.0000000001
 40
0.0
 40
0.0
 40
0.0
 40
0.0
 40
1.0
 40
1.0
 40
1.0
 40
1.0
 10
23.82442489161603
 20
41.32615264752503
 30
0.0
 10
24.85572592188058
 20
41.34265557651922
 30
0.0
 10
25.88663168502782
 20
41.37830400678789
 30
0.0
 10
26.91660926047738
 20
41.43307951008925
 30
0.0
  0
LINE
  5
131
330
70
100
AcDbEntity
  8
0
 62
    18
420
        0
370
    25
100
AcDbLine
 10
119.7410961677336
 20
41.59951094813831
 30
0.0
 11
119.7410961677336
 21
42.32615241433806
 31
0.0
  0
LINE
  5
132
330
70
100
AcDbEntity
  8
0
 62
    18
420
        0
370
    25
100
AcDbLine
 10
110.5744283089332
 20
42.32615241433806
 30
0.0
 11
110.5744283089332
 21
41.59951094813831
 31
0.0
  0
SPLINE
  5
133
330
70
100
AcDbEntity
  8
0
 62
    18
420
        0
370
    25
100
AcDbSpline
210
0.0
220
0.0
230
1.0
 70
     8
 71
     3
 72
     8
 73
     4
 74
     0
 42
0.0000000001
 43
0.0000000001
 40
0.0
 40
0.0
 40
0.0
 40
0.0
 40
1.0
 40
1.0
 40
1.0
 40
1.0
 10
110.5744248916664
 20
41.59951098833819
 30
0.0
 10
110.5744248916664
 20
41.5109029798759
 30
0.0
 10
110.643757551934
 20
41.43778514581572
 30
0.0
 10
110.7322405229295
 20
41.43307951009567
 30
0.0
  0
SPLINE
  5
134
330
70
100
AcDbEntity
  8
0
 62
    18
420
        0
370
    25
100
AcDbSpline
210
0.0
220
0.0
230
1.0
 70
     8
 71
     3
 72
     8
 73
     4
 74
     0
 42
0.0000000001
 43
0.0000000001
 40
0.0
 40
0.0
 40
0.0
 40
0.0
 40
1.0
 40
1.0
 40
1.0
 40
1.0
 10
119.5832759270372
 20
41.43307951009567
 30
0.0
 10
119.6717588980328
 20
41.43778514581572
 30
0.0
 10
119.7410915583003
 20
41.5109029798759
 30
0.0
 10
119.7410915583003
 20
41.59951098833819
 30
0.0
  0
SPLINE
  5
135
330
70
100
AcDbEntity
  8
0
 62
    18
420
        0
370
    25
100
AcDbSpline
210
0.0
220
0.0
230
1.0
 70
     8
 71
     3
 72
     8
 73
     4
 74
     0
 42
0.0000000001
 43
0.0000000001
 40
0.0
 40
0.0
 40
0.0
 40
0.0
 40
1.0
 40
1.0
 40
1.0
 40
1.0
 10
110.7322405229346
 20
41.43307951008155
 30
0.0
 10
111.7622180983351
 20
41.37830400678468
 30
0.0
 10
112.7931238614339
 20
41.34265557651794
 30
0.0
 10
113.82442489165
 20
41.32615264752503
 30
0.0
  0
SPLINE
  5
136
330
70
100
AcDbEntity
  8
0
 62
    18
420
        0
370
    25
100
AcDbSpline
210
0.0
220
0.0
230
1.0
 70
     8
 71
     3
 72
     8
 73
     4
 74
     0
 42
0.0000000001
 43
0.0000000001
 40
0.0
 40
0.0
 40
0.0
 40
0.0
 40
1.0
 40
1.0
 40
1.0
 40
1.0
 10
116.4910915582153
 20
41.32615264752503
 30
0.0
 10
117.5223925884802
 20
41.34265557651858
 30
0.0
 10
118.5532983516278
 20
41.37830400678789
 30
0.0
 10
119.583275927077
 20
41.43307951008925
 30
0.0
  0
LINE
  5
137
330
70
100
AcDbEntity
  8
0
 62
    18
420
        0
370
    25
100
AcDbLine
 10
113.8629755069338
 20
28.81548531623828
 30
0.0
 11
23.81920458143328
 21
28.81548531623828
 31
0.0
  0
LINE
  5
138
330
70
100
AcDbEntity
  8
0
 62
    18
420
        0
370
    25
100
AcDbLine
 10
23.81918238493324
 20
27.14881868683824
 30
0.0
 11
113.8630053092326
 21
27.14881868683824
 31
0.0
  0
LINE
  5
139
330
70
100
AcDbEntity
  8
0
 62
    18
420
        0
370
    25
100
AcDbLine
 10
113.8577601005333
 20
9.982152621238578
 30
0.0
 11
113.8577601005333
 21
9.815485616838321
 31
0.0
  0
LINE
  5
13A
330
70
100
AcDbEntity
  8
0
 62
    18
420
        0
370
    25
100
AcDbLine
 10
116.5244222372334
 20
9.815485616838321
 30
0.0
 11
116.5244222372334
 21
9.982152621238578
 31
0.0
  0
LINE
  5
13B
330
70
100
AcDbEntity
  8
0
 62
    18
420
        0
370
    25
100
AcDbLine
 10
21.15775816163315
 20
9.982152621238578
 30
0.0
 11
21.15775816163315
 21
9.815485616838321
 31
0.0
  0
LINE
  5
13C
330
70
100
AcDbEntity
  8
0
 62
    18
420
        0
370
    25
100
AcDbLine
 10
23.82442495493311
 20
9.815485616838321
 30
0.0
 11
23.82442495493311
 21
9.982152621238578
 31
0.0
  0
LINE
  5
13D
330
70
100
AcDbEntity
  8
0
 62
    18
420
        0
370
    25
100
AcDbLine
 10
113.8636410921329
 20
21.31548532873864
 30
0.0
 11
23.81853853063305
 21
21.31548532873864
 31
0.0
  0
LINE
  5
13E
330
70
100
AcDbEntity
  8
0
 62
    18
420
        0
370
    25
100
AcDbLine
 10
23.81394571333308
 20
19.64881900973868
 30
0.0
 11
113.8682405838328
 21
19.64881900973868
 31
0.0
  0
LINE
  5
13F
330
70
100
AcDbEntity
  8
0
 62
    18
420
        0
370
    25
100
AcDbLine
 10
113.8636410921329
 20
36.31548530383804
 30
0.0
 11
23.81853853063305
 21
36.31548530383804
 31
0.0
  0
LINE
  5
140
330
70
100
AcDbEntity
  8
0
 62
    18
420
        0
370
    25
100
AcDbLine
 10
23.81394571333308
 20
34.6488185968386
 30
0.0
 11
113.8682405838328
 21
34.6488185968386
 31
0.0
  0
LINE
  5
141
330
70
100
AcDbEntity
  8
0
 62
    18
420
        0
370
    25
100
AcDbLine
 10
113.8629755069338
 20
13.81548503063805
 30
0.0
 11
23.81920458143328
 21
13.81548503063805
 31
0.0
  0
LINE
  5
142
330
70
100
AcDbEntity
  8
0
 62
    18
420
        0
370
    25
100
AcDbLine
 10
23.81918238493324
 20
12.14881871173819
 30
0.0
 11
113.8630053092326
 21
12.14881871173819
 31
0.0
  0
LINE
  5
143
330
70
100
AcDbEntity
  8
0
 62
    18
420
        0
370
    25
100
AcDbLine
 10
18.24109163773302
 20
42.46781961643864
 30
0.0
 11
18.24109163773302
 21
42.32615241433806
 31
0.0
  0
LINE
  5
144
330
70
100
AcDbEntity
  8
0
 62
    18
420
        0
370
    25
100
AcDbLine
 10
26.74109147883324
 20
42.32615241433806
 30
0.0
 11
26.74109147883324
 21
42.46781961643864
 31
0.0
  0
CIRCLE
  5
145
330
70
100
AcDbEntity
  8
0
 62
   144
420
    29337
370
    25
100
AcDbCircle
 10
22.4910915583331
 20
39.23215196473833
 30
0.0
 40
0.2500000000002093
  0
LINE
  5
146
330
70
100
AcDbEntity
  8
0
 62
   144
420
    29337
370
    25
100
AcDbLine
 10
22.49027638033307
 20
39.04048672843864
 30
0.0
 11
22.65667066153304
 21
39.13561325793876
 31
0.0
  0
LINE
  5
147
330
70
100
AcDbEntity
  8
0
 62
   144
420
    29337
370
    25
100
AcDbLine
 10
22.65667066153304
 20
39.13561325793876
 30
0.0
 11
22.65748584043329
 21
39.32727820203792
 31
0.0
  0
LINE
  5
148
330
70
100
AcDbEntity
  8
0
 62
    18
420
        0
370
    25
100
AcDbLine
 10
22.65748584043329
 20
39.32727820203792
 30
0.0
 11
22.49190673623319
 21
39.42381661663823
 31
0.0
  0
LINE
  5
149
330
70
100
AcDbEntity
  8
0
 62
    18
420
        0
370
    25
100
AcDbLine
 10
22.49190673623319
 20
39.42381661663823
 30
0.0
 11
22.32551245503322
 21
39.328690087038
 31
0.0
  0
LINE
  5
14A
330
70
100
AcDbEntity
  8
0
 62
    18
420
        0
370
    25
100
AcDbLine
 10
22.32551245503322
 20
39.328690087038
 30
0.0
 11
22.32469727613329
 21
39.1370257638385
 31
0.0
  0
LINE
  5
14B
330
70
100
AcDbEntity
  8
0
 62
   144
420
    29337
370
    25
100
AcDbLine
 10
22.32469727613329
 20
39.1370257638385
 30
0.0
 11
22.49027638033307
 21
39.04048672843864
 31
0.0
  0
LINE
  5
14C
330
70
100
AcDbEntity
  8
0
 62
    18
420
        0
370
    25
100
AcDbLine
 10
115.3557937035336
 20
39.13469373213793
 30
0.0
 11
115.3583368350333
 21
39.32634377503824
 31
0.0
  0
LINE
  5
14D
330
70
100
AcDbEntity
  8
0
 62
    18
420
        0
370
    25
100
AcDbLine
 10
115.3583368350333
 20
39.32634377503824
 30
0.0
 11
115.1936293333334
 21
39.42436547603836
 31
0.0
  0
LINE
  5
14E
330
70
100
AcDbEntity
  8
0
 62
    18
420
        0
370
    25
100
AcDbLine
 10
115.1936293333334
 20
39.42436547603836
 30
0.0
 11
115.0263886342331
 21
39.33073651323852
 31
0.0
  0
LINE
  5
14F
330
70
100
AcDbEntity
  8
0
 62
   144
420
    29337
370
    25
100
AcDbLine
 10
115.0238455026333
 20
39.13908709113839
 30
0.0
 11
115.1885530044333
 21
39.04106539013827
 31
0.0
  0
LINE
  5
150
330
70
100
AcDbEntity
  8
0
 62
   144
420
    29337
370
    25
100
AcDbLine
 10
115.0263886342331
 20
39.33073651323852
 30
0.0
 11
115.0238455026333
 21
39.13908709113839
 31
0.0
  0
LINE
  5
151
330
70
100
AcDbEntity
  8
0
 62
   144
420
    29337
370
    25
100
AcDbLine
 10
115.1885530044333
 20
39.04106539013827
 30
0.0
 11
115.3557937035336
 21
39.13469373213793
 31
0.0
  0
CIRCLE
  5
152
330
70
100
AcDbEntity
  8
0
 62
   144
420
    29337
370
    25
100
AcDbCircle
 10
115.191091558233
 20
39.23271528853839
 30
0.0
 40
0.2499999999997682
  0
LINE
  5
153
330
70
100
AcDbEntity
  8
0
 62
    18
420
        0
370
    25
100
AcDbLine
 10
119.4077571918334
 20
42.46781961643864
 30
0.0
 11
110.9077573507329
 21
42.46781961643864
 31
0.0
  0
SPLINE
  5
154
330
70
100
AcDbEntity
  8
0
 62
    18
420
        0
370
    25
100
AcDbSpline
210
0.0
220
0.0
230
1.0
 70
     9
 71
     3
 72
    77
 73
    73
 74
     0
 42
0.0000000001
 43
0.0000000001
 40
0.0
 40
0.0
 40
0.0
 40
0.0
 40
1.0
 40
1.0
 40
1.0
 40
2.0
 40
2.0
 40
2.0
 40
3.0
 40
3.0
 40
3.0
 40
4.0
 40
4.0
 40
4.0
 40
5.0
 40
5.0
 40
5.0
 40
6.0
 40
6.0
 40
6.0
 40
7.0
 40
7.0
 40
7.0
 40
8.0
 40
8.0
 40
8.0
 40
9.0
 40
9.0
 40
9.0
 40
10.0
 40
10.0
 40
10.0
 40
11.0
 40
11.0
 40
11.0
 40
12.0
 40
12.0
 40
12.0
 40
13.0
 40
13.0
 40
13.0
 40
14.0
 40
14.0
 40
14.0
 40
15.0
 40
15.0
 40
15.0
 40
16.0
 40
16.0
 40
16.0
 40
17.0
 40
17.0
 40
17.0
 40
18.0
 40
18.0
 40
18.0
 40
19.0
 40
19.0
 40
19.0
 40
20.0
 40
20.0
 40
20.0
 40
21.0
 40
21.0
 40
21.0
 40
22.0
 40
22.0
 40
22.0
 40
23.0
 40
23.0
 40
23.0
 40
24.0
 40
24.0
 40
24.0
 40
24.0
 10
22.26803158682947
 20
39.45979157485799
 30
0.0
 10
22.28140427947695
 20
39.47607220287935
 30
0.0
 10
22.29613224731791
 20
39.49085137414705
 30
0.0
 10
22.31227635144237
 20
39.50408226578355
 30
0.0
 10
22.32842045556683
 20
39.51731315742068
 30
0.0
 10
22.34617737199013
 20
39.52905922413643
 30
0.0
 10
22.36469306263582
 20
39.53860347566674
 30
0.0
 10
22.38320875328182
 20
39.54814772719704
 30
0.0
 10
22.40260722180613
 20
39.55564425680364
 30
0.0
 10
22.42296704675777
 20
39.56092669889429
 30
0.0
 10
22.44332687170974
 20
39.56620914098493
 30
0.0
 10
22.46440288776824
 20
39.56913961008132
 30
0.0
 10
22.48529188164948
 20
39.56958951406593
 30
0.0
 10
22.50618087553041
 20
39.57003941805118
 30
0.0
 10
22.52741996846362
 20
39.56801144395403
 30
0.0
 10
22.54798735955069
 20
39.56358947064175
 30
0.0
 10
22.56855475063776
 20
39.55916749732948
 30
0.0
 10
22.58836113400414
 20
39.55245231369036
 30
0.0
 10
22.60744244536715
 20
39.54353814918756
 30
0.0
 10
22.64560506809379
 20
39.52570982018133
 30
0.0
 10
22.67943854096703
 20
39.49955384057998
 30
0.0
 10
22.70703296272341
 20
39.46816804366687
 30
0.0
 10
22.7346273844798
 20
39.43678224675247
 30
0.0
 10
22.75619218801054
 20
39.39994067219092
 30
0.0
 10
22.77075177853117
 20
39.36082410292824
 30
0.0
 10
22.78531136905212
 20
39.32170753366556
 30
0.0
 10
22.79311351383383
 20
39.27951233453953
 30
0.0
 10
22.79373792093255
 20
39.23772896820714
 30
0.0
 10
22.79436232803128
 20
39.19594560187539
 30
0.0
 10
22.78781032658605
 20
39.1535119123412
 30
0.0
 10
22.77449516043568
 20
39.11403531891115
 30
0.0
 10
22.76117999428562
 20
39.0745587254811
 30
0.0
 10
22.74072778550826
 20
39.03695740606962
 30
0.0
 10
22.71443669332598
 20
39.0048600108161
 30
0.0
 10
22.70129114723468
 20
38.9888113131887
 30
0.0
 10
22.68645099039345
 20
38.97382040907745
 30
0.0
 10
22.67025459918231
 20
38.96050715495471
 30
0.0
 10
22.65405820797116
 20
38.94719390083133
 30
0.0
 10
22.6367572663381
 20
38.93570712678887
 30
0.0
 10
22.61829644574608
 20
38.92611772598601
 30
0.0
 10
22.59983562515406
 20
38.91652832518316
 30
0.0
 10
22.57990239196197
 20
38.90877759492632
 30
0.0
 10
22.55962046909115
 20
38.90348248145885
 30
0.0
 10
22.53933854622064
 20
38.89818736799139
 30
0.0
 10
22.51866475967425
 20
38.8952383746422
 30
0.0
 10
22.4975821599774
 20
38.89473018321452
 30
0.0
 10
22.45541696058403
 20
38.8937138003598
 30
0.0
 10
22.41308317477558
 20
38.90290621443693
 30
0.0
 10
22.37503512154088
 20
38.92062842628199
 30
0.0
 10
22.33698706830617
 20
38.93835063812705
 30
0.0
 10
22.30302945748705
 20
38.96450742180489
 30
0.0
 10
22.27542575247568
 20
38.99582282529978
 30
0.0
 10
22.26162389996984
 20
39.01148052704722
 30
0.0
 10
22.24918303609321
 20
39.02867690356256
 30
0.0
 10
22.2385096418531
 20
39.04669258305051
 30
0.0
 10
22.22783624761266
 20
39.06470826253845
 30
0.0
 10
22.21886447138615
 20
39.08355686255464
 30
0.0
 10
22.21152951159841
 20
39.10321638291657
 30
0.0
 10
22.20419455181066
 20
39.12287590327786
 30
0.0
 10
22.19852886513933
 20
39.14339733807755
 30
0.0
 10
22.1946924597279
 20
39.16397960644605
 30
0.0
 10
22.19085605431646
 20
39.18456187481521
 30
0.0
 10
22.18876807135856
 20
39.20538894205684
 30
0.0
 10
22.18844686742591
 20
39.22646419064618
 30
0.0
 10
22.18812566349357
 20
39.24753943923551
 30
0.0
 10
22.18961121361861
 20
39.26874381424987
 30
0.0
 10
22.19282571790146
 20
39.28940413812462
 30
0.0
 10
22.19604022218431
 20
39.31006446199939
 30
0.0
 10
22.20097444729901
 20
39.33037470864508
 30
0.0
 10
22.20770591354816
 20
39.35032183680507
 30
0.0
 10
22.22116884604678
 20
39.39021609312506
 30
0.0
 10
22.24128620153484
 20
39.42723031881655
 30
0.0
 10
22.26803158682947
 20
39.45979157485799
 30
0.0
  0
SPLINE
  5
155
330
70
100
AcDbEntity
  8
0
 62
   144
420
    29337
370
    25
100
AcDbSpline
210
0.0
220
0.0
230
1.0
 70
     8
 71
     3
 72
    38
 73
    34
 74
     0
 42
0.0000000001
 43
0.0000000001
 40
0.0
 40
0.0
 40
0.0
 40
0.0
 40
1.0
 40
1.0
 40
1.0
 40
2.0
 40
2.0
 40
2.0
 40
3.0
 40
3.0
 40
3.0
 40
4.0
 40
4.0
 40
4.0
 40
5.0
 40
5.0
 40
5.0
 40
6.0
 40
6.0
 40
6.0
 40
7.0
 40
7.0
 40
7.0
 40
8.0
 40
8.0
 40
8.0
 40
9.0
 40
9.0
 40
9.0
 40
10.0
 40
10.0
 40
10.0
 40
11.0
 40
11.0
 40
11.0
 40
11.0
 10
23.82442495494723
 20
19.63215206093635
 30
0.0
 10
23.81942929163724
 20
19.63988275925503
 30
0.0
 10
23.81443362832692
 20
19.6476134575737
 30
0.0
 10
23.80016834805039
 20
19.67073116726732
 30
0.0
 10
23.78594921489419
 20
19.6937740928903
 30
0.0
 10
23.76252034080981
 20
19.73210463923521
 30
0.0
 10
23.73623297569287
 20
19.7785187167632
 30
0.0
 10
23.70777698260911
 20
19.82876181504484
 30
0.0
 10
23.67597141062063
 20
19.88847719265935
 30
0.0
 10
23.64471446742264
 20
19.95720599121898
 30
0.0
 10
23.60907201278665
 20
20.03557779710276
 30
0.0
 10
23.5741429379352
 20
20.12566971757971
 30
0.0
 10
23.55025895580283
 20
20.22416401929711
 30
0.0
 10
23.53279820379214
 20
20.29616979150161
 30
0.0
 10
23.52124057405724
 20
20.37266627149316
 30
0.0
 10
23.51886228677765
 20
20.44998242484599
 30
0.0
 10
23.5164783737261
 20
20.52748146739245
 30
0.0
 10
23.52331728144667
 20
20.60580406571607
 30
0.0
 10
23.53724946597859
 20
20.68006256249632
 30
0.0
 10
23.55080912097579
 20
20.75233547810754
 30
0.0
 10
23.57108779315586
 20
20.82075872468337
 30
0.0
 10
23.59422754826277
 20
20.88418611911
 30
0.0
 10
23.62183545160101
 20
20.9598609638186
 30
0.0
 10
23.65351603017986
 20
21.02842434623362
 30
0.0
 10
23.68349435137831
 20
21.08758324411598
 30
0.0
 10
23.71880241685758
 20
21.15725980226136
 30
0.0
 10
23.75174914270909
 20
21.21389063520617
 30
0.0
 10
23.77855987928457
 20
21.25823010034419
 30
0.0
 10
23.80005060460334
 20
21.29377135686276
 30
0.0
 10
23.8175988522049
 20
21.32141520002039
 30
0.0
 10
23.82027498155476
 20
21.32562681066032
 30
0.0
 10
23.82138084986416
 20
21.32736719243206
 30
0.0
 10
23.81994711738446
 20
21.32510622650143
 30
0.0
 10
23.81851338490476
 20
21.3228452605708
 30
0.0
  0
LWPOLYLINE
  5
156
330
70
100
AcDbEntity
  8
0
 62
   144
420
    29337
370
    25
100
AcDbPolyline
 90
       13
 70
     0
 43
0.0
 10
23.82060016833304
 20
13.8177164795384
 10
23.80937416123309
 20
13.79976678913845
 10
23.75698012633324
 20
13.71228828063844
 10
23.67342815133302
 20
13.55534055853857
 10
23.57673226563331
 20
13.31266769793834
 10
23.53014168973327
 20
13.08339470653862
 10
23.5348558893332
 20
12.84048715263863
 10
23.58240766783312
 20
12.6334454519387
 10
23.66278204773328
 20
12.43125780453821
 10
23.75928266613311
 20
12.24803064293854
 10
23.81848156473322
 20
12.14993133173857
 10
23.82442495493311
 20
12.14048647903847
 10
23.82442495493311
 20
12.14048647903847
  0
LWPOLYLINE
  5
157
330
70
100
AcDbEntity
  8
0
 62
   144
420
    29337
370
    25
100
AcDbPolyline
 90
       13
 70
     0
 43
0.0
 10
23.82060016833304
 20
28.817716765138
 10
23.80937416123309
 20
28.79976676433859
 10
23.75698012633324
 20
28.71228825573848
 10
23.67342815133302
 20
28.55534022323852
 10
23.57673226563331
 20
28.31266767313849
 10
23.53014168973327
 20
28.08339530253831
 10
23.5348558893332
 20
27.84048650693849
 10
23.58240766783312
 20
27.63344604793839
 10
23.66278204773328
 20
27.43125840053854
 10
23.75928266613311
 20
27.24803123893823
 10
23.81848156473322
 20
27.14993254863856
 10
23.82442495493311
 20
27.14048521243868
 10
23.82442495493311
 20
27.14048521243868
  0
LINE
  5
158
330
70
100
AcDbEntity
  8
0
 62
   144
420
    29337
370
    25
100
AcDbLine
 10
23.82442495493311
 20
41.31548550253839
 30
0.0
 11
21.15775816163315
 21
41.31548550253839
 31
0.0
  0
LINE
  5
159
330
70
100
AcDbEntity
  8
0
 62
   144
420
    29337
370
    25
100
AcDbLine
 10
23.82442495493311
 20
9.982152621238578
 30
0.0
 11
21.15775816163315
 21
9.982152621238578
 31
0.0
  0
LWPOLYLINE
  5
15A
330
70
100
AcDbEntity
  8
0
 62
   144
420
    29337
370
    25
100
AcDbPolyline
 90
       13
 70
     0
 43
0.0
 10
23.81851338493332
 20
36.32284492533877
 10
23.81600191833328
 20
36.31887749113867
 10
23.77048065593302
 20
36.24475197523857
 10
23.69179196983305
 20
36.1037655699386
 10
23.59234503493317
 20
35.87899133213842
 10
23.53085966183313
 20
35.64289981773804
 10
23.52305556663318
 20
35.38380618793833
 10
23.56453046533332
 20
35.17071461583824
 10
23.65908997463308
 20
34.92632594853866
 10
23.75649824443302
 20
34.74324997173834
 10
23.81793487833331
 20
34.64236911043796
 10
23.82442495493311
 20
34.6321519585384
 10
23.82442495493311
 20
34.6321519585384
  0
CIRCLE
  5
15B
330
70
100
AcDbEntity
  8
0
 62
    18
420
        0
370
    25
100
AcDbCircle
 10
22.4910915583331
 20
39.23215196473818
 30
0.0
 40
0.2750000000000498
  0
SPLINE
  5
15C
330
70
100
AcDbEntity
  8
0
 62
   144
420
    29337
370
    25
100
AcDbSpline
210
0.0
220
0.0
230
1.0
 70
     8
 71
     3
 72
    38
 73
    34
 74
     0
 42
0.0000000001
 43
0.0000000001
 40
0.0
 40
0.0
 40
0.0
 40
0.0
 40
1.0
 40
1.0
 40
1.0
 40
2.0
 40
2.0
 40
2.0
 40
3.0
 40
3.0
 40
3.0
 40
4.0
 40
4.0
 40
4.0
 40
5.0
 40
5.0
 40
5.0
 40
6.0
 40
6.0
 40
6.0
 40
7.0
 40
7.0
 40
7.0
 40
8.0
 40
8.0
 40
8.0
 40
9.0
 40
9.0
 40
9.0
 40
10.0
 40
10.0
 40
10.0
 40
11.0
 40
11.0
 40
11.0
 40
11.0
 10
113.8577601005102
 20
34.63215195849091
 30
0.0
 10
113.8627566563183
 20
34.63988249078921
 30
0.0
 10
113.8677532121251
 20
34.64761302308687
 30
0.0
 10
113.8820191909331
 20
34.67073075438072
 30
0.0
 10
113.8962390337863
 20
34.69377372328759
 30
0.0
 10
113.919668442243
 20
34.732104528191
 30
0.0
 10
113.9459551065629
 20
34.77851900236857
 30
0.0
 10
113.9744100969121
 20
34.82876209897153
 30
0.0
 10
114.0062131613464
 20
34.8884774741893
 30
0.0
 10
114.0374681045083
 20
34.95720612160441
 30
0.0
 10
114.0731084420621
 20
35.03557811482325
 30
0.0
 10
114.1080360532122
 20
35.12567013679644
 30
0.0
 10
114.1319215982625
 20
35.22416399446196
 30
0.0
 10
114.1493835621125
 20
35.29616972757159
 30
0.0
 10
114.1609439744784
 20
35.37266591250928
 30
0.0
 10
114.1633233119505
 20
35.44998208956968
 30
0.0
 10
114.1657082791932
 20
35.52748120504268
 30
0.0
 10
114.1588686733144
 20
35.60580419760758
 30
0.0
 10
114.1449352790383
 20
35.68006269288111
 30
0.0
 10
114.1313744428833
 20
35.75233562706182
 30
0.0
 10
114.111094101225
 20
35.82075851520509
 30
0.0
 10
114.0879532386322
 20
35.88418578383433
 30
0.0
 10
114.0603440477412
 20
35.95986038586583
 30
0.0
 10
114.0286629915538
 20
36.02842387415478
 30
0.0
 10
113.9986853489745
 20
36.08758290883967
 30
0.0
 10
113.9633783319185
 20
36.15725913641828
 30
0.0
 10
113.9304342250381
 20
36.21388986581789
 30
0.0
 10
113.9036258746651
 20
36.25822976506788
 30
0.0
 10
113.8821369430379
 20
36.2937715664114
 30
0.0
 10
113.8645903832399
 20
36.32141621236917
 30
0.0
 10
113.8619125574293
 20
36.32562740670685
 30
0.0
 10
113.8608059881992
 20
36.3273676162671
 30
0.0
 10
113.8622384413244
 20
36.32510627078112
 30
0.0
 10
113.8636708944497
 20
36.32284492529514
 30
0.0
  0
LINE
  5
15D
330
70
100
AcDbEntity
  8
0
 62
   144
420
    29337
370
    25
100
AcDbLine
 10
116.5244222372334
 20
9.982152621238578
 30
0.0
 11
113.8577601005333
 21
9.982152621238578
 31
0.0
  0
LINE
  5
15E
330
70
100
AcDbEntity
  8
0
 62
   144
420
    29337
370
    25
100
AcDbLine
 10
116.5244222372334
 20
41.31548550253839
 30
0.0
 11
113.8577601005333
 21
41.31548550253839
 31
0.0
  0
SPLINE
  5
15F
330
70
100
AcDbEntity
  8
0
 62
    18
420
        0
370
    25
100
AcDbSpline
210
0.0
220
0.0
230
1.0
 70
     8
 71
     3
 72
    38
 73
    34
 74
     0
 42
0.0000000001
 43
0.0000000001
 40
0.0
 40
0.0
 40
0.0
 40
0.0
 40
1.0
 40
1.0
 40
1.0
 40
2.0
 40
2.0
 40
2.0
 40
3.0
 40
3.0
 40
3.0
 40
4.0
 40
4.0
 40
4.0
 40
5.0
 40
5.0
 40
5.0
 40
6.0
 40
6.0
 40
6.0
 40
7.0
 40
7.0
 40
7.0
 40
8.0
 40
8.0
 40
8.0
 40
9.0
 40
9.0
 40
9.0
 40
10.0
 40
10.0
 40
10.0
 40
11.0
 40
11.0
 40
11.0
 40
11.0
 10
113.8577601005102
 20
27.14048521247589
 30
0.0
 10
113.8626771332463
 20
27.14816748345188
 30
0.0
 10
113.8675941659838
 20
27.15584975442786
 30
0.0
 10
113.8816317607424
 20
27.17883521345314
 30
0.0
 10
113.895624516977
 20
27.20174725291661
 30
0.0
 10
113.9186796629599
 20
27.23986487446458
 30
0.0
 10
113.9445245950881
 20
27.28604410118907
 30
0.0
 10
113.9724799733023
 20
27.33599423231649
 30
0.0
 10
114.0036993568956
 20
27.39537631316583
 30
0.0
 10
114.034309058335
 20
27.46372740990974
 30
0.0
 10
114.0691129008203
 20
27.541443973384
 30
0.0
 10
114.1031285373989
 20
27.63075581031826
 30
0.0
 10
114.1262790252232
 20
27.72827269163798
 30
0.0
 10
114.1433066775944
 20
27.79999833163289
 30
0.0
 10
114.1544563928789
 20
27.87616281878658
 30
0.0
 10
114.1565780529843
 20
27.9530734720535
 30
0.0
 10
114.1587044321637
 20
28.03015519283659
 30
0.0
 10
114.151762550431
 20
28.10798640272391
 30
0.0
 10
114.1379019309542
 20
28.18173427409983
 30
0.0
 10
114.1243717801042
 20
28.25372382884728
 30
0.0
 10
114.1042488753472
 20
28.32182243600897
 30
0.0
 10
114.0813073207401
 20
28.38494513459063
 30
0.0
 10
114.0539992400031
 20
28.46008214159539
 30
0.0
 10
114.022697437576
 20
28.52816882483708
 30
0.0
 10
113.9933606673738
 20
28.58646285064076
 30
0.0
 10
113.9590175674413
 20
28.65470477161057
 30
0.0
 10
113.9273673913158
 20
28.70952661730964
 30
0.0
 10
113.9010132044018
 20
28.75346668339813
 30
0.0
 10
113.8760563763377
 20
28.79507694738093
 30
0.0
 10
113.8558488156685
 20
28.82692879248061
 30
0.0
 10
113.858733643041
 20
28.82227310565189
 30
0.0
 10
113.8592293850735
 20
28.82147305096945
 30
0.0
 10
113.860407058478
 20
28.81959490807233
 30
0.0
 10
113.8615847318826
 20
28.81771676517585
 30
0.0
  0
SPLINE
  5
160
330
70
100
AcDbEntity
  8
0
 62
   144
420
    29337
370
    25
100
AcDbSpline
210
0.0
220
0.0
230
1.0
 70
     8
 71
     3
 72
    38
 73
    34
 74
     0
 42
0.0000000001
 43
0.0000000001
 40
0.0
 40
0.0
 40
0.0
 40
0.0
 40
1.0
 40
1.0
 40
1.0
 40
2.0
 40
2.0
 40
2.0
 40
3.0
 40
3.0
 40
3.0
 40
4.0
 40
4.0
 40
4.0
 40
5.0
 40
5.0
 40
5.0
 40
6.0
 40
6.0
 40
6.0
 40
7.0
 40
7.0
 40
7.0
 40
8.0
 40
8.0
 40
8.0
 40
9.0
 40
9.0
 40
9.0
 40
10.0
 40
10.0
 40
10.0
 40
11.0
 40
11.0
 40
11.0
 40
11.0
 10
113.8577601005102
 20
12.1404864790744
 30
0.0
 10
113.8626771367949
 20
12.14816798402344
 30
0.0
 10
113.8675941730809
 20
12.15584948897248
 30
0.0
 10
113.8816317607424
 20
12.1788346174066
 30
0.0
 10
113.8956245252511
 20
12.20174635246602
 30
0.0
 10
113.9186796888101
 20
12.23986413562524
 30
0.0
 10
113.9445245950881
 20
12.28604350514253
 30
0.0
 10
113.9724799860773
 20
12.33599386350778
 30
0.0
 10
114.003699341147
 20
12.39537617706414
 30
0.0
 10
114.034309058335
 20
12.46372743474488
 30
0.0
 10
114.0691128680115
 20
12.54144406796221
 30
0.0
 10
114.1031285313131
 20
12.63075584806246
 30
0.0
 10
114.1262790252232
 20
12.72827271647313
 30
0.0
 10
114.1433067269538
 20
12.79999853603596
 30
0.0
 10
114.1544564494447
 20
12.8761632499231
 30
0.0
 10
114.1565780529843
 20
12.95307411777032
 30
0.0
 10
114.1587043585159
 20
13.03015543892379
 30
0.0
 10
114.1517624837071
 20
13.10798622502215
 30
0.0
 10
114.1379019309542
 20
13.18173367805329
 30
0.0
 10
114.1243717730044
 20
13.25372320875243
 30
0.0
 10
114.1042488477362
 20
13.32182175550843
 30
0.0
 10
114.0813073207401
 20
13.38494453854409
 30
0.0
 10
114.0539992252889
 20
13.46008177699365
 30
0.0
 10
114.0226974624149
 20
13.52816887236206
 30
0.0
 10
113.9933606673738
 20
13.5864628754759
 30
0.0
 10
113.9590176162951
 20
13.65470461503034
 30
0.0
 10
113.9273673885616
 20
13.70952574434173
 30
0.0
 10
113.9010132044018
 20
13.75346639779276
 30
0.0
 10
113.8760563476756
 20
13.79507727013062
 30
0.0
 10
113.8558488189989
 20
13.82693086829498
 30
0.0
 10
113.858733643041
 20
13.82227375136872
 30
0.0
 10
113.8592293849477
 20
13.82147345020904
 30
0.0
 10
113.8604070584152
 20
13.81959496488976
 30
0.0
 10
113.8615847318826
 20
13.81771647957048
 30
0.0
  0
LWPOLYLINE
  5
161
330
70
100
AcDbEntity
  8
0
 62
   144
420
    29337
370
    25
100
AcDbPolyline
 90
       13
 70
     0
 43
0.0
 10
113.863670894433
 20
21.32284526053808
 10
113.8661842236325
 20
21.31887782643808
 10
113.9117023040334
 20
21.24475200003842
 10
113.9903903692327
 20
21.10376590513855
 10
114.0898407190332
 20
20.87899182263852
 10
114.1513229101331
 20
20.64290030823814
 10
114.1591311186332
 20
20.38380636793823
 10
114.1176562199334
 20
20.17071479583814
 10
114.0230934510329
 20
19.92632581813847
 10
113.9256895273335
 20
19.74325015173824
 10
113.8642470726329
 20
19.6423692904385
 10
113.8577601005333
 20
19.63215206093828
 10
113.8577601005333
 20
19.63215206093828
  0
SPLINE
  5
162
330
70
100
AcDbEntity
  8
0
 62
    18
420
        0
370
    25
100
AcDbSpline
210
0.0
220
0.0
230
1.0
 70
     9
 71
     3
 72
    62
 73
    58
 74
     0
 42
0.0000000001
 43
0.0000000001
 40
0.0
 40
0.0
 40
0.0
 40
0.0
 40
1.0
 40
1.0
 40
1.0
 40
2.0
 40
2.0
 40
2.0
 40
3.0
 40
3.0
 40
3.0
 40
4.0
 40
4.0
 40
4.0
 40
5.0
 40
5.0
 40
5.0
 40
6.0
 40
6.0
 40
6.0
 40
7.0
 40
7.0
 40
7.0
 40
8.0
 40
8.0
 40
8.0
 40
9.0
 40
9.0
 40
9.0
 40
10.0
 40
10.0
 40
10.0
 40
11.0
 40
11.0
 40
11.0
 40
12.0
 40
12.0
 40
12.0
 40
13.0
 40
13.0
 40
13.0
 40
14.0
 40
14.0
 40
14.0
 40
15.0
 40
15.0
 40
15.0
 40
16.0
 40
16.0
 40
16.0
 40
17.0
 40
17.0
 40
17.0
 40
18.0
 40
18.0
 40
18.0
 40
19.0
 40
19.0
 40
19.0
 40
19.0
 10
115.4141466507771
 20
39.46035488473461
 30
0.0
 10
115.4355918384635
 20
39.42806430949152
 30
0.0
 10
115.4570370261487
 20
39.39577373424843
 30
0.0
 10
115.4712180981504
 20
39.36013277895284
 30
0.0
 10
115.4854634071816
 20
39.32433037823913
 30
0.0
 10
115.4923786418933
 20
39.28514717580743
 30
0.0
 10
115.4935400376186
 20
39.24602527446658
 30
0.0
 10
115.4947509677471
 20
39.20523479451828
 30
0.0
 10
115.4897067810089
 20
39.16451095624727
 30
0.0
 10
115.4780527640837
 20
39.12572757926641
 30
0.0
 10
115.4663563440774
 20
39.08680308916309
 30
0.0
 10
115.4480019067101
 20
39.04983320675668
 30
0.0
 10
115.423703262156
 20
39.01728127426988
 30
0.0
 10
115.4001476138785
 20
38.98572470449019
 30
0.0
 10
115.3710057207904
 20
38.95832003403621
 30
0.0
 10
115.3374851434894
 20
38.93758862244155
 30
0.0
 10
115.3070570745472
 20
38.91876982897036
 30
0.0
 10
115.2730209815093
 20
38.905449782976
 30
0.0
 10
115.2376672317056
 20
38.89926531937786
 30
0.0
 10
115.206569851757
 20
38.89382542642894
 30
0.0
 10
115.1744529912985
 20
38.89390638486999
 30
0.0
 10
115.1434024859927
 20
38.8994627597633
 30
0.0
 10
115.1141013556255
 20
38.90470609038027
 30
0.0
 10
115.085749809016
 20
38.91482525107102
 30
0.0
 10
115.0596579600839
 20
38.92892235544371
 30
0.0
 10
115.0323844321899
 20
38.94365790639527
 30
0.0
 10
115.007579916665
 20
38.96273987600866
 30
0.0
 10
114.9860263555709
 20
38.98492588626362
 30
0.0
 10
114.9621725256754
 20
39.00947966243079
 30
0.0
 10
114.9423005838492
 20
39.03783538127884
 30
0.0
 10
114.9269084820606
 20
39.06849035647598
 30
0.0
 10
114.9098993566714
 20
39.10236580273515
 30
0.0
 10
114.8983607765842
 20
39.13904898005556
 30
0.0
 10
114.8926358113159
 20
39.1766671988076
 30
0.0
 10
114.8865796857976
 20
39.21646144101197
 30
0.0
 10
114.8870292040178
 20
39.2573020281549
 30
0.0
 10
114.8939769158224
 20
39.29695433901792
 30
0.0
 10
114.9010218045557
 20
39.33716126266098
 30
0.0
 10
114.9147479372637
 20
39.37614643696226
 30
0.0
 10
114.9347166905273
 20
39.41160201059799
 30
0.0
 10
114.9543801206826
 20
39.44651546697097
 30
0.0
 10
114.9800967309486
 20
39.47800643300487
 30
0.0
 10
115.0109510311942
 20
39.5035539719168
 30
0.0
 10
115.0396840284142
 20
39.52734505966429
 30
0.0
 10
115.0728725451807
 20
39.54598187461097
 30
0.0
 10
115.1085536370135
 20
39.55732853737526
 30
0.0
 10
115.1399450071611
 20
39.5673110595591
 30
0.0
 10
115.1732656451241
 20
39.57165096091372
 30
0.0
 10
115.206136374619
 20
39.56979522135934
 30
0.0
 10
115.236097158861
 20
39.56810376475784
 30
0.0
 10
115.2656841667368
 20
39.56126507420491
 30
0.0
 10
115.2935664543974
 20
39.55013996886264
 30
0.0
 10
115.3217411179295
 20
39.53889820478598
 30
0.0
 10
115.348175122137
 20
39.52327965922516
 30
0.0
 10
115.3709928879608
 20
39.50375079142118
 30
0.0
 10
115.3864894364622
 20
39.49048787823964
 30
0.0
 10
115.4003180436196
 20
39.47542138148681
 30
0.0
 10
115.4141466507771
 20
39.46035488473461
 30
0.0
  0
CIRCLE
  5
163
330
70
100
AcDbEntity
  8
0
 62
   144
420
    29337
370
    25
100
AcDbCircle
 10
115.191091558233
 20
39.23271528853823
 30
0.0
 40
0.2750000000002503
  0
LINE
  5
164
330
70
100
AcDbEntity
  8
0
 62
    18
420
        0
370
    25
100
AcDbLine
 10
27.07442486673314
 20
42.32615241433806
 30
0.0
 11
17.90775824983312
 21
42.32615241433806
 31
0.0
  0
LINE
  5
165
330
70
100
AcDbEntity
  8
0
 62
    18
420
        0
370
    25
100
AcDbLine
 10
23.82442495493311
 20
41.32615287133876
 30
0.0
 11
21.15775816163315
 21
41.32615287133876
 31
0.0
  0
LINE
  5
166
330
70
100
AcDbEntity
  8
0
 62
    18
420
        0
370
    25
100
AcDbLine
 10
119.7410961677336
 20
42.32615241433806
 30
0.0
 11
110.5744283089332
 21
42.32615241433806
 31
0.0
  0
LINE
  5
167
330
70
100
AcDbEntity
  8
0
 62
    18
420
        0
370
    25
100
AcDbLine
 10
116.4910933067336
 20
41.32615287133876
 30
0.0
 11
113.8244212358328
 21
41.32615287133876
 31
0.0
  0
SPLINE
  5
168
330
70
100
AcDbEntity
  8
0
 62
    18
420
        0
370
    25
100
AcDbSpline
210
0.0
220
0.0
230
1.0
 70
     8
 71
     3
 72
    20
 73
    16
 74
     0
 42
0.0000000001
 43
0.0000000001
 40
0.0
 40
0.0
 40
0.0
 40
0.0
 40
1.0
 40
1.0
 40
1.0
 40
2.0
 40
2.0
 40
2.0
 40
3.0
 40
3.0
 40
3.0
 40
4.0
 40
4.0
 40
4.0
 40
5.0
 40
5.0
 40
5.0
 40
5.0
 10
114.266548622594
 20
41.37279164321271
 30
0.0
 10
114.2647832076615
 20
41.37205729923639
 30
0.0
 10
114.263017792729
 20
41.37132295525943
 30
0.0
 10
114.2567337244217
 20
41.37068747507619
 30
0.0
 10
114.2504218707925
 20
41.37004918508473
 30
0.0
 10
114.2395513165439
 20
41.36951063508212
 30
0.0
 10
114.2259479253946
 20
41.36909739700032
 30
0.0
 10
114.2132588638804
 20
41.36871193403878
 30
0.0
 10
114.1981919858069
 20
41.36843550384036
 30
0.0
 10
114.1815822014667
 20
41.36825672315628
 30
0.0
 10
114.159191074728
 20
41.36801571455103
 30
0.0
 10
114.1339960419768
 20
41.36795216329758
 30
0.0
 10
114.1079307287399
 20
41.3680754256952
 30
0.0
 10
114.0844790643047
 20
41.36818632819412
 30
0.0
 10
114.0603229003671
 20
41.36844845794207
 30
0.0
 10
114.0361667364308
 20
41.36871058769131
 30
0.0
  0
SPLINE
  5
169
330
70
100
AcDbEntity
  8
0
 62
    18
420
        0
370
    25
100
AcDbSpline
210
0.0
220
0.0
230
1.0
 70
     8
 71
     3
 72
     8
 73
     4
 74
     0
 42
0.0000000001
 43
0.0000000001
 40
0.0
 40
0.0
 40
0.0
 40
0.0
 40
1.0
 40
1.0
 40
1.0
 40
1.0
 10
114.7229513217605
 20
41.38669194305827
 30
0.0
 10
114.8027158219467
 20
41.37728433071958
 30
0.0
 10
114.8825919731031
 20
41.36884881969031
 30
0.0
 10
114.9625619937482
 20
41.36138728782506
 30
0.0
  0
SPLINE
  5
16A
330
70
100
AcDbEntity
  8
0
 62
    18
420
        0
370
    25
100
AcDbSpline
210
0.0
220
0.0
230
1.0
 70
     8
 71
     3
 72
     8
 73
     4
 74
     0
 42
0.0000000001
 43
0.0000000001
 40
0.0
 40
0.0
 40
0.0
 40
0.0
 40
1.0
 40
1.0
 40
1.0
 40
1.0
 10
114.2824133922422
 20
41.36575829509593
 30
0.0
 10
114.3633006200768
 20
41.37218270514108
 30
0.0
 10
114.4441072411881
 20
41.37958456977878
 30
0.0
 10
114.524815548443
 20
41.38796226703897
 30
0.0
  0
SPLINE
  5
16B
330
70
100
AcDbEntity
  8
0
 62
    18
420
        0
370
    25
100
AcDbSpline
210
0.0
220
0.0
230
1.0
 70
     8
 71
     3
 72
     8
 73
     4
 74
     0
 42
0.0000000001
 43
0.0000000001
 40
0.0
 40
0.0
 40
0.0
 40
0.0
 40
1.0
 40
1.0
 40
1.0
 40
1.0
 10
114.7248089998383
 20
41.36545033783033
 30
0.0
 10
114.7340224390439
 20
41.36433077329493
 30
0.0
 10
114.7432379960168
 20
41.36322870626112
 30
0.0
 10
114.7524556209072
 20
41.36214414269032
 30
0.0
  0
SPLINE
  5
16C
330
70
100
AcDbEntity
  8
0
 62
    18
420
        0
370
    25
100
AcDbSpline
210
0.0
220
0.0
230
1.0
 70
     8
 71
     3
 72
     8
 73
     4
 74
     0
 42
0.0000000001
 43
0.0000000001
 40
0.0
 40
0.0
 40
0.0
 40
0.0
 40
1.0
 40
1.0
 40
1.0
 40
1.0
 10
115.7634332900063
 20
41.37869437186036
 30
0.0
 10
115.8267213631601
 20
41.37915470512086
 30
0.0
 10
115.8900088909403
 20
41.3796871898034
 30
0.0
 10
115.9532957499751
 20
41.38029182486907
 30
0.0
  0
SPLINE
  5
16D
330
70
100
AcDbEntity
  8
0
 62
    18
420
        0
370
    25
100
AcDbSpline
210
0.0
220
0.0
230
1.0
 70
     8
 71
     3
 72
     8
 73
     4
 74
     0
 42
0.0000000001
 43
0.0000000001
 40
0.0
 40
0.0
 40
0.0
 40
0.0
 40
1.0
 40
1.0
 40
1.0
 40
1.0
 10
115.5607031899488
 20
41.38653143796476
 30
0.0
 10
115.6282803631829
 20
41.386858475362
 30
0.0
 10
115.6958571132383
 20
41.3872677829159
 30
0.0
 10
115.7634332898689
 20
41.38775935971718
 30
0.0
  0
SPLINE
  5
16E
330
70
100
AcDbEntity
  8
0
 62
    18
420
        0
370
    25
100
AcDbSpline
210
0.0
220
0.0
230
1.0
 70
     8
 71
     3
 72
     8
 73
     4
 74
     0
 42
0.0000000001
 43
0.0000000001
 40
0.0
 40
0.0
 40
0.0
 40
0.0
 40
1.0
 40
1.0
 40
1.0
 40
1.0
 10
115.5607031899821
 20
41.36213297257994
 30
0.0
 10
115.6282803629288
 20
41.36245991417216
 30
0.0
 10
115.6958571129355
 20
41.36286910181946
 30
0.0
 10
115.7634332898638
 20
41.36336053461322
 30
0.0
  0
SPLINE
  5
16F
330
70
100
AcDbEntity
  8
0
 62
    18
420
        0
370
    25
100
AcDbSpline
210
0.0
220
0.0
230
1.0
 70
     8
 71
     3
 72
     8
 73
     4
 74
     0
 42
0.0000000001
 43
0.0000000001
 40
0.0
 40
0.0
 40
0.0
 40
0.0
 40
1.0
 40
1.0
 40
1.0
 40
1.0
 10
115.9532957498724
 20
41.36495769350623
 30
0.0
 10
116.020884105902
 20
41.36560330566811
 30
0.0
 10
116.0884716509845
 20
41.36633119378055
 30
0.0
 10
116.1560582348813
 20
41.36714135622711
 30
0.0
  0
LINE
  5
170
330
70
100
AcDbEntity
  8
0
 62
   144
420
    29337
370
    25
100
AcDbLine
 10
116.1560582349327
 20
41.37536723533806
 30
0.0
 11
116.2239371949334
 21
41.37620865233826
 31
0.0
  0
LINE
  5
171
330
70
100
AcDbEntity
  8
0
 62
   144
420
    29337
370
    25
100
AcDbLine
 10
116.1560555984326
 20
41.37536706053796
 30
0.0
 11
116.1560555984326
 21
41.36714161963815
 31
0.0
  0
LINE
  5
172
330
70
100
AcDbEntity
  8
0
 62
   144
420
    29337
370
    25
100
AcDbLine
 10
115.9533004651334
 20
41.36495797863878
 30
0.0
 11
115.9533004651334
 21
41.3731834195386
 31
0.0
  0
SPLINE
  5
173
330
70
100
AcDbEntity
  8
0
 62
   144
420
    29337
370
    25
100
AcDbSpline
210
0.0
220
0.0
230
1.0
 70
     8
 71
     3
 72
     8
 73
     4
 74
     0
 42
0.0000000001
 43
0.0000000001
 40
0.0
 40
0.0
 40
0.0
 40
0.0
 40
1.0
 40
1.0
 40
1.0
 40
1.0
 10
115.7634332899011
 20
41.37158604031886
 30
0.0
 10
115.826721362956
 20
41.37204633428619
 30
0.0
 10
115.8900088907401
 20
41.3725787735159
 30
0.0
 10
115.953295749884
 20
41.37318335697101
 30
0.0
  0
LINE
  5
174
330
70
100
AcDbEntity
  8
0
 62
   144
420
    29337
370
    25
100
AcDbLine
 10
115.7634298691331
 20
41.37158589093838
 30
0.0
 11
115.7634298691331
 21
41.36336044993845
 31
0.0
  0
LINE
  5
175
330
70
100
AcDbEntity
  8
0
 62
   144
420
    29337
370
    25
100
AcDbLine
 10
115.5607045381328
 20
41.36213296673792
 30
0.0
 11
115.5607045381328
 21
41.38653113473822
 31
0.0
  0
LINE
  5
176
330
70
100
AcDbEntity
  8
0
 62
   144
420
    29337
370
    25
100
AcDbLine
 10
115.7634298691331
 20
41.3877592387383
 30
0.0
 11
115.7634298691331
 21
41.37869436573856
 31
0.0
  0
LINE
  5
177
330
70
100
AcDbEntity
  8
0
 62
   144
420
    29337
370
    25
100
AcDbLine
 10
115.9533004651334
 20
41.38029189433876
 30
0.0
 11
115.9533004651334
 21
41.38935676743797
 31
0.0
  0
SPLINE
  5
178
330
70
100
AcDbEntity
  8
0
 62
   144
420
    29337
370
    25
100
AcDbSpline
210
0.0
220
0.0
230
1.0
 70
     8
 71
     3
 72
     8
 73
     4
 74
     0
 42
0.0000000001
 43
0.0000000001
 40
0.0
 40
0.0
 40
0.0
 40
0.0
 40
1.0
 40
1.0
 40
1.0
 40
1.0
 10
115.9532957499725
 20
41.38935698665264
 30
0.0
 10
116.0208841064783
 20
41.39000278801627
 30
0.0
 10
116.0884716515517
 20
41.39073088944295
 30
0.0
 10
116.1560582348839
 20
41.39154128931367
 30
0.0
  0
LINE
  5
179
330
70
100
AcDbEntity
  8
0
 62
   144
420
    29337
370
    25
100
AcDbLine
 10
116.1560555984326
 20
41.39154102923882
 30
0.0
 11
116.1560555984326
 21
41.38244759563876
 31
0.0
  0
LINE
  5
17A
330
70
100
AcDbEntity
  8
0
 62
   144
420
    29337
370
    25
100
AcDbLine
 10
116.1560582349327
 20
41.38244778723854
 30
0.0
 11
116.2239371949334
 21
41.38328927573812
 31
0.0
  0
LINE
  5
17B
330
70
100
AcDbEntity
  8
0
 62
   144
420
    29337
370
    25
100
AcDbLine
 10
116.223935354733
 20
41.38328951123847
 30
0.0
 11
116.223935354733
 21
41.39238294493799
 31
0.0
  0
SPLINE
  5
17C
330
70
100
AcDbEntity
  8
0
 62
   144
420
    29337
370
    25
100
AcDbSpline
210
0.0
220
0.0
230
1.0
 70
     8
 71
     3
 72
     8
 73
     4
 74
     0
 42
0.0000000001
 43
0.0000000001
 40
0.0
 40
0.0
 40
0.0
 40
0.0
 40
1.0
 40
1.0
 40
1.0
 40
1.0
 10
116.2239371949654
 20
41.39238286976808
 30
0.0
 10
116.290392305327
 20
41.39323389155908
 30
0.0
 10
116.3568463729444
 20
41.39416447953778
 30
0.0
 10
116.4232992549278
 20
41.39517463170274
 30
0.0
  0
LINE
  5
17D
330
70
100
AcDbEntity
  8
0
 62
   144
420
    29337
370
    25
100
AcDbLine
 10
116.4233029573336
 20
41.39517442913825
 30
0.0
 11
116.4233029573336
 21
41.38608099543808
 31
0.0
  0
SPLINE
  5
17E
330
70
100
AcDbEntity
  8
0
 62
   144
420
    29337
370
    25
100
AcDbSpline
210
0.0
220
0.0
230
1.0
 70
     8
 71
     3
 72
     8
 73
     4
 74
     0
 42
0.0000000001
 43
0.0000000001
 40
0.0
 40
0.0
 40
0.0
 40
0.0
 40
1.0
 40
1.0
 40
1.0
 40
1.0
 10
116.4232992549406
 20
41.38608073283173
 30
0.0
 10
116.4997439571415
 20
41.38724264402491
 30
0.0
 10
116.576187022952
 20
41.38850983211802
 30
0.0
 10
116.6526282348863
 20
41.38988229350533
 30
0.0
  0
LINE
  5
17F
330
70
100
AcDbEntity
  8
0
 62
   144
420
    29337
370
    25
100
AcDbLine
 10
116.6526318281327
 20
41.38988203333872
 30
0.0
 11
116.6526318281327
 21
41.38280087733829
 31
0.0
  0
SPLINE
  5
180
330
70
100
AcDbEntity
  8
0
 62
   144
420
    29337
370
    25
100
AcDbSpline
210
0.0
220
0.0
230
1.0
 70
     8
 71
     3
 72
     8
 73
     4
 74
     0
 42
0.0000000001
 43
0.0000000001
 40
0.0
 40
0.0
 40
0.0
 40
0.0
 40
1.0
 40
1.0
 40
1.0
 40
1.0
 10
116.4232992548995
 20
41.37899987205071
 30
0.0
 10
116.4997439568476
 20
41.38016168443765
 30
0.0
 10
116.5761870226825
 20
41.38142876477022
 30
0.0
 10
116.6526282349569
 20
41.38280110944532
 30
0.0
  0
LINE
  5
181
330
70
100
AcDbEntity
  8
0
 62
   144
420
    29337
370
    25
100
AcDbLine
 10
116.4233029573336
 20
41.37899983953839
 30
0.0
 11
116.4233029573336
 21
41.37077377763818
 31
0.0
  0
SPLINE
  5
182
330
70
100
AcDbEntity
  8
0
 62
   144
420
    29337
370
    25
100
AcDbSpline
210
0.0
220
0.0
230
1.0
 70
     8
 71
     3
 72
     8
 73
     4
 74
     0
 42
0.0000000001
 43
0.0000000001
 40
0.0
 40
0.0
 40
0.0
 40
0.0
 40
1.0
 40
1.0
 40
1.0
 40
1.0
 10
116.2239371948884
 20
41.3679826901106
 30
0.0
 10
116.290392304616
 20
41.36883346255596
 30
0.0
 10
116.3568463722193
 20
41.36976377787481
 30
0.0
 10
116.4232992548739
 20
41.37077363406893
 30
0.0
  0
LINE
  5
183
330
70
100
AcDbEntity
  8
0
 62
   144
420
    29337
370
    25
100
AcDbLine
 10
116.223935354733
 20
41.36798291433821
 30
0.0
 11
116.223935354733
 21
41.37620835533813
 31
0.0
  0
LINE
  5
184
330
70
100
AcDbEntity
  8
0
 62
   144
420
    29337
370
    25
100
AcDbLine
 10
115.0989672233332
 20
41.36117929243822
 30
0.0
 11
115.0989672233332
 21
41.37882847613799
 31
0.0
  0
SPLINE
  5
185
330
70
100
AcDbEntity
  8
0
 62
   144
420
    29337
370
    25
100
AcDbSpline
210
0.0
220
0.0
230
1.0
 70
     8
 71
     3
 72
     8
 73
     4
 74
     0
 42
0.0000000001
 43
0.0000000001
 40
0.0
 40
0.0
 40
0.0
 40
0.0
 40
1.0
 40
1.0
 40
1.0
 40
1.0
 10
114.9146548248773
 20
41.37916230549348
 30
0.0
 10
114.9760926261728
 20
41.37898293957538
 30
0.0
 10
115.0375306071646
 20
41.37887156852962
 30
0.0
 10
115.098968654974
 20
41.3788281925622
 30
0.0
  0
LINE
  5
186
330
70
100
AcDbEntity
  8
0
 62
   144
420
    29337
370
    25
100
AcDbLine
 10
114.9146597275337
 20
41.37916251053878
 30
0.0
 11
114.9146597275337
 21
41.38591149473856
 31
0.0
  0
SPLINE
  5
187
330
70
100
AcDbEntity
  8
0
 62
   144
420
    29337
370
    25
100
AcDbSpline
210
0.0
220
0.0
230
1.0
 70
     8
 71
     3
 72
     8
 73
     4
 74
     0
 42
0.0000000001
 43
0.0000000001
 40
0.0
 40
0.0
 40
0.0
 40
0.0
 40
1.0
 40
1.0
 40
1.0
 40
1.0
 10
114.9146548248901
 20
41.38591131929739
 30
0.0
 10
115.1051179802833
 20
41.3853552224446
 30
0.0
 10
115.2955824831777
 20
41.3854526513749
 30
0.0
 10
115.4860449699705
 20
41.3862036043666
 30
0.0
  0
LINE
  5
188
330
70
100
AcDbEntity
  8
0
 62
   144
420
    29337
370
    25
100
AcDbLine
 10
115.4860497206328
 20
41.38620330913884
 30
0.0
 11
115.4860497206328
 21
41.37945432493842
 31
0.0
  0
SPLINE
  5
189
330
70
100
AcDbEntity
  8
0
 62
   144
420
    29337
370
    25
100
AcDbSpline
210
0.0
220
0.0
230
1.0
 70
     8
 71
     3
 72
     8
 73
     4
 74
     0
 42
0.0000000001
 43
0.0000000001
 40
0.0
 40
0.0
 40
0.0
 40
0.0
 40
1.0
 40
1.0
 40
1.0
 40
1.0
 10
115.3016987549583
 20
41.37893184739197
 30
0.0
 10
115.3631476673305
 20
41.37903806813237
 30
0.0
 10
115.4245964432954
 20
41.37921230806613
 30
0.0
 10
115.4860449699269
 20
41.37945456687307
 30
0.0
  0
LINE
  5
18A
330
70
100
AcDbEntity
  8
0
 62
   144
420
    29337
370
    25
100
AcDbLine
 10
115.3017024884327
 20
41.37893154253808
 30
0.0
 11
115.3017024884327
 21
41.36128235883831
 31
0.0
  0
SPLINE
  5
18B
330
70
100
AcDbEntity
  8
0
 62
   144
420
    29337
370
    25
100
AcDbSpline
210
0.0
220
0.0
230
1.0
 70
     8
 71
     3
 72
     8
 73
     4
 74
     0
 42
0.0000000001
 43
0.0000000001
 40
0.0
 40
0.0
 40
0.0
 40
0.0
 40
1.0
 40
1.0
 40
1.0
 40
1.0
 10
115.0989686549303
 20
41.36117899344176
 30
0.0
 10
115.1665453719383
 20
41.36113129361317
 30
0.0
 10
115.2341221219783
 20
41.36116583792676
 30
0.0
 10
115.3016987549019
 20
41.36128262630617
 30
0.0
  0
SPLINE
  5
18C
330
70
100
AcDbEntity
  8
0
 62
   144
420
    29337
370
    25
100
AcDbSpline
210
0.0
220
0.0
230
1.0
 70
     8
 71
     3
 72
     8
 73
     4
 74
     0
 42
0.0000000001
 43
0.0000000001
 40
0.0
 40
0.0
 40
0.0
 40
0.0
 40
1.0
 40
1.0
 40
1.0
 40
1.0
 10
114.7524599498987
 20
41.36214439125372
 30
0.0
 10
114.8224939652562
 20
41.36180358444597
 30
0.0
 10
114.892528382624
 20
41.36155111297187
 30
0.0
 10
114.9625630348754
 20
41.36138697743588
 30
0.0
  0
SPLINE
  5
18D
330
70
100
AcDbEntity
  8
0
 62
   144
420
    29337
370
    25
100
AcDbSpline
210
0.0
220
0.0
230
1.0
 70
     8
 71
     3
 72
     8
 73
     4
 74
     0
 42
0.0000000001
 43
0.0000000001
 40
0.0
 40
0.0
 40
0.0
 40
0.0
 40
1.0
 40
1.0
 40
1.0
 40
1.0
 10
114.5155960599957
 20
41.36680098662817
 30
0.0
 10
114.5853347654181
 20
41.36626325280129
 30
0.0
 10
114.6550741187626
 20
41.36581311589469
 30
0.0
 10
114.7248139549908
 20
41.36545057697231
 30
0.0
  0
SPLINE
  5
18E
330
70
100
AcDbEntity
  8
0
 62
   144
420
    29337
370
    25
100
AcDbSpline
210
0.0
220
0.0
230
1.0
 70
     8
 71
     3
 72
     8
 73
     4
 74
     0
 42
0.0000000001
 43
0.0000000001
 40
0.0
 40
0.0
 40
0.0
 40
0.0
 40
1.0
 40
1.0
 40
1.0
 40
1.0
 10
114.4860923975493
 20
41.36386646856678
 30
0.0
 10
114.4959290446975
 20
41.36482555992613
 30
0.0
 10
114.5057638294439
 20
41.36580365741641
 30
0.0
 10
114.5155966967101
 20
41.36680075555813
 30
0.0
  0
SPLINE
  5
18F
330
70
100
AcDbEntity
  8
0
 62
   144
420
    29337
370
    25
100
AcDbSpline
210
0.0
220
0.0
230
1.0
 70
     8
 71
     3
 72
     8
 73
     4
 74
     0
 42
0.0000000001
 43
0.0000000001
 40
0.0
 40
0.0
 40
0.0
 40
0.0
 40
1.0
 40
1.0
 40
1.0
 40
1.0
 10
114.2824132649227
 20
41.36575826569905
 30
0.0
 10
114.3503058218394
 20
41.3650446823217
 30
0.0
 10
114.4181992259516
 20
41.36441411848164
 30
0.0
 10
114.4860933249776
 20
41.36386657559319
 30
0.0
  0
SPLINE
  5
190
330
70
100
AcDbEntity
  8
0
 62
   144
420
    29337
370
    25
100
AcDbSpline
210
0.0
220
0.0
230
1.0
 70
     8
 71
     3
 72
     8
 73
     4
 74
     0
 42
0.0000000001
 43
0.0000000001
 40
0.0
 40
0.0
 40
0.0
 40
0.0
 40
1.0
 40
1.0
 40
1.0
 40
1.0
 10
114.5248149899801
 20
41.38796218499903
 30
0.0
 10
114.590858272733
 20
41.38746012856069
 30
0.0
 10
114.6569021294715
 20
41.38703665151553
 30
0.0
 10
114.7229464199409
 20
41.38669175476324
 30
0.0
  0
SPLINE
  5
191
330
70
100
AcDbEntity
  8
0
 62
   144
420
    29337
370
    25
100
AcDbSpline
210
0.0
220
0.0
230
1.0
 70
     8
 71
     3
 72
    17
 73
    13
 74
     0
 42
0.0000000001
 43
0.0000000001
 40
0.0
 40
0.0
 40
0.0
 40
0.0
 40
1.0
 40
1.0
 40
1.0
 40
2.0
 40
2.0
 40
2.0
 40
3.0
 40
3.0
 40
3.0
 40
4.0
 40
4.0
 40
4.0
 40
4.0
 10
114.2333687036694
 20
41.38408237722582
 30
0.0
 10
114.2322173652199
 20
41.38344300563651
 30
0.0
 10
114.2310660267692
 20
41.38280363404848
 30
0.0
 10
114.2260273982549
 20
41.38225201792532
 30
0.0
 10
114.2219064888609
 20
41.38180087133801
 30
0.0
 10
114.2151853696115
 20
41.38140842441674
 30
0.0
 10
114.2067651638847
 20
41.38109345264334
 30
0.0
 10
114.1983744893658
 20
41.38077958553301
 30
0.0
 10
114.1882966254875
 20
41.38054265108652
 30
0.0
 10
114.1772707988282
 20
41.38037509249683
 30
0.0
 10
114.169265883961
 20
41.38025344245791
 30
0.0
 10
114.1607613000994
 20
41.38016836027403
 30
0.0
 10
114.1522567162377
 20
41.38008327809013
 30
0.0
  0
SPLINE
  5
192
330
70
100
AcDbEntity
  8
0
 62
   144
420
    29337
370
    25
100
AcDbSpline
210
0.0
220
0.0
230
1.0
 70
     8
 71
     3
 72
    17
 73
    13
 74
     0
 42
0.0000000001
 43
0.0000000001
 40
0.0
 40
0.0
 40
0.0
 40
0.0
 40
1.0
 40
1.0
 40
1.0
 40
2.0
 40
2.0
 40
2.0
 40
3.0
 40
3.0
 40
3.0
 40
4.0
 40
4.0
 40
4.0
 40
4.0
 10
114.1522567162377
 20
41.38008327809013
 30
0.0
 10
114.1703136168112
 20
41.37958485032318
 30
0.0
 10
114.1883705173834
 20
41.37908642255622
 30
0.0
 10
114.2040432184403
 20
41.37848574943411
 30
0.0
 10
114.2198237609019
 20
41.37788094317467
 30
0.0
 10
114.2331871803584
 20
41.37717247965086
 30
0.0
 10
114.2432432064869
 20
41.37644056505982
 30
0.0
 10
114.2518563939016
 20
41.37581366558118
 30
0.0
 10
114.2580431899417
 20
41.37516956177782
 30
0.0
 10
114.2615219642181
 20
41.37454377141628
 30
0.0
 10
114.2648300354936
 20
41.37394868850732
 30
0.0
 10
114.2656893290445
 20
41.37337016586001
 30
0.0
 10
114.266548622594
 20
41.37279164321271
 30
0.0
  0
SPLINE
  5
193
330
70
100
AcDbEntity
  8
0
 62
   144
420
    29337
370
    25
100
AcDbSpline
210
0.0
220
0.0
230
1.0
 70
     8
 71
     3
 72
     8
 73
     4
 74
     0
 42
0.0000000001
 43
0.0000000001
 40
0.0
 40
0.0
 40
0.0
 40
0.0
 40
1.0
 40
1.0
 40
1.0
 40
1.0
 10
113.6628882149123
 20
41.37457449595859
 30
0.0
 10
113.7873104462367
 20
41.37234097148654
 30
0.0
 10
113.9117375270682
 20
41.37038630359506
 30
0.0
 10
114.0361685199331
 20
41.36871050701306
 30
0.0
  0
LINE
  5
194
330
70
100
AcDbEntity
  8
0
 62
   144
420
    29337
370
    25
100
AcDbLine
 10
113.6628926485329
 20
41.37457419463853
 30
0.0
 11
113.6628926485329
 21
41.39897670873809
 31
0.0
  0
SPLINE
  5
195
330
70
100
AcDbEntity
  8
0
 62
   144
420
    29337
370
    25
100
AcDbSpline
210
0.0
220
0.0
230
1.0
 70
     8
 71
     3
 72
     8
 73
     4
 74
     0
 42
0.0000000001
 43
0.0000000001
 40
0.0
 40
0.0
 40
0.0
 40
0.0
 40
1.0
 40
1.0
 40
1.0
 40
1.0
 10
113.6628882149713
 20
41.39897660764481
 30
0.0
 10
113.7829999342226
 20
41.39681982989469
 30
0.0
 10
113.9031161804835
 20
41.39492299795839
 30
0.0
 10
114.0232361098838
 20
41.39328612516144
 30
0.0
  0
SPLINE
  5
196
330
70
100
AcDbEntity
  8
0
 62
   144
420
    29337
370
    25
100
AcDbSpline
210
0.0
220
0.0
230
1.0
 70
     8
 71
     3
 72
    20
 73
    16
 74
     0
 42
0.0000000001
 43
0.0000000001
 40
0.0
 40
0.0
 40
0.0
 40
0.0
 40
1.0
 40
1.0
 40
1.0
 40
2.0
 40
2.0
 40
2.0
 40
3.0
 40
3.0
 40
3.0
 40
4.0
 40
4.0
 40
4.0
 40
5.0
 40
5.0
 40
5.0
 40
5.0
 10
114.023232528514
 20
41.39328632778946
 30
0.0
 10
114.0559928708213
 20
41.39277651772344
 30
0.0
 10
114.0887532131285
 20
41.39226670765613
 30
0.0
 10
114.1198019871573
 20
41.39148887522126
 30
0.0
 10
114.1374834144929
 20
41.3910459209303
 30
0.0
 10
114.1546097817964
 20
41.39051604722939
 30
0.0
 10
114.1698301523397
 20
41.38990252243548
 30
0.0
 10
114.1851820658419
 20
41.38928369521695
 30
0.0
 10
114.1985948948385
 20
41.38857976473794
 30
0.0
 10
114.2088910628819
 20
41.38783250279269
 30
0.0
 10
114.2178114766716
 20
41.38718508855831
 30
0.0
 10
114.224392469824
 20
41.38650514896108
 30
0.0
 10
114.2280837585001
 20
41.38584257689188
 30
0.0
 10
114.2314047496324
 20
41.38524647180254
 30
0.0
 10
114.2323867266502
 20
41.38466442451418
 30
0.0
 10
114.2333687036694
 20
41.38408237722582
 30
0.0
  0
LINE
  5
197
330
70
100
AcDbEntity
  8
0
 62
   144
420
    29337
370
    25
100
AcDbLine
 10
114.9625619937328
 20
41.38578545573873
 30
0.0
 11
114.9625619937328
 21
41.3790364715383
 31
0.0
  0
LINE
  5
198
330
70
100
AcDbEntity
  8
0
 62
   144
420
    29337
370
    25
100
AcDbLine
 10
114.6234314332336
 20
41.38727122573842
 30
0.0
 11
114.6234314332336
 21
41.37852486493828
 31
0.0
  0
LINE
  5
199
330
70
100
AcDbEntity
  8
0
 62
   144
420
    29337
370
    25
100
AcDbLine
 10
114.559833277233
 20
41.38770335943836
 30
0.0
 11
114.559833277233
 21
41.37142073633811
 31
0.0
  0
SPLINE
  5
19A
330
70
100
AcDbEntity
  8
0
 62
   144
420
    29337
370
    25
100
AcDbSpline
210
0.0
220
0.0
230
1.0
 70
     8
 71
     3
 72
     8
 73
     4
 74
     0
 42
0.0000000001
 43
0.0000000001
 40
0.0
 40
0.0
 40
0.0
 40
0.0
 40
1.0
 40
1.0
 40
1.0
 40
1.0
 10
114.5598332771945
 20
41.37142073642923
 30
0.0
 10
114.5810424725166
 20
41.37370011741986
 30
0.0
 10
114.6022420432053
 20
41.37606818099186
 30
0.0
 10
114.6234314331784
 20
41.37852486502941
 30
0.0
  0
SPLINE
  5
19B
330
70
100
AcDbEntity
  8
0
 62
    18
420
        0
370
    25
100
AcDbSpline
210
0.0
220
0.0
230
1.0
 70
     8
 71
     3
 72
     8
 73
     4
 74
     0
 42
0.0000000001
 43
0.0000000001
 40
0.0
 40
0.0
 40
0.0
 40
0.0
 40
1.0
 40
1.0
 40
1.0
 40
1.0
 10
113.8656183149916
 20
41.38090144314746
 30
0.0
 10
113.9080169926542
 20
41.3802435063887
 30
0.0
 10
113.9504161666506
 20
41.37961795280769
 30
0.0
 10
113.9928157998775
 20
41.37902478295244
 30
0.0
  0
SPLINE
  5
19C
330
70
100
AcDbEntity
  8
0
 62
   144
420
    29337
370
    25
100
AcDbSpline
210
0.0
220
0.0
230
1.0
 70
     8
 71
     3
 72
    17
 73
    13
 74
     0
 42
0.0000000001
 43
0.0000000001
 40
0.0
 40
0.0
 40
0.0
 40
0.0
 40
1.0
 40
1.0
 40
1.0
 40
2.0
 40
2.0
 40
2.0
 40
3.0
 40
3.0
 40
3.0
 40
4.0
 40
4.0
 40
4.0
 40
4.0
 10
114.0637929249501
 20
41.37589754047442
 30
0.0
 10
114.0637929249501
 20
41.37621562045572
 30
0.0
 10
114.0626302632527
 20
41.37654800246994
 30
0.0
 10
114.059354050204
 20
41.3768893652791
 30
0.0
 10
114.0560778371541
 20
41.37723072808825
 30
0.0
 10
114.0505512837131
 20
41.37756843154256
 30
0.0
 10
114.0434178531154
 20
41.3778550441193
 30
0.0
 10
114.0362844225189
 20
41.37814165669605
 30
0.0
 10
114.0278542922683
 20
41.37837446970148
 30
0.0
 10
114.0191832479488
 20
41.37856413840888
 30
0.0
 10
114.0105122036293
 20
41.37875380711629
 30
0.0
 10
114.0017013994344
 20
41.37890047359719
 30
0.0
 10
113.9928157999506
 20
41.37902478292164
 30
0.0
  0
LINE
  5
19D
330
70
100
AcDbEntity
  8
0
 62
   144
420
    29337
370
    25
100
AcDbLine
 10
113.8656179795332
 20
41.38090160023796
 30
0.0
 11
113.8656179795332
 21
41.37652003793808
 31
0.0
  0
SPLINE
  5
19E
330
70
100
AcDbEntity
  8
0
 62
   144
420
    29337
370
    25
100
AcDbSpline
210
0.0
220
0.0
230
1.0
 70
     8
 71
     3
 72
     8
 73
     4
 74
     0
 42
0.0000000001
 43
0.0000000001
 40
0.0
 40
0.0
 40
0.0
 40
0.0
 40
1.0
 40
1.0
 40
1.0
 40
1.0
 10
113.8656183149852
 20
41.37652013170444
 30
0.0
 10
113.9052571309309
 20
41.37590505445831
 30
0.0
 10
113.9448963810027
 20
41.37531828026273
 30
0.0
 10
113.984536034888
 20
41.37475980956755
 30
0.0
  0
SPLINE
  5
19F
330
70
100
AcDbEntity
  8
0
 62
   144
420
    29337
370
    25
100
AcDbSpline
210
0.0
220
0.0
230
1.0
 70
     8
 71
     3
 72
    17
 73
    13
 74
     0
 42
0.0000000001
 43
0.0000000001
 40
0.0
 40
0.0
 40
0.0
 40
0.0
 40
1.0
 40
1.0
 40
1.0
 40
2.0
 40
2.0
 40
2.0
 40
3.0
 40
3.0
 40
3.0
 40
4.0
 40
4.0
 40
4.0
 40
4.0
 10
113.9845391777771
 20
41.37475976525951
 30
0.0
 10
113.9941958426329
 20
41.37462372083243
 30
0.0
 10
114.0037820907536
 20
41.37451168361259
 30
0.0
 10
114.0132284791633
 20
41.37444564413198
 30
0.0
 10
114.0226748675731
 20
41.37437960465136
 30
0.0
 10
114.0320386686106
 20
41.37436032254302
 30
0.0
 10
114.040168629293
 20
41.37443745764814
 30
0.0
 10
114.0482985899755
 20
41.37451459275391
 30
0.0
 10
114.0547636384698
 20
41.37469675076935
 30
0.0
 10
114.0585991921464
 20
41.37496011279506
 30
0.0
 10
114.0624347458217
 20
41.37522347482206
 30
0.0
 10
114.0637929249501
 20
41.37555098133852
 30
0.0
 10
114.0637929249501
 20
41.37589754047442
 30
0.0
  0
LINE
  5
1A0
330
70
100
AcDbEntity
  8
0
 62
   144
420
    29337
370
    25
100
AcDbLine
 10
113.992814291433
 20
41.39370604383846
 30
0.0
 11
113.992814291433
 21
41.37902467473824
 31
0.0
  0
LINE
  5
1A1
330
70
100
AcDbEntity
  8
0
 62
   144
420
    29337
370
    25
100
AcDbLine
 10
113.8656179795332
 20
41.39558296923807
 30
0.0
 11
113.8656179795332
 21
41.38090160023796
 31
0.0
  0
LINE
  5
1A2
330
70
100
AcDbEntity
  8
0
 62
   144
420
    29337
370
    25
100
AcDbLine
 10
114.0361667364333
 20
41.3744233203381
 30
0.0
 11
114.0361667364333
 21
41.3687105877388
 31
0.0
  0
LINE
  5
1A3
330
70
100
AcDbEntity
  8
0
 62
   144
420
    29337
370
    25
100
AcDbLine
 10
114.7524556209328
 20
41.38325660453825
 30
0.0
 11
114.7524556209328
 21
41.36214414263833
 31
0.0
  0
LINE
  5
1A4
330
70
100
AcDbEntity
  8
0
 62
   144
420
    29337
370
    25
100
AcDbLine
 10
114.7248089998331
 20
41.38647153003846
 30
0.0
 11
114.7248089998331
 21
41.36545033783803
 31
0.0
  0
LINE
  5
1A5
330
70
100
AcDbEntity
  8
0
 62
   144
420
    29337
370
    25
100
AcDbLine
 10
115.9533004651334
 20
41.38029189433876
 30
0.0
 11
115.9533004651334
 21
41.3731834195386
 31
0.0
  0
LINE
  5
1A6
330
70
100
AcDbEntity
  8
0
 62
   144
420
    29337
370
    25
100
AcDbLine
 10
115.7634298691331
 20
41.37869436573856
 30
0.0
 11
115.7634298691331
 21
41.37158589093838
 31
0.0
  0
SPLINE
  5
1A7
330
70
100
AcDbEntity
  8
0
 62
   144
420
    29337
370
    25
100
AcDbSpline
210
0.0
220
0.0
230
1.0
 70
     8
 71
     3
 72
     8
 73
     4
 74
     0
 42
0.0000000001
 43
0.0000000001
 40
0.0
 40
0.0
 40
0.0
 40
0.0
 40
1.0
 40
1.0
 40
1.0
 40
1.0
 10
115.994597420003
 20
41.37358815753695
 30
0.0
 10
116.0484182539303
 20
41.3741290072362
 30
0.0
 10
116.1022385508787
 20
41.37472203346637
 30
0.0
 10
116.1560582349866
 20
41.37536723539198
 30
0.0
  0
LINE
  5
1A8
330
70
100
AcDbEntity
  8
0
 62
   144
420
    29337
370
    25
100
AcDbLine
 10
115.9945965498334
 20
41.37358823443817
 30
0.0
 11
115.9945965498334
 21
41.38066876953831
 31
0.0
  0
SPLINE
  5
1A9
330
70
100
AcDbEntity
  8
0
 62
   144
420
    29337
370
    25
100
AcDbSpline
210
0.0
220
0.0
230
1.0
 70
     8
 71
     3
 72
     8
 73
     4
 74
     0
 42
0.0000000001
 43
0.0000000001
 40
0.0
 40
0.0
 40
0.0
 40
0.0
 40
1.0
 40
1.0
 40
1.0
 40
1.0
 10
115.994597419985
 20
41.38066855812223
 30
0.0
 10
116.0484182540034
 20
41.3812094538114
 30
0.0
 10
116.1022385509647
 20
41.38180253046821
 30
0.0
 10
116.1560582349686
 20
41.3824477872578
 30
0.0
  0
LINE
  5
1AA
330
70
100
AcDbEntity
  8
0
 62
   144
420
    29337
370
    25
100
AcDbLine
 10
116.1560555984326
 20
41.38244759563876
 30
0.0
 11
116.1560555984326
 21
41.37536706053796
 31
0.0
  0
LINE
  5
1AB
330
70
100
AcDbEntity
  8
0
 62
    18
420
        0
370
    25
100
AcDbLine
 10
115.1754995872325
 20
9.815485616838321
 30
0.0
 11
116.5244222372334
 21
9.815485616838321
 31
0.0
  0
LINE
  5
1AC
330
70
100
AcDbEntity
  8
0
 62
    18
420
        0
370
    25
100
AcDbLine
 10
113.8577601005333
 20
9.815485616838321
 30
0.0
 11
115.1754995872325
 21
9.815485616838321
 31
0.0
  0
LINE
  5
1AD
330
70
100
AcDbEntity
  8
0
 62
   144
420
    29337
370
    25
100
AcDbLine
 10
115.1754995872325
 20
9.982152621238578
 30
0.0
 11
116.5244222372334
 21
9.982152621238578
 31
0.0
  0
LINE
  5
1AE
330
70
100
AcDbEntity
  8
0
 62
   144
420
    29337
370
    25
100
AcDbLine
 10
113.8577601005333
 20
9.982152621238578
 30
0.0
 11
115.1754995872325
 21
9.982152621238578
 31
0.0
  0
LINE
  5
1AF
330
70
100
AcDbEntity
  8
0
 62
    18
420
        0
370
    25
100
AcDbLine
 10
21.60608660453325
 20
9.815485616838321
 30
0.0
 11
23.82442495493311
 21
9.815485616838321
 31
0.0
  0
LINE
  5
1B0
330
70
100
AcDbEntity
  8
0
 62
    18
420
        0
370
    25
100
AcDbLine
 10
21.15775816163315
 20
9.815485616838321
 30
0.0
 11
21.60608660453325
 21
9.815485616838321
 31
0.0
  0
LINE
  5
1B1
330
70
100
AcDbEntity
  8
0
 62
    18
420
        0
370
    25
100
AcDbLine
 10
21.60608660453325
 20
9.982152621238578
 30
0.0
 11
23.82442495493311
 21
9.982152621238578
 31
0.0
  0
LINE
  5
1B2
330
70
100
AcDbEntity
  8
0
 62
    18
420
        0
370
    25
100
AcDbLine
 10
21.15775816163315
 20
9.982152621238578
 30
0.0
 11
21.60608660453325
 21
9.982152621238578
 31
0.0
  0
LINE
  5
1B3
330
70
100
AcDbEntity
  8
0
 62
    18
420
        0
370
    25
100
AcDbLine
 10
26.74109147883324
 20
42.46781961643864
 30
0.0
 11
18.24109163773302
 21
42.46781961643864
 31
0.0
  0
LINE
  5
1B4
330
70
100
AcDbEntity
  8
0
 62
     8
420
  8421504
370
    25
100
AcDbLine
 10
17.90775824983312
 20
41.59951094813831
 30
0.0
 11
27.07442486673314
 21
41.59951094813831
 31
0.0
  0
LINE
  5
1B5
330
70
100
AcDbEntity
  8
0
 62
     8
420
  8421504
370
    25
100
AcDbLine
 10
26.91660915213323
 20
41.433079257838
 30
0.0
 11
18.06557396443303
 21
41.433079257838
 31
0.0
  0
LINE
  5
1B6
330
70
100
AcDbEntity
  8
0
 62
     8
420
  8421504
370
    25
100
AcDbLine
 10
110.5744283089332
 20
41.59951094813831
 30
0.0
 11
119.7410961677336
 21
41.59951094813831
 31
0.0
  0
LINE
  5
1B7
330
70
100
AcDbEntity
  8
0
 62
     8
420
  8421504
370
    25
100
AcDbLine
 10
119.5832730024335
 20
41.433079257838
 30
0.0
 11
110.7322415401328
 21
41.433079257838
 31
0.0
  0
INSERT
  5
1B9
330
70
100
AcDbEntity
  8
0
100
AcDbBlockReference
  2
Block_4
 10
0.0
 20
0.0
 30
0.0
  0
INSERT
  5
1C5
330
70
100
AcDbEntity
  8
0
100
AcDbBlockReference
  2
Block_5
 10
0.0
 20
0.0
 30
0.0
  0
LINE
  5
1D2
330
70
100
AcDbEntity
  8
0
 62
    18
420
        0
370
    25
100
AcDbLine
 10
120.9956152638333
 20
-8.4744770309614
 30
0.0
 11
98.83960310633325
 21
-21.26487059826137
 31
0.0
  0
LINE
  5
1D3
330
70
100
AcDbEntity
  8
0
 62
    18
420
        0
370
    25
100
AcDbLine
 10
100.1728281090332
 20
-23.57433422656178
 30
0.0
 11
102.1275761134334
 21
-22.44588222336175
 31
0.0
  0
LINE
  5
1D4
330
70
100
AcDbEntity
  8
0
 62
    18
420
        0
370
    25
100
AcDbLine
 10
103.7943786049327
 20
-21.4836576265617
 30
0.0
 11
107.4308771831325
 21
-19.38435168236181
 31
0.0
  0
LINE
  5
1D5
330
70
100
AcDbEntity
  8
0
 62
    18
420
        0
370
    25
100
AcDbLine
 10
109.0976787965334
 20
-18.42212759246165
 30
0.0
 11
112.7341778137336
 21
-16.32282139486187
 31
0.0
  0
LINE
  5
1D6
330
70
100
AcDbEntity
  8
0
 62
    18
420
        0
370
    25
100
AcDbLine
 10
114.4009800856332
 20
-15.36059692476144
 30
0.0
 11
118.037478663833
 21
-13.26129098056156
 31
0.0
  0
LINE
  5
1D7
330
70
100
AcDbEntity
  8
0
 62
    18
420
        0
370
    25
100
AcDbLine
 10
119.7042809358327
 20
-12.29906651046177
 30
0.0
 11
122.3288402666335
 21
-10.78394065916169
 31
0.0
  0
LINE
  5
1D8
330
70
100
AcDbEntity
  8
0
 62
    18
420
        0
370
    25
100
AcDbLine
 10
186.5444139886337
 20
-46.31499307676175
 30
0.0
 11
164.3884018311336
 21
-59.10538664406174
 31
0.0
  0
LINE
  5
1D9
330
70
100
AcDbEntity
  8
0
 62
    18
420
        0
370
    25
100
AcDbLine
 10
165.7216260655325
 20
-61.41484982876137
 30
0.0
 11
187.8776382231327
 21
-48.62445626146139
 31
0.0
  0
SPLINE
  5
1DA
330
70
100
AcDbEntity
  8
0
 62
    18
420
        0
370
    25
100
AcDbSpline
210
0.0
220
0.0
230
1.0
 70
     8
 71
     3
 72
    38
 73
    34
 74
     0
 42
0.0000000001
 43
0.0000000001
 40
0.0
 40
0.0
 40
0.0
 40
0.0
 40
1.0
 40
1.0
 40
1.0
 40
2.0
 40
2.0
 40
2.0
 40
3.0
 40
3.0
 40
3.0
 40
4.0
 40
4.0
 40
4.0
 40
5.0
 40
5.0
 40
5.0
 40
6.0
 40
6.0
 40
6.0
 40
7.0
 40
7.0
 40
7.0
 40
8.0
 40
8.0
 40
8.0
 40
9.0
 40
9.0
 40
9.0
 40
10.0
 40
10.0
 40
10.0
 40
11.0
 40
11.0
 40
11.0
 40
11.0
 10
119.0281895642699
 20
-6.047494932193432
 30
0.0
 10
119.0227614852922
 20
-6.054069736492311
 30
0.0
 10
119.0173334063146
 20
-6.06064454079055
 30
0.0
 10
119.0120034183236
 20
-6.067330103234955
 30
0.0
 10
118.9482301543161
 20
-6.147322804812153
 30
0.0
 10
118.8984996974884
 20
-6.243171757152929
 30
0.0
 10
118.8524747430166
 20
-6.342092112068899
 30
0.0
 10
118.8060139607954
 20
-6.441949181344515
 30
0.0
 10
118.7633291908129
 20
-6.544936097157134
 30
0.0
 10
118.7273817990624
 20
-6.653731737398309
 30
0.0
 10
118.6911303178301
 20
-6.763447711719936
 30
0.0
 10
118.6617306838523
 20
-6.879071101531944
 30
0.0
 10
118.6384545828828
 20
-6.999067010330055
 30
0.0
 10
118.615043509884
 20
-7.119758744055709
 30
0.0
 10
118.5978271933365
 20
-7.244873853986347
 30
0.0
 10
118.5870292812839
 20
-7.373981142521668
 30
0.0
 10
118.5778769720742
 20
-7.483412467783468
 30
0.0
 10
118.5733358089368
 20
-7.595711876338157
 30
0.0
 10
118.5733427507741
 20
-7.710367153799826
 30
0.0
 10
118.5733470918643
 20
-7.782067034373721
 30
0.0
 10
118.5751300368749
 20
-7.854688212433295
 30
0.0
 10
118.5786745466264
 20
-7.928155694322582
 30
0.0
 10
118.5853882775943
 20
-8.06731200732468
 30
0.0
 10
118.5984219656105
 20
-8.209504600363642
 30
0.0
 10
118.6178392860895
 20
-8.353871636799381
 30
0.0
 10
118.6372475507962
 20
-8.498171343915046
 30
0.0
 10
118.6630334950083
 20
-8.644643466684835
 30
0.0
 10
118.6944291099424
 20
-8.792517657191586
 30
0.0
 10
118.7258000180877
 20
-8.940275478055779
 30
0.0
 10
118.7627717713651
 20
-9.089433160809427
 30
0.0
 10
118.8073514928452
 20
-9.239062175466816
 30
0.0
 10
118.8488920257946
 20
-9.378490346108002
 30
0.0
 10
118.8970385518378
 20
-9.518327773888005
 30
0.0
 10
118.945185077881
 20
-9.65816520166865
 30
0.0
  0
SPLINE
  5
1DB
330
70
100
AcDbEntity
  8
0
 62
    18
420
        0
370
    25
100
AcDbSpline
210
0.0
220
0.0
230
1.0
 70
     8
 71
     3
 72
    35
 73
    31
 74
     0
 42
0.0000000001
 43
0.0000000001
 40
0.0
 40
0.0
 40
0.0
 40
0.0
 40
1.0
 40
1.0
 40
1.0
 40
2.0
 40
2.0
 40
2.0
 40
3.0
 40
3.0
 40
3.0
 40
4.0
 40
4.0
 40
4.0
 40
5.0
 40
5.0
 40
5.0
 40
6.0
 40
6.0
 40
6.0
 40
7.0
 40
7.0
 40
7.0
 40
8.0
 40
8.0
 40
8.0
 40
9.0
 40
9.0
 40
9.0
 40
10.0
 40
10.0
 40
10.0
 40
10.0
 10
120.2809901482774
 20
-11.96613929334231
 30
0.0
 10
120.3375848312037
 20
-12.03418353119185
 30
0.0
 10
120.3941795141287
 20
-12.10222776904138
 30
0.0
 10
120.4522071105416
 20
-12.16774981749544
 30
0.0
 10
120.5568954800961
 20
-12.28595902908959
 30
0.0
 10
120.6662477329897
 20
-12.39595895435126
 30
0.0
 10
120.777141422101
 20
-12.50108027462845
 30
0.0
 10
120.8881418015717
 20
-12.6063027316917
 30
0.0
 10
121.0006865847063
 20
-12.70663719188322
 30
0.0
 10
121.1148315761441
 20
-12.80044094752526
 30
0.0
 10
121.2291093049213
 20
-12.8943537860163
 30
0.0
 10
121.3449909658775
 20
-12.98172072222861
 30
0.0
 10
121.4616744012754
 20
-13.06232618401787
 30
0.0
 10
121.5785055847687
 20
-13.14303371088273
 30
0.0
 10
121.6961405744512
 20
-13.21696262931786
 30
0.0
 10
121.8140015233294
 20
-13.28357014513989
 30
0.0
 10
121.9319995175896
 20
-13.35025511030065
 30
0.0
 10
122.0502239968293
 20
-13.40960163671035
 30
0.0
 10
122.1680844759582
 20
-13.46134823595815
 30
0.0
 10
122.2860154741794
 20
-13.51312579658717
 30
0.0
 10
122.4035820365775
 20
-13.55729433285259
 30
0.0
 10
122.5200767624283
 20
-13.59316951421917
 30
0.0
 10
122.6364488512866
 20
-13.62900692886043
 30
0.0
 10
122.7517513591096
 20
-13.65656844066704
 30
0.0
 10
122.8657998423808
 20
-13.67690852454377
 30
0.0
 10
122.9794530981468
 20
-13.69717812119999
 30
0.0
 10
123.091861005779
 20
-13.71027625396817
 30
0.0
 10
123.200827994886
 20
-13.71105604850309
 30
0.0
 10
123.2827794506294
 20
-13.71164251324636
 30
0.0
 10
123.3627846599258
 20
-13.70526150060329
 30
0.0
 10
123.4427898692221
 20
-13.69888048796023
 30
0.0
  0
LINE
  5
1DC
330
70
100
AcDbEntity
  8
0
 62
    18
420
        0
370
    25
100
AcDbLine
 10
124.1545445539326
 20
-13.48265926176162
 30
0.0
 11
124.6683576622336
 21
-13.18604126806131
 31
0.0
  0
LINE
  5
1DD
330
70
100
AcDbEntity
  8
0
 62
    18
420
        0
370
    25
100
AcDbLine
 10
120.0853967220326
 20
-5.247259756861518
 30
0.0
 11
119.5715836137328
 21
-5.54387775056182
 31
0.0
  0
SPLINE
  5
1DE
330
70
100
AcDbEntity
  8
0
 62
    18
420
        0
370
    25
100
AcDbSpline
210
0.0
220
0.0
230
1.0
 70
     8
 71
     3
 72
    38
 73
    34
 74
     0
 42
0.0000000001
 43
0.0000000001
 40
0.0
 40
0.0
 40
0.0
 40
0.0
 40
1.0
 40
1.0
 40
1.0
 40
2.0
 40
2.0
 40
2.0
 40
3.0
 40
3.0
 40
3.0
 40
4.0
 40
4.0
 40
4.0
 40
5.0
 40
5.0
 40
5.0
 40
6.0
 40
6.0
 40
6.0
 40
7.0
 40
7.0
 40
7.0
 40
8.0
 40
8.0
 40
8.0
 40
9.0
 40
9.0
 40
9.0
 40
10.0
 40
10.0
 40
10.0
 40
11.0
 40
11.0
 40
11.0
 40
11.0
 10
184.5534157432708
 20
-43.87440283695609
 30
0.0
 10
184.5479872054719
 20
-43.8809773620607
 30
0.0
 10
184.5425586676731
 20
-43.88755188716531
 30
0.0
 10
184.5372282802346
 20
-43.89423724765804
 30
0.0
 10
184.4734521423433
 20
-43.97422514300762
 30
0.0
 10
184.4237264718499
 20
-44.0700793991764
 30
0.0
 10
184.3777037757097
 20
-44.16900166423341
 30
0.0
 10
184.3312450352605
 20
-44.26886117317947
 30
0.0
 10
184.2885597695976
 20
-44.37184710242346
 30
0.0
 10
184.2526110512704
 20
-44.48064141628619
 30
0.0
 10
184.2163581488942
 20
-44.59035630524577
 30
0.0
 10
184.1869562802611
 20
-44.70597829127374
 30
0.0
 10
184.1636807618824
 20
-44.82597491509271
 30
0.0
 10
184.1402703697173
 20
-44.94666687891174
 30
0.0
 10
184.123057533789
 20
-45.07178432651669
 30
0.0
 10
184.1122607286391
 20
-45.2008920886413
 30
0.0
 10
184.1031093394076
 20
-45.31032403334481
 30
0.0
 10
184.0985674092807
 20
-45.42262273355745
 30
0.0
 10
184.0985739786156
 20
-45.53727797319674
 30
0.0
 10
184.0985780867613
 20
-45.6089778389615
 30
0.0
 10
184.1003609535373
 20
-45.68159926465594
 30
0.0
 10
184.1039064330115
 20
-45.75506689388896
 30
0.0
 10
184.1106219971763
 20
-45.8942234118677
 30
0.0
 10
184.1236612714008
 20
-46.03641584683501
 30
0.0
 10
184.143070074901
 20
-46.18078220274956
 30
0.0
 10
184.1624698424228
 20
-46.32508134734286
 30
0.0
 10
184.1882332097941
 20
-46.47155238916997
 30
0.0
 10
184.2196605572976
 20
-46.61942860331122
 30
0.0
 10
184.2510630287102
 20
-46.767187767093
 30
0.0
 10
184.2881205172376
 20
-46.91634987956186
 30
0.0
 10
184.3325785499034
 20
-47.0659705871223
 30
0.0
 10
184.3762667278254
 20
-47.21300039704708
 30
0.0
 10
184.4271013668836
 20
-47.36047305711123
 30
0.0
 10
184.477936005943
 20
-47.50794571717537
 30
0.0
  0
SPLINE
  5
1DF
330
70
100
AcDbEntity
  8
0
 62
    18
420
        0
370
    25
100
AcDbSpline
210
0.0
220
0.0
230
1.0
 70
     8
 71
     3
 72
    35
 73
    31
 74
     0
 42
0.0000000001
 43
0.0000000001
 40
0.0
 40
0.0
 40
0.0
 40
0.0
 40
1.0
 40
1.0
 40
1.0
 40
2.0
 40
2.0
 40
2.0
 40
3.0
 40
3.0
 40
3.0
 40
4.0
 40
4.0
 40
4.0
 40
5.0
 40
5.0
 40
5.0
 40
6.0
 40
6.0
 40
6.0
 40
7.0
 40
7.0
 40
7.0
 40
8.0
 40
8.0
 40
8.0
 40
9.0
 40
9.0
 40
9.0
 40
10.0
 40
10.0
 40
10.0
 40
10.0
 10
185.8217290017073
 20
-49.81131131156212
 30
0.0
 10
185.8732215677806
 20
-49.87314801961685
 30
0.0
 10
185.9247141338526
 20
-49.93498472767222
 30
0.0
 10
185.9774352651747
 20
-49.99465886276713
 30
0.0
 10
186.0820251925831
 20
-50.11304238947201
 30
0.0
 10
186.1914502539164
 20
-50.22291490718039
 30
0.0
 10
186.3023707840664
 20
-50.3279900168777
 30
0.0
 10
186.4133966086482
 20
-50.4331648720767
 30
0.0
 10
186.5259207426264
 20
-50.53353320679304
 30
0.0
 10
186.6400574807506
 20
-50.62734869388386
 30
0.0
 10
186.7543295506266
 20
-50.72127541785016
 30
0.0
 10
186.8702180510396
 20
-50.80863374557616
 30
0.0
 10
186.986904970572
 20
-50.88923662324532
 30
0.0
 10
187.103738505026
 20
-50.96994077691586
 30
0.0
 10
187.2213724662561
 20
-51.04387249367217
 30
0.0
 10
187.3392333068168
 20
-51.11048128530483
 30
0.0
 10
187.4572306969391
 20
-51.17716724761841
 30
0.0
 10
187.5754554924082
 20
-51.23651330679485
 30
0.0
 10
187.6933160056318
 20
-51.2882592295988
 30
0.0
 10
187.8112451393541
 20
-51.34003527980434
 30
0.0
 10
187.9288095665255
 20
-51.38420234118996
 30
0.0
 10
188.0453023377624
 20
-51.42007707049304
 30
0.0
 10
188.1616752969494
 20
-51.45591490287204
 30
0.0
 10
188.2769788034486
 20
-51.4834774516149
 30
0.0
 10
188.3910281067714
 20
-51.50381763317682
 30
0.0
 10
188.5046807342409
 20
-51.52408706938069
 30
0.0
 10
188.6170878678697
 20
-51.53718429138606
 30
0.0
 10
188.7260542836431
 20
-51.5379640166271
 30
0.0
 10
188.8080060153825
 20
-51.53855043431651
 30
0.0
 10
188.8880115805896
 20
-51.53216973032812
 30
0.0
 10
188.9680171457967
 20
-51.52578902633909
 30
0.0
  0
LINE
  5
1E0
330
70
100
AcDbEntity
  8
0
 62
    18
420
        0
370
    25
100
AcDbLine
 10
189.6797738061328
 20
-51.30956894066169
 30
0.0
 11
190.1935869144326
 21
-51.0129509469614
 31
0.0
  0
LINE
  5
1E1
330
70
100
AcDbEntity
  8
0
 62
    18
420
        0
370
    25
100
AcDbLine
 10
185.6106229010334
 20
-43.07416766166139
 30
0.0
 11
185.0968097927337
 21
-43.37078565536169
 31
0.0
  0
LINE
  5
1E2
330
70
100
AcDbEntity
  8
0
 62
    18
420
        0
370
    25
100
AcDbLine
 10
177.2828918606327
 20
-51.66155216416157
 30
0.0
 11
113.4443742174328
 21
-14.80836037096185
 31
0.0
  0
LINE
  5
1E3
330
70
100
AcDbEntity
  8
0
 62
    18
420
        0
370
    25
100
AcDbLine
 10
112.6632288077332
 20
-16.28186318266151
 30
0.0
 11
175.6160952960326
 21
-52.62377944696172
 31
0.0
  0
LINE
  5
1E4
330
70
100
AcDbEntity
  8
0
 62
    18
420
        0
370
    25
100
AcDbLine
 10
164.3884018311336
 20
-59.10538664406174
 30
0.0
 11
164.2705504620328
 21
-59.17342079126189
 31
0.0
  0
LINE
  5
1E5
330
70
100
AcDbEntity
  8
0
 62
    18
420
        0
370
    25
100
AcDbLine
 10
165.6037746965331
 20
-61.48288397596153
 30
0.0
 11
165.7216260655325
 21
-61.41484982876137
 31
0.0
  0
LINE
  5
1E6
330
70
100
AcDbEntity
  8
0
 62
    18
420
        0
370
    25
100
AcDbLine
 10
98.83960310633325
 20
-21.26487059826137
 30
0.0
 11
98.72175173723306
 21
-21.33290474546154
 31
0.0
  0
LINE
  5
1E7
330
70
100
AcDbEntity
  8
0
 62
    18
420
        0
370
    25
100
AcDbLine
 10
100.0549767400332
 20
-23.64236837376194
 30
0.0
 11
100.1728281090332
 21
-23.57433422656178
 31
0.0
  0
LINE
  5
1E8
330
70
100
AcDbEntity
  8
0
 62
    18
420
        0
370
    25
100
AcDbLine
 10
171.9795910105333
 20
-54.72308257846188
 30
0.0
 11
108.1067285700326
 21
-17.85006395576142
 31
0.0
  0
LINE
  5
1E9
330
70
100
AcDbEntity
  8
0
 62
    18
420
        0
370
    25
100
AcDbLine
 10
107.3327226608325
 20
-19.32768805996162
 30
0.0
 11
170.3127946654328
 21
-55.68530973446166
 31
0.0
  0
LINE
  5
1EA
330
70
100
AcDbEntity
  8
0
 62
    18
420
        0
370
    25
100
AcDbLine
 10
182.5861927107334
 20
-48.60002174986189
 30
0.0
 11
118.7268548537326
 21
-11.73481070306178
 31
0.0
  0
LINE
  5
1EB
330
70
100
AcDbEntity
  8
0
 62
    18
420
        0
370
    25
100
AcDbLine
 10
117.9198158031335
 20
-13.19336556086186
 30
0.0
 11
180.9193960364335
 21
-49.56224909606191
 31
0.0
  0
LINE
  5
1EC
330
70
100
AcDbEntity
  8
0
 62
    18
420
        0
370
    25
100
AcDbLine
 10
166.676289940833
 20
-57.78461311936172
 30
0.0
 11
102.8377722977332
 21
-20.93142132626146
 31
0.0
  0
LINE
  5
1ED
330
70
100
AcDbEntity
  8
0
 62
    18
420
        0
370
    25
100
AcDbLine
 10
102.0566271074331
 20
-22.40492401116139
 30
0.0
 11
165.0094935958325
 21
-58.7468402754616
 31
0.0
  0
LINE
  5
1EE
330
70
100
AcDbEntity
  8
0
 62
    18
420
        0
370
    25
100
AcDbLine
 10
120.3740114259332
 20
-9.491452205461683
 30
0.0
 11
120.3251922861331
 21
-9.384454771261449
 31
0.0
  0
LINE
  5
1EF
330
70
100
AcDbEntity
  8
0
 62
    18
420
        0
370
    25
100
AcDbLine
 10
120.3251922861331
 20
-9.384454771261449
 30
0.0
 11
120.1402691474336
 21
-9.355362985961559
 31
0.0
  0
LINE
  5
1F0
330
70
100
AcDbEntity
  8
0
 62
    18
420
        0
370
    25
100
AcDbLine
 10
120.1402691474336
 20
-9.355362985961559
 30
0.0
 11
120.0041655862333
 21
-9.433268380761917
 31
0.0
  0
LINE
  5
1F1
330
70
100
AcDbEntity
  8
0
 62
   144
420
    29337
370
    25
100
AcDbLine
 10
120.0041655862333
 20
-9.433268380761917
 30
0.0
 11
120.052984287033
 21
-9.540266068461509
 31
0.0
  0
LINE
  5
1F2
330
70
100
AcDbEntity
  8
0
 62
   144
420
    29337
370
    25
100
AcDbLine
 10
120.2379074257325
 20
-9.569357853761399
 30
0.0
 11
120.3740114259332
 21
-9.491452205461683
 31
0.0
  0
LINE
  5
1F3
330
70
100
AcDbEntity
  8
0
 62
   144
420
    29337
370
    25
100
AcDbLine
 10
120.052984287033
 20
-9.540266068461509
 30
0.0
 11
120.2379074257325
 21
-9.569357853761399
 31
0.0
  0
LWPOLYLINE
  5
1F4
330
70
100
AcDbEntity
  8
0
 62
   144
420
    29337
370
    25
100
AcDbPolyline
 90
       14
 70
     0
 43
0.0
 10
120.3860928913327
 20
-9.551212482961403
 10
120.419649561833
 20
-9.518156406961475
 10
120.439086338333
 20
-9.462974053261666
 10
120.4204632759336
 20
-9.407698225361784
 10
120.3666154333326
 20
-9.360744246261562
 10
120.2857406071329
 20
-9.329260454461421
 10
120.1901519319331
 20
-9.318039584761304
 10
120.0944008638337
 20
-9.328790521161913
 10
120.0130652527328
 20
-9.359876177861361
 10
119.9585274503336
 20
-9.406564179261486
 10
119.9390906737335
 20
-9.461746532961935
 10
119.957713736233
 20
-9.517022360861819
 10
120.0115615788327
 20
-9.563976339961397
 10
120.0115615788327
 20
-9.563976339961397
  0
LINE
  5
1F5
330
70
100
AcDbEntity
  8
0
 62
    18
420
        0
370
    25
100
AcDbLine
 10
120.3251922861331
 20
-9.519396186261687
 30
0.0
 11
120.3251922861331
 21
-9.384454771261449
 31
0.0
  0
LINE
  5
1F6
330
70
100
AcDbEntity
  8
0
 62
    18
420
        0
370
    25
100
AcDbLine
 10
120.1402691474336
 20
-9.532280114861505
 30
0.0
 11
120.1402691474336
 21
-9.355362985961559
 31
0.0
  0
LINE
  5
1F7
330
70
100
AcDbEntity
  8
0
 62
   144
420
    29337
370
    25
100
AcDbLine
 10
120.1402691474336
 20
-9.532280114861505
 30
0.0
 11
120.1105077101336
 21
-9.549315485261406
 31
0.0
  0
LINE
  5
1F8
330
70
100
AcDbEntity
  8
0
 62
   144
420
    29337
370
    25
100
AcDbLine
 10
120.2676689384335
 20
-9.552322385661536
 30
0.0
 11
120.1402691474336
 21
-9.532280114861505
 31
0.0
  0
LWPOLYLINE
  5
1F9
330
70
100
AcDbEntity
  8
0
 62
   144
420
    29337
370
    25
100
AcDbPolyline
 90
       17
 70
     0
 43
0.0
 10
185.5591883798327
 20
-47.38292632716171
 10
185.6395694444333
 20
-47.41482813686151
 10
185.7349741043327
 20
-47.4265404034613
 10
185.8308897948328
 20
-47.41628697456192
 10
185.9127060474325
 20
-47.38562477136176
 10
185.9679680293326
 20
-47.33922151706154
 10
185.9882608588328
 20
-47.28414101716175
 10
185.9705016695336
 20
-47.22877285556184
 10
185.9173891769327
 20
-47.18154285896167
 10
185.8370076733329
 20
-47.14964130276186
 10
185.7415959889338
 20
-47.13792498096167
 10
185.6456807374328
 20
-47.1481781564618
 10
185.5638640458326
 20
-47.17884061306185
 10
185.5086020639326
 20
-47.22524386736145
 10
185.4883096734328
 20
-47.28032411386133
 10
185.5060684236327
 20
-47.33569252886178
 10
185.5591883798327
 20
-47.38292632716171
  0
LINE
  5
1FA
330
70
100
AcDbEntity
  8
0
 62
   144
420
    29337
370
    25
100
AcDbLine
 10
185.6009734678333
 20
-47.35942880136184
 30
0.0
 11
185.7854357358327
 21
-47.38947766406148
 31
0.0
  0
LINE
  5
1FB
330
70
100
AcDbEntity
  8
0
 62
    18
420
        0
370
    25
100
AcDbLine
 10
185.7854357358327
 20
-47.38947766406148
 30
0.0
 11
185.9227510463326
 21
-47.31228345586177
 31
0.0
  0
LINE
  5
1FC
330
70
100
AcDbEntity
  8
0
 62
    18
420
        0
370
    25
100
AcDbLine
 10
185.9227510463326
 20
-47.31228345586177
 30
0.0
 11
185.8755970644336
 21
-47.20503632966189
 31
0.0
  0
LINE
  5
1FD
330
70
100
AcDbEntity
  8
0
 62
    18
420
        0
370
    25
100
AcDbLine
 10
185.8755970644336
 20
-47.20503632966189
 30
0.0
 11
185.6911343574325
 21
-47.17498772036149
 31
0.0
  0
LINE
  5
1FE
330
70
100
AcDbEntity
  8
0
 62
   144
420
    29337
370
    25
100
AcDbLine
 10
185.6911343574325
 20
-47.17498772036149
 30
0.0
 11
185.553819485933
 21
-47.25218167516133
 31
0.0
  0
LINE
  5
1FF
330
70
100
AcDbEntity
  8
0
 62
   144
420
    29337
370
    25
100
AcDbLine
 10
185.553819485933
 20
-47.25218167516133
 30
0.0
 11
185.6009734678333
 21
-47.35942880136184
 31
0.0
  0
LINE
  5
200
330
70
100
AcDbEntity
  8
0
 62
    18
420
        0
370
    25
100
AcDbLine
 10
185.9227510463326
 20
-47.3937439872616
 30
0.0
 11
185.9227510463326
 21
-47.37964595586158
 31
0.0
  0
LINE
  5
201
330
70
100
AcDbEntity
  8
0
 62
   144
420
    29337
370
    25
100
AcDbLine
 10
185.7854357358327
 20
-47.42675530156172
 30
0.0
 11
185.7854357358327
 21
-47.42396307186182
 31
0.0
  0
LINE
  5
202
330
70
100
AcDbEntity
  8
0
 62
    18
420
        0
370
    25
100
AcDbLine
 10
185.8755970644336
 20
-47.33879211976137
 30
0.0
 11
185.8755970644336
 21
-47.20503632966189
 31
0.0
  0
LINE
  5
203
330
70
100
AcDbEntity
  8
0
 62
   144
420
    29337
370
    25
100
AcDbLine
 10
185.6911343574325
 20
-47.35190491256184
 30
0.0
 11
185.6911343574325
 21
-47.17498772036149
 31
0.0
  0
LINE
  5
204
330
70
100
AcDbEntity
  8
0
 62
   144
420
    29337
370
    25
100
AcDbLine
 10
185.8160690311328
 20
-47.37225514066147
 30
0.0
 11
185.6911343574325
 21
-47.35190491256184
 31
0.0
  0
SPLINE
  5
205
330
70
100
AcDbEntity
  8
0
 62
   144
420
    29337
370
    25
100
AcDbSpline
210
0.0
220
0.0
230
1.0
 70
     8
 71
     3
 72
    11
 73
     7
 74
     0
 42
0.0000000001
 43
0.0000000001
 40
0.0
 40
0.0
 40
0.0
 40
0.0
 40
1.0
 40
1.0
 40
1.0
 40
2.0
 40
2.0
 40
2.0
 40
2.0
 10
117.8792063816775
 20
-12.9016448051373
 30
0.0
 10
117.880815854358
 20
-12.96774035883751
 30
0.0
 10
117.8824253270372
 20
-13.03383591253836
 30
0.0
 10
117.8893336986352
 20
-13.08271979897007
 30
0.0
 10
117.8961027984943
 20
-13.13061819355379
 30
0.0
 10
117.9079593008242
 20
-13.16199189499252
 30
0.0
 10
117.9198158031553
 20
-13.19336559643188
 30
0.0
  0
SPLINE
  5
206
330
70
100
AcDbEntity
  8
0
 62
   144
420
    29337
370
    25
100
AcDbSpline
210
0.0
220
0.0
230
1.0
 70
     8
 71
     3
 72
    32
 73
    28
 74
     0
 42
0.0000000001
 43
0.0000000001
 40
0.0
 40
0.0
 40
0.0
 40
0.0
 40
1.0
 40
1.0
 40
1.0
 40
2.0
 40
2.0
 40
2.0
 40
3.0
 40
3.0
 40
3.0
 40
4.0
 40
4.0
 40
4.0
 40
5.0
 40
5.0
 40
5.0
 40
6.0
 40
6.0
 40
6.0
 40
7.0
 40
7.0
 40
7.0
 40
8.0
 40
8.0
 40
8.0
 40
9.0
 40
9.0
 40
9.0
 40
9.0
 10
118.8819979518546
 20
-11.82437270257283
 30
0.0
 10
118.8639594659028
 20
-11.80663936272377
 30
0.0
 10
118.845920979951
 20
-11.78890602287471
 30
0.0
 10
118.8260086624213
 20
-11.77340495802561
 30
0.0
 10
118.7623751420234
 20
-11.72386841739724
 30
0.0
 10
118.6796052834989
 20
-11.69712878641651
 30
0.0
 10
118.5967496726154
 20
-11.68416890159548
 30
0.0
 10
118.5255689855058
 20
-11.6730351534219
 30
0.0
 10
118.4543250096386
 20
-11.67207142325676
 30
0.0
 10
118.3863310375161
 20
-11.68768355121308
 30
0.0
 10
118.317889525701
 20
-11.70339843896955
 30
0.0
 10
118.2527409418032
 20
-11.73590810920766
 30
0.0
 10
118.1976058463269
 20
-11.78239783555992
 30
0.0
 10
118.1500862469454
 20
-11.82246620131712
 30
0.0
 10
118.110004964504
 20
-11.87291936843775
 30
0.0
 10
118.0762545327516
 20
-11.92991752675413
 30
0.0
 10
118.0308353880058
 20
-12.00662195595521
 30
0.0
 10
117.9968814346601
 20
-12.09517938571974
 30
0.0
 10
117.9703093191546
 20
-12.18896681031566
 30
0.0
 10
117.9434173359738
 20
-12.28388322162371
 30
0.0
 10
117.9240859812982
 20
-12.38415630004549
 30
0.0
 10
117.9097331025873
 20
-12.48549875283444
 30
0.0
 10
117.8950267028456
 20
-12.58933733821013
 30
0.0
 10
117.8855470457648
 20
-12.69429862552516
 30
0.0
 10
117.881841821919
 20
-12.7875352327913
 30
0.0
 10
117.8802746820677
 20
-12.82697004400205
 30
0.0
 10
117.879740531872
 20
-12.86430742456967
 30
0.0
 10
117.8792063816775
 20
-12.9016448051373
 30
0.0
  0
LWPOLYLINE
  5
207
330
70
100
AcDbEntity
  8
0
 62
   144
420
    29337
370
    25
100
AcDbPolyline
 90
       12
 70
     0
 43
0.0
 10
100.4490246940332
 20
-22.96387451286165
 10
100.4269823313328
 20
-22.71710687986157
 10
100.3618859201331
 20
-22.45642824186145
 10
100.2567793629335
 20
-22.19402770936189
 10
100.1165772677327
 20
-21.94217482656163
 10
99.9478353078331
 20
-21.71264587116185
 10
99.75844375183308
 20
-21.5161734186619
 10
99.55725826063352
 20
-21.36194429316192
 10
99.35368608063269
 20
-21.25717018666146
 10
99.15724601303345
 20
-21.20674998316166
 10
98.97712338883319
 20
-21.21304149566156
 10
98.83960310633325
 20
-21.26487059826137
  0
SPLINE
  5
208
330
70
100
AcDbEntity
  8
0
 62
   144
420
    29337
370
    25
100
AcDbSpline
210
0.0
220
0.0
230
1.0
 70
     8
 71
     3
 72
     8
 73
     4
 74
     0
 42
0.0000000001
 43
0.0000000001
 40
0.0
 40
0.0
 40
0.0
 40
0.0
 40
1.0
 40
1.0
 40
1.0
 40
1.0
 10
100.1728281090435
 20
-23.57433422657782
 30
0.0
 10
100.3691019569542
 20
-23.43625311455413
 30
0.0
 10
100.4748810653047
 20
-23.20245629115749
 30
0.0
 10
100.4490246940204
 20
-22.96387451285973
 30
0.0
  0
LWPOLYLINE
  5
209
330
70
100
AcDbEntity
  8
0
 62
   144
420
    29337
370
    25
100
AcDbPolyline
 90
       12
 70
     0
 43
0.0
 10
122.6050368516328
 20
-10.17348094546157
 10
122.5829944888329
 20
-9.9267133125616
 10
122.5178980776326
 20
-9.666034674461362
 10
122.4127915205337
 20
-9.403634141961809
 10
122.2725894252329
 20
-9.151781259161548
 10
122.1038474653326
 20
-8.922252303861871
 10
121.9144559094326
 20
-8.725779851261822
 10
121.7132704182337
 20
-8.571550725761843
 10
121.5096982381328
 20
-8.466776619261375
 10
121.3132581706336
 20
-8.416356415861681
 10
121.1331355463333
 20
-8.422647928261474
 10
120.9956152638333
 20
-8.4744770309614
  0
SPLINE
  5
20A
330
70
100
AcDbEntity
  8
0
 62
   144
420
    29337
370
    25
100
AcDbSpline
210
0.0
220
0.0
230
1.0
 70
     8
 71
     3
 72
     8
 73
     4
 74
     0
 42
0.0000000001
 43
0.0000000001
 40
0.0
 40
0.0
 40
0.0
 40
0.0
 40
1.0
 40
1.0
 40
1.0
 40
1.0
 10
122.3288402666437
 20
-10.78394065917774
 30
0.0
 10
122.5251141145545
 20
-10.64585954715405
 30
0.0
 10
122.6308932229049
 20
-10.4120627237574
 30
0.0
 10
122.60503685162
 20
-10.17348094546029
 30
0.0
  0
SPLINE
  5
20B
330
70
100
AcDbEntity
  8
0
 62
   144
420
    29337
370
    25
100
AcDbSpline
210
0.0
220
0.0
230
1.0
 70
     8
 71
     3
 72
    14
 73
    10
 74
     0
 42
0.0000000001
 43
0.0000000001
 40
0.0
 40
0.0
 40
0.0
 40
0.0
 40
1.0
 40
1.0
 40
1.0
 40
2.0
 40
2.0
 40
2.0
 40
3.0
 40
3.0
 40
3.0
 40
3.0
 10
112.5817980231792
 20
-15.959773556397
 30
0.0
 10
112.5839564051949
 20
-16.02400883445767
 30
0.0
 10
112.5861147872106
 20
-16.08824411251897
 30
0.0
 10
112.5920366341607
 20
-16.13946256580652
 30
0.0
 10
112.5979395585895
 20
-16.19051735694394
 30
0.0
 10
112.6075819350176
 20
-16.22863837766605
 30
0.0
 10
112.6233740233594
 20
-16.25125592415231
 30
0.0
 10
112.6363157016528
 20
-16.2697910921468
 30
0.0
 10
112.6533874445155
 20
-16.27791433344331
 30
0.0
 10
112.6704591873782
 20
-16.28603757473982
 30
0.0
  0
SPLINE
  5
20C
330
70
100
AcDbEntity
  8
0
 62
   144
420
    29337
370
    25
100
AcDbSpline
210
0.0
220
0.0
230
1.0
 70
     8
 71
     3
 72
    32
 73
    28
 74
     0
 42
0.0000000001
 43
0.0000000001
 40
0.0
 40
0.0
 40
0.0
 40
0.0
 40
1.0
 40
1.0
 40
1.0
 40
2.0
 40
2.0
 40
2.0
 40
3.0
 40
3.0
 40
3.0
 40
4.0
 40
4.0
 40
4.0
 40
5.0
 40
5.0
 40
5.0
 40
6.0
 40
6.0
 40
6.0
 40
7.0
 40
7.0
 40
7.0
 40
8.0
 40
8.0
 40
8.0
 40
9.0
 40
9.0
 40
9.0
 40
9.0
 10
113.521454766741
 20
-14.85285794904331
 30
0.0
 10
113.5064805285941
 20
-14.84051746977528
 30
0.0
 10
113.4915062904458
 20
-14.82817699050724
 30
0.0
 10
113.4754807319429
 20
-14.81733103822269
 30
0.0
 10
113.4074360807878
 20
-14.7712790370079
 30
0.0
 10
113.320437611486
 20
-14.75217124217945
 30
0.0
 10
113.2355110096219
 20
-14.74812680250961
 30
0.0
 10
113.1681865516189
 20
-14.74492062561455
 30
0.0
 10
113.1021641212498
 20
-14.75118074194939
 30
0.0
 10
113.040446449484
 20
-14.77248121172538
 30
0.0
 10
112.9784431197992
 20
-14.79388026992279
 30
0.0
 10
112.9207844897626
 20
-14.83045923118472
 30
0.0
 10
112.8720174353952
 20
-14.87837666680651
 30
0.0
 10
112.8275188280696
 20
-14.92210002019356
 30
0.0
 10
112.7904234043189
 20
-14.97526386087979
 30
0.0
 10
112.7592419079178
 20
-15.03425511090379
 30
0.0
 10
112.7236243885428
 20
-15.10163872725027
 30
0.0
 10
112.6957231747288
 20
-15.17662576318963
 30
0.0
 10
112.6731069204518
 20
-15.2555040044397
 30
0.0
 10
112.6458259129998
 20
-15.35065140864829
 30
0.0
 10
112.6262348130953
 20
-15.451460731149
 30
0.0
 10
112.611781993658
 20
-15.55313917531803
 30
0.0
 10
112.59721234929
 20
-15.65563950599133
 30
0.0
 10
112.5878643885407
 20
-15.75902306567501
 30
0.0
 10
112.5842756871337
 20
-15.85080941042478
 30
0.0
 10
112.582804796585
 20
-15.88842961105147
 30
0.0
 10
112.5823014098828
 20
-15.92410158372424
 30
0.0
 10
112.5817980231792
 20
-15.959773556397
 30
0.0
  0
SPLINE
  5
20D
330
70
100
AcDbEntity
  8
0
 62
   144
420
    29337
370
    25
100
AcDbSpline
210
0.0
220
0.0
230
1.0
 70
     8
 71
     3
 72
    14
 73
    10
 74
     0
 42
0.0000000001
 43
0.0000000001
 40
0.0
 40
0.0
 40
0.0
 40
0.0
 40
1.0
 40
1.0
 40
1.0
 40
2.0
 40
2.0
 40
2.0
 40
3.0
 40
3.0
 40
3.0
 40
3.0
 10
101.9751972010018
 20
-22.08283387803678
 30
0.0
 10
101.9773550590561
 20
-22.14706946303429
 30
0.0
 10
101.9795129171092
 20
-22.2113050480318
 30
0.0
 10
101.9854344948935
 20
-22.26252364778522
 30
0.0
 10
101.9913371574917
 20
-22.31357864091923
 30
0.0
 10
102.0009795334636
 20
-22.3516996758184
 30
0.0
 10
102.0167718840929
 20
-22.37431700613166
 30
0.0
 10
102.0297138520036
 20
-22.39285210391464
 30
0.0
 10
102.0467861086028
 20
-22.40097500014712
 30
0.0
 10
102.0638583652008
 20
-22.4090978963796
 30
0.0
  0
SPLINE
  5
20E
330
70
100
AcDbEntity
  8
0
 62
   144
420
    29337
370
    25
100
AcDbSpline
210
0.0
220
0.0
230
1.0
 70
     8
 71
     3
 72
    32
 73
    28
 74
     0
 42
0.0000000001
 43
0.0000000001
 40
0.0
 40
0.0
 40
0.0
 40
0.0
 40
1.0
 40
1.0
 40
1.0
 40
2.0
 40
2.0
 40
2.0
 40
3.0
 40
3.0
 40
3.0
 40
4.0
 40
4.0
 40
4.0
 40
5.0
 40
5.0
 40
5.0
 40
6.0
 40
6.0
 40
6.0
 40
7.0
 40
7.0
 40
7.0
 40
8.0
 40
8.0
 40
8.0
 40
9.0
 40
9.0
 40
9.0
 40
9.0
 10
102.9148535055331
 20
-20.97591852412919
 30
0.0
 10
102.8998791921128
 20
-20.9635780913285
 30
0.0
 10
102.884904878692
 20
-20.95123765852718
 30
0.0
 10
102.8688792512205
 20
-20.94039174003193
 30
0.0
 10
102.8008344257056
 20
-20.89433996247043
 30
0.0
 10
102.7138359617318
 20
-20.87523206890439
 30
0.0
 10
102.6289093093852
 20
-20.87118763104222
 30
0.0
 10
102.5615847020583
 20
-20.86798145037461
 30
0.0
 10
102.4955620915206
 20
-20.87424165685982
 30
0.0
 10
102.4338443102175
 20
-20.89554229370408
 30
0.0
 10
102.3718413379743
 20
-20.91694135840062
 30
0.0
 10
102.3141830711503
 20
-20.95352017488947
 30
0.0
 10
102.2654161741879
 20
-21.00143724189238
 30
0.0
 10
102.2209172505829
 20
-21.0451607108167
 30
0.0
 10
102.183821492224
 20
-21.09832467580261
 30
0.0
 10
102.1526397686506
 20
-21.15731619288249
 30
0.0
 10
102.1170221760012
 20
-21.22469976198646
 30
0.0
 10
102.0891209484087
 20
-21.29968685744276
 30
0.0
 10
102.0665047811845
 20
-21.37856508641904
 30
0.0
 10
102.0392238787415
 20
-21.47371247582107
 30
0.0
 10
102.0196330305588
 20
-21.57452167905495
 30
0.0
 10
102.0051798543913
 20
-21.67620025729673
 30
0.0
 10
101.9906098410548
 20
-21.77870078893028
 30
0.0
 10
101.9812608997123
 20
-21.88208480816031
 30
0.0
 10
101.9776731088378
 20
-21.97387074585022
 30
0.0
 10
101.9762025945949
 20
-22.01149070011133
 30
0.0
 10
101.9756998977981
 20
-22.04716228907437
 30
0.0
 10
101.9751972010018
 20
-22.08283387803678
 30
0.0
  0
SPLINE
  5
20F
330
70
100
AcDbEntity
  8
0
 62
   144
420
    29337
370
    25
100
AcDbSpline
210
0.0
220
0.0
230
1.0
 70
     8
 71
     3
 72
    32
 73
    28
 74
     0
 42
0.0000000001
 43
0.0000000001
 40
0.0
 40
0.0
 40
0.0
 40
0.0
 40
1.0
 40
1.0
 40
1.0
 40
2.0
 40
2.0
 40
2.0
 40
3.0
 40
3.0
 40
3.0
 40
4.0
 40
4.0
 40
4.0
 40
5.0
 40
5.0
 40
5.0
 40
6.0
 40
6.0
 40
6.0
 40
7.0
 40
7.0
 40
7.0
 40
8.0
 40
8.0
 40
8.0
 40
9.0
 40
9.0
 40
9.0
 40
9.0
 10
107.2726047363184
 20
-19.02470560198858
 30
0.0
 10
107.2745384189321
 20
-18.94916815924256
 30
0.0
 10
107.2764721015446
 20
-18.87363071649653
 30
0.0
 10
107.2827322727922
 20
-18.79233114888824
 30
0.0
 10
107.2889721928511
 20
-18.71129457933205
 30
0.0
 10
107.2995106550834
 20
-18.62453310470469
 30
0.0
 10
107.3137404446169
 20
-18.53957771644301
 30
0.0
 10
107.3291441486668
 20
-18.44761376607881
 30
0.0
 10
107.348873348904
 20
-18.35776618715726
 30
0.0
 10
107.3753780702939
 20
-18.27277697297754
 30
0.0
 10
107.4056015417252
 20
-18.17586333072649
 30
0.0
 10
107.4446351957517
 20
-18.08526700038767
 30
0.0
 10
107.4973557694528
 20
-18.00980975425246
 30
0.0
 10
107.5358979546786
 20
-17.95464557539519
 30
0.0
 10
107.5817552039311
 20
-17.90757257942569
 30
0.0
 10
107.6348326977595
 20
-17.8725695741231
 30
0.0
 10
107.6880357449114
 20
-17.8374837701926
 30
0.0
 10
107.7484932356122
 20
-17.8145251269148
 30
0.0
 10
107.8105256224075
 20
-17.8047339484243
 30
0.0
 10
107.8708993392268
 20
-17.79520457404325
 30
0.0
 10
107.9327648565493
 20
-17.79814791495437
 30
0.0
 10
107.9951523618518
 20
-17.80813572457143
 30
0.0
 10
108.0695865210688
 20
-17.82005212045354
 30
0.0
 10
108.1447637162554
 20
-17.84199612966051
 30
0.0
 10
108.2020970100344
 20
-17.88590100797877
 30
0.0
 10
108.2221389967401
 20
-17.90124882648951
 30
0.0
 10
108.240000476022
 20
-17.91928024187659
 30
0.0
 10
108.2578619553052
 20
-17.93731165726431
 30
0.0
  0
SPLINE
  5
210
330
70
100
AcDbEntity
  8
0
 62
   144
420
    29337
370
    25
100
AcDbSpline
210
0.0
220
0.0
230
1.0
 70
     8
 71
     3
 72
    14
 73
    10
 74
     0
 42
0.0000000001
 43
0.0000000001
 40
0.0
 40
0.0
 40
0.0
 40
0.0
 40
1.0
 40
1.0
 40
1.0
 40
2.0
 40
2.0
 40
2.0
 40
3.0
 40
3.0
 40
3.0
 40
3.0
 10
107.3327221668783
 20
-19.32768836463904
 30
0.0
 10
107.3220851377651
 20
-19.31891513087499
 30
0.0
 10
107.3114481086519
 20
-19.3101418971103
 30
0.0
 10
107.3031315121075
 20
-19.2946943859912
 30
0.0
 10
107.2856870667786
 20
-19.26229251802044
 30
0.0
 10
107.2784518285928
 20
-19.20052583206542
 30
0.0
 10
107.2752402314392
 20
-19.12517522578349
 30
0.0
 10
107.2738818729919
 20
-19.09330537170122
 30
0.0
 10
107.2732433046545
 20
-19.0590054868449
 30
0.0
 10
107.2726047363184
 20
-19.02470560198858
 30
0.0
  0
SPLINE
  5
211
330
70
100
AcDbEntity
  8
0
 62
    18
420
        0
370
    25
100
AcDbSpline
210
0.0
220
0.0
230
1.0
 70
     9
 71
     3
 72
    77
 73
    73
 74
     0
 42
0.0000000001
 43
0.0000000001
 40
0.0
 40
0.0
 40
0.0
 40
0.0
 40
1.0
 40
1.0
 40
1.0
 40
2.0
 40
2.0
 40
2.0
 40
3.0
 40
3.0
 40
3.0
 40
4.0
 40
4.0
 40
4.0
 40
5.0
 40
5.0
 40
5.0
 40
6.0
 40
6.0
 40
6.0
 40
7.0
 40
7.0
 40
7.0
 40
8.0
 40
8.0
 40
8.0
 40
9.0
 40
9.0
 40
9.0
 40
10.0
 40
10.0
 40
10.0
 40
11.0
 40
11.0
 40
11.0
 40
12.0
 40
12.0
 40
12.0
 40
13.0
 40
13.0
 40
13.0
 40
14.0
 40
14.0
 40
14.0
 40
15.0
 40
15.0
 40
15.0
 40
16.0
 40
16.0
 40
16.0
 40
17.0
 40
17.0
 40
17.0
 40
18.0
 40
18.0
 40
18.0
 40
19.0
 40
19.0
 40
19.0
 40
20.0
 40
20.0
 40
20.0
 40
21.0
 40
21.0
 40
21.0
 40
22.0
 40
22.0
 40
22.0
 40
23.0
 40
23.0
 40
23.0
 40
24.0
 40
24.0
 40
24.0
 40
24.0
 10
120.1923267867456
 20
-9.222279033422434
 30
0.0
 10
120.2132948508749
 20
-9.219239137466029
 30
0.0
 10
120.234159549032
 20
-9.217346870388034
 30
0.0
 10
120.2549308077325
 20
-9.216752039765617
 30
0.0
 10
120.2757020664318
 20
-9.216157209143203
 30
0.0
 10
120.2965638258756
 20
-9.216902501296353
 30
0.0
 10
120.3164052012677
 20
-9.219124948425253
 30
0.0
 10
120.3362465766598
 20
-9.221347395554156
 30
0.0
 10
120.3552642122175
 20
-9.225014951417332
 30
0.0
 10
120.373396033129
 20
-9.230319080876942
 30
0.0
 10
120.3915278540405
 20
-9.235623210337193
 30
0.0
 10
120.4085030024846
 20
-9.242543308150882
 30
0.0
 10
120.4235918818693
 20
-9.250812434265714
 30
0.0
 10
120.4386807612528
 20
-9.259081560380547
 30
0.0
 10
120.4522650736566
 20
-9.268917546535108
 30
0.0
 10
120.4636816080498
 20
-9.279835595725526
 30
0.0
 10
120.4750981424444
 20
-9.2907536449153
 30
0.0
 10
120.4843550185455
 20
-9.302659222159723
 30
0.0
 10
120.4915442770354
 20
-9.315451913897069
 30
0.0
 10
120.5059227940152
 20
-9.341037297371764
 30
0.0
 10
120.5113516015702
 20
-9.369317750661208
 30
0.0
 10
120.5086706944864
 20
-9.397091725564227
 30
0.0
 10
120.5059897874026
 20
-9.424865700467885
 30
0.0
 10
120.4951874790122
 20
-9.452303217217659
 30
0.0
 10
120.4778230728185
 20
-9.476764327002342
 30
0.0
 10
120.4604586666249
 20
-9.501225436787668
 30
0.0
 10
120.4361391046714
 20
-9.523165486868142
 30
0.0
 10
120.4070353254916
 20
-9.54059534273497
 30
0.0
 10
120.3779315463105
 20
-9.558025198601797
 30
0.0
 10
120.3432934320389
 20
-9.571378657201618
 30
0.0
 10
120.3059640208484
 20
-9.579692863860472
 30
0.0
 10
120.268634609658
 20
-9.588007070519326
 30
0.0
 10
120.2275845662047
 20
-9.59152527588756
 30
0.0
 10
120.1862976707954
 20
-9.590247856083591
 30
0.0
 10
120.1656542230901
 20
-9.589609146181606
 30
0.0
 10
120.1445604776004
 20
-9.587778500615325
 30
0.0
 10
120.1236940072746
 20
-9.584808253076111
 30
0.0
 10
120.1028275369488
 20
-9.581838005536255
 30
0.0
 10
120.0824715479793
 20
-9.577795005387951
 30
0.0
 10
120.0626370462171
 20
-9.572728949927086
 30
0.0
 10
120.0428025444548
 20
-9.56766289446622
 30
0.0
 10
120.0232270261696
 20
-9.561459886275997
 30
0.0
 10
120.0051413303335
 20
-9.554489902029478
 30
0.0
 10
119.9870556344961
 20
-9.547519917782961
 30
0.0
 10
119.970351806641
 20
-9.539794650667635
 30
0.0
 10
119.9550848118254
 20
-9.531312291948879
 30
0.0
 10
119.9245508221955
 20
-9.514347574510722
 30
0.0
 10
119.9011163335063
 20
-9.494886675978513
 30
0.0
 10
119.8867437932267
 20
-9.474835542810373
 30
0.0
 10
119.8723712529471
 20
-9.454784409642233
 30
0.0
 10
119.8668552351763
 20
-9.434040848837303
 30
0.0
 10
119.8694798023434
 20
-9.41368423611971
 30
0.0
 10
119.870792085927
 20
-9.403505929760912
 30
0.0
 10
119.8741547411624
 20
-9.393256321620398
 30
0.0
 10
119.8793465208498
 20
-9.383226759295123
 30
0.0
 10
119.8845383005385
 20
-9.373197196969849
 30
0.0
 10
119.8915222696171
 20
-9.363361776039202
 30
0.0
 10
119.9002370499729
 20
-9.353626852530073
 30
0.0
 10
119.90895183033
 20
-9.343891929020946
 30
0.0
 10
119.9194564305711
 20
-9.334244911698311
 30
0.0
 10
119.9312975438248
 20
-9.324991352225762
 30
0.0
 10
119.9431386570797
 20
-9.315737792753214
 30
0.0
 10
119.9563891906496
 20
-9.306784080241079
 30
0.0
 10
119.971064516363
 20
-9.298111089419316
 30
0.0
 10
119.9857398420778
 20
-9.289438098597555
 30
0.0
 10
120.0017840420083
 20
-9.281103111375829
 30
0.0
 10
120.0186660948977
 20
-9.273379230168719
 30
0.0
 10
120.0355481477884
 20
-9.265655348960969
 30
0.0
 10
120.053398684957
 20
-9.258461117402985
 30
0.0
 10
120.0722632999761
 20
-9.251870890044159
 30
0.0
 10
120.1099925300156
 20
-9.238690435326507
 30
0.0
 10
120.150390658487
 20
-9.228358825334606
 30
0.0
 10
120.1923267867456
 20
-9.222279033422434
 30
0.0
  0
LWPOLYLINE
  5
212
330
70
100
AcDbEntity
  8
0
 62
    18
420
        0
370
    25
100
AcDbPolyline
 90
       14
 70
     0
 43
0.0
 10
120.3835742604337
 20
-9.55418473746185
 10
120.4431553476336
 20
-9.502699335661853
 10
120.4640884333335
 20
-9.441946791661889
 10
120.4431554505326
 20
-9.381194132761862
 10
120.3835428698335
 20
-9.329690629361577
 10
120.294326518333
 20
-9.295277019061879
 10
120.1890884237334
 20
-9.283192665261422
 10
120.0838505281337
 20
-9.295277078461394
 10
119.9946339227334
 20
-9.329690756061843
 10
119.9350216644329
 20
-9.381194152561485
 10
119.914088578733
 20
-9.44194669656145
 10
119.9350215615326
 20
-9.502699355461478
 10
119.9946341423331
 20
-9.554202858861764
 10
119.9946341423331
 20
-9.554202858861764
  0
LWPOLYLINE
  5
213
330
70
100
AcDbEntity
  8
0
 62
   144
420
    29337
370
    25
100
AcDbPolyline
 90
       17
 70
     0
 43
0.0
 10
165.7216260655325
 20
-61.41484982876137
 10
165.7394893048332
 20
-61.40397036466147
 10
165.8628671794337
 20
-61.28777634456131
 10
165.9484674287332
 20
-61.1235282583614
 10
165.9922931267327
 20
-60.91890944576179
 10
165.9922931267327
 20
-60.68348653206154
 10
165.9484674287332
 20
-60.42826764556141
 10
165.8628671794337
 20
-60.16518761526158
 10
165.7394893048332
 20
-59.90654453326183
 10
165.5841079233337
 20
-59.66443520656179
 10
165.4039863417327
 20
-59.45017914066154
 10
165.207546905333
 20
-59.27379483406189
 10
165.0039706025327
 20
-59.14352712446187
 10
164.8027826211334
 20
-59.06547098856176
 10
164.6133957574331
 20
-59.04327931386188
 10
164.4446538249333
 20
-59.07798296516176
 10
164.3884018311336
 20
-59.10538664406174
  0
LWPOLYLINE
  5
214
330
70
100
AcDbEntity
  8
0
 62
   144
420
    29337
370
    25
100
AcDbPolyline
 90
       17
 70
     0
 43
0.0
 10
187.8776382231327
 20
-48.62445626146139
 10
187.8955014624334
 20
-48.61357679736149
 10
188.0188793369326
 20
-48.49738277716188
 10
188.1044795862333
 20
-48.33313469106142
 10
188.1483052842329
 20
-48.12851587836171
 10
188.1483052842329
 20
-47.89309296476155
 10
188.1044795862333
 20
-47.63787407826144
 10
188.0188793369326
 20
-47.37479404786149
 10
187.8955014624334
 20
-47.11615096596186
 10
187.7401200809327
 20
-46.87404163916171
 10
187.5599984993329
 20
-46.65978557326146
 10
187.3635590628332
 20
-46.48340126676191
 10
187.1599827601329
 20
-46.35313355716188
 10
186.9587947787336
 20
-46.27507742126177
 10
186.7694079149332
 20
-46.2528857464618
 10
186.6006659824335
 20
-46.28758939776168
 10
186.5444139886337
 20
-46.31499307676175
  0
SPLINE
  5
215
330
70
100
AcDbEntity
  8
0
 62
    18
420
        0
370
    25
100
AcDbSpline
210
0.0
220
0.0
230
1.0
 70
     9
 71
     3
 72
    62
 73
    58
 74
     0
 42
0.0000000001
 43
0.0000000001
 40
0.0
 40
0.0
 40
0.0
 40
0.0
 40
1.0
 40
1.0
 40
1.0
 40
2.0
 40
2.0
 40
2.0
 40
3.0
 40
3.0
 40
3.0
 40
4.0
 40
4.0
 40
4.0
 40
5.0
 40
5.0
 40
5.0
 40
6.0
 40
6.0
 40
6.0
 40
7.0
 40
7.0
 40
7.0
 40
8.0
 40
8.0
 40
8.0
 40
9.0
 40
9.0
 40
9.0
 40
10.0
 40
10.0
 40
10.0
 40
11.0
 40
11.0
 40
11.0
 40
12.0
 40
12.0
 40
12.0
 40
13.0
 40
13.0
 40
13.0
 40
14.0
 40
14.0
 40
14.0
 40
15.0
 40
15.0
 40
15.0
 40
16.0
 40
16.0
 40
16.0
 40
17.0
 40
17.0
 40
17.0
 40
18.0
 40
18.0
 40
18.0
 40
19.0
 40
19.0
 40
19.0
 40
19.0
 10
186.056974709879
 20
-47.24467100921045
 30
0.0
 10
186.0493058627925
 20
-47.26989944320973
 30
0.0
 10
186.0416370157062
 20
-47.29512787720902
 30
0.0
 10
186.0264625867047
 20
-47.31783421332745
 30
0.0
 10
186.0112194209928
 20
-47.34064340398263
 30
0.0
 10
185.9884025222045
 20
-47.36090759594666
 30
0.0
 10
185.9615603912655
 20
-47.37760673340465
 30
0.0
 10
185.9335734231919
 20
-47.39501810167317
 30
0.0
 10
185.901210542347
 20
-47.40855382576339
 30
0.0
 10
185.8655459190912
 20
-47.41752389090198
 30
0.0
 10
185.8297515302813
 20
-47.4265265935782
 30
0.0
 10
185.7906313286049
 20
-47.43093035260591
 30
0.0
 10
185.7504319000656
 20
-47.43078974531043
 30
0.0
 10
185.7114616769509
 20
-47.43065343746012
 30
0.0
 10
185.6714772184177
 20
-47.42624642672327
 30
0.0
 10
185.6331152691763
 20
-47.41801135985146
 30
0.0
 10
185.5982924788122
 20
-47.41053603565614
 30
0.0
 10
185.5648066317712
 20
-47.39990640343022
 30
0.0
 10
185.5354346793963
 20
-47.38699134242355
 30
0.0
 10
185.5095989259644
 20
-47.37563117380225
 30
0.0
 10
185.4869461224069
 20
-47.36250275250637
 30
0.0
 10
185.4689190499119
 20
-47.34846368785717
 30
0.0
 10
185.4519076165674
 20
-47.33521557934882
 30
0.0
 10
185.4390153728468
 20
-47.32115654763659
 30
0.0
 10
185.4305338076306
 20
-47.306859303266
 30
0.0
 10
185.421668119112
 20
-47.29191454813796
 30
0.0
 10
185.417621668093
 20
-47.2767095148287
 30
0.0
 10
185.4180688771835
 20
-47.26159222540806
 30
0.0
 10
185.4185638139377
 20
-47.24486156782672
 30
0.0
 10
185.4245627502006
 20
-47.22823838217441
 30
0.0
 10
185.4353552314888
 20
-47.21198022129672
 30
0.0
 10
185.4472815213485
 20
-47.19401405262242
 30
0.0
 10
185.4650614365628
 20
-47.17649363302579
 30
0.0
 10
185.4876133723749
 20
-47.15987210904095
 30
0.0
 10
185.5114698234684
 20
-47.14228911406624
 30
0.0
 10
185.5406663369661
 20
-47.12571201555849
 30
0.0
 10
185.5736175289984
 20
-47.11106696545024
 30
0.0
 10
185.6070296059533
 20
-47.09621707653689
 30
0.0
 10
185.6443021285835
 20
-47.08335366071829
 30
0.0
 10
185.6834930459779
 20
-47.07383979620366
 30
0.0
 10
185.7220847325375
 20
-47.06447139909111
 30
0.0
 10
185.7625365976744
 20
-47.05835090678849
 30
0.0
 10
185.8024187206143
 20
-47.05708948924459
 30
0.0
 10
185.8395588572699
 20
-47.055914797014
 30
0.0
 10
185.8762049007619
 20
-47.05895400298544
 30
0.0
 10
185.9094585449423
 20
-47.06708641478432
 30
0.0
 10
185.9387143047733
 20
-47.0742411159399
 30
0.0
 10
185.9653443275082
 20
-47.08533798847519
 30
0.0
 10
185.9872752372134
 20
-47.09981223086362
 30
0.0
 10
186.0072646704876
 20
-47.1130051127961
 30
0.0
 10
186.0233501599281
 20
-47.12900385662767
 30
0.0
 10
186.0351992771773
 20
-47.14667587581599
 30
0.0
 10
186.0471726452088
 20
-47.16453320519494
 30
0.0
 10
186.0548203293586
 20
-47.18409908611479
 30
0.0
 10
186.057145931451
 20
-47.20395333024083
 30
0.0
 10
186.0587253501326
 20
-47.21743722079596
 30
0.0
 10
186.0578500300058
 20
-47.2310541150032
 30
0.0
 10
186.056974709879
 20
-47.24467100921045
 30
0.0
  0
LWPOLYLINE
  5
216
330
70
100
AcDbEntity
  8
0
 62
   144
420
    29337
370
    25
100
AcDbPolyline
 90
        9
 70
     0
 43
0.0
 10
185.9327429226333
 20
-47.16997860506192
 10
185.8435237517331
 20
-47.1355633670618
 10
185.7382843880338
 20
-47.12347828076189
 10
185.6330450244333
 20
-47.13556184646161
 10
185.5438302438326
 20
-47.16997607056183
 10
185.4842161607338
 20
-47.22147892056169
 10
185.4632845431335
 20
-47.28223231206192
 10
185.4842187949327
 20
-47.34298570356151
 10
185.5437990727332
 20
-47.39447055886173
  0
LWPOLYLINE
  5
217
330
70
100
AcDbEntity
  8
0
 62
   144
420
    29337
370
    25
100
AcDbPolyline
 90
        5
 70
     0
 43
0.0
 10
185.932771898633
 20
-47.39447081226161
 10
185.9923539324326
 20
-47.34298646386193
 10
186.013285550133
 20
-47.2822330723617
 10
185.9923512982337
 20
-47.22147968096158
 10
185.9327429226333
 20
-47.16997860506192
  0
SPLINE
  5
218
330
70
100
AcDbEntity
  8
0
 62
    18
420
        0
370
    25
100
AcDbSpline
210
0.0
220
0.0
230
1.0
 70
     8
 71
     3
 72
     8
 73
     4
 74
     0
 42
0.0000000001
 43
0.0000000001
 40
0.0
 40
0.0
 40
0.0
 40
0.0
 40
1.0
 40
1.0
 40
1.0
 40
1.0
 10
120.2160930016543
 20
-5.339284315723736
 30
0.0
 10
119.750869678601
 20
-5.385221659316281
 30
0.0
 10
119.3289344990471
 20
-5.632116742724242
 30
0.0
 10
119.0609879344348
 20
-6.015193260356864
 30
0.0
  0
SPLINE
  5
219
330
70
100
AcDbEntity
  8
0
 62
    18
420
        0
370
    25
100
AcDbSpline
210
0.0
220
0.0
230
1.0
 70
     8
 71
     3
 72
     8
 73
     4
 74
     0
 42
0.0000000001
 43
0.0000000001
 40
0.0
 40
0.0
 40
0.0
 40
0.0
 40
1.0
 40
1.0
 40
1.0
 40
1.0
 10
123.4881882812751
 20
-13.68939424555786
 30
0.0
 10
123.9702831219481
 20
-13.64941622808322
 30
0.0
 10
124.4081985314513
 20
-13.39285073547444
 30
0.0
 10
124.6787789095479
 20
-12.99185206181847
 30
0.0
  0
LWPOLYLINE
  5
21A
330
70
100
AcDbEntity
  8
0
 62
    18
420
        0
370
    25
100
AcDbPolyline
 90
       22
 70
     0
 43
0.0
 10
125.6177832549337
 20
-11.08758575856133
 10
125.5966582447335
 20
-10.64878012006154
 10
125.5335582661327
 20
-10.19130436676189
 10
125.4293062802329
 20
-9.721122605061475
 10
125.2852613033335
 20
-9.24436429176189
 10
125.1033008460333
 20
-8.767244640861489
 10
124.8857974244333
 20
-8.29598376256143
 10
124.6355862923335
 20
-7.836725043761692
 10
124.3559296596337
 20
-7.395455936461482
 10
124.0504728994327
 20
-6.977928810361652
 10
123.7231982304326
 20
-6.589586811661624
 10
123.378372252733
 20
-6.235492512061921
 10
123.0204902460329
 20
-5.920262291561302
 10
122.6542177512325
 20
-5.648005491561782
 10
122.2843297166329
 20
-5.422271540261548
 10
121.9156481494336
 20
-5.246003059961838
 10
121.5529794570334
 20
-5.121497920361725
 10
121.2010514609333
 20
-5.050379468161323
 10
120.8644522408333
 20
-5.033574657461848
 10
120.5475697334326
 20
-5.071302755061681
 10
120.2545350983331
 20
-5.163071797461435
 10
120.0853967220326
 20
-5.247259756861518
  0
LWPOLYLINE
  5
21B
330
70
100
AcDbEntity
  8
0
 62
    18
420
        0
370
    25
100
AcDbPolyline
 90
        8
 70
     0
 43
0.0
 10
124.6683576622336
 20
-13.18604126806131
 10
124.8857974244333
 20
-13.03405490386176
 10
125.1033008460333
 20
-12.81391813076161
 10
125.2852613033335
 20
-12.54688555206165
 10
125.4293062802329
 20
-12.23643802906182
 10
125.5335582661327
 20
-11.88662304816188
 10
125.5966582447335
 20
-11.5020009794614
 10
125.6177832549337
 20
-11.08758575856133
  0
SPLINE
  5
21C
330
70
100
AcDbEntity
  8
0
 62
    18
420
        0
370
    25
100
AcDbSpline
210
0.0
220
0.0
230
1.0
 70
     8
 71
     3
 72
     8
 73
     4
 74
     0
 42
0.0000000001
 43
0.0000000001
 40
0.0
 40
0.0
 40
0.0
 40
0.0
 40
1.0
 40
1.0
 40
1.0
 40
1.0
 10
185.7413194002228
 20
-43.16619234721296
 30
0.0
 10
185.2760997818688
 20
-43.21214093078214
 30
0.0
 10
184.8541690686402
 20
-43.45903358713804
 30
0.0
 10
184.5862147720333
 20
-43.84210154529027
 30
0.0
  0
SPLINE
  5
21D
330
70
100
AcDbEntity
  8
0
 62
    18
420
        0
370
    25
100
AcDbSpline
210
0.0
220
0.0
230
1.0
 70
     8
 71
     3
 72
     8
 73
     4
 74
     0
 42
0.0000000001
 43
0.0000000001
 40
0.0
 40
0.0
 40
0.0
 40
0.0
 40
1.0
 40
1.0
 40
1.0
 40
1.0
 10
189.013418082259
 20
-51.51630424130068
 30
0.0
 10
189.495511153321
 20
-51.47631998974362
 30
0.0
 10
189.9334244455178
 20
-51.2197564419764
 30
0.0
 10
190.2040103568941
 20
-50.81876300798494
 30
0.0
  0
LWPOLYLINE
  5
21E
330
70
100
AcDbEntity
  8
0
 62
    18
420
        0
370
    25
100
AcDbPolyline
 90
       22
 70
     0
 43
0.0
 10
191.1430149218333
 20
-48.91449683146145
 10
191.1218853018328
 20
-48.47568853176131
 10
191.0587844451336
 20
-48.01821227146167
 10
190.9545342153331
 20
-47.54803152356166
 10
190.8104903360329
 20
-47.07127384396169
 10
190.6285283420329
 20
-46.59415330596178
 10
190.4110225058337
 20
-46.12289103366168
 10
190.1608177396335
 20
-45.66363598986144
 10
189.8811593508332
 20
-45.22236586886156
 10
189.575700066233
 20
-44.80483728536182
 10
189.2484297876338
 20
-44.41649782116187
 10
188.9035983220329
 20
-44.06240035346129
 10
188.5457153823331
 20
-43.7471695944616
 10
188.1794452198329
 20
-43.47491414076142
 10
187.8095574528333
 20
-43.24918034396178
 10
187.440877895533
 20
-43.07291302396174
 10
187.0782112885327
 20
-42.94840908826153
 10
186.7262780790335
 20
-42.87728762636173
 10
186.3896792978337
 20
-42.86048306906151
 10
186.072798217333
 20
-42.89821199036163
 10
185.779765228533
 20
-42.9899819832614
 10
185.6106229010334
 20
-43.07416766166139
  0
LWPOLYLINE
  5
21F
330
70
100
AcDbEntity
  8
0
 62
    18
420
        0
370
    25
100
AcDbPolyline
 90
        8
 70
     0
 43
0.0
 10
190.1935869144326
 20
-51.0129509469614
 10
190.4110225058337
 20
-50.86096217496137
 10
190.6285283420329
 20
-50.6408267958619
 10
190.8104903360329
 20
-50.37379510426147
 10
190.9545342153331
 20
-50.06334694756137
 10
191.0587844451336
 20
-49.71353095296175
 10
191.1218853018328
 20
-49.3289093910617
 10
191.1430149218333
 20
-48.91449683146145
  0
SPLINE
  5
220
330
70
100
AcDbEntity
  8
0
 62
    18
420
        0
370
    25
100
AcDbSpline
210
0.0
220
0.0
230
1.0
 70
     8
 71
     3
 72
    20
 73
    16
 74
     0
 42
0.0000000001
 43
0.0000000001
 40
0.0
 40
0.0
 40
0.0
 40
0.0
 40
1.0
 40
1.0
 40
1.0
 40
2.0
 40
2.0
 40
2.0
 40
3.0
 40
3.0
 40
3.0
 40
4.0
 40
4.0
 40
4.0
 40
5.0
 40
5.0
 40
5.0
 40
5.0
 10
186.5977973625845
 20
-44.65308393536087
 30
0.0
 10
186.5960297661088
 20
-44.67008126508964
 30
0.0
 10
186.5942621696319
 20
-44.68707859481777
 30
0.0
 10
186.5893693099719
 20
-44.7012623060025
 30
0.0
 10
186.5844548162874
 20
-44.71550873117489
 30
0.0
 10
186.5763873613047
 20
-44.72691660168719
 30
0.0
 10
186.5664761077262
 20
-44.7350815209359
 30
0.0
 10
186.5572310228077
 20
-44.74269764852222
 30
0.0
 10
186.5463816654839
 20
-44.74749211367839
 30
0.0
 10
186.5345103573078
 20
-44.74985031678296
 30
0.0
 10
186.5185070209337
 20
-44.75302933605832
 30
0.0
 10
186.5006465049011
 20
-44.75178096401204
 30
0.0
 10
186.4823027048337
 20
-44.74617987437782
 30
0.0
 10
186.4657982937913
 20
-44.74114042315914
 30
0.0
 10
186.4489026601862
 20
-44.73257740979057
 30
0.0
 10
186.4320070265811
 20
-44.724014396422
 30
0.0
  0
SPLINE
  5
221
330
70
100
AcDbEntity
  8
0
 62
    18
420
        0
370
    25
100
AcDbSpline
210
0.0
220
0.0
230
1.0
 70
     8
 71
     3
 72
     8
 73
     4
 74
     0
 42
0.0000000001
 43
0.0000000001
 40
0.0
 40
0.0
 40
0.0
 40
0.0
 40
1.0
 40
1.0
 40
1.0
 40
1.0
 10
186.9303518023714
 20
-44.45971347588514
 30
0.0
 10
186.9801132913771
 20
-44.67503862613027
 30
0.0
 10
187.0306260114804
 20
-44.8901894769035
 30
0.0
 10
187.0818890400593
 20
-45.10516209845661
 30
0.0
  0
SPLINE
  5
222
330
70
100
AcDbEntity
  8
0
 62
    18
420
        0
370
    25
100
AcDbSpline
210
0.0
220
0.0
230
1.0
 70
     8
 71
     3
 72
     8
 73
     4
 74
     0
 42
0.0000000001
 43
0.0000000001
 40
0.0
 40
0.0
 40
0.0
 40
0.0
 40
1.0
 40
1.0
 40
1.0
 40
1.0
 10
186.7911469081876
 20
-44.37831509822606
 30
0.0
 10
186.7283270774737
 20
-44.52726696483425
 30
0.0
 10
186.6659585288951
 20
-44.67640875544788
 30
0.0
 10
186.6040421206396
 20
-44.82573841789224
 30
0.0
  0
LINE
  5
223
330
70
100
AcDbEntity
  8
0
 62
    18
420
        0
370
    25
100
AcDbLine
 10
186.9166452960336
 20
-44.92968586816195
 30
0.0
 11
186.9338565762331
 21
-45.01908687376138
 31
0.0
  0
SPLINE
  5
224
330
70
100
AcDbEntity
  8
0
 62
    18
420
        0
370
    25
100
AcDbSpline
210
0.0
220
0.0
230
1.0
 70
     8
 71
     3
 72
     8
 73
     4
 74
     0
 42
0.0000000001
 43
0.0000000001
 40
0.0
 40
0.0
 40
0.0
 40
0.0
 40
1.0
 40
1.0
 40
1.0
 40
1.0
 10
187.6604260978445
 20
-45.07433645745395
 30
0.0
 10
187.7055304180791
 20
-45.0999986796349
 30
0.0
 10
187.750659909554
 20
-45.12561663518879
 30
0.0
 10
187.7958145070868
 20
-45.15119028711523
 30
0.0
  0
SPLINE
  5
225
330
70
100
AcDbEntity
  8
0
 62
    18
420
        0
370
    25
100
AcDbSpline
210
0.0
220
0.0
230
1.0
 70
     8
 71
     3
 72
     8
 73
     4
 74
     0
 42
0.0000000001
 43
0.0000000001
 40
0.0
 40
0.0
 40
0.0
 40
0.0
 40
1.0
 40
1.0
 40
1.0
 40
1.0
 10
187.5226190740629
 20
-44.80175337934052
 30
0.0
 10
187.5706626433659
 20
-44.82922102712388
 30
0.0
 10
187.6187349553815
 20
-44.85663837059293
 30
0.0
 10
187.6668359310639
 20
-44.88400536466576
 30
0.0
  0
SPLINE
  5
226
330
70
100
AcDbEntity
  8
0
 62
    18
420
        0
370
    25
100
AcDbSpline
210
0.0
220
0.0
230
1.0
 70
     8
 71
     3
 72
     8
 73
     4
 74
     0
 42
0.0000000001
 43
0.0000000001
 40
0.0
 40
0.0
 40
0.0
 40
0.0
 40
1.0
 40
1.0
 40
1.0
 40
1.0
 10
187.5053669640127
 20
-45.3490219220201
 30
0.0
 10
187.5534103387616
 20
-45.37648973838421
 30
0.0
 10
187.6014825044993
 20
-45.40390716637273
 30
0.0
 10
187.6495833819427
 20
-45.43127416076897
 30
0.0
  0
SPLINE
  5
227
330
70
100
AcDbEntity
  8
0
 62
    18
420
        0
370
    25
100
AcDbSpline
210
0.0
220
0.0
230
1.0
 70
     8
 71
     3
 72
     8
 73
     4
 74
     0
 42
0.0000000001
 43
0.0000000001
 40
0.0
 40
0.0
 40
0.0
 40
0.0
 40
1.0
 40
1.0
 40
1.0
 40
1.0
 10
187.7849717912094
 20
-45.50812799045655
 30
0.0
 10
187.8332477201004
 20
-45.53546995193135
 30
0.0
 10
187.8815522789497
 20
-45.56276133245924
 30
0.0
 10
187.9298853882367
 20
-45.5900020871123
 30
0.0
  0
LINE
  5
228
330
70
100
AcDbEntity
  8
0
 62
   144
420
    29337
370
    25
100
AcDbLine
 10
187.935701653333
 20
-45.39226580446166
 30
0.0
 11
187.9842947745327
 21
-45.41963117636167
 31
0.0
  0
SPLINE
  5
229
330
70
100
AcDbEntity
  8
0
 62
   144
420
    29337
370
    25
100
AcDbSpline
210
0.0
220
0.0
230
1.0
 70
     8
 71
     3
 72
     8
 73
     4
 74
     0
 42
0.0000000001
 43
0.0000000001
 40
0.0
 40
0.0
 40
0.0
 40
0.0
 40
1.0
 40
1.0
 40
1.0
 40
1.0
 10
187.9357016533317
 20
-45.39226580435257
 30
0.0
 10
187.9336839118553
 20
-45.4581755515997
 30
0.0
 10
187.9317451554312
 20
-45.52408769318895
 30
0.0
 10
187.9298853882342
 20
-45.59000208713155
 30
0.0
  0
SPLINE
  5
22A
330
70
100
AcDbEntity
  8
0
 62
   144
420
    29337
370
    25
100
AcDbSpline
210
0.0
220
0.0
230
1.0
 70
     8
 71
     3
 72
     8
 73
     4
 74
     0
 42
0.0000000001
 43
0.0000000001
 40
0.0
 40
0.0
 40
0.0
 40
0.0
 40
1.0
 40
1.0
 40
1.0
 40
1.0
 10
187.7907880563454
 20
-45.31039170779501
 30
0.0
 10
187.788770314869
 20
-45.37630145502803
 30
0.0
 10
187.7868315584449
 20
-45.44221359660315
 30
0.0
 10
187.7849717912479
 20
-45.50812799053164
 30
0.0
  0
SPLINE
  5
22B
330
70
100
AcDbEntity
  8
0
 62
   144
420
    29337
370
    25
100
AcDbSpline
210
0.0
220
0.0
230
1.0
 70
     8
 71
     3
 72
     8
 73
     4
 74
     0
 42
0.0000000001
 43
0.0000000001
 40
0.0
 40
0.0
 40
0.0
 40
0.0
 40
1.0
 40
1.0
 40
1.0
 40
1.0
 10
187.6553996470851
 20
-45.23353787809909
 30
0.0
 10
187.7005039673082
 20
-45.25920010027234
 30
0.0
 10
187.7456334587703
 20
-45.28481805581981
 30
0.0
 10
187.7907880562902
 20
-45.31039170773854
 30
0.0
  0
SPLINE
  5
22C
330
70
100
AcDbEntity
  8
0
 62
   144
420
    29337
370
    25
100
AcDbSpline
210
0.0
220
0.0
230
1.0
 70
     8
 71
     3
 72
     8
 73
     4
 74
     0
 42
0.0000000001
 43
0.0000000001
 40
0.0
 40
0.0
 40
0.0
 40
0.0
 40
1.0
 40
1.0
 40
1.0
 40
1.0
 10
187.6553996470159
 20
-45.23353787817032
 30
0.0
 10
187.6533819055408
 20
-45.29944762534173
 30
0.0
 10
187.6514431491192
 20
-45.36535976685203
 30
0.0
 10
187.6495833819235
 20
-45.43127416071828
 30
0.0
  0
SPLINE
  5
22D
330
70
100
AcDbEntity
  8
0
 62
   144
420
    29337
370
    25
100
AcDbSpline
210
0.0
220
0.0
230
1.0
 70
     8
 71
     3
 72
     8
 73
     4
 74
     0
 42
0.0000000001
 43
0.0000000001
 40
0.0
 40
0.0
 40
0.0
 40
0.0
 40
1.0
 40
1.0
 40
1.0
 40
1.0
 10
187.5226190740013
 20
-44.80175337931807
 30
0.0
 10
187.5162665485244
 20
-44.9841567581389
 30
0.0
 10
187.5105158138984
 20
-45.16658059847112
 30
0.0
 10
187.5053669640115
 20
-45.34902192199764
 30
0.0
  0
SPLINE
  5
22E
330
70
100
AcDbEntity
  8
0
 62
   144
420
    29337
370
    25
100
AcDbSpline
210
0.0
220
0.0
230
1.0
 70
     8
 71
     3
 72
     8
 73
     4
 74
     0
 42
0.0000000001
 43
0.0000000001
 40
0.0
 40
0.0
 40
0.0
 40
0.0
 40
1.0
 40
1.0
 40
1.0
 40
1.0
 10
187.6668359309523
 20
-44.88400536452073
 30
0.0
 10
187.6646267114929
 20
-44.94744659611295
 30
0.0
 10
187.6624900990222
 20
-45.01089033529946
 30
0.0
 10
187.6604260977367
 20
-45.07433645744497
 30
0.0
  0
SPLINE
  5
22F
330
70
100
AcDbEntity
  8
0
 62
   144
420
    29337
370
    25
100
AcDbSpline
210
0.0
220
0.0
230
1.0
 70
     8
 71
     3
 72
     8
 73
     4
 74
     0
 42
0.0000000001
 43
0.0000000001
 40
0.0
 40
0.0
 40
0.0
 40
0.0
 40
1.0
 40
1.0
 40
1.0
 40
1.0
 10
187.8022243402356
 20
-44.96085919429879
 30
0.0
 10
187.800015376537
 20
-45.02430043458604
 30
0.0
 10
187.7978787640778
 20
-45.08774417342987
 30
0.0
 10
187.7958145070264
 20
-45.15119028704336
 30
0.0
  0
SPLINE
  5
230
330
70
100
AcDbEntity
  8
0
 62
   144
420
    29337
370
    25
100
AcDbSpline
210
0.0
220
0.0
230
1.0
 70
     8
 71
     3
 72
     8
 73
     4
 74
     0
 42
0.0000000001
 43
0.0000000001
 40
0.0
 40
0.0
 40
0.0
 40
0.0
 40
1.0
 40
1.0
 40
1.0
 40
1.0
 10
187.8022243402382
 20
-44.9608591942834
 30
0.0
 10
187.8505005906499
 20
-44.98820076186664
 30
0.0
 10
187.8988052955049
 20
-45.01549205772105
 30
0.0
 10
187.9471383762492
 20
-45.04273303746674
 30
0.0
  0
SPLINE
  5
231
330
70
100
AcDbEntity
  8
0
 62
   144
420
    29337
370
    25
100
AcDbSpline
210
0.0
220
0.0
230
1.0
 70
     8
 71
     3
 72
     8
 73
     4
 74
     0
 42
0.0000000001
 43
0.0000000001
 40
0.0
 40
0.0
 40
0.0
 40
0.0
 40
1.0
 40
1.0
 40
1.0
 40
1.0
 10
187.9471383763108
 20
-45.04273303761946
 30
0.0
 10
187.9449222398377
 20
-45.10637789743998
 30
0.0
 10
187.9427788955782
 20
-45.17002527107863
 30
0.0
 10
187.9407083477382
 20
-45.2336750336396
 30
0.0
  0
LINE
  5
232
330
70
100
AcDbEntity
  8
0
 62
   144
420
    29337
370
    25
100
AcDbLine
 10
187.9407083477331
 20
-45.23367503366142
 30
0.0
 11
187.9893019079332
 21
-45.26104015206143
 31
0.0
  0
SPLINE
  5
233
330
70
100
AcDbEntity
  8
0
 62
   144
420
    29337
370
    25
100
AcDbSpline
210
0.0
220
0.0
230
1.0
 70
     8
 71
     3
 72
     8
 73
     4
 74
     0
 42
0.0000000001
 43
0.0000000001
 40
0.0
 40
0.0
 40
0.0
 40
0.0
 40
1.0
 40
1.0
 40
1.0
 40
1.0
 10
187.9957319365482
 20
-45.07009815604706
 30
0.0
 10
187.9935155439062
 20
-45.13374300711546
 30
0.0
 10
187.9913721996365
 20
-45.19739038106918
 30
0.0
 10
187.989301907973
 20
-45.26104015213202
 30
0.0
  0
SPLINE
  5
234
330
70
100
AcDbEntity
  8
0
 62
   144
420
    29337
370
    25
100
AcDbSpline
210
0.0
220
0.0
230
1.0
 70
     8
 71
     3
 72
     8
 73
     4
 74
     0
 42
0.0000000001
 43
0.0000000001
 40
0.0
 40
0.0
 40
0.0
 40
0.0
 40
1.0
 40
1.0
 40
1.0
 40
1.0
 10
187.9957319364866
 20
-45.07009815603166
 30
0.0
 10
188.0433539757197
 20
-45.09689450898447
 30
0.0
 10
188.0910033543004
 20
-45.12364224588373
 30
0.0
 10
188.1386799977517
 20
-45.15034132492339
 30
0.0
  0
SPLINE
  5
235
330
70
100
AcDbEntity
  8
0
 62
   144
420
    29337
370
    25
100
AcDbSpline
210
0.0
220
0.0
230
1.0
 70
     8
 71
     3
 72
     8
 73
     4
 74
     0
 42
0.0000000001
 43
0.0000000001
 40
0.0
 40
0.0
 40
0.0
 40
0.0
 40
1.0
 40
1.0
 40
1.0
 40
1.0
 10
188.1386799977132
 20
-45.15034132482137
 30
0.0
 10
188.1364636050725
 20
-45.21398617589938
 30
0.0
 10
188.1343202608015
 20
-45.27763354986209
 30
0.0
 10
188.132249969138
 20
-45.3412833209339
 30
0.0
  0
SPLINE
  5
236
330
70
100
AcDbEntity
  8
0
 62
   144
420
    29337
370
    25
100
AcDbSpline
210
0.0
220
0.0
230
1.0
 70
     8
 71
     3
 72
     8
 73
     4
 74
     0
 42
0.0000000001
 43
0.0000000001
 40
0.0
 40
0.0
 40
0.0
 40
0.0
 40
1.0
 40
1.0
 40
1.0
 40
1.0
 10
188.1322499691419
 20
-45.3412833208845
 30
0.0
 10
188.187163237021
 20
-45.37203482620464
 30
0.0
 10
188.2421125211917
 20
-45.40272197265137
 30
0.0
 10
188.2970977084788
 20
-45.43334469701927
 30
0.0
  0
SPLINE
  5
237
330
70
100
AcDbEntity
  8
0
 62
   144
420
    29337
370
    25
100
AcDbSpline
210
0.0
220
0.0
230
1.0
 70
     8
 71
     3
 72
     8
 73
     4
 74
     0
 42
0.0000000001
 43
0.0000000001
 40
0.0
 40
0.0
 40
0.0
 40
0.0
 40
1.0
 40
1.0
 40
1.0
 40
1.0
 10
188.297097708448
 20
-45.43334469713541
 30
0.0
 10
188.2953784264735
 20
-45.48620677378856
 30
0.0
 10
188.2937093812507
 20
-45.53907047238417
 30
0.0
 10
188.2920905750423
 20
-45.59193572131952
 30
0.0
  0
SPLINE
  5
238
330
70
100
AcDbEntity
  8
0
 62
   144
420
    29337
370
    25
100
AcDbSpline
210
0.0
220
0.0
230
1.0
 70
     8
 71
     3
 72
     8
 73
     4
 74
     0
 42
0.0000000001
 43
0.0000000001
 40
0.0
 40
0.0
 40
0.0
 40
0.0
 40
1.0
 40
1.0
 40
1.0
 40
1.0
 10
188.127242835717
 20
-45.49987434521297
 30
0.0
 10
188.1821561035806
 20
-45.53062585052413
 30
0.0
 10
188.2371053877359
 20
-45.56131299696188
 30
0.0
 10
188.2920905750064
 20
-45.59193572132143
 30
0.0
  0
SPLINE
  5
239
330
70
100
AcDbEntity
  8
0
 62
   144
420
    29337
370
    25
100
AcDbSpline
210
0.0
220
0.0
230
1.0
 70
     8
 71
     3
 72
     8
 73
     4
 74
     0
 42
0.0000000001
 43
0.0000000001
 40
0.0
 40
0.0
 40
0.0
 40
0.0
 40
1.0
 40
1.0
 40
1.0
 40
1.0
 10
188.1272428357785
 20
-45.49987434524634
 30
0.0
 10
188.1252248524651
 20
-45.56578417389685
 30
0.0
 10
188.1232859496938
 20
-45.63169640004534
 30
0.0
 10
188.1214261316537
 20
-45.69761088135463
 30
0.0
  0
SPLINE
  5
23A
330
70
100
AcDbEntity
  8
0
 62
   144
420
    29337
370
    25
100
AcDbSpline
210
0.0
220
0.0
230
1.0
 70
     8
 71
     3
 72
     8
 73
     4
 74
     0
 42
0.0000000001
 43
0.0000000001
 40
0.0
 40
0.0
 40
0.0
 40
0.0
 40
1.0
 40
1.0
 40
1.0
 40
1.0
 10
187.9784785094839
 20
-45.61736745902257
 30
0.0
 10
188.0261002283308
 20
-45.64416420581302
 30
0.0
 10
188.0737494608762
 20
-45.67091202736779
 30
0.0
 10
188.1214261316973
 20
-45.69761088134757
 30
0.0
  0
SPLINE
  5
23B
330
70
100
AcDbEntity
  8
0
 62
   144
420
    29337
370
    25
100
AcDbSpline
210
0.0
220
0.0
230
1.0
 70
     8
 71
     3
 72
     8
 73
     4
 74
     0
 42
0.0000000001
 43
0.0000000001
 40
0.0
 40
0.0
 40
0.0
 40
0.0
 40
1.0
 40
1.0
 40
1.0
 40
1.0
 10
187.9842947745545
 20
-45.41963117632766
 30
0.0
 10
187.9822772898245
 20
-45.48554093126941
 30
0.0
 10
187.9803385334093
 20
-45.55145307253266
 30
0.0
 10
187.9784785094583
 20
-45.61736745906492
 30
0.0
  0
SPLINE
  5
23C
330
70
100
AcDbEntity
  8
0
 62
   144
420
    29337
370
    25
100
AcDbSpline
210
0.0
220
0.0
230
1.0
 70
     8
 71
     3
 72
     8
 73
     4
 74
     0
 42
0.0000000001
 43
0.0000000001
 40
0.0
 40
0.0
 40
0.0
 40
0.0
 40
1.0
 40
1.0
 40
1.0
 40
1.0
 10
187.1906748854333
 20
-44.75411566264013
 30
0.0
 10
187.1861817607163
 20
-44.88970940648984
 30
0.0
 10
187.1820217956745
 20
-45.02531398527509
 30
0.0
 10
187.1781950279769
 20
-45.16092817107464
 30
0.0
  0
SPLINE
  5
23D
330
70
100
AcDbEntity
  8
0
 62
   144
420
    29337
370
    25
100
AcDbSpline
210
0.0
220
0.0
230
1.0
 70
     8
 71
     3
 72
     8
 73
     4
 74
     0
 42
0.0000000001
 43
0.0000000001
 40
0.0
 40
0.0
 40
0.0
 40
0.0
 40
1.0
 40
1.0
 40
1.0
 40
1.0
 10
187.0605860033023
 20
-44.67874424113652
 30
0.0
 10
187.1039246410672
 20
-44.70391000554539
 30
0.0
 10
187.1472876220599
 20
-44.72903382446235
 30
0.0
 10
187.1906748853691
 20
-44.7541156625965
 30
0.0
  0
SPLINE
  5
23E
330
70
100
AcDbEntity
  8
0
 62
   144
420
    29337
370
    25
100
AcDbSpline
210
0.0
220
0.0
230
1.0
 70
     8
 71
     3
 72
     8
 73
     4
 74
     0
 42
0.0000000001
 43
0.0000000001
 40
0.0
 40
0.0
 40
0.0
 40
0.0
 40
1.0
 40
1.0
 40
1.0
 40
1.0
 10
187.0653582558922
 20
-44.53828820690364
 30
0.0
 10
187.0637280252964
 20
-44.58510553526873
 30
0.0
 10
187.0621372738851
 20
-44.63192423000165
 30
0.0
 10
187.0605860033575
 20
-44.67874424118016
 30
0.0
  0
SPLINE
  5
23F
330
70
100
AcDbEntity
  8
0
 62
   144
420
    29337
370
    25
100
AcDbSpline
210
0.0
220
0.0
230
1.0
 70
     8
 71
     3
 72
     8
 73
     4
 74
     0
 42
0.0000000001
 43
0.0000000001
 40
0.0
 40
0.0
 40
0.0
 40
0.0
 40
1.0
 40
1.0
 40
1.0
 40
1.0
 10
187.0653582559448
 20
-44.53828820689337
 30
0.0
 10
187.1998739330851
 20
-44.61639630394712
 30
0.0
 10
187.3346212212227
 20
-44.69410484405936
 30
0.0
 10
187.4695983386056
 20
-44.77141279969798
 30
0.0
  0
SPLINE
  5
240
330
70
100
AcDbEntity
  8
0
 62
   144
420
    29337
370
    25
100
AcDbSpline
210
0.0
220
0.0
230
1.0
 70
     8
 71
     3
 72
     8
 73
     4
 74
     0
 42
0.0000000001
 43
0.0000000001
 40
0.0
 40
0.0
 40
0.0
 40
0.0
 40
1.0
 40
1.0
 40
1.0
 40
1.0
 10
187.469598338612
 20
-44.7714127997474
 30
0.0
 10
187.4679682996865
 20
-44.81823013472006
 30
0.0
 10
187.4663775482817
 20
-44.86504882932144
 30
0.0
 10
187.4648260860747
 20
-44.91186883408231
 30
0.0
  0
SPLINE
  5
241
330
70
100
AcDbEntity
  8
0
 62
   144
420
    29337
370
    25
100
AcDbSpline
210
0.0
220
0.0
230
1.0
 70
     8
 71
     3
 72
     8
 73
     4
 74
     0
 42
0.0000000001
 43
0.0000000001
 40
0.0
 40
0.0
 40
0.0
 40
0.0
 40
1.0
 40
1.0
 40
1.0
 40
1.0
 10
187.3341032450731
 20
-44.83683094797185
 30
0.0
 10
187.3776536636729
 20
-44.86188512301934
 30
0.0
 10
187.421227963816
 20
-44.88689776305822
 30
0.0
 10
187.4648260860773
 20
-44.91186883397643
 30
0.0
  0
SPLINE
  5
242
330
70
100
AcDbEntity
  8
0
 62
   144
420
    29337
370
    25
100
AcDbSpline
210
0.0
220
0.0
230
1.0
 70
     8
 71
     3
 72
     8
 73
     4
 74
     0
 42
0.0000000001
 43
0.0000000001
 40
0.0
 40
0.0
 40
0.0
 40
0.0
 40
1.0
 40
1.0
 40
1.0
 40
1.0
 10
187.3341032450731
 20
-44.83683094804437
 30
0.0
 10
187.3296106311704
 20
-44.97242470816114
 30
0.0
 10
187.3254506661671
 20
-45.10802928566107
 30
0.0
 10
187.3216233876192
 20
-45.24364345638518
 30
0.0
  0
SPLINE
  5
243
330
70
100
AcDbEntity
  8
0
 62
   144
420
    29337
370
    25
100
AcDbSpline
210
0.0
220
0.0
230
1.0
 70
     8
 71
     3
 72
     8
 73
     4
 74
     0
 42
0.0000000001
 43
0.0000000001
 40
0.0
 40
0.0
 40
0.0
 40
0.0
 40
1.0
 40
1.0
 40
1.0
 40
1.0
 10
187.1781950279435
 20
-45.16092817102266
 30
0.0
 10
187.225975461267
 20
-45.1885502228195
 30
0.0
 10
187.2737849409615
 20
-45.21612199988052
 30
0.0
 10
187.3216233876655
 20
-45.2436434564378
 30
0.0
  0
SPLINE
  5
244
330
70
100
AcDbEntity
  8
0
 62
   144
420
    29337
370
    25
100
AcDbSpline
210
0.0
220
0.0
230
1.0
 70
     8
 71
     3
 72
     8
 73
     4
 74
     0
 42
0.0000000001
 43
0.0000000001
 40
0.0
 40
0.0
 40
0.0
 40
0.0
 40
1.0
 40
1.0
 40
1.0
 40
1.0
 10
186.9338565762626
 20
-45.01908687374726
 30
0.0
 10
186.9831691693896
 20
-45.04783286064097
 30
0.0
 10
187.0325133538545
 20
-45.07652461958946
 30
0.0
 10
187.0818890401889
 20
-45.1051620985702
 30
0.0
  0
SPLINE
  5
245
330
70
100
AcDbEntity
  8
0
 62
   144
420
    29337
370
    25
100
AcDbSpline
210
0.0
220
0.0
230
1.0
 70
     8
 71
     3
 72
     8
 73
     4
 74
     0
 42
0.0000000001
 43
0.0000000001
 40
0.0
 40
0.0
 40
0.0
 40
0.0
 40
1.0
 40
1.0
 40
1.0
 40
1.0
 10
186.7696647473118
 20
-44.84373331140908
 30
0.0
 10
186.8186270088833
 20
-44.87243757632684
 30
0.0
 10
186.867620554257
 20
-44.90108844559137
 30
0.0
 10
186.9166452960541
 20
-44.92968586810548
 30
0.0
  0
LINE
  5
246
330
70
100
AcDbEntity
  8
0
 62
   144
420
    29337
370
    25
100
AcDbLine
 10
186.7696647473336
 20
-44.84373331146169
 30
0.0
 11
186.7467272030336
 21
-44.90965326526189
 31
0.0
  0
SPLINE
  5
247
330
70
100
AcDbEntity
  8
0
 62
   144
420
    29337
370
    25
100
AcDbSpline
210
0.0
220
0.0
230
1.0
 70
     8
 71
     3
 72
     8
 73
     4
 74
     0
 42
0.0000000001
 43
0.0000000001
 40
0.0
 40
0.0
 40
0.0
 40
0.0
 40
1.0
 40
1.0
 40
1.0
 40
1.0
 10
186.6040421206306
 20
-44.82573841784155
 30
0.0
 10
186.6515739351204
 20
-44.85376080864161
 30
0.0
 10
186.6991356563699
 20
-44.88173244036937
 30
0.0
 10
186.7467272030529
 20
-44.90965326519643
 30
0.0
  0
SPLINE
  5
248
330
70
100
AcDbEntity
  8
0
 62
   144
420
    29337
370
    25
100
AcDbSpline
210
0.0
220
0.0
230
1.0
 70
     8
 71
     3
 72
     8
 73
     4
 74
     0
 42
0.0000000001
 43
0.0000000001
 40
0.0
 40
0.0
 40
0.0
 40
0.0
 40
1.0
 40
1.0
 40
1.0
 40
1.0
 10
186.7911469081863
 20
-44.37831509814521
 30
0.0
 10
186.8375202849511
 20
-44.40549618205676
 30
0.0
 10
186.8839219414964
 20
-44.43262898932481
 30
0.0
 10
186.9303518024112
 20
-44.45971347585499
 30
0.0
  0
SPLINE
  5
249
330
70
100
AcDbEntity
  8
0
 62
   144
420
    29337
370
    25
100
AcDbSpline
210
0.0
220
0.0
230
1.0
 70
     8
 71
     3
 72
    17
 73
    13
 74
     0
 42
0.0000000001
 43
0.0000000001
 40
0.0
 40
0.0
 40
0.0
 40
0.0
 40
1.0
 40
1.0
 40
1.0
 40
2.0
 40
2.0
 40
2.0
 40
3.0
 40
3.0
 40
3.0
 40
4.0
 40
4.0
 40
4.0
 40
4.0
 10
186.5823193714984
 20
-44.39562431605633
 30
0.0
 10
186.5810531482877
 20
-44.40911329691412
 30
0.0
 10
186.5797869250757
 20
-44.42260227777254
 30
0.0
 10
186.5758340251843
 20
-44.43366354250129
 30
0.0
 10
186.5726010933947
 20
-44.44271014508386
 30
0.0
 10
186.5675710425177
 20
-44.45013284739243
 30
0.0
 10
186.5613943392729
 20
-44.45565048632793
 30
0.0
 10
186.5552392988598
 20
-44.46114877389072
 30
0.0
 10
186.5479456350172
 20
-44.46475533746146
 30
0.0
 10
186.5400307164036
 20
-44.46677644678934
 30
0.0
 10
186.5342843672502
 20
-44.46824380235404
 30
0.0
 10
186.5282105561418
 20
-44.4688754686478
 30
0.0
 10
186.5221367450335
 20
-44.46950713494156
 30
0.0
  0
SPLINE
  5
24A
330
70
100
AcDbEntity
  8
0
 62
   144
420
    29337
370
    25
100
AcDbSpline
210
0.0
220
0.0
230
1.0
 70
     8
 71
     3
 72
    17
 73
    13
 74
     0
 42
0.0000000001
 43
0.0000000001
 40
0.0
 40
0.0
 40
0.0
 40
0.0
 40
1.0
 40
1.0
 40
1.0
 40
2.0
 40
2.0
 40
2.0
 40
3.0
 40
3.0
 40
3.0
 40
4.0
 40
4.0
 40
4.0
 40
4.0
 10
186.5221367450335
 20
-44.46950713494156
 30
0.0
 10
186.5345524602213
 20
-44.48327141696874
 30
0.0
 10
186.5469681754092
 20
-44.49703569899591
 30
0.0
 10
186.5576257085675
 20
-44.51290549149902
 30
0.0
 10
186.5683565745466
 20
-44.52888448156319
 30
0.0
 10
186.5773049797014
 20
-44.5469980571672
 30
0.0
 10
186.5838981221995
 20
-44.56524516219431
 30
0.0
 10
186.5895452805558
 20
-44.58087417243741
 30
0.0
 10
186.5934645558205
 20
-44.59660114340283
 30
0.0
 10
186.5954819200946
 20
-44.61160214836903
 30
0.0
 10
186.597400292565
 20
-44.6258670559689
 30
0.0
 10
186.5975988275754
 20
-44.63947549566489
 30
0.0
 10
186.5977973625845
 20
-44.65308393536087
 30
0.0
  0
SPLINE
  5
24B
330
70
100
AcDbEntity
  8
0
 62
   144
420
    29337
370
    25
100
AcDbSpline
210
0.0
220
0.0
230
1.0
 70
     8
 71
     3
 72
     8
 73
     4
 74
     0
 42
0.0000000001
 43
0.0000000001
 40
0.0
 40
0.0
 40
0.0
 40
0.0
 40
1.0
 40
1.0
 40
1.0
 40
1.0
 10
186.1722085839855
 20
-44.5692488516676
 30
0.0
 10
186.2587062585473
 20
-44.62100807312973
 30
0.0
 10
186.3453059077597
 20
-44.67259668834755
 30
0.0
 10
186.4320070265747
 20
-44.72401439645537
 30
0.0
  0
SPLINE
  5
24C
330
70
100
AcDbEntity
  8
0
 62
   144
420
    29337
370
    25
100
AcDbSpline
210
0.0
220
0.0
230
1.0
 70
     8
 71
     3
 72
     8
 73
     4
 74
     0
 42
0.0000000001
 43
0.0000000001
 40
0.0
 40
0.0
 40
0.0
 40
0.0
 40
1.0
 40
1.0
 40
1.0
 40
1.0
 10
186.189463767244
 20
-44.02197853476782
 30
0.0
 10
186.1831103151126
 20
-44.2043825048771
 30
0.0
 10
186.1773585560885
 20
-44.38680693624623
 30
0.0
 10
186.1722085840471
 20
-44.56924885153348
 30
0.0
  0
SPLINE
  5
24D
330
70
100
AcDbEntity
  8
0
 62
   144
420
    29337
370
    25
100
AcDbSpline
210
0.0
220
0.0
230
1.0
 70
     8
 71
     3
 72
     8
 73
     4
 74
     0
 42
0.0000000001
 43
0.0000000001
 40
0.0
 40
0.0
 40
0.0
 40
0.0
 40
1.0
 40
1.0
 40
1.0
 40
1.0
 10
186.1894637671862
 20
-44.02197853479605
 30
0.0
 10
186.2729603677634
 20
-44.07194296786526
 30
0.0
 10
186.3565522084214
 20
-44.12174807084258
 30
0.0
 10
186.4402388328556
 20
-44.17139357185425
 30
0.0
  0
SPLINE
  5
24E
330
70
100
AcDbEntity
  8
0
 62
   144
420
    29337
370
    25
100
AcDbSpline
210
0.0
220
0.0
230
1.0
 70
     8
 71
     3
 72
    20
 73
    16
 74
     0
 42
0.0000000001
 43
0.0000000001
 40
0.0
 40
0.0
 40
0.0
 40
0.0
 40
1.0
 40
1.0
 40
1.0
 40
2.0
 40
2.0
 40
2.0
 40
3.0
 40
3.0
 40
3.0
 40
4.0
 40
4.0
 40
4.0
 40
5.0
 40
5.0
 40
5.0
 40
5.0
 10
186.4402388329313
 20
-44.17139357192228
 30
0.0
 10
186.4630434029755
 20
-44.18645026989613
 30
0.0
 10
186.4858479730183
 20
-44.20150696786934
 30
0.0
 10
186.5072527610928
 20
-44.22225795689444
 30
0.0
 10
186.5194422022802
 20
-44.23407507741052
 30
0.0
 10
186.53117769545
 20
-44.24773885132355
 30
0.0
 10
186.541506295131
 20
-44.26292104583952
 30
0.0
 10
186.5519241603512
 20
-44.27823445337659
 30
0.0
 10
186.5609107086744
 20
-44.29509264101413
 30
0.0
 10
186.5676628049298
 20
-44.31241938126576
 30
0.0
 10
186.5735126990149
 20
-44.32743095567095
 30
0.0
 10
186.5776853740009
 20
-44.342794233925
 30
0.0
 10
186.5798270000509
 20
-44.35740543951621
 30
0.0
 10
186.5817537854498
 20
-44.37055089858767
 30
0.0
 10
186.5820365784741
 20
-44.38308760732232
 30
0.0
 10
186.5823193714984
 20
-44.39562431605633
 30
0.0
  0
LINE
  5
24F
330
70
100
AcDbEntity
  8
0
 62
    18
420
        0
370
    25
100
AcDbLine
 10
187.816457682233
 20
-45.48995157246156
 30
0.0
 11
187.9308512535329
 21
-45.5559895755618
 31
0.0
  0
LINE
  5
250
330
70
100
AcDbEntity
  8
0
 62
    18
420
        0
370
    25
100
AcDbLine
 10
187.5388504400335
 20
-45.32969232276169
 30
0.0
 11
187.6506379312333
 21
-45.39422586776188
 31
0.0
  0
LINE
  5
251
330
70
100
AcDbEntity
  8
0
 62
    18
420
        0
370
    25
100
AcDbLine
 10
187.816457682233
 20
-45.1392732357613
 30
0.0
 11
187.7965784186336
 21
-45.12779718116139
 31
0.0
  0
LINE
  5
252
330
70
100
AcDbEntity
  8
0
 62
   144
420
    29337
370
    25
100
AcDbLine
 10
187.9598272119329
 20
-45.40585779356172
 30
0.0
 11
187.9598272119329
 21
-45.37833841596174
 31
0.0
  0
LINE
  5
253
330
70
100
AcDbEntity
  8
0
 62
   144
420
    29337
370
    25
100
AcDbLine
 10
187.9598272119329
 20
-45.37833841596174
 30
0.0
 11
188.0078254478335
 21
-45.40604720776165
 31
0.0
  0
LINE
  5
254
330
70
100
AcDbEntity
  8
0
 62
   144
420
    29337
370
    25
100
AcDbLine
 10
188.0078254478335
 20
-45.40604720776165
 30
0.0
 11
188.0078254478335
 21
-45.6004258320617
 31
0.0
  0
LINE
  5
255
330
70
100
AcDbEntity
  8
0
 62
   144
420
    29337
370
    25
100
AcDbLine
 10
188.0078254478335
 20
-45.6004258320617
 30
0.0
 11
188.1223033129336
 21
-45.66651249686146
 31
0.0
  0
LINE
  5
256
330
70
100
AcDbEntity
  8
0
 62
   144
420
    29337
370
    25
100
AcDbLine
 10
188.1487996316326
 20
-45.51194187216176
 30
0.0
 11
188.1487996316326
 21
-45.48742987186172
 31
0.0
  0
LINE
  5
257
330
70
100
AcDbEntity
  8
0
 62
   144
420
    29337
370
    25
100
AcDbLine
 10
188.1487996316326
 20
-45.48742987186172
 30
0.0
 11
188.2927451682333
 21
-45.57052786136183
 31
0.0
  0
LINE
  5
258
330
70
100
AcDbEntity
  8
0
 62
   144
420
    29337
370
    25
100
AcDbLine
 10
188.0078254478335
 20
-45.07690188476171
 30
0.0
 11
188.0078254478335
 21
-45.25034674006149
 31
0.0
  0
LINE
  5
259
330
70
100
AcDbEntity
  8
0
 62
   144
420
    29337
370
    25
100
AcDbLine
 10
188.0078254478335
 20
-45.25034674006149
 30
0.0
 11
187.9899903064329
 21
-45.2400507321618
 31
0.0
  0
LINE
  5
25A
330
70
100
AcDbEntity
  8
0
 62
   144
420
    29337
370
    25
100
AcDbLine
 10
187.816457682233
 20
-44.96891864816133
 30
0.0
 11
187.816457682233
 21
-45.1392732357613
 31
0.0
  0
LINE
  5
25B
330
70
100
AcDbEntity
  8
0
 62
   144
420
    29337
370
    25
100
AcDbLine
 10
187.5388504400335
 20
-44.81103077526163
 30
0.0
 11
187.5388504400335
 21
-45.32969232276169
 31
0.0
  0
LINE
  5
25C
330
70
100
AcDbEntity
  8
0
 62
   144
420
    29337
370
    25
100
AcDbLine
 10
187.682198896233
 20
-45.24877854816192
 30
0.0
 11
187.682198896233
 21
-45.21806700086152
 31
0.0
  0
LINE
  5
25D
330
70
100
AcDbEntity
  8
0
 62
   144
420
    29337
370
    25
100
AcDbLine
 10
187.682198896233
 20
-45.21806700086152
 30
0.0
 11
187.816457682233
 21
-45.29557294816152
 31
0.0
  0
LINE
  5
25E
330
70
100
AcDbEntity
  8
0
 62
   144
420
    29337
370
    25
100
AcDbLine
 10
187.816457682233
 20
-45.29557294816152
 30
0.0
 11
187.816457682233
 21
-45.48995157246156
 31
0.0
  0
LINE
  5
25F
330
70
100
AcDbEntity
  8
0
 62
   144
420
    29337
370
    25
100
AcDbLine
 10
187.816457682233
 20
-45.1392732357613
 30
0.0
 11
187.7958145070329
 21
-45.15119028716143
 31
0.0
  0
LINE
  5
260
330
70
100
AcDbEntity
  8
0
 62
   144
420
    29337
370
    25
100
AcDbLine
 10
187.816457682233
 20
-45.48995157246156
 30
0.0
 11
187.7849717912325
 21
-45.50812799046169
 31
0.0
  0
LINE
  5
261
330
70
100
AcDbEntity
  8
0
 62
   144
420
    29337
370
    25
100
AcDbLine
 10
187.5388504400335
 20
-45.32969232276169
 30
0.0
 11
187.5053669640333
 21
-45.34902192206181
 31
0.0
  0
LINE
  5
262
330
70
100
AcDbEntity
  8
0
 62
    18
420
        0
370
    25
100
AcDbLine
 10
186.8007326820337
 20
-44.38393307336132
 30
0.0
 11
186.6349621023331
 21
-44.80788869236136
 31
0.0
  0
LINE
  5
263
330
70
100
AcDbEntity
  8
0
 62
    18
420
        0
370
    25
100
AcDbLine
 10
186.9477830365327
 20
-44.91171043316166
 30
0.0
 11
186.9673321497328
 21
-44.99976183656154
 31
0.0
  0
LINE
  5
264
330
70
100
AcDbEntity
  8
0
 62
    18
420
        0
370
    25
100
AcDbLine
 10
186.8311275843337
 20
-44.72923081796151
 30
0.0
 11
186.8760982716327
 21
-44.58962791826173
 31
0.0
  0
LINE
  5
265
330
70
100
AcDbEntity
  8
0
 62
   144
420
    29337
370
    25
100
AcDbLine
 10
186.8760982716327
 20
-44.58962791826173
 30
0.0
 11
186.8774188729334
 21
-44.59039028516131
 31
0.0
  0
LINE
  5
266
330
70
100
AcDbEntity
  8
0
 62
   144
420
    29337
370
    25
100
AcDbLine
 10
186.8774188729334
 20
-44.59039028516131
 30
0.0
 11
186.9191091305332
 21
-44.78002148346162
 31
0.0
  0
LINE
  5
267
330
70
100
AcDbEntity
  8
0
 62
   144
420
    29337
370
    25
100
AcDbLine
 10
186.9191091305332
 20
-44.78002148346162
 30
0.0
 11
186.8311275843337
 21
-44.72923081796151
 31
0.0
  0
LINE
  5
268
330
70
100
AcDbEntity
  8
0
 62
   144
420
    29337
370
    25
100
AcDbLine
 10
186.9673321497328
 20
-44.99976183656154
 30
0.0
 11
187.0710414949333
 21
-45.05963196716153
 31
0.0
  0
LINE
  5
269
330
70
100
AcDbEntity
  8
0
 62
   144
420
    29337
370
    25
100
AcDbLine
 10
186.6349621023331
 20
-44.80788869236136
 30
0.0
 11
186.7575110889325
 21
-44.87863471636159
 31
0.0
  0
LINE
  5
26A
330
70
100
AcDbEntity
  8
0
 62
   144
420
    29337
370
    25
100
AcDbLine
 10
186.7903294349332
 20
-44.85584385946186
 30
0.0
 11
186.7998475982327
 21
-44.82630912246155
 31
0.0
  0
LINE
  5
26B
330
70
100
AcDbEntity
  8
0
 62
   144
420
    29337
370
    25
100
AcDbLine
 10
186.7998475982327
 20
-44.82630912246155
 30
0.0
 11
186.9477830365327
 21
-44.91171043316166
 31
0.0
  0
LINE
  5
26C
330
70
100
AcDbEntity
  8
0
 62
   144
420
    29337
370
    25
100
AcDbLine
 10
186.6349621023331
 20
-44.80788869236136
 30
0.0
 11
186.6040421206332
 21
-44.82573841786144
 31
0.0
  0
LINE
  5
26D
330
70
100
AcDbEntity
  8
0
 62
   144
420
    29337
370
    25
100
AcDbLine
 10
186.8760982716327
 20
-44.58962791826173
 30
0.0
 11
186.8542056180337
 21
-44.60226627826144
 31
0.0
  0
LINE
  5
26E
330
70
100
AcDbEntity
  8
0
 62
   144
420
    29337
370
    25
100
AcDbLine
 10
186.8311275843337
 20
-44.72923081796151
 30
0.0
 11
186.8042115531336
 21
-44.74476911196155
 31
0.0
  0
SPLINE
  5
26F
330
70
100
AcDbEntity
  8
0
 62
   144
420
    29337
370
    25
100
AcDbSpline
210
0.0
220
0.0
230
1.0
 70
     8
 71
     3
 72
     8
 73
     4
 74
     0
 42
0.0000000001
 43
0.0000000001
 40
0.0
 40
0.0
 40
0.0
 40
0.0
 40
1.0
 40
1.0
 40
1.0
 40
1.0
 10
186.8542056180285
 20
-44.60226627822229
 30
0.0
 10
186.8374905754868
 20
-44.64974954210028
 30
0.0
 10
186.8208258778359
 20
-44.69725051337322
 30
0.0
 10
186.8042115531682
 20
-44.74476911195834
 30
0.0
  0
SPLINE
  5
270
330
70
100
AcDbEntity
  8
0
 62
    18
420
        0
370
    25
100
AcDbSpline
210
0.0
220
0.0
230
1.0
 70
     8
 71
     3
 72
    14
 73
    10
 74
     0
 42
0.0000000001
 43
0.0000000001
 40
0.0
 40
0.0
 40
0.0
 40
0.0
 40
1.0
 40
1.0
 40
1.0
 40
2.0
 40
2.0
 40
2.0
 40
3.0
 40
3.0
 40
3.0
 40
3.0
 10
186.4608394222303
 20
-44.70736980870397
 30
0.0
 10
186.4830172177724
 20
-44.7173633054314
 30
0.0
 10
186.5051950133133
 20
-44.72735680215882
 30
0.0
 10
186.527466565251
 20
-44.73281853122896
 30
0.0
 10
186.5489503755436
 20
-44.73808707971339
 30
0.0
 10
186.5705214272231
 20
-44.73913876713978
 30
0.0
 10
186.5833673353256
 20
-44.72637470007319
 30
0.0
 10
186.5840708378433
 20
-44.72567567955693
 30
0.0
 10
186.584748172136
 20
-44.7249352231855
 30
0.0
 10
186.5854255064287
 20
-44.72419476681471
 30
0.0
  0
LINE
  5
271
330
70
100
AcDbEntity
  8
0
 62
    18
420
        0
370
    25
100
AcDbLine
 10
186.3402432397337
 20
-44.40972733046178
 30
0.0
 11
186.4301846144332
 21
-44.46164938086184
 31
0.0
  0
LINE
  5
272
330
70
100
AcDbEntity
  8
0
 62
   144
420
    29337
370
    25
100
AcDbLine
 10
186.3402432397337
 20
-44.22838532146136
 30
0.0
 11
186.4158406369337
 21
-44.27202676996159
 31
0.0
  0
SPLINE
  5
273
330
70
100
AcDbEntity
  8
0
 62
   144
420
    29337
370
    25
100
AcDbSpline
210
0.0
220
0.0
230
1.0
 70
     8
 71
     3
 72
    23
 73
    19
 74
     0
 42
0.0000000001
 43
0.0000000001
 40
0.0
 40
0.0
 40
0.0
 40
0.0
 40
1.0
 40
1.0
 40
1.0
 40
2.0
 40
2.0
 40
2.0
 40
3.0
 40
3.0
 40
3.0
 40
4.0
 40
4.0
 40
4.0
 40
5.0
 40
5.0
 40
5.0
 40
6.0
 40
6.0
 40
6.0
 40
6.0
 10
186.4158406369696
 20
-44.2720267700001
 30
0.0
 10
186.4225409234327
 20
-44.27615576660648
 30
0.0
 10
186.4292412098958
 20
-44.28028476321348
 30
0.0
 10
186.4358533655373
 20
-44.28552792472672
 30
0.0
 10
186.4412396597982
 20
-44.28979902968776
 30
0.0
 10
186.4465674721099
 20
-44.2948094734359
 30
0.0
 10
186.4512720876176
 20
-44.30074562178171
 30
0.0
 10
186.4533358136604
 20
-44.30334957186332
 30
0.0
 10
186.4552796226264
 20
-44.30613164832315
 30
0.0
 10
186.4569829855917
 20
-44.30906125460128
 30
0.0
 10
186.458631835012
 20
-44.31189710328129
 30
0.0
 10
186.4600553823814
 20
-44.31487118994737
 30
0.0
 10
186.4611976704423
 20
-44.31787132869413
 30
0.0
 10
186.462391763126
 20
-44.32100752861376
 30
0.0
 10
186.4632785068818
 20
-44.32417219720517
 30
0.0
 10
186.4638107750499
 20
-44.32720399107464
 30
0.0
 10
186.4644085355841
 20
-44.33060882877109
 30
0.0
 10
186.4645592217012
 20
-44.33384608119217
 30
0.0
 10
186.4647099078182
 20
-44.33708333361325
 30
0.0
  0
SPLINE
  5
274
330
70
100
AcDbEntity
  8
0
 62
   144
420
    29337
370
    25
100
AcDbSpline
210
0.0
220
0.0
230
1.0
 70
     8
 71
     3
 72
    23
 73
    19
 74
     0
 42
0.0000000001
 43
0.0000000001
 40
0.0
 40
0.0
 40
0.0
 40
0.0
 40
1.0
 40
1.0
 40
1.0
 40
2.0
 40
2.0
 40
2.0
 40
3.0
 40
3.0
 40
3.0
 40
4.0
 40
4.0
 40
4.0
 40
5.0
 40
5.0
 40
5.0
 40
6.0
 40
6.0
 40
6.0
 40
6.0
 10
186.4647099078182
 20
-44.33708333361325
 30
0.0
 10
186.4645512184141
 20
-44.3414731269315
 30
0.0
 10
186.4643925290099
 20
-44.34586292024977
 30
0.0
 10
186.4636562366056
 20
-44.34982853705167
 30
0.0
 10
186.4630446796768
 20
-44.35312233774266
 30
0.0
 10
186.4620346463692
 20
-44.3561235078172
 30
0.0
 10
186.4605514187651
 20
-44.35858048882601
 30
0.0
 10
186.4592302627657
 20
-44.36076899663838
 30
0.0
 10
186.4575336740568
 20
-44.36252574444103
 30
0.0
 10
186.4554937969436
 20
-44.36367961359619
 30
0.0
 10
186.4534677034604
 20
-44.36482568595529
 30
0.0
 10
186.4511029451582
 20
-44.36537699954944
 30
0.0
 10
186.4485817137879
 20
-44.36546658950994
 30
0.0
 10
186.4441250563461
 20
-44.36562495330316
 30
0.0
 10
186.4391794846496
 20
-44.36434061983311
 30
0.0
 10
186.4341955894968
 20
-44.36239389491094
 30
0.0
 10
186.4281152983152
 20
-44.36001891429623
 30
0.0
 10
186.4219779676431
 20
-44.35665804999542
 30
0.0
 10
186.4158406369696
 20
-44.35329718569525
 30
0.0
  0
LINE
  5
275
330
70
100
AcDbEntity
  8
0
 62
   144
420
    29337
370
    25
100
AcDbLine
 10
186.4158406369337
 20
-44.35329718566189
 30
0.0
 11
186.3402432397337
 21
-44.30965573716164
 31
0.0
  0
LINE
  5
276
330
70
100
AcDbEntity
  8
0
 62
   144
420
    29337
370
    25
100
AcDbLine
 10
186.3402432397337
 20
-44.30965573716164
 30
0.0
 11
186.3402432397337
 21
-44.22838532146136
 31
0.0
  0
SPLINE
  5
277
330
70
100
AcDbEntity
  8
0
 62
   144
420
    29337
370
    25
100
AcDbSpline
210
0.0
220
0.0
230
1.0
 70
     8
 71
     3
 72
     8
 73
     4
 74
     0
 42
0.0000000001
 43
0.0000000001
 40
0.0
 40
0.0
 40
0.0
 40
0.0
 40
1.0
 40
1.0
 40
1.0
 40
1.0
 10
186.4301858424193
 20
-44.46164986630139
 30
0.0
 10
186.4634056058632
 20
-44.48082722753532
 30
0.0
 10
186.4803742488162
 20
-44.50715912753199
 30
0.0
 10
186.4803742488162
 20
-44.53955262841786
 30
0.0
  0
SPLINE
  5
278
330
70
100
AcDbEntity
  8
0
 62
   144
420
    29337
370
    25
100
AcDbSpline
210
0.0
220
0.0
230
1.0
 70
     8
 71
     3
 72
    20
 73
    16
 74
     0
 42
0.0000000001
 43
0.0000000001
 40
0.0
 40
0.0
 40
0.0
 40
0.0
 40
1.0
 40
1.0
 40
1.0
 40
2.0
 40
2.0
 40
2.0
 40
3.0
 40
3.0
 40
3.0
 40
4.0
 40
4.0
 40
4.0
 40
5.0
 40
5.0
 40
5.0
 40
5.0
 10
186.4803744865144
 20
-44.53955282715141
 30
0.0
 10
186.4801364834927
 20
-44.54465672409104
 30
0.0
 10
186.479898480471
 20
-44.54976062103066
 30
0.0
 10
186.4788712489182
 20
-44.55426184144644
 30
0.0
 10
186.4780078735724
 20
-44.5580450612257
 30
0.0
 10
186.4765869719269
 20
-44.56140253865053
 30
0.0
 10
186.4746144172182
 20
-44.56402607742631
 30
0.0
 10
186.4728222612313
 20
-44.56640968215141
 30
0.0
 10
186.4705747403632
 20
-44.56818745341286
 30
0.0
 10
186.4680114109512
 20
-44.56943941837891
 30
0.0
 10
186.4654695551646
 20
-44.57068089533435
 30
0.0
 10
186.4626171598776
 20
-44.5714053387056
 30
0.0
 10
186.4594626251784
 20
-44.57109219942508
 30
0.0
 10
186.4576250040125
 20
-44.57090978540061
 30
0.0
 10
186.4556848533714
 20
-44.57037527297478
 30
0.0
 10
186.4537447027303
 20
-44.56984076054894
 30
0.0
  0
LINE
  5
279
330
70
100
AcDbEntity
  8
0
 62
   144
420
    29337
370
    25
100
AcDbLine
 10
186.5429274341332
 20
-44.45750492556133
 30
0.0
 11
186.562940162733
 21
-44.45329540656188
 31
0.0
  0
LINE
  5
27A
330
70
100
AcDbEntity
  8
0
 62
   144
420
    29337
370
    25
100
AcDbLine
 10
186.1968947834329
 20
-44.02642515166156
 30
0.0
 11
186.1968947834329
 21
-44.55499781206181
 31
0.0
  0
LINE
  5
27B
330
70
100
AcDbEntity
  8
0
 62
   144
420
    29337
370
    25
100
AcDbLine
 10
186.1968947834329
 20
-44.55499781206181
 30
0.0
 11
186.4608394222329
 21
-44.70736980866162
 31
0.0
  0
LINE
  5
27C
330
70
100
AcDbEntity
  8
0
 62
   144
420
    29337
370
    25
100
AcDbLine
 10
186.9673321497328
 20
-44.99976183656154
 30
0.0
 11
186.9338565762331
 21
-45.01908687376138
 31
0.0
  0
LINE
  5
27D
330
70
100
AcDbEntity
  8
0
 62
   144
420
    29337
370
    25
100
AcDbLine
 10
186.9477830365327
 20
-44.91171043316166
 30
0.0
 11
186.9166452960336
 21
-44.92968586816195
 31
0.0
  0
LINE
  5
27E
330
70
100
AcDbEntity
  8
0
 62
   144
420
    29337
370
    25
100
AcDbLine
 10
186.4608394222329
 20
-44.70736980866162
 30
0.0
 11
186.4320070265336
 21
-44.72401439646179
 31
0.0
  0
SPLINE
  5
27F
330
70
100
AcDbEntity
  8
0
 62
    18
420
        0
370
    25
100
AcDbSpline
210
0.0
220
0.0
230
1.0
 70
     8
 71
     3
 72
     8
 73
     4
 74
     0
 42
0.0000000001
 43
0.0000000001
 40
0.0
 40
0.0
 40
0.0
 40
0.0
 40
1.0
 40
1.0
 40
1.0
 40
1.0
 10
186.3200311916773
 20
-44.42139549742256
 30
0.0
 10
186.3495573821711
 20
-44.43897819670171
 30
0.0
 10
186.3790954515575
 20
-44.45654094036189
 30
0.0
 10
186.4086453796192
 20
-44.47408371638216
 30
0.0
  0
SPLINE
  5
280
330
70
100
AcDbEntity
  8
0
 62
   144
420
    29337
370
    25
100
AcDbSpline
210
0.0
220
0.0
230
1.0
 70
     8
 71
     3
 72
    17
 73
    13
 74
     0
 42
0.0000000001
 43
0.0000000001
 40
0.0
 40
0.0
 40
0.0
 40
0.0
 40
1.0
 40
1.0
 40
1.0
 40
2.0
 40
2.0
 40
2.0
 40
3.0
 40
3.0
 40
3.0
 40
4.0
 40
4.0
 40
4.0
 40
4.0
 10
186.4566236348714
 20
-44.5532635660026
 30
0.0
 10
186.4568485513832
 20
-44.54587102772634
 30
0.0
 10
186.4562614549886
 20
-44.5380526902084
 30
0.0
 10
186.4541862024821
 20
-44.5298273688629
 30
0.0
 10
186.4521109499768
 20
-44.52160204751739
 30
0.0
 10
186.4484418789633
 20
-44.51324716823441
 30
0.0
 10
186.4436004475118
 20
-44.50592136160679
 30
0.0
 10
186.4387590160603
 20
-44.49859555497918
 30
0.0
 10
186.4329626374496
 20
-44.49239369873819
 30
0.0
 10
186.4269653992391
 20
-44.48718382788707
 30
0.0
 10
186.4209681610298
 20
-44.48197395703595
 30
0.0
 10
186.4148416904992
 20
-44.47776213215326
 30
0.0
 10
186.4086465228163
 20
-44.47408425083469
 30
0.0
  0
SPLINE
  5
281
330
70
100
AcDbEntity
  8
0
 62
   144
420
    29337
370
    25
100
AcDbSpline
210
0.0
220
0.0
230
1.0
 70
     8
 71
     3
 72
     8
 73
     4
 74
     0
 42
0.0000000001
 43
0.0000000001
 40
0.0
 40
0.0
 40
0.0
 40
0.0
 40
1.0
 40
1.0
 40
1.0
 40
1.0
 10
186.3200311916837
 20
-44.42139549734683
 30
0.0
 10
186.3189773804048
 20
-44.4553511989342
 30
0.0
 10
186.3179446360746
 20
-44.48930755106579
 30
0.0
 10
186.3169329592885
 20
-44.52326453412679
 30
0.0
  0
SPLINE
  5
282
330
70
100
AcDbEntity
  8
0
 62
   144
420
    29337
370
    25
100
AcDbSpline
210
0.0
220
0.0
230
1.0
 70
     8
 71
     3
 72
     8
 73
     4
 74
     0
 42
0.0000000001
 43
0.0000000001
 40
0.0
 40
0.0
 40
0.0
 40
0.0
 40
1.0
 40
1.0
 40
1.0
 40
1.0
 10
186.3169329592796
 20
-44.52326453423074
 30
0.0
 10
186.344537762837
 20
-44.53970274396308
 30
0.0
 10
186.3721528809712
 20
-44.55612362618501
 30
0.0
 10
186.3997782973481
 20
-44.57252717118637
 30
0.0
  0
SPLINE
  5
283
330
70
100
AcDbEntity
  8
0
 62
   144
420
    29337
370
    25
100
AcDbSpline
210
0.0
220
0.0
230
1.0
 70
     8
 71
     3
 72
    17
 73
    13
 74
     0
 42
0.0000000001
 43
0.0000000001
 40
0.0
 40
0.0
 40
0.0
 40
0.0
 40
1.0
 40
1.0
 40
1.0
 40
2.0
 40
2.0
 40
2.0
 40
3.0
 40
3.0
 40
3.0
 40
4.0
 40
4.0
 40
4.0
 40
4.0
 10
186.3997782442398
 20
-44.5725271898457
 30
0.0
 10
186.4065103395074
 20
-44.57652449822459
 30
0.0
 10
186.413209618281
 20
-44.57998541617546
 30
0.0
 10
186.4198425266195
 20
-44.58238177491731
 30
0.0
 10
186.4264754349569
 20
-44.5847781336598
 30
0.0
 10
186.4330830076595
 20
-44.58609817473793
 30
0.0
 10
186.4388863007442
 20
-44.58506015457833
 30
0.0
 10
186.4446895938289
 20
-44.58402213441807
 30
0.0
 10
186.4493898786292
 20
-44.58038142129608
 30
0.0
 10
186.452288249717
 20
-44.5746015547176
 30
0.0
 10
186.455186620806
 20
-44.56882168813847
 30
0.0
 10
186.4563785805565
 20
-44.56131799200877
 30
0.0
 10
186.4566236348714
 20
-44.5532635660026
 30
0.0
  0
LINE
  5
284
330
70
100
AcDbEntity
  8
0
 62
   144
420
    29337
370
    25
100
AcDbLine
 10
186.4301846144332
 20
-44.46164938086184
 30
0.0
 11
186.4086453796333
 21
-44.47408371636162
 31
0.0
  0
LINE
  5
285
330
70
100
AcDbEntity
  8
0
 62
   144
420
    29337
370
    25
100
AcDbLine
 10
186.3402432397337
 20
-44.40972733046178
 30
0.0
 11
186.3200311916336
 21
-44.42139549736159
 31
0.0
  0
LINE
  5
286
330
70
100
AcDbEntity
  8
0
 62
   144
420
    29337
370
    25
100
AcDbLine
 10
187.0820277734331
 20
-44.66636617066133
 30
0.0
 11
187.2123528535326
 21
-44.7416012379615
 31
0.0
  0
LINE
  5
287
330
70
100
AcDbEntity
  8
0
 62
   144
420
    29337
370
    25
100
AcDbLine
 10
187.2123528535326
 20
-44.7416012379615
 30
0.0
 11
187.2123528535326
 21
-45.14120927806159
 31
0.0
  0
LINE
  5
288
330
70
100
AcDbEntity
  8
0
 62
   144
420
    29337
370
    25
100
AcDbLine
 10
187.2123528535326
 20
-45.14120927806159
 30
0.0
 11
187.3227214008336
 21
-45.20492368426145
 31
0.0
  0
LINE
  5
289
330
70
100
AcDbEntity
  8
0
 62
   144
420
    29337
370
    25
100
AcDbLine
 10
187.3557083343331
 20
-44.8492556435613
 30
0.0
 11
187.3557083343331
 21
-44.82435859546167
 31
0.0
  0
LINE
  5
28A
330
70
100
AcDbEntity
  8
0
 62
   144
420
    29337
370
    25
100
AcDbLine
 10
187.3557083343331
 20
-44.82435859546167
 30
0.0
 11
187.4656202907329
 21
-44.88780941736154
 31
0.0
  0
LINE
  5
28B
330
70
100
AcDbEntity
  8
0
 62
   144
420
    29337
370
    25
100
AcDbLine
 10
187.0820277734331
 20
-44.5479653938619
 30
0.0
 11
187.0820277734331
 21
-44.66636617066133
 31
0.0
  0
SPLINE
  5
28C
330
70
100
AcDbEntity
  8
0
 62
   144
420
    29337
370
    25
100
AcDbSpline
210
0.0
220
0.0
230
1.0
 70
     8
 71
     3
 72
     8
 73
     4
 74
     0
 42
0.0000000001
 43
0.0000000001
 40
0.0
 40
0.0
 40
0.0
 40
0.0
 40
1.0
 40
1.0
 40
1.0
 40
1.0
 10
187.9407083477202
 20
-45.23367503366784
 30
0.0
 10
187.9389888606356
 20
-45.28653701471296
 30
0.0
 10
187.9373199617459
 20
-45.33940062916257
 30
0.0
 10
187.9357016533432
 20
-45.39226580440776
 30
0.0
  0
SPLINE
  5
28D
330
70
100
AcDbEntity
  8
0
 62
   144
420
    29337
370
    25
100
AcDbSpline
210
0.0
220
0.0
230
1.0
 70
     8
 71
     3
 72
     8
 73
     4
 74
     0
 42
0.0000000001
 43
0.0000000001
 40
0.0
 40
0.0
 40
0.0
 40
0.0
 40
1.0
 40
1.0
 40
1.0
 40
1.0
 10
187.8252817396268
 20
-45.16849291917093
 30
0.0
 10
187.8637392448818
 20
-45.1902522046925
 30
0.0
 10
187.9022147941657
 20
-45.21197958365251
 30
0.0
 10
187.940708347751
 20
-45.2336750336165
 30
0.0
  0
SPLINE
  5
28E
330
70
100
AcDbEntity
  8
0
 62
   144
420
    29337
370
    25
100
AcDbSpline
210
0.0
220
0.0
230
1.0
 70
     8
 71
     3
 72
     8
 73
     4
 74
     0
 42
0.0000000001
 43
0.0000000001
 40
0.0
 40
0.0
 40
0.0
 40
0.0
 40
1.0
 40
1.0
 40
1.0
 40
1.0
 10
187.8252817396165
 20
-45.16849291909265
 30
0.0
 10
187.8235622525293
 20
-45.2213549001859
 30
0.0
 10
187.8218933536384
 20
-45.27421851468363
 30
0.0
 10
187.8202750452344
 20
-45.32708368997824
 30
0.0
  0
SPLINE
  5
28F
330
70
100
AcDbEntity
  8
0
 62
   144
420
    29337
370
    25
100
AcDbSpline
210
0.0
220
0.0
230
1.0
 70
     8
 71
     3
 72
     8
 73
     4
 74
     0
 42
0.0000000001
 43
0.0000000001
 40
0.0
 40
0.0
 40
0.0
 40
0.0
 40
1.0
 40
1.0
 40
1.0
 40
1.0
 10
187.8202750452434
 20
-45.32708368998529
 30
0.0
 10
187.8587326451169
 20
-45.34884280808053
 30
0.0
 10
187.8972081942468
 20
-45.37057018695326
 30
0.0
 10
187.9357016533227
 20
-45.39226580440648
 30
0.0
  0
LWPOLYLINE
  5
290
330
70
100
AcDbEntity
  8
0
 62
    18
420
        0
370
    25
100
AcDbPolyline
 90
       30
 70
     0
 43
0.0
 10
164.9261376661329
 20
-59.23314122786159
 10
165.1290536683337
 20
-59.3729970423616
 10
165.3230064407329
 20
-59.55752018286165
 10
165.4989133374333
 20
-59.77807479786139
 10
165.6485486986334
 20
-60.02434775446131
 10
165.7649231718336
 20
-60.28482788476175
 10
165.8425927891336
 20
-60.54733397106141
 10
165.8779258971335
 20
-60.79959159606188
 10
165.8692717442334
 20
-61.02980627766148
 10
165.8170307255333
 20
-61.22721098036138
 10
165.7236473581329
 20
-61.38257629116166
 10
165.5934908655336
 20
-61.48863911016151
 10
165.4326444426335
 20
-61.54043843046166
 10
165.2486313020327
 20
-61.53555337296169
 10
165.0500494008337
 20
-61.47420892496179
 10
164.8461921190332
 20
-61.35927775036173
 10
164.6465916689327
 20
-61.19613428656183
 10
164.4605765530325
 20
-60.99240402366188
 10
164.2968430710334
 20
-60.75761240106167
 10
164.1630479004331
 20
-60.50273839026162
 10
164.0654568727331
 20
-60.23970517616181
 10
164.0086218475328
 20
-59.98080535696152
 10
163.9952051007325
 20
-59.7381475176618
 10
164.0258318106335
 20
-59.52307683446186
 10
164.0990689844325
 20
-59.34564921696141
 10
164.2115027273326
 20
-59.21416711736174
 10
164.3578576587333
 20
-59.13476809286181
 10
164.5313059893333
 20
-59.11117366576162
 10
164.7237344506334
 20
-59.14448536726151
 10
164.9261376661329
 20
-59.23314122786159
  0
LWPOLYLINE
  5
291
330
70
100
AcDbEntity
  8
0
 62
   144
420
    29337
370
    25
100
AcDbPolyline
 90
       12
 70
     0
 43
0.0
 10
165.0439890352338
 20
-59.16510708066143
 10
165.2469050373331
 20
-59.30496289516144
 10
165.4408578097337
 20
-59.48948603566149
 10
165.6167647064327
 20
-59.71004065066186
 10
165.7664000676329
 20
-59.9563136073619
 10
165.882774540833
 20
-60.21679373756159
 10
165.960444158133
 20
-60.47929982396135
 10
165.9957772661329
 20
-60.73155744886172
 10
165.9871231132329
 20
-60.96177213046132
 10
165.9348820945328
 20
-61.15917683316187
 10
165.8414987272337
 20
-61.3145421439615
 10
165.7216260655325
 20
-61.41484982876137
  0
SPLINE
  5
292
330
70
100
AcDbEntity
  8
0
 62
   144
420
    29337
370
    25
100
AcDbSpline
210
0.0
220
0.0
230
1.0
 70
     8
 71
     3
 72
     8
 73
     4
 74
     0
 42
0.0000000001
 43
0.0000000001
 40
0.0
 40
0.0
 40
0.0
 40
0.0
 40
1.0
 40
1.0
 40
1.0
 40
1.0
 10
165.043989035158
 20
-59.16510708069608
 30
0.0
 10
164.852305189788
 20
-59.02820134413791
 30
0.0
 10
164.6016680504763
 20
-59.0053696608803
 30
0.0
 10
164.3884018310451
 20
-59.10538664407842
 30
0.0
  0
LWPOLYLINE
  5
293
330
70
100
AcDbEntity
  8
0
 62
    18
420
        0
370
    25
100
AcDbPolyline
 90
       30
 70
     0
 43
0.0
 10
98.76257123443267
 20
-21.31206369336151
 10
98.92879371283363
 20
-21.27171322366148
 10
99.11650523943283
 20
-21.2882179338614
 10
99.31692856823332
 20
-21.36080617566154
 10
99.52069215833308
 20
-21.48608373406161
 10
99.71826822893362
 20
-21.65819279376137
 10
99.90041837453354
 20
-21.86908572806164
 10
100.0586254059328
 20
-22.1089013920614
 10
100.185491810233
 20
-22.36642626626168
 10
100.2750854185329
 20
-22.62961885056148
 10
100.3232169000332
 20
-22.88617249206192
 10
100.3276357336327
 20
-23.1240910282617
 10
100.2881352462335
 20
-23.33224965916143
 10
100.2065624905335
 20
-23.5009150864613
 10
100.0867317013336
 20
-23.62220080166186
 10
99.93424599493312
 20
-23.69043550706159
 10
99.75623548753315
 20
-23.70242867696156
 10
99.56102371523282
 20
-23.65761956056168
 10
99.35773858513305
 20
-23.55810322396152
 10
99.15588548753319
 20
-23.40853322806144
 10
98.96490280583355
 20
-23.21590298926174
 10
98.79372071893284
 20
-22.98921985166189
 10
98.65034356113319
 20
-22.73908331466132
 10
98.54147534283313
 20
-22.47718928656139
 10
98.47220677783283
 20
-22.21578384736186
 10
98.44577664273295
 20
-21.96708987856159
 10
98.46342091603297
 20
-21.74273613206178
 10
98.52431449613353
 20
-21.55321308466133
 10
98.62561011113314
 20
-21.40738269746162
 10
98.76257123443267
 20
-21.31206369336151
  0
LWPOLYLINE
  5
294
330
70
100
AcDbEntity
  8
0
 62
    18
420
        0
370
    25
100
AcDbPolyline
 90
       17
 70
     0
 43
0.0
 10
98.83960310633325
 20
-21.26487059826137
 10
98.8804226034334
 20
-21.24402954616135
 10
99.04664508183309
 20
-21.20367907646132
 10
99.23435660843356
 20
-21.22018378666188
 10
99.43477993733289
 20
-21.29277202846138
 10
99.63854352743327
 20
-21.41804958686145
 10
99.83611959793307
 20
-21.59015864656185
 10
100.018269743533
 20
-21.80105158086147
 10
100.1764767749336
 20
-22.04086724486189
 10
100.3033431792331
 20
-22.29839211906152
 10
100.392936787533
 20
-22.56158470336131
 10
100.4410682690327
 20
-22.81813834486176
 10
100.4454871027336
 20
-23.05605688106155
 10
100.4059866153331
 20
-23.26421551196191
 10
100.324413859533
 20
-23.43288093926178
 10
100.204583070333
 20
-23.5541666544617
 10
100.1728281090332
 20
-23.57433422656178
  0
SPLINE
  5
295
330
70
100
AcDbEntity
  8
0
 62
     8
420
  8421504
370
    25
100
AcDbSpline
210
0.0
220
0.0
230
1.0
 70
     8
 71
     3
 72
     8
 73
     4
 74
     0
 42
0.0000000001
 43
0.0000000001
 40
0.0
 40
0.0
 40
0.0
 40
0.0
 40
1.0
 40
1.0
 40
1.0
 40
1.0
 10
118.6160656062492
 20
-7.774692365818517
 30
0.0
 10
118.6293442430387
 20
-8.41321368164138
 30
0.0
 10
118.7484917298574
 20
-9.045105398805233
 30
0.0
 10
118.9686527504882
 20
-9.644617632166458
 30
0.0
  0
LWPOLYLINE
  5
296
330
70
100
AcDbEntity
  8
0
 62
     8
420
  8421504
370
    25
100
AcDbPolyline
 90
       47
 70
     0
 43
0.0
 10
120.3018776434333
 20
-11.95408132386159
 10
120.5059212933327
 20
-12.18376316266182
 10
120.8478818341325
 20
-12.52489849286139
 10
121.2019795148336
 20
-12.82622558886187
 10
121.5634257016336
 20
-13.08366924646172
 10
121.9273325125335
 20
-13.29374817676166
 10
122.2887786993337
 20
-13.45362140356175
 10
122.6428763800334
 20
-13.56112678746164
 10
122.9848369208332
 20
-13.61481069366186
 10
123.3100358575335
 20
-13.61394671196177
 10
123.6140755396335
 20
-13.55854723216131
 10
123.8928444543334
 20
-13.44936093566132
 10
124.142572434333
 20
-13.28786436146166
 10
124.3598824632331
 20
-13.07624162226184
 10
124.5418358961336
 20
-12.81735461576166
 10
124.6859719716331
 20
-12.51470411016158
 10
124.7903416175334
 20
-12.17238322656128
 10
124.8535333533331
 20
-11.79502103496165
 10
124.8746926079334
 20
-11.38772082846159
 10
124.8535333533331
 20
-10.95599066666136
 10
124.7903416175334
 20
-10.50566884986166
 10
124.6859719716331
 20
-10.04284533806172
 10
124.5418358961336
 20
-9.573778862061633
 10
124.3598824632331
 20
-9.104812893561584
 10
124.142572434333
 20
-8.64228933556174
 10
123.8928444543334
 20
-8.192462972861648
 10
123.6140755396335
 20
-7.761416938461664
 10
123.3100358575335
 20
-7.354980713761794
 10
122.9848369208332
 20
-6.978650031661922
 10
122.6428763800334
 20
-6.637514701461708
 10
122.2887786993337
 20
-6.336187605561331
 10
121.9273325125335
 20
-6.078743947861377
 10
121.5634257016336
 20
-5.868665017661543
 10
121.2019795148336
 20
-5.708791790761346
 10
120.8478818341325
 20
-5.601286406861459
 10
120.5059212933327
 20
-5.547602500661886
 10
120.1807223566337
 20
-5.548466482361329
 10
119.8766826745336
 20
-5.603865962161791
 10
119.5979137598325
 20
-5.713052258661782
 10
119.3481857798329
 20
-5.874548832961545
 10
119.1308757508328
 20
-6.086171572061904
 10
118.9489223179335
 20
-6.345058578661545
 10
118.8047862424327
 20
-6.647709084161515
 10
118.7004165966325
 20
-6.990029967761818
 10
118.6372248607327
 20
-7.367392159361452
 10
118.6160656062338
 20
-7.774692365861511
 10
118.6160656062338
 20
-7.774692365861511
  0
LWPOLYLINE
  5
297
330
70
100
AcDbEntity
  8
0
 62
     8
420
  8421504
370
    25
100
AcDbPolyline
 90
       25
 70
     0
 43
0.0
 10
120.2160930016325
 20
-5.339284315761596
 10
120.5167430454338
 20
-5.33177562146182
 10
120.8615690231333
 20
-5.375808921261485
 10
121.2194510299336
 20
-5.473780470561305
 10
121.5857235247326
 20
-5.624412891561644
 10
121.9556115593336
 20
-5.825742574661317
 10
122.3242931265328
 20
-6.075144771261748
 10
122.6869618189331
 20
-6.369367990961434
 10
123.038889814933
 20
-6.704576954161776
 10
123.3754890351332
 20
-7.076401330861612
 10
123.6923715425326
 20
-7.479994183761708
 10
123.9854061776333
 20
-7.910093814361518
 10
124.2507728335326
 20
-8.361093371261837
 10
124.4850122857325
 20
-8.827113216661912
 10
124.6850704242334
 20
-9.302078045461877
 10
124.8483394128333
 20
-9.779796160161449
 10
124.9726906161325
 20
-10.25403956936138
 10
125.0565033561328
 20
-10.71862605196169
 10
125.0986846685336
 20
-11.16749884536137
 10
125.0986846685336
 20
-11.59480617596187
 10
125.0565033561328
 20
-11.99497746276138
 10
124.9726906161325
 20
-12.36279581556191
 10
124.8483394128333
 20
-12.69346638146193
 10
124.6850704242334
 20
-12.98267813436168
 10
124.6787789095325
 20
-12.99185206186146
  0
LWPOLYLINE
  5
298
330
70
100
AcDbEntity
  8
0
 62
     8
420
  8421504
370
    25
100
AcDbPolyline
 90
       12
 70
     0
 43
0.0
 10
122.6125798204329
 20
-10.16912648226165
 10
122.590537457633
 20
-9.922358849361684
 10
122.5254410464327
 20
-9.661680211261446
 10
122.4203344893326
 20
-9.399279678761894
 10
122.2801323940329
 20
-9.147426795961631
 10
122.1113904341327
 20
-8.917897840661312
 10
121.9219988782327
 20
-8.721425388061906
 10
121.7208133870325
 20
-8.567196262561926
 10
121.5172412069329
 20
-8.462422156061458
 10
121.3208011394337
 20
-8.412001952661764
 10
121.1406785151334
 20
-8.418293465061559
 10
120.9993974496327
 20
-8.472318281961873
  0
SPLINE
  5
299
330
70
100
AcDbEntity
  8
0
 62
     8
420
  8421504
370
    25
100
AcDbSpline
210
0.0
220
0.0
230
1.0
 70
     8
 71
     3
 72
     8
 73
     4
 74
     0
 42
0.0000000001
 43
0.0000000001
 40
0.0
 40
0.0
 40
0.0
 40
0.0
 40
1.0
 40
1.0
 40
1.0
 40
1.0
 10
122.3326011045252
 20
-10.78174493468257
 30
0.0
 10
122.5313119752699
 20
-10.64441938526355
 30
0.0
 10
122.6387909351917
 20
-10.40924581538859
 30
0.0
 10
122.6125798203687
 20
-10.16912648227449
 30
0.0
  0
SPLINE
  5
29A
330
70
100
AcDbEntity
  8
0
 62
     8
420
  8421504
370
    25
100
AcDbSpline
210
0.0
220
0.0
230
1.0
 70
     8
 71
     3
 72
     8
 73
     4
 74
     0
 42
0.0000000001
 43
0.0000000001
 40
0.0
 40
0.0
 40
0.0
 40
0.0
 40
1.0
 40
1.0
 40
1.0
 40
1.0
 10
184.1412946389268
 20
-45.60160191804592
 30
0.0
 10
184.1548567691705
 20
-46.24815282373885
 30
0.0
 10
184.2767745224415
 20
-46.88784917125816
 30
0.0
 10
184.5019733195322
 20
-47.49406489756208
 30
0.0
  0
LWPOLYLINE
  5
29B
330
70
100
AcDbEntity
  8
0
 62
     8
420
  8421504
370
    25
100
AcDbPolyline
 90
       46
 70
     0
 43
0.0
 10
185.8426505217329
 20
-49.79923190826184
 10
186.0311523016335
 20
-50.01067385536167
 10
186.3731107570334
 20
-50.35180798166134
 10
186.7272075048336
 20
-50.65313453906135
 10
187.0886518531326
 20
-50.91057713536159
 10
187.4525617921331
 20
-51.12065787146165
 10
187.8140061405335
 20
-51.28053003696148
 10
188.1681028883337
 20
-51.38803488236165
 10
188.5100683681332
 20
-51.4417216397616
 10
188.8352664268326
 20
-51.44085715116163
 10
189.1393067674327
 20
-51.38545805156143
 10
189.4180730480337
 20
-51.27627023436177
 10
189.6678001499337
 20
-51.11477315326158
 10
189.8851093008328
 20
-50.90314990716187
 10
190.067064270333
 20
-50.64426378776185
 10
190.2111994677328
 20
-50.34161277526188
 10
190.3155691136331
 20
-49.99929189166159
 10
190.3787612884333
 20
-49.6219299535613
 10
190.3999190064326
 20
-49.21462885996174
 10
190.3787612884333
 20
-48.78289958526166
 10
190.3155691136331
 20
-48.33257751496132
 10
190.2111994677328
 20
-47.86975400316138
 10
190.067064270333
 20
-47.40068803406182
 10
189.8851093008328
 20
-46.93172117856172
 10
189.6678001499337
 20
-46.46919812736166
 10
189.4180730480337
 20
-46.01937227156145
 10
189.1393067674327
 20
-45.58832775786178
 10
188.8352664268326
 20
-45.18189115296165
 10
188.5100683681332
 20
-44.80556097776167
 10
188.1681028883337
 20
-44.46442279626161
 10
187.8140061405335
 20
-44.1630962389617
 10
187.4525617921331
 20
-43.90565364266147
 10
187.0886518531326
 20
-43.6955729065614
 10
186.7272075048336
 20
-43.53570074106158
 10
186.3731107570334
 20
-43.4281958956614
 10
186.0311523016335
 20
-43.37451319336174
 10
185.7059472185332
 20
-43.37537362686142
 10
185.4019139023328
 20
-43.43077678156191
 10
185.1231405973335
 20
-43.53996054356182
 10
184.8734134954335
 20
-43.70145762476147
 10
184.656104344533
 20
-43.91308087086183
 10
184.4741493750328
 20
-44.17196699026185
 10
184.330014177633
 20
-44.47461800266171
 10
184.2256445317327
 20
-44.81693888626137
 10
184.1624523568337
 20
-45.19430082446175
 10
184.1412946389332
 20
-45.60160191806132
  0
LWPOLYLINE
  5
29C
330
70
100
AcDbEntity
  8
0
 62
     8
420
  8421504
370
    25
100
AcDbPolyline
 90
       25
 70
     0
 43
0.0
 10
185.7413194002331
 20
-43.16619234726174
 10
186.0419739440336
 20
-43.15868625076181
 10
186.3867983851335
 20
-43.20271866356143
 10
186.7446813248332
 20
-43.30069075136161
 10
187.1109514873334
 20
-43.45132182596185
 10
187.480839254333
 20
-43.65265135466168
 10
187.8495188116334
 20
-43.9020523908617
 10
188.2121924431334
 20
-44.19627846196132
 10
188.5641186281328
 20
-44.53148637966132
 10
188.9007174093326
 20
-44.90331050286179
 10
189.2175984898333
 20
-45.3069025320616
 10
189.5106314786333
 20
-45.7370012122615
 10
189.7760020857329
 20
-46.18800305016192
 10
190.0102402208327
 20
-46.65402213516146
 10
190.2102972617331
 20
-47.12898633036191
 10
190.3735671284326
 20
-47.60670495196137
 10
190.4979214049338
 20
-48.08095013536161
 10
190.5817304132334
 20
-48.54553446366145
 10
190.6239123841329
 20
-48.9944076372614
 10
190.6239123841329
 20
-49.4217149677618
 10
190.5817304132334
 20
-49.82188587446179
 10
190.4979214049325
 20
-50.18970638146139
 10
190.3735671284326
 20
-50.52037517326185
 10
190.2102972617331
 20
-50.80958641926172
 10
190.2040103568337
 20
-50.81876300796185
  0
LWPOLYLINE
  5
29D
330
70
100
AcDbEntity
  8
0
 62
     8
420
  8421504
370
    25
100
AcDbPolyline
 90
        8
 70
     0
 43
0.0
 10
187.6045253276327
 20
-46.70752942396184
 10
187.4472262645326
 20
-46.5483339897617
 10
187.2460382832334
 20
-46.39410342676153
 10
187.0424690049327
 20
-46.28933099536187
 10
186.846029568433
 20
-46.23891115626178
 10
186.6659079868332
 20
-46.2452032706619
 10
186.5105266053338
 20
-46.30791307296146
 10
186.415366045933
 20
-46.38949020246155
  0
ENDSEC
  0
SECTION
  2
OBJECTS
  0
DICTIONARY
  5
C
330
0
100
AcDbDictionary
281
     1
  3
ACAD_COLOR
350
63
  3
ACAD_DETAILVIEWSTYLE
350
6A
  3
ACAD_GROUP
350
D
  3
ACAD_LAYOUT
350
62
  3
ACAD_MATERIAL
350
10
  3
ACAD_MLEADERSTYLE
350
66
  3
ACAD_MLINESTYLE
350
5F
  3
ACAD_PLOTSETTINGS
350
61
  3
ACAD_PLOTSTYLENAME
350
E
  3
ACAD_SCALELIST
350
42
  3
ACAD_SECTIONVIEWSTYLE
350
68
  3
ACAD_TABLESTYLE
350
64
  3
ACAD_VISUALSTYLE
350
29
  3
ACDB_RECOMPOSE_DATA
350
2A6
  3
AcDbVariableDictionary
350
29E
  0
DICTIONARY
  5
63
102
{ACAD_REACTORS
330
C
102
}
330
C
100
AcDbDictionary
281
     1
  0
DICTIONARY
  5
6A
102
{ACAD_REACTORS
330
C
102
}
330
C
100
AcDbDictionary
281
     1
  3
Imperial24
350
6B
  0
DICTIONARY
  5
D
102
{ACAD_REACTORS
330
C
102
}
330
C
100
AcDbDictionary
281
     1
  0
DICTIONARY
  5
62
102
{ACAD_REACTORS
330
C
102
}
330
C
100
AcDbDictionary
281
     1
  3
Layout1
350
6F
  3
Layout2
350
77
  3
Model
350
73
  0
DICTIONARY
  5
10
102
{ACAD_REACTORS
330
C
102
}
330
C
100
AcDbDictionary
281
     1
  3
ByBlock
350
19
  3
ByLayer
350
11
  3
Global
350
21
  0
DICTIONARY
  5
66
102
{ACAD_REACTORS
330
C
102
}
330
C
100
AcDbDictionary
281
     1
  3
Standard
350
67
  0
DICTIONARY
  5
5F
102
{ACAD_REACTORS
330
C
102
}
330
C
100
AcDbDictionary
281
     1
  3
Standard
350
60
  0
DICTIONARY
  5
61
102
{ACAD_REACTORS
330
C
102
}
330
C
100
AcDbDictionary
281
     1
  0
ACDBDICTIONARYWDFLT
  5
E
102
{ACAD_REACTORS
330
C
102
}
330
C
100
AcDbDictionary
281
     1
  3
Normal
350
F
100
AcDbDictionaryWithDefault
340
F
  0
DICTIONARY
  5
42
102
{ACAD_REACTORS
330
C
102
}
330
C
100
AcDbDictionary
281
     1
  3
A0
350
43
  3
A1
350
44
  3
A2
350
45
  3
A3
350
46
  3
A4
350
47
  3
A5
350
48
  3
A6
350
49
  3
A7
350
4A
  3
A8
350
4B
  3
A9
350
4C
  3
B0
350
4D
  3
B1
350
4E
  3
B2
350
4F
  3
B3
350
50
  3
B4
350
51
  3
B5
350
52
  3
B6
350
53
  0
DICTIONARY
  5
68
102
{ACAD_REACTORS
330
C
102
}
330
C
100
AcDbDictionary
281
     1
  3
Imperial24
350
69
  0
DICTIONARY
  5
64
102
{ACAD_REACTORS
330
C
102
}
330
C
100
AcDbDictionary
281
     1
  3
Standard
350
65
  0
DICTIONARY
  5
29
102
{ACAD_REACTORS
330
C
102
}
330
C
100
AcDbDictionary
281
     1
  3
2dWireframe
350
2F
  3
Basic
350
2E
  3
Brighten
350
35
  3
ColorChange
350
39
  3
Conceptual
350
32
  3
Dim
350
34
  3
EdgeColorOff
350
41
  3
Facepattern
350
38
  3
Flat
350
2A
  3
FlatWithEdges
350
2B
  3
Gouraud
350
2C
  3
GouraudWithEdges
350
2D
  3
Hidden
350
31
  3
JitterOff
350
3F
  3
Linepattern
350
37
  3
OverhangOff
350
40
  3
Realistic
350
33
  3
Shaded
350
3E
  3
Shaded with edges
350
3D
  3
Shades of Gray
350
3A
  3
Sketchy
350
3B
  3
Thicken
350
36
  3
Wireframe
350
30
  3
X-Ray
350
3C
  0
XRECORD
  5
2A6
102
{ACAD_REACTORS
330
C
102
}
330
C
100
AcDbXrecord
280
     1
 90
        1
330
65
  0
DICTIONARY
  5
29E
102
{ACAD_REACTORS
330
C
102
}
330
C
100
AcDbDictionary
281
     1
  3
CANNOSCALE
350
2A3
  3
CMLEADERSTYLE
350
2A0
  3
CTABLESTYLE
350
29F
  3
CVIEWDETAILSTYLE
350
2A1
  3
CVIEWSECTIONSTYLE
350
2A2
  0
ACDBDETAILVIEWSTYLE
  5
6B
102
{ACAD_REACTORS
330
6A
102
}
330
6A
100
AcDbModelDocViewStyle
 70
     0
  3
Imperial24
290
     1
300
Imperial24
 90
        0
100
AcDbDetailViewStyle
 70
     0
 71
     0
 90
        3
 71
     1
340
55
 62
   256
 40
0.24
340
0
 62
   256
 40
0.24
300

 40
0.36
280
     3
 71
     2
340
5D
 90
       25
 62
   256
 71
     3
340
55
 62
   256
 40
0.24
 90
        1
 40
0.75
 90
        1
300
%<\AcVar ViewType \f "%tc1">% %<\AcVar ViewDetailId>%\PSCALE %<\AcVar ViewScale \f "%sn">%
 71
     4
340
5D
 90
       25
 62
   256
340
5D
 90
       25
 62
   256
280
     0
  0
LAYOUT
  5
6F
102
{ACAD_REACTORS
330
62
102
}
330
62
100
AcDbPlotSettings
  1

  2

  4

  6

 40
0.0
 41
0.0
 42
0.0
 43
0.0
 44
0.0
 45
0.0
 46
0.0
 47
0.0
 48
0.0
 49
0.0
140
0.0
141
0.0
142
1.0
143
1.0
 70
   688
 72
     0
 73
     0
 74
     5
  7

 75
    16
147
1.0
 76
     0
 77
     2
 78
   300
148
0.0
149
0.0
100
AcDbLayout
  1
Layout1
 70
     1
 71
     1
 10
0.0
 20
0.0
 11
12.0
 21
9.0
 12
0.0
 22
0.0
 32
0.0
 14
0.0
 24
0.0
 34
0.0
 15
0.0
 25
0.0
 35
0.0
146
0.0
 13
0.0
 23
0.0
 33
0.0
 16
1.0
 26
0.0
 36
0.0
 17
0.0
 27
1.0
 37
0.0
 76
     0
330
6C
  0
LAYOUT
  5
77
102
{ACAD_REACTORS
330
62
102
}
330
62
100
AcDbPlotSettings
  1

  2

  4

  6

 40
0.0
 41
0.0
 42
0.0
 43
0.0
 44
0.0
 45
0.0
 46
0.0
 47
0.0
 48
0.0
 49
0.0
140
0.0
141
0.0
142
1.0
143
1.0
 70
   688
 72
     0
 73
     0
 74
     5
  7

 75
    16
147
1.0
 76
     0
 77
     2
 78
   300
148
0.0
149
0.0
100
AcDbLayout
  1
Layout2
 70
     1
 71
     2
 10
0.0
 20
0.0
 11
12.0
 21
9.0
 12
0.0
 22
0.0
 32
0.0
 14
0.0
 24
0.0
 34
0.0
 15
0.0
 25
0.0
 35
0.0
146
0.0
 13
0.0
 23
0.0
 33
0.0
 16
1.0
 26
0.0
 36
0.0
 17
0.0
 27
1.0
 37
0.0
 76
     0
330
74
  0
LAYOUT
  5
73
102
{ACAD_REACTORS
330
62
102
}
330
62
100
AcDbPlotSettings
  1

  2

  4

  6

 40
0.0
 41
0.0
 42
0.0
 43
0.0
 44
0.0
 45
0.0
 46
0.0
 47
0.0
 48
0.0
 49
0.0
140
0.0
141
0.0
142
1.0
143
1.0
 70
  1712
 72
     0
 73
     0
 74
     0
  7

 75
     0
147
1.0
 76
     0
 77
     2
 78
   300
148
0.0
149
0.0
100
AcDbLayout
  1
Model
 70
     1
 71
     0
 10
0.0
 20
0.0
 11
12.0
 21
9.0
 12
0.0
 22
0.0
 32
0.0
 14
0.0
 24
0.0
 34
0.0
 15
0.0
 25
0.0
 35
0.0
146
0.0
 13
0.0
 23
0.0
 33
0.0
 16
1.0
 26
0.0
 36
0.0
 17
0.0
 27
1.0
 37
0.0
 76
     0
330
70
  0
MATERIAL
  5
19
102
{ACAD_XDICTIONARY
360
1A
102
}
102
{ACAD_REACTORS
330
10
102
}
330
10
100
AcDbMaterial
  1
ByBlock
 72
     0
 43
0.0208333333333333
 43
0.0
 43
0.0
 43
0.0
 43
0.0
 43
0.0208333333333333
 43
0.0
 43
0.0
 43
0.0
 43
0.0
 43
1.0
 43
0.0
 43
0.0
 43
0.0
 43
0.0
 43
1.0
 77
     0
 47
0.0208333333333333
 47
0.0
 47
0.0
 47
0.0
 47
0.0
 47
0.0208333333333333
 47
0.0
 47
0.0
 47
0.0
 47
0.0
 47
1.0
 47
0.0
 47
0.0
 47
0.0
 47
0.0
 47
1.0
171
     0
 49
0.0208333333333333
 49
0.0
 49
0.0
 49
0.0
 49
0.0
 49
0.0208333333333333
 49
0.0
 49
0.0
 49
0.0
 49
0.0
 49
1.0
 49
0.0
 49
0.0
 49
0.0
 49
0.0
 49
1.0
175
     0
142
0.0208333333333333
142
0.0
142
0.0
142
0.0
142
0.0
142
0.0208333333333333
142
0.0
142
0.0
142
0.0
142
0.0
142
1.0
142
0.0
142
0.0
142
0.0
142
0.0
142
1.0
179
     0
144
0.0208333333333333
144
0.0
144
0.0
144
0.0
144
0.0
144
0.0208333333333333
144
0.0
144
0.0
144
0.0
144
0.0
144
1.0
144
0.0
144
0.0
144
0.0
144
0.0
144
1.0
147
0.0208333333333333
147
0.0
147
0.0
147
0.0
147
0.0
147
0.0208333333333333
147
0.0
147
0.0
147
0.0
147
0.0
147
1.0
147
0.0
147
0.0
147
0.0
147
0.0
147
1.0
  0
MATERIAL
  5
11
102
{ACAD_XDICTIONARY
360
12
102
}
102
{ACAD_REACTORS
330
10
102
}
330
10
100
AcDbMaterial
  1
ByLayer
 72
     0
 43
0.0208333333333333
 43
0.0
 43
0.0
 43
0.0
 43
0.0
 43
0.0208333333333333
 43
0.0
 43
0.0
 43
0.0
 43
0.0
 43
1.0
 43
0.0
 43
0.0
 43
0.0
 43
0.0
 43
1.0
 77
     0
 47
0.0208333333333333
 47
0.0
 47
0.0
 47
0.0
 47
0.0
 47
0.0208333333333333
 47
0.0
 47
0.0
 47
0.0
 47
0.0
 47
1.0
 47
0.0
 47
0.0
 47
0.0
 47
0.0
 47
1.0
171
     0
 49
0.0208333333333333
 49
0.0
 49
0.0
 49
0.0
 49
0.0
 49
0.0208333333333333
 49
0.0
 49
0.0
 49
0.0
 49
0.0
 49
1.0
 49
0.0
 49
0.0
 49
0.0
 49
0.0
 49
1.0
175
     0
142
0.0208333333333333
142
0.0
142
0.0
142
0.0
142
0.0
142
0.0208333333333333
142
0.0
142
0.0
142
0.0
142
0.0
142
1.0
142
0.0
142
0.0
142
0.0
142
0.0
142
1.0
179
     0
144
0.0208333333333333
144
0.0
144
0.0
144
0.0
144
0.0
144
0.0208333333333333
144
0.0
144
0.0
144
0.0
144
0.0
144
1.0
144
0.0
144
0.0
144
0.0
144
0.0
144
1.0
147
0.0208333333333333
147
0.0
147
0.0
147
0.0
147
0.0
147
0.0208333333333333
147
0.0
147
0.0
147
0.0
147
0.0
147
1.0
147
0.0
147
0.0
147
0.0
147
0.0
147
1.0
  0
MATERIAL
  5
21
102
{ACAD_XDICTIONARY
360
22
102
}
102
{ACAD_REACTORS
330
10
102
}
330
10
100
AcDbMaterial
  1
Global
 72
     0
 43
0.0208333333333333
 43
0.0
 43
0.0
 43
0.0
 43
0.0
 43
0.0208333333333333
 43
0.0
 43
0.0
 43
0.0
 43
0.0
 43
1.0
 43
0.0
 43
0.0
 43
0.0
 43
0.0
 43
1.0
 77
     0
 47
0.0208333333333333
 47
0.0
 47
0.0
 47
0.0
 47
0.0
 47
0.0208333333333333
 47
0.0
 47
0.0
 47
0.0
 47
0.0
 47
1.0
 47
0.0
 47
0.0
 47
0.0
 47
0.0
 47
1.0
171
     0
 49
0.0208333333333333
 49
0.0
 49
0.0
 49
0.0
 49
0.0
 49
0.0208333333333333
 49
0.0
 49
0.0
 49
0.0
 49
0.0
 49
1.0
 49
0.0
 49
0.0
 49
0.0
 49
0.0
 49
1.0
175
     0
142
0.0208333333333333
142
0.0
142
0.0
142
0.0
142
0.0
142
0.0208333333333333
142
0.0
142
0.0
142
0.0
142
0.0
142
1.0
142
0.0
142
0.0
142
0.0
142
0.0
142
1.0
179
     0
144
0.0208333333333333
144
0.0
144
0.0
144
0.0
144
0.0
144
0.0208333333333333
144
0.0
144
0.0
144
0.0
144
0.0
144
1.0
144
0.0
144
0.0
144
0.0
144
0.0
144
1.0
147
0.0208333333333333
147
0.0
147
0.0
147
0.0
147
0.0
147
0.0208333333333333
147
0.0
147
0.0
147
0.0
147
0.0
147
1.0
147
0.0
147
0.0
147
0.0
147
0.0
147
1.0
  0
MLEADERSTYLE
  5
67
102
{ACAD_REACTORS
330
66
102
}
330
66
100
AcDbMLeaderStyle
179
     2
170
     2
171
     1
172
     0
 90
        2
 40
0.0
 41
0.0
173
     1
 91
-1056964608
340
5B
 92
       -2
290
     1
 42
0.09
291
     1
 43
0.36
  3
Standard
 44
0.18
300

342
55
174
     1
178
     6
175
     1
176
     0
 93
-1056964608
 45
0.18
292
     0
297
     0
 46
0.18
 94
-1056964608
 47
1.0
 49
1.0
140
1.0
293
     1
141
0.0
294
     1
177
     0
142
1.0
295
     1
296
     0
143
0.125
271
     0
272
     9
273
     9
298
     1
  0
MLINESTYLE
  5
60
102
{ACAD_REACTORS
330
5F
102
}
330
5F
100
AcDbMlineStyle
  2
STANDARD
 70
     0
  3

 62
   256
 51
90.0
 52
90.0
 71
     2
 49
0.5
 62
   256
  6
BYLAYER
 49
-0.5
 62
   256
  6
BYLAYER
  0
ACDBPLACEHOLDER
  5
F
102
{ACAD_REACTORS
330
E
102
}
330
E
  0
SCALE
  5
43
102
{ACAD_REACTORS
330
42
102
}
330
42
100
AcDbScale
 70
     0
300
1:1
140
1.0
141
1.0
290
     1
  0
SCALE
  5
44
102
{ACAD_REACTORS
330
42
102
}
330
42
100
AcDbScale
 70
     0
300
1/128" = 1'-0"
140
0.0078125
141
12.0
290
     0
  0
SCALE
  5
45
102
{ACAD_REACTORS
330
42
102
}
330
42
100
AcDbScale
 70
     0
300
1/64" = 1'-0"
140
0.015625
141
12.0
290
     0
  0
SCALE
  5
46
102
{ACAD_REACTORS
330
42
102
}
330
42
100
AcDbScale
 70
     0
300
1/32" = 1'-0"
140
0.03125
141
12.0
290
     0
  0
SCALE
  5
47
102
{ACAD_REACTORS
330
42
102
}
330
42
100
AcDbScale
 70
     0
300
1/16" = 1'-0"
140
0.0625
141
12.0
290
     0
  0
SCALE
  5
48
102
{ACAD_REACTORS
330
42
102
}
330
42
100
AcDbScale
 70
     0
300
3/32" = 1'-0"
140
0.09375
141
12.0
290
     0
  0
SCALE
  5
49
102
{ACAD_REACTORS
330
42
102
}
330
42
100
AcDbScale
 70
     0
300
1/8" = 1'-0"
140
0.125
141
12.0
290
     0
  0
SCALE
  5
4A
102
{ACAD_REACTORS
330
42
102
}
330
42
100
AcDbScale
 70
     0
300
3/16" = 1'-0"
140
0.1875
141
12.0
290
     0
  0
SCALE
  5
4B
102
{ACAD_REACTORS
330
42
102
}
330
42
100
AcDbScale
 70
     0
300
1/4" = 1'-0"
140
0.25
141
12.0
290
     0
  0
SCALE
  5
4C
102
{ACAD_REACTORS
330
42
102
}
330
42
100
AcDbScale
 70
     0
300
3/8" = 1'-0"
140
0.375
141
12.0
290
     0
  0
SCALE
  5
4D
102
{ACAD_REACTORS
330
42
102
}
330
42
100
AcDbScale
 70
     0
300
1/2" = 1'-0"
140
0.5
141
12.0
290
     0
  0
SCALE
  5
4E
102
{ACAD_REACTORS
330
42
102
}
330
42
100
AcDbScale
 70
     0
300
3/4" = 1'-0"
140
0.75
141
12.0
290
     0
  0
SCALE
  5
4F
102
{ACAD_REACTORS
330
42
102
}
330
42
100
AcDbScale
 70
     0
300
1" = 1'-0"
140
1.0
141
12.0
290
     0
  0
SCALE
  5
50
102
{ACAD_REACTORS
330
42
102
}
330
42
100
AcDbScale
 70
     0
300
1-1/2" = 1'-0"
140
1.5
141
12.0
290
     0
  0
SCALE
  5
51
102
{ACAD_REACTORS
330
42
102
}
330
42
100
AcDbScale
 70
     0
300
3" = 1'-0"
140
3.0
141
12.0
290
     0
  0
SCALE
  5
52
102
{ACAD_REACTORS
330
42
102
}
330
42
100
AcDbScale
 70
     0
300
6" = 1'-0"
140
6.0
141
12.0
290
     0
  0
SCALE
  5
53
102
{ACAD_REACTORS
330
42
102
}
330
42
100
AcDbScale
 70
     0
300
1'-0" = 1'-0"
140
12.0
141
12.0
290
     0
  0
ACDBSECTIONVIEWSTYLE
  5
69
102
{ACAD_REACTORS
330
68
102
}
330
68
100
AcDbModelDocViewStyle
 70
     0
  3
Imperial24
290
     1
300
Imperial24
 90
        0
100
AcDbSectionViewStyle
 70
     0
 71
     0
 90
       78
 71
     1
340
55
 62
   256
 40
0.24
340
0
340
0
 62
   256
 40
0.24
300
I, O, Q, S, X, Z
 40
0.48
 90
        3
 40
0.18
 90
        1
 71
     2
340
5D
 90
       25
 62
   256
340
5D
 90
       50
 62
   256
 40
0.24
 40
0.0
 40
0.24
 71
     3
340
55
 62
   256
 40
0.24
 90
        1
 40
0.75
 90
        1
300
%<\AcVar ViewType \f "%tc1">% %<\AcVar ViewSectionStartId>%-%<\AcVar ViewSectionEndId>%\PSCALE %<\AcVar ViewScale \f "%sn">%
 71
     4
 62
   256
 62
   257
300
ANSI31
 40
1.0
 90
        0
290
     0
290
     0
 90
        6
 40
0.0
 40
1.570796326794896
 40
0.2617993877991494
 40
1.308996938995747
 40
-0.2617993877991494
 40
1.832595714594046
  0
TABLESTYLE
  5
65
102
{ACAD_XDICTIONARY
360
2A4
102
}
102
{ACAD_REACTORS
330
64
102
}
330
64
100
AcDbTableStyle
280
     0
  3
Standard
 70
     0
 71
     0
 40
0.06
 41
0.06
280
     0
281
     0
  7
Standard
140
0.18
170
     2
 62
     0
 63
     7
283
     0
 90
      512
 91
        0
  1

274
    -2
284
     1
 64
     0
275
    -2
285
     1
 65
     0
276
    -2
286
     1
 66
     0
277
    -2
287
     1
 67
     0
278
    -2
288
     1
 68
     0
279
    -2
289
     1
 69
     0
  7
Standard
140
0.25
170
     5
 62
     0
 63
     7
283
     0
 90
      512
 91
        0
  1

274
    -2
284
     1
 64
     0
275
    -2
285
     1
 65
     0
276
    -2
286
     1
 66
     0
277
    -2
287
     1
 67
     0
278
    -2
288
     1
 68
     0
279
    -2
289
     1
 69
     0
  7
Standard
140
0.18
170
     5
 62
     0
 63
     7
283
     0
 90
      512
 91
        0
  1

274
    -2
284
     1
 64
     0
275
    -2
285
     1
 65
     0
276
    -2
286
     1
 66
     0
277
    -2
287
     1
 67
     0
278
    -2
288
     1
 68
     0
279
    -2
289
     1
 69
     0
  0
VISUALSTYLE
  5
2F
102
{ACAD_REACTORS
330
29
102
}
330
29
100
AcDbVisualStyle
  2
2dWireframe
 70
     4
177
     3
291
     0
 70
    58
 90
        0
176
     1
 90
        2
176
     1
 90
        0
176
     1
 90
        0
176
     1
 40
0.6
176
     1
 40
30.0
176
     1
 62
     7
420
 16777215
176
     1
 90
        1
176
     1
 90
        4
176
     1
 62
     7
176
     1
 62
   257
176
     1
 90
        1
176
     1
 90
        1
176
     1
 40
1.0
176
     1
 90
        0
176
     1
 62
   257
176
     1
 40
1.0
176
     1
 90
        1
176
     1
 90
        6
176
     1
 90
        2
176
     1
 62
     7
176
     1
 90
        5
176
     1
 90
        0
176
     1
 90
        0
176
     1
290
     0
176
     1
 90
        1
176
     1
 40
0.0
176
     1
 90
        0
176
     1
290
     1
176
     1
290
     1
176
     1
290
     0
176
     1
290
     0
176
     1
290
     0
176
     1
290
     0
176
     1
290
     0
176
     1
290
     0
176
     1
290
     0
176
     1
 90
       50
176
     1
 40
0.0
176
     1
 40
1.0
176
     1
 90
        0
176
     1
 62
    18
420
        0
176
     1
 90
       50
176
     1
 90
        3
176
     1
 62
     5
420
      255
176
     1
290
     0
176
     1
 90
       50
176
     1
 90
       50
176
     1
 90
       50
176
     1
290
     0
176
     1
 90
       50
176
     1
 62
   256
176
     0
 40
1.0
176
     0
 90
        2
176
     1
  1
strokes_ogs.tif
176
     1
290
     0
176
     1
 40
1.0
176
     1
 40
1.0
176
     1
  0
VISUALSTYLE
  5
2E
102
{ACAD_REACTORS
330
29
102
}
330
29
100
AcDbVisualStyle
  2
Basic
 70
     7
177
     3
291
     1
 70
    58
 90
        1
176
     1
 90
        0
176
     1
 90
        1
176
     1
 90
        0
176
     1
 40
0.6
176
     1
 40
30.0
176
     1
 62
     7
420
 16777215
176
     1
 90
        0
176
     1
 90
        4
176
     1
 62
     7
176
     1
 62
   257
176
     1
 90
        1
176
     1
 90
        1
176
     1
 40
1.0
176
     1
 90
        8
176
     1
 62
     7
176
     1
 40
1.0
176
     1
 90
        1
176
     1
 90
        6
176
     1
 90
        2
176
     1
 62
     7
176
     1
 90
        5
176
     1
 90
        0
176
     1
 90
        0
176
     1
290
     0
176
     1
 90
        1
176
     1
 40
0.0
176
     1
 90
        0
176
     1
290
     0
176
     1
290
     1
176
     1
290
     1
176
     1
290
     0
176
     1
290
     0
176
     1
290
     0
176
     1
290
     0
176
     1
290
     0
176
     1
290
     0
176
     1
 90
       50
176
     1
 40
0.0
176
     1
 40
1.0
176
     1
 90
        0
176
     1
 62
    18
420
        0
176
     1
 90
       50
176
     1
 90
        3
176
     1
 62
     5
420
      255
176
     1
290
     0
176
     1
 90
       50
176
     1
 90
       50
176
     1
 90
       50
176
     1
290
     0
176
     1
 90
       50
176
     1
 62
   256
176
     0
 40
1.0
176
     0
 90
        2
176
     1
  1
strokes_ogs.tif
176
     1
290
     0
176
     1
 40
1.0
176
     1
 40
1.0
176
     1
  0
VISUALSTYLE
  5
35
102
{ACAD_REACTORS
330
29
102
}
330
29
100
AcDbVisualStyle
  2
Brighten
 70
    12
177
     3
291
     1
 70
    58
 90
        2
176
     1
 90
        2
176
     1
 90
        0
176
     1
 90
        0
176
     1
 40
0.6
176
     1
 40
30.0
176
     1
 62
     7
420
 16777215
176
     1
 90
        1
176
     1
 90
        4
176
     1
 62
     7
176
     1
 62
   257
176
     1
 90
        1
176
     1
 90
        1
176
     1
 40
1.0
176
     1
 90
        8
176
     1
 62
     7
176
     1
 40
1.0
176
     1
 90
        1
176
     1
 90
        6
176
     1
 90
        2
176
     1
 62
     7
176
     1
 90
        5
176
     1
 90
        0
176
     1
 90
        0
176
     1
290
     0
176
     1
 90
        1
176
     1
 40
50.0
176
     1
 90
        0
176
     1
290
     0
176
     1
290
     1
176
     1
290
     1
176
     1
290
     0
176
     1
290
     0
176
     1
290
     0
176
     1
290
     0
176
     1
290
     0
176
     1
290
     0
176
     1
 90
       50
176
     1
 40
0.0
176
     1
 40
1.0
176
     1
 90
        0
176
     1
 62
    18
420
        0
176
     1
 90
       50
176
     1
 90
        3
176
     1
 62
     5
420
      255
176
     1
290
     0
176
     1
 90
       50
176
     1
 90
       50
176
     1
 90
       50
176
     1
290
     0
176
     1
 90
       50
176
     1
 62
   256
176
     0
 40
1.0
176
     0
 90
        2
176
     1
  1
strokes_ogs.tif
176
     1
290
     0
176
     1
 40
1.0
176
     1
 40
1.0
176
     1
  0
VISUALSTYLE
  5
39
102
{ACAD_REACTORS
330
29
102
}
330
29
100
AcDbVisualStyle
  2
ColorChange
 70
    16
177
     3
291
     1
 70
    58
 90
        2
176
     1
 90
        2
176
     1
 90
        3
176
     1
 90
        0
176
     1
 40
0.6
176
     1
 40
30.0
176
     1
 62
     8
420
  8421504
176
     1
 90
        1
176
     1
 90
        4
176
     1
 62
     7
176
     1
 62
   257
176
     1
 90
        1
176
     1
 90
        1
176
     1
 40
1.0
176
     1
 90
        8
176
     1
 62
     8
420
  8421504
176
     1
 40
1.0
176
     1
 90
        1
176
     1
 90
        6
176
     1
 90
        2
176
     1
 62
     7
176
     1
 90
        5
176
     1
 90
        0
176
     1
 90
        0
176
     1
290
     0
176
     1
 90
        1
176
     1
 40
0.0
176
     1
 90
        0
176
     1
290
     0
176
     1
290
     1
176
     1
290
     1
176
     1
290
     0
176
     1
290
     0
176
     1
290
     0
176
     1
290
     0
176
     1
290
     0
176
     1
290
     0
176
     1
 90
       50
176
     1
 40
0.0
176
     1
 40
1.0
176
     1
 90
        0
176
     1
 62
    18
420
        0
176
     1
 90
       50
176
     1
 90
        3
176
     1
 62
     5
420
      255
176
     1
290
     0
176
     1
 90
       50
176
     1
 90
       50
176
     1
 90
       50
176
     1
290
     0
176
     1
 90
       50
176
     1
 62
   256
176
     0
 40
1.0
176
     0
 90
        2
176
     1
  1
strokes_ogs.tif
176
     1
290
     0
176
     1
 40
1.0
176
     1
 40
1.0
176
     1
  0
VISUALSTYLE
  5
32
102
{ACAD_REACTORS
330
29
102
}
330
29
100
AcDbVisualStyle
  2
Conceptual
 70
     9
177
     3
291
     0
 70
    58
 90
        3
176
     1
 90
        2
176
     1
 90
        0
176
     1
 90
        0
176
     1
 40
0.6
176
     1
 40
30.0
176
     1
 62
     7
420
 16777215
176
     1
 90
        2
176
     1
 90
        2
176
     1
 62
     7
176
     1
 62
   257
176
     1
 90
        1
176
     1
 90
        1
176
     1
 40
179.0
176
     1
 90
        8
176
     1
 62
     7
176
     1
 40
1.0
176
     1
 90
        1
176
     1
 90
        6
176
     1
 90
        2
176
     1
 62
     7
176
     1
 90
        3
176
     1
 90
        0
176
     1
 90
        0
176
     1
290
     0
176
     1
 90
        1
176
     1
 40
0.0
176
     1
 90
        0
176
     1
290
     0
176
     1
290
     1
176
     1
290
     1
176
     1
290
     0
176
     1
290
     0
176
     1
290
     0
176
     1
290
     0
176
     1
290
     0
176
     1
290
     0
176
     1
 90
       50
176
     1
 40
0.0
176
     1
 40
1.0
176
     1
 90
        0
176
     1
 62
    18
420
        0
176
     1
 90
       50
176
     1
 90
        3
176
     1
 62
     5
420
      255
176
     1
290
     0
176
     1
 90
       50
176
     1
 90
       50
176
     1
 90
       50
176
     1
290
     0
176
     1
 90
       50
176
     1
 62
   256
176
     0
 40
1.0
176
     0
 90
        2
176
     1
  1
strokes_ogs.tif
176
     1
290
     0
176
     1
 40
1.0
176
     1
 40
1.0
176
     1
  0
VISUALSTYLE
  5
34
102
{ACAD_REACTORS
330
29
102
}
330
29
100
AcDbVisualStyle
  2
Dim
 70
    11
177
     3
291
     1
 70
    58
 90
        2
176
     1
 90
        2
176
     1
 90
        0
176
     1
 90
        0
176
     1
 40
0.6
176
     1
 40
30.0
176
     1
 62
     7
420
 16777215
176
     1
 90
        1
176
     1
 90
        4
176
     1
 62
     7
176
     1
 62
   257
176
     1
 90
        1
176
     1
 90
        1
176
     1
 40
1.0
176
     1
 90
        8
176
     1
 62
     7
176
     1
 40
1.0
176
     1
 90
        1
176
     1
 90
        6
176
     1
 90
        2
176
     1
 62
     7
176
     1
 90
        5
176
     1
 90
        0
176
     1
 90
        0
176
     1
290
     0
176
     1
 90
        1
176
     1
 40
-50.0
176
     1
 90
        0
176
     1
290
     0
176
     1
290
     1
176
     1
290
     1
176
     1
290
     0
176
     1
290
     0
176
     1
290
     0
176
     1
290
     0
176
     1
290
     0
176
     1
290
     0
176
     1
 90
       50
176
     1
 40
0.0
176
     1
 40
1.0
176
     1
 90
        0
176
     1
 62
    18
420
        0
176
     1
 90
       50
176
     1
 90
        3
176
     1
 62
     5
420
      255
176
     1
290
     0
176
     1
 90
       50
176
     1
 90
       50
176
     1
 90
       50
176
     1
290
     0
176
     1
 90
       50
176
     1
 62
   256
176
     0
 40
1.0
176
     0
 90
        2
176
     1
  1
strokes_ogs.tif
176
     1
290
     0
176
     1
 40
1.0
176
     1
 40
1.0
176
     1
  0
VISUALSTYLE
  5
41
102
{ACAD_REACTORS
330
29
102
}
330
29
100
AcDbVisualStyle
  2
EdgeColorOff
 70
    22
177
     3
291
     1
 70
    58
 90
        2
176
     0
 90
        2
176
     0
 90
        0
176
     0
 90
        0
176
     0
 40
0.6
176
     0
 40
30.0
176
     0
 62
     7
420
 16777215
176
     0
 90
        1
176
     0
 90
        4
176
     0
 62
     7
176
     0
 62
   257
176
     0
 90
        1
176
     0
 90
        1
176
     0
 40
1.0
176
     0
 90
        8
176
     2
 62
     7
176
     0
 40
1.0
176
     0
 90
        1
176
     0
 90
        6
176
     0
 90
        2
176
     0
 62
     7
176
     0
 90
        5
176
     0
 90
        0
176
     0
 90
        0
176
     0
290
     0
176
     0
 90
        1
176
     0
 40
0.0
176
     0
 90
        0
176
     0
290
     0
176
     0
290
     1
176
     0
290
     1
176
     0
290
     0
176
     0
290
     0
176
     0
290
     0
176
     0
290
     0
176
     0
290
     0
176
     0
290
     0
176
     0
 90
       50
176
     0
 40
0.0
176
     0
 40
1.0
176
     0
 90
        0
176
     0
 62
    18
420
        0
176
     0
 90
       50
176
     0
 90
        3
176
     0
 62
     5
420
      255
176
     0
290
     0
176
     0
 90
       50
176
     0
 90
       50
176
     0
 90
       50
176
     0
290
     0
176
     0
 90
       50
176
     0
 62
   256
176
     0
 40
1.0
176
     0
 90
        2
176
     0
  1
strokes_ogs.tif
176
     0
290
     0
176
     0
 40
1.0
176
     0
 40
1.0
176
     0
  0
VISUALSTYLE
  5
38
102
{ACAD_REACTORS
330
29
102
}
330
29
100
AcDbVisualStyle
  2
Facepattern
 70
    15
177
     3
291
     1
 70
    58
 90
        2
176
     1
 90
        2
176
     1
 90
        0
176
     1
 90
        0
176
     1
 40
0.6
176
     1
 40
30.0
176
     1
 62
     7
420
 16777215
176
     1
 90
        1
176
     1
 90
        4
176
     1
 62
     7
176
     1
 62
   257
176
     1
 90
        1
176
     1
 90
        1
176
     1
 40
1.0
176
     1
 90
        8
176
     1
 62
     7
176
     1
 40
1.0
176
     1
 90
        1
176
     1
 90
        6
176
     1
 90
        2
176
     1
 62
     7
176
     1
 90
        5
176
     1
 90
        0
176
     1
 90
        0
176
     1
290
     0
176
     1
 90
        1
176
     1
 40
0.0
176
     1
 90
        0
176
     1
290
     0
176
     1
290
     1
176
     1
290
     1
176
     1
290
     0
176
     1
290
     0
176
     1
290
     0
176
     1
290
     0
176
     1
290
     0
176
     1
290
     0
176
     1
 90
       50
176
     1
 40
0.0
176
     1
 40
1.0
176
     1
 90
        0
176
     1
 62
    18
420
        0
176
     1
 90
       50
176
     1
 90
        3
176
     1
 62
     5
420
      255
176
     1
290
     0
176
     1
 90
       50
176
     1
 90
       50
176
     1
 90
       50
176
     1
290
     0
176
     1
 90
       50
176
     1
 62
   256
176
     0
 40
1.0
176
     0
 90
        2
176
     1
  1
strokes_ogs.tif
176
     1
290
     0
176
     1
 40
1.0
176
     1
 40
1.0
176
     1
  0
VISUALSTYLE
  5
2A
102
{ACAD_REACTORS
330
29
102
}
330
29
100
AcDbVisualStyle
  2
Flat
 70
     0
177
     3
291
     1
 70
    58
 90
        2
176
     1
 90
        1
176
     1
 90
        1
176
     1
 90
        2
176
     1
 40
0.6
176
     1
 40
30.0
176
     1
 62
     7
420
 16777215
176
     1
 90
        0
176
     1
 90
        0
176
     1
 62
     7
176
     1
 62
   257
176
     1
 90
        1
176
     1
 90
        1
176
     1
 40
1.0
176
     1
 90
        8
176
     1
 62
     7
176
     1
 40
1.0
176
     1
 90
        1
176
     1
 90
        6
176
     1
 90
        2
176
     1
 62
     7
176
     1
 90
        5
176
     1
 90
        0
176
     1
 90
        0
176
     1
290
     0
176
     1
 90
       13
176
     1
 40
0.0
176
     1
 90
        0
176
     1
290
     0
176
     1
290
     1
176
     1
290
     1
176
     1
290
     0
176
     1
290
     0
176
     1
290
     0
176
     1
290
     0
176
     1
290
     0
176
     1
290
     0
176
     1
 90
       50
176
     1
 40
0.0
176
     1
 40
1.0
176
     1
 90
        0
176
     1
 62
    18
420
        0
176
     1
 90
       50
176
     1
 90
        3
176
     1
 62
     5
420
      255
176
     1
290
     0
176
     1
 90
       50
176
     1
 90
       50
176
     1
 90
       50
176
     1
290
     0
176
     1
 90
       50
176
     1
 62
   256
176
     0
 40
1.0
176
     0
 90
        2
176
     1
  1
strokes_ogs.tif
176
     1
290
     0
176
     1
 40
1.0
176
     1
 40
1.0
176
     1
  0
VISUALSTYLE
  5
2B
102
{ACAD_REACTORS
330
29
102
}
330
29
100
AcDbVisualStyle
  2
FlatWithEdges
 70
     1
177
     3
291
     1
 70
    58
 90
        2
176
     1
 90
        1
176
     1
 90
        1
176
     1
 90
        2
176
     1
 40
0.6
176
     1
 40
30.0
176
     1
 62
     7
420
 16777215
176
     1
 90
        1
176
     1
 90
        0
176
     1
 62
     7
176
     1
 62
   257
176
     1
 90
        1
176
     1
 90
        1
176
     1
 40
1.0
176
     1
 90
        0
176
     1
 62
   257
176
     1
 40
1.0
176
     1
 90
        1
176
     1
 90
        6
176
     1
 90
        2
176
     1
 62
     7
176
     1
 90
        5
176
     1
 90
        0
176
     1
 90
        0
176
     1
290
     0
176
     1
 90
       13
176
     1
 40
0.0
176
     1
 90
        0
176
     1
290
     0
176
     1
290
     1
176
     1
290
     1
176
     1
290
     0
176
     1
290
     0
176
     1
290
     0
176
     1
290
     0
176
     1
290
     0
176
     1
290
     0
176
     1
 90
       50
176
     1
 40
0.0
176
     1
 40
1.0
176
     1
 90
        0
176
     1
 62
    18
420
        0
176
     1
 90
       50
176
     1
 90
        3
176
     1
 62
     5
420
      255
176
     1
290
     0
176
     1
 90
       50
176
     1
 90
       50
176
     1
 90
       50
176
     1
290
     0
176
     1
 90
       50
176
     1
 62
   256
176
     0
 40
1.0
176
     0
 90
        2
176
     1
  1
strokes_ogs.tif
176
     1
290
     0
176
     1
 40
1.0
176
     1
 40
1.0
176
     1
  0
VISUALSTYLE
  5
2C
102
{ACAD_REACTORS
330
29
102
}
330
29
100
AcDbVisualStyle
  2
Gouraud
 70
     2
177
     3
291
     1
 70
    58
 90
        2
176
     1
 90
        2
176
     1
 90
        1
176
     1
 90
        2
176
     1
 40
0.6
176
     1
 40
30.0
176
     1
 62
     7
420
 16777215
176
     1
 90
        0
176
     1
 90
        0
176
     1
 62
     7
176
     1
 62
   257
176
     1
 90
        1
176
     1
 90
        1
176
     1
 40
1.0
176
     1
 90
        0
176
     1
 62
     7
176
     1
 40
1.0
176
     1
 90
        1
176
     1
 90
        6
176
     1
 90
        2
176
     1
 62
     7
176
     1
 90
        5
176
     1
 90
        0
176
     1
 90
        0
176
     1
290
     0
176
     1
 90
       13
176
     1
 40
0.0
176
     1
 90
        0
176
     1
290
     0
176
     1
290
     1
176
     1
290
     1
176
     1
290
     0
176
     1
290
     0
176
     1
290
     0
176
     1
290
     0
176
     1
290
     0
176
     1
290
     0
176
     1
 90
       50
176
     1
 40
0.0
176
     1
 40
1.0
176
     1
 90
        0
176
     1
 62
    18
420
        0
176
     1
 90
       50
176
     1
 90
        3
176
     1
 62
     5
420
      255
176
     1
290
     0
176
     1
 90
       50
176
     1
 90
       50
176
     1
 90
       50
176
     1
290
     0
176
     1
 90
       50
176
     1
 62
   256
176
     0
 40
1.0
176
     0
 90
        2
176
     1
  1
strokes_ogs.tif
176
     1
290
     0
176
     1
 40
1.0
176
     1
 40
1.0
176
     1
  0
VISUALSTYLE
  5
2D
102
{ACAD_REACTORS
330
29
102
}
330
29
100
AcDbVisualStyle
  2
GouraudWithEdges
 70
     3
177
     3
291
     1
 70
    58
 90
        2
176
     1
 90
        2
176
     1
 90
        1
176
     1
 90
        2
176
     1
 40
0.6
176
     1
 40
30.0
176
     1
 62
     7
420
 16777215
176
     1
 90
        1
176
     1
 90
        0
176
     1
 62
     7
176
     1
 62
   257
176
     1
 90
        1
176
     1
 90
        1
176
     1
 40
1.0
176
     1
 90
        0
176
     1
 62
   257
176
     1
 40
1.0
176
     1
 90
        1
176
     1
 90
        6
176
     1
 90
        2
176
     1
 62
     7
176
     1
 90
        5
176
     1
 90
        0
176
     1
 90
        0
176
     1
290
     0
176
     1
 90
       13
176
     1
 40
0.0
176
     1
 90
        0
176
     1
290
     0
176
     1
290
     1
176
     1
290
     1
176
     1
290
     0
176
     1
290
     0
176
     1
290
     0
176
     1
290
     0
176
     1
290
     0
176
     1
290
     0
176
     1
 90
       50
176
     1
 40
0.0
176
     1
 40
1.0
176
     1
 90
        0
176
     1
 62
    18
420
        0
176
     1
 90
       50
176
     1
 90
        3
176
     1
 62
     5
420
      255
176
     1
290
     0
176
     1
 90
       50
176
     1
 90
       50
176
     1
 90
       50
176
     1
290
     0
176
     1
 90
       50
176
     1
 62
   256
176
     0
 40
1.0
176
     0
 90
        2
176
     1
  1
strokes_ogs.tif
176
     1
290
     0
176
     1
 40
1.0
176
     1
 40
1.0
176
     1
  0
VISUALSTYLE
  5
31
102
{ACAD_REACTORS
330
29
102
}
330
29
100
AcDbVisualStyle
  2
Hidden
 70
     6
177
     3
291
     0
 70
    58
 90
        1
176
     1
 90
        2
176
     1
 90
        2
176
     1
 90
        0
176
     1
 40
0.6
176
     1
 40
30.0
176
     1
 62
     7
420
 16777215
176
     1
 90
        2
176
     1
 90
        2
176
     1
 62
     7
176
     1
 62
   257
176
     1
 90
        2
176
     1
 90
        1
176
     1
 40
40.0
176
     1
 90
        0
176
     1
 62
   257
176
     1
 40
1.0
176
     1
 90
        1
176
     1
 90
        6
176
     1
 90
        2
176
     1
 62
     7
176
     1
 90
        3
176
     1
 90
        0
176
     1
 90
        0
176
     1
290
     0
176
     1
 90
        1
176
     1
 40
0.0
176
     1
 90
        0
176
     1
290
     0
176
     1
290
     1
176
     1
290
     1
176
     1
290
     0
176
     1
290
     0
176
     1
290
     0
176
     1
290
     0
176
     1
290
     0
176
     1
290
     0
176
     1
 90
       50
176
     1
 40
0.0
176
     1
 40
1.0
176
     1
 90
        0
176
     1
 62
    18
420
        0
176
     1
 90
       50
176
     1
 90
        3
176
     1
 62
     5
420
      255
176
     1
290
     0
176
     1
 90
       50
176
     1
 90
       50
176
     1
 90
       50
176
     1
290
     0
176
     1
 90
       50
176
     1
 62
   256
176
     0
 40
1.0
176
     0
 90
        2
176
     1
  1
strokes_ogs.tif
176
     1
290
     0
176
     1
 40
1.0
176
     1
 40
1.0
176
     1
  0
VISUALSTYLE
  5
3F
102
{ACAD_REACTORS
330
29
102
}
330
29
100
AcDbVisualStyle
  2
JitterOff
 70
    20
177
     3
291
     1
 70
    58
 90
        2
176
     0
 90
        2
176
     0
 90
        0
176
     0
 90
        0
176
     0
 40
0.6
176
     0
 40
30.0
176
     0
 62
     7
420
 16777215
176
     0
 90
        1
176
     0
 90
        4
176
     0
 62
     7
176
     0
 62
   257
176
     0
 90
        1
176
     0
 90
        1
176
     0
 40
1.0
176
     0
 90
       10
176
     2
 62
     7
176
     0
 40
1.0
176
     0
 90
        1
176
     0
 90
        6
176
     0
 90
        2
176
     0
 62
     7
176
     0
 90
        5
176
     0
 90
        0
176
     0
 90
        0
176
     0
290
     0
176
     0
 90
        1
176
     0
 40
0.0
176
     0
 90
        0
176
     0
290
     0
176
     0
290
     1
176
     0
290
     1
176
     0
290
     0
176
     0
290
     0
176
     0
290
     0
176
     0
290
     0
176
     0
290
     0
176
     0
290
     0
176
     0
 90
       50
176
     0
 40
0.0
176
     0
 40
1.0
176
     0
 90
        0
176
     0
 62
    18
420
        0
176
     0
 90
       50
176
     0
 90
        3
176
     0
 62
     5
420
      255
176
     0
290
     0
176
     0
 90
       50
176
     0
 90
       50
176
     0
 90
       50
176
     0
290
     0
176
     0
 90
       50
176
     0
 62
   256
176
     0
 40
1.0
176
     0
 90
        2
176
     0
  1
strokes_ogs.tif
176
     0
290
     0
176
     0
 40
1.0
176
     0
 40
1.0
176
     0
  0
VISUALSTYLE
  5
37
102
{ACAD_REACTORS
330
29
102
}
330
29
100
AcDbVisualStyle
  2
Linepattern
 70
    14
177
     3
291
     1
 70
    58
 90
        2
176
     1
 90
        2
176
     1
 90
        0
176
     1
 90
        0
176
     1
 40
0.6
176
     1
 40
30.0
176
     1
 62
     7
420
 16777215
176
     1
 90
        1
176
     1
 90
        4
176
     1
 62
     7
176
     1
 62
   257
176
     1
 90
        7
176
     1
 90
        7
176
     1
 40
1.0
176
     1
 90
        8
176
     1
 62
     7
176
     1
 40
1.0
176
     1
 90
        1
176
     1
 90
        6
176
     1
 90
        2
176
     1
 62
     7
176
     1
 90
        5
176
     1
 90
        0
176
     1
 90
        0
176
     1
290
     0
176
     1
 90
        1
176
     1
 40
0.0
176
     1
 90
        0
176
     1
290
     0
176
     1
290
     1
176
     1
290
     1
176
     1
290
     0
176
     1
290
     0
176
     1
290
     0
176
     1
290
     0
176
     1
290
     0
176
     1
290
     0
176
     1
 90
       50
176
     1
 40
0.0
176
     1
 40
1.0
176
     1
 90
        0
176
     1
 62
    18
420
        0
176
     1
 90
       50
176
     1
 90
        3
176
     1
 62
     5
420
      255
176
     1
290
     0
176
     1
 90
       50
176
     1
 90
       50
176
     1
 90
       50
176
     1
290
     0
176
     1
 90
       50
176
     1
 62
   256
176
     0
 40
1.0
176
     0
 90
        2
176
     1
  1
strokes_ogs.tif
176
     1
290
     0
176
     1
 40
1.0
176
     1
 40
1.0
176
     1
  0
VISUALSTYLE
  5
40
102
{ACAD_REACTORS
330
29
102
}
330
29
100
AcDbVisualStyle
  2
OverhangOff
 70
    21
177
     3
291
     1
 70
    58
 90
        2
176
     0
 90
        2
176
     0
 90
        0
176
     0
 90
        0
176
     0
 40
0.6
176
     0
 40
30.0
176
     0
 62
     7
420
 16777215
176
     0
 90
        1
176
     0
 90
        4
176
     0
 62
     7
176
     0
 62
   257
176
     0
 90
        1
176
     0
 90
        1
176
     0
 40
1.0
176
     0
 90
        9
176
     2
 62
     7
176
     0
 40
1.0
176
     0
 90
        1
176
     0
 90
        6
176
     0
 90
        2
176
     0
 62
     7
176
     0
 90
        5
176
     0
 90
        0
176
     0
 90
        0
176
     0
290
     0
176
     0
 90
        1
176
     0
 40
0.0
176
     0
 90
        0
176
     0
290
     0
176
     0
290
     1
176
     0
290
     1
176
     0
290
     0
176
     0
290
     0
176
     0
290
     0
176
     0
290
     0
176
     0
290
     0
176
     0
290
     0
176
     0
 90
       50
176
     0
 40
0.0
176
     0
 40
1.0
176
     0
 90
        0
176
     0
 62
    18
420
        0
176
     0
 90
       50
176
     0
 90
        3
176
     0
 62
     5
420
      255
176
     0
290
     0
176
     0
 90
       50
176
     0
 90
       50
176
     0
 90
       50
176
     0
290
     0
176
     0
 90
       50
176
     0
 62
   256
176
     0
 40
1.0
176
     0
 90
        2
176
     0
  1
strokes_ogs.tif
176
     0
290
     0
176
     0
 40
1.0
176
     0
 40
1.0
176
     0
  0
VISUALSTYLE
  5
33
102
{ACAD_REACTORS
330
29
102
}
330
29
100
AcDbVisualStyle
  2
Realistic
 70
     8
177
     3
291
     0
 70
    58
 90
        2
176
     1
 90
        3
176
     1
 90
        0
176
     1
 90
        2
176
     1
 40
0.6
176
     1
 40
30.0
176
     1
 62
     7
420
 16777215
176
     1
 90
        0
176
     1
 90
        0
176
     1
 62
     7
176
     1
 62
   257
176
     1
 90
        1
176
     1
 90
        1
176
     1
 40
1.0
176
     1
 90
        8
176
     1
 62
   257
176
     1
 40
1.0
176
     1
 90
        1
176
     1
 90
        6
176
     1
 90
        2
176
     1
 62
     7
176
     1
 90
        3
176
     1
 90
        0
176
     1
 90
        0
176
     1
290
     0
176
     1
 90
       13
176
     1
 40
0.0
176
     1
 90
        0
176
     1
290
     0
176
     1
290
     1
176
     1
290
     1
176
     1
290
     0
176
     1
290
     0
176
     1
290
     0
176
     1
290
     0
176
     1
290
     0
176
     1
290
     0
176
     1
 90
       50
176
     1
 40
0.0
176
     1
 40
1.0
176
     1
 90
        0
176
     1
 62
    18
420
        0
176
     1
 90
       50
176
     1
 90
        3
176
     1
 62
     5
420
      255
176
     1
290
     0
176
     1
 90
       50
176
     1
 90
       50
176
     1
 90
       50
176
     1
290
     0
176
     1
 90
       50
176
     1
 62
   256
176
     0
 40
1.0
176
     0
 90
        2
176
     1
  1
strokes_ogs.tif
176
     1
290
     0
176
     1
 40
1.0
176
     1
 40
1.0
176
     1
  0
VISUALSTYLE
  5
3E
102
{ACAD_REACTORS
330
29
102
}
330
29
100
AcDbVisualStyle
  2
Shaded
 70
    27
177
     3
291
     0
 70
    58
 90
        2
176
     1
 90
        2
176
     1
 90
        1
176
     1
 90
        2
176
     1
 40
0.6
176
     1
 40
30.0
176
     1
 62
     7
420
 16777215
176
     1
 90
        0
176
     1
 90
        4
176
     1
 62
     7
176
     1
 62
   257
176
     1
 90
        1
176
     1
 90
        1
176
     1
 40
1.0
176
     1
 90
        8
176
     1
 62
   257
176
     1
 40
1.0
176
     1
 90
        1
176
     1
 90
        6
176
     1
 90
        2
176
     1
 62
     8
420
  7895160
176
     1
 90
        3
176
     1
 90
        0
176
     1
 90
        0
176
     1
290
     0
176
     1
 90
        5
176
     1
 40
0.0
176
     1
 90
        0
176
     1
290
     0
176
     1
290
     1
176
     1
290
     1
176
     1
290
     0
176
     1
290
     0
176
     1
290
     0
176
     1
290
     0
176
     1
290
     0
176
     1
290
     0
176
     1
 90
       50
176
     1
 40
0.0
176
     1
 40
1.0
176
     1
 90
        0
176
     1
 62
    18
420
        0
176
     1
 90
       50
176
     1
 90
        3
176
     1
 62
     5
420
      255
176
     1
290
     0
176
     1
 90
       50
176
     1
 90
       50
176
     1
 90
       50
176
     1
290
     0
176
     1
 90
       50
176
     1
 62
   256
176
     0
 40
1.0
176
     0
 90
        2
176
     1
  1
strokes_ogs.tif
176
     1
290
     0
176
     1
 40
1.0
176
     1
 40
1.0
176
     1
  0
VISUALSTYLE
  5
3D
102
{ACAD_REACTORS
330
29
102
}
330
29
100
AcDbVisualStyle
  2
Shaded with edges
 70
    26
177
     3
291
     0
 70
    58
 90
        2
176
     1
 90
        2
176
     1
 90
        1
176
     1
 90
        2
176
     1
 40
0.6
176
     1
 40
30.0
176
     1
 62
     7
420
 16777215
176
     1
 90
        1
176
     1
 90
        2
176
     1
 62
     7
176
     1
 62
   257
176
     1
 90
        2
176
     1
 90
        1
176
     1
 40
1.0
176
     1
 90
        8
176
     1
 62
   257
176
     1
 40
1.0
176
     1
 90
        1
176
     1
 90
        6
176
     1
 90
        2
176
     1
 62
     7
176
     1
 90
        3
176
     1
 90
        0
176
     1
 90
        0
176
     1
290
     0
176
     1
 90
        5
176
     1
 40
0.0
176
     1
 90
        0
176
     1
290
     0
176
     1
290
     1
176
     1
290
     1
176
     1
290
     0
176
     1
290
     0
176
     1
290
     0
176
     1
290
     0
176
     1
290
     0
176
     1
290
     0
176
     1
 90
       50
176
     1
 40
0.0
176
     1
 40
1.0
176
     1
 90
        0
176
     1
 62
    18
420
        0
176
     1
 90
       50
176
     1
 90
        3
176
     1
 62
     5
420
      255
176
     1
290
     0
176
     1
 90
       50
176
     1
 90
       50
176
     1
 90
       50
176
     1
290
     0
176
     1
 90
       50
176
     1
 62
   256
176
     0
 40
1.0
176
     0
 90
        2
176
     1
  1
strokes_ogs.tif
176
     1
290
     0
176
     1
 40
1.0
176
     1
 40
1.0
176
     1
  0
VISUALSTYLE
  5
3A
102
{ACAD_REACTORS
330
29
102
}
330
29
100
AcDbVisualStyle
  2
Shades of Gray
 70
    23
177
     3
291
     0
 70
    58
 90
        2
176
     1
 90
        2
176
     1
 90
        3
176
     1
 90
        0
176
     1
 40
0.6
176
     1
 40
30.0
176
     1
 62
     7
420
 16777215
176
     1
 90
        2
176
     1
 90
        2
176
     1
 62
     7
176
     1
 62
     7
176
     1
 90
        1
176
     1
 90
        1
176
     1
 40
40.0
176
     1
 90
        8
176
     1
 62
     7
176
     1
 40
1.0
176
     1
 90
        1
176
     1
 90
        6
176
     1
 90
        2
176
     1
 62
     7
176
     1
 90
        3
176
     1
 90
        0
176
     1
 90
        0
176
     1
290
     0
176
     1
 90
        1
176
     1
 40
0.0
176
     1
 90
        0
176
     1
290
     0
176
     1
290
     1
176
     1
290
     1
176
     1
290
     0
176
     1
290
     0
176
     1
290
     0
176
     1
290
     0
176
     1
290
     0
176
     1
290
     0
176
     1
 90
       50
176
     1
 40
0.0
176
     1
 40
1.0
176
     1
 90
        0
176
     1
 62
    18
420
        0
176
     1
 90
       50
176
     1
 90
        3
176
     1
 62
     5
420
      255
176
     1
290
     0
176
     1
 90
       50
176
     1
 90
       50
176
     1
 90
       50
176
     1
290
     0
176
     1
 90
       50
176
     1
 62
   256
176
     0
 40
1.0
176
     0
 90
        2
176
     1
  1
strokes_ogs.tif
176
     1
290
     0
176
     1
 40
1.0
176
     1
 40
1.0
176
     1
  0
VISUALSTYLE
  5
3B
102
{ACAD_REACTORS
330
29
102
}
330
29
100
AcDbVisualStyle
  2
Sketchy
 70
    24
177
     3
291
     0
 70
    58
 90
        1
176
     1
 90
        2
176
     1
 90
        2
176
     1
 90
        0
176
     1
 40
0.6
176
     1
 40
30.0
176
     1
 62
     7
420
 16777215
176
     1
 90
        2
176
     1
 90
        2
176
     1
 62
     7
176
     1
 62
     7
176
     1
 90
        1
176
     1
 90
        1
176
     1
 40
40.0
176
     1
 90
       11
176
     1
 62
     7
176
     1
 40
1.0
176
     1
 90
        1
176
     1
 90
        6
176
     1
 90
        2
176
     1
 62
     7
176
     1
 90
        6
176
     1
 90
        0
176
     1
 90
        0
176
     1
290
     0
176
     1
 90
        1
176
     1
 40
0.0
176
     1
 90
        0
176
     1
290
     0
176
     1
290
     1
176
     1
290
     1
176
     1
290
     0
176
     1
290
     0
176
     1
290
     0
176
     1
290
     0
176
     1
290
     0
176
     1
290
     0
176
     1
 90
       50
176
     1
 40
0.0
176
     1
 40
1.0
176
     1
 90
        0
176
     1
 62
    18
420
        0
176
     1
 90
       50
176
     1
 90
        3
176
     1
 62
     5
420
      255
176
     1
290
     0
176
     1
 90
       50
176
     1
 90
       50
176
     1
 90
       50
176
     1
290
     0
176
     1
 90
       50
176
     1
 62
   256
176
     0
 40
1.0
176
     0
 90
        2
176
     1
  1
strokes_ogs.tif
176
     1
290
     0
176
     1
 40
1.0
176
     1
 40
1.0
176
     1
  0
VISUALSTYLE
  5
36
102
{ACAD_REACTORS
330
29
102
}
330
29
100
AcDbVisualStyle
  2
Thicken
 70
    13
177
     3
291
     1
 70
    58
 90
        2
176
     1
 90
        2
176
     1
 90
        0
176
     1
 90
        0
176
     1
 40
0.6
176
     1
 40
30.0
176
     1
 62
     7
420
 16777215
176
     1
 90
        1
176
     1
 90
        4
176
     1
 62
     7
176
     1
 62
   257
176
     1
 90
        1
176
     1
 90
        1
176
     1
 40
1.0
176
     1
 90
       12
176
     1
 62
     7
176
     1
 40
1.0
176
     1
 90
        1
176
     1
 90
        6
176
     1
 90
        2
176
     1
 62
     7
176
     1
 90
        5
176
     1
 90
        0
176
     1
 90
        0
176
     1
290
     0
176
     1
 90
        1
176
     1
 40
0.0
176
     1
 90
        0
176
     1
290
     0
176
     1
290
     1
176
     1
290
     1
176
     1
290
     0
176
     1
290
     0
176
     1
290
     0
176
     1
290
     0
176
     1
290
     0
176
     1
290
     0
176
     1
 90
       50
176
     1
 40
0.0
176
     1
 40
1.0
176
     1
 90
        0
176
     1
 62
    18
420
        0
176
     1
 90
       50
176
     1
 90
        3
176
     1
 62
     5
420
      255
176
     1
290
     0
176
     1
 90
       50
176
     1
 90
       50
176
     1
 90
       50
176
     1
290
     0
176
     1
 90
       50
176
     1
 62
   256
176
     0
 40
1.0
176
     0
 90
        2
176
     1
  1
strokes_ogs.tif
176
     1
290
     0
176
     1
 40
1.0
176
     1
 40
1.0
176
     1
  0
VISUALSTYLE
  5
30
102
{ACAD_REACTORS
330
29
102
}
330
29
100
AcDbVisualStyle
  2
Wireframe
 70
     5
177
     3
291
     0
 70
    58
 90
        0
176
     1
 90
        2
176
     1
 90
        0
176
     1
 90
        0
176
     1
 40
0.6
176
     1
 40
30.0
176
     1
 62
     7
420
 16777215
176
     1
 90
        1
176
     1
 90
        4
176
     1
 62
     7
176
     1
 62
   257
176
     1
 90
        1
176
     1
 90
        1
176
     1
 40
1.0
176
     1
 90
        0
176
     1
 62
   257
176
     1
 40
1.0
176
     1
 90
        1
176
     1
 90
        6
176
     1
 90
        2
176
     1
 62
     7
176
     1
 90
        3
176
     1
 90
        0
176
     1
 90
        0
176
     1
290
     0
176
     1
 90
        1
176
     1
 40
0.0
176
     1
 90
        0
176
     1
290
     0
176
     1
290
     1
176
     1
290
     1
176
     1
290
     0
176
     1
290
     0
176
     1
290
     0
176
     1
290
     0
176
     1
290
     0
176
     1
290
     0
176
     1
 90
       50
176
     1
 40
0.0
176
     1
 40
1.0
176
     1
 90
        0
176
     1
 62
    18
420
        0
176
     1
 90
       50
176
     1
 90
        3
176
     1
 62
     5
420
      255
176
     1
290
     0
176
     1
 90
       50
176
     1
 90
       50
176
     1
 90
       50
176
     1
290
     0
176
     1
 90
       50
176
     1
 62
   256
176
     0
 40
1.0
176
     0
 90
        2
176
     1
  1
strokes_ogs.tif
176
     1
290
     0
176
     1
 40
1.0
176
     1
 40
1.0
176
     1
  0
VISUALSTYLE
  5
3C
102
{ACAD_REACTORS
330
29
102
}
330
29
100
AcDbVisualStyle
  2
X-Ray
 70
    25
177
     3
291
     0
 70
    58
 90
        2
176
     1
 90
        2
176
     1
 90
        1
176
     1
 90
        1
176
     1
 40
0.5
176
     1
 40
30.0
176
     1
 62
     7
420
 16777215
176
     1
 90
        1
176
     1
 90
        0
176
     1
 62
     7
176
     1
 62
   257
176
     1
 90
        1
176
     1
 90
        1
176
     1
 40
1.0
176
     1
 90
        8
176
     1
 62
     7
176
     1
 40
1.0
176
     1
 90
        1
176
     1
 90
        6
176
     1
 90
        2
176
     1
 62
     7
176
     1
 90
        3
176
     1
 90
        0
176
     1
 90
        0
176
     1
290
     0
176
     1
 90
       13
176
     1
 40
0.0
176
     1
 90
        0
176
     1
290
     0
176
     1
290
     1
176
     1
290
     1
176
     1
290
     0
176
     1
290
     0
176
     1
290
     0
176
     1
290
     0
176
     1
290
     0
176
     1
290
     0
176
     1
 90
       50
176
     1
 40
0.0
176
     1
 40
1.0
176
     1
 90
        0
176
     1
 62
    18
420
        0
176
     1
 90
       50
176
     1
 90
        3
176
     1
 62
     5
420
      255
176
     1
290
     0
176
     1
 90
       50
176
     1
 90
       50
176
     1
 90
       50
176
     1
290
     0
176
     1
 90
       50
176
     1
 62
   256
176
     0
 40
1.0
176
     0
 90
        2
176
     1
  1
strokes_ogs.tif
176
     1
290
     0
176
     1
 40
1.0
176
     1
 40
1.0
176
     1
  0
DICTIONARYVAR
  5
2A3
102
{ACAD_REACTORS
330
29E
102
}
330
29E
100
DictionaryVariables
280
     0
  1
1:1
  0
DICTIONARYVAR
  5
2A0
102
{ACAD_REACTORS
330
29E
102
}
330
29E
100
DictionaryVariables
280
     0
  1
STANDARD
  0
DICTIONARYVAR
  5
29F
102
{ACAD_REACTORS
330
29E
102
}
330
29E
100
DictionaryVariables
280
     0
  1
STANDARD
  0
DICTIONARYVAR
  5
2A1
102
{ACAD_REACTORS
330
29E
102
}
330
29E
100
DictionaryVariables
280
     0
  1
Imperial24
  0
DICTIONARYVAR
  5
2A2
102
{ACAD_REACTORS
330
29E
102
}
330
29E
100
DictionaryVariables
280
     0
  1
Imperial24
  0
DICTIONARY
  5
1A
330
19
100
AcDbDictionary
280
     1
281
     1
  3
BUMPTILE
360
1C
  3
DIFFUSETILE
360
1B
  3
OPACITYTILE
360
1F
  3
REFLECTIONTILE
360
1E
  3
REFRACTIONTILE
360
20
  3
SPECULARTILE
360
1D
  0
DICTIONARY
  5
12
330
11
100
AcDbDictionary
280
     1
281
     1
  3
BUMPTILE
360
14
  3
DIFFUSETILE
360
13
  3
OPACITYTILE
360
17
  3
REFLECTIONTILE
360
16
  3
REFRACTIONTILE
360
18
  3
SPECULARTILE
360
15
  0
DICTIONARY
  5
22
330
21
100
AcDbDictionary
280
     1
281
     1
  3
BUMPTILE
360
24
  3
DIFFUSETILE
360
23
  3
OPACITYTILE
360
27
  3
REFLECTIONTILE
360
26
  3
REFRACTIONTILE
360
28
  3
SPECULARTILE
360
25
  0
DICTIONARY
  5
2A4
330
65
100
AcDbDictionary
280
     1
281
     1
  3
ACAD_ROUNDTRIP_2008_TABLESTYLE_CELLSTYLEMAP
360
2A5
  0
XRECORD
  5
1C
102
{ACAD_REACTORS
330
1A
102
}
330
1A
100
AcDbXrecord
280
     1
270
     1
271
     1
  0
XRECORD
  5
1B
102
{ACAD_REACTORS
330
1A
102
}
330
1A
100
AcDbXrecord
280
     1
270
     1
271
     1
  0
XRECORD
  5
1F
102
{ACAD_REACTORS
330
1A
102
}
330
1A
100
AcDbXrecord
280
     1
270
     1
271
     1
  0
XRECORD
  5
1E
102
{ACAD_REACTORS
330
1A
102
}
330
1A
100
AcDbXrecord
280
     1
270
     1
271
     1
  0
XRECORD
  5
20
102
{ACAD_REACTORS
330
1A
102
}
330
1A
100
AcDbXrecord
280
     1
270
     1
271
     1
  0
XRECORD
  5
1D
102
{ACAD_REACTORS
330
1A
102
}
330
1A
100
AcDbXrecord
280
     1
270
     1
271
     1
  0
XRECORD
  5
14
102
{ACAD_REACTORS
330
12
102
}
330
12
100
AcDbXrecord
280
     1
270
     1
271
     1
  0
XRECORD
  5
13
102
{ACAD_REACTORS
330
12
102
}
330
12
100
AcDbXrecord
280
     1
270
     1
271
     1
  0
XRECORD
  5
17
102
{ACAD_REACTORS
330
12
102
}
330
12
100
AcDbXrecord
280
     1
270
     1
271
     1
  0
XRECORD
  5
16
102
{ACAD_REACTORS
330
12
102
}
330
12
100
AcDbXrecord
280
     1
270
     1
271
     1
  0
XRECORD
  5
18
102
{ACAD_REACTORS
330
12
102
}
330
12
100
AcDbXrecord
280
     1
270
     1
271
     1
  0
XRECORD
  5
15
102
{ACAD_REACTORS
330
12
102
}
330
12
100
AcDbXrecord
280
     1
270
     1
271
     1
  0
XRECORD
  5
24
102
{ACAD_REACTORS
330
22
102
}
330
22
100
AcDbXrecord
280
     1
270
     1
271
     1
  0
XRECORD
  5
23
102
{ACAD_REACTORS
330
22
102
}
330
22
100
AcDbXrecord
280
     1
270
     1
271
     1
  0
XRECORD
  5
27
102
{ACAD_REACTORS
330
22
102
}
330
22
100
AcDbXrecord
280
     1
270
     1
271
     1
  0
XRECORD
  5
26
102
{ACAD_REACTORS
330
22
102
}
330
22
100
AcDbXrecord
280
     1
270
     1
271
     1
  0
XRECORD
  5
28
102
{ACAD_REACTORS
330
22
102
}
330
22
100
AcDbXrecord
280
     1
270
     1
271
     1
  0
XRECORD
  5
25
102
{ACAD_REACTORS
330
22
102
}
330
22
100
AcDbXrecord
280
     1
270
     1
271
     1
  0
CELLSTYLEMAP
  5
2A5
102
{ACAD_REACTORS
330
2A4
102
}
330
2A4
100
AcDbCellStyleMap
 90
        3
300
CELLSTYLE
  1
TABLEFORMAT_BEGIN
 90
        5
170
     1
 91
        0
 92
    32768
 62
   257
 93
        1
300
CONTENTFORMAT
  1
CONTENTFORMAT_BEGIN
 90
        0
 91
        0
 92
      512
 93
        0
300

 40
0.0
140
1.0
 94
        5
 62
     0
340
55
144
0.25
309
CONTENTFORMAT_END
171
     0
 94
        0
309
TABLEFORMAT_END
  1
CELLSTYLE_BEGIN
 90
        1
 91
        1
300
_TITLE
309
CELLSTYLE_END
300
CELLSTYLE
  1
TABLEFORMAT_BEGIN
 90
        5
170
     1
 91
        0
 92
        0
 62
   257
 93
        1
300
CONTENTFORMAT
  1
CONTENTFORMAT_BEGIN
 90
        0
 91
        0
 92
      512
 93
        0
300

 40
0.0
140
1.0
 94
        5
 62
     0
340
55
144
0.18
309
CONTENTFORMAT_END
171
     0
 94
        0
309
TABLEFORMAT_END
  1
CELLSTYLE_BEGIN
 90
        2
 91
        1
300
_HEADER
309
CELLSTYLE_END
300
CELLSTYLE
  1
TABLEFORMAT_BEGIN
 90
        5
170
     1
 91
        0
 92
        0
 62
   257
 93
        1
300
CONTENTFORMAT
  1
CONTENTFORMAT_BEGIN
 90
        0
 91
        0
 92
      512
 93
        0
300

 40
0.0
140
1.0
 94
        2
 62
     0
340
55
144
0.18
309
CONTENTFORMAT_END
171
     0
 94
        0
309
TABLEFORMAT_END
  1
CELLSTYLE_BEGIN
 90
        3
 91
        2
300
_DATA
309
CELLSTYLE_END
  0
ENDSEC
  0
EOF
