  0
SECTION
  2
HEADER
  9
$ACADVER
  1
AC1032
  9
$ACADMAINTVER
 90
      251
  9
$DWGCODEPAGE
  3
ANSI_1252
  9
$REQUIREDVERSIONS
160
                 0
  9
$INSBASE
 10
0.0
 20
0.0
 30
0.0
  9
$EXTMIN
 10
1.000000000000000E+20
 20
1.000000000000000E+20
 30
1.000000000000000E+20
  9
$EXTMAX
 10
-1.000000000000000E+20
 20
-1.000000000000000E+20
 30
-1.000000000000000E+20
  9
$LIMMIN
 10
0.0
 20
0.0
  9
$LIMMAX
 10
12.0
 20
9.0
  9
$ORTHOMODE
 70
     0
  9
$REGENMODE
 70
     1
  9
$FILLMODE
 70
     1
  9
$QTEXTMODE
 70
     0
  9
$MIRRTEXT
 70
     0
  9
$LTSCALE
 40
1.0
  9
$ATTMODE
 70
     1
  9
$TEXTSIZE
 40
0.2
  9
$TRACEWID
 40
0.05
  9
$TEXTSTYLE
  7
Standard
  9
$CLAYER
  8
0
  9
$CELTYPE
  6
ByLayer
  9
$CECOLOR
 62
   256
  9
$CELTSCALE
 40
1.0
  9
$DISPSILH
 70
     0
  9
$DIMSCALE
 40
1.0
  9
$DIMASZ
 40
0.18
  9
$DIMEXO
 40
0.0625
  9
$DIMDLI
 40
0.38
  9
$DIMRND
 40
0.0
  9
$DIMDLE
 40
0.0
  9
$DIMEXE
 40
0.18
  9
$DIMTP
 40
0.0
  9
$DIMTM
 40
0.0
  9
$DIMTXT
 40
0.18
  9
$DIMCEN
 40
0.09
  9
$DIMTSZ
 40
0.0
  9
$DIMTOL
 70
     0
  9
$DIMLIM
 70
     0
  9
$DIMTIH
 70
     1
  9
$DIMTOH
 70
     1
  9
$DIMSE1
 70
     0
  9
$DIMSE2
 70
     0
  9
$DIMTAD
 70
     0
  9
$DIMZIN
 70
     0
  9
$DIMBLK
  1

  9
$DIMASO
 70
     1
  9
$DIMSHO
 70
     1
  9
$DIMPOST
  1

  9
$DIMAPOST
  1

  9
$DIMALT
 70
     0
  9
$DIMALTD
 70
     2
  9
$DIMALTF
 40
25.4
  9
$DIMLFAC
 40
1.0
  9
$DIMTOFL
 70
     0
  9
$DIMTVP
 40
0.0
  9
$DIMTIX
 70
     0
  9
$DIMSOXD
 70
     0
  9
$DIMSAH
 70
     0
  9
$DIMBLK1
  1

  9
$DIMBLK2
  1

  9
$DIMSTYLE
  2
Standard
  9
$DIMCLRD
 70
     0
  9
$DIMCLRE
 70
     0
  9
$DIMCLRT
 70
     0
  9
$DIMTFAC
 40
1.0
  9
$DIMGAP
 40
0.09
  9
$DIMJUST
 70
     0
  9
$DIMSD1
 70
     0
  9
$DIMSD2
 70
     0
  9
$DIMTOLJ
 70
     1
  9
$DIMTZIN
 70
     0
  9
$DIMALTZ
 70
     0
  9
$DIMALTTZ
 70
     0
  9
$DIMUPT
 70
     0
  9
$DIMDEC
 70
     4
  9
$DIMTDEC
 70
     4
  9
$DIMALTU
 70
     2
  9
$DIMALTTD
 70
     2
  9
$DIMTXSTY
  7
Standard
  9
$DIMAUNIT
 70
     0
  9
$DIMADEC
 70
     0
  9
$DIMALTRND
 40
0.0
  9
$DIMAZIN
 70
     0
  9
$DIMDSEP
 70
    46
  9
$DIMATFIT
 70
     3
  9
$DIMFRAC
 70
     0
  9
$DIMLDRBLK
  1

  9
$DIMLUNIT
 70
     2
  9
$DIMLWD
 70
    -2
  9
$DIMLWE
 70
    -2
  9
$DIMTMOVE
 70
     0
  9
$DIMFXL
 40
1.0
  9
$DIMFXLON
 70
     0
  9
$DIMJOGANG
 40
0.7853981633974483
  9
$DIMTFILL
 70
     0
  9
$DIMTFILLCLR
 70
     0
  9
$DIMARCSYM
 70
     0
  9
$DIMLTYPE
  6

  9
$DIMLTEX1
  6

  9
$DIMLTEX2
  6

  9
$DIMTXTDIRECTION
 70
     0
  9
$LUNITS
 70
     2
  9
$LUPREC
 70
     4
  9
$SKETCHINC
 40
0.1
  9
$FILLETRAD
 40
0.0
  9
$AUNITS
 70
     0
  9
$AUPREC
 70
     0
  9
$MENU
  1
.
  9
$ELEVATION
 40
0.0
  9
$PELEVATION
 40
0.0
  9
$THICKNESS
 40
0.0
  9
$LIMCHECK
 70
     0
  9
$CHAMFERA
 40
0.0
  9
$CHAMFERB
 40
0.0
  9
$CHAMFERC
 40
0.0
  9
$CHAMFERD
 40
0.0
  9
$SKPOLY
 70
     0
  9
$TDCREATE
 40
2460035.507604167
  9
$TDUCREATE
 40
2460035.424270833
  9
$TDUPDATE
 40
2460035.507604167
  9
$TDUUPDATE
 40
2460035.424270833
  9
$TDINDWG
 40
0.0000000000
  9
$TDUSRTIMER
 40
0.0000000000
  9
$USRTIMER
 70
     1
  9
$ANGBASE
 50
0.0
  9
$ANGDIR
 70
     0
  9
$PDMODE
 70
     0
  9
$PDSIZE
 40
0.0
  9
$PLINEWID
 40
0.0
  9
$SPLFRAME
 70
     0
  9
$SPLINETYPE
 70
     6
  9
$SPLINESEGS
 70
     8
  9
$HANDSEED
  5
1A8
  9
$SURFTAB1
 70
     6
  9
$SURFTAB2
 70
     6
  9
$SURFTYPE
 70
     6
  9
$SURFU
 70
     6
  9
$SURFV
 70
     6
  9
$UCSBASE
  2

  9
$UCSNAME
  2

  9
$UCSORG
 10
0.0
 20
0.0
 30
0.0
  9
$UCSXDIR
 10
1.0
 20
0.0
 30
0.0
  9
$UCSYDIR
 10
0.0
 20
1.0
 30
0.0
  9
$UCSORTHOREF
  2

  9
$UCSORTHOVIEW
 70
     0
  9
$UCSORGTOP
 10
0.0
 20
0.0
 30
0.0
  9
$UCSORGBOTTOM
 10
0.0
 20
0.0
 30
0.0
  9
$UCSORGLEFT
 10
0.0
 20
0.0
 30
0.0
  9
$UCSORGRIGHT
 10
0.0
 20
0.0
 30
0.0
  9
$UCSORGFRONT
 10
0.0
 20
0.0
 30
0.0
  9
$UCSORGBACK
 10
0.0
 20
0.0
 30
0.0
  9
$PUCSBASE
  2

  9
$PUCSNAME
  2

  9
$PUCSORG
 10
0.0
 20
0.0
 30
0.0
  9
$PUCSXDIR
 10
1.0
 20
0.0
 30
0.0
  9
$PUCSYDIR
 10
0.0
 20
1.0
 30
0.0
  9
$PUCSORTHOREF
  2

  9
$PUCSORTHOVIEW
 70
     0
  9
$PUCSORGTOP
 10
0.0
 20
0.0
 30
0.0
  9
$PUCSORGBOTTOM
 10
0.0
 20
0.0
 30
0.0
  9
$PUCSORGLEFT
 10
0.0
 20
0.0
 30
0.0
  9
$PUCSORGRIGHT
 10
0.0
 20
0.0
 30
0.0
  9
$PUCSORGFRONT
 10
0.0
 20
0.0
 30
0.0
  9
$PUCSORGBACK
 10
0.0
 20
0.0
 30
0.0
  9
$USERI1
 70
     0
  9
$USERI2
 70
     0
  9
$USERI3
 70
     0
  9
$USERI4
 70
     0
  9
$USERI5
 70
     0
  9
$USERR1
 40
0.0
  9
$USERR2
 40
0.0
  9
$USERR3
 40
0.0
  9
$USERR4
 40
0.0
  9
$USERR5
 40
0.0
  9
$WORLDVIEW
 70
     1
  9
$SHADEDGE
 70
     3
  9
$SHADEDIF
 70
    70
  9
$TILEMODE
 70
     1
  9
$MAXACTVP
 70
    64
  9
$PINSBASE
 10
0.0
 20
0.0
 30
0.0
  9
$PLIMCHECK
 70
     0
  9
$PEXTMIN
 10
1.000000000000000E+20
 20
1.000000000000000E+20
 30
1.000000000000000E+20
  9
$PEXTMAX
 10
-1.000000000000000E+20
 20
-1.000000000000000E+20
 30
-1.000000000000000E+20
  9
$PLIMMIN
 10
0.0
 20
0.0
  9
$PLIMMAX
 10
12.0
 20
9.0
  9
$UNITMODE
 70
     0
  9
$VISRETAIN
 70
     1
  9
$PLINEGEN
 70
     0
  9
$PSLTSCALE
 70
     1
  9
$TREEDEPTH
 70
  3020
  9
$CMLSTYLE
  2
Standard
  9
$CMLJUST
 70
     0
  9
$CMLSCALE
 40
1.0
  9
$PROXYGRAPHICS
 70
     1
  9
$MEASUREMENT
 70
     0
  9
$CELWEIGHT
370
    -1
  9
$ENDCAPS
280
     0
  9
$JOINSTYLE
280
     0
  9
$LWDISPLAY
290
     1
  9
$INSUNITS
 70
     4
  9
$HYPERLINKBASE
  1

  9
$STYLESHEET
  1

  9
$XEDIT
290
     1
  9
$CEPSNTYPE
380
     0
  9
$PSTYLEMODE
290
     1
  9
$FINGERPRINTGUID
  2
{21CDC745-6B04-0448-836F-451BE22B105C}
  9
$VERSIONGUID
  2
{356D17A2-3E00-2F44-A410-E01A69CBF3EC}
  9
$EXTNAMES
290
     1
  9
$PSVPSCALE
 40
0.0
  9
$OLESTARTUP
290
     0
  9
$SORTENTS
280
   127
  9
$INDEXCTL
280
     0
  9
$HIDETEXT
280
     1
  9
$XCLIPFRAME
280
     2
  9
$HALOGAP
280
     0
  9
$OBSCOLOR
 70
   257
  9
$OBSLTYPE
280
     0
  9
$INTERSECTIONDISPLAY
280
     0
  9
$INTERSECTIONCOLOR
 70
   257
  9
$DIMASSOC
280
     2
  9
$PROJECTNAME
  1

  9
$CAMERADISPLAY
290
     0
  9
$LENSLENGTH
 40
50.0
  9
$CAMERAHEIGHT
 40
0.0
  9
$STEPSPERSEC
 40
2.0
  9
$STEPSIZE
 40
6.0
  9
$3DDWFPREC
 40
2.0
  9
$PSOLWIDTH
 40
0.25
  9
$PSOLHEIGHT
 40
4.0
  9
$LOFTANG1
 40
1.570796326794896
  9
$LOFTANG2
 40
1.570796326794896
  9
$LOFTMAG1
 40
0.0
  9
$LOFTMAG2
 40
0.0
  9
$LOFTPARAM
 70
     7
  9
$LOFTNORMALS
280
     1
  9
$LATITUDE
 40
37.795
  9
$LONGITUDE
 40
-122.394
  9
$NORTHDIRECTION
 40
0.0
  9
$TIMEZONE
 70
 -8000
  9
$LIGHTGLYPHDISPLAY
280
     1
  9
$TILEMODELIGHTSYNCH
280
     1
  9
$CMATERIAL
347
11
  9
$SOLIDHIST
280
     0
  9
$SHOWHIST
280
     1
  9
$DWFFRAME
280
     2
  9
$DGNFRAME
280
     0
  9
$REALWORLDSCALE
290
     1
  9
$INTERFERECOLOR
 62
     1
  9
$INTERFEREOBJVS
345
33
  9
$INTERFEREVPVS
346
30
  9
$CSHADOW
280
     0
  9
$SHADOWPLANELOCATION
 40
0.0
  0
ENDSEC
  0
SECTION
  2
CLASSES
  0
CLASS
  1
ACDBDICTIONARYWDFLT
  2
AcDbDictionaryWithDefault
  3
ObjectDBX Classes
 90
        0
 91
        1
280
     0
281
     0
  0
CLASS
  1
MATERIAL
  2
AcDbMaterial
  3
ObjectDBX Classes
 90
     1153
 91
        3
280
     0
281
     0
  0
CLASS
  1
VISUALSTYLE
  2
AcDbVisualStyle
  3
ObjectDBX Classes
 90
     4095
 91
       24
280
     0
281
     0
  0
CLASS
  1
SCALE
  2
AcDbScale
  3
ObjectDBX Classes
 90
     1153
 91
       17
280
     0
281
     0
  0
CLASS
  1
TABLESTYLE
  2
AcDbTableStyle
  3
ObjectDBX Classes
 90
     4095
 91
        1
280
     0
281
     0
  0
CLASS
  1
MLEADERSTYLE
  2
AcDbMLeaderStyle
  3
ACDB_MLEADERSTYLE_CLASS
 90
     4095
 91
        1
280
     0
281
     0
  0
CLASS
  1
ACDBSECTIONVIEWSTYLE
  2
AcDbSectionViewStyle
  3
ObjectDBX Classes
 90
     1025
 91
        1
280
     0
281
     0
  0
CLASS
  1
ACDBDETAILVIEWSTYLE
  2
AcDbDetailViewStyle
  3
ObjectDBX Classes
 90
     1025
 91
        1
280
     0
281
     0
  0
CLASS
  1
DICTIONARYVAR
  2
AcDbDictionaryVar
  3
ObjectDBX Classes
 90
        0
 91
        5
280
     0
281
     0
  0
CLASS
  1
CELLSTYLEMAP
  2
AcDbCellStyleMap
  3
ObjectDBX Classes
 90
     1152
 91
        1
280
     0
281
     0
  0
ENDSEC
  0
SECTION
  2
TABLES
  0
TABLE
  2
VPORT
  5
8
330
0
100
AcDbSymbolTable
 70
     1
  0
VPORT
  5
57
330
8
100
AcDbSymbolTableRecord
100
AcDbViewportTableRecord
  2
*Active
 70
     0
 10
0.0
 20
0.0
 11
1.0
 21
1.0
 12
0.0
 22
0.0
 13
0.0
 23
0.0
 14
1.0
 24
1.0
 15
0.0
 25
0.0
 16
0.0
 26
0.0
 36
1.0
 17
104.9999999737499
 27
31.49999999212523
 37
0.0
 40
302.9399999242649
 41
0.7070707070707066
 42
50.0
 43
0.0
 44
0.0
 50
0.0
 51
0.0
 71
     0
 72
   100
 73
     1
 74
     1
 75
     0
 76
     0
 77
     0
 78
     0
281
     0
 65
     1
110
0.0
120
0.0
130
0.0
111
1.0
121
0.0
131
0.0
112
0.0
122
1.0
132
0.0
 79
     0
146
0.0
 60
     3
 61
     5
292
     1
282
     1
141
0.0
142
0.0
 63
   250
421
  3355443
  0
ENDTAB
  0
TABLE
  2
LTYPE
  5
5
330
0
100
AcDbSymbolTable
 70
     1
  0
LTYPE
  5
5B
330
5
100
AcDbSymbolTableRecord
100
AcDbLinetypeTableRecord
  2
ByBlock
 70
     0
  3

 72
    65
 73
     0
 40
0.0
  0
LTYPE
  5
5C
330
5
100
AcDbSymbolTableRecord
100
AcDbLinetypeTableRecord
  2
ByLayer
 70
     0
  3

 72
    65
 73
     0
 40
0.0
  0
LTYPE
  5
5D
330
5
100
AcDbSymbolTableRecord
100
AcDbLinetypeTableRecord
  2
Continuous
 70
     0
  3
Solid line
 72
    65
 73
     0
 40
0.0
  0
ENDTAB
  0
TABLE
  2
LAYER
  5
2
330
0
100
AcDbSymbolTable
 70
     2
  0
LAYER
  5
54
330
2
100
AcDbSymbolTableRecord
100
AcDbLayerTableRecord
  2
0
 70
     0
 62
     7
  6
Continuous
370
     0
390
F
347
21
348
0
  0
LAYER
  5
179
330
2
100
AcDbSymbolTableRecord
100
AcDbLayerTableRecord
  2
CAPA_BASE
 70
     0
 62
     7
  6
Continuous
370
     0
390
F
347
21
348
0
  0
ENDTAB
  0
TABLE
  2
STYLE
  5
3
330
0
100
AcDbSymbolTable
 70
     2
  0
STYLE
  5
55
330
3
100
AcDbSymbolTableRecord
100
AcDbTextStyleTableRecord
  2
Standard
 70
     0
 40
0.0
 41
1.0
 50
0.0
 71
     0
 42
0.2
  3
txt
  4

  0
STYLE
  5
5A
330
3
100
AcDbSymbolTableRecord
100
AcDbTextStyleTableRecord
  2
Annotative
 70
     0
 40
0.0
 41
1.0
 50
0.0
 71
     0
 42
0.2
  3
txt
  4

1001
AcadAnnotative
1000
AnnotativeData
1002
{
1070
     1
1070
     1
1002
}
  0
ENDTAB
  0
TABLE
  2
VIEW
  5
6
330
0
100
AcDbSymbolTable
 70
     0
  0
ENDTAB
  0
TABLE
  2
UCS
  5
7
330
0
100
AcDbSymbolTable
 70
     0
  0
ENDTAB
  0
TABLE
  2
APPID
  5
9
330
0
100
AcDbSymbolTable
 70
     2
  0
APPID
  5
56
330
9
100
AcDbSymbolTableRecord
100
AcDbRegAppTableRecord
  2
ACAD
 70
     0
  0
APPID
  5
5E
330
9
100
AcDbSymbolTableRecord
100
AcDbRegAppTableRecord
  2
AcadAnnotative
 70
     0
  0
ENDTAB
  0
TABLE
  2
DIMSTYLE
  5
A
330
0
100
AcDbSymbolTable
 70
     2
100
AcDbDimStyleTable
 71
     0
  0
DIMSTYLE
105
58
330
A
100
AcDbSymbolTableRecord
100
AcDbDimStyleTableRecord
  2
Standard
 70
     0
340
55
  0
DIMSTYLE
105
59
330
A
100
AcDbSymbolTableRecord
100
AcDbDimStyleTableRecord
  2
Annotative
 70
     0
340
55
1001
AcadAnnotative
1000
AnnotativeData
1002
{
1070
     1
1070
     1
1002
}
  0
ENDTAB
  0
TABLE
  2
BLOCK_RECORD
  5
1
330
0
100
AcDbSymbolTable
 70
     4
  0
BLOCK_RECORD
  5
70
330
1
100
AcDbSymbolTableRecord
100
AcDbBlockTableRecord
  2
*Model_Space
340
73
 70
     0
280
     1
281
     0
  0
BLOCK_RECORD
  5
6C
330
1
100
AcDbSymbolTableRecord
100
AcDbBlockTableRecord
  2
*Paper_Space
340
6F
 70
     0
280
     1
281
     0
  0
BLOCK_RECORD
  5
74
330
1
100
AcDbSymbolTableRecord
100
AcDbBlockTableRecord
  2
*Paper_Space0
340
77
 70
     0
280
     1
281
     0
  0
BLOCK_RECORD
  5
17A
330
1
100
AcDbSymbolTableRecord
100
AcDbBlockTableRecord
  2
Block_0
340
0
102
{BLKREFS
331
17B
102
}
 70
     0
280
     1
281
     0
  0
BLOCK_RECORD
  5
187
330
1
100
AcDbSymbolTableRecord
100
AcDbBlockTableRecord
  2
Block_1
340
0
102
{BLKREFS
331
188
102
}
 70
     0
280
     1
281
     0
  0
BLOCK_RECORD
  5
193
330
1
100
AcDbSymbolTableRecord
100
AcDbBlockTableRecord
  2
Block_2
340
0
102
{BLKREFS
331
194
102
}
 70
     0
280
     1
281
     0
  0
ENDTAB
  0
ENDSEC
  0
SECTION
  2
BLOCKS
  0
BLOCK
  5
71
330
70
100
AcDbEntity
  8
0
100
AcDbBlockBegin
  2
*Model_Space
 70
     0
 10
0.0
 20
0.0
 30
0.0
  3
*Model_Space
  1

  0
ENDBLK
  5
72
330
70
100
AcDbEntity
  8
0
100
AcDbBlockEnd
  0
BLOCK
  5
6D
330
6C
100
AcDbEntity
 67
     1
  8
0
100
AcDbBlockBegin
  2
*Paper_Space
 70
     0
 10
0.0
 20
0.0
 30
0.0
  3
*Paper_Space
  1

  0
ENDBLK
  5
6E
330
6C
100
AcDbEntity
 67
     1
  8
0
100
AcDbBlockEnd
  0
BLOCK
  5
75
330
74
100
AcDbEntity
 67
     1
  8
0
100
AcDbBlockBegin
  2
*Paper_Space0
 70
     0
 10
0.0
 20
0.0
 30
0.0
  3
*Paper_Space0
  1

  0
ENDBLK
  5
76
330
74
100
AcDbEntity
 67
     1
  8
0
100
AcDbBlockEnd
  0
BLOCK
  5
17C
330
17A
100
AcDbEntity
  8
0
100
AcDbBlockBegin
  2
Block_0
 70
     0
 10
0.0
 20
0.0
 30
0.0
  3
Block_0
  1

  0
LWPOLYLINE
  5
17E
330
17A
100
AcDbEntity
  8
CAPA_BASE
100
AcDbPolyline
 90
        4
 70
     1
 43
0.0
 10
53.66050234417122
 20
19.18513934630808
 10
51.16050234417113
 20
19.49513934630845
 10
51.16050234417113
 20
18.87513934630836
 10
51.16050234417113
 20
18.87513934630836
  0
HATCH
  5
17F
330
17A
100
AcDbEntity
  8
CAPA_BASE
 62
    18
420
        0
440
 33554687
100
AcDbHatch
 10
0.0
 20
0.0
 30
0.0
210
0.0
220
0.0
230
1.0
  2
SOLID
 70
     1
 71
     1
 91
        1
 92
        1
 93
        3
 72
     1
 10
53.66050234417122
 20
19.18513934630808
 11
51.16050234417113
 21
19.49513934630845
 72
     1
 10
51.16050234417113
 20
19.49513934630845
 11
51.16050234417113
 21
18.87513934630836
 72
     1
 10
51.16050234417113
 20
18.87513934630836
 11
53.66050234417122
 21
19.18513934630808
 97
        1
330
17E
 75
     2
 76
     1
 98
        1
 10
0.0
 20
0.0
450
        0
451
        0
460
0.0
461
0.0
452
        0
462
0.0
453
        0
470

  0
LWPOLYLINE
  5
180
330
17A
100
AcDbEntity
  8
CAPA_BASE
100
AcDbPolyline
 90
        4
 70
     1
 43
0.0
 10
31.12322701947129
 20
19.18513934630808
 10
33.62322701947106
 20
18.87513934630836
 10
33.62322701947106
 20
19.49513934630845
 10
33.62322701947106
 20
19.49513934630845
  0
HATCH
  5
181
330
17A
100
AcDbEntity
  8
CAPA_BASE
 62
    18
420
        0
440
 33554687
100
AcDbHatch
 10
0.0
 20
0.0
 30
0.0
210
0.0
220
0.0
230
1.0
  2
SOLID
 70
     1
 71
     1
 91
        1
 92
        1
 93
        3
 72
     1
 10
31.12322701947129
 20
19.18513934630808
 11
33.62322701947106
 21
18.87513934630836
 72
     1
 10
33.62322701947106
 20
18.87513934630836
 11
33.62322701947106
 21
19.49513934630845
 72
     1
 10
33.62322701947106
 20
19.49513934630845
 11
31.12322701947129
 21
19.18513934630808
 97
        1
330
180
 75
     2
 76
     1
 98
        1
 10
0.0
 20
0.0
450
        0
451
        0
460
0.0
461
0.0
452
        0
462
0.0
453
        0
470

  0
LINE
  5
182
330
17A
100
AcDbEntity
  8
CAPA_BASE
 62
    18
420
        0
370
    25
100
AcDbLine
 10
53.66050234417122
 20
30.68513934630817
 30
0.0
 11
53.66050234417122
 21
18.18513934630869
 31
0.0
  0
LINE
  5
183
330
17A
100
AcDbEntity
  8
CAPA_BASE
 62
    18
420
        0
370
    25
100
AcDbLine
 10
31.12322701947129
 20
30.68513934630817
 30
0.0
 11
31.12322701947129
 21
18.18513934630869
 31
0.0
  0
LINE
  5
184
330
17A
100
AcDbEntity
  8
CAPA_BASE
 62
    18
420
        0
370
    25
100
AcDbLine
 10
53.66050234417122
 20
19.18513934630808
 30
0.0
 11
31.12322701947129
 21
19.18513934630808
 31
0.0
  0
MTEXT
  5
185
330
17A
100
AcDbEntity
  8
CAPA_BASE
100
AcDbMText
 10
38.9418090722958
 20
19.97889059415011
 30
0.0
 40
0.2
 41
0.0
 46
0.0
 71
     7
 72
     1
  1
\C18;\c0;\FArial Bold|b1|i0|c1;\H2.997200;\W0.700000;Ø
 73
     1
 44
1.0
  0
MTEXT
  5
186
330
17A
100
AcDbEntity
  8
CAPA_BASE
100
AcDbMText
 10
42.31414306430482
 20
19.97889059415011
 30
0.0
 40
0.2
 41
0.0
 46
0.0
 71
     7
 72
     1
  1
\C18;\c0;\FArial Bold|b1|i0|c1;\H2.997200;\W0.700000;90
 73
     1
 44
1.0
  0
ENDBLK
  5
17D
330
17A
100
AcDbEntity
  8
0
100
AcDbBlockEnd
  0
BLOCK
  5
189
330
187
100
AcDbEntity
  8
0
100
AcDbBlockBegin
  2
Block_1
 70
     0
 10
0.0
 20
0.0
 30
0.0
  3
Block_1
  1

  0
LWPOLYLINE
  5
18B
330
187
100
AcDbEntity
  8
CAPA_BASE
100
AcDbPolyline
 90
        4
 70
     1
 43
0.0
 10
89.89978189847089
 20
132.9558662777083
 10
89.58978189847117
 20
130.4558662777085
 10
90.20978189847125
 20
130.4558662777085
 10
90.20978189847125
 20
130.4558662777085
  0
HATCH
  5
18C
330
187
100
AcDbEntity
  8
CAPA_BASE
 62
    18
420
        0
440
 33554687
100
AcDbHatch
 10
0.0
 20
0.0
 30
0.0
210
0.0
220
0.0
230
1.0
  2
SOLID
 70
     1
 71
     1
 91
        1
 92
        1
 93
        3
 72
     1
 10
89.89978189847089
 20
132.9558662777083
 11
89.58978189847117
 21
130.4558662777085
 72
     1
 10
89.58978189847117
 20
130.4558662777085
 11
90.20978189847125
 21
130.4558662777085
 72
     1
 10
90.20978189847125
 20
130.4558662777085
 11
89.89978189847089
 21
132.9558662777083
 97
        1
330
18B
 75
     2
 76
     1
 98
        1
 10
0.0
 20
0.0
450
        0
451
        0
460
0.0
461
0.0
452
        0
462
0.0
453
        0
470

  0
LWPOLYLINE
  5
18D
330
187
100
AcDbEntity
  8
CAPA_BASE
100
AcDbPolyline
 90
        4
 70
     1
 43
0.0
 10
89.89978189847089
 20
29.18513934630844
 10
90.20978189847125
 20
31.68513934630821
 10
89.58978189847117
 20
31.68513934630821
 10
89.58978189847117
 20
31.68513934630821
  0
HATCH
  5
18E
330
187
100
AcDbEntity
  8
CAPA_BASE
 62
    18
420
        0
440
 33554687
100
AcDbHatch
 10
0.0
 20
0.0
 30
0.0
210
0.0
220
0.0
230
1.0
  2
SOLID
 70
     1
 71
     1
 91
        1
 92
        1
 93
        3
 72
     1
 10
89.89978189847089
 20
29.18513934630844
 11
90.20978189847125
 21
31.68513934630821
 72
     1
 10
90.20978189847125
 20
31.68513934630821
 11
89.58978189847117
 21
31.68513934630821
 72
     1
 10
89.58978189847117
 20
31.68513934630821
 11
89.89978189847089
 21
29.18513934630844
 97
        1
330
18D
 75
     2
 76
     1
 98
        1
 10
0.0
 20
0.0
450
        0
451
        0
460
0.0
461
0.0
452
        0
462
0.0
453
        0
470

  0
LINE
  5
18F
330
187
100
AcDbEntity
  8
CAPA_BASE
 62
    18
420
        0
370
    25
100
AcDbLine
 10
112.1547818984712
 20
132.9558662777083
 30
0.0
 11
88.8997818984715
 21
132.9558662777083
 31
0.0
  0
LINE
  5
190
330
187
100
AcDbEntity
  8
CAPA_BASE
 62
    18
420
        0
370
    25
100
AcDbLine
 10
104.292281898471
 20
29.18513934630844
 30
0.0
 11
88.8997818984715
 21
29.18513934630844
 31
0.0
  0
LINE
  5
191
330
187
100
AcDbEntity
  8
CAPA_BASE
 62
    18
420
        0
370
    25
100
AcDbLine
 10
89.89978189847089
 20
132.9558662777083
 30
0.0
 11
89.89978189847089
 21
29.18513934630844
 31
0.0
  0
MTEXT
  5
192
330
187
100
AcDbEntity
  8
CAPA_BASE
100
AcDbMText
 10
89.10603821964036
 20
78.4248426453237
 30
0.0
 40
0.2
 41
0.0
 46
0.0
 71
     7
 72
     1
  1
\C18;\c0;\FArial Bold|b1|i0|c1;\H2.997200;\W0.700000;415
 11
0.0000000000000003
 21
1.0
 31
0.0
 73
     1
 44
1.0
  0
ENDBLK
  5
18A
330
187
100
AcDbEntity
  8
0
100
AcDbBlockEnd
  0
BLOCK
  5
195
330
193
100
AcDbEntity
  8
0
100
AcDbBlockBegin
  2
Block_2
 70
     0
 10
0.0
 20
0.0
 30
0.0
  3
Block_2
  1

  0
LWPOLYLINE
  5
197
330
193
100
AcDbEntity
  8
CAPA_BASE
100
AcDbPolyline
 90
        4
 70
     1
 43
0.0
 10
63.69541247397127
 20
-13.81979488979141
 10
63.38541247397124
 20
-16.31979488979182
 10
64.00541247397132
 20
-16.31979488979182
 10
64.00541247397132
 20
-16.31979488979182
  0
HATCH
  5
198
330
193
100
AcDbEntity
  8
CAPA_BASE
 62
    18
420
        0
440
 33554687
100
AcDbHatch
 10
0.0
 20
0.0
 30
0.0
210
0.0
220
0.0
230
1.0
  2
SOLID
 70
     1
 71
     1
 91
        1
 92
        1
 93
        3
 72
     1
 10
63.69541247397127
 20
-13.81979488979141
 11
63.38541247397124
 21
-16.31979488979182
 72
     1
 10
63.38541247397124
 20
-16.31979488979182
 11
64.00541247397132
 21
-16.31979488979182
 72
     1
 10
64.00541247397132
 20
-16.31979488979182
 11
63.69541247397127
 21
-13.81979488979141
 97
        1
330
197
 75
     2
 76
     1
 98
        1
 10
0.0
 20
0.0
450
        0
451
        0
460
0.0
461
0.0
452
        0
462
0.0
453
        0
470

  0
LWPOLYLINE
  5
199
330
193
100
AcDbEntity
  8
CAPA_BASE
100
AcDbPolyline
 90
        4
 70
     1
 43
0.0
 10
63.69541247397127
 20
-41.01584268199135
 10
64.00541247397132
 20
-38.51584268199159
 10
63.38541247397124
 20
-38.51584268199159
 10
63.38541247397124
 20
-38.51584268199159
  0
HATCH
  5
19A
330
193
100
AcDbEntity
  8
CAPA_BASE
 62
    18
420
        0
440
 33554687
100
AcDbHatch
 10
0.0
 20
0.0
 30
0.0
210
0.0
220
0.0
230
1.0
  2
SOLID
 70
     1
 71
     1
 91
        1
 92
        1
 93
        3
 72
     1
 10
63.69541247397127
 20
-41.01584268199135
 11
64.00541247397132
 21
-38.51584268199159
 72
     1
 10
64.00541247397132
 20
-38.51584268199159
 11
63.38541247397124
 21
-38.51584268199159
 72
     1
 10
63.38541247397124
 20
-38.51584268199159
 11
63.69541247397127
 21
-41.01584268199135
 97
        1
330
199
 75
     2
 76
     1
 98
        1
 10
0.0
 20
0.0
450
        0
451
        0
460
0.0
461
0.0
452
        0
462
0.0
453
        0
470

  0
LINE
  5
19B
330
193
100
AcDbEntity
  8
CAPA_BASE
 62
    18
420
        0
370
    25
100
AcDbLine
 10
49.64186468187108
 20
-13.81979488979141
 30
0.0
 11
64.69541247397131
 21
-13.81979488979141
 31
0.0
  0
LINE
  5
19C
330
193
100
AcDbEntity
  8
CAPA_BASE
 62
    18
420
        0
370
    25
100
AcDbLine
 10
43.39186468187103
 20
-41.01584268199135
 30
0.0
 11
64.69541247397131
 21
-41.01584268199135
 31
0.0
  0
LINE
  5
19D
330
193
100
AcDbEntity
  8
CAPA_BASE
 62
    18
420
        0
370
    25
100
AcDbLine
 10
63.69541247397127
 20
-13.81979488979141
 30
0.0
 11
63.69541247397127
 21
-41.01584268199135
 31
0.0
  0
MTEXT
  5
19E
330
193
100
AcDbEntity
  8
CAPA_BASE
100
AcDbMText
 10
62.90166225980149
 20
-30.06328124248482
 30
0.0
 40
0.2
 41
0.0
 46
0.0
 71
     7
 72
     1
  1
\C18;\c0;\FArial Bold|b1|i0|c1;\H2.997200;\W0.700000;109
 11
0.0000000000000003
 21
1.0
 31
0.0
 73
     1
 44
1.0
  0
ENDBLK
  5
196
330
193
100
AcDbEntity
  8
0
100
AcDbBlockEnd
  0
ENDSEC
  0
SECTION
  2
ENTITIES
  0
LINE
  5
78
330
70
100
AcDbEntity
  8
0
 62
    18
420
        0
370
    25
100
AcDbLine
 10
39.64186469677131
 20
132.7058655353085
 30
0.0
 11
39.64186469677131
 21
107.7058663269085
 31
0.0
  0
LINE
  5
79
330
70
100
AcDbEntity
  8
0
 62
    18
420
        0
370
    25
100
AcDbLine
 10
45.14186466697132
 20
107.7058663269085
 30
0.0
 11
45.14186466697132
 21
132.7058655353085
 31
0.0
  0
LINE
  5
7A
330
70
100
AcDbEntity
  8
0
 62
    18
420
        0
370
    25
100
AcDbLine
 10
53.66686462077129
 20
106.8351393534085
 30
0.0
 11
53.66241662417103
 21
107.3447912842085
 31
0.0
  0
LINE
  5
7B
330
70
100
AcDbEntity
  8
0
 62
    18
420
        0
370
    25
100
AcDbLine
 10
31.12131273957127
 20
107.3447912842085
 30
0.0
 11
31.11686474297133
 21
106.8351393534085
 31
0.0
  0
SPLINE
  5
7C
330
70
100
AcDbEntity
  8
0
 62
    18
420
        0
370
    25
100
AcDbSpline
210
0.0
220
0.0
230
1.0
 70
     8
 71
     3
 72
     8
 73
     4
 74
     0
 42
0.0000000001
 43
0.0000000001
 40
0.0
 40
0.0
 40
0.0
 40
0.0
 40
1.0
 40
1.0
 40
1.0
 40
1.0
 10
53.66241701663738
 20
107.3447912996831
 30
0.0
 10
53.66124509594214
 20
107.4790801101949
 30
0.0
 10
53.55418765022967
 20
107.5884523888708
 30
0.0
 10
53.41995462581548
 20
107.5924962958265
 30
0.0
  0
SPLINE
  5
7D
330
70
100
AcDbEntity
  8
0
 62
    18
420
        0
370
    25
100
AcDbSpline
210
0.0
220
0.0
230
1.0
 70
     8
 71
     3
 72
     8
 73
     4
 74
     0
 42
0.0000000001
 43
0.0000000001
 40
0.0
 40
0.0
 40
0.0
 40
0.0
 40
1.0
 40
1.0
 40
1.0
 40
1.0
 10
31.36377473782703
 20
107.5924962958265
 30
0.0
 10
31.22954171341284
 20
107.5884523888708
 30
0.0
 10
31.12248426770036
 20
107.4790801101949
 30
0.0
 10
31.12131234700514
 20
107.3447912996831
 30
0.0
  0
SPLINE
  5
7E
330
70
100
AcDbEntity
  8
0
 62
    18
420
        0
370
    25
100
AcDbSpline
210
0.0
220
0.0
230
1.0
 70
     8
 71
     3
 72
     8
 73
     4
 74
     0
 42
0.0000000001
 43
0.0000000001
 40
0.0
 40
0.0
 40
0.0
 40
0.0
 40
1.0
 40
1.0
 40
1.0
 40
1.0
 10
38.89186468187118
 20
107.7058662777082
 30
0.0
 10
36.38207455691792
 20
107.7058662777082
 30
0.0
 10
33.87242672359113
 20
107.6680719990019
 30
0.0
 10
31.3637747380821
 20
107.5924962957989
 30
0.0
  0
SPLINE
  5
7F
330
70
100
AcDbEntity
  8
0
 62
    18
420
        0
370
    25
100
AcDbSpline
210
0.0
220
0.0
230
1.0
 70
     8
 71
     3
 72
     8
 73
     4
 74
     0
 42
0.0000000001
 43
0.0000000001
 40
0.0
 40
0.0
 40
0.0
 40
0.0
 40
1.0
 40
1.0
 40
1.0
 40
1.0
 10
53.41995462565988
 20
107.5924962957989
 30
0.0
 10
50.91130264015117
 20
107.6680719990019
 30
0.0
 10
48.40165480682438
 20
107.7058662777082
 30
0.0
 10
45.89186468187111
 20
107.7058662777082
 30
0.0
  0
SPLINE
  5
80
330
70
100
AcDbEntity
  8
0
 62
    18
420
        0
370
    25
100
AcDbSpline
210
0.0
220
0.0
230
1.0
 70
     8
 71
     3
 72
     8
 73
     4
 74
     0
 42
0.0000000001
 43
0.0000000001
 40
0.0
 40
0.0
 40
0.0
 40
0.0
 40
1.0
 40
1.0
 40
1.0
 40
1.0
 10
52.91686468187112
 20
106.8351393463084
 30
0.0
 10
52.88925044437974
 20
106.8351393463084
 30
0.0
 10
52.86686468187127
 20
106.8127535838
 30
0.0
 10
52.86686468187127
 20
106.7851393463083
 30
0.0
  0
SPLINE
  5
81
330
70
100
AcDbEntity
  8
0
 62
    18
420
        0
370
    25
100
AcDbSpline
210
0.0
220
0.0
230
1.0
 70
     8
 71
     3
 72
     8
 73
     4
 74
     0
 42
0.0000000001
 43
0.0000000001
 40
0.0
 40
0.0
 40
0.0
 40
0.0
 40
1.0
 40
1.0
 40
1.0
 40
1.0
 10
31.91686468187102
 20
106.7851393463083
 30
0.0
 10
31.91686468187102
 20
106.8127535838
 30
0.0
 10
31.89447891936257
 20
106.8351393463084
 30
0.0
 10
31.86686468187118
 20
106.8351393463084
 30
0.0
  0
LINE
  5
82
330
70
100
AcDbEntity
  8
0
 62
    18
420
        0
370
    25
100
AcDbLine
 10
31.91686431527125
 20
106.7851393437084
 30
0.0
 11
31.91686431527125
 21
106.7021266446085
 31
0.0
  0
LINE
  5
83
330
70
100
AcDbEntity
  8
0
 62
    18
420
        0
370
    25
100
AcDbLine
 10
52.86686504837127
 20
106.7021266446085
 30
0.0
 11
52.86686504837127
 21
106.7851393437084
 31
0.0
  0
LWPOLYLINE
  5
84
330
70
100
AcDbEntity
  8
0
 62
    18
420
        0
370
    25
100
AcDbPolyline
 90
        3
 70
     0
 43
0.0
 10
52.86628669707108
 20
106.6851393463083
 10
52.86632953797123
 20
106.6857758620083
 10
52.86686504837127
 20
106.7021266446085
  0
LWPOLYLINE
  5
85
330
70
100
AcDbEntity
  8
0
 62
    18
420
        0
370
    25
100
AcDbPolyline
 90
        3
 70
     0
 43
0.0
 10
31.91686431527125
 20
106.7021266446085
 10
31.91739982577106
 20
106.6857758620083
 10
31.91744266657111
 20
106.6851393463083
  0
LINE
  5
86
330
70
100
AcDbEntity
  8
0
 62
    18
420
        0
370
    25
100
AcDbLine
 10
53.69541245167123
 20
29.68513976350812
 30
0.0
 11
53.66050275627131
 21
31.68513636600824
 31
0.0
  0
LINE
  5
87
330
70
100
AcDbEntity
  8
0
 62
    18
420
        0
370
    25
100
AcDbLine
 10
31.12322660747131
 20
31.68513636600824
 30
0.0
 11
31.08831691207106
 21
29.68513976350812
 31
0.0
  0
LINE
  5
88
330
70
100
AcDbEntity
  8
0
 62
    18
420
        0
370
    25
100
AcDbLine
 10
31.88313739957126
 20
29.68513976350812
 30
0.0
 11
31.89186482337103
 21
29.18513875020853
 31
0.0
  0
LINE
  5
89
330
70
100
AcDbEntity
  8
0
 62
    18
420
        0
370
    25
100
AcDbLine
 10
52.89186454027117
 20
29.18513875020853
 30
0.0
 11
52.90059196417104
 21
29.68513976350812
 31
0.0
  0
LINE
  5
8A
330
70
100
AcDbEntity
  8
0
 62
    18
420
        0
370
    25
100
AcDbLine
 10
45.15436464567112
 20
132.7058655353085
 30
0.0
 11
45.15436464567112
 21
132.8308657886084
 31
0.0
  0
LINE
  5
8B
330
70
100
AcDbEntity
  8
0
 62
    18
420
        0
370
    25
100
AcDbLine
 10
39.62936471797107
 20
132.8308657886084
 30
0.0
 11
39.62936471797107
 21
132.7058655353085
 31
0.0
  0
SPLINE
  5
8C
330
70
100
AcDbEntity
  8
0
 62
    18
420
        0
370
    25
100
AcDbSpline
210
0.0
220
0.0
230
1.0
 70
     8
 71
     3
 72
     8
 73
     4
 74
     0
 42
0.0000000001
 43
0.0000000001
 40
0.0
 40
0.0
 40
0.0
 40
0.0
 40
1.0
 40
1.0
 40
1.0
 40
1.0
 10
39.7543646818711
 20
132.9558662777083
 30
0.0
 10
39.68532908814231
 20
132.9558662777083
 30
0.0
 10
39.62936468187101
 20
132.8999018714373
 30
0.0
 10
39.62936468187101
 20
132.8308662777085
 30
0.0
  0
SPLINE
  5
8D
330
70
100
AcDbEntity
  8
0
 62
    18
420
        0
370
    25
100
AcDbSpline
210
0.0
220
0.0
230
1.0
 70
     8
 71
     3
 72
     8
 73
     4
 74
     0
 42
0.0000000001
 43
0.0000000001
 40
0.0
 40
0.0
 40
0.0
 40
0.0
 40
1.0
 40
1.0
 40
1.0
 40
1.0
 10
45.15436468187128
 20
132.8308662777085
 30
0.0
 10
45.15436468187128
 20
132.8999018714373
 30
0.0
 10
45.09840027559999
 20
132.9558662777083
 30
0.0
 10
45.0293646818712
 20
132.9558662777083
 30
0.0
  0
LINE
  5
8E
330
70
100
AcDbEntity
  8
0
 62
    18
420
        0
370
    25
100
AcDbLine
 10
31.14186423477112
 20
106.6851393463083
 30
0.0
 11
31.14186423477112
 21
31.68513636600824
 31
0.0
  0
LINE
  5
8F
330
70
100
AcDbEntity
  8
0
 62
    18
420
        0
370
    25
100
AcDbLine
 10
53.64186512887108
 20
31.68513636600824
 30
0.0
 11
53.64186512887108
 21
106.6851393463083
 31
0.0
  0
LINE
  5
90
330
70
100
AcDbEntity
  8
0
 62
    18
420
        0
370
    25
100
AcDbLine
 10
31.11686474297133
 20
106.8351393534085
 30
0.0
 11
53.66686462077129
 21
106.8351393534085
 31
0.0
  0
LINE
  5
91
330
70
100
AcDbEntity
  8
0
 62
    18
420
        0
370
    25
100
AcDbLine
 10
38.89186457377121
 20
107.7058663269085
 30
0.0
 11
45.8918647898713
 21
107.7058663269085
 31
0.0
  0
LINE
  5
92
330
70
100
AcDbEntity
  8
0
 62
    18
420
        0
370
    25
100
AcDbLine
 10
53.66050275627131
 20
31.68513636600824
 30
0.0
 11
31.12322660747131
 21
31.68513636600824
 31
0.0
  0
LINE
  5
93
330
70
100
AcDbEntity
  8
0
 62
    18
420
        0
370
    25
100
AcDbLine
 10
53.69541245167123
 20
29.68513976350812
 30
0.0
 11
31.08831691207106
 21
29.68513976350812
 31
0.0
  0
LINE
  5
94
330
70
100
AcDbEntity
  8
0
 62
    18
420
        0
370
    25
100
AcDbLine
 10
31.91685127677103
 20
29.18513875020853
 30
0.0
 11
31.89186482337103
 21
29.18513875020853
 31
0.0
  0
LINE
  5
95
330
70
100
AcDbEntity
  8
0
 62
    18
420
        0
370
    25
100
AcDbLine
 10
52.89186454027117
 20
29.18513875020853
 30
0.0
 11
31.91685127677103
 21
29.18513875020853
 31
0.0
  0
LINE
  5
96
330
70
100
AcDbEntity
  8
0
 62
    18
420
        0
370
    25
100
AcDbLine
 10
44.24498903677125
 20
132.7058655353085
 30
0.0
 11
39.62936471797107
 21
132.7058655353085
 31
0.0
  0
LINE
  5
97
330
70
100
AcDbEntity
  8
0
 62
    18
420
        0
370
    25
100
AcDbLine
 10
45.15436464567112
 20
132.7058655353085
 30
0.0
 11
44.24498903677125
 21
132.7058655353085
 31
0.0
  0
LINE
  5
98
330
70
100
AcDbEntity
  8
0
 62
    18
420
        0
370
    25
100
AcDbLine
 10
39.7543647384712
 20
132.9558660419082
 30
0.0
 11
45.02936462517132
 21
132.9558660419082
 31
0.0
  0
LINE
  5
99
330
70
100
AcDbEntity
  8
0
 62
    18
420
        0
370
    25
100
AcDbLine
 10
31.14186423477112
 20
106.6851393463083
 30
0.0
 11
53.64186512887108
 21
106.6851393463083
 31
0.0
  0
LINE
  5
9A
330
70
100
AcDbEntity
  8
0
 62
     8
420
  8421504
370
    25
100
AcDbLine
 10
53.66241662417103
 20
107.3447912842085
 30
0.0
 11
31.12131273957127
 21
107.3447912842085
 31
0.0
  0
LINE
  5
9B
330
70
100
AcDbEntity
  8
0
 62
     8
420
  8421504
370
    25
100
AcDbLine
 10
41.91884181347118
 20
107.5924963135085
 30
0.0
 11
53.41995424237111
 21
107.5924963135085
 31
0.0
  0
LINE
  5
9C
330
70
100
AcDbEntity
  8
0
 62
     8
420
  8421504
370
    25
100
AcDbLine
 10
31.36377512127108
 20
107.5924963135085
 30
0.0
 11
41.91884181347118
 21
107.5924963135085
 31
0.0
  0
LINE
  5
9D
330
70
100
AcDbEntity
  8
0
 62
     8
420
  8421504
370
    25
100
AcDbLine
 10
41.94256524787107
 20
106.7851393437084
 30
0.0
 11
31.91686431527125
 21
106.7851393437084
 31
0.0
  0
LINE
  5
9E
330
70
100
AcDbEntity
  8
0
 62
     8
420
  8421504
370
    25
100
AcDbLine
 10
52.86686504837127
 20
106.7851393437084
 30
0.0
 11
41.94256524787107
 21
106.7851393437084
 31
0.0
  0
LINE
  5
9F
330
70
100
AcDbEntity
  8
0
 62
     8
420
  8421504
370
    25
100
AcDbLine
 10
41.94256524787107
 20
106.7021266446085
 30
0.0
 11
52.86686504837127
 21
106.7021266446085
 31
0.0
  0
LINE
  5
A0
330
70
100
AcDbEntity
  8
0
 62
     8
420
  8421504
370
    25
100
AcDbLine
 10
31.91686431527125
 20
106.7021266446085
 30
0.0
 11
41.94256524787107
 21
106.7021266446085
 31
0.0
  0
LINE
  5
A1
330
70
100
AcDbEntity
  8
0
 62
     8
420
  8421504
370
    25
100
AcDbLine
 10
45.15436464567112
 20
132.8308657886084
 30
0.0
 11
39.62936471797107
 21
132.8308657886084
 31
0.0
  0
LWPOLYLINE
  5
A2
330
70
100
AcDbEntity
  8
0
 62
    18
420
        0
370
    25
100
AcDbPolyline
 90
        5
 70
     0
 43
0.0
 10
101.401097113971
 20
84.28822282270871
 10
101.4011660318716
 20
84.7839788677084
 10
101.4012004907712
 20
85.37393074050887
 10
101.401166031871
 20
85.9648754032082
 10
101.4011222596711
 20
86.27365912810827
  0
LWPOLYLINE
  5
A3
330
70
100
AcDbEntity
  8
0
 62
    18
420
        0
370
    25
100
AcDbPolyline
 90
        3
 70
     0
 43
0.0
 10
101.2706625934711
 20
79.36061184420797
 10
101.3660616900708
 20
81.80630776600855
 10
101.4012684773714
 20
83.68395652190837
  0
LWPOLYLINE
  5
A4
330
70
100
AcDbEntity
  8
0
 62
    18
420
        0
370
    25
100
AcDbPolyline
 90
        5
 70
     0
 43
0.0
 10
101.4012684773714
 20
83.68455256830854
 10
101.4012600954716
 20
83.76126002090803
 10
101.4012098039714
 20
83.89674510370841
 10
101.4011464740707
 20
84.07967734650837
 10
101.4010887320712
 20
84.30030952710858
  0
SPLINE
  5
A5
330
70
100
AcDbEntity
  8
0
 62
    18
420
        0
370
    25
100
AcDbSpline
210
0.0
220
0.0
230
1.0
 70
     8
 71
     3
 72
     8
 73
     4
 74
     0
 42
0.0000000001
 43
0.0000000001
 40
0.0
 40
0.0
 40
0.0
 40
0.0
 40
1.0
 40
1.0
 40
1.0
 40
1.0
 10
101.0215060341518
 20
79.12263934642261
 30
0.0
 10
101.1549088514849
 20
79.12263530841591
 30
0.0
 10
101.2648128200581
 20
79.22737475349975
 30
0.0
 10
101.2712246682323
 20
79.36062339286173
 30
0.0
  0
LINE
  5
A6
330
70
100
AcDbEntity
  8
0
 62
    18
420
        0
370
    25
100
AcDbLine
 10
101.4010552044707
 20
86.40271622250836
 30
0.0
 11
101.4010635863712
 21
86.42413477910841
 31
0.0
  0
LINE
  5
A7
330
70
100
AcDbEntity
  8
0
 62
    18
420
        0
370
    25
100
AcDbLine
 10
113.0422819133714
 20
132.7058655353085
 30
0.0
 11
113.0422819133714
 21
107.7058663269085
 31
0.0
  0
LINE
  5
A8
330
70
100
AcDbEntity
  8
0
 62
    18
420
        0
370
    25
100
AcDbLine
 10
118.5422818835714
 20
107.7058663269085
 30
0.0
 11
118.5422818835714
 21
132.7058655353085
 31
0.0
  0
LINE
  5
A9
330
70
100
AcDbEntity
  8
0
 62
    18
420
        0
370
    25
100
AcDbLine
 10
127.0672818373711
 20
106.8351393534085
 30
0.0
 11
127.0628338407711
 21
107.3447912842085
 31
0.0
  0
LINE
  5
AA
330
70
100
AcDbEntity
  8
0
 62
    18
420
        0
370
    25
100
AcDbLine
 10
104.5217299561711
 20
107.3447912842085
 30
0.0
 11
104.5172819595711
 21
106.8351393534085
 31
0.0
  0
SPLINE
  5
AB
330
70
100
AcDbEntity
  8
0
 62
    18
420
        0
370
    25
100
AcDbSpline
210
0.0
220
0.0
230
1.0
 70
     8
 71
     3
 72
     8
 73
     4
 74
     0
 42
0.0000000001
 43
0.0000000001
 40
0.0
 40
0.0
 40
0.0
 40
0.0
 40
1.0
 40
1.0
 40
1.0
 40
1.0
 10
127.0628342332375
 20
107.3447912996831
 30
0.0
 10
127.0616623125423
 20
107.4790801101949
 30
0.0
 10
126.9546048668295
 20
107.5884523888708
 30
0.0
 10
126.8203718424156
 20
107.5924962958265
 30
0.0
  0
SPLINE
  5
AC
330
70
100
AcDbEntity
  8
0
 62
    18
420
        0
370
    25
100
AcDbSpline
210
0.0
220
0.0
230
1.0
 70
     8
 71
     3
 72
     8
 73
     4
 74
     0
 42
0.0000000001
 43
0.0000000001
 40
0.0
 40
0.0
 40
0.0
 40
0.0
 40
1.0
 40
1.0
 40
1.0
 40
1.0
 10
104.7641919545266
 20
107.5924962958265
 30
0.0
 10
104.6299589301127
 20
107.5884523888708
 30
0.0
 10
104.5229014843999
 20
107.4790801101949
 30
0.0
 10
104.5217295637054
 20
107.3447912996831
 30
0.0
  0
SPLINE
  5
AD
330
70
100
AcDbEntity
  8
0
 62
    18
420
        0
370
    25
100
AcDbSpline
210
0.0
220
0.0
230
1.0
 70
     8
 71
     3
 72
     8
 73
     4
 74
     0
 42
0.0000000001
 43
0.0000000001
 40
0.0
 40
0.0
 40
0.0
 40
0.0
 40
1.0
 40
1.0
 40
1.0
 40
1.0
 10
112.2922818984713
 20
107.7058662777082
 30
0.0
 10
109.782491773518
 20
107.7058662777082
 30
0.0
 10
107.2728439401912
 20
107.6680719990019
 30
0.0
 10
104.7641919546819
 20
107.5924962957989
 30
0.0
  0
SPLINE
  5
AE
330
70
100
AcDbEntity
  8
0
 62
    18
420
        0
370
    25
100
AcDbSpline
210
0.0
220
0.0
230
1.0
 70
     8
 71
     3
 72
     8
 73
     4
 74
     0
 42
0.0000000001
 43
0.0000000001
 40
0.0
 40
0.0
 40
0.0
 40
0.0
 40
1.0
 40
1.0
 40
1.0
 40
1.0
 10
126.8203718422603
 20
107.5924962957993
 30
0.0
 10
124.311719856751
 20
107.6680719990019
 30
0.0
 10
121.8020720234242
 20
107.7058662777082
 30
0.0
 10
119.2922818984709
 20
107.7058662777085
 30
0.0
  0
SPLINE
  5
AF
330
70
100
AcDbEntity
  8
0
 62
    18
420
        0
370
    25
100
AcDbSpline
210
0.0
220
0.0
230
1.0
 70
     8
 71
     3
 72
     8
 73
     4
 74
     0
 42
0.0000000001
 43
0.0000000001
 40
0.0
 40
0.0
 40
0.0
 40
0.0
 40
1.0
 40
1.0
 40
1.0
 40
1.0
 10
126.3172818984712
 20
106.8351393463084
 30
0.0
 10
126.2896676609799
 20
106.8351393463084
 30
0.0
 10
126.2672818984711
 20
106.8127535838
 30
0.0
 10
126.2672818984711
 20
106.7851393463083
 30
0.0
  0
SPLINE
  5
B0
330
70
100
AcDbEntity
  8
0
 62
    18
420
        0
370
    25
100
AcDbSpline
210
0.0
220
0.0
230
1.0
 70
     8
 71
     3
 72
     8
 73
     4
 74
     0
 42
0.0000000001
 43
0.0000000001
 40
0.0
 40
0.0
 40
0.0
 40
0.0
 40
1.0
 40
1.0
 40
1.0
 40
1.0
 10
105.3172818984711
 20
106.7851393463083
 30
0.0
 10
105.3172818984711
 20
106.8127535838
 30
0.0
 10
105.2948961359624
 20
106.8351393463084
 30
0.0
 10
105.267281898471
 20
106.8351393463084
 30
0.0
  0
LWPOLYLINE
  5
B1
330
70
100
AcDbEntity
  8
0
 62
    18
420
        0
370
    25
100
AcDbPolyline
 90
        3
 70
     0
 43
0.0
 10
126.2667039136709
 20
106.6851393463083
 10
126.266746754571
 20
106.6857758620083
 10
126.2672822650712
 20
106.7021266446085
  0
LWPOLYLINE
  5
B2
330
70
100
AcDbEntity
  8
0
 62
    18
420
        0
370
    25
100
AcDbPolyline
 90
        3
 70
     0
 43
0.0
 10
105.317281531871
 20
106.7021266446085
 10
105.3178170423712
 20
106.6857758620083
 10
105.3178598831712
 20
106.6851393463083
  0
LINE
  5
B3
330
70
100
AcDbEntity
  8
0
 62
    18
420
        0
370
    25
100
AcDbLine
 10
105.317281531871
 20
106.7851393437084
 30
0.0
 11
105.317281531871
 21
106.7021266446085
 31
0.0
  0
LINE
  5
B4
330
70
100
AcDbEntity
  8
0
 62
    18
420
        0
370
    25
100
AcDbLine
 10
126.2672822650712
 20
106.7021266446085
 30
0.0
 11
126.2672822650712
 21
106.7851393437084
 31
0.0
  0
LINE
  5
B5
330
70
100
AcDbEntity
  8
0
 62
    18
420
        0
370
    25
100
AcDbLine
 10
127.0958296682714
 20
29.68513976350812
 30
0.0
 11
127.0609199728714
 21
31.68513636600824
 31
0.0
  0
LINE
  5
B6
330
70
100
AcDbEntity
  8
0
 62
    18
420
        0
370
    25
100
AcDbLine
 10
104.5236438240708
 20
31.68513636600824
 30
0.0
 11
104.4887341286715
 21
29.68513976350812
 31
0.0
  0
LINE
  5
B7
330
70
100
AcDbEntity
  8
0
 62
    18
420
        0
370
    25
100
AcDbLine
 10
105.2835546161714
 20
29.68513976350812
 30
0.0
 11
105.2922820399708
 21
29.18513875020853
 31
0.0
  0
LINE
  5
B8
330
70
100
AcDbEntity
  8
0
 62
    18
420
        0
370
    25
100
AcDbLine
 10
126.2922817568713
 20
29.18513875020853
 30
0.0
 11
126.3010091807708
 21
29.68513976350812
 31
0.0
  0
LINE
  5
B9
330
70
100
AcDbEntity
  8
0
 62
    18
420
        0
370
    25
100
AcDbLine
 10
118.5547818623714
 20
132.7058655353085
 30
0.0
 11
118.5547818623714
 21
132.8308657886084
 31
0.0
  0
LINE
  5
BA
330
70
100
AcDbEntity
  8
0
 62
    18
420
        0
370
    25
100
AcDbLine
 10
113.0297819345709
 20
132.8308657886084
 30
0.0
 11
113.0297819345709
 21
132.7058655353085
 31
0.0
  0
SPLINE
  5
BB
330
70
100
AcDbEntity
  8
0
 62
    18
420
        0
370
    25
100
AcDbSpline
210
0.0
220
0.0
230
1.0
 70
     8
 71
     3
 72
     8
 73
     4
 74
     0
 42
0.0000000001
 43
0.0000000001
 40
0.0
 40
0.0
 40
0.0
 40
0.0
 40
1.0
 40
1.0
 40
1.0
 40
1.0
 10
113.1547818984712
 20
132.9558662777083
 30
0.0
 10
113.0857463047424
 20
132.9558662777083
 30
0.0
 10
113.0297818984715
 20
132.8999018714373
 30
0.0
 10
113.0297818984715
 20
132.8308662777085
 30
0.0
  0
SPLINE
  5
BC
330
70
100
AcDbEntity
  8
0
 62
    18
420
        0
370
    25
100
AcDbSpline
210
0.0
220
0.0
230
1.0
 70
     8
 71
     3
 72
     8
 73
     4
 74
     0
 42
0.0000000001
 43
0.0000000001
 40
0.0
 40
0.0
 40
0.0
 40
0.0
 40
1.0
 40
1.0
 40
1.0
 40
1.0
 10
118.5547818984714
 20
132.8308662777085
 30
0.0
 10
118.5547818984714
 20
132.8999018714373
 30
0.0
 10
118.4988174921998
 20
132.9558662777083
 30
0.0
 10
118.429781898471
 20
132.9558662777083
 30
0.0
  0
LINE
  5
BD
330
70
100
AcDbEntity
  8
0
 62
    18
420
        0
370
    25
100
AcDbLine
 10
104.220576557071
 20
83.39731964780849
 30
0.0
 11
104.220576557071
 21
82.24763918230861
 31
0.0
  0
LINE
  5
BE
330
70
100
AcDbEntity
  8
0
 62
    18
420
        0
370
    25
100
AcDbLine
 10
104.220576557071
 20
88.49763880980846
 30
0.0
 11
104.220576557071
 21
87.36813824190839
 31
0.0
  0
LINE
  5
BF
330
70
100
AcDbEntity
  8
0
 62
    18
420
        0
370
    25
100
AcDbLine
 10
104.5422814514713
 20
88.49763880980846
 30
0.0
 11
104.220576557071
 21
88.49763880980846
 31
0.0
  0
LINE
  5
C0
330
70
100
AcDbEntity
  8
0
 62
    18
420
        0
370
    25
100
AcDbLine
 10
104.220576557071
 20
82.24763918230861
 30
0.0
 11
104.5422814514713
 21
82.24763918230861
 31
0.0
  0
LINE
  5
C1
330
70
100
AcDbEntity
  8
0
 62
    18
420
        0
370
    25
100
AcDbLine
 10
101.3997820864708
 20
83.37263959960848
 30
0.0
 11
104.2249081383709
 21
83.37263959960848
 31
0.0
  0
LINE
  5
C2
330
70
100
AcDbEntity
  8
0
 62
    18
420
        0
370
    25
100
AcDbLine
 10
104.2213411729711
 20
87.37264025520815
 30
0.0
 11
101.3997820864708
 21
87.37264025520815
 31
0.0
  0
LINE
  5
C3
330
70
100
AcDbEntity
  8
0
 62
    18
420
        0
370
    25
100
AcDbLine
 10
101.3997820864708
 20
86.91341254430835
 30
0.0
 11
101.3945750619714
 21
86.91336597810847
 31
0.0
  0
LINE
  5
C4
330
70
100
AcDbEntity
  8
0
 62
    18
420
        0
370
    25
100
AcDbLine
 10
104.5422814514713
 20
82.24763918230861
 30
0.0
 11
104.5422814514713
 21
31.68513636600824
 31
0.0
  0
LINE
  5
C5
330
70
100
AcDbEntity
  8
0
 62
    18
420
        0
370
    25
100
AcDbLine
 10
104.5422814514713
 20
106.6851393463083
 30
0.0
 11
104.5422814514713
 21
88.49763880980846
 31
0.0
  0
LINE
  5
C6
330
70
100
AcDbEntity
  8
0
 62
    18
420
        0
370
    25
100
AcDbLine
 10
127.0422823454709
 20
31.68513636600824
 30
0.0
 11
127.0422823454709
 21
106.6851393463083
 31
0.0
  0
LWPOLYLINE
  5
C7
330
70
100
AcDbEntity
  8
0
 62
    18
420
        0
370
    25
100
AcDbPolyline
 90
        7
 70
     0
 43
0.0
 10
101.2698840077714
 20
91.37273404310841
 10
101.2700628216711
 20
90.8727348925084
 10
101.2706951897712
 20
88.87273456470824
 10
101.2712074171714
 20
84.87273390900847
 10
101.2710341911715
 20
83.34913301780847
 10
101.2698840077714
 20
79.37254394900833
 10
101.2698821451712
 20
79.36728570180843
  0
LWPOLYLINE
  5
C8
330
70
100
AcDbEntity
  8
0
 62
    18
420
        0
370
    25
100
AcDbPolyline
 90
        7
 70
     0
 43
0.0
 10
101.2698821451712
 20
79.36728570180843
 10
101.252292255671
 20
79.36766381870845
 10
101.208535927171
 20
79.36860072920854
 10
101.1435435812715
 20
79.36999398780826
 10
101.0646270315713
 20
79.37168526960838
 10
101.0278127815713
 20
79.3724750312085
 10
101.0201098124708
 20
79.37263894390873
  0
LWPOLYLINE
  5
C9
330
70
100
AcDbEntity
  8
0
 62
    18
420
        0
370
    25
100
AcDbPolyline
 90
        4
 70
     0
 43
0.0
 10
101.0201098124708
 20
79.37263894390873
 10
101.0213177378712
 20
83.34917958390823
 10
101.0213279824712
 20
87.32572022390836
 10
101.0201098124708
 20
91.37263904820834
  0
LWPOLYLINE
  5
CA
330
70
100
AcDbEntity
  8
0
 62
    18
420
        0
370
    25
100
AcDbPolyline
 90
        9
 70
     0
 43
0.0
 10
101.2698840077714
 20
91.37273404310841
 10
101.2633228402714
 20
91.37273218050827
 10
101.2479131768716
 20
91.37272566120827
 10
101.2242147426713
 20
91.37271727930848
 10
101.1930899422708
 20
91.37270517210831
 10
101.1556721951711
 20
91.37269120230836
 10
101.1133212323708
 20
91.37267443850843
 10
101.0675793241712
 20
91.37265767470848
 10
101.0201098124708
 20
91.37263904820834
  0
LWPOLYLINE
  5
CB
330
70
100
AcDbEntity
  8
0
 62
    18
420
        0
370
    25
100
AcDbPolyline
 90
        3
 70
     0
 43
0.0
 10
101.2703310425713
 20
79.37254022370798
 10
101.270330111271
 20
79.37252532260797
 10
101.2698840077714
 20
79.36201627860864
  0
LWPOLYLINE
  5
CC
330
70
100
AcDbEntity
  8
0
 62
    18
420
        0
370
    25
100
AcDbPolyline
 90
        9
 70
     0
 43
0.0
 10
101.0201098124708
 20
79.37263894390873
 10
101.0688263650712
 20
79.37056768250835
 10
101.1156718905712
 20
79.36857465220874
 10
101.1588470737711
 20
79.36673994670825
 10
101.196693229271
 20
79.36513062130862
 10
101.2277565624712
 20
79.36380814330845
 10
101.2508440490711
 20
79.36282652930808
 10
101.2650681387707
 20
79.36222116960824
 10
101.2698840077714
 20
79.36201627860864
  0
SPLINE
  5
CD
330
70
100
AcDbEntity
  8
0
 62
    18
420
        0
370
    25
100
AcDbSpline
210
0.0
220
0.0
230
1.0
 70
     8
 71
     3
 72
     8
 73
     4
 74
     0
 42
0.0000000001
 43
0.0000000001
 40
0.0
 40
0.0
 40
0.0
 40
0.0
 40
1.0
 40
1.0
 40
1.0
 40
1.0
 10
101.2698821451064
 20
79.36728570175837
 30
0.0
 10
101.2701862811492
 20
79.3690205646155
 30
0.0
 10
101.2703364980155
 20
79.37077891225086
 30
0.0
 10
101.2703310425874
 20
79.37254022372403
 30
0.0
  0
LINE
  5
CE
330
70
100
AcDbEntity
  8
0
 62
    18
420
        0
370
    25
100
AcDbLine
 10
99.89978184067084
 20
91.37263904820834
 30
0.0
 11
99.89978184067084
 21
91.6226395549085
 31
0.0
  0
LINE
  5
CF
330
70
100
AcDbEntity
  8
0
 62
    18
420
        0
370
    25
100
AcDbLine
 10
99.89978184067084
 20
91.6226395549085
 30
0.0
 11
101.0201098124708
 21
91.6226395549085
 31
0.0
  0
LINE
  5
D0
330
70
100
AcDbEntity
  8
0
 62
    18
420
        0
370
    25
100
AcDbLine
 10
101.0201098124708
 20
91.37263904820834
 30
0.0
 11
101.0201098124708
 21
91.6226395549085
 31
0.0
  0
LINE
  5
D1
330
70
100
AcDbEntity
  8
0
 62
    18
420
        0
370
    25
100
AcDbLine
 10
101.0201098124708
 20
91.37263904820834
 30
0.0
 11
99.89978184067084
 21
91.37263904820834
 31
0.0
  0
LINE
  5
D2
330
70
100
AcDbEntity
  8
0
 62
    18
420
        0
370
    25
100
AcDbLine
 10
99.89978184067084
 20
79.37263894390873
 30
0.0
 11
101.0201098124708
 21
79.37263894390873
 31
0.0
  0
LINE
  5
D3
330
70
100
AcDbEntity
  8
0
 62
    18
420
        0
370
    25
100
AcDbLine
 10
99.89978184067084
 20
91.37263904820834
 30
0.0
 11
99.89978184067084
 21
79.37263894390873
 31
0.0
  0
LINE
  5
D4
330
70
100
AcDbEntity
  8
0
 62
    18
420
        0
370
    25
100
AcDbLine
 10
101.0201098124708
 20
79.12263843730833
 30
0.0
 11
101.0201098124708
 21
79.37263894390873
 31
0.0
  0
LINE
  5
D5
330
70
100
AcDbEntity
  8
0
 62
    18
420
        0
370
    25
100
AcDbLine
 10
101.0201098124708
 20
79.12263843730833
 30
0.0
 11
99.89978184067084
 21
79.12263843730833
 31
0.0
  0
LINE
  5
D6
330
70
100
AcDbEntity
  8
0
 62
    18
420
        0
370
    25
100
AcDbLine
 10
99.89978184067084
 20
79.12263843730833
 30
0.0
 11
99.89978184067084
 21
79.37263894390873
 31
0.0
  0
SPLINE
  5
D7
330
70
100
AcDbEntity
  8
0
 62
    18
420
        0
370
    25
100
AcDbSpline
210
0.0
220
0.0
230
1.0
 70
     8
 71
     3
 72
     8
 73
     4
 74
     0
 42
0.0000000001
 43
0.0000000001
 40
0.0
 40
0.0
 40
0.0
 40
0.0
 40
1.0
 40
1.0
 40
1.0
 40
1.0
 10
101.2698840078015
 20
91.37273404317257
 30
0.0
 10
101.2698939740954
 20
91.51070589872885
 30
0.0
 10
101.1580816542848
 20
91.62257700283726
 30
0.0
 10
101.0201098125478
 20
91.62263955490947
 30
0.0
  0
SPLINE
  5
D8
330
70
100
AcDbEntity
  8
0
 62
    18
420
        0
370
    25
100
AcDbSpline
210
0.0
220
0.0
230
1.0
 70
     8
 71
     3
 72
     8
 73
     4
 74
     0
 42
0.0000000001
 43
0.0000000001
 40
0.0
 40
0.0
 40
0.0
 40
0.0
 40
1.0
 40
1.0
 40
1.0
 40
1.0
 10
101.0201098125209
 20
79.12263843728523
 30
0.0
 10
101.1540493049108
 20
79.12263907271745
 30
0.0
 10
101.2641924894093
 20
79.22819776631354
 30
0.0
 10
101.2698840077746
 20
79.36201627863815
 30
0.0
  0
SPLINE
  5
D9
330
70
100
AcDbEntity
  8
0
 62
    18
420
        0
370
    25
100
AcDbSpline
210
0.0
220
0.0
230
1.0
 70
     8
 71
     3
 72
     8
 73
     4
 74
     0
 42
0.0000000001
 43
0.0000000001
 40
0.0
 40
0.0
 40
0.0
 40
0.0
 40
1.0
 40
1.0
 40
1.0
 40
1.0
 10
101.2703310426259
 20
79.37254022369258
 30
0.0
 10
101.3407434562402
 20
80.90026950816968
 30
0.0
 10
101.3834019609702
 20
82.42915168383461
 30
0.0
 10
101.3982854511524
 20
83.95843032305064
 30
0.0
  0
LINE
  5
DA
330
70
100
AcDbEntity
  8
0
 62
    18
420
        0
370
    25
100
AcDbLine
 10
101.2703310425713
 20
91.37273869980829
 30
0.0
 11
101.2698840077714
 21
91.37273404310841
 31
0.0
  0
SPLINE
  5
DB
330
70
100
AcDbEntity
  8
0
 62
    18
420
        0
370
    25
100
AcDbSpline
210
0.0
220
0.0
230
1.0
 70
     8
 71
     3
 72
     8
 73
     4
 74
     0
 42
0.0000000001
 43
0.0000000001
 40
0.0
 40
0.0
 40
0.0
 40
0.0
 40
1.0
 40
1.0
 40
1.0
 40
1.0
 10
101.396676125722
 20
86.78682717997929
 30
0.0
 10
101.3787488785707
 20
88.31603501042454
 30
0.0
 10
101.3366285798316
 20
89.84486350486287
 30
0.0
 10
101.2703310426021
 20
91.3727386998455
 30
0.0
  0
SPLINE
  5
DC
330
70
100
AcDbEntity
  8
0
 62
    18
420
        0
370
    25
100
AcDbSpline
210
0.0
220
0.0
230
1.0
 70
     8
 71
     3
 72
     8
 73
     4
 74
     0
 42
0.0000000001
 43
0.0000000001
 40
0.0
 40
0.0
 40
0.0
 40
0.0
 40
1.0
 40
1.0
 40
1.0
 40
1.0
 10
101.4009983937735
 20
86.35452214192431
 30
0.0
 10
101.4010768755469
 20
86.4061602155213
 30
0.0
 10
101.4011144389024
 20
86.45779834321029
 30
0.0
 10
101.4011110838053
 20
86.50943647633834
 30
0.0
  0
SPLINE
  5
DD
330
70
100
AcDbEntity
  8
0
 62
    18
420
        0
370
    25
100
AcDbSpline
210
0.0
220
0.0
230
1.0
 70
     8
 71
     3
 72
     8
 73
     4
 74
     0
 42
0.0000000001
 43
0.0000000001
 40
0.0
 40
0.0
 40
0.0
 40
0.0
 40
1.0
 40
1.0
 40
1.0
 40
1.0
 10
101.2698821451475
 20
91.38325985087588
 30
0.0
 10
101.2641902869012
 20
91.51707777029882
 30
0.0
 10
101.1540487269723
 20
91.62263651548977
 30
0.0
 10
101.0201098125389
 20
91.6226395548745
 30
0.0
  0
LWPOLYLINE
  5
DE
330
70
100
AcDbEntity
  8
0
 62
    18
420
        0
370
    25
100
AcDbPolyline
 90
        4
 70
     0
 43
0.0
 10
101.2698821451712
 20
91.3832598509083
 10
101.2700460578715
 20
91.37941442000855
 10
101.2702351163712
 20
91.37497387390856
 10
101.2703310425713
 20
91.37273869980829
  0
LINE
  5
DF
330
70
100
AcDbEntity
  8
0
 62
    18
420
        0
370
    25
100
AcDbLine
 10
101.2698821451302
 20
91.38325985090189
 30
0.0
 11
101.2707853858703
 21
91.38425566492971
 31
0.0
  0
LINE
  5
E0
330
70
100
AcDbEntity
  8
0
 62
    18
420
        0
370
    25
100
AcDbLine
 10
101.0201098124708
 20
91.6226395549085
 30
0.0
 11
101.0215123842707
 21
91.6226395549085
 31
0.0
  0
LWPOLYLINE
  5
E1
330
70
100
AcDbEntity
  8
0
 62
    18
420
        0
370
    25
100
AcDbPolyline
 90
        3
 70
     0
 43
0.0
 10
101.2718016009714
 20
91.37273869980829
 10
101.2714747067713
 20
91.37947588730842
 10
101.2712176616707
 20
91.38477045610848
  0
LINE
  5
E2
330
70
100
AcDbEntity
  8
0
 62
    18
420
        0
370
    25
100
AcDbLine
 10
101.2718016009714
 20
91.37273869980829
 30
0.0
 11
101.2703310425713
 21
91.37273869980829
 31
0.0
  0
LINE
  5
E3
330
70
100
AcDbEntity
  8
0
 62
    18
420
        0
370
    25
100
AcDbLine
 10
104.5172819595711
 20
106.8351393534085
 30
0.0
 11
127.0672818373711
 21
106.8351393534085
 31
0.0
  0
LINE
  5
E4
330
70
100
AcDbEntity
  8
0
 62
    18
420
        0
370
    25
100
AcDbLine
 10
112.2922817904714
 20
107.7058663269085
 30
0.0
 11
119.2922820064714
 21
107.7058663269085
 31
0.0
  0
LINE
  5
E5
330
70
100
AcDbEntity
  8
0
 62
    18
420
        0
370
    25
100
AcDbLine
 10
127.0609199728714
 20
31.68513636600824
 30
0.0
 11
104.5236438240708
 21
31.68513636600824
 31
0.0
  0
LINE
  5
E6
330
70
100
AcDbEntity
  8
0
 62
    18
420
        0
370
    25
100
AcDbLine
 10
127.0958296682714
 20
29.68513976350812
 30
0.0
 11
104.4887341286715
 21
29.68513976350812
 31
0.0
  0
LINE
  5
E7
330
70
100
AcDbEntity
  8
0
 62
    18
420
        0
370
    25
100
AcDbLine
 10
116.5162273410712
 20
29.18513875020853
 30
0.0
 11
105.2922820399708
 21
29.18513875020853
 31
0.0
  0
LINE
  5
E8
330
70
100
AcDbEntity
  8
0
 62
    18
420
        0
370
    25
100
AcDbLine
 10
126.2922817568713
 20
29.18513875020853
 30
0.0
 11
116.5162273410712
 21
29.18513875020853
 31
0.0
  0
LINE
  5
E9
330
70
100
AcDbEntity
  8
0
 62
    18
420
        0
370
    25
100
AcDbLine
 10
118.5547818623714
 20
132.7058655353085
 30
0.0
 11
113.0297819345709
 21
132.7058655353085
 31
0.0
  0
LINE
  5
EA
330
70
100
AcDbEntity
  8
0
 62
    18
420
        0
370
    25
100
AcDbLine
 10
113.8362448855712
 20
132.9558660419082
 30
0.0
 11
118.4297818418712
 21
132.9558660419082
 31
0.0
  0
LINE
  5
EB
330
70
100
AcDbEntity
  8
0
 62
    18
420
        0
370
    25
100
AcDbLine
 10
113.154781955071
 20
132.9558660419082
 30
0.0
 11
113.8362448855712
 21
132.9558660419082
 31
0.0
  0
LINE
  5
EC
330
70
100
AcDbEntity
  8
0
 62
    18
420
        0
370
    25
100
AcDbLine
 10
104.5018713648716
 20
85.99763933140797
 30
0.0
 11
104.5018713648716
 21
84.74763866080854
 31
0.0
  0
SPLINE
  5
ED
330
70
100
AcDbEntity
  8
0
 62
    18
420
        0
370
    25
100
AcDbSpline
210
0.0
220
0.0
230
1.0
 70
     8
 71
     3
 72
     8
 73
     4
 74
     0
 42
0.0000000001
 43
0.0000000001
 40
0.0
 40
0.0
 40
0.0
 40
0.0
 40
1.0
 40
1.0
 40
1.0
 40
1.0
 10
104.2272094364472
 20
82.27777305559392
 30
0.0
 10
104.4070592492286
 20
83.08883157536907
 30
0.0
 10
104.4991429193016
 20
83.91688332185447
 30
0.0
 10
104.5018713648613
 20
84.74763866083357
 30
0.0
  0
LWPOLYLINE
  5
EE
330
70
100
AcDbEntity
  8
0
 62
    18
420
        0
370
    25
100
AcDbPolyline
 90
        7
 70
     0
 43
0.0
 10
104.2272094364716
 20
88.46750679920861
 10
104.223584729071
 20
88.48406943990843
 10
104.2697047542713
 20
88.26634484840848
 10
104.3543684955713
 20
87.80251826660828
 10
104.4438276167713
 20
87.12754595590809
 10
104.4971523534709
 20
86.31942618200794
 10
104.5018713648716
 20
85.99763933140797
  0
SPLINE
  5
EF
330
70
100
AcDbEntity
  8
0
 62
    18
420
        0
370
    25
100
AcDbSpline
210
0.0
220
0.0
230
1.0
 70
     8
 71
     3
 72
     8
 73
     4
 74
     0
 42
0.0000000001
 43
0.0000000001
 40
0.0
 40
0.0
 40
0.0
 40
0.0
 40
1.0
 40
1.0
 40
1.0
 40
1.0
 10
104.2249230395684
 20
83.39731964777255
 30
0.0
 10
104.3402148400962
 20
84.0494652152293
 30
0.0
 10
104.3987203266977
 20
84.71038248948747
 30
0.0
 10
104.3997816469199
 20
85.37263992736276
 30
0.0
  0
SPLINE
  5
F0
330
70
100
AcDbEntity
  8
0
 62
    18
420
        0
370
    25
100
AcDbSpline
210
0.0
220
0.0
230
1.0
 70
     8
 71
     3
 72
     8
 73
     4
 74
     0
 42
0.0000000001
 43
0.0000000001
 40
0.0
 40
0.0
 40
0.0
 40
0.0
 40
1.0
 40
1.0
 40
1.0
 40
1.0
 10
104.3997816468923
 20
85.37263992745389
 30
0.0
 10
104.3988788808355
 20
86.04174850424991
 30
0.0
 10
104.3391746358222
 20
86.70948330351398
 30
0.0
 10
104.2213579367239
 20
87.3681382419623
 30
0.0
  0
LINE
  5
F1
330
70
100
AcDbEntity
  8
0
 62
    18
420
        0
370
    25
100
AcDbLine
 10
101.3997820864708
 20
85.37263992740832
 30
0.0
 11
101.3997820864708
 21
87.37264025520815
 31
0.0
  0
LINE
  5
F2
330
70
100
AcDbEntity
  8
0
 62
    18
420
        0
370
    25
100
AcDbLine
 10
101.3997820864708
 20
84.24653309900827
 30
0.0
 11
101.3997820864708
 21
85.37263992740832
 31
0.0
  0
LINE
  5
F3
330
70
100
AcDbEntity
  8
0
 62
    18
420
        0
370
    25
100
AcDbLine
 10
115.7922818984711
 20
106.6851393463083
 30
0.0
 11
127.0422823454709
 21
106.6851393463083
 31
0.0
  0
LINE
  5
F4
330
70
100
AcDbEntity
  8
0
 62
    18
420
        0
370
    25
100
AcDbLine
 10
104.5422814514713
 20
106.6851393463083
 30
0.0
 11
115.7922818984711
 21
106.6851393463083
 31
0.0
  0
LINE
  5
F5
330
70
100
AcDbEntity
  8
0
 62
     8
420
  8421504
370
    25
100
AcDbLine
 10
101.2711450185314
 20
79.36059321773317
 30
0.0
 11
101.2703103034937
 21
79.36154723884232
 31
0.0
  0
LINE
  5
F6
330
70
100
AcDbEntity
  8
0
 62
     8
420
  8421504
370
    25
100
AcDbLine
 10
127.0628338407711
 20
107.3447912842085
 30
0.0
 11
104.5217299561711
 21
107.3447912842085
 31
0.0
  0
LINE
  5
F7
330
70
100
AcDbEntity
  8
0
 62
     8
420
  8421504
370
    25
100
AcDbLine
 10
126.8102228369712
 20
107.5924963135085
 30
0.0
 11
126.820371459071
 21
107.5924963135085
 31
0.0
  0
LINE
  5
F8
330
70
100
AcDbEntity
  8
0
 62
     8
420
  8421504
370
    25
100
AcDbLine
 10
104.7641923378712
 20
107.5924963135085
 30
0.0
 11
126.8102228369712
 21
107.5924963135085
 31
0.0
  0
LINE
  5
F9
330
70
100
AcDbEntity
  8
0
 62
     8
420
  8421504
370
    25
100
AcDbLine
 10
126.2672822650712
 20
106.7851393437084
 30
0.0
 11
105.317281531871
 21
106.7851393437084
 31
0.0
  0
LINE
  5
FA
330
70
100
AcDbEntity
  8
0
 62
     8
420
  8421504
370
    25
100
AcDbLine
 10
126.2576412137714
 20
106.7021266446085
 30
0.0
 11
126.2672822650712
 21
106.7021266446085
 31
0.0
  0
LINE
  5
FB
330
70
100
AcDbEntity
  8
0
 62
     8
420
  8421504
370
    25
100
AcDbLine
 10
105.317281531871
 20
106.7021266446085
 30
0.0
 11
126.2576412137714
 21
106.7021266446085
 31
0.0
  0
LINE
  5
FC
330
70
100
AcDbEntity
  8
0
 62
     8
420
  8421504
370
    25
100
AcDbLine
 10
113.743541734971
 20
132.8308657886084
 30
0.0
 11
113.0297819345709
 21
132.8308657886084
 31
0.0
  0
LINE
  5
FD
330
70
100
AcDbEntity
  8
0
 62
     8
420
  8421504
370
    25
100
AcDbLine
 10
118.5547818623714
 20
132.8308657886084
 30
0.0
 11
113.743541734971
 21
132.8308657886084
 31
0.0
  0
LINE
  5
FE
330
70
100
AcDbEntity
  8
0
 62
     8
420
  8421504
370
    25
100
AcDbLine
 10
104.5018713648716
 20
85.99763933140797
 30
0.0
 11
104.8235762591711
 21
85.99763933140797
 31
0.0
  0
LINE
  5
FF
330
70
100
AcDbEntity
  8
0
 62
     8
420
  8421504
370
    25
100
AcDbLine
 10
104.5018713648716
 20
84.74763866080854
 30
0.0
 11
104.8235762591711
 21
84.74763866080854
 31
0.0
  0
LWPOLYLINE
  5
100
330
70
100
AcDbEntity
  8
0
 62
    18
420
        0
370
    25
100
AcDbPolyline
 90
        3
 70
     0
 43
0.0
 10
43.95994216317128
 20
-15.31979507789174
 10
45.84206534197104
 20
-15.28939391509189
 10
48.40389090237111
 20
-15.19063553799184
  0
LWPOLYLINE
  5
101
330
70
100
AcDbEntity
  8
0
 62
    18
420
        0
370
    25
100
AcDbPolyline
 90
        3
 70
     0
 43
0.0
 10
36.37983846127109
 20
-15.19063553799184
 10
38.94164981897102
 20
-15.28939298379151
 10
40.8237618219711
 20
-15.31979507789174
  0
SPLINE
  5
102
330
70
100
AcDbEntity
  8
0
 62
    18
420
        0
370
    25
100
AcDbSpline
210
0.0
220
0.0
230
1.0
 70
     8
 71
     3
 72
     8
 73
     4
 74
     0
 42
0.0000000001
 43
0.0000000001
 40
0.0
 40
0.0
 40
0.0
 40
0.0
 40
1.0
 40
1.0
 40
1.0
 40
1.0
 10
48.40379494651005
 20
-15.19124176811277
 30
0.0
 10
48.53707891743162
 20
-15.18487406121159
 30
0.0
 10
48.64186872077517
 20
-15.07495501977613
 30
0.0
 10
48.64186468175683
 20
-14.94151902545852
 30
0.0
  0
SPLINE
  5
103
330
70
100
AcDbEntity
  8
0
 62
    18
420
        0
370
    25
100
AcDbSpline
210
0.0
220
0.0
230
1.0
 70
     8
 71
     3
 72
     8
 73
     4
 74
     0
 42
0.0000000001
 43
0.0000000001
 40
0.0
 40
0.0
 40
0.0
 40
0.0
 40
1.0
 40
1.0
 40
1.0
 40
1.0
 10
36.1418646819858
 20
-14.94151902545531
 30
0.0
 10
36.14186064396978
 20
-15.07492184279549
 30
0.0
 10
36.24660008905652
 20
-15.18482581137825
 30
0.0
 10
36.37984872842523
 20
-15.19123765955253
 30
0.0
  0
LINE
  5
104
330
70
100
AcDbEntity
  8
0
 62
    18
420
        0
370
    25
100
AcDbLine
 10
40.39186458687122
 20
-15.31979507789174
 30
0.0
 11
40.39186458687122
 21
-18.31979463829143
 31
0.0
  0
LINE
  5
105
330
70
100
AcDbEntity
  8
0
 62
    18
420
        0
370
    25
100
AcDbLine
 10
44.39186477687107
 20
-18.31519017949187
 30
0.0
 11
44.39186477687107
 21
-15.31979507789174
 31
0.0
  0
LWPOLYLINE
  5
106
330
70
100
AcDbEntity
  8
0
 62
    18
420
        0
370
    25
100
AcDbPolyline
 90
        3
 70
     0
 43
0.0
 10
36.39176544387122
 20
-15.19034403399165
 10
36.39175054267109
 20
-15.1903431026919
 10
36.38124243007129
 20
-15.18989699919167
  0
LWPOLYLINE
  5
107
330
70
100
AcDbEntity
  8
0
 62
    18
420
        0
370
    25
100
AcDbPolyline
 90
        9
 70
     0
 43
0.0
 10
36.38124243007129
 20
-15.18989699919167
 10
36.38144732107122
 20
-15.18508113009153
 10
36.38205221507112
 20
-15.17085704039132
 10
36.38303382907117
 20
-15.14776955379135
 10
36.38435491007105
 20
-15.11670622069134
 10
36.38596470117124
 20
-15.0788600651914
 10
36.38780080367108
 20
-15.03568488199147
 10
36.38979290257115
 20
-14.98883935649146
 10
36.39186462967113
 20
-14.94012280389178
  0
LWPOLYLINE
  5
108
330
70
100
AcDbEntity
  8
0
 62
    18
420
        0
370
    25
100
AcDbPolyline
 90
        7
 70
     0
 43
0.0
 10
36.38651138757115
 20
-15.18989513649145
 10
36.38688810747119
 20
-15.17230524699188
 10
36.38782548367121
 20
-15.1285489184918
 10
36.38921827657132
 20
-15.06355657269185
 10
36.39091002407104
 20
-14.98464002299157
 10
36.39169931997124
 20
-14.94782577289146
 10
36.39186462967113
 20
-14.94012280389178
  0
SPLINE
  5
109
330
70
100
AcDbEntity
  8
0
 62
    18
420
        0
370
    25
100
AcDbSpline
210
0.0
220
0.0
230
1.0
 70
     8
 71
     3
 72
     8
 73
     4
 74
     0
 42
0.0000000001
 43
0.0000000001
 40
0.0
 40
0.0
 40
0.0
 40
0.0
 40
1.0
 40
1.0
 40
1.0
 40
1.0
 10
36.38651138750635
 20
-15.18989513647091
 30
0.0
 10
36.38824607551555
 20
-15.1901994119427
 30
0.0
 10
36.39000428091768
 20
-15.19034962997047
 30
0.0
 10
36.3917654438109
 20
-15.19034403395186
 30
0.0
  0
LWPOLYLINE
  5
10A
330
70
100
AcDbEntity
  8
0
 62
    18
420
        0
370
    25
100
AcDbPolyline
 90
        6
 70
     0
 43
0.0
 10
42.3918646818713
 20
-15.19123065309163
 10
41.89186465807131
 20
-15.19121947719185
 10
39.89186473767113
 20
-15.19095311899182
 10
38.14181695337129
 20
-15.19049118299172
 10
36.39176963477107
 20
-15.18989699919167
 10
36.38651138757115
 20
-15.18989513649145
  0
LWPOLYLINE
  5
10B
330
70
100
AcDbEntity
  8
0
 62
    18
420
        0
370
    25
100
AcDbPolyline
 90
        4
 70
     0
 43
0.0
 10
36.39186462967113
 20
-14.94012280389178
 10
39.23914405167106
 20
-14.94107182159139
 10
40.81550436677102
 20
-14.9414043037915
 10
42.3918646818713
 20
-14.94152537569168
  0
LINE
  5
10C
330
70
100
AcDbEntity
  8
0
 62
    18
420
        0
370
    25
100
AcDbLine
 10
42.3918646818713
 20
-15.19123065309163
 30
0.0
 11
42.3918646818713
 21
-14.94152537569168
 31
0.0
  0
LINE
  5
10D
330
70
100
AcDbEntity
  8
0
 62
    18
420
        0
370
    25
100
AcDbLine
 10
48.39186473397107
 20
-13.81979483199166
 30
0.0
 11
48.64186477497131
 21
-13.81979483199166
 31
0.0
  0
LINE
  5
10E
330
70
100
AcDbEntity
  8
0
 62
    18
420
        0
370
    25
100
AcDbLine
 10
48.64186477497131
 20
-13.81979483199166
 30
0.0
 11
48.64186477497131
 21
-14.94012280389178
 31
0.0
  0
LINE
  5
10F
330
70
100
AcDbEntity
  8
0
 62
    18
420
        0
370
    25
100
AcDbLine
 10
48.39186473397107
 20
-14.94012280389178
 30
0.0
 11
48.64186477497131
 21
-14.94012280389178
 31
0.0
  0
LINE
  5
110
330
70
100
AcDbEntity
  8
0
 62
    18
420
        0
370
    25
100
AcDbLine
 10
48.39186473397107
 20
-14.94012280389178
 30
0.0
 11
48.39186473397107
 21
-13.81979483199166
 31
0.0
  0
LINE
  5
111
330
70
100
AcDbEntity
  8
0
 62
    18
420
        0
370
    25
100
AcDbLine
 10
48.39186473397107
 20
-13.81979483199166
 30
0.0
 11
36.39186462967113
 21
-13.81979483199166
 31
0.0
  0
LWPOLYLINE
  5
112
330
70
100
AcDbEntity
  8
0
 62
    18
420
        0
370
    25
100
AcDbPolyline
 90
        4
 70
     0
 43
0.0
 10
42.3918646818713
 20
-14.94152537569168
 10
45.23915364987117
 20
-14.94115098399191
 10
46.81550907547119
 20
-14.94068904799181
 10
48.39186473397107
 20
-14.94012280389178
  0
LINE
  5
113
330
70
100
AcDbEntity
  8
0
 62
    18
420
        0
370
    25
100
AcDbLine
 10
36.39186462967113
 20
-13.81979483199166
 30
0.0
 11
36.39186462967113
 21
-14.94012280389178
 31
0.0
  0
LWPOLYLINE
  5
114
330
70
100
AcDbEntity
  8
0
 62
    18
420
        0
370
    25
100
AcDbPolyline
 90
        5
 70
     0
 43
0.0
 10
48.39195972887113
 20
-15.18989699919167
 10
47.89195964697106
 20
-15.19007581309138
 10
45.89196001757112
 20
-15.19071004379162
 10
44.14191246617114
 20
-15.19109095469161
 10
42.3918646818713
 20
-15.19123065309163
  0
LWPOLYLINE
  5
115
330
70
100
AcDbEntity
  8
0
 62
    18
420
        0
370
    25
100
AcDbPolyline
 90
        9
 70
     0
 43
0.0
 10
48.39195972887113
 20
-15.18989699919167
 10
48.39195740057108
 20
-15.1833358315916
 10
48.39195134697132
 20
-15.16792616829189
 10
48.39194249947106
 20
-15.14422773409161
 10
48.39193039227122
 20
-15.11310293359162
 10
48.39191642237116
 20
-15.07568518649191
 10
48.39190012427115
 20
-15.03333422379171
 10
48.3918828947713
 20
-14.98759231549134
 10
48.39186473397107
 20
-14.94012280389178
  0
SPLINE
  5
116
330
70
100
AcDbEntity
  8
0
 62
    18
420
        0
370
    25
100
AcDbSpline
210
0.0
220
0.0
230
1.0
 70
     8
 71
     3
 72
     8
 73
     4
 74
     0
 42
0.0000000001
 43
0.0000000001
 40
0.0
 40
0.0
 40
0.0
 40
0.0
 40
1.0
 40
1.0
 40
1.0
 40
1.0
 10
48.39195972889648
 20
-15.1898969991551
 30
0.0
 10
48.52993140262058
 20
-15.18990670832787
 30
0.0
 10
48.64180222296423
 20
-15.07809446378727
 30
0.0
 10
48.64186477497195
 20
-14.94012280390077
 30
0.0
  0
LINE
  5
117
330
70
100
AcDbEntity
  8
0
 62
    18
420
        0
370
    25
100
AcDbLine
 10
36.1418645886712
 20
-14.94012280389178
 30
0.0
 11
36.39186462967113
 21
-14.94012280389178
 31
0.0
  0
LINE
  5
118
330
70
100
AcDbEntity
  8
0
 62
    18
420
        0
370
    25
100
AcDbLine
 10
36.1418645886712
 20
-14.94012280389178
 30
0.0
 11
36.1418645886712
 21
-13.81979483199166
 31
0.0
  0
LINE
  5
119
330
70
100
AcDbEntity
  8
0
 62
    18
420
        0
370
    25
100
AcDbLine
 10
36.1418645886712
 20
-13.81979483199166
 30
0.0
 11
36.39186462967113
 21
-13.81979483199166
 31
0.0
  0
SPLINE
  5
11A
330
70
100
AcDbEntity
  8
0
 62
    18
420
        0
370
    25
100
AcDbSpline
210
0.0
220
0.0
230
1.0
 70
     8
 71
     3
 72
     8
 73
     4
 74
     0
 42
0.0000000001
 43
0.0000000001
 40
0.0
 40
0.0
 40
0.0
 40
0.0
 40
1.0
 40
1.0
 40
1.0
 40
1.0
 10
36.14186458868179
 20
-14.94012280394568
 30
0.0
 10
36.14186477585096
 20
-15.07406247645671
 30
0.0
 10
36.24742371870544
 20
-15.18420592103961
 30
0.0
 10
36.38124243003503
 20
-15.18989699919937
 30
0.0
  0
SPLINE
  5
11B
330
70
100
AcDbEntity
  8
0
 62
    18
420
        0
370
    25
100
AcDbSpline
210
0.0
220
0.0
230
1.0
 70
     8
 71
     3
 72
     8
 73
     4
 74
     0
 42
0.0000000001
 43
0.0000000001
 40
0.0
 40
0.0
 40
0.0
 40
0.0
 40
1.0
 40
1.0
 40
1.0
 40
1.0
 10
43.80606334302823
 20
-15.31795850973787
 30
0.0
 10
45.33527884639466
 20
-15.29984085385586
 30
0.0
 10
46.86410739208998
 20
-15.25729726832447
 30
0.0
 10
48.39196391990863
 20
-15.19034403394865
 30
0.0
  0
LWPOLYLINE
  5
11C
330
70
100
AcDbEntity
  8
0
 62
    18
420
        0
370
    25
100
AcDbPolyline
 90
        4
 70
     0
 43
0.0
 10
48.40248460527117
 20
-15.18989513649145
 10
48.39864010577127
 20
-15.19005904929177
 10
48.39419955967128
 20
-15.19024810779152
 10
48.39196391987108
 20
-15.19034403399165
  0
SPLINE
  5
11D
330
70
100
AcDbEntity
  8
0
 62
    18
420
        0
370
    25
100
AcDbSpline
210
0.0
220
0.0
230
1.0
 70
     8
 71
     3
 72
     8
 73
     4
 74
     0
 42
0.0000000001
 43
0.0000000001
 40
0.0
 40
0.0
 40
0.0
 40
0.0
 40
1.0
 40
1.0
 40
1.0
 40
1.0
 10
36.39176544394405
 20
-15.19034403397175
 30
0.0
 10
37.91964052332203
 20
-15.25664154426143
 30
0.0
 10
39.44846890084632
 20
-15.29876184298641
 30
0.0
 10
40.97767661430372
 20
-15.31668911708322
 30
0.0
  0
LINE
  5
11E
330
70
100
AcDbEntity
  8
0
 62
    18
420
        0
370
    25
100
AcDbLine
 10
42.3918646818713
 20
-15.19181459229165
 30
0.0
 11
42.3918646818713
 21
-15.19123065309163
 31
0.0
  0
LWPOLYLINE
  5
11F
330
70
100
AcDbEntity
  8
0
 62
    18
420
        0
370
    25
100
AcDbPolyline
 90
        4
 70
     0
 43
0.0
 10
42.3918646818713
 20
-15.19181459229165
 10
40.82936465857128
 20
-15.19168979509175
 10
39.26686463527126
 20
-15.19134613709133
 10
36.39176544387122
 20
-15.19034403399165
  0
LINE
  5
120
330
70
100
AcDbEntity
  8
0
 62
    18
420
        0
370
    25
100
AcDbLine
 10
48.39196391987108
 20
-15.19034403399165
 30
0.0
 11
48.39195972887113
 21
-15.18989699919167
 31
0.0
  0
LWPOLYLINE
  5
121
330
70
100
AcDbEntity
  8
0
 62
    18
420
        0
370
    25
100
AcDbPolyline
 90
        4
 70
     0
 43
0.0
 10
48.39196391987108
 20
-15.19034403399165
 10
46.82946401297109
 20
-15.19093169849137
 10
45.2669641060711
 20
-15.19141319229169
 10
42.3918646818713
 20
-15.19181459229165
  0
SPLINE
  5
122
330
70
100
AcDbEntity
  8
0
 62
    18
420
        0
370
    25
100
AcDbSpline
210
0.0
220
0.0
230
1.0
 70
     8
 71
     3
 72
     8
 73
     4
 74
     0
 42
0.0000000001
 43
0.0000000001
 40
0.0
 40
0.0
 40
0.0
 40
0.0
 40
1.0
 40
1.0
 40
1.0
 40
1.0
 10
48.40248460532668
 20
-15.18989513648824
 30
0.0
 10
48.53630384458689
 20
-15.18420603463766
 30
0.0
 10
48.64186428525195
 20
-15.07406291988615
 30
0.0
 10
48.64186477498671
 20
-14.94012280387959
 30
0.0
  0
CIRCLE
  5
123
330
70
100
AcDbEntity
  8
0
 62
    18
420
        0
370
    25
100
AcDbCircle
 10
42.39186468187123
 20
-29.71229488979147
 30
0.0
 40
3.500000000000003
  0
CIRCLE
  5
124
330
70
100
AcDbEntity
  8
0
 62
    18
420
        0
370
    25
100
AcDbCircle
 10
42.39186468187123
 20
-29.71229488979147
 30
0.0
 40
11.02808994396138
  0
CIRCLE
  5
125
330
70
100
AcDbEntity
  8
0
 62
    18
420
        0
370
    25
100
AcDbCircle
 10
42.3918646818713
 20
-29.71229488979131
 30
0.0
 40
2.775000000000017
  0
CIRCLE
  5
126
330
70
100
AcDbEntity
  8
0
 62
    18
420
        0
370
    25
100
AcDbCircle
 10
42.39186468187123
 20
-29.71229488979147
 30
0.0
 40
2.77063656610457
  0
CIRCLE
  5
127
330
70
100
AcDbEntity
  8
0
 62
    18
420
        0
370
    25
100
AcDbCircle
 10
42.39186468187123
 20
-29.71229488979147
 30
0.0
 40
11.27055233478327
  0
CIRCLE
  5
128
330
70
100
AcDbEntity
  8
0
 62
    18
420
        0
370
    25
100
AcDbCircle
 10
42.39186468187123
 20
-29.71229488979131
 30
0.0
 40
11.27500000000011
  0
SPLINE
  5
129
330
70
100
AcDbEntity
  8
0
 62
    18
420
        0
370
    25
100
AcDbSpline
210
0.0
220
0.0
230
1.0
 70
     8
 71
     3
 72
    14
 73
    10
 74
     0
 42
0.0000000001
 43
0.0000000001
 40
0.0
 40
0.0
 40
0.0
 40
0.0
 40
1.0
 40
1.0
 40
1.0
 40
2.0
 40
2.0
 40
2.0
 40
3.0
 40
3.0
 40
3.0
 40
3.0
 10
39.89186468187219
 20
-18.68867512630018
 30
0.0
 10
33.80368759856287
 20
-20.06938700087661
 30
0.0
 10
29.98753304380344
 20
-26.1241178064808
 30
0.0
 10
31.36824491837986
 20
-32.21229488979044
 30
0.0
 10
32.74895679295629
 20
-38.30047197310007
 30
0.0
 10
38.80368759856047
 20
-42.1166265278595
 30
0.0
 10
44.89186468187011
 20
-40.73591465328307
 30
0.0
 10
50.32711376729794
 20
-39.50327755175968
 30
0.0
 10
54.05277476516732
 20
-34.49295337623599
 30
0.0
 10
53.66851354847506
 20
-28.93294706670316
 30
0.0
  0
SPLINE
  5
12A
330
70
100
AcDbEntity
  8
0
 62
    18
420
        0
370
    25
100
AcDbSpline
210
0.0
220
0.0
230
1.0
 70
     8
 71
     3
 72
     8
 73
     4
 74
     0
 42
0.0000000001
 43
0.0000000001
 40
0.0
 40
0.0
 40
0.0
 40
0.0
 40
1.0
 40
1.0
 40
1.0
 40
1.0
 10
53.66851354847506
 20
-28.93294706670316
 30
0.0
 10
53.32450818047224
 20
-23.95541633104492
 30
0.0
 10
49.7577079691866
 20
-19.79217910042812
 30
0.0
 10
44.89186468187011
 20
-18.68867512630018
 30
0.0
  0
CIRCLE
  5
12B
330
70
100
AcDbEntity
  8
0
 62
    18
420
        0
370
    25
100
AcDbCircle
 10
42.39186468187123
 20
-29.71229488979147
 30
0.0
 40
2.762500000000017
  0
CIRCLE
  5
12C
330
70
100
AcDbEntity
  8
0
 62
    18
420
        0
370
    25
100
AcDbCircle
 10
42.39186468187123
 20
-29.71229488979147
 30
0.0
 40
2.637500000000092
  0
LINE
  5
12D
330
70
100
AcDbEntity
  8
0
 62
    18
420
        0
370
    25
100
AcDbLine
 10
44.89186462597106
 20
-18.42188435629188
 30
0.0
 11
44.89186462597106
 21
-18.7179499400918
 31
0.0
  0
LINE
  5
12E
330
70
100
AcDbEntity
  8
0
 62
    18
420
        0
370
    25
100
AcDbLine
 10
39.89186473767113
 20
-18.42188435629188
 30
0.0
 11
39.89186473767113
 21
-18.7179499400918
 31
0.0
  0
SPLINE
  5
12F
330
70
100
AcDbEntity
  8
0
 62
    18
420
        0
370
    25
100
AcDbSpline
210
0.0
220
0.0
230
1.0
 70
     8
 71
     3
 72
     8
 73
     4
 74
     0
 42
0.0000000001
 43
0.0000000001
 40
0.0
 40
0.0
 40
0.0
 40
0.0
 40
1.0
 40
1.0
 40
1.0
 40
1.0
 10
44.89186462599417
 20
-18.42188435630792
 30
0.0
 10
43.24629860118496
 20
-18.04682343561569
 30
0.0
 10
41.53743076255733
 20
-18.04682343561569
 30
0.0
 10
39.89186473774813
 20
-18.42188435630792
 30
0.0
  0
LINE
  5
130
330
70
100
AcDbEntity
  8
0
 62
    18
420
        0
370
    25
100
AcDbLine
 10
40.39186458687122
 20
-15.31979507789174
 30
0.0
 11
43.80882669357108
 21
-15.31979507789174
 31
0.0
  0
LWPOLYLINE
  5
131
330
70
100
AcDbEntity
  8
0
 62
     8
420
  8421504
370
    25
100
AcDbPolyline
 90
        5
 70
     0
 43
0.0
 10
48.40391092587125
 20
-15.19115800989133
 10
48.40398310337131
 20
-15.19122040849159
 10
48.40378240327122
 20
-15.19104718249172
 10
48.40248693357122
 20
-15.18989699919167
 10
48.40248460527117
 20
-15.18989513649145
  0
LINE
  5
132
330
70
100
AcDbEntity
  8
0
 62
     8
420
  8421504
370
    25
100
AcDbLine
 10
36.3798184378072
 20
-15.19115800991443
 30
0.0
 11
36.38077231596185
 21
-15.19032244630999
 31
0.0
  0
SPLINE
  5
133
330
70
100
AcDbEntity
  8
0
 62
    18
420
        0
370
    25
100
AcDbSpline
210
0.0
220
0.0
230
1.0
 70
     8
 71
     3
 72
     8
 73
     4
 74
     0
 42
0.0000000001
 43
0.0000000001
 40
0.0
 40
0.0
 40
0.0
 40
0.0
 40
1.0
 40
1.0
 40
1.0
 40
1.0
 10
179.3660971560133
 20
5.055864713445255
 30
0.0
 10
179.4421635338535
 20
5.015535118531338
 30
0.0
 10
179.5336294942133
 20
5.01718375808208
 30
0.0
 10
179.6081930827502
 20
5.060228401512919
 30
0.0
  0
LINE
  5
134
330
70
100
AcDbEntity
  8
0
 62
    18
420
        0
370
    25
100
AcDbLine
 10
179.3642941275713
 20
5.057848652208691
 30
0.0
 11
179.3669329154713
 21
5.056433280308428
 31
0.0
  0
LINE
  5
135
330
70
100
AcDbEntity
  8
0
 62
    18
420
        0
370
    25
100
AcDbLine
 10
176.0450591620711
 20
6.972739754608364
 30
0.0
 11
179.3613296894709
 21
5.058958261808295
 31
0.0
  0
LINE
  5
136
330
70
100
AcDbEntity
  8
0
 62
    18
420
        0
370
    25
100
AcDbLine
 10
179.6081930008713
 20
5.060228029708645
 30
0.0
 11
180.4003845069711
 21
5.517550451808435
 31
0.0
  0
LINE
  5
137
330
70
100
AcDbEntity
  8
0
 62
    18
420
        0
370
    25
100
AcDbLine
 10
162.0450594088713
 20
45.09312273660849
 30
0.0
 11
162.0450594088713
 21
24.61659051280864
 31
0.0
  0
LINE
  5
138
330
70
100
AcDbEntity
  8
0
 62
    18
420
        0
370
    25
100
AcDbLine
 10
167.545059491271
 20
24.61659051280864
 30
0.0
 11
167.545059491271
 21
45.09312273660849
 31
0.0
  0
LWPOLYLINE
  5
139
330
70
100
AcDbEntity
  8
0
 62
    18
420
        0
370
    25
100
AcDbPolyline
 90
       14
 70
     0
 43
0.0
 10
175.6288663592711
 20
26.34956808370846
 10
175.428405081771
 20
26.73639447470868
 10
175.0786626302712
 20
27.25160497720828
 10
174.6561016198709
 20
27.74800927790871
 10
174.1635821092715
 20
28.22186701650869
 10
173.6046945654712
 20
28.66957636860822
 10
172.9836233390713
 20
29.08781833490815
 10
172.305003760271
 20
29.47360839050842
 10
171.5738861246709
 20
29.82426941930862
 10
170.7955502303711
 20
30.13747315200833
 10
169.9755143100711
 20
30.41118606310852
 10
169.1195351951713
 20
30.64364290240846
 10
168.2335857196711
 20
30.83334900080823
 10
167.5450596558713
 20
30.94364522230867
  0
LWPOLYLINE
  5
13A
330
70
100
AcDbEntity
  8
0
 62
    18
420
        0
370
    25
100
AcDbPolyline
 90
       15
 70
     0
 43
0.0
 10
162.045059902771
 20
30.94261847760845
 10
161.724342471271
 20
30.89803853010846
 10
160.8280867741708
 20
30.72612963310862
 10
159.9593141150712
 20
30.51095624880859
 10
159.1240376638711
 20
30.25389068060811
 10
158.3280517889711
 20
29.95655946630859
 10
157.576897525071
 20
29.62083213800817
 10
156.8758468835714
 20
29.24880574830838
 10
156.229882353371
 20
28.84280268310865
 10
155.6436923362714
 20
28.40537553400851
 10
155.1217376971712
 20
27.93940748640859
 10
154.6681001359715
 20
27.44808813670824
 10
154.2864467579713
 20
26.93499949500863
 10
153.9799091067714
 20
26.40416905660841
 10
153.9406032192711
 20
26.31077925600825
  0
LINE
  5
13B
330
70
100
AcDbEntity
  8
0
 62
    18
420
        0
370
    25
100
AcDbLine
 10
176.0698445547714
 20
24.16031525740849
 30
0.0
 11
176.0653974036709
 21
24.57645127170825
 31
0.0
  0
LINE
  5
13C
330
70
100
AcDbEntity
  8
0
 62
    18
420
        0
370
    25
100
AcDbLine
 10
153.5247214964714
 20
24.57645127170825
 30
0.0
 11
153.5202743453709
 21
24.16031525740849
 31
0.0
  0
LINE
  5
13D
330
70
100
AcDbEntity
  8
0
 62
    18
420
        0
370
    25
100
AcDbLine
 10
176.0977464269712
 20
-38.79543973019165
 30
0.0
 11
176.0628389582714
 21
-37.16260913139185
 31
0.0
  0
LINE
  5
13E
330
70
100
AcDbEntity
  8
0
 62
    18
420
        0
370
    25
100
AcDbLine
 10
153.5272799418709
 20
-37.16260913139185
 30
0.0
 11
153.4923724731711
 21
-38.79543973019165
 31
0.0
  0
SPLINE
  5
13F
330
70
100
AcDbEntity
  8
0
 62
    18
420
        0
370
    25
100
AcDbSpline
210
0.0
220
0.0
230
1.0
 70
     8
 71
     3
 72
     8
 73
     4
 74
     0
 42
0.0000000001
 43
0.0000000001
 40
0.0
 40
0.0
 40
0.0
 40
0.0
 40
1.0
 40
1.0
 40
1.0
 40
1.0
 10
166.79130500039
 20
46.48890298589374
 30
0.0
 10
166.2304123456692
 20
46.82744017625833
 30
0.0
 10
165.5858088744039
 20
47.00186624241554
 30
0.0
 10
164.9307381402888
 20
46.9923618915589
 30
0.0
  0
SPLINE
  5
140
330
70
100
AcDbEntity
  8
0
 62
    18
420
        0
370
    25
100
AcDbSpline
210
0.0
220
0.0
230
1.0
 70
     8
 71
     3
 72
     8
 73
     4
 74
     0
 42
0.0000000001
 43
0.0000000001
 40
0.0
 40
0.0
 40
0.0
 40
0.0
 40
1.0
 40
1.0
 40
1.0
 40
1.0
 10
164.9307381402163
 20
46.99236189147291
 30
0.0
 10
164.1318175999953
 20
47.03891231876122
 30
0.0
 10
163.3386644817414
 20
46.83137951663449
 30
0.0
 10
162.6649276390204
 20
46.39950032215168
 30
0.0
  0
LINE
  5
141
330
70
100
AcDbEntity
  8
0
 62
    18
420
        0
370
    25
100
AcDbLine
 10
167.5575594891711
 20
45.24466017690835
 30
0.0
 11
167.5575594891711
 21
45.34672798530855
 31
0.0
  0
LINE
  5
142
330
70
100
AcDbEntity
  8
0
 62
    18
420
        0
370
    25
100
AcDbLine
 10
162.0325594109712
 20
45.34672798530855
 30
0.0
 11
162.0325594109712
 21
45.24466017690835
 31
0.0
  0
LINE
  5
143
330
70
100
AcDbEntity
  8
0
 62
    18
420
        0
370
    25
100
AcDbLine
 10
153.5450593264713
 20
23.68695015140812
 30
0.0
 11
153.5450593264713
 21
-37.24288803619186
 31
0.0
  0
LINE
  5
144
330
70
100
AcDbEntity
  8
0
 62
    18
420
        0
370
    25
100
AcDbLine
 10
176.0450595735709
 20
-37.24288803619186
 30
0.0
 11
176.0450595735709
 21
23.68695015140812
 31
0.0
  0
SPLINE
  5
145
330
70
100
AcDbEntity
  8
0
 62
    18
420
        0
370
    25
100
AcDbSpline
210
0.0
220
0.0
230
1.0
 70
     8
 71
     3
 72
     8
 73
     4
 74
     0
 42
0.0000000001
 43
0.0000000001
 40
0.0
 40
0.0
 40
0.0
 40
0.0
 40
1.0
 40
1.0
 40
1.0
 40
1.0
 10
179.6599799531071
 20
14.97317903604532
 30
0.0
 10
179.6543042217876
 20
15.09790163927786
 30
0.0
 10
179.588378233818
 20
15.21208894144603
 30
0.0
 10
179.4832032288342
 20
15.27936568341364
 30
0.0
  0
SPLINE
  5
146
330
70
100
AcDbEntity
  8
0
 62
    18
420
        0
370
    25
100
AcDbSpline
210
0.0
220
0.0
230
1.0
 70
     8
 71
     3
 72
     8
 73
     4
 74
     0
 42
0.0000000001
 43
0.0000000001
 40
0.0
 40
0.0
 40
0.0
 40
0.0
 40
1.0
 40
1.0
 40
1.0
 40
1.0
 10
179.3066533731787
 20
14.98190628957186
 30
0.0
 10
179.4166594754206
 20
14.92419510749168
 30
0.0
 10
179.5472587764641
 20
14.92096927258097
 30
0.0
 10
179.6599799531405
 20
14.97317903599912
 30
0.0
  0
SPLINE
  5
147
330
70
100
AcDbEntity
  8
0
 62
    18
420
        0
370
    25
100
AcDbSpline
210
0.0
220
0.0
230
1.0
 70
     8
 71
     3
 72
     8
 73
     4
 74
     0
 42
0.0000000001
 43
0.0000000001
 40
0.0
 40
0.0
 40
0.0
 40
0.0
 40
1.0
 40
1.0
 40
1.0
 40
1.0
 10
179.4832032289228
 20
15.2793656833392
 30
0.0
 10
179.3808035865193
 20
15.21353832679767
 30
0.0
 10
179.3153893824351
 20
15.10332543867861
 30
0.0
 10
179.3066533732332
 20
14.98190628954362
 30
0.0
  0
LWPOLYLINE
  5
148
330
70
100
AcDbEntity
  8
0
 62
    18
420
        0
370
    25
100
AcDbPolyline
 90
        4
 70
     0
 43
0.0
 10
179.6599799531713
 20
14.9731790360081
 10
179.6591258209714
 20
11.72567823330811
 10
179.6591185769714
 20
8.478666328708634
 10
179.6599799531713
 20
5.174689208208679
  0
SPLINE
  5
149
330
70
100
AcDbEntity
  8
0
 62
    18
420
        0
370
    25
100
AcDbSpline
210
0.0
220
0.0
230
1.0
 70
     8
 71
     3
 72
     8
 73
     4
 74
     0
 42
0.0000000001
 43
0.0000000001
 40
0.0
 40
0.0
 40
0.0
 40
0.0
 40
1.0
 40
1.0
 40
1.0
 40
1.0
 10
179.314097231009
 20
5.17036780711693
 30
0.0
 10
179.4236349321375
 20
5.117241844108982
 30
0.0
 10
179.5518037300844
 20
5.118843163694503
 30
0.0
 10
179.6599799531251
 20
5.174689208160551
 30
0.0
  0
LWPOLYLINE
  5
14A
330
70
100
AcDbEntity
  8
0
 62
    18
420
        0
370
    25
100
AcDbPolyline
 90
        7
 70
     0
 43
0.0
 10
179.3140972310712
 20
5.170367807108588
 10
179.314111060471
 20
5.578485071808279
 10
179.3141660489714
 20
7.211017427708526
 10
179.314219391071
 20
10.4767322303086
 10
179.3141999639714
 20
11.72096717710815
 10
179.3140972310712
 20
14.96901276940858
 10
179.3140969017712
 20
14.97330805360867
  0
SPLINE
  5
14B
330
70
100
AcDbEntity
  8
0
 62
    18
420
        0
370
    25
100
AcDbSpline
210
0.0
220
0.0
230
1.0
 70
     8
 71
     3
 72
     8
 73
     4
 74
     0
 42
0.0000000001
 43
0.0000000001
 40
0.0
 40
0.0
 40
0.0
 40
0.0
 40
1.0
 40
1.0
 40
1.0
 40
1.0
 10
179.3140969017532
 20
14.97330805365808
 30
0.0
 10
179.422767451495
 20
14.91808368810441
 30
0.0
 10
179.5512682352295
 20
14.91803575610332
 30
0.0
 10
179.6599799531418
 20
14.97317903602479
 30
0.0
  0
SPLINE
  5
14C
330
70
100
AcDbEntity
  8
0
 62
    18
420
        0
370
    25
100
AcDbSpline
210
0.0
220
0.0
230
1.0
 70
     8
 71
     3
 72
     8
 73
     4
 74
     0
 42
0.0000000001
 43
0.0000000001
 40
0.0
 40
0.0
 40
0.0
 40
0.0
 40
1.0
 40
1.0
 40
1.0
 40
1.0
 10
179.3140969017725
 20
14.97330805362728
 30
0.0
 10
179.3116710213127
 20
14.97466250751049
 30
0.0
 10
179.3087012698518
 20
14.97459419436953
 30
0.0
 10
179.3063402352849
 20
14.97312962716299
 30
0.0
  0
LWPOLYLINE
  5
14D
330
70
100
AcDbEntity
  8
0
 62
    18
420
        0
370
    25
100
AcDbPolyline
 90
        3
 70
     0
 43
0.0
 10
179.3063402352714
 20
14.97312962720855
 10
179.3063408937714
 20
14.97314217470858
 10
179.306653373171
 20
14.98190628960843
  0
LWPOLYLINE
  5
14E
330
70
100
AcDbEntity
  8
0
 62
    18
420
        0
370
    25
100
AcDbPolyline
 90
        4
 70
     0
 43
0.0
 10
176.0450592443709
 20
13.08983610970865
 10
177.0095238534712
 20
13.64678793960836
 10
178.1915432505708
 20
14.32936911920839
 10
179.3063402352714
 20
14.97312962720855
  0
LWPOLYLINE
  5
14F
330
70
100
AcDbEntity
  8
0
 62
    18
420
        0
370
    25
100
AcDbPolyline
 90
        3
 70
     0
 43
0.0
 10
179.3063402352714
 20
5.174477820808418
 10
179.306351430571
 20
5.174472118208088
 10
179.3140972310712
 20
5.170367807108588
  0
SPLINE
  5
150
330
70
100
AcDbEntity
  8
0
 62
    18
420
        0
370
    25
100
AcDbSpline
210
0.0
220
0.0
230
1.0
 70
     8
 71
     3
 72
     8
 73
     4
 74
     0
 42
0.0000000001
 43
0.0000000001
 40
0.0
 40
0.0
 40
0.0
 40
0.0
 40
1.0
 40
1.0
 40
1.0
 40
1.0
 10
176.0450593266438
 20
10.61506111064975
 30
0.0
 10
177.1138483735466
 20
8.790623515621501
 30
0.0
 10
178.2009972172332
 20
6.97700365329817
 30
0.0
 10
179.306340235358
 20
5.174477820691628
 30
0.0
  0
SPLINE
  5
151
330
70
100
AcDbEntity
  8
0
 62
    18
420
        0
370
    25
100
AcDbSpline
210
0.0
220
0.0
230
1.0
 70
     8
 71
     3
 72
     8
 73
     4
 74
     0
 42
0.0000000001
 43
0.0000000001
 40
0.0
 40
0.0
 40
0.0
 40
0.0
 40
1.0
 40
1.0
 40
1.0
 40
1.0
 10
180.4521714592069
 20
15.43050145804501
 30
0.0
 10
180.4464957278874
 20
15.55522406127754
 30
0.0
 10
180.3805697399178
 20
15.66941136344572
 30
0.0
 10
180.275394734934
 20
15.73668810541332
 30
0.0
  0
LINE
  5
152
330
70
100
AcDbEntity
  8
0
 62
    18
420
        0
370
    25
100
AcDbLine
 10
180.452171459171
 20
15.43050145810853
 30
0.0
 11
179.6599799531713
 21
14.9731790360081
 31
0.0
  0
LINE
  5
153
330
70
100
AcDbEntity
  8
0
 62
    18
420
        0
370
    25
100
AcDbLine
 10
179.4832032288714
 20
15.2793656834085
 30
0.0
 11
180.2753947349712
 21
15.73668810540819
 31
0.0
  0
LWPOLYLINE
  5
154
330
70
100
AcDbEntity
  8
0
 62
    18
420
        0
370
    25
100
AcDbPolyline
 90
        4
 70
     0
 43
0.0
 10
179.3063402352714
 20
14.97312962720855
 10
178.2010704139715
 20
15.61070853950861
 10
177.0958756666714
 20
16.24833079110813
 10
176.0450594089712
 20
16.8547845487083
  0
LINE
  5
155
330
70
100
AcDbEntity
  8
0
 62
    18
420
        0
370
    25
100
AcDbLine
 10
180.452171459171
 20
5.632011630308469
 30
0.0
 11
180.452171459171
 21
15.43050145810853
 31
0.0
  0
LINE
  5
156
330
70
100
AcDbEntity
  8
0
 62
    18
420
        0
370
    25
100
AcDbLine
 10
179.6599799531713
 20
5.174689208208679
 30
0.0
 11
180.452171459171
 21
5.632011630308469
 31
0.0
  0
LINE
  5
157
330
70
100
AcDbEntity
  8
0
 62
    18
420
        0
370
    25
100
AcDbLine
 10
180.2753947349712
 20
15.73668810540819
 30
0.0
 11
176.045059491271
 21
18.17880865960839
 31
0.0
  0
SPLINE
  5
158
330
70
100
AcDbEntity
  8
0
 62
    18
420
        0
370
    25
100
AcDbSpline
210
0.0
220
0.0
230
1.0
 70
     8
 71
     3
 72
     8
 73
     4
 74
     0
 42
0.0000000001
 43
0.0000000001
 40
0.0
 40
0.0
 40
0.0
 40
0.0
 40
1.0
 40
1.0
 40
1.0
 40
1.0
 10
179.3103728325985
 20
5.163926146668575
 30
0.0
 10
179.309866417302
 20
5.167708839893975
 30
0.0
 10
179.308485728321
 20
5.171321543855873
 30
0.0
 10
179.3063402353035
 20
5.174477820809059
 30
0.0
  0
SPLINE
  5
159
330
70
100
AcDbEntity
  8
0
 62
    18
420
        0
370
    25
100
AcDbSpline
210
0.0
220
0.0
230
1.0
 70
     8
 71
     3
 72
     8
 73
     4
 74
     0
 42
0.0000000001
 43
0.0000000001
 40
0.0
 40
0.0
 40
0.0
 40
0.0
 40
1.0
 40
1.0
 40
1.0
 40
1.0
 10
179.3140972310379
 20
5.170367807188158
 30
0.0
 10
179.3085635983134
 20
5.12546501659884
 30
0.0
 10
179.3286451069261
 20
5.081245663487046
 30
0.0
 10
179.3660972224766
 20
5.055864159697486
 30
0.0
  0
LWPOLYLINE
  5
15A
330
70
100
AcDbEntity
  8
0
 62
    18
420
        0
370
    25
100
AcDbPolyline
 90
        4
 70
     0
 43
0.0
 10
179.365118296071
 20
5.059571207508605
 10
179.3528219529713
 20
5.064017317508232
 10
179.3225443814713
 20
5.104249720408424
 10
179.3103728325709
 20
5.163926146608255
  0
SPLINE
  5
15B
330
70
100
AcDbEntity
  8
0
 62
    18
420
        0
370
    25
100
AcDbSpline
210
0.0
220
0.0
230
1.0
 70
     8
 71
     3
 72
     8
 73
     4
 74
     0
 42
0.0000000001
 43
0.0000000001
 40
0.0
 40
0.0
 40
0.0
 40
0.0
 40
1.0
 40
1.0
 40
1.0
 40
1.0
 10
180.4003845068819
 20
5.517550451728864
 30
0.0
 10
180.4375830268402
 20
5.543110133855022
 30
0.0
 10
180.4575299281602
 20
5.587197413211043
 30
0.0
 10
180.4521714591729
 20
5.632011630235957
 30
0.0
  0
LWPOLYLINE
  5
15C
330
70
100
AcDbEntity
  8
0
 62
    18
420
        0
370
    25
100
AcDbPolyline
 90
       11
 70
     0
 43
0.0
 10
165.0066825630713
 20
43.66182658570823
 10
164.5137061871712
 20
43.66544950750811
 10
164.0297729444712
 20
43.71982963980815
 10
163.570436586171
 20
43.82321901030827
 10
163.1504605069714
 20
43.97229466280829
 10
162.7833433361715
 20
44.16226525390878
 10
162.4808842465714
 20
44.38702486100871
 10
162.252804764871
 20
44.63934963700815
 10
162.106435345471
 20
44.91112950000849
 10
162.0464805479711
 20
45.19362933920829
 10
162.0450594088713
 20
45.24466017690835
  0
LWPOLYLINE
  5
15D
330
70
100
AcDbEntity
  8
0
 62
    18
420
        0
370
    25
100
AcDbPolyline
 90
       10
 70
     0
 43
0.0
 10
167.545059491271
 20
45.24466017690835
 10
167.5404973418709
 20
45.15325299360796
 10
167.4681043672712
 20
44.87172586590856
 10
167.309797758471
 20
44.60218496470863
 10
167.0706652657713
 20
44.35329388090862
 10
166.7583929253713
 20
44.13305204890846
 10
166.3830174945708
 20
43.94853815820874
 10
165.9566038340709
 20
43.80568266340844
 10
165.492857079671
 20
43.70907715900863
 10
165.0066825630713
 20
43.66182658570823
  0
SPLINE
  5
15E
330
70
100
AcDbEntity
  8
0
 62
    18
420
        0
370
    25
100
AcDbSpline
210
0.0
220
0.0
230
1.0
 70
     8
 71
     3
 72
     8
 73
     4
 74
     0
 42
0.0000000001
 43
0.0000000001
 40
0.0
 40
0.0
 40
0.0
 40
0.0
 40
1.0
 40
1.0
 40
1.0
 40
1.0
 10
175.7339690749586
 20
22.96956919380667
 30
0.0
 10
176.1980249297615
 20
24.03183819037192
 30
0.0
 10
176.1679622983457
 20
25.24505403981614
 30
0.0
 10
175.6518637213361
 20
26.28303550219871
 30
0.0
  0
SPLINE
  5
15F
330
70
100
AcDbEntity
  8
0
 62
    18
420
        0
370
    25
100
AcDbSpline
210
0.0
220
0.0
230
1.0
 70
     8
 71
     3
 72
     8
 73
     4
 74
     0
 42
0.0000000001
 43
0.0000000001
 40
0.0
 40
0.0
 40
0.0
 40
0.0
 40
1.0
 40
1.0
 40
1.0
 40
1.0
 10
153.9200418133584
 20
26.2448600061917
 30
0.0
 10
153.4096015393599
 20
25.19077376614741
 30
0.0
 10
153.3974515678554
 20
23.9636179294565
 30
0.0
 10
153.8869209758735
 20
22.89963166385669
 30
0.0
  0
LWPOLYLINE
  5
160
330
70
100
AcDbEntity
  8
0
 62
    18
420
        0
370
    25
100
AcDbPolyline
 90
       37
 70
     0
 43
0.0
 10
153.5202743453709
 20
24.16031525740849
 10
153.5550254097709
 20
23.60794186840839
 10
153.6774271018715
 20
23.03647122720865
 10
153.8868399748711
 20
22.47348198090854
 10
154.1816242529712
 20
21.92338029560855
 10
154.5594723962711
 20
21.39047121270822
 10
155.0174288568714
 20
20.87892595350846
 10
155.5519078600709
 20
20.3927473242082
 10
156.1587268250713
 20
19.93574053800824
 10
156.8331376394711
 20
19.51148299500852
 10
157.5698604419713
 20
19.12329413530857
 10
158.3631308085712
 20
18.77421276130826
 10
159.2067399880712
 20
18.46697076820851
 10
160.0940842608711
 20
18.20397225400865
 10
161.0182210859713
 20
17.98727631250833
 10
161.9719163520712
 20
17.81857812030834
 10
162.9477064449715
 20
17.69919819650831
 10
163.9379552118708
 20
17.63007156840838
 10
164.934911254471
 20
17.61173826710839
 10
165.9307727961714
 20
17.64434237680824
 10
166.9177462918714
 20
17.72762823350858
 10
167.8881066853712
 20
17.86094403620811
 10
168.8342596411709
 20
18.04324735990812
 10
169.7488004850712
 20
18.27311028720848
 10
170.6245716612713
 20
18.54873433060816
 10
171.4547189562715
 20
18.86796235990833
 10
172.2327453345712
 20
19.22829599530824
 10
172.9525617084714
 20
19.62691503140866
 10
173.608534703071
 20
20.0606996890084
 10
174.1955304082712
 20
20.52625511260812
 10
174.7089539325713
 20
21.01993800570815
 10
175.1447887306713
 20
21.53788389620865
 10
175.4996227190709
 20
22.0760397005086
 10
175.7706786507713
 20
22.63019342400872
 10
175.9558353538712
 20
23.19600847140839
 10
176.0536440305712
 20
23.76905586620836
 10
176.0698445547714
 20
24.16031525740849
  0
SPLINE
  5
161
330
70
100
AcDbEntity
  8
0
 62
    18
420
        0
370
    25
100
AcDbSpline
210
0.0
220
0.0
230
1.0
 70
     8
 71
     3
 72
     8
 73
     4
 74
     0
 42
0.0000000001
 43
0.0000000001
 40
0.0
 40
0.0
 40
0.0
 40
0.0
 40
1.0
 40
1.0
 40
1.0
 40
1.0
 10
161.8566819292151
 20
17.83615864366369
 30
0.0
 10
163.8010085461007
 20
17.4980225272614
 30
0.0
 10
165.7891103540416
 20
17.4980225272614
 30
0.0
 10
167.7334369709272
 20
17.83615864366369
 30
0.0
  0
LWPOLYLINE
  5
162
330
70
100
AcDbEntity
  8
0
 62
    18
420
        0
370
    25
100
AcDbPolyline
 90
       21
 70
     0
 43
0.0
 10
162.0450594088713
 20
25.04569050500867
 10
162.025981950671
 20
24.9357480552085
 10
162.0381269108711
 20
24.64863409690816
 10
162.1388817509711
 20
24.36738601380843
 10
162.325008202071
 20
24.10104331350856
 10
162.5905243750709
 20
23.85816665620836
 10
162.9268960578712
 20
23.6465621427083
 10
163.323312038371
 20
23.47303094280819
 10
163.7670311372709
 20
23.34315051930854
 10
164.2437919247714
 20
23.26109531940835
 10
164.7382709345714
 20
23.22950265100833
 10
165.2345751004712
 20
23.24938789990856
 10
165.716752910471
 20
23.32011204830832
 10
166.169306918871
 20
23.43940182440872
 10
166.5776912873711
 20
23.60342327060872
 10
166.9287803285714
 20
23.80690462780853
 10
167.2112899544714
 20
24.04330568910868
 10
167.416139937171
 20
24.30502844890866
 10
167.5367462722711
 20
24.5836607748082
 10
167.5692325198712
 20
24.87024743780827
 10
167.545059491271
 20
25.04569050500867
  0
LWPOLYLINE
  5
163
330
70
100
AcDbEntity
  8
0
 62
    18
420
        0
370
    25
100
AcDbPolyline
 90
       30
 70
     0
 43
0.0
 10
173.293607853371
 20
-41.51469479559175
 10
172.6063578533714
 20
-41.93158096559141
 10
171.8579730880711
 20
-42.31177131939142
 10
171.0543121238714
 20
-42.65229132039136
 10
170.2016634331709
 20
-42.95047482099153
 10
169.3067007882709
 20
-43.20398905279136
 10
168.3764292917713
 20
-43.41084981529184
 10
167.418127506871
 20
-43.56943739569152
 10
166.4392979017709
 20
-43.67851149049137
 10
165.4475986906709
 20
-43.73721785839174
 10
164.4507931254713
 20
-43.74509744469178
 10
163.4566816657714
 20
-43.70208866189178
 10
162.4730453443709
 20
-43.60852738979189
 10
161.5075815585714
 20
-43.46514678559161
 10
160.5678464482709
 20
-43.2730683497913
 10
159.6611952968711
 20
-43.0337956532914
 10
158.7947239215712
 20
-42.74920103169164
 10
157.9752127788711
 20
-42.42151232679171
 10
157.2090765862709
 20
-42.05329368759189
 10
156.5023104448711
 20
-41.64742739429162
 10
155.860447075071
 20
-41.20708917029157
 10
155.288508166871
 20
-40.73572617999167
 10
154.7909716995715
 20
-40.23702675829141
 10
154.3717305766709
 20
-39.71489424949138
 10
154.0340664899713
 20
-39.17341443179142
 10
153.7806213555713
 20
-38.61682610189188
 10
153.6133790386714
 20
-38.0494846733913
 10
153.5336487257709
 20
-37.4758305277913
 10
153.542054058671
 20
-36.90035346869161
 10
153.5450596557714
 20
-36.86889899199189
  0
LWPOLYLINE
  5
164
330
70
100
AcDbEntity
  8
0
 62
    18
420
        0
370
    25
100
AcDbPolyline
 90
       10
 70
     0
 43
0.0
 10
176.0450592443709
 20
-36.86889899199189
 10
176.0632966466711
 20
-37.29773777309133
 10
176.010804722471
 20
-37.87243681499175
 10
175.8705347422709
 20
-38.44220923839158
 10
175.6435838412714
 20
-39.00259489289183
 10
175.3317281138711
 20
-39.5492085214917
 10
174.9374094431709
 20
-40.07777245539142
 10
174.4637129455713
 20
-40.58414940329172
 10
173.9143455681713
 20
-41.06437609649133
 10
173.293607853371
 20
-41.51469479559175
  0
LWPOLYLINE
  5
165
330
70
100
AcDbEntity
  8
0
 62
    18
420
        0
370
    25
100
AcDbPolyline
 90
       29
 70
     0
 43
0.0
 10
173.319936792071
 20
-43.16100792099162
 10
172.6305569458711
 20
-43.57918521259185
 10
171.8798538055714
 20
-43.96055350419181
 10
171.0737031315711
 20
-44.30212833339163
 10
170.2184131834714
 20
-44.60123593139136
 10
169.320678395471
 20
-44.85553540359163
 10
168.3875241203713
 20
-45.06303694209173
 10
167.4262542753709
 20
-45.22211608179164
 10
166.4443914142714
 20
-45.33152776719146
 10
165.449620422271
 20
-45.39041604639129
 10
164.4497266125711
 20
-45.39832015359151
 10
163.4525354695709
 20
-45.35517812129165
 10
162.4658514041712
 20
-45.26132715989142
 10
161.4973968384711
 20
-45.11750194729128
 10
160.554750632171
 20
-44.9248287360919
 10
159.6452909530714
 20
-44.68481442369157
 10
158.7761350210712
 20
-44.39933837879173
 10
157.9540846954709
 20
-44.07063471589129
 10
157.1855748203715
 20
-43.70127540149166
 10
156.4766195945709
 20
-43.29415145939151
 10
155.8327674615709
 20
-42.85244921039189
 10
155.2590572332709
 20
-42.37962570339183
 10
154.7599796071711
 20
-41.87938117719168
 10
154.3394391759712
 20
-41.35563104649145
 10
154.0007286620711
 20
-40.81247430049173
 10
153.7464985425712
 20
-40.25416152099157
 10
153.5787379511714
 20
-39.68506256819145
 10
153.4987610133713
 20
-39.10963131959153
 10
153.4923724731711
 20
-38.79543973019165
  0
LWPOLYLINE
  5
166
330
70
100
AcDbEntity
  8
0
 62
    18
420
        0
370
    25
100
AcDbPolyline
 90
       10
 70
     0
 43
0.0
 10
176.0977464269712
 20
-38.79543973019165
 10
176.098205432471
 20
-38.93098655859165
 10
176.0455508478714
 20
-39.50746593489134
 10
175.9048458989713
 20
-40.0790032958914
 10
175.6771920016711
 20
-40.64112537529182
 10
175.3643705187713
 20
-41.18943246959193
 10
174.968830412671
 20
-41.71963369919136
 10
174.4936663485713
 20
-42.22757941709148
 10
173.9425972921712
 20
-42.70929409429171
 10
173.319936792071
 20
-43.16100792099162
  0
LWPOLYLINE
  5
167
330
70
100
AcDbEntity
  8
0
 62
    18
420
        0
370
    25
100
AcDbPolyline
 90
       27
 70
     0
 43
0.0
 10
166.8205544141711
 20
46.43116510840839
 10
167.0384016885715
 20
46.27736552120848
 10
167.2901993915712
 20
46.03116903250838
 10
167.4618012731714
 20
45.76297397930874
 10
167.5476917759709
 20
45.48140047090798
 10
167.5451104460712
 20
45.19549844590808
 10
167.454140177871
 20
44.9144571276083
 10
167.2777049089711
 20
44.64730925170853
 10
167.0214753865714
 20
44.40264134200812
 10
166.6936869671709
 20
44.1883171661083
 10
166.3048751382713
 20
44.0112252615085
 10
165.8675366360714
 20
43.87705745110837
 10
165.3957278562714
 20
43.79012605260856
 10
164.9046129387712
 20
43.7532252179082
 10
164.4099770307711
 20
43.76754079130812
 10
163.9277178904715
 20
43.83261276740857
 10
163.473335927071
 20
43.94634969050833
 10
163.0614352087711
 20
44.10509593230843
 10
162.7052545380713
 20
44.30374918840838
 10
162.4162418880708
 20
44.53592460460881
 10
162.2036864818708
 20
44.79415994940835
 10
162.074420039571
 20
45.07015537110837
 10
162.0325969479714
 20
45.35504001450802
 10
162.0795617903709
 20
45.63965749380809
 10
162.2138049358713
 20
45.91485992910851
 10
162.4310117654714
 20
46.17180219810802
 10
162.635798239871
 20
46.3414397184086
  0
LWPOLYLINE
  5
168
330
70
100
AcDbEntity
  8
0
 62
    18
420
        0
370
    25
100
AcDbPolyline
 90
       13
 70
     0
 43
0.0
 10
162.6906093108714
 20
44.53098168890853
 10
162.9228207740713
 20
44.37635617390827
 10
163.2960545107709
 20
44.19601622790841
 10
163.7203351867713
 20
44.0583382398085
 10
164.1812141444714
 20
43.96801057190829
 10
164.6629970746713
 20
43.92810929580829
 10
165.1492771230712
 20
43.93999316150838
 10
165.6234946939711
 20
44.00325757350845
 10
166.0695010001715
 20
44.11574794410855
 10
166.4721076798714
 20
44.27363367190845
 10
166.8176044537712
 20
44.47153818390843
 10
167.0942258067711
 20
44.70272204630845
 10
167.103106608771
 20
44.71191701960841
  0
LWPOLYLINE
  5
169
330
70
100
AcDbEntity
  8
0
 62
    18
420
        0
370
    25
100
AcDbPolyline
 90
       10
 70
     0
 43
0.0
 10
164.6567381853709
 20
43.65190325490838
 10
164.1663163036714
 20
43.69175748500823
 10
163.6961027656711
 20
43.78152328590878
 10
163.2612106327711
 20
43.91831547870846
 10
162.8756178182715
 20
44.09773760500813
 10
162.5517172115715
 20
44.31402264100843
 10
162.299919508471
 20
44.56021912970853
 10
162.1283176269709
 20
44.82841418290817
 10
162.0424271241713
 20
45.10998769130829
 10
162.0325594109712
 20
45.24466017690835
  0
LWPOLYLINE
  5
16A
330
70
100
AcDbEntity
  8
0
 62
    18
420
        0
370
    25
100
AcDbPolyline
 90
       11
 70
     0
 43
0.0
 10
167.5575594891711
 20
45.24466017690835
 10
167.5575219521709
 20
45.23634814770824
 10
167.5105571096712
 20
44.95173066840882
 10
167.3763139641709
 20
44.6765282331084
 10
167.1591071346709
 20
44.41958596410825
 10
166.8659178821712
 20
44.18916230430839
 10
166.506169474571
 20
43.99266323800879
 10
166.0914246465713
 20
43.8364043393083
 10
165.6350137075714
 20
43.72540786920863
 10
165.1516057364711
 20
43.66324152970818
 10
164.6567381853709
 20
43.65190325490838
  0
LWPOLYLINE
  5
16B
330
70
100
AcDbEntity
  8
0
 62
    18
420
        0
370
    25
100
AcDbPolyline
 90
        8
 70
     0
 43
0.0
 10
176.0450593266714
 20
12.91466921960838
 10
176.1838726887708
 20
12.6126217742085
 10
176.312277672571
 20
12.21799959030825
 10
176.3780170426713
 20
11.83517153390806
 10
176.3780170426713
 20
11.48203690200842
 10
176.312277672571
 20
11.17510838590834
 10
176.1838726887708
 20
10.92873944070819
 10
176.0450593266714
 20
10.78696401260841
  0
LWPOLYLINE
  5
16C
330
70
100
AcDbEntity
  8
0
 62
    18
420
        0
370
    25
100
AcDbPolyline
 90
       35
 70
     0
 43
0.0
 10
153.6115153576711
 20
23.29280748850845
 10
153.7433958101711
 20
22.7835525613086
 10
153.9725199080709
 20
22.2244397148086
 10
154.2863446835712
 20
21.67920458130859
 10
154.682414259471
 20
21.15211466020837
 10
155.1576290313713
 20
20.64729507730808
 10
155.7082701985711
 20
20.16869693590863
 10
156.3300272578712
 20
19.72006547720831
 10
157.0180352940712
 20
19.30491247090832
 10
157.7669083186709
 20
18.92648632410851
 10
158.5707866848711
 20
18.58774927130846
 10
159.423378082171
 20
18.29135218780869
 10
160.3180101376713
 20
18.03961486900811
 10
161.2476820294713
 20
17.83450763900858
 10
162.2051161819712
 20
17.67763519400828
 10
163.1828203344711
 20
17.57022586210848
 10
164.1731421997709
 20
17.51311981830859
 10
165.1683316967712
 20
17.50676433220818
 10
166.1605998903711
 20
17.55120901580851
 10
167.1421802358715
 20
17.6461062041087
 10
168.1053921286711
 20
17.79071266530811
 10
169.0426958926709
 20
17.98389739480845
 10
169.9467553421712
 20
18.22414807770833
 10
170.8104963918712
 20
18.50958439490834
 10
171.6271590826712
 20
18.83797208930864
 10
172.3903503053713
 20
19.20674199820846
 10
173.094098543171
 20
19.61300720820848
 10
173.7328959766713
 20
20.05358812310866
 10
174.301741783571
 20
20.52503745930833
 10
174.7961855612709
 20
21.0236645538085
 10
175.2123570435715
 20
21.54556696500841
 10
175.5469990694713
 20
22.08666091040831
 10
175.7974919488711
 20
22.6427113003082
 10
175.9618765118711
 20
23.20936557210843
 10
175.9786035423711
 20
23.29280748850845
  0
LWPOLYLINE
  5
16D
330
70
100
AcDbEntity
  8
0
 62
    18
420
        0
370
    25
100
AcDbPolyline
 90
       38
 70
     0
 43
0.0
 10
153.5450593264713
 20
-37.24288803619186
 10
153.5457475054714
 20
-37.3147283151914
 10
153.6007665942713
 20
-37.88839538659162
 10
153.7433958101711
 20
-38.45701076359184
 10
153.9725199080709
 20
-39.01612361009185
 10
154.2863446835712
 20
-39.56135874359186
 10
154.682414259471
 20
-40.08844866469143
 10
155.1576290313713
 20
-40.59326824759173
 10
155.7082701985711
 20
-41.07186638899182
 10
156.3300272578712
 20
-41.52049784769149
 10
157.0180352940712
 20
-41.93565085399148
 10
157.7669083186709
 20
-42.31407700079193
 10
158.5707866848711
 20
-42.65281405359134
 10
159.423378082171
 20
-42.94921113709175
 10
160.3180101376713
 20
-43.2009484558917
 10
161.2476820294713
 20
-43.40605568589186
 10
162.2051161819712
 20
-43.56292813089153
 10
163.1828203344711
 20
-43.67033746279132
 10
164.1731421997709
 20
-43.72744350659185
 10
165.1683316967712
 20
-43.73379899279172
 10
166.1605998903711
 20
-43.68935430909193
 10
167.1421802358715
 20
-43.59445712089185
 10
168.1053921286711
 20
-43.4498506595917
 10
169.0426958926709
 20
-43.25666593009135
 10
169.9467553421712
 20
-43.01641524719147
 10
170.8104963918712
 20
-42.73097892999146
 10
171.6271590826712
 20
-42.4025912355918
 10
172.3903503053713
 20
-42.03382132679144
 10
173.094098543171
 20
-41.62755611669132
 10
173.7328959766713
 20
-41.18697520179178
 10
174.301741783571
 20
-40.71552586559148
 10
174.7961855612709
 20
-40.21689877109131
 10
175.2123570435715
 20
-39.6949963599915
 10
175.5469990694713
 20
-39.1539024144915
 10
175.7974919488711
 20
-38.59785202459161
 10
175.9618765118711
 20
-38.03119775279138
 10
176.0388653039714
 20
-37.45837351749145
 10
176.0450595735709
 20
-37.24288803619186
  0
LWPOLYLINE
  5
16E
330
70
100
AcDbEntity
  8
0
 62
    18
420
        0
370
    25
100
AcDbPolyline
 90
       20
 70
     0
 43
0.0
 10
172.7155870808713
 20
19.48777333710831
 10
172.3007695248714
 20
19.25723444440815
 10
171.5344734705714
 20
18.88791530910832
 10
170.7139162299709
 20
18.55973675560851
 10
169.8457034983714
 20
18.2753412479087
 10
168.936826631271
 20
18.03701831020855
 10
167.994601893371
 20
17.84668770440832
 10
167.0266168699709
 20
17.70588065870829
 10
166.0406641182714
 20
17.61573197940843
 10
165.0446830506714
 20
17.5769662701084
 10
164.0466917760709
 20
17.58989698050869
 10
163.054725854471
 20
17.65441880360857
 10
162.0767724428713
 20
17.7700133782082
 10
161.1207044408713
 20
17.93574890830862
 10
160.1942212216711
 20
18.15029194910815
 10
159.3047803077713
 20
18.41191415410844
 10
158.4595441940712
 20
18.71851004880849
 10
157.6653183616711
 20
19.06761076400865
 10
156.928496372371
 20
19.45640508760815
 10
156.8745318191709
 20
19.48777333710831
  0
LWPOLYLINE
  5
16F
330
70
100
AcDbEntity
  8
0
 62
     8
420
  8421504
370
    25
100
AcDbPolyline
 90
        5
 70
     0
 43
0.0
 10
179.306653373171
 20
14.98190628960843
 10
178.9529734840712
 20
15.18609733700842
 10
177.5383117149712
 20
16.00282815610864
 10
176.3005718792714
 20
16.7174043114082
 10
176.0450593266714
 20
16.86491237450823
  0
LWPOLYLINE
  5
170
330
70
100
AcDbEntity
  8
0
 62
     8
420
  8421504
370
    25
100
AcDbPolyline
 90
        4
 70
     0
 43
0.0
 10
176.045059491271
 20
17.26314115910857
 10
177.2531728090712
 20
16.5658954277083
 10
178.3681510581712
 20
15.92260931360846
 10
179.4832032288714
 20
15.2793656834085
  0
LWPOLYLINE
  5
171
330
70
100
AcDbEntity
  8
0
 62
     8
420
  8421504
370
    25
100
AcDbPolyline
 90
        4
 70
     0
 43
0.0
 10
176.0450596559714
 20
7.046823706808225
 10
176.493966809571
 20
6.787802111008619
 10
179.306653373171
 20
5.166068782308114
 10
179.3103728325709
 20
5.163926146608255
  0
SPLINE
  5
172
330
70
100
AcDbEntity
  8
0
 62
     8
420
  8421504
370
    25
100
AcDbSpline
210
0.0
220
0.0
230
1.0
 70
     8
 71
     3
 72
     8
 73
     4
 74
     0
 42
0.0000000001
 43
0.0000000001
 40
0.0
 40
0.0
 40
0.0
 40
0.0
 40
1.0
 40
1.0
 40
1.0
 40
1.0
 10
179.6081930008815
 20
5.060228029728538
 30
0.0
 10
179.6453915208399
 20
5.085787711854695
 30
0.0
 10
179.6653384221599
 20
5.129874991211358
 30
0.0
 10
179.6599799531726
 20
5.174689208236272
 30
0.0
  0
LWPOLYLINE
  5
173
330
70
100
AcDbEntity
  8
0
 62
     8
420
  8421504
370
    25
100
AcDbPolyline
 90
       43
 70
     0
 43
0.0
 10
156.6697210198711
 20
20.43409095790865
 10
157.370816516871
 20
20.03095233440852
 10
158.1316871522713
 20
19.6657164113087
 10
158.9462079269708
 20
19.34132449000822
 10
159.8078197376711
 20
19.06038757570836
 10
160.7095859704712
 20
18.82516815300844
 10
161.6442460076714
 20
18.63755994210814
 10
162.6042744962711
 20
18.49907345190851
 10
163.5819417702714
 20
18.41082391020811
 10
164.5693765764708
 20
18.37352166390843
 10
165.5586292946714
 20
18.38746685700852
 10
166.541732853671
 20
18.45254771960818
 10
167.510773523871
 20
18.56823961760813
 10
168.4579491993708
 20
18.73361132540862
 10
169.3756331114713
 20
18.94733177410831
 10
170.2564373787709
 20
19.20767936530823
 10
171.0932697236713
 20
19.51255874650824
 10
171.879392207071
 20
19.8595149484087
 10
172.6084759807709
 20
20.24575434860849
 10
173.2746508265712
 20
20.66816718670858
 10
173.8725533458711
 20
21.12335234250854
 10
174.3973688669712
 20
21.60764533030868
 10
174.8448717566714
 20
22.11714689250849
 10
175.2114597766714
 20
22.64775423830834
 10
175.4941814950713
 20
23.19519587650856
 10
175.6907599941712
 20
23.75506354980839
 10
175.7996124622712
 20
24.32285015700859
 10
175.8198633643709
 20
24.89398358770852
 10
175.7513480644714
 20
25.4638656900085
 10
175.5946194106712
 20
26.02790838640845
 10
175.3509395034714
 20
26.5815699803086
 10
175.0222694884714
 20
27.12039260210854
 10
174.6112563852712
 20
27.64003870640868
 10
174.121208721471
 20
28.13632338560854
 10
173.5560726603715
 20
28.6052517218083
 10
172.9203978802711
 20
29.04304760880847
 10
172.2193023832713
 20
29.44618623240869
 10
171.458431747871
 20
29.81142215550852
 10
170.6439109731715
 20
30.13581407680836
 10
169.7822991624712
 20
30.41675099110821
 10
168.880532929571
 20
30.65197041370868
 10
167.9458728924715
 20
30.83957862470844
 10
167.5450593265713
 20
30.90383622990816
  0
LWPOLYLINE
  5
174
330
70
100
AcDbEntity
  8
0
 62
     8
420
  8421504
370
    25
100
AcDbPolyline
 90
       24
 70
     0
 43
0.0
 10
162.0450595734709
 20
30.90383622990816
 10
161.1321697007714
 20
30.74352724130849
 10
160.2144857885709
 20
30.52980679270827
 10
159.3336815213714
 20
30.26945920150835
 10
158.4968491763709
 20
29.96457982030834
 10
157.7107266930713
 20
29.61762361830841
 10
156.9816429193714
 20
29.23138421820809
 10
156.3154680735711
 20
28.80897138010864
 10
155.7175655542712
 20
28.35378622430868
 10
155.1927500331711
 20
27.86949323650854
 10
154.7452471433714
 20
27.35999167420863
 10
154.3786591233714
 20
26.82938432850824
 10
154.095937405071
 20
26.28194269030866
 10
153.8993589059711
 20
25.72207501700818
 10
153.7905064378711
 20
25.15428840980864
 10
153.7702555356713
 20
24.5831549791087
 10
153.8387708355708
 20
24.01327287680872
 10
153.995499489371
 20
23.44923018030866
 10
154.2391793965714
 20
22.89556858650862
 10
154.5678494116709
 20
22.35674596460857
 10
154.9788625148712
 20
21.83709986030844
 10
155.4689101786712
 20
21.34081518120868
 10
156.0340462397709
 20
20.87188684490817
 10
156.6697210198711
 20
20.43409095790865
  0
LWPOLYLINE
  5
175
330
70
100
AcDbEntity
  8
0
 62
     8
420
  8421504
370
    25
100
AcDbPolyline
 90
       32
 70
     0
 43
0.0
 10
175.7339690749715
 20
22.9695691938086
 10
175.4953998023709
 20
22.49299783180836
 10
175.1407057547712
 20
21.9550543522083
 10
174.7050436598712
 20
21.4373123277087
 10
174.1918221440714
 20
20.9438243666086
 10
173.6050579173711
 20
20.47845275500808
 10
172.9493440188712
 20
20.04483895990873
 10
172.2298110660711
 20
19.64637745660834
 10
171.4520916106713
 20
19.28618602840849
 10
170.622271694571
 20
18.96708388270854
 10
169.7468464188713
 20
18.69156828270862
 10
168.8326666220709
 20
18.46179593080864
 10
167.8868864023714
 20
18.27956483950861
 10
166.9169089525709
 20
18.14630131000812
 10
165.9303253151712
 20
18.0630481480086
 10
164.9348565952713
 20
18.03045715410836
 10
163.9382927158709
 20
18.04878304210832
 10
162.9484354537709
 20
18.11788286820853
 10
161.9730302801712
 20
18.23721546090858
 10
161.0197110429713
 20
18.4058471235085
 10
160.0959393807714
 20
18.6224577169087
 10
159.208943971971
 20
18.8853521596082
 10
158.3656680159714
 20
19.19247325870856
 10
157.5727110341713
 20
19.54141705890828
 10
156.8362779687709
 20
19.9294523429082
 10
156.1621339697714
 20
20.35354293100816
 10
155.555553891771
 20
20.81036923160862
 10
155.0212859520709
 20
21.29635606530863
 10
154.563510261871
 20
21.80769964460863
 10
154.185810620371
 20
22.34039830360825
 10
153.8911432339714
 20
22.89028348220822
 10
153.8869209758709
 20
22.89963166390867
  0
LWPOLYLINE
  5
176
330
70
100
AcDbEntity
  8
0
 62
     8
420
  8421504
370
    25
100
AcDbPolyline
 90
       30
 70
     0
 43
0.0
 10
162.0450595117709
 20
26.08100505790869
 10
161.960625071471
 20
26.01647706890819
 10
161.6679601130709
 20
25.73864877810852
 10
161.4562853865714
 20
25.43731656980858
 10
161.3310829047714
 20
25.12028473300817
 10
161.2955960814712
 20
24.79576421940856
 10
161.3507430924708
 20
24.47215991460842
 10
161.4950962955713
 20
24.15785299130865
 10
161.7249167220714
 20
23.86098387970852
 10
162.0342522407714
 20
23.58924124960856
 10
162.4150912564708
 20
23.34966322350823
 10
162.8575701822714
 20
23.1484546867086
 10
163.3502291808712
 20
22.99082691590854
 10
163.8803083658709
 20
22.8808621312086
 10
164.4340792657709
 20
22.82140863480816
 10
164.9971991928714
 20
22.81400606640822
 10
165.555083855671
 20
22.85884631650862
 10
166.0932842939714
 20
22.95476787190822
 10
166.5978614663709
 20
23.09928653780865
 10
167.0557468453712
 20
23.28865932990824
 10
167.4550817524714
 20
23.51798152530863
 10
167.7855235609713
 20
23.78131381660849
 10
168.0385138057714
 20
24.07183613840846
 10
168.2075001131712
 20
24.38202406610845
 10
168.2881062901713
 20
24.70384375950822
 10
168.2782442569714
 20
25.02896047420816
 10
168.1781696108708
 20
25.34895378510825
 10
167.9904741363712
 20
25.65553594610835
 10
167.7200190442715
 20
25.94076663900845
 10
167.5450593883714
 20
26.08100505790869
  0
LWPOLYLINE
  5
177
330
70
100
AcDbEntity
  8
0
 62
     8
420
  8421504
370
    25
100
AcDbPolyline
 90
       14
 70
     0
 43
0.0
 10
164.9271218253709
 20
46.96948229140836
 10
164.4408417770711
 20
46.95759842570828
 10
163.9666242061711
 20
46.8943340137082
 10
163.5206178998713
 20
46.78184364310875
 10
163.1180112201714
 20
46.62395791530821
 10
162.7725144463711
 20
46.42605340330823
 10
162.4958930932711
 20
46.19486954090821
 10
162.297566940571
 20
45.9382790476086
 10
162.1842898765713
 20
45.66501984950815
 10
162.1599196138709
 20
45.38439733550828
 10
162.2252858362711
 20
45.10596787770859
 10
162.3781625397714
 20
44.83921297840836
 10
162.6133437654714
 20
44.59321669660841
 10
162.6906093108714
 20
44.53098168890853
  0
LWPOLYLINE
  5
178
330
70
100
AcDbEntity
  8
0
 62
     8
420
  8421504
370
    25
100
AcDbPolyline
 90
       12
 70
     0
 43
0.0
 10
167.103106608771
 20
44.71191701960841
 10
167.2925519595713
 20
44.9593125396087
 10
167.405829023571
 20
45.2325717377085
 10
167.4301992862714
 20
45.51319425170838
 10
167.3648330638712
 20
45.79162370950871
 10
167.2119563603709
 20
46.05837860880829
 10
166.9767751346709
 20
46.30437489070835
 10
166.6672981259709
 20
46.52123541330839
 10
166.2940643892713
 20
46.70157535930825
 10
165.8697837133709
 20
46.8392533474088
 10
165.4089047556709
 20
46.92958101530837
 10
164.9271218253709
 20
46.96948229140836
  0
INSERT
  5
17B
330
70
100
AcDbEntity
  8
CAPA_BASE
100
AcDbBlockReference
  2
Block_0
 10
0.0
 20
0.0
 30
0.0
  0
INSERT
  5
188
330
70
100
AcDbEntity
  8
CAPA_BASE
100
AcDbBlockReference
  2
Block_1
 10
0.0
 20
0.0
 30
0.0
  0
INSERT
  5
194
330
70
100
AcDbEntity
  8
CAPA_BASE
100
AcDbBlockReference
  2
Block_2
 10
0.0
 20
0.0
 30
0.0
  0
ENDSEC
  0
SECTION
  2
OBJECTS
  0
DICTIONARY
  5
C
330
0
100
AcDbDictionary
281
     1
  3
ACAD_COLOR
350
63
  3
ACAD_DETAILVIEWSTYLE
350
6A
  3
ACAD_GROUP
350
D
  3
ACAD_LAYOUT
350
62
  3
ACAD_MATERIAL
350
10
  3
ACAD_MLEADERSTYLE
350
66
  3
ACAD_MLINESTYLE
350
5F
  3
ACAD_PLOTSETTINGS
350
61
  3
ACAD_PLOTSTYLENAME
350
E
  3
ACAD_SCALELIST
350
42
  3
ACAD_SECTIONVIEWSTYLE
350
68
  3
ACAD_TABLESTYLE
350
64
  3
ACAD_VISUALSTYLE
350
29
  3
ACDB_RECOMPOSE_DATA
350
1A7
  3
AcDbVariableDictionary
350
19F
  0
DICTIONARY
  5
63
102
{ACAD_REACTORS
330
C
102
}
330
C
100
AcDbDictionary
281
     1
  0
DICTIONARY
  5
6A
102
{ACAD_REACTORS
330
C
102
}
330
C
100
AcDbDictionary
281
     1
  3
Imperial24
350
6B
  0
DICTIONARY
  5
D
102
{ACAD_REACTORS
330
C
102
}
330
C
100
AcDbDictionary
281
     1
  0
DICTIONARY
  5
62
102
{ACAD_REACTORS
330
C
102
}
330
C
100
AcDbDictionary
281
     1
  3
Layout1
350
6F
  3
Layout2
350
77
  3
Model
350
73
  0
DICTIONARY
  5
10
102
{ACAD_REACTORS
330
C
102
}
330
C
100
AcDbDictionary
281
     1
  3
ByBlock
350
19
  3
ByLayer
350
11
  3
Global
350
21
  0
DICTIONARY
  5
66
102
{ACAD_REACTORS
330
C
102
}
330
C
100
AcDbDictionary
281
     1
  3
Standard
350
67
  0
DICTIONARY
  5
5F
102
{ACAD_REACTORS
330
C
102
}
330
C
100
AcDbDictionary
281
     1
  3
Standard
350
60
  0
DICTIONARY
  5
61
102
{ACAD_REACTORS
330
C
102
}
330
C
100
AcDbDictionary
281
     1
  0
ACDBDICTIONARYWDFLT
  5
E
102
{ACAD_REACTORS
330
C
102
}
330
C
100
AcDbDictionary
281
     1
  3
Normal
350
F
100
AcDbDictionaryWithDefault
340
F
  0
DICTIONARY
  5
42
102
{ACAD_REACTORS
330
C
102
}
330
C
100
AcDbDictionary
281
     1
  3
A0
350
43
  3
A1
350
44
  3
A2
350
45
  3
A3
350
46
  3
A4
350
47
  3
A5
350
48
  3
A6
350
49
  3
A7
350
4A
  3
A8
350
4B
  3
A9
350
4C
  3
B0
350
4D
  3
B1
350
4E
  3
B2
350
4F
  3
B3
350
50
  3
B4
350
51
  3
B5
350
52
  3
B6
350
53
  0
DICTIONARY
  5
68
102
{ACAD_REACTORS
330
C
102
}
330
C
100
AcDbDictionary
281
     1
  3
Imperial24
350
69
  0
DICTIONARY
  5
64
102
{ACAD_REACTORS
330
C
102
}
330
C
100
AcDbDictionary
281
     1
  3
Standard
350
65
  0
DICTIONARY
  5
29
102
{ACAD_REACTORS
330
C
102
}
330
C
100
AcDbDictionary
281
     1
  3
2dWireframe
350
2F
  3
Basic
350
2E
  3
Brighten
350
35
  3
ColorChange
350
39
  3
Conceptual
350
32
  3
Dim
350
34
  3
EdgeColorOff
350
41
  3
Facepattern
350
38
  3
Flat
350
2A
  3
FlatWithEdges
350
2B
  3
Gouraud
350
2C
  3
GouraudWithEdges
350
2D
  3
Hidden
350
31
  3
JitterOff
350
3F
  3
Linepattern
350
37
  3
OverhangOff
350
40
  3
Realistic
350
33
  3
Shaded
350
3E
  3
Shaded with edges
350
3D
  3
Shades of Gray
350
3A
  3
Sketchy
350
3B
  3
Thicken
350
36
  3
Wireframe
350
30
  3
X-Ray
350
3C
  0
XRECORD
  5
1A7
102
{ACAD_REACTORS
330
C
102
}
330
C
100
AcDbXrecord
280
     1
 90
        1
330
65
  0
DICTIONARY
  5
19F
102
{ACAD_REACTORS
330
C
102
}
330
C
100
AcDbDictionary
281
     1
  3
CANNOSCALE
350
1A4
  3
CMLEADERSTYLE
350
1A1
  3
CTABLESTYLE
350
1A0
  3
CVIEWDETAILSTYLE
350
1A2
  3
CVIEWSECTIONSTYLE
350
1A3
  0
ACDBDETAILVIEWSTYLE
  5
6B
102
{ACAD_REACTORS
330
6A
102
}
330
6A
100
AcDbModelDocViewStyle
 70
     0
  3
Imperial24
290
     1
300
Imperial24
 90
        0
100
AcDbDetailViewStyle
 70
     0
 71
     0
 90
        3
 71
     1
340
55
 62
   256
 40
0.24
340
0
 62
   256
 40
0.24
300

 40
0.36
280
     3
 71
     2
340
5D
 90
       25
 62
   256
 71
     3
340
55
 62
   256
 40
0.24
 90
        1
 40
0.75
 90
        1
300
%<\AcVar ViewType \f "%tc1">% %<\AcVar ViewDetailId>%\PSCALE %<\AcVar ViewScale \f "%sn">%
 71
     4
340
5D
 90
       25
 62
   256
340
5D
 90
       25
 62
   256
280
     0
  0
LAYOUT
  5
6F
102
{ACAD_REACTORS
330
62
102
}
330
62
100
AcDbPlotSettings
  1

  2

  4

  6

 40
0.0
 41
0.0
 42
0.0
 43
0.0
 44
0.0
 45
0.0
 46
0.0
 47
0.0
 48
0.0
 49
0.0
140
0.0
141
0.0
142
1.0
143
1.0
 70
   688
 72
     0
 73
     0
 74
     5
  7

 75
    16
147
1.0
 76
     0
 77
     2
 78
   300
148
0.0
149
0.0
100
AcDbLayout
  1
Layout1
 70
     1
 71
     1
 10
0.0
 20
0.0
 11
12.0
 21
9.0
 12
0.0
 22
0.0
 32
0.0
 14
0.0
 24
0.0
 34
0.0
 15
0.0
 25
0.0
 35
0.0
146
0.0
 13
0.0
 23
0.0
 33
0.0
 16
1.0
 26
0.0
 36
0.0
 17
0.0
 27
1.0
 37
0.0
 76
     0
330
6C
  0
LAYOUT
  5
77
102
{ACAD_REACTORS
330
62
102
}
330
62
100
AcDbPlotSettings
  1

  2

  4

  6

 40
0.0
 41
0.0
 42
0.0
 43
0.0
 44
0.0
 45
0.0
 46
0.0
 47
0.0
 48
0.0
 49
0.0
140
0.0
141
0.0
142
1.0
143
1.0
 70
   688
 72
     0
 73
     0
 74
     5
  7

 75
    16
147
1.0
 76
     0
 77
     2
 78
   300
148
0.0
149
0.0
100
AcDbLayout
  1
Layout2
 70
     1
 71
     2
 10
0.0
 20
0.0
 11
12.0
 21
9.0
 12
0.0
 22
0.0
 32
0.0
 14
0.0
 24
0.0
 34
0.0
 15
0.0
 25
0.0
 35
0.0
146
0.0
 13
0.0
 23
0.0
 33
0.0
 16
1.0
 26
0.0
 36
0.0
 17
0.0
 27
1.0
 37
0.0
 76
     0
330
74
  0
LAYOUT
  5
73
102
{ACAD_REACTORS
330
62
102
}
330
62
100
AcDbPlotSettings
  1

  2

  4

  6

 40
0.0
 41
0.0
 42
0.0
 43
0.0
 44
0.0
 45
0.0
 46
0.0
 47
0.0
 48
0.0
 49
0.0
140
0.0
141
0.0
142
1.0
143
1.0
 70
  1712
 72
     0
 73
     0
 74
     0
  7

 75
     0
147
1.0
 76
     0
 77
     2
 78
   300
148
0.0
149
0.0
100
AcDbLayout
  1
Model
 70
     1
 71
     0
 10
0.0
 20
0.0
 11
12.0
 21
9.0
 12
0.0
 22
0.0
 32
0.0
 14
0.0
 24
0.0
 34
0.0
 15
0.0
 25
0.0
 35
0.0
146
0.0
 13
0.0
 23
0.0
 33
0.0
 16
1.0
 26
0.0
 36
0.0
 17
0.0
 27
1.0
 37
0.0
 76
     0
330
70
  0
MATERIAL
  5
19
102
{ACAD_XDICTIONARY
360
1A
102
}
102
{ACAD_REACTORS
330
10
102
}
330
10
100
AcDbMaterial
  1
ByBlock
 72
     0
 43
0.0208333333333333
 43
0.0
 43
0.0
 43
0.0
 43
0.0
 43
0.0208333333333333
 43
0.0
 43
0.0
 43
0.0
 43
0.0
 43
1.0
 43
0.0
 43
0.0
 43
0.0
 43
0.0
 43
1.0
 77
     0
 47
0.0208333333333333
 47
0.0
 47
0.0
 47
0.0
 47
0.0
 47
0.0208333333333333
 47
0.0
 47
0.0
 47
0.0
 47
0.0
 47
1.0
 47
0.0
 47
0.0
 47
0.0
 47
0.0
 47
1.0
171
     0
 49
0.0208333333333333
 49
0.0
 49
0.0
 49
0.0
 49
0.0
 49
0.0208333333333333
 49
0.0
 49
0.0
 49
0.0
 49
0.0
 49
1.0
 49
0.0
 49
0.0
 49
0.0
 49
0.0
 49
1.0
175
     0
142
0.0208333333333333
142
0.0
142
0.0
142
0.0
142
0.0
142
0.0208333333333333
142
0.0
142
0.0
142
0.0
142
0.0
142
1.0
142
0.0
142
0.0
142
0.0
142
0.0
142
1.0
179
     0
144
0.0208333333333333
144
0.0
144
0.0
144
0.0
144
0.0
144
0.0208333333333333
144
0.0
144
0.0
144
0.0
144
0.0
144
1.0
144
0.0
144
0.0
144
0.0
144
0.0
144
1.0
147
0.0208333333333333
147
0.0
147
0.0
147
0.0
147
0.0
147
0.0208333333333333
147
0.0
147
0.0
147
0.0
147
0.0
147
1.0
147
0.0
147
0.0
147
0.0
147
0.0
147
1.0
  0
MATERIAL
  5
11
102
{ACAD_XDICTIONARY
360
12
102
}
102
{ACAD_REACTORS
330
10
102
}
330
10
100
AcDbMaterial
  1
ByLayer
 72
     0
 43
0.0208333333333333
 43
0.0
 43
0.0
 43
0.0
 43
0.0
 43
0.0208333333333333
 43
0.0
 43
0.0
 43
0.0
 43
0.0
 43
1.0
 43
0.0
 43
0.0
 43
0.0
 43
0.0
 43
1.0
 77
     0
 47
0.0208333333333333
 47
0.0
 47
0.0
 47
0.0
 47
0.0
 47
0.0208333333333333
 47
0.0
 47
0.0
 47
0.0
 47
0.0
 47
1.0
 47
0.0
 47
0.0
 47
0.0
 47
0.0
 47
1.0
171
     0
 49
0.0208333333333333
 49
0.0
 49
0.0
 49
0.0
 49
0.0
 49
0.0208333333333333
 49
0.0
 49
0.0
 49
0.0
 49
0.0
 49
1.0
 49
0.0
 49
0.0
 49
0.0
 49
0.0
 49
1.0
175
     0
142
0.0208333333333333
142
0.0
142
0.0
142
0.0
142
0.0
142
0.0208333333333333
142
0.0
142
0.0
142
0.0
142
0.0
142
1.0
142
0.0
142
0.0
142
0.0
142
0.0
142
1.0
179
     0
144
0.0208333333333333
144
0.0
144
0.0
144
0.0
144
0.0
144
0.0208333333333333
144
0.0
144
0.0
144
0.0
144
0.0
144
1.0
144
0.0
144
0.0
144
0.0
144
0.0
144
1.0
147
0.0208333333333333
147
0.0
147
0.0
147
0.0
147
0.0
147
0.0208333333333333
147
0.0
147
0.0
147
0.0
147
0.0
147
1.0
147
0.0
147
0.0
147
0.0
147
0.0
147
1.0
  0
MATERIAL
  5
21
102
{ACAD_XDICTIONARY
360
22
102
}
102
{ACAD_REACTORS
330
10
102
}
330
10
100
AcDbMaterial
  1
Global
 72
     0
 43
0.0208333333333333
 43
0.0
 43
0.0
 43
0.0
 43
0.0
 43
0.0208333333333333
 43
0.0
 43
0.0
 43
0.0
 43
0.0
 43
1.0
 43
0.0
 43
0.0
 43
0.0
 43
0.0
 43
1.0
 77
     0
 47
0.0208333333333333
 47
0.0
 47
0.0
 47
0.0
 47
0.0
 47
0.0208333333333333
 47
0.0
 47
0.0
 47
0.0
 47
0.0
 47
1.0
 47
0.0
 47
0.0
 47
0.0
 47
0.0
 47
1.0
171
     0
 49
0.0208333333333333
 49
0.0
 49
0.0
 49
0.0
 49
0.0
 49
0.0208333333333333
 49
0.0
 49
0.0
 49
0.0
 49
0.0
 49
1.0
 49
0.0
 49
0.0
 49
0.0
 49
0.0
 49
1.0
175
     0
142
0.0208333333333333
142
0.0
142
0.0
142
0.0
142
0.0
142
0.0208333333333333
142
0.0
142
0.0
142
0.0
142
0.0
142
1.0
142
0.0
142
0.0
142
0.0
142
0.0
142
1.0
179
     0
144
0.0208333333333333
144
0.0
144
0.0
144
0.0
144
0.0
144
0.0208333333333333
144
0.0
144
0.0
144
0.0
144
0.0
144
1.0
144
0.0
144
0.0
144
0.0
144
0.0
144
1.0
147
0.0208333333333333
147
0.0
147
0.0
147
0.0
147
0.0
147
0.0208333333333333
147
0.0
147
0.0
147
0.0
147
0.0
147
1.0
147
0.0
147
0.0
147
0.0
147
0.0
147
1.0
  0
MLEADERSTYLE
  5
67
102
{ACAD_REACTORS
330
66
102
}
330
66
100
AcDbMLeaderStyle
179
     2
170
     2
171
     1
172
     0
 90
        2
 40
0.0
 41
0.0
173
     1
 91
-1056964608
340
5B
 92
       -2
290
     1
 42
0.09
291
     1
 43
0.36
  3
Standard
 44
0.18
300

342
55
174
     1
178
     6
175
     1
176
     0
 93
-1056964608
 45
0.18
292
     0
297
     0
 46
0.18
 94
-1056964608
 47
1.0
 49
1.0
140
1.0
293
     1
141
0.0
294
     1
177
     0
142
1.0
295
     1
296
     0
143
0.125
271
     0
272
     9
273
     9
298
     1
  0
MLINESTYLE
  5
60
102
{ACAD_REACTORS
330
5F
102
}
330
5F
100
AcDbMlineStyle
  2
STANDARD
 70
     0
  3

 62
   256
 51
90.0
 52
90.0
 71
     2
 49
0.5
 62
   256
  6
BYLAYER
 49
-0.5
 62
   256
  6
BYLAYER
  0
ACDBPLACEHOLDER
  5
F
102
{ACAD_REACTORS
330
E
102
}
330
E
  0
SCALE
  5
43
102
{ACAD_REACTORS
330
42
102
}
330
42
100
AcDbScale
 70
     0
300
1:1
140
1.0
141
1.0
290
     1
  0
SCALE
  5
44
102
{ACAD_REACTORS
330
42
102
}
330
42
100
AcDbScale
 70
     0
300
1/128" = 1'-0"
140
0.0078125
141
12.0
290
     0
  0
SCALE
  5
45
102
{ACAD_REACTORS
330
42
102
}
330
42
100
AcDbScale
 70
     0
300
1/64" = 1'-0"
140
0.015625
141
12.0
290
     0
  0
SCALE
  5
46
102
{ACAD_REACTORS
330
42
102
}
330
42
100
AcDbScale
 70
     0
300
1/32" = 1'-0"
140
0.03125
141
12.0
290
     0
  0
SCALE
  5
47
102
{ACAD_REACTORS
330
42
102
}
330
42
100
AcDbScale
 70
     0
300
1/16" = 1'-0"
140
0.0625
141
12.0
290
     0
  0
SCALE
  5
48
102
{ACAD_REACTORS
330
42
102
}
330
42
100
AcDbScale
 70
     0
300
3/32" = 1'-0"
140
0.09375
141
12.0
290
     0
  0
SCALE
  5
49
102
{ACAD_REACTORS
330
42
102
}
330
42
100
AcDbScale
 70
     0
300
1/8" = 1'-0"
140
0.125
141
12.0
290
     0
  0
SCALE
  5
4A
102
{ACAD_REACTORS
330
42
102
}
330
42
100
AcDbScale
 70
     0
300
3/16" = 1'-0"
140
0.1875
141
12.0
290
     0
  0
SCALE
  5
4B
102
{ACAD_REACTORS
330
42
102
}
330
42
100
AcDbScale
 70
     0
300
1/4" = 1'-0"
140
0.25
141
12.0
290
     0
  0
SCALE
  5
4C
102
{ACAD_REACTORS
330
42
102
}
330
42
100
AcDbScale
 70
     0
300
3/8" = 1'-0"
140
0.375
141
12.0
290
     0
  0
SCALE
  5
4D
102
{ACAD_REACTORS
330
42
102
}
330
42
100
AcDbScale
 70
     0
300
1/2" = 1'-0"
140
0.5
141
12.0
290
     0
  0
SCALE
  5
4E
102
{ACAD_REACTORS
330
42
102
}
330
42
100
AcDbScale
 70
     0
300
3/4" = 1'-0"
140
0.75
141
12.0
290
     0
  0
SCALE
  5
4F
102
{ACAD_REACTORS
330
42
102
}
330
42
100
AcDbScale
 70
     0
300
1" = 1'-0"
140
1.0
141
12.0
290
     0
  0
SCALE
  5
50
102
{ACAD_REACTORS
330
42
102
}
330
42
100
AcDbScale
 70
     0
300
1-1/2" = 1'-0"
140
1.5
141
12.0
290
     0
  0
SCALE
  5
51
102
{ACAD_REACTORS
330
42
102
}
330
42
100
AcDbScale
 70
     0
300
3" = 1'-0"
140
3.0
141
12.0
290
     0
  0
SCALE
  5
52
102
{ACAD_REACTORS
330
42
102
}
330
42
100
AcDbScale
 70
     0
300
6" = 1'-0"
140
6.0
141
12.0
290
     0
  0
SCALE
  5
53
102
{ACAD_REACTORS
330
42
102
}
330
42
100
AcDbScale
 70
     0
300
1'-0" = 1'-0"
140
12.0
141
12.0
290
     0
  0
ACDBSECTIONVIEWSTYLE
  5
69
102
{ACAD_REACTORS
330
68
102
}
330
68
100
AcDbModelDocViewStyle
 70
     0
  3
Imperial24
290
     1
300
Imperial24
 90
        0
100
AcDbSectionViewStyle
 70
     0
 71
     0
 90
       78
 71
     1
340
55
 62
   256
 40
0.24
340
0
340
0
 62
   256
 40
0.24
300
I, O, Q, S, X, Z
 40
0.48
 90
        3
 40
0.18
 90
        1
 71
     2
340
5D
 90
       25
 62
   256
340
5D
 90
       50
 62
   256
 40
0.24
 40
0.0
 40
0.24
 71
     3
340
55
 62
   256
 40
0.24
 90
        1
 40
0.75
 90
        1
300
%<\AcVar ViewType \f "%tc1">% %<\AcVar ViewSectionStartId>%-%<\AcVar ViewSectionEndId>%\PSCALE %<\AcVar ViewScale \f "%sn">%
 71
     4
 62
   256
 62
   257
300
ANSI31
 40
1.0
 90
        0
290
     0
290
     0
 90
        6
 40
0.0
 40
1.570796326794896
 40
0.2617993877991494
 40
1.308996938995747
 40
-0.2617993877991494
 40
1.832595714594046
  0
TABLESTYLE
  5
65
102
{ACAD_XDICTIONARY
360
1A5
102
}
102
{ACAD_REACTORS
330
64
102
}
330
64
100
AcDbTableStyle
280
     0
  3
Standard
 70
     0
 71
     0
 40
0.06
 41
0.06
280
     0
281
     0
  7
Standard
140
0.18
170
     2
 62
     0
 63
     7
283
     0
 90
      512
 91
        0
  1

274
    -2
284
     1
 64
     0
275
    -2
285
     1
 65
     0
276
    -2
286
     1
 66
     0
277
    -2
287
     1
 67
     0
278
    -2
288
     1
 68
     0
279
    -2
289
     1
 69
     0
  7
Standard
140
0.25
170
     5
 62
     0
 63
     7
283
     0
 90
      512
 91
        0
  1

274
    -2
284
     1
 64
     0
275
    -2
285
     1
 65
     0
276
    -2
286
     1
 66
     0
277
    -2
287
     1
 67
     0
278
    -2
288
     1
 68
     0
279
    -2
289
     1
 69
     0
  7
Standard
140
0.18
170
     5
 62
     0
 63
     7
283
     0
 90
      512
 91
        0
  1

274
    -2
284
     1
 64
     0
275
    -2
285
     1
 65
     0
276
    -2
286
     1
 66
     0
277
    -2
287
     1
 67
     0
278
    -2
288
     1
 68
     0
279
    -2
289
     1
 69
     0
  0
VISUALSTYLE
  5
2F
102
{ACAD_REACTORS
330
29
102
}
330
29
100
AcDbVisualStyle
  2
2dWireframe
 70
     4
177
     3
291
     0
 70
    58
 90
        0
176
     1
 90
        2
176
     1
 90
        0
176
     1
 90
        0
176
     1
 40
0.6
176
     1
 40
30.0
176
     1
 62
     7
420
 16777215
176
     1
 90
        1
176
     1
 90
        4
176
     1
 62
     7
176
     1
 62
   257
176
     1
 90
        1
176
     1
 90
        1
176
     1
 40
1.0
176
     1
 90
        0
176
     1
 62
   257
176
     1
 40
1.0
176
     1
 90
        1
176
     1
 90
        6
176
     1
 90
        2
176
     1
 62
     7
176
     1
 90
        5
176
     1
 90
        0
176
     1
 90
        0
176
     1
290
     0
176
     1
 90
        1
176
     1
 40
0.0
176
     1
 90
        0
176
     1
290
     1
176
     1
290
     1
176
     1
290
     0
176
     1
290
     0
176
     1
290
     0
176
     1
290
     0
176
     1
290
     0
176
     1
290
     0
176
     1
290
     0
176
     1
 90
       50
176
     1
 40
0.0
176
     1
 40
1.0
176
     1
 90
        0
176
     1
 62
    18
420
        0
176
     1
 90
       50
176
     1
 90
        3
176
     1
 62
     5
420
      255
176
     1
290
     0
176
     1
 90
       50
176
     1
 90
       50
176
     1
 90
       50
176
     1
290
     0
176
     1
 90
       50
176
     1
 62
   256
176
     0
 40
1.0
176
     0
 90
        2
176
     1
  1
strokes_ogs.tif
176
     1
290
     0
176
     1
 40
1.0
176
     1
 40
1.0
176
     1
  0
VISUALSTYLE
  5
2E
102
{ACAD_REACTORS
330
29
102
}
330
29
100
AcDbVisualStyle
  2
Basic
 70
     7
177
     3
291
     1
 70
    58
 90
        1
176
     1
 90
        0
176
     1
 90
        1
176
     1
 90
        0
176
     1
 40
0.6
176
     1
 40
30.0
176
     1
 62
     7
420
 16777215
176
     1
 90
        0
176
     1
 90
        4
176
     1
 62
     7
176
     1
 62
   257
176
     1
 90
        1
176
     1
 90
        1
176
     1
 40
1.0
176
     1
 90
        8
176
     1
 62
     7
176
     1
 40
1.0
176
     1
 90
        1
176
     1
 90
        6
176
     1
 90
        2
176
     1
 62
     7
176
     1
 90
        5
176
     1
 90
        0
176
     1
 90
        0
176
     1
290
     0
176
     1
 90
        1
176
     1
 40
0.0
176
     1
 90
        0
176
     1
290
     0
176
     1
290
     1
176
     1
290
     1
176
     1
290
     0
176
     1
290
     0
176
     1
290
     0
176
     1
290
     0
176
     1
290
     0
176
     1
290
     0
176
     1
 90
       50
176
     1
 40
0.0
176
     1
 40
1.0
176
     1
 90
        0
176
     1
 62
    18
420
        0
176
     1
 90
       50
176
     1
 90
        3
176
     1
 62
     5
420
      255
176
     1
290
     0
176
     1
 90
       50
176
     1
 90
       50
176
     1
 90
       50
176
     1
290
     0
176
     1
 90
       50
176
     1
 62
   256
176
     0
 40
1.0
176
     0
 90
        2
176
     1
  1
strokes_ogs.tif
176
     1
290
     0
176
     1
 40
1.0
176
     1
 40
1.0
176
     1
  0
VISUALSTYLE
  5
35
102
{ACAD_REACTORS
330
29
102
}
330
29
100
AcDbVisualStyle
  2
Brighten
 70
    12
177
     3
291
     1
 70
    58
 90
        2
176
     1
 90
        2
176
     1
 90
        0
176
     1
 90
        0
176
     1
 40
0.6
176
     1
 40
30.0
176
     1
 62
     7
420
 16777215
176
     1
 90
        1
176
     1
 90
        4
176
     1
 62
     7
176
     1
 62
   257
176
     1
 90
        1
176
     1
 90
        1
176
     1
 40
1.0
176
     1
 90
        8
176
     1
 62
     7
176
     1
 40
1.0
176
     1
 90
        1
176
     1
 90
        6
176
     1
 90
        2
176
     1
 62
     7
176
     1
 90
        5
176
     1
 90
        0
176
     1
 90
        0
176
     1
290
     0
176
     1
 90
        1
176
     1
 40
50.0
176
     1
 90
        0
176
     1
290
     0
176
     1
290
     1
176
     1
290
     1
176
     1
290
     0
176
     1
290
     0
176
     1
290
     0
176
     1
290
     0
176
     1
290
     0
176
     1
290
     0
176
     1
 90
       50
176
     1
 40
0.0
176
     1
 40
1.0
176
     1
 90
        0
176
     1
 62
    18
420
        0
176
     1
 90
       50
176
     1
 90
        3
176
     1
 62
     5
420
      255
176
     1
290
     0
176
     1
 90
       50
176
     1
 90
       50
176
     1
 90
       50
176
     1
290
     0
176
     1
 90
       50
176
     1
 62
   256
176
     0
 40
1.0
176
     0
 90
        2
176
     1
  1
strokes_ogs.tif
176
     1
290
     0
176
     1
 40
1.0
176
     1
 40
1.0
176
     1
  0
VISUALSTYLE
  5
39
102
{ACAD_REACTORS
330
29
102
}
330
29
100
AcDbVisualStyle
  2
ColorChange
 70
    16
177
     3
291
     1
 70
    58
 90
        2
176
     1
 90
        2
176
     1
 90
        3
176
     1
 90
        0
176
     1
 40
0.6
176
     1
 40
30.0
176
     1
 62
     8
420
  8421504
176
     1
 90
        1
176
     1
 90
        4
176
     1
 62
     7
176
     1
 62
   257
176
     1
 90
        1
176
     1
 90
        1
176
     1
 40
1.0
176
     1
 90
        8
176
     1
 62
     8
420
  8421504
176
     1
 40
1.0
176
     1
 90
        1
176
     1
 90
        6
176
     1
 90
        2
176
     1
 62
     7
176
     1
 90
        5
176
     1
 90
        0
176
     1
 90
        0
176
     1
290
     0
176
     1
 90
        1
176
     1
 40
0.0
176
     1
 90
        0
176
     1
290
     0
176
     1
290
     1
176
     1
290
     1
176
     1
290
     0
176
     1
290
     0
176
     1
290
     0
176
     1
290
     0
176
     1
290
     0
176
     1
290
     0
176
     1
 90
       50
176
     1
 40
0.0
176
     1
 40
1.0
176
     1
 90
        0
176
     1
 62
    18
420
        0
176
     1
 90
       50
176
     1
 90
        3
176
     1
 62
     5
420
      255
176
     1
290
     0
176
     1
 90
       50
176
     1
 90
       50
176
     1
 90
       50
176
     1
290
     0
176
     1
 90
       50
176
     1
 62
   256
176
     0
 40
1.0
176
     0
 90
        2
176
     1
  1
strokes_ogs.tif
176
     1
290
     0
176
     1
 40
1.0
176
     1
 40
1.0
176
     1
  0
VISUALSTYLE
  5
32
102
{ACAD_REACTORS
330
29
102
}
330
29
100
AcDbVisualStyle
  2
Conceptual
 70
     9
177
     3
291
     0
 70
    58
 90
        3
176
     1
 90
        2
176
     1
 90
        0
176
     1
 90
        0
176
     1
 40
0.6
176
     1
 40
30.0
176
     1
 62
     7
420
 16777215
176
     1
 90
        2
176
     1
 90
        2
176
     1
 62
     7
176
     1
 62
   257
176
     1
 90
        1
176
     1
 90
        1
176
     1
 40
179.0
176
     1
 90
        8
176
     1
 62
     7
176
     1
 40
1.0
176
     1
 90
        1
176
     1
 90
        6
176
     1
 90
        2
176
     1
 62
     7
176
     1
 90
        3
176
     1
 90
        0
176
     1
 90
        0
176
     1
290
     0
176
     1
 90
        1
176
     1
 40
0.0
176
     1
 90
        0
176
     1
290
     0
176
     1
290
     1
176
     1
290
     1
176
     1
290
     0
176
     1
290
     0
176
     1
290
     0
176
     1
290
     0
176
     1
290
     0
176
     1
290
     0
176
     1
 90
       50
176
     1
 40
0.0
176
     1
 40
1.0
176
     1
 90
        0
176
     1
 62
    18
420
        0
176
     1
 90
       50
176
     1
 90
        3
176
     1
 62
     5
420
      255
176
     1
290
     0
176
     1
 90
       50
176
     1
 90
       50
176
     1
 90
       50
176
     1
290
     0
176
     1
 90
       50
176
     1
 62
   256
176
     0
 40
1.0
176
     0
 90
        2
176
     1
  1
strokes_ogs.tif
176
     1
290
     0
176
     1
 40
1.0
176
     1
 40
1.0
176
     1
  0
VISUALSTYLE
  5
34
102
{ACAD_REACTORS
330
29
102
}
330
29
100
AcDbVisualStyle
  2
Dim
 70
    11
177
     3
291
     1
 70
    58
 90
        2
176
     1
 90
        2
176
     1
 90
        0
176
     1
 90
        0
176
     1
 40
0.6
176
     1
 40
30.0
176
     1
 62
     7
420
 16777215
176
     1
 90
        1
176
     1
 90
        4
176
     1
 62
     7
176
     1
 62
   257
176
     1
 90
        1
176
     1
 90
        1
176
     1
 40
1.0
176
     1
 90
        8
176
     1
 62
     7
176
     1
 40
1.0
176
     1
 90
        1
176
     1
 90
        6
176
     1
 90
        2
176
     1
 62
     7
176
     1
 90
        5
176
     1
 90
        0
176
     1
 90
        0
176
     1
290
     0
176
     1
 90
        1
176
     1
 40
-50.0
176
     1
 90
        0
176
     1
290
     0
176
     1
290
     1
176
     1
290
     1
176
     1
290
     0
176
     1
290
     0
176
     1
290
     0
176
     1
290
     0
176
     1
290
     0
176
     1
290
     0
176
     1
 90
       50
176
     1
 40
0.0
176
     1
 40
1.0
176
     1
 90
        0
176
     1
 62
    18
420
        0
176
     1
 90
       50
176
     1
 90
        3
176
     1
 62
     5
420
      255
176
     1
290
     0
176
     1
 90
       50
176
     1
 90
       50
176
     1
 90
       50
176
     1
290
     0
176
     1
 90
       50
176
     1
 62
   256
176
     0
 40
1.0
176
     0
 90
        2
176
     1
  1
strokes_ogs.tif
176
     1
290
     0
176
     1
 40
1.0
176
     1
 40
1.0
176
     1
  0
VISUALSTYLE
  5
41
102
{ACAD_REACTORS
330
29
102
}
330
29
100
AcDbVisualStyle
  2
EdgeColorOff
 70
    22
177
     3
291
     1
 70
    58
 90
        2
176
     0
 90
        2
176
     0
 90
        0
176
     0
 90
        0
176
     0
 40
0.6
176
     0
 40
30.0
176
     0
 62
     7
420
 16777215
176
     0
 90
        1
176
     0
 90
        4
176
     0
 62
     7
176
     0
 62
   257
176
     0
 90
        1
176
     0
 90
        1
176
     0
 40
1.0
176
     0
 90
        8
176
     2
 62
     7
176
     0
 40
1.0
176
     0
 90
        1
176
     0
 90
        6
176
     0
 90
        2
176
     0
 62
     7
176
     0
 90
        5
176
     0
 90
        0
176
     0
 90
        0
176
     0
290
     0
176
     0
 90
        1
176
     0
 40
0.0
176
     0
 90
        0
176
     0
290
     0
176
     0
290
     1
176
     0
290
     1
176
     0
290
     0
176
     0
290
     0
176
     0
290
     0
176
     0
290
     0
176
     0
290
     0
176
     0
290
     0
176
     0
 90
       50
176
     0
 40
0.0
176
     0
 40
1.0
176
     0
 90
        0
176
     0
 62
    18
420
        0
176
     0
 90
       50
176
     0
 90
        3
176
     0
 62
     5
420
      255
176
     0
290
     0
176
     0
 90
       50
176
     0
 90
       50
176
     0
 90
       50
176
     0
290
     0
176
     0
 90
       50
176
     0
 62
   256
176
     0
 40
1.0
176
     0
 90
        2
176
     0
  1
strokes_ogs.tif
176
     0
290
     0
176
     0
 40
1.0
176
     0
 40
1.0
176
     0
  0
VISUALSTYLE
  5
38
102
{ACAD_REACTORS
330
29
102
}
330
29
100
AcDbVisualStyle
  2
Facepattern
 70
    15
177
     3
291
     1
 70
    58
 90
        2
176
     1
 90
        2
176
     1
 90
        0
176
     1
 90
        0
176
     1
 40
0.6
176
     1
 40
30.0
176
     1
 62
     7
420
 16777215
176
     1
 90
        1
176
     1
 90
        4
176
     1
 62
     7
176
     1
 62
   257
176
     1
 90
        1
176
     1
 90
        1
176
     1
 40
1.0
176
     1
 90
        8
176
     1
 62
     7
176
     1
 40
1.0
176
     1
 90
        1
176
     1
 90
        6
176
     1
 90
        2
176
     1
 62
     7
176
     1
 90
        5
176
     1
 90
        0
176
     1
 90
        0
176
     1
290
     0
176
     1
 90
        1
176
     1
 40
0.0
176
     1
 90
        0
176
     1
290
     0
176
     1
290
     1
176
     1
290
     1
176
     1
290
     0
176
     1
290
     0
176
     1
290
     0
176
     1
290
     0
176
     1
290
     0
176
     1
290
     0
176
     1
 90
       50
176
     1
 40
0.0
176
     1
 40
1.0
176
     1
 90
        0
176
     1
 62
    18
420
        0
176
     1
 90
       50
176
     1
 90
        3
176
     1
 62
     5
420
      255
176
     1
290
     0
176
     1
 90
       50
176
     1
 90
       50
176
     1
 90
       50
176
     1
290
     0
176
     1
 90
       50
176
     1
 62
   256
176
     0
 40
1.0
176
     0
 90
        2
176
     1
  1
strokes_ogs.tif
176
     1
290
     0
176
     1
 40
1.0
176
     1
 40
1.0
176
     1
  0
VISUALSTYLE
  5
2A
102
{ACAD_REACTORS
330
29
102
}
330
29
100
AcDbVisualStyle
  2
Flat
 70
     0
177
     3
291
     1
 70
    58
 90
        2
176
     1
 90
        1
176
     1
 90
        1
176
     1
 90
        2
176
     1
 40
0.6
176
     1
 40
30.0
176
     1
 62
     7
420
 16777215
176
     1
 90
        0
176
     1
 90
        0
176
     1
 62
     7
176
     1
 62
   257
176
     1
 90
        1
176
     1
 90
        1
176
     1
 40
1.0
176
     1
 90
        8
176
     1
 62
     7
176
     1
 40
1.0
176
     1
 90
        1
176
     1
 90
        6
176
     1
 90
        2
176
     1
 62
     7
176
     1
 90
        5
176
     1
 90
        0
176
     1
 90
        0
176
     1
290
     0
176
     1
 90
       13
176
     1
 40
0.0
176
     1
 90
        0
176
     1
290
     0
176
     1
290
     1
176
     1
290
     1
176
     1
290
     0
176
     1
290
     0
176
     1
290
     0
176
     1
290
     0
176
     1
290
     0
176
     1
290
     0
176
     1
 90
       50
176
     1
 40
0.0
176
     1
 40
1.0
176
     1
 90
        0
176
     1
 62
    18
420
        0
176
     1
 90
       50
176
     1
 90
        3
176
     1
 62
     5
420
      255
176
     1
290
     0
176
     1
 90
       50
176
     1
 90
       50
176
     1
 90
       50
176
     1
290
     0
176
     1
 90
       50
176
     1
 62
   256
176
     0
 40
1.0
176
     0
 90
        2
176
     1
  1
strokes_ogs.tif
176
     1
290
     0
176
     1
 40
1.0
176
     1
 40
1.0
176
     1
  0
VISUALSTYLE
  5
2B
102
{ACAD_REACTORS
330
29
102
}
330
29
100
AcDbVisualStyle
  2
FlatWithEdges
 70
     1
177
     3
291
     1
 70
    58
 90
        2
176
     1
 90
        1
176
     1
 90
        1
176
     1
 90
        2
176
     1
 40
0.6
176
     1
 40
30.0
176
     1
 62
     7
420
 16777215
176
     1
 90
        1
176
     1
 90
        0
176
     1
 62
     7
176
     1
 62
   257
176
     1
 90
        1
176
     1
 90
        1
176
     1
 40
1.0
176
     1
 90
        0
176
     1
 62
   257
176
     1
 40
1.0
176
     1
 90
        1
176
     1
 90
        6
176
     1
 90
        2
176
     1
 62
     7
176
     1
 90
        5
176
     1
 90
        0
176
     1
 90
        0
176
     1
290
     0
176
     1
 90
       13
176
     1
 40
0.0
176
     1
 90
        0
176
     1
290
     0
176
     1
290
     1
176
     1
290
     1
176
     1
290
     0
176
     1
290
     0
176
     1
290
     0
176
     1
290
     0
176
     1
290
     0
176
     1
290
     0
176
     1
 90
       50
176
     1
 40
0.0
176
     1
 40
1.0
176
     1
 90
        0
176
     1
 62
    18
420
        0
176
     1
 90
       50
176
     1
 90
        3
176
     1
 62
     5
420
      255
176
     1
290
     0
176
     1
 90
       50
176
     1
 90
       50
176
     1
 90
       50
176
     1
290
     0
176
     1
 90
       50
176
     1
 62
   256
176
     0
 40
1.0
176
     0
 90
        2
176
     1
  1
strokes_ogs.tif
176
     1
290
     0
176
     1
 40
1.0
176
     1
 40
1.0
176
     1
  0
VISUALSTYLE
  5
2C
102
{ACAD_REACTORS
330
29
102
}
330
29
100
AcDbVisualStyle
  2
Gouraud
 70
     2
177
     3
291
     1
 70
    58
 90
        2
176
     1
 90
        2
176
     1
 90
        1
176
     1
 90
        2
176
     1
 40
0.6
176
     1
 40
30.0
176
     1
 62
     7
420
 16777215
176
     1
 90
        0
176
     1
 90
        0
176
     1
 62
     7
176
     1
 62
   257
176
     1
 90
        1
176
     1
 90
        1
176
     1
 40
1.0
176
     1
 90
        0
176
     1
 62
     7
176
     1
 40
1.0
176
     1
 90
        1
176
     1
 90
        6
176
     1
 90
        2
176
     1
 62
     7
176
     1
 90
        5
176
     1
 90
        0
176
     1
 90
        0
176
     1
290
     0
176
     1
 90
       13
176
     1
 40
0.0
176
     1
 90
        0
176
     1
290
     0
176
     1
290
     1
176
     1
290
     1
176
     1
290
     0
176
     1
290
     0
176
     1
290
     0
176
     1
290
     0
176
     1
290
     0
176
     1
290
     0
176
     1
 90
       50
176
     1
 40
0.0
176
     1
 40
1.0
176
     1
 90
        0
176
     1
 62
    18
420
        0
176
     1
 90
       50
176
     1
 90
        3
176
     1
 62
     5
420
      255
176
     1
290
     0
176
     1
 90
       50
176
     1
 90
       50
176
     1
 90
       50
176
     1
290
     0
176
     1
 90
       50
176
     1
 62
   256
176
     0
 40
1.0
176
     0
 90
        2
176
     1
  1
strokes_ogs.tif
176
     1
290
     0
176
     1
 40
1.0
176
     1
 40
1.0
176
     1
  0
VISUALSTYLE
  5
2D
102
{ACAD_REACTORS
330
29
102
}
330
29
100
AcDbVisualStyle
  2
GouraudWithEdges
 70
     3
177
     3
291
     1
 70
    58
 90
        2
176
     1
 90
        2
176
     1
 90
        1
176
     1
 90
        2
176
     1
 40
0.6
176
     1
 40
30.0
176
     1
 62
     7
420
 16777215
176
     1
 90
        1
176
     1
 90
        0
176
     1
 62
     7
176
     1
 62
   257
176
     1
 90
        1
176
     1
 90
        1
176
     1
 40
1.0
176
     1
 90
        0
176
     1
 62
   257
176
     1
 40
1.0
176
     1
 90
        1
176
     1
 90
        6
176
     1
 90
        2
176
     1
 62
     7
176
     1
 90
        5
176
     1
 90
        0
176
     1
 90
        0
176
     1
290
     0
176
     1
 90
       13
176
     1
 40
0.0
176
     1
 90
        0
176
     1
290
     0
176
     1
290
     1
176
     1
290
     1
176
     1
290
     0
176
     1
290
     0
176
     1
290
     0
176
     1
290
     0
176
     1
290
     0
176
     1
290
     0
176
     1
 90
       50
176
     1
 40
0.0
176
     1
 40
1.0
176
     1
 90
        0
176
     1
 62
    18
420
        0
176
     1
 90
       50
176
     1
 90
        3
176
     1
 62
     5
420
      255
176
     1
290
     0
176
     1
 90
       50
176
     1
 90
       50
176
     1
 90
       50
176
     1
290
     0
176
     1
 90
       50
176
     1
 62
   256
176
     0
 40
1.0
176
     0
 90
        2
176
     1
  1
strokes_ogs.tif
176
     1
290
     0
176
     1
 40
1.0
176
     1
 40
1.0
176
     1
  0
VISUALSTYLE
  5
31
102
{ACAD_REACTORS
330
29
102
}
330
29
100
AcDbVisualStyle
  2
Hidden
 70
     6
177
     3
291
     0
 70
    58
 90
        1
176
     1
 90
        2
176
     1
 90
        2
176
     1
 90
        0
176
     1
 40
0.6
176
     1
 40
30.0
176
     1
 62
     7
420
 16777215
176
     1
 90
        2
176
     1
 90
        2
176
     1
 62
     7
176
     1
 62
   257
176
     1
 90
        2
176
     1
 90
        1
176
     1
 40
40.0
176
     1
 90
        0
176
     1
 62
   257
176
     1
 40
1.0
176
     1
 90
        1
176
     1
 90
        6
176
     1
 90
        2
176
     1
 62
     7
176
     1
 90
        3
176
     1
 90
        0
176
     1
 90
        0
176
     1
290
     0
176
     1
 90
        1
176
     1
 40
0.0
176
     1
 90
        0
176
     1
290
     0
176
     1
290
     1
176
     1
290
     1
176
     1
290
     0
176
     1
290
     0
176
     1
290
     0
176
     1
290
     0
176
     1
290
     0
176
     1
290
     0
176
     1
 90
       50
176
     1
 40
0.0
176
     1
 40
1.0
176
     1
 90
        0
176
     1
 62
    18
420
        0
176
     1
 90
       50
176
     1
 90
        3
176
     1
 62
     5
420
      255
176
     1
290
     0
176
     1
 90
       50
176
     1
 90
       50
176
     1
 90
       50
176
     1
290
     0
176
     1
 90
       50
176
     1
 62
   256
176
     0
 40
1.0
176
     0
 90
        2
176
     1
  1
strokes_ogs.tif
176
     1
290
     0
176
     1
 40
1.0
176
     1
 40
1.0
176
     1
  0
VISUALSTYLE
  5
3F
102
{ACAD_REACTORS
330
29
102
}
330
29
100
AcDbVisualStyle
  2
JitterOff
 70
    20
177
     3
291
     1
 70
    58
 90
        2
176
     0
 90
        2
176
     0
 90
        0
176
     0
 90
        0
176
     0
 40
0.6
176
     0
 40
30.0
176
     0
 62
     7
420
 16777215
176
     0
 90
        1
176
     0
 90
        4
176
     0
 62
     7
176
     0
 62
   257
176
     0
 90
        1
176
     0
 90
        1
176
     0
 40
1.0
176
     0
 90
       10
176
     2
 62
     7
176
     0
 40
1.0
176
     0
 90
        1
176
     0
 90
        6
176
     0
 90
        2
176
     0
 62
     7
176
     0
 90
        5
176
     0
 90
        0
176
     0
 90
        0
176
     0
290
     0
176
     0
 90
        1
176
     0
 40
0.0
176
     0
 90
        0
176
     0
290
     0
176
     0
290
     1
176
     0
290
     1
176
     0
290
     0
176
     0
290
     0
176
     0
290
     0
176
     0
290
     0
176
     0
290
     0
176
     0
290
     0
176
     0
 90
       50
176
     0
 40
0.0
176
     0
 40
1.0
176
     0
 90
        0
176
     0
 62
    18
420
        0
176
     0
 90
       50
176
     0
 90
        3
176
     0
 62
     5
420
      255
176
     0
290
     0
176
     0
 90
       50
176
     0
 90
       50
176
     0
 90
       50
176
     0
290
     0
176
     0
 90
       50
176
     0
 62
   256
176
     0
 40
1.0
176
     0
 90
        2
176
     0
  1
strokes_ogs.tif
176
     0
290
     0
176
     0
 40
1.0
176
     0
 40
1.0
176
     0
  0
VISUALSTYLE
  5
37
102
{ACAD_REACTORS
330
29
102
}
330
29
100
AcDbVisualStyle
  2
Linepattern
 70
    14
177
     3
291
     1
 70
    58
 90
        2
176
     1
 90
        2
176
     1
 90
        0
176
     1
 90
        0
176
     1
 40
0.6
176
     1
 40
30.0
176
     1
 62
     7
420
 16777215
176
     1
 90
        1
176
     1
 90
        4
176
     1
 62
     7
176
     1
 62
   257
176
     1
 90
        7
176
     1
 90
        7
176
     1
 40
1.0
176
     1
 90
        8
176
     1
 62
     7
176
     1
 40
1.0
176
     1
 90
        1
176
     1
 90
        6
176
     1
 90
        2
176
     1
 62
     7
176
     1
 90
        5
176
     1
 90
        0
176
     1
 90
        0
176
     1
290
     0
176
     1
 90
        1
176
     1
 40
0.0
176
     1
 90
        0
176
     1
290
     0
176
     1
290
     1
176
     1
290
     1
176
     1
290
     0
176
     1
290
     0
176
     1
290
     0
176
     1
290
     0
176
     1
290
     0
176
     1
290
     0
176
     1
 90
       50
176
     1
 40
0.0
176
     1
 40
1.0
176
     1
 90
        0
176
     1
 62
    18
420
        0
176
     1
 90
       50
176
     1
 90
        3
176
     1
 62
     5
420
      255
176
     1
290
     0
176
     1
 90
       50
176
     1
 90
       50
176
     1
 90
       50
176
     1
290
     0
176
     1
 90
       50
176
     1
 62
   256
176
     0
 40
1.0
176
     0
 90
        2
176
     1
  1
strokes_ogs.tif
176
     1
290
     0
176
     1
 40
1.0
176
     1
 40
1.0
176
     1
  0
VISUALSTYLE
  5
40
102
{ACAD_REACTORS
330
29
102
}
330
29
100
AcDbVisualStyle
  2
OverhangOff
 70
    21
177
     3
291
     1
 70
    58
 90
        2
176
     0
 90
        2
176
     0
 90
        0
176
     0
 90
        0
176
     0
 40
0.6
176
     0
 40
30.0
176
     0
 62
     7
420
 16777215
176
     0
 90
        1
176
     0
 90
        4
176
     0
 62
     7
176
     0
 62
   257
176
     0
 90
        1
176
     0
 90
        1
176
     0
 40
1.0
176
     0
 90
        9
176
     2
 62
     7
176
     0
 40
1.0
176
     0
 90
        1
176
     0
 90
        6
176
     0
 90
        2
176
     0
 62
     7
176
     0
 90
        5
176
     0
 90
        0
176
     0
 90
        0
176
     0
290
     0
176
     0
 90
        1
176
     0
 40
0.0
176
     0
 90
        0
176
     0
290
     0
176
     0
290
     1
176
     0
290
     1
176
     0
290
     0
176
     0
290
     0
176
     0
290
     0
176
     0
290
     0
176
     0
290
     0
176
     0
290
     0
176
     0
 90
       50
176
     0
 40
0.0
176
     0
 40
1.0
176
     0
 90
        0
176
     0
 62
    18
420
        0
176
     0
 90
       50
176
     0
 90
        3
176
     0
 62
     5
420
      255
176
     0
290
     0
176
     0
 90
       50
176
     0
 90
       50
176
     0
 90
       50
176
     0
290
     0
176
     0
 90
       50
176
     0
 62
   256
176
     0
 40
1.0
176
     0
 90
        2
176
     0
  1
strokes_ogs.tif
176
     0
290
     0
176
     0
 40
1.0
176
     0
 40
1.0
176
     0
  0
VISUALSTYLE
  5
33
102
{ACAD_REACTORS
330
29
102
}
330
29
100
AcDbVisualStyle
  2
Realistic
 70
     8
177
     3
291
     0
 70
    58
 90
        2
176
     1
 90
        3
176
     1
 90
        0
176
     1
 90
        2
176
     1
 40
0.6
176
     1
 40
30.0
176
     1
 62
     7
420
 16777215
176
     1
 90
        0
176
     1
 90
        0
176
     1
 62
     7
176
     1
 62
   257
176
     1
 90
        1
176
     1
 90
        1
176
     1
 40
1.0
176
     1
 90
        8
176
     1
 62
   257
176
     1
 40
1.0
176
     1
 90
        1
176
     1
 90
        6
176
     1
 90
        2
176
     1
 62
     7
176
     1
 90
        3
176
     1
 90
        0
176
     1
 90
        0
176
     1
290
     0
176
     1
 90
       13
176
     1
 40
0.0
176
     1
 90
        0
176
     1
290
     0
176
     1
290
     1
176
     1
290
     1
176
     1
290
     0
176
     1
290
     0
176
     1
290
     0
176
     1
290
     0
176
     1
290
     0
176
     1
290
     0
176
     1
 90
       50
176
     1
 40
0.0
176
     1
 40
1.0
176
     1
 90
        0
176
     1
 62
    18
420
        0
176
     1
 90
       50
176
     1
 90
        3
176
     1
 62
     5
420
      255
176
     1
290
     0
176
     1
 90
       50
176
     1
 90
       50
176
     1
 90
       50
176
     1
290
     0
176
     1
 90
       50
176
     1
 62
   256
176
     0
 40
1.0
176
     0
 90
        2
176
     1
  1
strokes_ogs.tif
176
     1
290
     0
176
     1
 40
1.0
176
     1
 40
1.0
176
     1
  0
VISUALSTYLE
  5
3E
102
{ACAD_REACTORS
330
29
102
}
330
29
100
AcDbVisualStyle
  2
Shaded
 70
    27
177
     3
291
     0
 70
    58
 90
        2
176
     1
 90
        2
176
     1
 90
        1
176
     1
 90
        2
176
     1
 40
0.6
176
     1
 40
30.0
176
     1
 62
     7
420
 16777215
176
     1
 90
        0
176
     1
 90
        4
176
     1
 62
     7
176
     1
 62
   257
176
     1
 90
        1
176
     1
 90
        1
176
     1
 40
1.0
176
     1
 90
        8
176
     1
 62
   257
176
     1
 40
1.0
176
     1
 90
        1
176
     1
 90
        6
176
     1
 90
        2
176
     1
 62
     8
420
  7895160
176
     1
 90
        3
176
     1
 90
        0
176
     1
 90
        0
176
     1
290
     0
176
     1
 90
        5
176
     1
 40
0.0
176
     1
 90
        0
176
     1
290
     0
176
     1
290
     1
176
     1
290
     1
176
     1
290
     0
176
     1
290
     0
176
     1
290
     0
176
     1
290
     0
176
     1
290
     0
176
     1
290
     0
176
     1
 90
       50
176
     1
 40
0.0
176
     1
 40
1.0
176
     1
 90
        0
176
     1
 62
    18
420
        0
176
     1
 90
       50
176
     1
 90
        3
176
     1
 62
     5
420
      255
176
     1
290
     0
176
     1
 90
       50
176
     1
 90
       50
176
     1
 90
       50
176
     1
290
     0
176
     1
 90
       50
176
     1
 62
   256
176
     0
 40
1.0
176
     0
 90
        2
176
     1
  1
strokes_ogs.tif
176
     1
290
     0
176
     1
 40
1.0
176
     1
 40
1.0
176
     1
  0
VISUALSTYLE
  5
3D
102
{ACAD_REACTORS
330
29
102
}
330
29
100
AcDbVisualStyle
  2
Shaded with edges
 70
    26
177
     3
291
     0
 70
    58
 90
        2
176
     1
 90
        2
176
     1
 90
        1
176
     1
 90
        2
176
     1
 40
0.6
176
     1
 40
30.0
176
     1
 62
     7
420
 16777215
176
     1
 90
        1
176
     1
 90
        2
176
     1
 62
     7
176
     1
 62
   257
176
     1
 90
        2
176
     1
 90
        1
176
     1
 40
1.0
176
     1
 90
        8
176
     1
 62
   257
176
     1
 40
1.0
176
     1
 90
        1
176
     1
 90
        6
176
     1
 90
        2
176
     1
 62
     7
176
     1
 90
        3
176
     1
 90
        0
176
     1
 90
        0
176
     1
290
     0
176
     1
 90
        5
176
     1
 40
0.0
176
     1
 90
        0
176
     1
290
     0
176
     1
290
     1
176
     1
290
     1
176
     1
290
     0
176
     1
290
     0
176
     1
290
     0
176
     1
290
     0
176
     1
290
     0
176
     1
290
     0
176
     1
 90
       50
176
     1
 40
0.0
176
     1
 40
1.0
176
     1
 90
        0
176
     1
 62
    18
420
        0
176
     1
 90
       50
176
     1
 90
        3
176
     1
 62
     5
420
      255
176
     1
290
     0
176
     1
 90
       50
176
     1
 90
       50
176
     1
 90
       50
176
     1
290
     0
176
     1
 90
       50
176
     1
 62
   256
176
     0
 40
1.0
176
     0
 90
        2
176
     1
  1
strokes_ogs.tif
176
     1
290
     0
176
     1
 40
1.0
176
     1
 40
1.0
176
     1
  0
VISUALSTYLE
  5
3A
102
{ACAD_REACTORS
330
29
102
}
330
29
100
AcDbVisualStyle
  2
Shades of Gray
 70
    23
177
     3
291
     0
 70
    58
 90
        2
176
     1
 90
        2
176
     1
 90
        3
176
     1
 90
        0
176
     1
 40
0.6
176
     1
 40
30.0
176
     1
 62
     7
420
 16777215
176
     1
 90
        2
176
     1
 90
        2
176
     1
 62
     7
176
     1
 62
     7
176
     1
 90
        1
176
     1
 90
        1
176
     1
 40
40.0
176
     1
 90
        8
176
     1
 62
     7
176
     1
 40
1.0
176
     1
 90
        1
176
     1
 90
        6
176
     1
 90
        2
176
     1
 62
     7
176
     1
 90
        3
176
     1
 90
        0
176
     1
 90
        0
176
     1
290
     0
176
     1
 90
        1
176
     1
 40
0.0
176
     1
 90
        0
176
     1
290
     0
176
     1
290
     1
176
     1
290
     1
176
     1
290
     0
176
     1
290
     0
176
     1
290
     0
176
     1
290
     0
176
     1
290
     0
176
     1
290
     0
176
     1
 90
       50
176
     1
 40
0.0
176
     1
 40
1.0
176
     1
 90
        0
176
     1
 62
    18
420
        0
176
     1
 90
       50
176
     1
 90
        3
176
     1
 62
     5
420
      255
176
     1
290
     0
176
     1
 90
       50
176
     1
 90
       50
176
     1
 90
       50
176
     1
290
     0
176
     1
 90
       50
176
     1
 62
   256
176
     0
 40
1.0
176
     0
 90
        2
176
     1
  1
strokes_ogs.tif
176
     1
290
     0
176
     1
 40
1.0
176
     1
 40
1.0
176
     1
  0
VISUALSTYLE
  5
3B
102
{ACAD_REACTORS
330
29
102
}
330
29
100
AcDbVisualStyle
  2
Sketchy
 70
    24
177
     3
291
     0
 70
    58
 90
        1
176
     1
 90
        2
176
     1
 90
        2
176
     1
 90
        0
176
     1
 40
0.6
176
     1
 40
30.0
176
     1
 62
     7
420
 16777215
176
     1
 90
        2
176
     1
 90
        2
176
     1
 62
     7
176
     1
 62
     7
176
     1
 90
        1
176
     1
 90
        1
176
     1
 40
40.0
176
     1
 90
       11
176
     1
 62
     7
176
     1
 40
1.0
176
     1
 90
        1
176
     1
 90
        6
176
     1
 90
        2
176
     1
 62
     7
176
     1
 90
        6
176
     1
 90
        0
176
     1
 90
        0
176
     1
290
     0
176
     1
 90
        1
176
     1
 40
0.0
176
     1
 90
        0
176
     1
290
     0
176
     1
290
     1
176
     1
290
     1
176
     1
290
     0
176
     1
290
     0
176
     1
290
     0
176
     1
290
     0
176
     1
290
     0
176
     1
290
     0
176
     1
 90
       50
176
     1
 40
0.0
176
     1
 40
1.0
176
     1
 90
        0
176
     1
 62
    18
420
        0
176
     1
 90
       50
176
     1
 90
        3
176
     1
 62
     5
420
      255
176
     1
290
     0
176
     1
 90
       50
176
     1
 90
       50
176
     1
 90
       50
176
     1
290
     0
176
     1
 90
       50
176
     1
 62
   256
176
     0
 40
1.0
176
     0
 90
        2
176
     1
  1
strokes_ogs.tif
176
     1
290
     0
176
     1
 40
1.0
176
     1
 40
1.0
176
     1
  0
VISUALSTYLE
  5
36
102
{ACAD_REACTORS
330
29
102
}
330
29
100
AcDbVisualStyle
  2
Thicken
 70
    13
177
     3
291
     1
 70
    58
 90
        2
176
     1
 90
        2
176
     1
 90
        0
176
     1
 90
        0
176
     1
 40
0.6
176
     1
 40
30.0
176
     1
 62
     7
420
 16777215
176
     1
 90
        1
176
     1
 90
        4
176
     1
 62
     7
176
     1
 62
   257
176
     1
 90
        1
176
     1
 90
        1
176
     1
 40
1.0
176
     1
 90
       12
176
     1
 62
     7
176
     1
 40
1.0
176
     1
 90
        1
176
     1
 90
        6
176
     1
 90
        2
176
     1
 62
     7
176
     1
 90
        5
176
     1
 90
        0
176
     1
 90
        0
176
     1
290
     0
176
     1
 90
        1
176
     1
 40
0.0
176
     1
 90
        0
176
     1
290
     0
176
     1
290
     1
176
     1
290
     1
176
     1
290
     0
176
     1
290
     0
176
     1
290
     0
176
     1
290
     0
176
     1
290
     0
176
     1
290
     0
176
     1
 90
       50
176
     1
 40
0.0
176
     1
 40
1.0
176
     1
 90
        0
176
     1
 62
    18
420
        0
176
     1
 90
       50
176
     1
 90
        3
176
     1
 62
     5
420
      255
176
     1
290
     0
176
     1
 90
       50
176
     1
 90
       50
176
     1
 90
       50
176
     1
290
     0
176
     1
 90
       50
176
     1
 62
   256
176
     0
 40
1.0
176
     0
 90
        2
176
     1
  1
strokes_ogs.tif
176
     1
290
     0
176
     1
 40
1.0
176
     1
 40
1.0
176
     1
  0
VISUALSTYLE
  5
30
102
{ACAD_REACTORS
330
29
102
}
330
29
100
AcDbVisualStyle
  2
Wireframe
 70
     5
177
     3
291
     0
 70
    58
 90
        0
176
     1
 90
        2
176
     1
 90
        0
176
     1
 90
        0
176
     1
 40
0.6
176
     1
 40
30.0
176
     1
 62
     7
420
 16777215
176
     1
 90
        1
176
     1
 90
        4
176
     1
 62
     7
176
     1
 62
   257
176
     1
 90
        1
176
     1
 90
        1
176
     1
 40
1.0
176
     1
 90
        0
176
     1
 62
   257
176
     1
 40
1.0
176
     1
 90
        1
176
     1
 90
        6
176
     1
 90
        2
176
     1
 62
     7
176
     1
 90
        3
176
     1
 90
        0
176
     1
 90
        0
176
     1
290
     0
176
     1
 90
        1
176
     1
 40
0.0
176
     1
 90
        0
176
     1
290
     0
176
     1
290
     1
176
     1
290
     1
176
     1
290
     0
176
     1
290
     0
176
     1
290
     0
176
     1
290
     0
176
     1
290
     0
176
     1
290
     0
176
     1
 90
       50
176
     1
 40
0.0
176
     1
 40
1.0
176
     1
 90
        0
176
     1
 62
    18
420
        0
176
     1
 90
       50
176
     1
 90
        3
176
     1
 62
     5
420
      255
176
     1
290
     0
176
     1
 90
       50
176
     1
 90
       50
176
     1
 90
       50
176
     1
290
     0
176
     1
 90
       50
176
     1
 62
   256
176
     0
 40
1.0
176
     0
 90
        2
176
     1
  1
strokes_ogs.tif
176
     1
290
     0
176
     1
 40
1.0
176
     1
 40
1.0
176
     1
  0
VISUALSTYLE
  5
3C
102
{ACAD_REACTORS
330
29
102
}
330
29
100
AcDbVisualStyle
  2
X-Ray
 70
    25
177
     3
291
     0
 70
    58
 90
        2
176
     1
 90
        2
176
     1
 90
        1
176
     1
 90
        1
176
     1
 40
0.5
176
     1
 40
30.0
176
     1
 62
     7
420
 16777215
176
     1
 90
        1
176
     1
 90
        0
176
     1
 62
     7
176
     1
 62
   257
176
     1
 90
        1
176
     1
 90
        1
176
     1
 40
1.0
176
     1
 90
        8
176
     1
 62
     7
176
     1
 40
1.0
176
     1
 90
        1
176
     1
 90
        6
176
     1
 90
        2
176
     1
 62
     7
176
     1
 90
        3
176
     1
 90
        0
176
     1
 90
        0
176
     1
290
     0
176
     1
 90
       13
176
     1
 40
0.0
176
     1
 90
        0
176
     1
290
     0
176
     1
290
     1
176
     1
290
     1
176
     1
290
     0
176
     1
290
     0
176
     1
290
     0
176
     1
290
     0
176
     1
290
     0
176
     1
290
     0
176
     1
 90
       50
176
     1
 40
0.0
176
     1
 40
1.0
176
     1
 90
        0
176
     1
 62
    18
420
        0
176
     1
 90
       50
176
     1
 90
        3
176
     1
 62
     5
420
      255
176
     1
290
     0
176
     1
 90
       50
176
     1
 90
       50
176
     1
 90
       50
176
     1
290
     0
176
     1
 90
       50
176
     1
 62
   256
176
     0
 40
1.0
176
     0
 90
        2
176
     1
  1
strokes_ogs.tif
176
     1
290
     0
176
     1
 40
1.0
176
     1
 40
1.0
176
     1
  0
DICTIONARYVAR
  5
1A4
102
{ACAD_REACTORS
330
19F
102
}
330
19F
100
DictionaryVariables
280
     0
  1
1:1
  0
DICTIONARYVAR
  5
1A1
102
{ACAD_REACTORS
330
19F
102
}
330
19F
100
DictionaryVariables
280
     0
  1
STANDARD
  0
DICTIONARYVAR
  5
1A0
102
{ACAD_REACTORS
330
19F
102
}
330
19F
100
DictionaryVariables
280
     0
  1
STANDARD
  0
DICTIONARYVAR
  5
1A2
102
{ACAD_REACTORS
330
19F
102
}
330
19F
100
DictionaryVariables
280
     0
  1
Imperial24
  0
DICTIONARYVAR
  5
1A3
102
{ACAD_REACTORS
330
19F
102
}
330
19F
100
DictionaryVariables
280
     0
  1
Imperial24
  0
DICTIONARY
  5
1A
330
19
100
AcDbDictionary
280
     1
281
     1
  3
BUMPTILE
360
1C
  3
DIFFUSETILE
360
1B
  3
OPACITYTILE
360
1F
  3
REFLECTIONTILE
360
1E
  3
REFRACTIONTILE
360
20
  3
SPECULARTILE
360
1D
  0
DICTIONARY
  5
12
330
11
100
AcDbDictionary
280
     1
281
     1
  3
BUMPTILE
360
14
  3
DIFFUSETILE
360
13
  3
OPACITYTILE
360
17
  3
REFLECTIONTILE
360
16
  3
REFRACTIONTILE
360
18
  3
SPECULARTILE
360
15
  0
DICTIONARY
  5
22
330
21
100
AcDbDictionary
280
     1
281
     1
  3
BUMPTILE
360
24
  3
DIFFUSETILE
360
23
  3
OPACITYTILE
360
27
  3
REFLECTIONTILE
360
26
  3
REFRACTIONTILE
360
28
  3
SPECULARTILE
360
25
  0
DICTIONARY
  5
1A5
330
65
100
AcDbDictionary
280
     1
281
     1
  3
ACAD_ROUNDTRIP_2008_TABLESTYLE_CELLSTYLEMAP
360
1A6
  0
XRECORD
  5
1C
102
{ACAD_REACTORS
330
1A
102
}
330
1A
100
AcDbXrecord
280
     1
270
     1
271
     1
  0
XRECORD
  5
1B
102
{ACAD_REACTORS
330
1A
102
}
330
1A
100
AcDbXrecord
280
     1
270
     1
271
     1
  0
XRECORD
  5
1F
102
{ACAD_REACTORS
330
1A
102
}
330
1A
100
AcDbXrecord
280
     1
270
     1
271
     1
  0
XRECORD
  5
1E
102
{ACAD_REACTORS
330
1A
102
}
330
1A
100
AcDbXrecord
280
     1
270
     1
271
     1
  0
XRECORD
  5
20
102
{ACAD_REACTORS
330
1A
102
}
330
1A
100
AcDbXrecord
280
     1
270
     1
271
     1
  0
XRECORD
  5
1D
102
{ACAD_REACTORS
330
1A
102
}
330
1A
100
AcDbXrecord
280
     1
270
     1
271
     1
  0
XRECORD
  5
14
102
{ACAD_REACTORS
330
12
102
}
330
12
100
AcDbXrecord
280
     1
270
     1
271
     1
  0
XRECORD
  5
13
102
{ACAD_REACTORS
330
12
102
}
330
12
100
AcDbXrecord
280
     1
270
     1
271
     1
  0
XRECORD
  5
17
102
{ACAD_REACTORS
330
12
102
}
330
12
100
AcDbXrecord
280
     1
270
     1
271
     1
  0
XRECORD
  5
16
102
{ACAD_REACTORS
330
12
102
}
330
12
100
AcDbXrecord
280
     1
270
     1
271
     1
  0
XRECORD
  5
18
102
{ACAD_REACTORS
330
12
102
}
330
12
100
AcDbXrecord
280
     1
270
     1
271
     1
  0
XRECORD
  5
15
102
{ACAD_REACTORS
330
12
102
}
330
12
100
AcDbXrecord
280
     1
270
     1
271
     1
  0
XRECORD
  5
24
102
{ACAD_REACTORS
330
22
102
}
330
22
100
AcDbXrecord
280
     1
270
     1
271
     1
  0
XRECORD
  5
23
102
{ACAD_REACTORS
330
22
102
}
330
22
100
AcDbXrecord
280
     1
270
     1
271
     1
  0
XRECORD
  5
27
102
{ACAD_REACTORS
330
22
102
}
330
22
100
AcDbXrecord
280
     1
270
     1
271
     1
  0
XRECORD
  5
26
102
{ACAD_REACTORS
330
22
102
}
330
22
100
AcDbXrecord
280
     1
270
     1
271
     1
  0
XRECORD
  5
28
102
{ACAD_REACTORS
330
22
102
}
330
22
100
AcDbXrecord
280
     1
270
     1
271
     1
  0
XRECORD
  5
25
102
{ACAD_REACTORS
330
22
102
}
330
22
100
AcDbXrecord
280
     1
270
     1
271
     1
  0
CELLSTYLEMAP
  5
1A6
102
{ACAD_REACTORS
330
1A5
102
}
330
1A5
100
AcDbCellStyleMap
 90
        3
300
CELLSTYLE
  1
TABLEFORMAT_BEGIN
 90
        5
170
     1
 91
        0
 92
    32768
 62
   257
 93
        1
300
CONTENTFORMAT
  1
CONTENTFORMAT_BEGIN
 90
        0
 91
        0
 92
      512
 93
        0
300

 40
0.0
140
1.0
 94
        5
 62
     0
340
55
144
0.25
309
CONTENTFORMAT_END
171
     0
 94
        0
309
TABLEFORMAT_END
  1
CELLSTYLE_BEGIN
 90
        1
 91
        1
300
_TITLE
309
CELLSTYLE_END
300
CELLSTYLE
  1
TABLEFORMAT_BEGIN
 90
        5
170
     1
 91
        0
 92
        0
 62
   257
 93
        1
300
CONTENTFORMAT
  1
CONTENTFORMAT_BEGIN
 90
        0
 91
        0
 92
      512
 93
        0
300

 40
0.0
140
1.0
 94
        5
 62
     0
340
55
144
0.18
309
CONTENTFORMAT_END
171
     0
 94
        0
309
TABLEFORMAT_END
  1
CELLSTYLE_BEGIN
 90
        2
 91
        1
300
_HEADER
309
CELLSTYLE_END
300
CELLSTYLE
  1
TABLEFORMAT_BEGIN
 90
        5
170
     1
 91
        0
 92
        0
 62
   257
 93
        1
300
CONTENTFORMAT
  1
CONTENTFORMAT_BEGIN
 90
        0
 91
        0
 92
      512
 93
        0
300

 40
0.0
140
1.0
 94
        2
 62
     0
340
55
144
0.18
309
CONTENTFORMAT_END
171
     0
 94
        0
309
TABLEFORMAT_END
  1
CELLSTYLE_BEGIN
 90
        3
 91
        2
300
_DATA
309
CELLSTYLE_END
  0
ENDSEC
  0
EOF
