  0
SECTION
  2
HEADER
  9
$ACADVER
  1
AC1032
  9
$ACADMAINTVER
 90
      251
  9
$DWGCODEPAGE
  3
ANSI_1252
  9
$REQUIREDVERSIONS
160
                 0
  9
$INSBASE
 10
0.0
 20
0.0
 30
0.0
  9
$EXTMIN
 10
1.000000000000000E+20
 20
1.000000000000000E+20
 30
1.000000000000000E+20
  9
$EXTMAX
 10
-1.000000000000000E+20
 20
-1.000000000000000E+20
 30
-1.000000000000000E+20
  9
$LIMMIN
 10
0.0
 20
0.0
  9
$LIMMAX
 10
12.0
 20
9.0
  9
$ORTHOMODE
 70
     0
  9
$REGENMODE
 70
     1
  9
$FILLMODE
 70
     1
  9
$QTEXTMODE
 70
     0
  9
$MIRRTEXT
 70
     0
  9
$LTSCALE
 40
1.0
  9
$ATTMODE
 70
     1
  9
$TEXTSIZE
 40
0.2
  9
$TRACEWID
 40
0.05
  9
$TEXTSTYLE
  7
Standard
  9
$CLAYER
  8
0
  9
$CELTYPE
  6
ByLayer
  9
$CECOLOR
 62
   256
  9
$CELTSCALE
 40
1.0
  9
$DISPSILH
 70
     0
  9
$DIMSCALE
 40
1.0
  9
$DIMASZ
 40
0.18
  9
$DIMEXO
 40
0.0625
  9
$DIMDLI
 40
0.38
  9
$DIMRND
 40
0.0
  9
$DIMDLE
 40
0.0
  9
$DIMEXE
 40
0.18
  9
$DIMTP
 40
0.0
  9
$DIMTM
 40
0.0
  9
$DIMTXT
 40
0.18
  9
$DIMCEN
 40
0.09
  9
$DIMTSZ
 40
0.0
  9
$DIMTOL
 70
     0
  9
$DIMLIM
 70
     0
  9
$DIMTIH
 70
     1
  9
$DIMTOH
 70
     1
  9
$DIMSE1
 70
     0
  9
$DIMSE2
 70
     0
  9
$DIMTAD
 70
     0
  9
$DIMZIN
 70
     0
  9
$DIMBLK
  1

  9
$DIMASO
 70
     1
  9
$DIMSHO
 70
     1
  9
$DIMPOST
  1

  9
$DIMAPOST
  1

  9
$DIMALT
 70
     0
  9
$DIMALTD
 70
     2
  9
$DIMALTF
 40
25.4
  9
$DIMLFAC
 40
1.0
  9
$DIMTOFL
 70
     0
  9
$DIMTVP
 40
0.0
  9
$DIMTIX
 70
     0
  9
$DIMSOXD
 70
     0
  9
$DIMSAH
 70
     0
  9
$DIMBLK1
  1

  9
$DIMBLK2
  1

  9
$DIMSTYLE
  2
Standard
  9
$DIMCLRD
 70
     0
  9
$DIMCLRE
 70
     0
  9
$DIMCLRT
 70
     0
  9
$DIMTFAC
 40
1.0
  9
$DIMGAP
 40
0.09
  9
$DIMJUST
 70
     0
  9
$DIMSD1
 70
     0
  9
$DIMSD2
 70
     0
  9
$DIMTOLJ
 70
     1
  9
$DIMTZIN
 70
     0
  9
$DIMALTZ
 70
     0
  9
$DIMALTTZ
 70
     0
  9
$DIMUPT
 70
     0
  9
$DIMDEC
 70
     4
  9
$DIMTDEC
 70
     4
  9
$DIMALTU
 70
     2
  9
$DIMALTTD
 70
     2
  9
$DIMTXSTY
  7
Standard
  9
$DIMAUNIT
 70
     0
  9
$DIMADEC
 70
     0
  9
$DIMALTRND
 40
0.0
  9
$DIMAZIN
 70
     0
  9
$DIMDSEP
 70
    46
  9
$DIMATFIT
 70
     3
  9
$DIMFRAC
 70
     0
  9
$DIMLDRBLK
  1

  9
$DIMLUNIT
 70
     2
  9
$DIMLWD
 70
    -2
  9
$DIMLWE
 70
    -2
  9
$DIMTMOVE
 70
     0
  9
$DIMFXL
 40
1.0
  9
$DIMFXLON
 70
     0
  9
$DIMJOGANG
 40
0.7853981633974483
  9
$DIMTFILL
 70
     0
  9
$DIMTFILLCLR
 70
     0
  9
$DIMARCSYM
 70
     0
  9
$DIMLTYPE
  6

  9
$DIMLTEX1
  6

  9
$DIMLTEX2
  6

  9
$DIMTXTDIRECTION
 70
     0
  9
$LUNITS
 70
     2
  9
$LUPREC
 70
     4
  9
$SKETCHINC
 40
0.1
  9
$FILLETRAD
 40
0.0
  9
$AUNITS
 70
     0
  9
$AUPREC
 70
     0
  9
$MENU
  1
.
  9
$ELEVATION
 40
0.0
  9
$PELEVATION
 40
0.0
  9
$THICKNESS
 40
0.0
  9
$LIMCHECK
 70
     0
  9
$CHAMFERA
 40
0.0
  9
$CHAMFERB
 40
0.0
  9
$CHAMFERC
 40
0.0
  9
$CHAMFERD
 40
0.0
  9
$SKPOLY
 70
     0
  9
$TDCREATE
 40
2460035.510150463
  9
$TDUCREATE
 40
2460035.426817130
  9
$TDUPDATE
 40
2460035.510150463
  9
$TDUUPDATE
 40
2460035.426817130
  9
$TDINDWG
 40
0.0000000000
  9
$TDUSRTIMER
 40
0.0000000000
  9
$USRTIMER
 70
     1
  9
$ANGBASE
 50
0.0
  9
$ANGDIR
 70
     0
  9
$PDMODE
 70
     0
  9
$PDSIZE
 40
0.0
  9
$PLINEWID
 40
0.0
  9
$SPLFRAME
 70
     0
  9
$SPLINETYPE
 70
     6
  9
$SPLINESEGS
 70
     8
  9
$HANDSEED
  5
269
  9
$SURFTAB1
 70
     6
  9
$SURFTAB2
 70
     6
  9
$SURFTYPE
 70
     6
  9
$SURFU
 70
     6
  9
$SURFV
 70
     6
  9
$UCSBASE
  2

  9
$UCSNAME
  2

  9
$UCSORG
 10
0.0
 20
0.0
 30
0.0
  9
$UCSXDIR
 10
1.0
 20
0.0
 30
0.0
  9
$UCSYDIR
 10
0.0
 20
1.0
 30
0.0
  9
$UCSORTHOREF
  2

  9
$UCSORTHOVIEW
 70
     0
  9
$UCSORGTOP
 10
0.0
 20
0.0
 30
0.0
  9
$UCSORGBOTTOM
 10
0.0
 20
0.0
 30
0.0
  9
$UCSORGLEFT
 10
0.0
 20
0.0
 30
0.0
  9
$UCSORGRIGHT
 10
0.0
 20
0.0
 30
0.0
  9
$UCSORGFRONT
 10
0.0
 20
0.0
 30
0.0
  9
$UCSORGBACK
 10
0.0
 20
0.0
 30
0.0
  9
$PUCSBASE
  2

  9
$PUCSNAME
  2

  9
$PUCSORG
 10
0.0
 20
0.0
 30
0.0
  9
$PUCSXDIR
 10
1.0
 20
0.0
 30
0.0
  9
$PUCSYDIR
 10
0.0
 20
1.0
 30
0.0
  9
$PUCSORTHOREF
  2

  9
$PUCSORTHOVIEW
 70
     0
  9
$PUCSORGTOP
 10
0.0
 20
0.0
 30
0.0
  9
$PUCSORGBOTTOM
 10
0.0
 20
0.0
 30
0.0
  9
$PUCSORGLEFT
 10
0.0
 20
0.0
 30
0.0
  9
$PUCSORGRIGHT
 10
0.0
 20
0.0
 30
0.0
  9
$PUCSORGFRONT
 10
0.0
 20
0.0
 30
0.0
  9
$PUCSORGBACK
 10
0.0
 20
0.0
 30
0.0
  9
$USERI1
 70
     0
  9
$USERI2
 70
     0
  9
$USERI3
 70
     0
  9
$USERI4
 70
     0
  9
$USERI5
 70
     0
  9
$USERR1
 40
0.0
  9
$USERR2
 40
0.0
  9
$USERR3
 40
0.0
  9
$USERR4
 40
0.0
  9
$USERR5
 40
0.0
  9
$WORLDVIEW
 70
     1
  9
$SHADEDGE
 70
     3
  9
$SHADEDIF
 70
    70
  9
$TILEMODE
 70
     1
  9
$MAXACTVP
 70
    64
  9
$PINSBASE
 10
0.0
 20
0.0
 30
0.0
  9
$PLIMCHECK
 70
     0
  9
$PEXTMIN
 10
1.000000000000000E+20
 20
1.000000000000000E+20
 30
1.000000000000000E+20
  9
$PEXTMAX
 10
-1.000000000000000E+20
 20
-1.000000000000000E+20
 30
-1.000000000000000E+20
  9
$PLIMMIN
 10
0.0
 20
0.0
  9
$PLIMMAX
 10
12.0
 20
9.0
  9
$UNITMODE
 70
     0
  9
$VISRETAIN
 70
     1
  9
$PLINEGEN
 70
     0
  9
$PSLTSCALE
 70
     1
  9
$TREEDEPTH
 70
  3020
  9
$CMLSTYLE
  2
Standard
  9
$CMLJUST
 70
     0
  9
$CMLSCALE
 40
1.0
  9
$PROXYGRAPHICS
 70
     1
  9
$MEASUREMENT
 70
     0
  9
$CELWEIGHT
370
    -1
  9
$ENDCAPS
280
     0
  9
$JOINSTYLE
280
     0
  9
$LWDISPLAY
290
     1
  9
$INSUNITS
 70
     4
  9
$HYPERLINKBASE
  1

  9
$STYLESHEET
  1

  9
$XEDIT
290
     1
  9
$CEPSNTYPE
380
     0
  9
$PSTYLEMODE
290
     1
  9
$FINGERPRINTGUID
  2
{0F7B80DD-B146-1B4B-AEEF-18711466C9A3}
  9
$VERSIONGUID
  2
{ACCD9B49-6BB9-C746-9963-FEB528539749}
  9
$EXTNAMES
290
     1
  9
$PSVPSCALE
 40
0.0
  9
$OLESTARTUP
290
     0
  9
$SORTENTS
280
   127
  9
$INDEXCTL
280
     0
  9
$HIDETEXT
280
     1
  9
$XCLIPFRAME
280
     2
  9
$HALOGAP
280
     0
  9
$OBSCOLOR
 70
   257
  9
$OBSLTYPE
280
     0
  9
$INTERSECTIONDISPLAY
280
     0
  9
$INTERSECTIONCOLOR
 70
   257
  9
$DIMASSOC
280
     2
  9
$PROJECTNAME
  1

  9
$CAMERADISPLAY
290
     0
  9
$LENSLENGTH
 40
50.0
  9
$CAMERAHEIGHT
 40
0.0
  9
$STEPSPERSEC
 40
2.0
  9
$STEPSIZE
 40
6.0
  9
$3DDWFPREC
 40
2.0
  9
$PSOLWIDTH
 40
0.25
  9
$PSOLHEIGHT
 40
4.0
  9
$LOFTANG1
 40
1.570796326794896
  9
$LOFTANG2
 40
1.570796326794896
  9
$LOFTMAG1
 40
0.0
  9
$LOFTMAG2
 40
0.0
  9
$LOFTPARAM
 70
     7
  9
$LOFTNORMALS
280
     1
  9
$LATITUDE
 40
37.795
  9
$LONGITUDE
 40
-122.394
  9
$NORTHDIRECTION
 40
0.0
  9
$TIMEZONE
 70
 -8000
  9
$LIGHTGLYPHDISPLAY
280
     1
  9
$TILEMODELIGHTSYNCH
280
     1
  9
$CMATERIAL
347
11
  9
$SOLIDHIST
280
     0
  9
$SHOWHIST
280
     1
  9
$DWFFRAME
280
     2
  9
$DGNFRAME
280
     0
  9
$REALWORLDSCALE
290
     1
  9
$INTERFERECOLOR
 62
     1
  9
$INTERFEREOBJVS
345
33
  9
$INTERFEREVPVS
346
30
  9
$CSHADOW
280
     0
  9
$SHADOWPLANELOCATION
 40
0.0
  0
ENDSEC
  0
SECTION
  2
CLASSES
  0
CLASS
  1
ACDBDICTIONARYWDFLT
  2
AcDbDictionaryWithDefault
  3
ObjectDBX Classes
 90
        0
 91
        1
280
     0
281
     0
  0
CLASS
  1
MATERIAL
  2
AcDbMaterial
  3
ObjectDBX Classes
 90
     1153
 91
        3
280
     0
281
     0
  0
CLASS
  1
VISUALSTYLE
  2
AcDbVisualStyle
  3
ObjectDBX Classes
 90
     4095
 91
       24
280
     0
281
     0
  0
CLASS
  1
SCALE
  2
AcDbScale
  3
ObjectDBX Classes
 90
     1153
 91
       17
280
     0
281
     0
  0
CLASS
  1
TABLESTYLE
  2
AcDbTableStyle
  3
ObjectDBX Classes
 90
     4095
 91
        1
280
     0
281
     0
  0
CLASS
  1
MLEADERSTYLE
  2
AcDbMLeaderStyle
  3
ACDB_MLEADERSTYLE_CLASS
 90
     4095
 91
        1
280
     0
281
     0
  0
CLASS
  1
ACDBSECTIONVIEWSTYLE
  2
AcDbSectionViewStyle
  3
ObjectDBX Classes
 90
     1025
 91
        1
280
     0
281
     0
  0
CLASS
  1
ACDBDETAILVIEWSTYLE
  2
AcDbDetailViewStyle
  3
ObjectDBX Classes
 90
     1025
 91
        1
280
     0
281
     0
  0
CLASS
  1
DICTIONARYVAR
  2
AcDbDictionaryVar
  3
ObjectDBX Classes
 90
        0
 91
        5
280
     0
281
     0
  0
CLASS
  1
CELLSTYLEMAP
  2
AcDbCellStyleMap
  3
ObjectDBX Classes
 90
     1152
 91
        1
280
     0
281
     0
  0
ENDSEC
  0
SECTION
  2
TABLES
  0
TABLE
  2
VPORT
  5
8
330
0
100
AcDbSymbolTable
 70
     1
  0
VPORT
  5
57
330
8
100
AcDbSymbolTableRecord
100
AcDbViewportTableRecord
  2
*Active
 70
     0
 10
0.0
 20
0.0
 11
1.0
 21
1.0
 12
0.0
 22
0.0
 13
0.0
 23
0.0
 14
1.0
 24
1.0
 15
0.0
 25
0.0
 16
0.0
 26
0.0
 36
1.0
 17
104.9999999737499
 27
31.49999999212523
 37
0.0
 40
302.9399999242649
 41
0.7070707070707066
 42
50.0
 43
0.0
 44
0.0
 50
0.0
 51
0.0
 71
     0
 72
   100
 73
     1
 74
     1
 75
     0
 76
     0
 77
     0
 78
     0
281
     0
 65
     1
110
0.0
120
0.0
130
0.0
111
1.0
121
0.0
131
0.0
112
0.0
122
1.0
132
0.0
 79
     0
146
0.0
 60
     3
 61
     5
292
     1
282
     1
141
0.0
142
0.0
 63
   250
421
  3355443
  0
ENDTAB
  0
TABLE
  2
LTYPE
  5
5
330
0
100
AcDbSymbolTable
 70
     1
  0
LTYPE
  5
5B
330
5
100
AcDbSymbolTableRecord
100
AcDbLinetypeTableRecord
  2
ByBlock
 70
     0
  3

 72
    65
 73
     0
 40
0.0
  0
LTYPE
  5
5C
330
5
100
AcDbSymbolTableRecord
100
AcDbLinetypeTableRecord
  2
ByLayer
 70
     0
  3

 72
    65
 73
     0
 40
0.0
  0
LTYPE
  5
5D
330
5
100
AcDbSymbolTableRecord
100
AcDbLinetypeTableRecord
  2
Continuous
 70
     0
  3
Solid line
 72
    65
 73
     0
 40
0.0
  0
ENDTAB
  0
TABLE
  2
LAYER
  5
2
330
0
100
AcDbSymbolTable
 70
     2
  0
LAYER
  5
54
330
2
100
AcDbSymbolTableRecord
100
AcDbLayerTableRecord
  2
0
 70
     0
 62
     7
  6
Continuous
370
     0
390
F
347
21
348
0
  0
LAYER
  5
238
330
2
100
AcDbSymbolTableRecord
100
AcDbLayerTableRecord
  2
CAPA_BASE
 70
     0
 62
     7
  6
Continuous
370
     0
390
F
347
21
348
0
  0
ENDTAB
  0
TABLE
  2
STYLE
  5
3
330
0
100
AcDbSymbolTable
 70
     2
  0
STYLE
  5
55
330
3
100
AcDbSymbolTableRecord
100
AcDbTextStyleTableRecord
  2
Standard
 70
     0
 40
0.0
 41
1.0
 50
0.0
 71
     0
 42
0.2
  3
txt
  4

  0
STYLE
  5
5A
330
3
100
AcDbSymbolTableRecord
100
AcDbTextStyleTableRecord
  2
Annotative
 70
     0
 40
0.0
 41
1.0
 50
0.0
 71
     0
 42
0.2
  3
txt
  4

1001
AcadAnnotative
1000
AnnotativeData
1002
{
1070
     1
1070
     1
1002
}
  0
ENDTAB
  0
TABLE
  2
VIEW
  5
6
330
0
100
AcDbSymbolTable
 70
     0
  0
ENDTAB
  0
TABLE
  2
UCS
  5
7
330
0
100
AcDbSymbolTable
 70
     0
  0
ENDTAB
  0
TABLE
  2
APPID
  5
9
330
0
100
AcDbSymbolTable
 70
     2
  0
APPID
  5
56
330
9
100
AcDbSymbolTableRecord
100
AcDbRegAppTableRecord
  2
ACAD
 70
     0
  0
APPID
  5
5E
330
9
100
AcDbSymbolTableRecord
100
AcDbRegAppTableRecord
  2
AcadAnnotative
 70
     0
  0
ENDTAB
  0
TABLE
  2
DIMSTYLE
  5
A
330
0
100
AcDbSymbolTable
 70
     2
100
AcDbDimStyleTable
 71
     0
  0
DIMSTYLE
105
58
330
A
100
AcDbSymbolTableRecord
100
AcDbDimStyleTableRecord
  2
Standard
 70
     0
340
55
  0
DIMSTYLE
105
59
330
A
100
AcDbSymbolTableRecord
100
AcDbDimStyleTableRecord
  2
Annotative
 70
     0
340
55
1001
AcadAnnotative
1000
AnnotativeData
1002
{
1070
     1
1070
     1
1002
}
  0
ENDTAB
  0
TABLE
  2
BLOCK_RECORD
  5
1
330
0
100
AcDbSymbolTable
 70
     4
  0
BLOCK_RECORD
  5
70
330
1
100
AcDbSymbolTableRecord
100
AcDbBlockTableRecord
  2
*Model_Space
340
73
 70
     0
280
     1
281
     0
  0
BLOCK_RECORD
  5
6C
330
1
100
AcDbSymbolTableRecord
100
AcDbBlockTableRecord
  2
*Paper_Space
340
6F
 70
     0
280
     1
281
     0
  0
BLOCK_RECORD
  5
74
330
1
100
AcDbSymbolTableRecord
100
AcDbBlockTableRecord
  2
*Paper_Space0
340
77
 70
     0
280
     1
281
     0
  0
BLOCK_RECORD
  5
23A
330
1
100
AcDbSymbolTableRecord
100
AcDbBlockTableRecord
  2
Block_0
340
0
102
{BLKREFS
331
23B
102
}
 70
     0
280
     1
281
     0
  0
BLOCK_RECORD
  5
248
330
1
100
AcDbSymbolTableRecord
100
AcDbBlockTableRecord
  2
Block_1
340
0
102
{BLKREFS
331
249
102
}
 70
     0
280
     1
281
     0
  0
BLOCK_RECORD
  5
254
330
1
100
AcDbSymbolTableRecord
100
AcDbBlockTableRecord
  2
Block_2
340
0
102
{BLKREFS
331
255
102
}
 70
     0
280
     1
281
     0
  0
ENDTAB
  0
ENDSEC
  0
SECTION
  2
BLOCKS
  0
BLOCK
  5
71
330
70
100
AcDbEntity
  8
0
100
AcDbBlockBegin
  2
*Model_Space
 70
     0
 10
0.0
 20
0.0
 30
0.0
  3
*Model_Space
  1

  0
ENDBLK
  5
72
330
70
100
AcDbEntity
  8
0
100
AcDbBlockEnd
  0
BLOCK
  5
6D
330
6C
100
AcDbEntity
 67
     1
  8
0
100
AcDbBlockBegin
  2
*Paper_Space
 70
     0
 10
0.0
 20
0.0
 30
0.0
  3
*Paper_Space
  1

  0
ENDBLK
  5
6E
330
6C
100
AcDbEntity
 67
     1
  8
0
100
AcDbBlockEnd
  0
BLOCK
  5
75
330
74
100
AcDbEntity
 67
     1
  8
0
100
AcDbBlockBegin
  2
*Paper_Space0
 70
     0
 10
0.0
 20
0.0
 30
0.0
  3
*Paper_Space0
  1

  0
ENDBLK
  5
76
330
74
100
AcDbEntity
 67
     1
  8
0
100
AcDbBlockEnd
  0
BLOCK
  5
23C
330
23A
100
AcDbEntity
  8
0
100
AcDbBlockBegin
  2
Block_0
 70
     0
 10
0.0
 20
0.0
 30
0.0
  3
Block_0
  1

  0
LWPOLYLINE
  5
23E
330
23A
100
AcDbEntity
  8
CAPA_BASE
100
AcDbPolyline
 90
        4
 70
     1
 43
0.0
 10
70.50675366904257
 20
23.96767663404336
 10
68.00675366904281
 20
24.27767663404309
 10
68.00675366904281
 20
23.657676634043
 10
68.00675366904281
 20
23.657676634043
  0
HATCH
  5
23F
330
23A
100
AcDbEntity
  8
CAPA_BASE
 62
    18
420
        0
440
 33554687
100
AcDbHatch
 10
0.0
 20
0.0
 30
0.0
210
0.0
220
0.0
230
1.0
  2
SOLID
 70
     1
 71
     1
 91
        1
 92
        1
 93
        3
 72
     1
 10
70.50675366904257
 20
23.96767663404336
 11
68.00675366904281
 21
24.27767663404309
 72
     1
 10
68.00675366904281
 20
24.27767663404309
 11
68.00675366904281
 21
23.657676634043
 72
     1
 10
68.00675366904281
 20
23.657676634043
 11
70.50675366904257
 21
23.96767663404336
 97
        1
330
23E
 75
     2
 76
     1
 98
        1
 10
0.0
 20
0.0
450
        0
451
        0
460
0.0
461
0.0
452
        0
462
0.0
453
        0
470

  0
LWPOLYLINE
  5
240
330
23A
100
AcDbEntity
  8
CAPA_BASE
100
AcDbPolyline
 90
        4
 70
     1
 43
0.0
 10
32.50675366904252
 20
23.96767663404336
 10
35.00675366904228
 20
23.657676634043
 10
35.00675366904228
 20
24.27767663404309
 10
35.00675366904228
 20
24.27767663404309
  0
HATCH
  5
241
330
23A
100
AcDbEntity
  8
CAPA_BASE
 62
    18
420
        0
440
 33554687
100
AcDbHatch
 10
0.0
 20
0.0
 30
0.0
210
0.0
220
0.0
230
1.0
  2
SOLID
 70
     1
 71
     1
 91
        1
 92
        1
 93
        3
 72
     1
 10
32.50675366904252
 20
23.96767663404336
 11
35.00675366904228
 21
23.657676634043
 72
     1
 10
35.00675366904228
 20
23.657676634043
 11
35.00675366904228
 21
24.27767663404309
 72
     1
 10
35.00675366904228
 20
24.27767663404309
 11
32.50675366904252
 21
23.96767663404336
 97
        1
330
240
 75
     2
 76
     1
 98
        1
 10
0.0
 20
0.0
450
        0
451
        0
460
0.0
461
0.0
452
        0
462
0.0
453
        0
470

  0
LINE
  5
242
330
23A
100
AcDbEntity
  8
CAPA_BASE
 62
    18
420
        0
370
    25
100
AcDbLine
 10
70.50675366904257
 20
79.65517663404336
 30
0.0
 11
70.50675366904257
 21
22.96767663404333
 31
0.0
  0
LINE
  5
243
330
23A
100
AcDbEntity
  8
CAPA_BASE
 62
    18
420
        0
370
    25
100
AcDbLine
 10
32.50675366904252
 20
79.65517663404336
 30
0.0
 11
32.50675366904252
 21
22.96767663404333
 31
0.0
  0
LINE
  5
244
330
23A
100
AcDbEntity
  8
CAPA_BASE
 62
    18
420
        0
370
    25
100
AcDbLine
 10
70.50675366904257
 20
23.96767663404336
 30
0.0
 11
32.50675366904252
 21
23.96767663404336
 31
0.0
  0
MTEXT
  5
245
330
23A
100
AcDbEntity
  8
CAPA_BASE
100
AcDbMText
 10
48.05669736720403
 20
24.76142463065047
 30
0.0
 40
0.2
 41
0.0
 46
0.0
 71
     7
 72
     1
  1
\C18;\c0;\FArial Bold|b1|i0|c1;\H2.997200;\W0.700000;Ø
 73
     1
 44
1.0
  0
MTEXT
  5
246
330
23A
100
AcDbEntity
  8
CAPA_BASE
100
AcDbMText
 10
51.42903135921305
 20
24.76142463065047
 30
0.0
 40
0.2
 41
0.0
 46
0.0
 71
     7
 72
     1
  1
\C18;\c0;\FArial Bold|b1|i0|c1;\H2.997200;\W0.700000;76
 73
     1
 44
1.0
  0
ENDBLK
  5
23D
330
23A
100
AcDbEntity
  8
0
100
AcDbBlockEnd
  0
BLOCK
  5
24A
330
248
100
AcDbEntity
  8
0
100
AcDbBlockBegin
  2
Block_1
 70
     0
 10
0.0
 20
0.0
 30
0.0
  3
Block_1
  1

  0
LWPOLYLINE
  5
24C
330
248
100
AcDbEntity
  8
CAPA_BASE
100
AcDbPolyline
 90
        4
 70
     1
 43
0.0
 10
115.9435840262426
 20
33.96767663404371
 10
116.2535840262423
 20
36.46767663404348
 10
115.6335840262422
 20
36.46767663404348
 10
115.6335840262422
 20
36.46767663404348
  0
HATCH
  5
24D
330
248
100
AcDbEntity
  8
CAPA_BASE
 62
    18
420
        0
440
 33554687
100
AcDbHatch
 10
0.0
 20
0.0
 30
0.0
210
0.0
220
0.0
230
1.0
  2
SOLID
 70
     1
 71
     1
 91
        1
 92
        1
 93
        3
 72
     1
 10
115.9435840262426
 20
33.96767663404371
 11
116.2535840262423
 21
36.46767663404348
 72
     1
 10
116.2535840262423
 20
36.46767663404348
 11
115.6335840262422
 21
36.46767663404348
 72
     1
 10
115.6335840262422
 20
36.46767663404348
 11
115.9435840262426
 21
33.96767663404371
 97
        1
330
24C
 75
     2
 76
     1
 98
        1
 10
0.0
 20
0.0
450
        0
451
        0
460
0.0
461
0.0
452
        0
462
0.0
453
        0
470

  0
LWPOLYLINE
  5
24E
330
248
100
AcDbEntity
  8
CAPA_BASE
100
AcDbPolyline
 90
        4
 70
     1
 43
0.0
 10
115.9435840262426
 20
113.4190158477432
 10
115.6335840262422
 20
110.9190158477435
 10
116.2535840262423
 20
110.9190158477435
 10
116.2535840262423
 20
110.9190158477435
  0
HATCH
  5
24F
330
248
100
AcDbEntity
  8
CAPA_BASE
 62
    18
420
        0
440
 33554687
100
AcDbHatch
 10
0.0
 20
0.0
 30
0.0
210
0.0
220
0.0
230
1.0
  2
SOLID
 70
     1
 71
     1
 91
        1
 92
        1
 93
        3
 72
     1
 10
115.9435840262426
 20
113.4190158477432
 11
115.6335840262422
 21
110.9190158477435
 72
     1
 10
115.6335840262422
 20
110.9190158477435
 11
116.2535840262423
 21
110.9190158477435
 72
     1
 10
116.2535840262423
 20
110.9190158477435
 11
115.9435840262426
 21
113.4190158477432
 97
        1
330
24E
 75
     2
 76
     1
 98
        1
 10
0.0
 20
0.0
450
        0
451
        0
460
0.0
461
0.0
452
        0
462
0.0
453
        0
470

  0
LINE
  5
250
330
248
100
AcDbEntity
  8
CAPA_BASE
 62
    18
420
        0
370
    25
100
AcDbLine
 10
145.6862671280425
 20
33.96767663404371
 30
0.0
 11
114.9435840262425
 21
33.96767663404371
 31
0.0
  0
LINE
  5
251
330
248
100
AcDbEntity
  8
CAPA_BASE
 62
    18
420
        0
370
    25
100
AcDbLine
 10
160.4435840262425
 20
113.4190158477432
 30
0.0
 11
114.9435840262425
 21
113.4190158477432
 31
0.0
  0
LINE
  5
252
330
248
100
AcDbEntity
  8
CAPA_BASE
 62
    18
420
        0
370
    25
100
AcDbLine
 10
115.9435840262426
 20
33.96767663404371
 30
0.0
 11
115.9435840262426
 21
113.4190158477432
 31
0.0
  0
MTEXT
  5
253
330
248
100
AcDbEntity
  8
CAPA_BASE
100
AcDbMText
 10
115.1498350491347
 20
71.0475151732097
 30
0.0
 40
0.2
 41
0.0
 46
0.0
 71
     7
 72
     1
  1
\C18;\c0;\FArial Bold|b1|i0|c1;\H2.997200;\W0.700000;159
 11
0.0000000000000003
 21
1.0
 31
0.0
 73
     1
 44
1.0
  0
ENDBLK
  5
24B
330
248
100
AcDbEntity
  8
0
100
AcDbBlockEnd
  0
BLOCK
  5
256
330
254
100
AcDbEntity
  8
0
100
AcDbBlockBegin
  2
Block_2
 70
     0
 10
0.0
 20
0.0
 30
0.0
  3
Block_2
  1

  0
LWPOLYLINE
  5
258
330
254
100
AcDbEntity
  8
CAPA_BASE
100
AcDbPolyline
 90
        4
 70
     1
 43
0.0
 10
80.5378336160423
 20
0.947029276643388
 10
80.22783361604256
 20
-1.552970723357021
 10
80.84783361604264
 20
-1.552970723357021
 10
80.84783361604264
 20
-1.552970723357021
  0
HATCH
  5
259
330
254
100
AcDbEntity
  8
CAPA_BASE
 62
    18
420
        0
440
 33554687
100
AcDbHatch
 10
0.0
 20
0.0
 30
0.0
210
0.0
220
0.0
230
1.0
  2
SOLID
 70
     1
 71
     1
 91
        1
 92
        1
 93
        3
 72
     1
 10
80.5378336160423
 20
0.947029276643388
 11
80.22783361604256
 21
-1.552970723357021
 72
     1
 10
80.22783361604256
 20
-1.552970723357021
 11
80.84783361604264
 21
-1.552970723357021
 72
     1
 10
80.84783361604264
 20
-1.552970723357021
 11
80.5378336160423
 21
0.9470292766433878
 97
        1
330
258
 75
     2
 76
     1
 98
        1
 10
0.0
 20
0.0
450
        0
451
        0
460
0.0
461
0.0
452
        0
462
0.0
453
        0
470

  0
LWPOLYLINE
  5
25A
330
254
100
AcDbEntity
  8
CAPA_BASE
100
AcDbPolyline
 90
        4
 70
     1
 43
0.0
 10
80.5378336160423
 20
-59.80297072335667
 10
80.84783361604264
 20
-57.30297072335691
 10
80.22783361604256
 20
-57.30297072335691
 10
80.22783361604256
 20
-57.30297072335691
  0
HATCH
  5
25B
330
254
100
AcDbEntity
  8
CAPA_BASE
 62
    18
420
        0
440
 33554687
100
AcDbHatch
 10
0.0
 20
0.0
 30
0.0
210
0.0
220
0.0
230
1.0
  2
SOLID
 70
     1
 71
     1
 91
        1
 92
        1
 93
        3
 72
     1
 10
80.5378336160423
 20
-59.80297072335667
 11
80.84783361604264
 21
-57.30297072335691
 72
     1
 10
80.84783361604264
 20
-57.30297072335691
 11
80.22783361604256
 21
-57.30297072335691
 72
     1
 10
80.22783361604256
 20
-57.30297072335691
 11
80.5378336160423
 21
-59.80297072335667
 97
        1
330
25A
 75
     2
 76
     1
 98
        1
 10
0.0
 20
0.0
450
        0
451
        0
460
0.0
461
0.0
452
        0
462
0.0
453
        0
470

  0
LINE
  5
25C
330
254
100
AcDbEntity
  8
CAPA_BASE
 62
    18
420
        0
370
    25
100
AcDbLine
 10
65.00675366904238
 20
0.947029276643388
 30
0.0
 11
81.53783361604231
 21
0.947029276643388
 31
0.0
  0
LINE
  5
25D
330
254
100
AcDbEntity
  8
CAPA_BASE
 62
    18
420
        0
370
    25
100
AcDbLine
 10
54.00675366904231
 20
-59.80297072335667
 30
0.0
 11
81.53783361604231
 21
-59.80297072335667
 31
0.0
  0
LINE
  5
25E
330
254
100
AcDbEntity
  8
CAPA_BASE
 62
    18
420
        0
370
    25
100
AcDbLine
 10
80.5378336160423
 20
0.947029276643388
 30
0.0
 11
80.5378336160423
 21
-59.80297072335667
 31
0.0
  0
MTEXT
  5
25F
330
254
100
AcDbEntity
  8
CAPA_BASE
100
AcDbMText
 10
79.74408274882276
 20
-32.07383896767663
 30
0.0
 40
0.2
 41
0.0
 46
0.0
 71
     7
 72
     1
  1
\C18;\c0;\FArial Bold|b1|i0|c1;\H2.997200;\W0.700000;122
 11
0.0000000000000003
 21
1.0
 31
0.0
 73
     1
 44
1.0
  0
ENDBLK
  5
257
330
254
100
AcDbEntity
  8
0
100
AcDbBlockEnd
  0
ENDSEC
  0
SECTION
  2
ENTITIES
  0
LWPOLYLINE
  5
78
330
70
100
AcDbEntity
  8
0
 62
    18
420
        0
370
    25
100
AcDbPolyline
 90
        4
 70
     0
 43
0.0
 10
174.8189156907427
 20
-14.64526015385652
 10
174.8156516148423
 20
-13.33746866315676
 10
174.7134962151424
 20
-11.01164999845668
 10
174.7133742197424
 20
-11.01022444125644
  0
SPLINE
  5
79
330
70
100
AcDbEntity
  8
0
 62
    18
420
        0
370
    25
100
AcDbSpline
210
0.0
220
0.0
230
1.0
 70
     8
 71
     3
 72
     8
 73
     4
 74
     0
 42
0.0000000001
 43
0.0000000001
 40
0.0
 40
0.0
 40
0.0
 40
0.0
 40
1.0
 40
1.0
 40
1.0
 40
1.0
 10
136.9531091157971
 20
-11.01239168555939
 30
0.0
 10
136.8561817903183
 20
-12.22091747175607
 30
0.0
 10
136.8193533953964
 20
-13.43351243012943
 30
0.0
 10
136.8427601053179
 20
-14.64569294814457
 30
0.0
  0
LINE
  5
7A
330
70
100
AcDbEntity
  8
0
 62
    18
420
        0
370
    25
100
AcDbLine
 10
174.8615464048426
 20
-17.48483380675682
 30
0.0
 11
174.8304767688424
 21
-14.57779813095656
 31
0.0
  0
LINE
  5
7B
330
70
100
AcDbEntity
  8
0
 62
    18
420
        0
370
    25
100
AcDbLine
 10
136.8312000150426
 20
-14.57779841605638
 30
0.0
 11
136.8001298851427
 21
-17.48483361665669
 31
0.0
  0
LWPOLYLINE
  5
7C
330
70
100
AcDbEntity
  8
0
 62
    18
420
        0
370
    25
100
AcDbPolyline
 90
       30
 70
     0
 43
0.0
 10
137.8721949045423
 20
-21.21964091015687
 10
138.2263654093425
 20
-21.77901512545693
 10
138.7864878064422
 20
-22.5003578414568
 10
139.4337731789423
 20
-23.19658056615641
 10
140.1648748037426
 20
-23.86395386225683
 10
140.9759316343425
 20
-24.49894104205667
 10
141.8626453507422
 20
-25.09823960215667
 10
142.8203396283422
 20
-25.65879870915666
 10
143.8439739675421
 20
-26.17780133055693
 10
144.9282474143424
 20
-26.65269825995653
 10
146.0676061335424
 20
-27.08118359605688
 10
147.2562486774426
 20
-27.46118257685651
 10
148.4881436014423
 20
-27.79086631345695
 10
149.7570605805425
 20
-28.0686393375566
 10
151.0565883958423
 20
-28.29316367305696
 10
152.3801719572423
 20
-28.46335587795652
 10
153.7211360721425
 20
-28.57839164085696
 10
155.0727236830426
 20
-28.63771645165652
 10
156.4281220440425
 20
-28.64104322395686
 10
157.7805031187426
 20
-28.58835736895684
 10
159.1230369773425
 20
-28.47991616525657
 10
160.4489600386424
 20
-28.31624709565693
 10
161.7515943319422
 20
-28.09814452125653
 10
163.0243777904423
 20
-27.82666283715653
 10
164.2608991542424
 20
-27.50310924985685
 10
165.4549252994422
 20
-27.12903902435696
 10
166.6004292267424
 20
-26.70624046715666
 10
167.6916190372423
 20
-26.23673340605696
 10
168.7229559600426
 20
-25.72275041725657
 10
169.2360571267424
 20
-25.43742421545644
  0
SPLINE
  5
7D
330
70
100
AcDbEntity
  8
0
 62
    18
420
        0
370
    25
100
AcDbSpline
210
0.0
220
0.0
230
1.0
 70
     8
 71
     3
 72
     8
 73
     4
 74
     0
 42
0.0000000001
 43
0.0000000001
 40
0.0
 40
0.0
 40
0.0
 40
0.0
 40
1.0
 40
1.0
 40
1.0
 40
1.0
 10
169.2360571268059
 20
-25.43742421548981
 30
0.0
 10
171.1103238334247
 20
-24.44164792933592
 30
0.0
 10
172.6907612172412
 20
-22.97187303512749
 30
0.0
 10
173.8197385421011
 20
-21.17469293854373
 30
0.0
  0
LINE
  5
7E
330
70
100
AcDbEntity
  8
0
 62
    18
420
        0
370
    25
100
AcDbLine
 10
130.8500301073423
 20
-4.689934720456415
 30
0.0
 11
137.1757452332422
 21
-8.341692332756942
 31
0.0
  0
LINE
  5
7F
330
70
100
AcDbEntity
  8
0
 62
    18
420
        0
370
    25
100
AcDbLine
 10
140.5099160706421
 20
-1.029114638156692
 30
0.0
 11
134.8679308288423
 21
2.227934113743035
 31
0.0
  0
SPLINE
  5
80
330
70
100
AcDbEntity
  8
0
 62
    18
420
        0
370
    25
100
AcDbSpline
210
0.0
220
0.0
230
1.0
 70
     8
 71
     3
 72
     8
 73
     4
 74
     0
 42
0.0000000001
 43
0.0000000001
 40
0.0
 40
0.0
 40
0.0
 40
0.0
 40
1.0
 40
1.0
 40
1.0
 40
1.0
 10
123.577669267084
 20
-16.04573428604701
 30
0.0
 10
123.7323084774292
 20
-16.13500560198613
 30
0.0
 10
123.9228172270811
 20
-16.13503700550955
 30
0.0
 10
124.0774858600466
 20
-16.04581667597552
 30
0.0
  0
SPLINE
  5
81
330
70
100
AcDbEntity
  8
0
 62
    18
420
        0
370
    25
100
AcDbSpline
210
0.0
220
0.0
230
1.0
 70
     8
 71
     3
 72
     8
 73
     4
 74
     0
 42
0.0000000001
 43
0.0000000001
 40
0.0
 40
0.0
 40
0.0
 40
0.0
 40
1.0
 40
1.0
 40
1.0
 40
1.0
 10
141.2978869131608
 20
13.79918585667382
 30
0.0
 10
141.2916805768466
 20
13.97129154056819
 30
0.0
 10
141.1973401965461
 20
14.12808962552488
 30
0.0
 10
141.0481913820014
 20
14.21419140343375
 30
0.0
  0
LINE
  5
82
330
70
100
AcDbEntity
  8
0
 62
    18
420
        0
370
    25
100
AcDbLine
 10
141.2969852528425
 20
13.79367906254322
 30
0.0
 11
141.2967909822425
 21
13.79968099714302
 31
0.0
  0
LINE
  5
83
330
70
100
AcDbEntity
  8
0
 62
    18
420
        0
370
    25
100
AcDbLine
 10
141.2994152820425
 20
-0.4150099537564233
 30
0.0
 11
141.2972980614427
 21
13.78783472294334
 31
0.0
  0
LWPOLYLINE
  5
84
330
70
100
AcDbEntity
  8
0
 62
    18
420
        0
370
    25
100
AcDbPolyline
 90
        3
 70
     0
 43
0.0
 10
124.0774576299425
 20
-16.04579146115677
 10
128.0504062679425
 20
-13.75382789145671
 10
137.1772572514425
 20
-8.483194792856911
  0
LINE
  5
85
330
70
100
AcDbEntity
  8
0
 62
    18
420
        0
370
    25
100
AcDbLine
 10
121.9932874100421
 20
-15.13108996425654
 30
0.0
 11
123.5776691050421
 21
-16.04573404805688
 31
0.0
  0
LINE
  5
86
330
70
100
AcDbEntity
  8
0
 62
    18
420
        0
370
    25
100
AcDbLine
 10
141.0481910889425
 20
14.21419187134336
 30
0.0
 11
139.4638093939425
 21
15.12883595514306
 31
0.0
  0
LINE
  5
87
330
70
100
AcDbEntity
  8
0
 62
    18
420
        0
370
    25
100
AcDbLine
 10
158.5359810977422
 20
5.955997429443298
 30
0.0
 11
172.9353455365424
 21
-2.356578722956551
 31
0.0
  0
LINE
  5
88
330
70
100
AcDbEntity
  8
0
 62
    18
420
        0
370
    25
100
AcDbLine
 10
174.4352236337424
 20
0.2415682687431585
 30
0.0
 11
160.0358591949422
 21
8.554144421143007
 31
0.0
  0
SPLINE
  5
89
330
70
100
AcDbEntity
  8
0
 62
    18
420
        0
370
    25
100
AcDbSpline
210
0.0
220
0.0
230
1.0
 70
     8
 71
     3
 72
     8
 73
     4
 74
     0
 42
0.0000000001
 43
0.0000000001
 40
0.0
 40
0.0
 40
0.0
 40
0.0
 40
1.0
 40
1.0
 40
1.0
 40
1.0
 10
173.4939488361281
 20
-3.722309477347312
 30
0.0
 10
173.0985460103628
 20
-3.019324540651298
 30
0.0
 10
172.5997887759593
 20
-2.379721962015669
 30
0.0
 10
172.0143707128956
 20
-1.824909464605202
 30
0.0
  0
SPLINE
  5
8A
330
70
100
AcDbEntity
  8
0
 62
    18
420
        0
370
    25
100
AcDbSpline
210
0.0
220
0.0
230
1.0
 70
     8
 71
     3
 72
     8
 73
     4
 74
     0
 42
0.0000000001
 43
0.0000000001
 40
0.0
 40
0.0
 40
0.0
 40
0.0
 40
1.0
 40
1.0
 40
1.0
 40
1.0
 10
164.9615905107811
 20
2.246571545863663
 30
0.0
 10
163.6177400728422
 20
2.701555655183061
 30
0.0
 10
162.2350500028583
 20
3.032528663315686
 30
0.0
 10
160.8308384743249
 20
3.235345138033282
 30
0.0
  0
LWPOLYLINE
  5
8B
330
70
100
AcDbEntity
  8
0
 62
    18
420
        0
370
    25
100
AcDbPolyline
 90
       16
 70
     0
 43
0.0
 10
150.8308374864424
 20
3.234344530543472
 10
150.4926037587422
 20
3.183342444643082
 10
149.2205463455424
 20
2.933586145643423
 10
147.9824583043424
 20
2.631253269843262
 10
146.7846995288422
 20
2.277817915743582
 10
145.6334318553424
 20
1.875009370143583
 10
144.5345830899421
 20
1.424785255343433
 10
143.4938319030426
 20
0.9293304136435359
 10
142.5165829282423
 20
0.3910425311434109
 10
141.6079529329422
 20
-0.1874758466569956
 10
140.7727520497425
 20
-0.803406858856589
 10
140.0155225069425
 20
-1.453672159856994
 10
139.3404314096423
 20
-2.134976567656782
 10
138.7512652241426
 20
-2.843761060256703
 10
138.2513749541422
 20
-3.576172070556378
 10
138.2033196442423
 20
-3.664782309256506
  0
LINE
  5
8C
330
70
100
AcDbEntity
  8
0
 62
    18
420
        0
370
    25
100
AcDbLine
 10
137.1647607108423
 20
-7.313836593856593
 30
0.0
 11
137.2040303784425
 21
-10.98813208785669
 31
0.0
  0
LINE
  5
8D
330
70
100
AcDbEntity
  8
0
 62
    18
420
        0
370
    25
100
AcDbLine
 10
174.4576462408421
 20
-10.98813170765642
 30
0.0
 11
174.4969164022426
 21
-7.3138364988569
 31
0.0
  0
LWPOLYLINE
  5
8E
330
70
100
AcDbEntity
  8
0
 62
    18
420
        0
370
    25
100
AcDbPolyline
 90
       36
 70
     0
 43
0.0
 10
138.3764002874421
 20
-14.70419210815693
 10
138.5351002942424
 20
-14.9625676290565
 10
139.0782836095425
 20
-15.67920314305677
 10
139.7090026364427
 20
-16.37116953775659
 10
140.4239409448424
 20
-17.03468187195679
 10
141.2192460493426
 20
-17.66613388725687
 10
142.0906051419426
 20
-18.26215997295658
 10
143.0333175320421
 20
-18.8196556933568
 10
144.0423111097426
 20
-19.33575535535689
 10
145.1122352009425
 20
-19.80786280205661
 10
146.2374872383423
 20
-20.23363791755645
 10
147.4122124318427
 20
-20.61097970955645
 10
148.6303185862423
 20
-20.93803030085644
 10
149.8855114978427
 20
-21.21317711605648
 10
151.1713139285426
 20
-21.43506839885677
 10
152.4810985746424
 20
-21.60260639035665
 10
153.8081204173423
 20
-21.71496981035669
 10
155.1455440529423
 20
-21.77159921695662
 10
156.4864870327421
 20
-21.77221898895698
 10
157.8240470693427
 20
-21.71682717825639
 10
159.1513224518422
 20
-21.60569893085691
 10
160.4614839088422
 20
-21.43938691625699
 10
161.7477905788422
 20
-21.2187138173569
 10
163.0036244188426
 20
-20.94476862475648
 10
164.2225218145425
 20
-20.61889561045668
 10
165.3982058488425
 20
-20.24269432945661
 10
166.5246142903422
 20
-19.81799927785691
 10
167.5959256055425
 20
-19.34687780365637
 10
168.6065794562423
 20
-18.8316156108566
 10
169.5513001633422
 20
-18.27471081775701
 10
170.4251079682425
 20
-17.67887239805666
 10
171.2233142082422
 20
-17.04702752695687
 10
171.9415386537427
 20
-16.38237240385669
 10
172.5757848449421
 20
-15.68832039585652
 10
173.1224591046425
 20
-14.96857242655678
 10
173.3033244025424
 20
-14.67447339115675
  0
LINE
  5
8F
330
70
100
AcDbEntity
  8
0
 62
    18
420
        0
370
    25
100
AcDbLine
 10
139.9814095721426
 20
-23.69648079215657
 30
0.0
 11
140.3239297660425
 21
-52.22336917585691
 31
0.0
  0
LINE
  5
90
330
70
100
AcDbEntity
  8
0
 62
    18
420
        0
370
    25
100
AcDbLine
 10
171.3377463593424
 20
-52.2233692708566
 30
0.0
 11
171.6802862271427
 21
-23.69490363965697
 31
0.0
  0
LWPOLYLINE
  5
91
330
70
100
AcDbEntity
  8
0
 62
    18
420
        0
370
    25
100
AcDbPolyline
 90
       42
 70
     0
 43
0.0
 10
140.3286679937421
 20
-52.30118227595649
 10
140.3270400717426
 20
-52.35502115185678
 10
140.4012619890422
 20
-53.09271814015639
 10
140.5707864919424
 20
-53.82186043885637
 10
140.8344084439427
 20
-54.53913042105675
 10
141.1911801994423
 20
-55.2413873336566
 10
141.6399624765421
 20
-55.92498983065695
 10
142.1789054237422
 20
-56.58571384385648
 10
142.8050883960421
 20
-57.21895139145668
 10
143.5144652960427
 20
-57.82009567025672
 10
144.3020608200422
 20
-58.38485505325657
 10
145.1622575832422
 20
-58.90943327655643
 10
146.0889851224425
 20
-59.39054349455695
 10
147.0758143969424
 20
-59.825345737857
 10
148.1163344759425
 20
-60.21151610355692
 10
149.2039569508426
 20
-60.54704412375681
 10
150.3319119840426
 20
-60.83021147895692
 10
151.4932591751426
 20
-61.05957394075641
 10
152.6809035301424
 20
-61.23396375065673
 10
153.8876184286426
 20
-61.35248995275684
 10
155.1060794974422
 20
-61.41454730575682
 10
156.3289009128421
 20
-61.41981899215661
 10
157.5486752839425
 20
-61.36828215445675
 10
158.7579525791426
 20
-61.2602147395569
 10
159.9494110593422
 20
-61.09618316485691
 10
161.1158468238423
 20
-60.87703248205647
 10
162.2502034036421
 20
-60.60387494675691
 10
163.3456078989425
 20
-60.27807476315672
 10
164.3953963333426
 20
-59.90123268545644
 10
165.3931278121425
 20
-59.4751702386564
 10
166.3325910259426
 20
-59.00192235075691
 10
167.2077911154422
 20
-58.48374379285699
 10
168.0129269363425
 20
-57.92314435375688
 10
168.7422291705421
 20
-57.32309292925678
 10
169.3901325870426
 20
-56.68707965765662
 10
169.9514392118422
 20
-56.01923007535662
 10
170.4214768361421
 20
-55.32447576445658
 10
170.7964601461423
 20
-54.60854949345643
 10
171.0738743250425
 20
-53.87770753255682
 10
171.2526621619426
 20
-53.13820716825693
 10
171.3330551763423
 20
-52.39574006695692
 10
171.3251337502427
 20
-52.05046554545652
  0
LINE
  5
92
330
70
100
AcDbEntity
  8
0
 62
    18
420
        0
370
    25
100
AcDbLine
 10
150.8308381449424
 20
11.90289320484334
 30
0.0
 11
150.8308381449424
 21
2.30905154564328
 31
0.0
  0
LINE
  5
93
330
70
100
AcDbEntity
  8
0
 62
    18
420
        0
370
    25
100
AcDbLine
 10
160.8308383096425
 20
2.309051450643587
 30
0.0
 11
160.8308383096425
 21
4.631203977043076
 31
0.0
  0
LINE
  5
94
330
70
100
AcDbEntity
  8
0
 62
    18
420
        0
370
    25
100
AcDbLine
 10
160.8308383096425
 20
8.09521282764301
 30
0.0
 11
160.8308383096425
 21
11.90289310974354
 31
0.0
  0
SPLINE
  5
95
330
70
100
AcDbEntity
  8
0
 62
    18
420
        0
370
    25
100
AcDbSpline
210
0.0
220
0.0
230
1.0
 70
     8
 71
     3
 72
     8
 73
     4
 74
     0
 42
0.0000000001
 43
0.0000000001
 40
0.0
 40
0.0
 40
0.0
 40
0.0
 40
1.0
 40
1.0
 40
1.0
 40
1.0
 10
163.02603831042
 20
1.205189620281001
 30
0.0
 10
162.4775344777584
 20
2.009303971685406
 30
0.0
 10
161.7179789674767
 20
2.646653047597292
 30
0.0
 10
160.8308381449736
 20
3.047199556291503
 30
0.0
  0
SPLINE
  5
96
330
70
100
AcDbEntity
  8
0
 62
    18
420
        0
370
    25
100
AcDbSpline
210
0.0
220
0.0
230
1.0
 70
     8
 71
     3
 72
     8
 73
     4
 74
     0
 42
0.0000000001
 43
0.0000000001
 40
0.0
 40
0.0
 40
0.0
 40
0.0
 40
1.0
 40
1.0
 40
1.0
 40
1.0
 10
150.8308377333008
 20
3.048483347600313
 30
0.0
 10
149.9378597193529
 20
2.655232588910916
 30
0.0
 10
149.177000443137
 20
2.013173676546381
 30
0.0
 10
148.6391898392561
 20
1.199038769447098
 30
0.0
  0
LINE
  5
97
330
70
100
AcDbEntity
  8
0
 62
    18
420
        0
370
    25
100
AcDbLine
 10
163.5806908368423
 20
-6.003551321756651
 30
0.0
 11
163.5205400400423
 21
-0.3755764575564132
 31
0.0
  0
LINE
  5
98
330
70
100
AcDbEntity
  8
0
 62
    18
420
        0
370
    25
100
AcDbLine
 10
148.1411362499424
 20
-0.3755766476565451
 30
0.0
 11
148.0809851238423
 21
-6.003550941556387
 31
0.0
  0
LINE
  5
99
330
70
100
AcDbEntity
  8
0
 62
    18
420
        0
370
    25
100
AcDbLine
 10
159.8882347440421
 20
0.301481156743483
 30
0.0
 11
159.8848353373424
 21
0.6195493257430519
 31
0.0
  0
LINE
  5
9A
330
70
100
AcDbEntity
  8
0
 62
    18
420
        0
370
    25
100
AcDbLine
 10
151.7768412819423
 20
0.6195493257430519
 30
0.0
 11
151.7734417105422
 21
0.3014810617431487
 31
0.0
  0
LWPOLYLINE
  5
9B
330
70
100
AcDbEntity
  8
0
 62
    18
420
        0
370
    25
100
AcDbPolyline
 90
       14
 70
     0
 43
0.0
 10
171.8239943859425
 20
-3.263093012656946
 10
171.4988866027422
 20
-2.759469827456606
 10
170.9567584404425
 20
-2.08029631565692
 10
170.3279656562422
 20
-1.426937298556554
 10
169.6161630075426
 20
-0.8033236015569659
 10
168.8255786793421
 20
-0.2131658351566733
 10
167.9609215941425
 20
0.3401105177430661
 10
167.0273076550423
 20
0.8533650968432699
 10
166.0302429525422
 20
1.323729550243532
 10
164.9754778973422
 20
1.748644598143045
 10
163.8690454156423
 20
2.125815934943157
 10
162.7172411930422
 20
2.453224115843504
 10
161.5265920640423
 20
2.729102502743335
 10
161.3494212009425
 20
2.761397947843005
  0
SPLINE
  5
9C
330
70
100
AcDbEntity
  8
0
 62
    18
420
        0
370
    25
100
AcDbSpline
210
0.0
220
0.0
230
1.0
 70
     8
 71
     3
 72
     8
 73
     4
 74
     0
 42
0.0000000001
 43
0.0000000001
 40
0.0
 40
0.0
 40
0.0
 40
0.0
 40
1.0
 40
1.0
 40
1.0
 40
1.0
 10
150.306961378984
 20
2.761918780707753
 30
0.0
 10
148.4754425838955
 20
2.422576415591572
 30
0.0
 10
146.6963984576117
 20
1.844258090612315
 30
0.0
 10
145.0154299402777
 20
1.041787417468303
 30
0.0
  0
SPLINE
  5
9D
330
70
100
AcDbEntity
  8
0
 62
    18
420
        0
370
    25
100
AcDbSpline
210
0.0
220
0.0
230
1.0
 70
     8
 71
     3
 72
     8
 73
     4
 74
     0
 42
0.0000000001
 43
0.0000000001
 40
0.0
 40
0.0
 40
0.0
 40
0.0
 40
1.0
 40
1.0
 40
1.0
 40
1.0
 10
145.0154299403335
 20
1.04178741750488
 30
0.0
 10
142.9211412807099
 20
0.1369233534177172
 30
0.0
 10
141.13002667488
 20
-1.349155402272736
 30
0.0
 10
139.8541893099446
 20
-3.240467904885236
 30
0.0
  0
LINE
  5
9E
330
70
100
AcDbEntity
  8
0
 62
    18
420
        0
370
    25
100
AcDbLine
 10
172.8308383920422
 20
-6.959780393656955
 30
0.0
 11
172.8308383920422
 21
-6.619582756456835
 31
0.0
  0
LINE
  5
9F
330
70
100
AcDbEntity
  8
0
 62
    18
420
        0
370
    25
100
AcDbLine
 10
138.8308388033425
 20
-6.619582804056785
 30
0.0
 11
138.8308388033425
 21
-6.959780441156802
 31
0.0
  0
SPLINE
  5
A0
330
70
100
AcDbEntity
  8
0
 62
    18
420
        0
370
    25
100
AcDbSpline
210
0.0
220
0.0
230
1.0
 70
     8
 71
     3
 72
     8
 73
     4
 74
     0
 42
0.0000000001
 43
0.0000000001
 40
0.0
 40
0.0
 40
0.0
 40
0.0
 40
1.0
 40
1.0
 40
1.0
 40
1.0
 10
173.9371030271502
 20
-14.54000575120101
 30
0.0
 10
174.7420794618208
 20
-13.03538880083217
 30
0.0
 10
174.9337936372204
 20
-11.27770193068248
 30
0.0
 10
174.4721089894511
 20
-9.634927900656773
 30
0.0
  0
SPLINE
  5
A1
330
70
100
AcDbEntity
  8
0
 62
    18
420
        0
370
    25
100
AcDbSpline
210
0.0
220
0.0
230
1.0
 70
     8
 71
     3
 72
     8
 73
     4
 74
     0
 42
0.0000000001
 43
0.0000000001
 40
0.0
 40
0.0
 40
0.0
 40
0.0
 40
1.0
 40
1.0
 40
1.0
 40
1.0
 10
137.1895680825022
 20
-9.634928019472484
 30
0.0
 10
136.7247862234535
 20
-11.26223701650961
 30
0.0
 10
136.909285836383
 20
-13.00638513406533
 30
0.0
 10
137.7042515670843
 20
-14.50043541278736
 30
0.0
  0
SPLINE
  5
A2
330
70
100
AcDbEntity
  8
0
 62
    18
420
        0
370
    25
100
AcDbSpline
210
0.0
220
0.0
230
1.0
 70
     8
 71
     3
 72
     8
 73
     4
 74
     0
 42
0.0000000001
 43
0.0000000001
 40
0.0
 40
0.0
 40
0.0
 40
0.0
 40
1.0
 40
1.0
 40
1.0
 40
1.0
 10
152.7796766041
 20
-21.84535340126052
 30
0.0
 10
154.640743715279
 20
-22.02295104371899
 30
0.0
 10
156.5137618048597
 20
-22.03775055297103
 30
0.0
 10
158.3774029216049
 20
-21.88958340783924
 30
0.0
  0
SPLINE
  5
A3
330
70
100
AcDbEntity
  8
0
 62
    18
420
        0
370
    25
100
AcDbSpline
210
0.0
220
0.0
230
1.0
 70
     8
 71
     3
 72
     8
 73
     4
 74
     0
 42
0.0000000001
 43
0.0000000001
 40
0.0
 40
0.0
 40
0.0
 40
0.0
 40
1.0
 40
1.0
 40
1.0
 40
1.0
 10
136.8001298851446
 20
-17.48483361667787
 30
0.0
 10
136.8017657536864
 20
-18.77563180168514
 30
0.0
 10
137.1624235958426
 20
-20.04053140632162
 30
0.0
 10
137.8417754166551
 20
-21.1380940396336
 30
0.0
  0
SPLINE
  5
A4
330
70
100
AcDbEntity
  8
0
 62
    18
420
        0
370
    25
100
AcDbSpline
210
0.0
220
0.0
230
1.0
 70
     8
 71
     3
 72
     8
 73
     4
 74
     0
 42
0.0000000001
 43
0.0000000001
 40
0.0
 40
0.0
 40
0.0
 40
0.0
 40
1.0
 40
1.0
 40
1.0
 40
1.0
 10
173.8464734734224
 20
-21.09335149306255
 30
0.0
 10
174.5123773439808
 20
-20.00768206866246
 30
0.0
 10
174.8637849396507
 20
-18.75845111694699
 30
0.0
 10
174.8615464047668
 20
-17.48483380673885
 30
0.0
  0
LINE
  5
A5
330
70
100
AcDbEntity
  8
0
 62
    18
420
        0
370
    25
100
AcDbLine
 10
130.3167641431426
 20
-1.24055721905689
 30
0.0
 11
130.8459807172422
 21
-0.0775295651569902
 31
0.0
  0
LWPOLYLINE
  5
A6
330
70
100
AcDbEntity
  8
0
 62
    18
420
        0
370
    25
100
AcDbPolyline
 90
       13
 70
     0
 43
0.0
 10
134.8679308288423
 20
2.227934113743035
 10
134.8360864975423
 20
2.24571548024314
 10
134.4685588169422
 20
2.377903392043299
 10
134.0530855152424
 20
2.405505467543057
 10
133.6017766291426
 20
2.327722471643123
 10
133.1277827781423
 20
2.146816751143078
 10
132.6449190117421
 20
1.868065432243539
 10
132.1672584055425
 20
1.499592728343194
 10
131.7087212732423
 20
1.052132797942989
 10
131.2826744220423
 20
0.5387314787436007
 10
130.9015333916422
 20
-0.0256536803569195
 10
130.5764028886427
 20
-0.6245678380564117
 10
130.3167641431426
 20
-1.24055721905689
  0
LWPOLYLINE
  5
A7
330
70
100
AcDbEntity
  8
0
 62
    18
420
        0
370
    25
100
AcDbPolyline
 90
       11
 70
     0
 43
0.0
 10
130.8459807172422
 20
-0.0775295651569902
 10
130.5401602209427
 20
-0.6738849560568397
 10
130.2995000696425
 20
-1.285807813356752
 10
130.1307891984423
 20
-1.896037406956868
 10
130.0387875672423
 20
-2.487357303856765
 10
130.0260904998422
 20
-3.04308433235675
 10
130.0930562445425
 20
-3.547540823156728
 10
130.2377957662421
 20
-3.986497007356992
 10
130.4562251014424
 20
-4.347568173656423
 10
130.7421829074423
 20
-4.620566582756922
 10
130.8500301073423
 20
-4.689934720456415
  0
LINE
  5
A8
330
70
100
AcDbEntity
  8
0
 62
    18
420
        0
370
    25
100
AcDbLine
 10
130.8459807172422
 20
-0.0775295651569902
 30
0.0
 11
130.8831774512424
 21
-0.0560563476567467
 31
0.0
  0
LINE
  5
A9
330
70
100
AcDbEntity
  8
0
 62
    18
420
        0
370
    25
100
AcDbLine
 10
134.8536568766427
 20
2.236052635643427
 30
0.0
 11
134.8537543412425
 21
2.2361089007431
 31
0.0
  0
SPLINE
  5
AA
330
70
100
AcDbEntity
  8
0
 62
    18
420
        0
370
    25
100
AcDbSpline
210
0.0
220
0.0
230
1.0
 70
     8
 71
     3
 72
     8
 73
     4
 74
     0
 42
0.0000000001
 43
0.0000000001
 40
0.0
 40
0.0
 40
0.0
 40
0.0
 40
1.0
 40
1.0
 40
1.0
 40
1.0
 10
123.4740952004632
 20
3.780167964528561
 30
0.0
 10
123.6905165369856
 20
3.66865228631338
 30
0.0
 10
123.946817095039
 20
3.665564789325648
 30
0.0
 10
124.165861961784
 20
3.771834670961077
 30
0.0
  0
SPLINE
  5
AB
330
70
100
AcDbEntity
  8
0
 62
    18
420
        0
370
    25
100
AcDbSpline
210
0.0
220
0.0
230
1.0
 70
     8
 71
     3
 72
     8
 73
     4
 74
     0
 42
0.0000000001
 43
0.0000000001
 40
0.0
 40
0.0
 40
0.0
 40
0.0
 40
1.0
 40
1.0
 40
1.0
 40
1.0
 10
123.8276486490412
 20
4.392541259276745
 30
0.0
 10
123.6172988082274
 20
4.257987613711021
 30
0.0
 10
123.485446887688
 20
4.029613105329214
 30
0.0
 10
123.4740952004966
 20
3.780167964539471
 30
0.0
  0
SPLINE
  5
AC
330
70
100
AcDbEntity
  8
0
 62
    18
420
        0
370
    25
100
AcDbSpline
210
0.0
220
0.0
230
1.0
 70
     8
 71
     3
 72
     8
 73
     4
 74
     0
 42
0.0000000001
 43
0.0000000001
 40
0.0
 40
0.0
 40
0.0
 40
0.0
 40
1.0
 40
1.0
 40
1.0
 40
1.0
 10
124.1658619618623
 20
3.77183467095851
 30
0.0
 10
124.1558312453938
 20
4.020087228759782
 30
0.0
 10
124.0308142558813
 20
4.249524882775539
 30
0.0
 10
123.8276486490867
 20
4.392541259261986
 30
0.0
  0
LWPOLYLINE
  5
AD
330
70
100
AcDbEntity
  8
0
 62
    18
420
        0
370
    25
100
AcDbPolyline
 90
        3
 70
     0
 43
0.0
 10
124.1813752947425
 20
3.780066485443552
 10
124.1813515871426
 20
3.780055840643421
 10
124.1658619618424
 20
3.771834670943109
  0
SPLINE
  5
AE
330
70
100
AcDbEntity
  8
0
 62
    18
420
        0
370
    25
100
AcDbSpline
210
0.0
220
0.0
230
1.0
 70
     8
 71
     3
 72
     8
 73
     4
 74
     0
 42
0.0000000001
 43
0.0000000001
 40
0.0
 40
0.0
 40
0.0
 40
0.0
 40
1.0
 40
1.0
 40
1.0
 40
1.0
 10
124.17331075875
 20
3.7933273144726
 30
0.0
 10
124.160308977699
 20
4.036779822079851
 30
0.0
 10
124.0318857913176
 20
4.259404639658578
 30
0.0
 10
123.8276486490437
 20
4.392541259288938
 30
0.0
  0
SPLINE
  5
AF
330
70
100
AcDbEntity
  8
0
 62
    18
420
        0
370
    25
100
AcDbSpline
210
0.0
220
0.0
230
1.0
 70
     8
 71
     3
 72
     8
 73
     4
 74
     0
 42
0.0000000001
 43
0.0000000001
 40
0.0
 40
0.0
 40
0.0
 40
0.0
 40
1.0
 40
1.0
 40
1.0
 40
1.0
 10
124.1733107587186
 20
3.793327314478375
 30
0.0
 10
124.1733899448953
 20
3.787770119514873
 30
0.0
 10
124.1764774449279
 20
3.782693223609465
 30
0.0
 10
124.1813752947637
 20
3.780066485461519
 30
0.0
  0
LWPOLYLINE
  5
B0
330
70
100
AcDbEntity
  8
0
 62
    18
420
        0
370
    25
100
AcDbPolyline
 90
        6
 70
     0
 43
0.0
 10
132.6680512931426
 20
8.697522930743287
 10
131.9609260390423
 20
8.289305165443099
 10
129.1321248913422
 20
6.656202990143474
 10
126.6565306331426
 20
5.226972341043063
 10
124.1807490189427
 20
3.797621331143188
 10
124.1733107587423
 20
3.793327314443082
  0
LWPOLYLINE
  5
B1
330
70
100
AcDbEntity
  8
0
 62
    18
420
        0
370
    25
100
AcDbPolyline
 90
        4
 70
     0
 43
0.0
 10
123.8276486490424
 20
4.392541259243377
 10
127.8556529250426
 20
6.716307539843286
 10
130.0854319454425
 20
8.002990207443094
 10
132.3149133861426
 20
9.289844759243027
  0
SPLINE
  5
B2
330
70
100
AcDbEntity
  8
0
 62
    18
420
        0
370
    25
100
AcDbSpline
210
0.0
220
0.0
230
1.0
 70
     8
 71
     3
 72
     8
 73
     4
 74
     0
 42
0.0000000001
 43
0.0000000001
 40
0.0
 40
0.0
 40
0.0
 40
0.0
 40
1.0
 40
1.0
 40
1.0
 40
1.0
 10
132.6680512931356
 20
8.697522930786922
 30
0.0
 10
132.6497272332335
 20
8.939413580685936
 30
0.0
 10
132.5189909098988
 20
9.158698954912848
 30
0.0
 10
132.3149133861747
 20
9.289844759232119
 30
0.0
  0
LWPOLYLINE
  5
B3
330
70
100
AcDbEntity
  8
0
 62
    18
420
        0
370
    25
100
AcDbPolyline
 90
        7
 70
     0
 43
0.0
 10
124.1658619618424
 20
3.771834670943109
 10
124.1658336444422
 20
2.954986928543041
 10
124.1657223503425
 20
-0.3122721231566801
 10
124.1656163247422
 20
-6.845495748556426
 10
124.1656551788426
 20
-9.333356610656377
 10
124.1658619618424
 20
-15.82545525355677
 10
124.1658619618424
 20
-15.83403935915695
  0
SPLINE
  5
B4
330
70
100
AcDbEntity
  8
0
 62
    18
420
        0
370
    25
100
AcDbSpline
210
0.0
220
0.0
230
1.0
 70
     8
 71
     3
 72
     8
 73
     4
 74
     0
 42
0.0000000001
 43
0.0000000001
 40
0.0
 40
0.0
 40
0.0
 40
0.0
 40
1.0
 40
1.0
 40
1.0
 40
1.0
 10
123.4740952004889
 20
-15.81681169113574
 30
0.0
 10
123.687606982786
 20
-15.93674307236676
 30
0.0
 10
123.9466450484415
 20
-15.94319412213299
 30
0.0
 10
124.1658619618096
 20
-15.83403935917235
 30
0.0
  0
LWPOLYLINE
  5
B5
330
70
100
AcDbEntity
  8
0
 62
    18
420
        0
370
    25
100
AcDbPolyline
 90
        4
 70
     0
 43
0.0
 10
123.4740952004427
 20
-15.81681169105681
 10
123.4758047820421
 20
-9.323783166157022
 10
123.4758179529425
 20
-2.829775324156977
 10
123.4740952004427
 20
3.78016796454332
  0
LWPOLYLINE
  5
B6
330
70
100
AcDbEntity
  8
0
 62
    18
420
        0
370
    25
100
AcDbPolyline
 90
        5
 70
     0
 43
0.0
 10
130.8633471944425
 20
-4.666487097256981
 10
129.8758672779422
 20
-6.344191350856924
 10
128.7843132923427
 20
-8.184624991356891
 10
127.6811383011427
 20
-10.03197521535698
 10
124.1813752947425
 20
-15.81723712735672
  0
SPLINE
  5
B7
330
70
100
AcDbEntity
  8
0
 62
    18
420
        0
370
    25
100
AcDbSpline
210
0.0
220
0.0
230
1.0
 70
     8
 71
     3
 72
     8
 73
     4
 74
     0
 42
0.0000000001
 43
0.0000000001
 40
0.0
 40
0.0
 40
0.0
 40
0.0
 40
1.0
 40
1.0
 40
1.0
 40
1.0
 10
124.1658619618385
 20
-15.83403935910561
 30
0.0
 10
124.1723386761256
 20
-15.82980259228155
 30
0.0
 10
124.1776678101442
 20
-15.82403069626544
 30
0.0
 10
124.1813752948131
 20
-15.81723712735736
 30
0.0
  0
LWPOLYLINE
  5
B8
330
70
100
AcDbEntity
  8
0
 62
    18
420
        0
370
    25
100
AcDbPolyline
 90
        7
 70
     0
 43
0.0
 10
124.1813752947425
 20
3.780066485443552
 10
124.1837256401422
 20
3.778709997143378
 10
124.4715293464423
 20
3.612514151343202
 10
125.0461601376423
 20
3.280680924043505
 10
126.1914882335425
 20
2.619290531343356
 10
128.4663291497421
 20
1.305640038443332
 10
130.8854212770426
 20
-0.0913186886566298
  0
SPLINE
  5
B9
330
70
100
AcDbEntity
  8
0
 62
    18
420
        0
370
    25
100
AcDbSpline
210
0.0
220
0.0
230
1.0
 70
     8
 71
     3
 72
     8
 73
     4
 74
     0
 42
0.0000000001
 43
0.0000000001
 40
0.0
 40
0.0
 40
0.0
 40
0.0
 40
1.0
 40
1.0
 40
1.0
 40
1.0
 10
122.2432669540411
 20
5.307185343077081
 30
0.0
 10
122.0329171132275
 20
5.172631697510715
 30
0.0
 10
121.901065192688
 20
4.944257189128908
 30
0.0
 10
121.8897135054966
 20
4.694812048339806
 30
0.0
  0
LINE
  5
BA
330
70
100
AcDbEntity
  8
0
 62
    18
420
        0
370
    25
100
AcDbLine
 10
122.2432669540424
 20
5.307185343043071
 30
0.0
 11
123.8276486490424
 21
4.392541259243377
 31
0.0
  0
LINE
  5
BB
330
70
100
AcDbEntity
  8
0
 62
    18
420
        0
370
    25
100
AcDbLine
 10
123.4740952004427
 20
3.78016796454332
 30
0.0
 11
121.8897135054427
 21
4.694812048343015
 31
0.0
  0
LWPOLYLINE
  5
BC
330
70
100
AcDbEntity
  8
0
 62
    18
420
        0
370
    25
100
AcDbPolyline
 90
        4
 70
     0
 43
0.0
 10
134.8409889498425
 20
2.228739129543203
 10
136.8525503572425
 20
5.790450544042995
 10
139.0863777800425
 20
9.809906092943499
 10
141.152219389242
 20
13.5771262448433
  0
LWPOLYLINE
  5
BD
330
70
100
AcDbEntity
  8
0
 62
    18
420
        0
370
    25
100
AcDbPolyline
 90
        3
 70
     0
 43
0.0
 10
132.6688757908422
 20
8.677396597243319
 10
132.6684148096421
 20
8.688668134943236
 10
132.6680512931426
 20
8.697522930743287
  0
LWPOLYLINE
  5
BE
330
70
100
AcDbEntity
  8
0
 62
    18
420
        0
370
    25
100
AcDbPolyline
 90
        4
 70
     0
 43
0.0
 10
132.6688757908422
 20
8.677396597243319
 10
130.4589906590424
 20
7.401860836543157
 10
128.2487974108427
 20
6.126503042643504
 10
124.1813752947425
 20
3.780066485443552
  0
LINE
  5
BF
330
70
100
AcDbEntity
  8
0
 62
    18
420
        0
370
    25
100
AcDbLine
 10
121.8897135054427
 20
4.694812048343015
 30
0.0
 11
121.8897135054427
 21
-14.90216760725647
 31
0.0
  0
LINE
  5
C0
330
70
100
AcDbEntity
  8
0
 62
    18
420
        0
370
    25
100
AcDbLine
 10
121.8897135054427
 20
-14.90216760725647
 30
0.0
 11
123.4740952004427
 21
-15.81681169105681
 31
0.0
  0
LINE
  5
C1
330
70
100
AcDbEntity
  8
0
 62
    18
420
        0
370
    25
100
AcDbLine
 10
139.2138298499422
 20
15.10408277004326
 30
0.0
 11
122.2432669540424
 21
5.307185343043071
 31
0.0
  0
LINE
  5
C2
330
70
100
AcDbEntity
  8
0
 62
    18
420
        0
370
    25
100
AcDbLine
 10
140.7982115450423
 20
14.18943868624357
 30
0.0
 11
139.2138298499422
 21
15.10408277004326
 31
0.0
  0
LWPOLYLINE
  5
C3
330
70
100
AcDbEntity
  8
0
 62
    18
420
        0
370
    25
100
AcDbPolyline
 90
        4
 70
     0
 43
0.0
 10
132.3149133861426
 20
9.289844759243027
 10
136.3410588379424
 20
11.61470036834354
 10
138.5697087838426
 20
12.9020268532435
 10
140.7982115450423
 20
14.18943868624357
  0
LWPOLYLINE
  5
C4
330
70
100
AcDbEntity
  8
0
 62
    18
420
        0
370
    25
100
AcDbPolyline
 90
        5
 70
     0
 43
0.0
 10
141.1515812596426
 20
13.59467424754331
 10
140.4447272436421
 20
13.1866465758432
 10
137.6171962636421
 20
11.55447865324303
 10
135.1427949587427
 20
10.12612245834343
 10
132.6680512931426
 20
8.697522930743287
  0
SPLINE
  5
C5
330
70
100
AcDbEntity
  8
0
 62
    18
420
        0
370
    25
100
AcDbSpline
210
0.0
220
0.0
230
1.0
 70
     8
 71
     3
 72
     8
 73
     4
 74
     0
 42
0.0000000001
 43
0.0000000001
 40
0.0
 40
0.0
 40
0.0
 40
0.0
 40
1.0
 40
1.0
 40
1.0
 40
1.0
 10
141.151581259667
 20
13.59467424760234
 30
0.0
 10
141.1340776762292
 20
13.83753086540901
 30
0.0
 10
141.0031300964504
 20
14.05793165405594
 30
0.0
 10
140.7982115450397
 20
14.18943868631416
 30
0.0
  0
LWPOLYLINE
  5
C6
330
70
100
AcDbEntity
  8
0
 62
    18
420
        0
370
    25
100
AcDbPolyline
 90
        3
 70
     0
 43
0.0
 10
141.1522193892427
 20
13.5771262448433
 10
141.1522167551426
 20
13.57715210034334
 10
141.1515812596426
 20
13.59467424754331
  0
LWPOLYLINE
  5
C7
330
70
100
AcDbEntity
  8
0
 62
    18
420
        0
370
    25
100
AcDbPolyline
 90
        4
 70
     0
 43
0.0
 10
141.1522193892427
 20
13.5771262448433
 10
138.9433405958422
 20
12.30100963244339
 10
136.7343142884426
 20
11.02497817794337
 10
132.6688757908422
 20
8.677396597243319
  0
SPLINE
  5
C8
330
70
100
AcDbEntity
  8
0
 62
    18
420
        0
370
    25
100
AcDbSpline
210
0.0
220
0.0
230
1.0
 70
     8
 71
     3
 72
     8
 73
     4
 74
     0
 42
0.0000000001
 43
0.0000000001
 40
0.0
 40
0.0
 40
0.0
 40
0.0
 40
1.0
 40
1.0
 40
1.0
 40
1.0
 10
141.1664630484696
 20
13.59466296466524
 30
0.0
 10
141.1604158618567
 20
13.5900047523369
 30
0.0
 10
141.1555387364236
 20
13.58400006063482
 30
0.0
 10
141.1522193893062
 20
13.57712624490169
 30
0.0
  0
LWPOLYLINE
  5
C9
330
70
100
AcDbEntity
  8
0
 62
    18
420
        0
370
    25
100
AcDbPolyline
 90
        3
 70
     0
 43
0.0
 10
124.1813752947425
 20
-15.81723712735672
 10
124.1813726606424
 20
-15.81725994155689
 10
124.1807496775422
 20
-15.83405178225656
  0
SPLINE
  5
CA
330
70
100
AcDbEntity
  8
0
 62
    18
420
        0
370
    25
100
AcDbSpline
210
0.0
220
0.0
230
1.0
 70
     8
 71
     3
 72
     8
 73
     4
 74
     0
 42
0.0000000001
 43
0.0000000001
 40
0.0
 40
0.0
 40
0.0
 40
0.0
 40
1.0
 40
1.0
 40
1.0
 40
1.0
 10
123.4740952004459
 20
-15.81681169106387
 30
0.0
 10
123.691581903298
 20
-15.94166427521814
 30
0.0
 10
123.957433340626
 20
-15.94815019327064
 30
0.0
 10
124.1807496774594
 20
-15.83405178227902
 30
0.0
  0
SPLINE
  5
CB
330
70
100
AcDbEntity
  8
0
 62
    18
420
        0
370
    25
100
AcDbSpline
210
0.0
220
0.0
230
1.0
 70
     8
 71
     3
 72
     8
 73
     4
 74
     0
 42
0.0000000001
 43
0.0000000001
 40
0.0
 40
0.0
 40
0.0
 40
0.0
 40
1.0
 40
1.0
 40
1.0
 40
1.0
 10
141.1515812596349
 20
13.59467424755421
 30
0.0
 10
141.2348799080281
 20
13.62996882683428
 30
0.0
 10
141.2913845170066
 20
13.70895433499309
 30
0.0
 10
141.2978861417063
 20
13.79918792644841
 30
0.0
  0
LWPOLYLINE
  5
CC
330
70
100
AcDbEntity
  8
0
 62
    18
420
        0
370
    25
100
AcDbPolyline
 90
        4
 70
     0
 43
0.0
 10
141.2925308577422
 20
13.79333385474336
 10
141.2970445218426
 20
13.76806559744328
 10
141.2576438039427
 20
13.67540861794313
 10
141.1664630484426
 20
13.59466296464342
  0
SPLINE
  5
CD
330
70
100
AcDbEntity
  8
0
 62
    18
420
        0
370
    25
100
AcDbSpline
210
0.0
220
0.0
230
1.0
 70
     8
 71
     3
 72
     8
 73
     4
 74
     0
 42
0.0000000001
 43
0.0000000001
 40
0.0
 40
0.0
 40
0.0
 40
0.0
 40
1.0
 40
1.0
 40
1.0
 40
1.0
 10
121.8897135054882
 20
-14.90216760728663
 30
0.0
 10
121.8804989202344
 20
-14.99155820661446
 30
0.0
 10
121.9200608071599
 20
-15.07899915459721
 30
0.0
 10
121.9932874100703
 20
-15.1310899643021
 30
0.0
  0
SPLINE
  5
CE
330
70
100
AcDbEntity
  8
0
 62
    18
420
        0
370
    25
100
AcDbSpline
210
0.0
220
0.0
230
1.0
 70
     8
 71
     3
 72
     8
 73
     4
 74
     0
 42
0.0000000001
 43
0.0000000001
 40
0.0
 40
0.0
 40
0.0
 40
0.0
 40
1.0
 40
1.0
 40
1.0
 40
1.0
 10
139.4638093939117
 20
15.12883595517578
 30
0.0
 10
139.382033758449
 20
15.16577122198033
 30
0.0
 10
139.2867737184918
 20
15.15633849254917
 30
0.0
 10
139.213829849948
 20
15.10408277007663
 30
0.0
  0
LWPOLYLINE
  5
CF
330
70
100
AcDbEntity
  8
0
 62
    18
420
        0
370
    25
100
AcDbPolyline
 90
       24
 70
     0
 43
0.0
 10
174.7459447610425
 20
-0.4451991408566019
 10
174.7066126140425
 20
-0.1374566031569526
 10
174.5915332166424
 20
0.1020528215435188
 10
174.4092415216423
 20
0.2555610019433281
 10
174.1732572524426
 20
0.3116877504434004
 10
173.9010822889422
 20
0.266264319842997
 10
173.6129025949424
 20
0.1226638988434531
 10
173.3300911086421
 20
-0.1084634053570044
 10
173.0736227610426
 20
-0.4099778005565346
 10
172.8625185811422
 20
-0.7595160718565222
 10
172.7124351353423
 20
-1.131154557756436
 10
172.6345034721426
 20
-1.497329614156908
 10
172.6345034721426
 20
-1.830886889356827
 10
172.7124351353423
 20
-2.107087004556895
 10
172.8625185811422
 20
-2.30544283225691
 10
173.0736227610426
 20
-2.411245405456976
 10
173.3300911086421
 20
-2.416644707556695
 10
173.6129025949424
 20
-2.32124786195697
 10
173.9010822889422
 20
-2.132120048656502
 10
174.1732572524426
 20
-1.863296955356876
 10
174.4092415216423
 20
-1.534711610956949
 10
174.5915332166424
 20
-1.170730877656663
 10
174.7066126140425
 20
-0.7983566507566992
 10
174.7459447610425
 20
-0.4451991408566019
  0
LWPOLYLINE
  5
D0
330
70
100
AcDbEntity
  8
0
 62
    18
420
        0
370
    25
100
AcDbPolyline
 90
       20
 70
     0
 43
0.0
 10
174.3923913639423
 20
-0.649301172556417
 10
174.3540783711424
 20
-0.4062879682568699
 10
174.2432911919423
 20
-0.2338465511565509
 10
174.0720353395424
 20
-0.1506586760568588
 10
173.8588690509426
 20
-0.1657433919564146
 10
173.6268921793421
 20
-0.277461356656622
 10
173.4012430561425
 20
-0.4737127087564388
 10
173.2063742209424
 20
-0.7332268626569728
 10
173.0634027265424
 20
-1.027879984656644
 10
172.9878218202422
 20
-1.325743783156596
 10
172.9878218202422
 20
-1.594540038556656
 10
173.0634027265424
 20
-1.805139980256774
 10
173.2063742209424
 20
-1.934721728456951
 10
173.4012430561425
 20
-1.969245114256882
 10
173.6268921793421
 20
-1.904967534256522
 10
173.8588690509426
 20
-1.748853745856443
 10
174.0720353395424
 20
-1.517818861856405
 10
174.2432911919423
 20
-1.236906230156634
 10
174.3540783711424
 20
-0.936549616756648
 10
174.3923913639423
 20
-0.649301172556417
  0
SPLINE
  5
D1
330
70
100
AcDbEntity
  8
0
 62
    18
420
        0
370
    25
100
AcDbSpline
210
0.0
220
0.0
230
1.0
 70
     8
 71
     3
 72
     8
 73
     4
 74
     0
 42
0.0000000001
 43
0.0000000001
 40
0.0
 40
0.0
 40
0.0
 40
0.0
 40
1.0
 40
1.0
 40
1.0
 40
1.0
 10
151.9848880455614
 20
-17.43861097177435
 30
0.0
 10
154.6624040497472
 20
-17.76726354592063
 30
0.0
 10
157.3710089640781
 20
-17.75126667822646
 30
0.0
 10
160.0444563186632
 20
-17.3910116166036
 30
0.0
  0
SPLINE
  5
D2
330
70
100
AcDbEntity
  8
0
 62
    18
420
        0
370
    25
100
AcDbSpline
210
0.0
220
0.0
230
1.0
 70
     8
 71
     3
 72
     8
 73
     4
 74
     0
 42
0.0000000001
 43
0.0000000001
 40
0.0
 40
0.0
 40
0.0
 40
0.0
 40
1.0
 40
1.0
 40
1.0
 40
1.0
 10
173.3691614018742
 20
-10.93671024663531
 30
0.0
 10
174.7932727927661
 20
-8.787497947074458
 30
0.0
 10
174.8512909674823
 20
-6.010019742716309
 30
0.0
 10
173.5181715847839
 20
-3.803212212883204
 30
0.0
  0
SPLINE
  5
D3
330
70
100
AcDbEntity
  8
0
 62
    18
420
        0
370
    25
100
AcDbSpline
210
0.0
220
0.0
230
1.0
 70
     8
 71
     3
 72
     8
 73
     4
 74
     0
 42
0.0000000001
 43
0.0000000001
 40
0.0
 40
0.0
 40
0.0
 40
0.0
 40
1.0
 40
1.0
 40
1.0
 40
1.0
 10
138.1767717394948
 20
-3.746791805006347
 30
0.0
 10
136.8081067168253
 20
-5.966546906225312
 30
0.0
 10
136.85683140828
 20
-8.77994545407326
 30
0.0
 10
138.3015395819706
 20
-10.95097630289507
 30
0.0
  0
SPLINE
  5
D4
330
70
100
AcDbEntity
  8
0
 62
    18
420
        0
370
    25
100
AcDbSpline
210
0.0
220
0.0
230
1.0
 70
     8
 71
     3
 72
     8
 73
     4
 74
     0
 42
0.0000000001
 43
0.0000000001
 40
0.0
 40
0.0
 40
0.0
 40
0.0
 40
1.0
 40
1.0
 40
1.0
 40
1.0
 10
173.3370741500453
 20
-14.59575390439774
 30
0.0
 10
174.0368049577998
 20
-13.51987256923025
 30
0.0
 10
174.4246831588358
 20
-12.27111934828413
 30
0.0
 10
174.4576462408364
 20
-10.98813170769364
 30
0.0
  0
SPLINE
  5
D5
330
70
100
AcDbEntity
  8
0
 62
    18
420
        0
370
    25
100
AcDbSpline
210
0.0
220
0.0
230
1.0
 70
     8
 71
     3
 72
     8
 73
     4
 74
     0
 42
0.0000000001
 43
0.0000000001
 40
0.0
 40
0.0
 40
0.0
 40
0.0
 40
1.0
 40
1.0
 40
1.0
 40
1.0
 10
137.2040303784368
 20
-10.98813208785348
 30
0.0
 10
137.2381388594726
 20
-12.28214366025649
 30
0.0
 10
137.6322560865793
 20
-13.54103487689019
 30
0.0
 10
138.3421388509328
 20
-14.6234838589982
 30
0.0
  0
LINE
  5
D6
330
70
100
AcDbEntity
  8
0
 62
    18
420
        0
370
    25
100
AcDbLine
 10
140.3252745139422
 20
-52.29451336425652
 30
0.0
 11
140.3239297660425
 21
-52.22336917585691
 31
0.0
  0
LWPOLYLINE
  5
D7
330
70
100
AcDbEntity
  8
0
 62
    18
420
        0
370
    25
100
AcDbPolyline
 90
       43
 70
     0
 43
0.0
 10
152.2953045650422
 20
13.94391329624321
 10
151.8078495086425
 20
13.61691849584335
 10
151.4102609998426
 20
13.25163543174303
 10
151.1114215692421
 20
12.85622335244328
 10
150.9180057302426
 20
12.43951559484315
 10
150.8343343577426
 20
12.01082070794359
 10
150.8622770597422
 20
11.57971478504346
 10
151.0012088775426
 20
11.15582790374336
 10
151.248027078542
 20
10.74862951974318
 10
151.5972176697426
 20
10.36721519204323
 10
152.0409798620423
 20
10.02010547284314
 10
152.5694012436427
 20
9.715054302443338
 10
153.1706780626425
 20
9.458875841743189
 10
153.8313779868425
 20
9.257292784443242
 10
154.5367430336425
 20
9.114807479743181
 10
155.2710158795425
 20
9.034604038643038
 10
156.0177941563426
 20
9.018473060143241
 10
156.7603962731425
 20
9.066775325243199
 10
157.4822334937424
 20
9.178431912443528
 10
158.1671811913425
 20
9.350948433643278
 10
158.7999392366425
 20
9.580471014043528
 10
159.3663722188421
 20
9.861872828343004
 10
159.8538272495424
 20
10.18886761384325
 10
160.2514150843421
 20
10.55415104914336
 10
160.5502548853422
 20
10.9495629621436
 10
160.7436707244424
 20
11.36627071974309
 10
160.8273417675423
 20
11.79496579674343
 10
160.7993992302423
 20
12.22607181464325
 10
160.6604674124426
 20
12.64995831584318
 10
160.4136492114426
 20
13.05715707994353
 10
160.0644592787427
 20
13.43857102754331
 10
159.6206970864423
 20
13.78568074674341
 10
159.0922757048426
 20
14.09073191714321
 10
158.4909988858422
 20
14.34691037784336
 10
157.8302983031421
 20
14.54849381534357
 10
157.1249332562426
 20
14.69097873984337
 10
156.3906604104421
 20
14.77118256114313
 10
155.6438819689422
 20
14.78731344464324
 10
154.9012801814424
 20
14.73901098944315
 10
154.1794429608426
 20
14.62735440224346
 10
153.4944948928422
 20
14.45483804734322
 10
152.8617375214423
 20
14.22531509564308
 10
152.2953045650422
 20
13.94391329624321
  0
LWPOLYLINE
  5
D8
330
70
100
AcDbEntity
  8
0
 62
    18
420
        0
370
    25
100
AcDbPolyline
 90
       23
 70
     0
 43
0.0
 10
150.8308381449424
 20
2.30905154564328
 10
150.8622770597422
 20
1.985873125943503
 10
151.0012088775426
 20
1.561986244643407
 10
151.248027078542
 20
1.154787860643224
 10
151.5972176697426
 20
0.7733735328431775
 10
152.0409798620423
 20
0.426263813643079
 10
152.5694012436427
 20
0.1212126433433829
 10
153.1706780626425
 20
-0.1349658174568713
 10
153.8313779868425
 20
-0.336548874756819
 10
154.5367430336425
 20
-0.4790341793567745
 10
155.2710158795425
 20
-0.5592376205563801
 10
156.0177941563426
 20
-0.5753685990568198
 10
156.7603962731425
 20
-0.5270663339568617
 10
157.4822334937424
 20
-0.4154097467565324
 10
158.1671811913425
 20
-0.2428932254566771
 10
158.7999392366425
 20
-0.0133706450564278
 10
159.3663722188421
 20
0.268031169143586
 10
159.8538272495424
 20
0.5950259546431945
 10
160.2514150843421
 20
0.9603093900434123
 10
160.5502548853422
 20
1.355721303043005
 10
160.7436707244424
 20
1.772429060643135
 10
160.8273417675423
 20
2.201124137643474
 10
160.8308383096425
 20
2.309051450643587
  0
SPLINE
  5
D9
330
70
100
AcDbEntity
  8
0
 62
    18
420
        0
370
    25
100
AcDbSpline
210
0.0
220
0.0
230
1.0
 70
     8
 71
     3
 72
     8
 73
     4
 74
     0
 42
0.0000000001
 43
0.0000000001
 40
0.0
 40
0.0
 40
0.0
 40
0.0
 40
1.0
 40
1.0
 40
1.0
 40
1.0
 10
163.1028463320193
 20
-1.84637718863355
 30
0.0
 10
163.6674004789818
 20
-0.9311860815971348
 30
0.0
 10
163.6473139311669
 20
0.228967762292572
 30
0.0
 10
163.0514169693954
 20
1.124067174761777
 30
0.0
  0
SPLINE
  5
DA
330
70
100
AcDbEntity
  8
0
 62
    18
420
        0
370
    25
100
AcDbSpline
210
0.0
220
0.0
230
1.0
 70
     8
 71
     3
 72
     8
 73
     4
 74
     0
 42
0.0000000001
 43
0.0000000001
 40
0.0
 40
0.0
 40
0.0
 40
0.0
 40
1.0
 40
1.0
 40
1.0
 40
1.0
 10
148.6078562915822
 20
1.120274792353812
 30
0.0
 10
148.0187664933613
 20
0.2266916376325942
 30
0.0
 10
147.9983145274186
 20
-0.9266161283287999
 30
0.0
 10
148.5553515257767
 20
-1.840523906625157
 30
0.0
  0
LWPOLYLINE
  5
DB
330
70
100
AcDbEntity
  8
0
 62
    18
420
        0
370
    25
100
AcDbPolyline
 90
       18
 70
     0
 43
0.0
 10
158.814526491442
 20
-10.16027982445674
 10
157.9476201475423
 20
-10.33501720175679
 10
157.0509987936427
 20
-10.44933773275698
 10
156.1372491910421
 20
-10.50163653135664
 10
155.2191979756426
 20
-10.49117958485659
 10
154.3097331928423
 20
-10.41811382895679
 10
153.4216210572421
 20
-10.28346477125668
 10
152.5673294626425
 20
-10.08912242515644
 10
151.7588505045424
 20
-9.837815268256475
 10
151.0075322218423
 20
-9.533070894756502
 10
150.3239235099425
 20
-9.179167163756625
 10
149.7176200206427
 20
-8.781072512356573
 10
149.1971321247422
 20
-8.344375054256973
 10
148.7697670321423
 20
-7.875204644956675
 10
148.4415237539423
 20
-7.380148293956921
 10
148.2170104554427
 20
-6.866154932256481
 10
148.0993786012423
 20
-6.340439609556676
 10
148.0809851238423
 20
-6.003550941556387
  0
LWPOLYLINE
  5
DC
330
70
100
AcDbEntity
  8
0
 62
    18
420
        0
370
    25
100
AcDbPolyline
 90
       11
 70
     0
 43
0.0
 10
163.5806908368423
 20
-6.003551321756651
 10
163.5351468865424
 20
-6.51625742895696
 10
163.3816847780423
 20
-7.038884728656779
 10
163.1222249920422
 20
-7.547365535356803
 10
162.7604101849424
 20
-8.034562211456643
 10
162.3013193813425
 20
-8.493635314756899
 10
161.7513972933425
 20
-8.918140666756517
 10
161.1183634516425
 20
-9.302119066556814
 10
160.4111045954421
 20
-9.640180272756742
 10
159.6395485815421
 20
-9.927578645556655
 10
158.814526491442
 20
-10.16027982445674
  0
LINE
  5
DD
330
70
100
AcDbEntity
  8
0
 62
    18
420
        0
370
    25
100
AcDbLine
 10
159.8882347440421
 20
0.301481156743483
 30
0.0
 11
159.8872268416425
 21
0.3411942489435932
 31
0.0
  0
SPLINE
  5
DE
330
70
100
AcDbEntity
  8
0
 62
    18
420
        0
370
    25
100
AcDbSpline
210
0.0
220
0.0
230
1.0
 70
     8
 71
     3
 72
     8
 73
     4
 74
     0
 42
0.0000000001
 43
0.0000000001
 40
0.0
 40
0.0
 40
0.0
 40
0.0
 40
1.0
 40
1.0
 40
1.0
 40
1.0
 10
171.8813289171349
 20
-9.853514389679304
 30
0.0
 10
173.1402835691042
 20
-7.863779006741893
 30
0.0
 10
173.1304859584234
 20
-5.324370143461109
 30
0.0
 10
171.856215322324
 20
-3.344408513579877
 30
0.0
  0
SPLINE
  5
DF
330
70
100
AcDbEntity
  8
0
 62
    18
420
        0
370
    25
100
AcDbSpline
210
0.0
220
0.0
230
1.0
 70
     8
 71
     3
 72
     8
 73
     4
 74
     0
 42
0.0000000001
 43
0.0000000001
 40
0.0
 40
0.0
 40
0.0
 40
0.0
 40
1.0
 40
1.0
 40
1.0
 40
1.0
 10
139.8203565858713
 20
-3.320220029419048
 30
0.0
 10
138.5612284514399
 20
-5.267038918093705
 30
0.0
 10
138.5212395287932
 20
-7.761112228408822
 30
0.0
 10
139.7173075412639
 20
-9.747296699640614
 30
0.0
  0
LWPOLYLINE
  5
E0
330
70
100
AcDbEntity
  8
0
 62
    18
420
        0
370
    25
100
AcDbPolyline
 90
       41
 70
     0
 43
0.0
 10
138.8308388033425
 20
-6.959780441156802
 10
138.8813662893424
 20
-7.715873250756511
 10
139.0390040638423
 20
-8.49088064115681
 10
139.3028057984422
 20
-9.256208151756952
 10
139.6711040585423
 20
-10.0070169833568
 10
140.1415682550423
 20
-10.73856071785661
 10
140.7112250595426
 20
-11.44621307075681
 10
141.3764742091425
 20
-12.12550058565663
 10
142.1331069459426
 20
-12.7721292464566
 10
142.9763422368426
 20
-13.382009948357
 10
143.9008458712427
 20
-13.95128777095653
 10
144.9007772180423
 20
-14.47636288795646
 10
145.9698109570421
 20
-14.95391527775665
 10
147.1011884461425
 20
-15.380926773457
 10
148.2877582211424
 20
-15.75469683995684
 10
149.5220183077423
 20
-16.07286243765697
 10
150.7961646241422
 20
-16.33341227915651
 10
152.1021412777427
 20
-16.53469913675681
 10
153.4316918491426
 20
-16.67545044015643
 10
154.7764108819426
 20
-16.75477595075644
 10
156.1277968547426
 20
-16.77217401095693
 10
157.4773047820426
 20
-16.72753529815663
 10
158.8164035079424
 20
-16.62114168455648
 10
160.1366262079421
 20
-16.45366573775663
 10
161.4296263243427
 20
-16.22616651525675
 10
162.6872290149425
 20
-15.9400823889567
 10
163.9014840010424
 20
-15.59722163595639
 10
165.0647133123421
 20
-15.19975236355671
 10
166.1695629822427
 20
-14.75018711315674
 10
167.2090481585424
 20
-14.25136860335667
 10
168.1765963405426
 20
-13.70645009175658
 10
169.0660908640425
 20
-13.11887711545642
 10
169.8719081086423
 20
-12.49236449025687
 10
170.5889529363427
 20
-11.83087281175659
 10
171.2126922146425
 20
-11.13858454025647
 10
171.7391824143424
 20
-10.41987666375674
 10
172.1650950871422
 20
-9.679293065256731
 10
172.4877374442426
 20
-8.921515533756878
 10
172.7050693149422
 20
-8.151335347556889
 10
172.8157164814426
 20
-7.373622194856412
 10
172.8308383920422
 20
-6.959780393656955
  0
LWPOLYLINE
  5
E1
330
70
100
AcDbEntity
  8
0
 62
    18
420
        0
370
    25
100
AcDbPolyline
 90
       22
 70
     0
 43
0.0
 10
167.8165859659422
 20
-13.91944650725647
 10
167.6447048204423
 20
-14.01784641235646
 10
166.6339733437421
 20
-14.54400615335663
 10
165.5531789876421
 20
-15.02150855085649
 10
164.4093317936426
 20
-15.44725759815679
 10
163.2098499364427
 20
-15.81849117275661
 10
161.9625119791422
 20
-16.13280251545691
 10
160.6754074824426
 20
-16.38815277665679
 10
159.3568848150421
 20
-16.5828859371568
 10
158.0154940250421
 20
-16.71573916845675
 10
156.6599353084421
 20
-16.78585072105671
 10
155.2989991643426
 20
-16.79276605455664
 10
153.9415125381422
 20
-16.73644020195664
 10
152.5962785441424
 20
-16.61723870845698
 10
151.2720221355424
 20
-16.43593439935662
 10
149.9773312061426
 20
-16.19370303255639
 10
148.7206020748423
 20
-15.89211615815686
 10
147.5099871934426
 20
-15.53312841835654
 10
146.3533341076421
 20
-15.11906968295653
 10
145.2581475905423
 20
-14.65262394955689
 10
144.2315287275421
 20
-14.13681698845661
 10
143.8800951338425
 20
-13.93971575125672
  0
LWPOLYLINE
  5
E2
330
70
100
AcDbEntity
  8
0
 62
     8
420
  8421504
370
    25
100
AcDbPolyline
 90
       36
 70
     0
 43
0.0
 10
173.9371030272426
 20
-14.54000575115673
 10
173.7104280562423
 20
-14.94881624465639
 10
173.1947202057421
 20
-15.72221380655666
 10
172.5787950519423
 20
-16.47077830665639
 10
171.8662074181422
 20
-17.19018949695659
 10
171.0610694209421
 20
-17.87629468925687
 10
170.1680291910427
 20
-18.5251347256564
 10
169.1922402093424
 20
-19.13296434095668
 10
168.1393343076422
 20
-19.69627535335695
 10
167.015388657942
 20
-20.21181648075698
 10
165.8268906646427
 20
-20.676612848157
 10
164.5806989040427
 20
-21.0879809328566
 10
163.2840066578424
 20
-21.44354695575642
 10
161.9442979551424
 20
-21.74125857085653
 10
160.5693041083426
 20
-21.97939817165669
 10
159.1669618960424
 20
-22.15659030435691
 10
157.7453654886424
 20
-22.27181269285658
 10
156.3127185398423
 20
-22.32440051535638
 10
154.8772905574422
 20
-22.31405011145692
 10
153.4473656200422
 20
-22.24082131025688
 10
152.0311981660425
 20
-22.10513623975689
 10
150.6369604192426
 20
-21.90777862855682
 10
149.2726996131425
 20
-21.64988736105669
 10
147.9462892289425
 20
-21.3329511368568
 10
146.6653857520427
 20
-20.95879871475692
 10
145.4373813443423
 20
-20.52958983845683
 10
144.2693640852423
 20
-20.04780140835653
 10
143.1680748361423
 20
-19.51621474555652
 10
142.1398708565427
 20
-18.93789762905698
 10
141.1906856325424
 20
-18.316187188157
 10
140.3259969372423
 20
-17.65467298465683
 10
139.5507965380423
 20
-16.95717192185689
 10
138.8695566106422
 20
-16.22771037655649
 10
138.2862113000423
 20
-15.47049834745653
 10
137.8041277442425
 20
-14.68990664505665
 10
137.7042515670426
 20
-14.50043541275656
  0
LWPOLYLINE
  5
E3
330
70
100
AcDbEntity
  8
0
 62
     8
420
  8421504
370
    25
100
AcDbPolyline
 90
       21
 70
     0
 43
0.0
 10
137.2016569840424
 20
-10.76610013625663
 10
137.1880363079421
 20
-11.02002114955696
 10
137.2153975151422
 20
-11.84446922305691
 10
137.3520013781427
 20
-12.66528857715698
 10
137.5970457895423
 20
-13.47766398315662
 10
137.9490944638422
 20
-14.27682545235638
 10
138.4060782542425
 20
-15.05808549295656
 10
138.9653195188422
 20
-15.81685849855668
 10
139.6235334374424
 20
-16.54869192235684
 10
140.3768596223422
 20
-17.24929060755664
 10
141.2208746298427
 20
-17.91454377955649
 10
142.1506268640424
 20
-18.54054671605649
 10
143.1606602835424
 20
-19.12362659785665
 10
144.2450466707423
 20
-19.66036113795694
 10
145.3974238270427
 20
-20.14760063065643
 10
146.6110271834421
 20
-20.58248620015663
 10
147.8787372150426
 20
-20.96246500735661
 10
149.1931128630422
 20
-21.28530802235672
 10
150.5464422418424
 20
-21.54911952935665
 10
151.9307808968423
 20
-21.75235312885654
 10
152.7796766041423
 20
-21.84535340125667
  0
LWPOLYLINE
  5
E4
330
70
100
AcDbEntity
  8
0
 62
     8
420
  8421504
370
    25
100
AcDbPolyline
 90
       21
 70
     0
 43
0.0
 10
158.3774029216421
 20
-21.88958340785656
 10
159.0296290243426
 20
-21.83086525465666
 10
160.4264368286425
 20
-21.65839178765654
 10
161.7962765768423
 20
-21.42469770065664
 10
163.1311080989423
 20
-21.13115502595681
 10
164.4230993251426
 20
-20.77948593215692
 10
165.6646674447421
 20
-20.37175455025678
 10
166.8485268151427
 20
-19.91035376325656
 10
167.9677299565422
 20
-19.39799066405662
 10
169.0157087929422
 20
-18.83767225205649
 10
169.9863139591427
 20
-18.23268692355656
 10
170.8738490040425
 20
-17.58658472645661
 10
171.6731053755423
 20
-16.90315716395672
 10
172.3793933725424
 20
-16.18641514485675
 10
172.9885677865425
 20
-15.44056467585691
 10
173.4970540380422
 20
-14.66998265035686
 10
173.9018676033421
 20
-13.87919118635679
 10
174.2006334415423
 20
-13.07283082465657
 10
174.3915978486422
 20
-12.25563391705696
 10
174.4736401466422
 20
-11.43239601865661
 10
174.4600197998426
 20
-10.7660998511568
  0
LWPOLYLINE
  5
E5
330
70
100
AcDbEntity
  8
0
 62
     8
420
  8421504
370
    25
100
AcDbPolyline
 90
       43
 70
     0
 43
0.0
 10
136.8308378155424
 20
-14.64551651555662
 10
136.8488832521427
 20
-15.12339052885669
 10
136.9661338090421
 20
-15.9520961222564
 10
137.1917880360426
 20
-16.7732929848565
 10
137.5245505759422
 20
-17.58226359145692
 10
137.9625090154421
 20
-18.37435770675682
 10
138.5031450805422
 20
-19.14502393985694
 10
139.1433543923427
 20
-19.88983331415665
 10
139.8794556870421
 20
-20.60450740055643
 10
140.7072217674421
 20
-21.28493770545675
 10
141.6218920152425
 20
-21.92721570475656
 10
142.6182138795422
 20
-22.5276491907564
 10
143.6904619743425
 20
-23.08278850395655
 10
144.8324713352427
 20
-23.58944421125659
 10
146.0376838467425
 20
-24.04470326255691
 10
147.2991706328421
 20
-24.44595104105661
 10
148.6096839172422
 20
-24.79088153275681
 10
149.9616929966426
 20
-25.07751201035639
 10
151.3474293506424
 20
-25.30419538875702
 10
152.7589290359423
 20
-25.46962949185687
 10
154.1880802659427
 20
-25.57286399075668
 10
155.6266720607422
 20
-25.61330491765677
 10
157.0664370525423
 20
-25.59072036925701
 10
158.4991016174421
 20
-25.50523979315663
 10
159.9164332906422
 20
-25.35735474885671
 10
161.3102875227424
 20
-25.14791472535641
 10
162.6726547664424
 20
-24.87812314965657
 10
163.9957062443424
 20
-24.54953073395655
 10
165.2718384017424
 20
-24.16402540055696
 10
166.4937193332423
 20
-23.72382296835669
 10
167.6543266496421
 20
-23.23145213575678
 10
168.7469915174421
 20
-22.68974312335676
 10
169.7654348693426
 20
-22.10180829085645
 10
170.7038041686424
 20
-21.47102623575687
 10
171.5567077984424
 20
-20.80102194095671
 10
172.3192435635424
 20
-20.09564499855679
 10
172.9870307437423
 20
-19.35894958505695
 10
173.5562308475422
 20
-18.59516841445641
 10
174.0235742016426
 20
-17.80869054545638
 10
174.3863742736426
 20
-17.00403562475661
 10
174.6425464408422
 20
-16.18582746585655
 10
174.7906191856424
 20
-15.35876781695696
 10
174.8308384744422
 20
-14.64540265475646
  0
LWPOLYLINE
  5
E6
330
70
100
AcDbEntity
  8
0
 62
     8
420
  8421504
370
    25
100
AcDbPolyline
 90
       35
 70
     0
 43
0.0
 10
137.8417754166423
 20
-21.1380940396567
 10
138.1713743087422
 20
-21.64790306405643
 10
138.7603989071425
 20
-22.40944750655636
 10
139.4477962256425
 20
-23.14300347895645
 10
140.2296044605423
 20
-23.84434349495685
 10
141.1013211428421
 20
-24.50942521045669
 10
142.0579196023422
 20
-25.13441613535646
 10
143.0938891387422
 20
-25.71571530255645
 10
144.2032587289424
 20
-26.24997151665685
 10
145.3796368691422
 20
-26.73410635385671
 10
146.6162415388422
 20
-27.16533145985696
 10
147.9059486034422
 20
-27.54115976485698
 10
149.2413250710421
 20
-27.85942620265684
 10
150.6146760139422
 20
-28.1182965496566
 10
152.0180861899427
 20
-28.31627928745692
 10
153.4434680243427
 20
-28.45223353285701
 10
154.8826081397423
 20
-28.52537537025693
 10
156.3272127751421
 20
-28.53528354185642
 10
157.7689571871427
 20
-28.48190059445646
 10
159.1995321903423
 20
-28.36553465565652
 10
160.6106942892422
 20
-28.18685643975678
 10
161.9943111177426
 20
-27.94689506595697
 10
163.3424090190421
 20
-27.6470335915567
 10
164.6472194726422
 20
-27.28900045775688
 10
165.9012225588423
 20
-26.87485808495644
 10
167.0971922335424
 20
-26.40699384355654
 10
168.2282363345427
 20
-25.88810380165672
 10
169.2878371643425
 20
-25.32117804115649
 10
170.2698877106423
 20
-24.70948354985686
 10
171.1687291003423
 20
-24.05654564105691
 10
171.9791817163421
 20
-23.36612694875691
 10
172.6965750786425
 20
-22.64220637615663
 10
173.3167738570424
 20
-21.88895533465647
 10
173.8362054475422
 20
-21.11071498165669
 10
173.8464734734423
 20
-21.09335149305677
  0
LWPOLYLINE
  5
E7
330
70
100
AcDbEntity
  8
0
 62
     8
420
  8421504
370
    25
100
AcDbPolyline
 90
        5
 70
     0
 43
0.0
 10
141.1692381550421
 20
-0.5110134082566274
 10
141.1704551452422
 20
4.603958850243555
 10
141.1699256754427
 20
7.092100657443324
 10
141.1664689753424
 20
13.58607619784353
 10
141.1664630484426
 20
13.59466296464342
  0
LWPOLYLINE
  5
E8
330
70
100
AcDbEntity
  8
0
 62
     8
420
  8421504
370
    25
100
AcDbPolyline
 90
        6
 70
     0
 43
0.0
 10
124.1807496775422
 20
-15.83405178225656
 10
124.8881087971422
 20
-15.426319502957
 10
127.7174287133425
 20
-13.79517784725694
 10
133.3750073835426
 20
-10.53092327825675
 10
135.5294596959426
 20
-9.286573065856554
 10
137.1699740784424
 20
-8.338360852056638
  0
SPLINE
  5
E9
330
70
100
AcDbEntity
  8
0
 62
     8
420
  8421504
370
    25
100
AcDbSpline
210
0.0
220
0.0
230
1.0
 70
     8
 71
     3
 72
     8
 73
     4
 74
     0
 42
0.0000000001
 43
0.0000000001
 40
0.0
 40
0.0
 40
0.0
 40
0.0
 40
1.0
 40
1.0
 40
1.0
 40
1.0
 10
124.0774866059004
 20
-16.04581731417345
 30
0.0
 10
124.1462520185206
 20
-15.99786975315925
 30
0.0
 10
124.1853166728481
 20
-15.91775837186723
 30
0.0
 10
124.1807496774748
 20
-15.83405178232201
 30
0.0
  0
SPLINE
  5
EA
330
70
100
AcDbEntity
  8
0
 62
     8
420
  8421504
370
    25
100
AcDbSpline
210
0.0
220
0.0
230
1.0
 70
     8
 71
     3
 72
     8
 73
     4
 74
     0
 42
0.0000000001
 43
0.0000000001
 40
0.0
 40
0.0
 40
0.0
 40
0.0
 40
1.0
 40
1.0
 40
1.0
 40
1.0
 10
123.4740952004883
 20
-15.81681169108697
 30
0.0
 10
123.4648806152345
 20
-15.90620229041415
 30
0.0
 10
123.5044425021599
 20
-15.9936432383969
 30
0.0
 10
123.5776691050703
 20
-16.0457340481018
 30
0.0
  0
SPLINE
  5
EB
330
70
100
AcDbEntity
  8
0
 62
     8
420
  8421504
370
    25
100
AcDbSpline
210
0.0
220
0.0
230
1.0
 70
     8
 71
     3
 72
     8
 73
     4
 74
     0
 42
0.0000000001
 43
0.0000000001
 40
0.0
 40
0.0
 40
0.0
 40
0.0
 40
1.0
 40
1.0
 40
1.0
 40
1.0
 10
141.0481910890112
 20
14.21419187137609
 30
0.0
 10
140.9664154535491
 20
14.25112713818064
 30
0.0
 10
140.8711554135919
 20
14.24169440874883
 30
0.0
 10
140.7982115450481
 20
14.18943868627694
 30
0.0
  0
LWPOLYLINE
  5
EC
330
70
100
AcDbEntity
  8
0
 62
     8
420
  8421504
370
    25
100
AcDbPolyline
 90
       27
 70
     0
 43
0.0
 10
171.6923743878426
 20
-1.639027456856588
 10
171.9858850408427
 20
-1.937095671056731
 10
172.6153268207427
 20
-2.665979548656375
 10
173.1462709216426
 20
-3.420539799356813
 10
173.5755999586425
 20
-4.196349822856877
 10
173.9007963250423
 20
-4.988855572056431
 10
174.1199504617422
 20
-5.79340693885671
 10
174.2317774930424
 20
-6.605281803956478
 10
174.2356201002427
 20
-7.419716588956979
 10
174.1314563043427
 20
-8.231931278156956
 10
173.9198969055423
 20
-9.037159874856429
 10
173.6021840833421
 20
-9.830676204856651
 10
173.1801815186422
 20
-10.60782471075638
 10
172.6563666558423
 20
-11.36404411685699
 10
172.0338125930424
 20
-12.09489651275644
 10
171.3161730997421
 20
-12.79609348995653
 10
170.5076590741421
 20
-13.46351961665696
 10
169.6130165642422
 20
-14.09325881295644
 10
168.6374937580426
 20
-14.68161454665651
 10
167.5868171118423
 20
-15.22513502005657
 10
166.4671513429426
 20
-15.7206301818568
 10
165.2850675730422
 20
-16.16519239965641
 10
164.0475024162425
 20
-16.55621285415697
 10
162.7617192891421
 20
-16.89139665135646
 10
161.4352624775424
 20
-17.16877717355663
 10
160.0759163068422
 20
-17.38672634435684
 10
160.0444563186426
 20
-17.39101161665686
  0
LWPOLYLINE
  5
ED
330
70
100
AcDbEntity
  8
0
 62
     8
420
  8421504
370
    25
100
AcDbPolyline
 90
       37
 70
     0
 43
0.0
 10
151.9848880455422
 20
-17.43861097175638
 10
151.6834448946422
 20
-17.39992281705682
 10
150.3220632863421
 20
-17.18625138655641
 10
148.9930081873424
 20
-16.91304683785692
 10
147.7040810041422
 20
-16.58191137225696
 10
146.4628444616424
 20
-16.19478841695652
 10
145.2765828854422
 20
-15.75395034105656
 10
144.1522584080423
 20
-15.26198381895639
 10
143.0964679990421
 20
-14.72177566875662
 10
142.1154085623426
 20
-14.136495745157
 10
141.2148364352423
 20
-13.50957964115676
 10
140.4000364377427
 20
-12.84470625855692
 10
139.6757902612424
 20
-12.14577651825666
 10
139.0463494692426
 20
-11.41689321095677
 10
138.5154058622424
 20
-10.66233172465649
 10
138.0860756727427
 20
-9.886521796256866
 10
137.7608798093425
 20
-9.09401633725672
 10
137.5417260752426
 20
-8.289465202956836
 10
137.4298999494427
 20
-7.477590100256448
 10
137.4260566836423
 20
-6.663155695456853
 10
137.5302206441426
 20
-5.850941101256568
 10
137.7417800429423
 20
-5.045712504556453
 10
138.0594928651425
 20
-4.252195414156989
 10
138.4814947713425
 20
-3.475047288556983
 10
139.0053106218423
 20
-2.718828072456405
 10
139.6278636968422
 20
-1.987975106256559
 10
140.3455030255421
 20
-1.286778224156901
 10
141.1540170511421
 20
-0.6193520974564798
 10
142.0486603019426
 20
0.0103867662433362
 10
143.0241823672423
 20
0.5987428325430776
 10
144.0748597543425
 20
1.142262973243356
 10
145.1945254409423
 20
1.637758087543104
 10
146.3766092108422
 20
2.082320305343348
 10
147.6141738737422
 20
2.473340854943065
 10
148.8999570008425
 20
2.808525032243363
 10
150.2264144709422
 20
3.085905174343373
 10
150.8308381449424
 20
3.190821923843534
  0
SPLINE
  5
EE
330
70
100
AcDbEntity
  8
0
 62
     8
420
  8421504
370
    25
100
AcDbSpline
210
0.0
220
0.0
230
1.0
 70
     8
 71
     3
 72
     8
 73
     4
 74
     0
 42
0.0000000001
 43
0.0000000001
 40
0.0
 40
0.0
 40
0.0
 40
0.0
 40
1.0
 40
1.0
 40
1.0
 40
1.0
 10
165.189098540454
 20
2.115233778069889
 30
0.0
 10
163.7684855548001
 20
2.593313496179987
 30
0.0
 10
162.3107625621407
 20
2.953069222716441
 30
0.0
 10
160.8308384743038
 20
3.190821543667013
 30
0.0
  0
LWPOLYLINE
  5
EF
330
70
100
AcDbEntity
  8
0
 62
     8
420
  8421504
370
    25
100
AcDbPolyline
 90
       33
 70
     0
 43
0.0
 10
173.3691614019422
 20
-10.93671024665649
 10
172.8847614157426
 20
-11.6286355512569
 10
172.2537565805424
 20
-12.36940904455671
 10
171.5263757322422
 20
-13.08012404415652
 10
170.7068868978422
 20
-13.75661008885691
 10
169.8001000245421
 20
-14.39489748295638
 10
168.8113352671424
 20
-14.99123978515685
 10
167.7463964401422
 20
-15.54213825835663
 10
166.6115316286424
 20
-16.04435928665657
 10
165.4134020926421
 20
-16.49495612745659
 10
164.1590381239426
 20
-16.89128451065688
 10
162.8558006038422
 20
-17.23101836835695
 10
161.5113385269422
 20
-17.51216371065661
 10
160.1335402683425
 20
-17.7330715516564
 10
158.7304927548422
 20
-17.89244475265678
 10
157.3104284512421
 20
-17.98934847635637
 10
155.8816814029422
 20
-18.02321370385673
 10
154.4526361163424
 20
-17.99384193905686
 10
153.0316776328426
 20
-17.90140604035678
 10
151.6271468712423
 20
-17.74644725065681
 10
150.2472855574423
 20
-17.52987533945673
 10
148.9001894670423
 20
-17.25296214085656
 10
147.5937662379425
 20
-16.91733164425649
 10
146.3356805049422
 20
-16.52495417415689
 10
145.1333158692424
 20
-16.07813203785661
 10
143.9937296228422
 20
-15.57948707545652
 10
142.9236086268426
 20
-15.03194583285653
 10
141.9292307859422
 20
-14.43872188415663
 10
141.0164347557422
 20
-13.80329530235642
 10
140.1905738446425
 20
-13.12939669225694
 10
139.4564969157421
 20
-12.42097943805654
 10
138.8185115087425
 20
-11.68220145525649
 10
138.3015395820425
 20
-10.95097630285657
  0
LWPOLYLINE
  5
F0
330
70
100
AcDbEntity
  8
0
 62
     8
420
  8421504
370
    25
100
AcDbPolyline
 90
       33
 70
     0
 43
0.0
 10
173.3370741500421
 20
-14.59575390435667
 10
172.8488829231423
 20
-15.29385316415656
 10
172.2192057137425
 20
-16.03306796185683
 10
171.4933549935425
 20
-16.7422879443569
 10
170.6755901462424
 20
-17.41735068145688
 10
169.7707107883424
 20
-18.05429510245696
 10
168.7840266611426
 20
-18.64938305855673
 10
167.7213277910422
 20
-19.19912225205687
 10
166.5888510265427
 20
-19.7002870739568
 10
165.3932420695422
 20
-20.14993596165646
 10
164.1415168887427
 20
-20.54543025265666
 10
162.8410218773425
 20
-20.88444920135687
 10
161.4993875904427
 20
-21.16500375995659
 10
160.1244885741425
 20
-21.38544646345688
 10
158.7243926570422
 20
-21.54448435485675
 10
157.3073155113424
 20
-21.64118430755641
 10
155.8815743895424
 20
-21.67497825325691
 10
154.4555352762426
 20
-21.64566840865656
 10
153.0375675725427
 20
-21.55342620645667
 10
151.6359912269424
 20
-21.39879370915676
 10
150.2590323451423
 20
-21.18267775205694
 10
148.9147706302423
 20
-20.90634697335666
 10
147.6110955074426
 20
-20.57142245185688
 10
146.3556567941423
 20
-20.17987052015667
 10
145.1558216277422
 20
-19.733988543357
 10
144.0186324834422
 20
-19.23639284915673
 10
142.9507623925422
 20
-18.69000352065642
 10
141.9584774060423
 20
-18.09802728875685
 10
141.0476003745422
 20
-17.4639381437565
 10
140.2234780209422
 20
-16.79145680615689
 10
139.4909453789427
 20
-16.08453019715682
 10
138.8543034027427
 20
-15.34730634785666
 10
138.3421388509424
 20
-14.62348385895649
  0
LWPOLYLINE
  5
F1
330
70
100
AcDbEntity
  8
0
 62
     8
420
  8421504
370
    25
100
AcDbPolyline
 90
       39
 70
     0
 43
0.0
 10
171.3377463593424
 20
-52.2233692708566
 10
171.3271401707426
 20
-52.49812415135687
 10
171.2239725058425
 20
-53.24551026815646
 10
171.0128331760423
 20
-53.98529147115668
 10
170.6952028365423
 20
-54.71227896735692
 10
170.2733100841427
 20
-55.42137320865685
 10
169.7501132653426
 20
-56.10760053055702
 10
169.1292829428426
 20
-56.76614750995678
 10
168.4151736596423
 20
-57.39239494295683
 10
167.6127944906425
 20
-57.98195024265667
 10
166.7277729661423
 20
-58.53067776905657
 10
165.7663174115424
 20
-59.03472893395663
 10
164.7351718782424
 20
-59.49056821925655
 10
163.6415686668423
 20
-59.89499792265643
 10
162.4931783389424
 20
-60.24518131345642
 10
161.298057034142
 20
-60.53866240065651
 10
160.0645867071422
 20
-60.77338256555691
 10
158.8014204679427
 20
-60.94769481815648
 10
157.5174171396424
 20
-61.06037734065701
 10
156.2215832238424
 20
-61.11063952285697
 10
154.9230090247423
 20
-61.09812842625672
 10
153.6308028634425
 20
-61.0229318654569
 10
152.3540278843423
 20
-60.88557766305664
 10
151.1016408662427
 20
-60.6870287397569
 10
149.8824250643422
 20
-60.42867855995666
 10
148.7049339838424
 20
-60.11233844185678
 10
147.5774254438426
 20
-59.74022762575679
 10
146.5078075757422
 20
-59.31495654675651
 10
145.5035858115426
 20
-58.83950763565652
 10
144.5718019675426
 20
-58.31721612085664
 10
143.7189914395422
 20
-57.75174531715665
 10
142.9511371043427
 20
-57.14706153445694
 10
142.2736245388424
 20
-56.50740670575681
 10
141.6912064589423
 20
-55.83726721315649
 10
141.2079671575425
 20
-55.14134347425653
 10
140.8272974803423
 20
-54.42451648715661
 10
140.5518658496424
 20
-53.6918151360569
 10
140.3836064107421
 20
-52.94837893445698
 10
140.3252745139422
 20
-52.29451336425652
  0
LWPOLYLINE
  5
F2
330
70
100
AcDbEntity
  8
0
 62
     8
420
  8421504
370
    25
100
AcDbPolyline
 90
       23
 70
     0
 43
0.0
 10
163.1028463320424
 20
-1.846377188656651
 10
162.8985421180425
 20
-2.152188318156853
 10
162.4905585665421
 20
-2.622476853856455
 10
161.9890871311425
 20
-3.061608348156468
 10
161.4011675292425
 20
-3.463418421356577
 10
160.7350525170424
 20
-3.822266377556574
 10
160.0000931385426
 20
-4.133114754956885
 10
159.2066064400421
 20
-4.391600180156594
 10
158.3657317019426
 20
-4.594093743756423
 10
157.4892721821421
 20
-4.737753392557005
 10
156.5895322907424
 20
-4.820561851156976
 10
155.6791415943424
 20
-4.841356941057004
 10
154.7708806309425
 20
-4.799846786957
 10
153.8774994807425
 20
-4.696614188956481
 10
153.0115381481425
 20
-4.533108353856898
 10
152.1851540234425
 20
-4.311623605256563
 10
151.4099470387426
 20
-4.035270681656547
 10
150.6967999714421
 20
-3.707927883556673
 10
150.0557240150426
 20
-3.334190701756389
 10
149.4957175218422
 20
-2.919305477456972
 10
149.0246421960422
 20
-2.469096409756851
 10
148.6491111415426
 20
-1.989883438856519
 10
148.5553515258421
 20
-1.840523906556495
  0
LWPOLYLINE
  5
F3
330
70
100
AcDbEntity
  8
0
 62
     8
420
  8421504
370
    25
100
AcDbPolyline
 90
       18
 70
     0
 43
0.0
 10
158.6998984233422
 20
-4.171353589056478
 10
159.5080115600427
 20
-3.942762519256979
 10
160.2625032040422
 20
-3.659606174556791
 10
160.9523711345425
 20
-3.326013529956922
 10
161.5675555492422
 20
-2.946849164956851
 10
162.0990857136425
 20
-2.527642100756481
 10
162.5392107646422
 20
-2.074505346556945
 10
162.8815126510422
 20
-1.594046749856987
 10
163.1209997699427
 20
-1.09327236225666
 10
163.2541798600422
 20
-0.5794844821563769
 10
163.2791110379422
 20
-0.0601753982565578
 10
163.1954297873421
 20
0.4570819099430866
 10
163.0043557325422
 20
0.9647448767430349
 10
162.7086758339421
 20
1.455410838443337
 10
162.3127015823422
 20
1.921924622243467
 10
161.8222070960426
 20
2.357483472243233
 10
161.2443451563423
 20
2.755735703943166
 10
160.8308384742422
 20
2.98920244944354
  0
LWPOLYLINE
  5
F4
330
70
100
AcDbEntity
  8
0
 62
     8
420
  8421504
370
    25
100
AcDbPolyline
 90
       25
 70
     0
 43
0.0
 10
150.8308379803421
 20
2.989202734643469
 10
150.7093058551425
 20
2.92428855264354
 10
150.0941207818426
 20
2.545124567843091
 10
149.5625907409424
 20
2.125917384843053
 10
149.1224660192421
 20
1.672780440543385
 10
148.7801644621422
 20
1.1923216538434
 10
148.5406765199425
 20
0.6915475512434347
 10
148.4074964299425
 20
0.1777596712432559
 10
148.3825652519423
 20
-0.341549032456941
 10
148.4662471611425
 20
-0.8588067209569542
 10
148.6573205574425
 20
-1.366469687656797
 10
148.9530004560425
 20
-1.857135649456564
 10
149.3489747076424
 20
-2.323649053056429
 10
149.8394691938426
 20
-2.759207903056837
 10
150.4173308043423
 20
-3.157460324856902
 10
151.0741341206423
 20
-3.512598846956995
 10
151.8003006129426
 20
-3.819444418056979
 10
152.5852415439422
 20
-4.073523581956942
 10
153.4175107517425
 20
-4.271130064656522
 10
154.2849712608424
 20
-4.409382940656741
 10
155.1749744070424
 20
-4.486266170056617
 10
156.0745412658426
 20
-4.500658822856416
 10
156.9705546185421
 20
-4.452350475056611
 10
157.8499481188424
 20
-4.342045866156999
 10
158.6998984233422
 20
-4.171353589056478
  0
LWPOLYLINE
  5
F5
330
70
100
AcDbEntity
  8
0
 62
     8
420
  8421504
370
    25
100
AcDbPolyline
 90
       16
 70
     0
 43
0.0
 10
157.5814656144424
 20
-2.540284130656738
 10
156.9034071155426
 20
-2.668551850656641
 10
156.1989381831422
 20
-2.734006515056908
 10
155.4854053734421
 20
-2.735036299656818
 10
154.7803784891422
 20
-2.671616208156687
 10
154.1012172575421
 20
-2.545307312256582
 10
153.4646450870423
 20
-2.35921997005646
 10
152.8863363248425
 20
-2.117936176056869
 10
152.3805310080427
 20
-1.827397411956851
 10
151.9596838596427
 20
-1.49475751995676
 10
151.6341570775421
 20
-1.128207255356728
 10
151.4119667947426
 20
-0.7367724158566891
 10
151.2985838697422
 20
-0.3300912527565022
 10
151.2968002019423
 20
0.0818223754430093
 10
151.4066587613426
 20
0.4888260176435014
 10
151.5697848458425
 20
0.7988699560431668
  0
LWPOLYLINE
  5
F6
330
70
100
AcDbEntity
  8
0
 62
     8
420
  8421504
370
    25
100
AcDbPolyline
 90
       11
 70
     0
 43
0.0
 10
160.0918919380425
 20
0.7988698609433693
 10
160.2497093305423
 20
0.5015892632435597
 10
160.3630925848427
 20
0.0949079099431358
 10
160.3648765819426
 20
-0.3170059083565077
 10
160.2550172816424
 20
-0.7240092177564771
 10
160.0362201905425
 20
-1.116080627556794
 10
159.7138725629425
 20
-1.483565901556777
 10
159.2959120312426
 20
-1.817416509156377
 10
158.7926296396426
 20
-2.109411679456477
 10
158.2164180123421
 20
-2.352361566956944
 10
157.5814656144424
 20
-2.540284130656738
  0
LWPOLYLINE
  5
F7
330
70
100
AcDbEntity
  8
0
 62
     8
420
  8421504
370
    25
100
AcDbPolyline
 90
        9
 70
     0
 43
0.0
 10
157.3929332121426
 20
-1.874753257056944
 10
157.9879896667424
 20
-1.696841700756414
 10
158.5242042639427
 20
-1.464815037956385
 10
158.9869512243423
 20
-1.185002808056381
 10
159.3636075049423
 20
-0.8650373326565825
 10
159.6438988442423
 20
-0.513646344856659
 10
159.8201800137427
 20
-0.1404151688564855
 10
159.8876423832423
 20
0.2444756678433797
 10
159.8882347440421
 20
0.301481156743483
  0
LWPOLYLINE
  5
F8
330
70
100
AcDbEntity
  8
0
 62
     8
420
  8421504
370
    25
100
AcDbPolyline
 90
       13
 70
     0
 43
0.0
 10
151.7734417105422
 20
0.3014810617431487
 10
151.8172308044423
 20
-0.0564685297566841
 10
151.9699080924422
 20
-0.433150315656493
 10
152.2279017937426
 20
-0.7901875950569526
 10
152.5841740433427
 20
-1.117840801656921
 10
153.0290066997422
 20
-1.407173287556982
 10
153.5502664097427
 20
-1.650292160356496
 10
154.1337342096424
 20
-1.840566310956917
 10
154.7634937372422
 20
-1.9728045228567
 10
155.4223688345423
 20
-2.043400886756952
 10
156.0923848585422
 20
-2.050428893056504
 10
156.7552671992425
 20
-1.99369731635667
 10
157.3929332121426
 20
-1.874753257056944
  0
LWPOLYLINE
  5
F9
330
70
100
AcDbEntity
  8
0
 62
     8
420
  8421504
370
    25
100
AcDbPolyline
 90
       28
 70
     0
 43
0.0
 10
166.5489992056422
 20
-13.85948212705681
 10
167.5517809799427
 20
-13.33746115055638
 10
168.4785476614426
 20
-12.77055123835657
 10
169.3232891670424
 20
-12.16242912995659
 10
170.0805269416424
 20
-11.51703877685677
 10
170.7453501776422
 20
-10.83856587035691
 10
171.3134465608422
 20
-10.13141020915697
 10
171.7811330166426
 20
-9.400158444956943
 10
172.1453756303426
 20
-8.649552433856364
 10
172.4038117089427
 20
-7.884460723456664
 10
172.5547655860422
 20
-7.109845097956793
 10
172.5972585819426
 20
-6.330729071656373
 10
172.5310156105424
 20
-5.552165206057002
 10
172.3564646637426
 20
-4.779203639256904
 10
172.0747388293424
 20
-4.01685675375669
 10
171.6876654653426
 20
-3.270068596356448
 10
171.1977544495421
 20
-2.543682243356885
 10
170.6081826005421
 20
-1.842409517456554
 10
169.9227747450425
 20
-1.170797247656564
 10
169.1459744119425
 20
-0.5332019880567877
 10
168.2828207838426
 20
0.0662415361434114
 10
167.3389111598425
 20
0.6236459002430025
 10
166.3203680282423
 20
1.135396070943376
 10
165.2337946147424
 20
1.598172786943539
 10
164.0862412969424
 20
2.008974989243192
 10
162.8851476520423
 20
2.365138828843245
 10
161.6383042616424
 20
2.664353634743
 10
161.4861864072424
 20
2.696295869043189
  0
LWPOLYLINE
  5
FA
330
70
100
AcDbEntity
  8
0
 62
     8
420
  8421504
370
    25
100
AcDbPolyline
 90
       46
 70
     0
 43
0.0
 10
150.1318257476424
 20
2.687225211243389
 10
149.7473944642422
 20
2.603931941243023
 10
148.5098671737421
 20
2.292093412043044
 10
147.3198199544422
 20
1.923779350243371
 10
146.1849696308421
 20
1.501379502543339
 10
145.1126765904427
 20
1.02763289614359
 10
144.1098954746422
 20
0.5056115393434253
 10
143.1831291636426
 20
-0.061298539156537
 10
142.3383866289424
 20
-0.6694201009566335
 10
141.5811488544425
 20
-1.314810454156561
 10
140.9163267708424
 20
-1.993284215956531
 10
140.3482293998424
 20
-2.700439306856715
 10
139.8805436025426
 20
-3.431691451257012
 10
139.5163019766426
 20
-4.182297272256817
 10
139.2578647456422
 20
-4.947389077756957
 10
139.1069105393421
 20
-5.722004513156695
 10
139.0644172963427
 20
-6.501120396956935
 10
139.1306609469422
 20
-7.279683894256993
 10
139.3052121200422
 20
-8.052646351956743
 10
139.5869374606423
 20
-8.81499295235649
 10
139.9740121417421
 20
-9.561781109756733
 10
140.4639218404425
 20
-10.28816670245651
 10
141.0534936893424
 20
-10.98944018865662
 10
141.7389015449422
 20
-11.66105245855672
 10
142.5157022072427
 20
-12.29864714785674
 10
143.3788551768427
 20
-12.89809181255699
 10
144.3227641422426
 20
-13.45549579645696
 10
145.3413092495424
 20
-13.96724558695642
 10
146.4278806873421
 20
-14.43002268325695
 10
147.5754359808422
 20
-14.84082450525688
 10
148.7765286379423
 20
-15.19698853495643
 10
150.0233723575421
 20
-15.49620353095695
 10
151.3078802132424
 20
-15.73652910725695
 10
152.6217205056422
 20
-15.91640744745644
 10
153.9563730786422
 20
-16.03467148425655
 10
155.3031823214426
 20
-16.09055420745682
 10
156.6534137421426
 20
-16.0836931907569
 10
157.9983106231423
 20
-16.01413288415643
 10
159.3291498838423
 20
-15.88232492925642
 10
160.6373021215423
 20
-15.68912328225672
 10
161.9142821550425
 20
-15.43578145735682
 10
163.1518087869424
 20
-15.12394254795658
 10
164.3418560062424
 20
-14.75562886635653
 10
165.4767064944421
 20
-14.3332289236568
 10
166.5489992056422
 20
-13.85948212705681
 10
166.5489992056422
 20
-13.85948212705681
  0
LWPOLYLINE
  5
FB
330
70
100
AcDbEntity
  8
0
 62
     8
420
  8421504
370
    25
100
AcDbPolyline
 90
       33
 70
     0
 43
0.0
 10
171.8813289171426
 20
-9.853514389656846
 10
171.7391824143424
 20
-10.07967902665673
 10
171.2126922146425
 20
-10.79838690305699
 10
170.5889529363427
 20
-11.49067517465658
 10
169.8719081086423
 20
-12.15216685315685
 10
169.0660908640425
 20
-12.77867947825695
 10
168.1765963405426
 20
-13.36625245455646
 10
167.2090481585424
 20
-13.91117096615655
 10
166.1695629822427
 20
-14.40998947605672
 10
165.0647133123421
 20
-14.8595547264567
 10
163.9014840010424
 20
-15.25702399875692
 10
162.6872290149425
 20
-15.59988475185669
 10
161.4296263243427
 20
-15.88596887805662
 10
160.1366262079421
 20
-16.11346810055652
 10
158.8164035079424
 20
-16.28094404745646
 10
157.4773047820426
 20
-16.38733766105662
 10
156.1277968547426
 20
-16.43197637375681
 10
154.7764108819426
 20
-16.41457831355697
 10
153.4316918491426
 20
-16.33525280295694
 10
152.1021412777427
 20
-16.19450149955669
 10
150.7961646241422
 20
-15.99321464195639
 10
149.5220183077423
 20
-15.73266480045685
 10
148.2877582211424
 20
-15.41449920275672
 10
147.1011884461425
 20
-15.04072913625688
 10
145.9698109570421
 20
-14.61371764055653
 10
144.9007772180423
 20
-14.13616525085644
 10
143.9008458712427
 20
-13.61109013385652
 10
142.9763422368426
 20
-13.04181231115688
 10
142.1331069459426
 20
-12.43193160935659
 10
141.3764742091425
 20
-11.78530294855662
 10
140.7112250595426
 20
-11.10601543355669
 10
140.1415682550423
 20
-10.3983630807566
 10
139.7173075412421
 20
-9.747296699556551
  0
SPLINE
  5
FC
330
70
100
AcDbEntity
  8
0
 62
    18
420
        0
370
    25
100
AcDbSpline
210
0.0
220
0.0
230
1.0
 70
     8
 71
     3
 72
    11
 73
     7
 74
     0
 42
0.0000000001
 43
0.0000000001
 40
0.0
 40
0.0
 40
0.0
 40
0.0
 40
1.0
 40
1.0
 40
1.0
 40
2.0
 40
2.0
 40
2.0
 40
2.0
 10
32.47568324137632
 20
77.09485826791757
 30
0.0
 10
32.474478358258
 20
76.95679233778793
 30
0.0
 10
32.58542615813831
 20
76.84389103639526
 30
0.0
 10
32.72349208826828
 20
76.84268615327724
 30
0.0
 10
32.72421928225327
 20
76.84267980715161
 30
0.0
 10
32.7249465004672
 20
76.84267663404354
 30
0.0
 10
32.72567372214247
 20
76.84267663404354
 30
0.0
  0
SPLINE
  5
FD
330
70
100
AcDbEntity
  8
0
 62
    18
420
        0
370
    25
100
AcDbSpline
210
0.0
220
0.0
230
1.0
 70
     8
 71
     3
 72
    11
 73
     7
 74
     0
 42
0.0000000001
 43
0.0000000001
 40
0.0
 40
0.0
 40
0.0
 40
0.0
 40
1.0
 40
1.0
 40
1.0
 40
2.0
 40
2.0
 40
2.0
 40
2.0
 10
70.2878336160424
 20
76.84267663404354
 30
0.0
 10
70.42590480349999
 20
76.84267663404354
 30
0.0
 10
70.53783361604257
 20
76.95460544658549
 30
0.0
 10
70.53783361604257
 20
77.09267663404308
 30
0.0
 10
70.53783361604257
 20
77.09340385571834
 30
0.0
 10
70.5378304429345
 20
77.09413107393228
 30
0.0
 10
70.53782409680822
 20
77.09485826791757
 30
0.0
  0
LINE
  5
FE
330
70
100
AcDbEntity
  8
0
 62
    18
420
        0
370
    25
100
AcDbLine
 10
70.53782325124268
 20
77.09485757324308
 30
0.0
 11
70.5067543302422
 21
80.65517711614289
 31
0.0
  0
LINE
  5
FF
330
70
100
AcDbEntity
  8
0
 62
    18
420
        0
370
    25
100
AcDbLine
 10
32.50675368944245
 20
80.65517711614289
 30
0.0
 11
32.47568290574238
 21
77.09485757324308
 31
0.0
  0
SPLINE
  5
100
330
70
100
AcDbEntity
  8
0
 62
    18
420
        0
370
    25
100
AcDbSpline
210
0.0
220
0.0
230
1.0
 70
     8
 71
     3
 72
     8
 73
     4
 74
     0
 42
0.0000000001
 43
0.0000000001
 40
0.0
 40
0.0
 40
0.0
 40
0.0
 40
1.0
 40
1.0
 40
1.0
 40
1.0
 10
70.50675366904707
 20
80.65517663404341
 30
0.0
 10
70.50675366904707
 20
81.97275226323114
 30
0.0
 10
70.47203355932061
 20
83.29009912087315
 30
0.0
 10
70.40262949189662
 20
84.60584553035115
 30
0.0
  0
SPLINE
  5
101
330
70
100
AcDbEntity
  8
0
 62
    18
420
        0
370
    25
100
AcDbSpline
210
0.0
220
0.0
230
1.0
 70
     8
 71
     3
 72
     8
 73
     4
 74
     0
 42
0.0000000001
 43
0.0000000001
 40
0.0
 40
0.0
 40
0.0
 40
0.0
 40
1.0
 40
1.0
 40
1.0
 40
1.0
 10
32.61087784618815
 20
84.60584553035115
 30
0.0
 10
32.54147377876448
 20
83.29009912087315
 30
0.0
 10
32.50675366903803
 20
81.97275226323114
 30
0.0
 10
32.50675366903803
 20
80.65517663404341
 30
0.0
  0
SPLINE
  5
102
330
70
100
AcDbEntity
  8
0
 62
    18
420
        0
370
    25
100
AcDbSpline
210
0.0
220
0.0
230
1.0
 70
     8
 71
     3
 72
     8
 73
     4
 74
     0
 42
0.0000000001
 43
0.0000000001
 40
0.0
 40
0.0
 40
0.0
 40
0.0
 40
1.0
 40
1.0
 40
1.0
 40
1.0
 10
70.4026294919518
 20
84.60584553036463
 30
0.0
 10
70.39562607989347
 20
84.73861461166213
 30
0.0
 10
70.28593023638492
 20
84.84267663404319
 30
0.0
 10
70.15297657254244
 20
84.84267663404319
 30
0.0
  0
SPLINE
  5
103
330
70
100
AcDbEntity
  8
0
 62
    18
420
        0
370
    25
100
AcDbSpline
210
0.0
220
0.0
230
1.0
 70
     8
 71
     3
 72
     8
 73
     4
 74
     0
 42
0.0000000001
 43
0.0000000001
 40
0.0
 40
0.0
 40
0.0
 40
0.0
 40
1.0
 40
1.0
 40
1.0
 40
1.0
 10
32.86053076564243
 20
84.84267663404319
 30
0.0
 10
32.72757710179995
 20
84.84267663404319
 30
0.0
 10
32.61788125829139
 20
84.73861461166213
 30
0.0
 10
32.61087784623307
 20
84.60584553036463
 30
0.0
  0
SPLINE
  5
104
330
70
100
AcDbEntity
  8
0
 62
    18
420
        0
370
    25
100
AcDbSpline
210
0.0
220
0.0
230
1.0
 70
     8
 71
     3
 72
    11
 73
     7
 74
     0
 42
0.0000000001
 43
0.0000000001
 40
0.0
 40
0.0
 40
0.0
 40
0.0
 40
1.0
 40
1.0
 40
1.0
 40
2.0
 40
2.0
 40
2.0
 40
2.0
 10
70.1731872523085
 20
89.71549500016845
 30
0.0
 10
70.17439213542717
 20
89.85356093029873
 30
0.0
 10
70.06344433554684
 20
89.96646223169078
 30
0.0
 10
69.92537840541655
 20
89.96766711480942
 30
0.0
 10
69.92465121143189
 20
89.96767346093506
 30
0.0
 10
69.92392399321795
 20
89.96767663404344
 30
0.0
 10
69.92319677154269
 20
89.96767663404344
 30
0.0
  0
SPLINE
  5
105
330
70
100
AcDbEntity
  8
0
 62
    18
420
        0
370
    25
100
AcDbSpline
210
0.0
220
0.0
230
1.0
 70
     8
 71
     3
 72
    11
 73
     7
 74
     0
 42
0.0000000001
 43
0.0000000001
 40
0.0
 40
0.0
 40
0.0
 40
0.0
 40
1.0
 40
1.0
 40
1.0
 40
2.0
 40
2.0
 40
2.0
 40
2.0
 10
33.09031056664251
 20
89.96767663404344
 30
0.0
 10
32.95223937918461
 20
89.96767663404344
 30
0.0
 10
32.84031056664234
 20
89.85574782150116
 30
0.0
 10
32.84031056664234
 20
89.7176766340436
 30
0.0
 10
32.84031056664234
 20
89.71694941236833
 30
0.0
 10
32.84031373975072
 20
89.71622219415376
 30
0.0
 10
32.84032008587637
 20
89.71549500016845
 30
0.0
  0
LINE
  5
106
330
70
100
AcDbEntity
  8
0
 62
    18
420
        0
370
    25
100
AcDbLine
 10
32.84031990804231
 20
89.71549662924337
 30
0.0
 11
32.8795919183423
 21
85.21549496024338
 31
0.0
  0
LINE
  5
107
330
70
100
AcDbEntity
  8
0
 62
    18
420
        0
370
    25
100
AcDbLine
 10
70.13391610124258
 20
85.21549496024338
 30
0.0
 11
70.17318811154289
 21
89.71549662924337
 31
0.0
  0
SPLINE
  5
108
330
70
100
AcDbEntity
  8
0
 62
    18
420
        0
370
    25
100
AcDbSpline
210
0.0
220
0.0
230
1.0
 70
     8
 71
     3
 72
     8
 73
     4
 74
     0
 42
0.0000000001
 43
0.0000000001
 40
0.0
 40
0.0
 40
0.0
 40
0.0
 40
1.0
 40
1.0
 40
1.0
 40
1.0
 10
69.88392586644255
 20
84.96767663404359
 30
0.0
 10
70.02114582994058
 20
84.96767663404359
 30
0.0
 10
70.13271889232594
 20
85.0782802615863
 30
0.0
 10
70.13391634720838
 20
85.2154950001686
 30
0.0
  0
SPLINE
  5
109
330
70
100
AcDbEntity
  8
0
 62
    18
420
        0
370
    25
100
AcDbSpline
210
0.0
220
0.0
230
1.0
 70
     8
 71
     3
 72
     8
 73
     4
 74
     0
 42
0.0000000001
 43
0.0000000001
 40
0.0
 40
0.0
 40
0.0
 40
0.0
 40
1.0
 40
1.0
 40
1.0
 40
1.0
 10
32.8795909909765
 20
85.2154950001686
 30
0.0
 10
32.88078844585893
 20
85.0782802615863
 30
0.0
 10
32.99236150824397
 20
84.96767663404359
 30
0.0
 10
33.12958147174231
 20
84.96767663404359
 30
0.0
  0
LINE
  5
10A
330
70
100
AcDbEntity
  8
0
 62
    18
420
        0
370
    25
100
AcDbLine
 10
35.58641020094238
 20
76.84267590914308
 30
0.0
 11
35.99947225194255
 21
34.71032436164345
 31
0.0
  0
LINE
  5
10B
330
70
100
AcDbEntity
  8
0
 62
    18
420
        0
370
    25
100
AcDbLine
 10
67.01403483634258
 20
34.71032436164345
 30
0.0
 11
67.4270968873421
 21
76.84267590914308
 31
0.0
  0
SPLINE
  5
10C
330
70
100
AcDbEntity
  8
0
 62
    18
420
        0
370
    25
100
AcDbSpline
210
0.0
220
0.0
230
1.0
 70
     8
 71
     3
 72
     8
 73
     4
 74
     0
 42
0.0000000001
 43
0.0000000001
 40
0.0
 40
0.0
 40
0.0
 40
0.0
 40
1.0
 40
1.0
 40
1.0
 40
1.0
 10
66.26407056734264
 20
33.96767663404371
 30
0.0
 10
66.67541562591711
 20
33.96767663404371
 30
0.0
 10
67.01000192521502
 20
34.29899875481368
 30
0.0
 10
67.01403452611126
 20
34.71032404621179
 30
0.0
  0
SPLINE
  5
10D
330
70
100
AcDbEntity
  8
0
 62
    18
420
        0
370
    25
100
AcDbSpline
210
0.0
220
0.0
230
1.0
 70
     8
 71
     3
 72
     8
 73
     4
 74
     0
 42
0.0000000001
 43
0.0000000001
 40
0.0
 40
0.0
 40
0.0
 40
0.0
 40
1.0
 40
1.0
 40
1.0
 40
1.0
 10
35.99947281207362
 20
34.71032404621179
 30
0.0
 10
36.00350541296985
 20
34.29899875481368
 30
0.0
 10
36.33809171226776
 20
33.96767663404371
 30
0.0
 10
36.74943677084255
 20
33.96767663404371
 30
0.0
  0
SPLINE
  5
10E
330
70
100
AcDbEntity
  8
0
 62
    18
420
        0
370
    25
100
AcDbSpline
210
0.0
220
0.0
230
1.0
 70
     8
 71
     3
 72
     8
 73
     4
 74
     0
 42
0.0000000001
 43
0.0000000001
 40
0.0
 40
0.0
 40
0.0
 40
0.0
 40
1.0
 40
1.0
 40
1.0
 40
1.0
 10
56.50675366907128
 20
113.1683877030715
 30
0.0
 10
53.18179559797219
 20
113.5025585626339
 30
0.0
 10
49.83171174011257
 20
113.5025585626339
 30
0.0
 10
46.50675366901348
 20
113.1683877030715
 30
0.0
  0
LINE
  5
10F
330
70
100
AcDbEntity
  8
0
 62
    18
420
        0
370
    25
100
AcDbLine
 10
46.5067536559424
 20
113.1683895287434
 30
0.0
 11
46.5067536559424
 21
101.4190176424435
 31
0.0
  0
LINE
  5
110
330
70
100
AcDbEntity
  8
0
 62
    18
420
        0
370
    25
100
AcDbLine
 10
56.50675389804233
 20
101.4190176424435
 30
0.0
 11
56.50675389804233
 21
113.1683895287434
 31
0.0
  0
LINE
  5
111
330
70
100
AcDbEntity
  8
0
 62
    18
420
        0
370
    25
100
AcDbLine
 10
59.25675388314233
 20
91.2049459216432
 30
0.0
 11
59.1966016207424
 21
98.09766802164316
 31
0.0
  0
LINE
  5
112
330
70
100
AcDbEntity
  8
0
 62
    18
420
        0
370
    25
100
AcDbLine
 10
43.8169054676425
 20
98.09766802164316
 30
0.0
 11
43.75675320514247
 21
91.2049459216432
 31
0.0
  0
SPLINE
  5
113
330
70
100
AcDbEntity
  8
0
 62
    18
420
        0
370
    25
100
AcDbSpline
210
0.0
220
0.0
230
1.0
 70
     8
 71
     3
 72
     8
 73
     4
 74
     0
 42
0.0000000001
 43
0.0000000001
 40
0.0
 40
0.0
 40
0.0
 40
0.0
 40
1.0
 40
1.0
 40
1.0
 40
1.0
 10
44.05449497281575
 20
98.3451782884901
 30
0.0
 10
43.92224985946944
 20
98.33861029060566
 30
0.0
 10
43.8180610048818
 20
98.23007075592304
 30
0.0
 10
43.8169055407763
 20
98.09766768381782
 30
0.0
  0
SPLINE
  5
114
330
70
100
AcDbEntity
  8
0
 62
    18
420
        0
370
    25
100
AcDbSpline
210
0.0
220
0.0
230
1.0
 70
     8
 71
     3
 72
     8
 73
     4
 74
     0
 42
0.0000000001
 43
0.0000000001
 40
0.0
 40
0.0
 40
0.0
 40
0.0
 40
1.0
 40
1.0
 40
1.0
 40
1.0
 10
59.19660179740857
 20
98.09766768381782
 30
0.0
 10
59.19544633330307
 20
98.23007075592304
 30
0.0
 10
59.09125747871543
 20
98.33861029060566
 30
0.0
 10
58.95901236536912
 20
98.3451782884901
 30
0.0
  0
SPLINE
  5
115
330
70
100
AcDbEntity
  8
0
 62
    18
420
        0
370
    25
100
AcDbSpline
210
0.0
220
0.0
230
1.0
 70
     8
 71
     3
 72
     8
 73
     4
 74
     0
 42
0.0000000001
 43
0.0000000001
 40
0.0
 40
0.0
 40
0.0
 40
0.0
 40
1.0
 40
1.0
 40
1.0
 40
1.0
 10
58.959012365355
 20
98.34517828853437
 30
0.0
 10
57.99119737823671
 20
98.39324514429087
 30
0.0
 10
57.02273485387547
 20
98.42724215594916
 30
0.0
 10
56.05393166997931
 20
98.44715855084103
 30
0.0
  0
SPLINE
  5
116
330
70
100
AcDbEntity
  8
0
 62
    18
420
        0
370
    25
100
AcDbSpline
210
0.0
220
0.0
230
1.0
 70
     8
 71
     3
 72
     8
 73
     4
 74
     0
 42
0.0000000001
 43
0.0000000001
 40
0.0
 40
0.0
 40
0.0
 40
0.0
 40
1.0
 40
1.0
 40
1.0
 40
1.0
 10
46.95957566820555
 20
98.44715855084103
 30
0.0
 10
45.9907724843094
 20
98.42724215594916
 30
0.0
 10
45.02230995994816
 20
98.39324514429087
 30
0.0
 10
44.05449497282987
 20
98.34517828853437
 30
0.0
  0
SPLINE
  5
117
330
70
100
AcDbEntity
  8
0
 62
    18
420
        0
370
    25
100
AcDbSpline
210
0.0
220
0.0
230
1.0
 70
     8
 71
     3
 72
     8
 73
     4
 74
     0
 42
0.0000000001
 43
0.0000000001
 40
0.0
 40
0.0
 40
0.0
 40
0.0
 40
1.0
 40
1.0
 40
1.0
 40
1.0
 10
55.56422740241043
 20
98.94268966149416
 30
0.0
 10
55.56658742406118
 20
98.67225796625506
 30
0.0
 10
55.78354680615364
 20
98.45271705003602
 30
0.0
 10
56.05393166996584
 20
98.44715855083814
 30
0.0
  0
SPLINE
  5
118
330
70
100
AcDbEntity
  8
0
 62
    18
420
        0
370
    25
100
AcDbSpline
210
0.0
220
0.0
230
1.0
 70
     8
 71
     3
 72
     8
 73
     4
 74
     0
 42
0.0000000001
 43
0.0000000001
 40
0.0
 40
0.0
 40
0.0
 40
0.0
 40
1.0
 40
1.0
 40
1.0
 40
1.0
 10
46.95957566821903
 20
98.44715855083814
 30
0.0
 10
47.22996053203122
 20
98.45271705003602
 30
0.0
 10
47.44691991412369
 20
98.67225796625506
 30
0.0
 10
47.44927993577444
 20
98.94268966149416
 30
0.0
  0
LINE
  5
119
330
70
100
AcDbEntity
  8
0
 62
    18
420
        0
370
    25
100
AcDbLine
 10
55.56422751284234
 20
98.94269052124318
 30
0.0
 11
55.54261687104229
 21
101.4190176424435
 31
0.0
  0
LINE
  5
11A
330
70
100
AcDbEntity
  8
0
 62
    18
420
        0
370
    25
100
AcDbLine
 10
47.47089045014236
 20
101.4190176424435
 30
0.0
 11
47.44928004114239
 21
98.94269052124318
 31
0.0
  0
LINE
  5
11B
330
70
100
AcDbEntity
  8
0
 62
    18
420
        0
370
    25
100
AcDbLine
 10
33.50675385334237
 20
84.96767747374336
 30
0.0
 11
33.50675385334237
 21
84.84267535774293
 31
0.0
  0
LINE
  5
11C
330
70
100
AcDbEntity
  8
0
 62
    18
420
        0
370
    25
100
AcDbLine
 10
69.5067541662425
 20
84.84267535774293
 30
0.0
 11
69.5067541662425
 21
84.96767747374336
 31
0.0
  0
SPLINE
  5
11D
330
70
100
AcDbEntity
  8
0
 62
    18
420
        0
370
    25
100
AcDbSpline
210
0.0
220
0.0
230
1.0
 70
     8
 71
     3
 72
     8
 73
     4
 74
     0
 42
0.0000000001
 43
0.0000000001
 40
0.0
 40
0.0
 40
0.0
 40
0.0
 40
1.0
 40
1.0
 40
1.0
 40
1.0
 10
34.73968352628836
 20
90.73372770634378
 30
0.0
 10
34.60854437202522
 20
90.7247525033061
 30
0.0
 10
34.50675366904227
 20
90.61575709498169
 30
0.0
 10
34.50675366904227
 20
90.48431116674342
 30
0.0
  0
SPLINE
  5
11E
330
70
100
AcDbEntity
  8
0
 62
    18
420
        0
370
    25
100
AcDbSpline
210
0.0
220
0.0
230
1.0
 70
     8
 71
     3
 72
     8
 73
     4
 74
     0
 42
0.0000000001
 43
0.0000000001
 40
0.0
 40
0.0
 40
0.0
 40
0.0
 40
1.0
 40
1.0
 40
1.0
 40
1.0
 10
68.50675366904249
 20
90.48431116674342
 30
0.0
 10
68.50675366904249
 20
90.61575709498169
 30
0.0
 10
68.40496296605955
 20
90.7247525033061
 30
0.0
 10
68.27382381179642
 20
90.73372770634378
 30
0.0
  0
SPLINE
  5
11F
330
70
100
AcDbEntity
  8
0
 62
    18
420
        0
370
    25
100
AcDbSpline
210
0.0
220
0.0
230
1.0
 70
     8
 71
     3
 72
     8
 73
     4
 74
     0
 42
0.0000000001
 43
0.0000000001
 40
0.0
 40
0.0
 40
0.0
 40
0.0
 40
1.0
 40
1.0
 40
1.0
 40
1.0
 10
34.50675366904227
 20
90.06767663404344
 30
0.0
 10
34.50675366904227
 20
90.01244815906035
 30
0.0
 10
34.55152519405949
 20
89.96767663404344
 30
0.0
 10
34.60675366904227
 20
89.96767663404344
 30
0.0
  0
SPLINE
  5
120
330
70
100
AcDbEntity
  8
0
 62
    18
420
        0
370
    25
100
AcDbSpline
210
0.0
220
0.0
230
1.0
 70
     8
 71
     3
 72
     8
 73
     4
 74
     0
 42
0.0000000001
 43
0.0000000001
 40
0.0
 40
0.0
 40
0.0
 40
0.0
 40
1.0
 40
1.0
 40
1.0
 40
1.0
 10
68.40675366904282
 20
89.96767663404344
 30
0.0
 10
68.46198214402559
 20
89.96767663404344
 30
0.0
 10
68.50675366904249
 20
90.01244815906035
 30
0.0
 10
68.50675366904249
 20
90.06767663404344
 30
0.0
  0
LINE
  5
121
330
70
100
AcDbEntity
  8
0
 62
    18
420
        0
370
    25
100
AcDbLine
 10
68.50675400234226
 20
90.06767812344328
 30
0.0
 11
68.50675400234226
 21
90.48431086514327
 31
0.0
  0
LINE
  5
122
330
70
100
AcDbEntity
  8
0
 62
    18
420
        0
370
    25
100
AcDbLine
 10
34.50675401724228
 20
90.48431086514327
 30
0.0
 11
34.50675401724228
 21
90.06767812344328
 31
0.0
  0
SPLINE
  5
123
330
70
100
AcDbEntity
  8
0
 62
    18
420
        0
370
    25
100
AcDbSpline
210
0.0
220
0.0
230
1.0
 70
     8
 71
     3
 72
     8
 73
     4
 74
     0
 42
0.0000000001
 43
0.0000000001
 40
0.0
 40
0.0
 40
0.0
 40
0.0
 40
1.0
 40
1.0
 40
1.0
 40
1.0
 10
44.31926556996127
 20
91.20494590951349
 30
0.0
 10
41.12335205466552
 20
91.1091461615725
 30
0.0
 10
37.92957044537463
 20
90.95204452346742
 30
0.0
 10
34.73968352632974
 20
90.73372770629019
 30
0.0
  0
SPLINE
  5
124
330
70
100
AcDbEntity
  8
0
 62
    18
420
        0
370
    25
100
AcDbSpline
210
0.0
220
0.0
230
1.0
 70
     8
 71
     3
 72
     8
 73
     4
 74
     0
 42
0.0000000001
 43
0.0000000001
 40
0.0
 40
0.0
 40
0.0
 40
0.0
 40
1.0
 40
1.0
 40
1.0
 40
1.0
 10
68.27382381185545
 20
90.73372770629019
 30
0.0
 10
65.08393689281025
 20
90.95204452346742
 30
0.0
 10
61.89015528351935
 20
91.1091461615725
 30
0.0
 10
58.69424176822359
 20
91.20494590951349
 30
0.0
  0
LINE
  5
125
330
70
100
AcDbEntity
  8
0
 62
    18
420
        0
370
    25
100
AcDbLine
 10
70.28783392054207
 20
76.84267590914308
 30
0.0
 11
32.72567409914258
 21
76.84267590914308
 31
0.0
  0
LINE
  5
126
330
70
100
AcDbEntity
  8
0
 62
    18
420
        0
370
    25
100
AcDbLine
 10
32.86053147054242
 20
84.84267535774293
 30
0.0
 11
70.15297654904213
 21
84.84267535774293
 31
0.0
  0
LWPOLYLINE
  5
127
330
70
100
AcDbEntity
  8
0
 62
    18
420
        0
370
    25
100
AcDbPolyline
 90
        5
 70
     0
 43
0.0
 10
39.50655460244245
 20
92.84287410944321
 10
39.50974438234239
 20
92.83968526094344
 10
39.9002758775423
 20
92.44915562844342
 10
40.68136960154237
 20
91.66805911034328
 10
41.25695396104236
 20
91.09247568224345
  0
LINE
  5
128
330
70
100
AcDbEntity
  8
0
 62
    18
420
        0
370
    25
100
AcDbLine
 10
61.73565238604254
 20
91.07157680364336
 30
0.0
 11
63.50695248584235
 21
92.84287410944321
 31
0.0
  0
LWPOLYLINE
  5
129
330
70
100
AcDbEntity
  8
0
 62
    18
420
        0
370
    25
100
AcDbPolyline
 90
        3
 70
     0
 43
0.0
 10
39.50655460244245
 20
92.84287410944321
 10
39.5065248001423
 20
92.84287410944321
 10
39.48550950624245
 20
92.84286665884346
  0
SPLINE
  5
12A
330
70
100
AcDbEntity
  8
0
 62
    18
420
        0
370
    25
100
AcDbSpline
210
0.0
220
0.0
230
1.0
 70
     8
 71
     3
 72
     8
 73
     4
 74
     0
 42
0.0000000001
 43
0.0000000001
 40
0.0
 40
0.0
 40
0.0
 40
0.0
 40
1.0
 40
1.0
 40
1.0
 40
1.0
 10
63.52799385677153
 20
92.85338315339826
 30
0.0
 10
63.5198824147838
 20
92.85274214729787
 30
0.0
 10
63.51233755893325
 20
92.8489738937052
 30
0.0
 10
63.50695248584332
 20
92.8428741094663
 30
0.0
  0
SPLINE
  5
12B
330
70
100
AcDbEntity
  8
0
 62
    18
420
        0
370
    25
100
AcDbSpline
210
0.0
220
0.0
230
1.0
 70
     8
 71
     3
 72
     8
 73
     4
 74
     0
 42
0.0000000001
 43
0.0000000001
 40
0.0
 40
0.0
 40
0.0
 40
0.0
 40
1.0
 40
1.0
 40
1.0
 40
1.0
 10
64.00675326476008
 20
92.8426766690613
 30
0.0
 10
63.84104860200181
 20
92.86385417667013
 30
0.0
 10
63.67384817725604
 20
92.87096134591404
 30
0.0
 10
63.50694410393164
 20
92.86392199963387
 30
0.0
  0
SPLINE
  5
12C
330
70
100
AcDbEntity
  8
0
 62
    18
420
        0
370
    25
100
AcDbSpline
210
0.0
220
0.0
230
1.0
 70
     8
 71
     3
 72
     8
 73
     4
 74
     0
 42
0.0000000001
 43
0.0000000001
 40
0.0
 40
0.0
 40
0.0
 40
0.0
 40
1.0
 40
1.0
 40
1.0
 40
1.0
 10
64.00675326479216
 20
92.84267666908569
 30
0.0
 10
63.84750134833626
 20
92.85536858172868
 30
0.0
 10
63.68765394235879
 20
92.85894324515421
 30
0.0
 10
63.52799385679816
 20
92.85338315340338
 30
0.0
  0
LWPOLYLINE
  5
12D
330
70
100
AcDbEntity
  8
0
 62
    18
420
        0
370
    25
100
AcDbPolyline
 90
        3
 70
     0
 43
0.0
 10
63.50695248584235
 20
92.84287410944321
 10
63.50695248584235
 20
92.84290391174335
 10
63.50694410394255
 20
92.86392199964318
  0
LINE
  5
12E
330
70
100
AcDbEntity
  8
0
 62
    18
420
        0
370
    25
100
AcDbLine
 10
64.00675326474242
 20
92.84267666904334
 30
0.0
 11
64.00675326474242
 21
90.94061422324333
 31
0.0
  0
LINE
  5
12F
330
70
100
AcDbEntity
  8
0
 62
    18
420
        0
370
    25
100
AcDbLine
 10
39.00675382354238
 20
90.95369744274327
 30
0.0
 11
39.00675382354238
 21
92.84267666904334
 31
0.0
  0
SPLINE
  5
130
330
70
100
AcDbEntity
  8
0
 62
    18
420
        0
370
    25
100
AcDbSpline
210
0.0
220
0.0
230
1.0
 70
     8
 71
     3
 72
     8
 73
     4
 74
     0
 42
0.0000000001
 43
0.0000000001
 40
0.0
 40
0.0
 40
0.0
 40
0.0
 40
1.0
 40
1.0
 40
1.0
 40
1.0
 10
39.48550950641121
 20
92.84286665886304
 30
0.0
 10
39.3259242537311
 20
92.84292786494585
 30
0.0
 10
39.1663389775664
 20
92.84286453499161
 30
0.0
 10
39.00675382372847
 20
92.8426766690581
 30
0.0
  0
SPLINE
  5
131
330
70
100
AcDbEntity
  8
0
 62
    18
420
        0
370
    25
100
AcDbSpline
210
0.0
220
0.0
230
1.0
 70
     8
 71
     3
 72
     8
 73
     4
 74
     0
 42
0.0000000001
 43
0.0000000001
 40
0.0
 40
0.0
 40
0.0
 40
0.0
 40
1.0
 40
1.0
 40
1.0
 40
1.0
 10
39.50675390549955
 20
93.34267768239458
 30
0.0
 10
39.48557556102598
 20
93.17697246658383
 30
0.0
 10
39.47846869939077
 20
93.00977132590181
 30
0.0
 10
39.48550950625015
 20
92.84286665892015
 30
0.0
  0
SPLINE
  5
132
330
70
100
AcDbEntity
  8
0
 62
    18
420
        0
370
    25
100
AcDbSpline
210
0.0
220
0.0
230
1.0
 70
     8
 71
     3
 72
     8
 73
     4
 74
     0
 42
0.0000000001
 43
0.0000000001
 40
0.0
 40
0.0
 40
0.0
 40
0.0
 40
1.0
 40
1.0
 40
1.0
 40
1.0
 10
39.5067539055541
 20
93.34267768238367
 30
0.0
 10
39.49406567643428
 20
93.18342557813261
 30
0.0
 10
39.49049101772139
 20
93.02357838289074
 30
0.0
 10
39.49604742123608
 20
92.86391827438967
 30
0.0
  0
SPLINE
  5
133
330
70
100
AcDbEntity
  8
0
 62
    18
420
        0
370
    25
100
AcDbSpline
210
0.0
220
0.0
230
1.0
 70
     8
 71
     3
 72
     8
 73
     4
 74
     0
 42
0.0000000001
 43
0.0000000001
 40
0.0
 40
0.0
 40
0.0
 40
0.0
 40
1.0
 40
1.0
 40
1.0
 40
1.0
 10
39.49604742117287
 20
92.86391827436304
 30
0.0
 10
39.49668857525998
 20
92.8558064856387
 30
0.0
 10
39.50045596481162
 20
92.84826102080002
 30
0.0
 10
39.50655460245978
 20
92.84287410946694
 30
0.0
  0
LINE
  5
134
330
70
100
AcDbEntity
  8
0
 62
    18
420
        0
370
    25
100
AcDbLine
 10
39.50675390554255
 20
93.34267768234324
 30
0.0
 11
43.77540945894244
 21
93.34267768234324
 31
0.0
  0
LINE
  5
135
330
70
100
AcDbEntity
  8
0
 62
    18
420
        0
370
    25
100
AcDbLine
 10
43.77104807534244
 20
92.84287410944321
 30
0.0
 11
39.50655460244245
 21
92.84287410944321
 31
0.0
  0
LINE
  5
136
330
70
100
AcDbEntity
  8
0
 62
    18
420
        0
370
    25
100
AcDbLine
 10
63.50695248584235
 20
92.84287410944321
 30
0.0
 11
59.24245947864228
 21
92.84287410944321
 31
0.0
  0
LINE
  5
137
330
70
100
AcDbEntity
  8
0
 62
    18
420
        0
370
    25
100
AcDbLine
 10
59.23809809504229
 20
93.34267768234324
 30
0.0
 11
63.50675411414242
 21
93.34267768234324
 31
0.0
  0
SPLINE
  5
138
330
70
100
AcDbEntity
  8
0
 62
    18
420
        0
370
    25
100
AcDbSpline
210
0.0
220
0.0
230
1.0
 70
     8
 71
     3
 72
     8
 73
     4
 74
     0
 42
0.0000000001
 43
0.0000000001
 40
0.0
 40
0.0
 40
0.0
 40
0.0
 40
1.0
 40
1.0
 40
1.0
 40
1.0
 10
63.50694410389475
 20
92.863921999836
 30
0.0
 10
63.50700377581826
 20
93.02350725248789
 30
0.0
 10
63.50694044586434
 20
93.18309252745775
 30
0.0
 10
63.50675411408949
 20
93.34267768248539
 30
0.0
  0
SPLINE
  5
139
330
70
100
AcDbEntity
  8
0
 62
    18
420
        0
370
    25
100
AcDbSpline
210
0.0
220
0.0
230
1.0
 70
     8
 71
     3
 72
     8
 73
     4
 74
     0
 42
0.0000000001
 43
0.0000000001
 40
0.0
 40
0.0
 40
0.0
 40
0.0
 40
1.0
 40
1.0
 40
1.0
 40
1.0
 10
64.00675366904234
 20
92.84267663412176
 30
0.0
 10
64.00675366899903
 20
93.11881900900642
 30
0.0
 10
63.782896043927
 20
93.34267663404316
 30
0.0
 10
63.50675366904233
 20
93.34267663404316
 30
0.0
  0
SPLINE
  5
13A
330
70
100
AcDbEntity
  8
0
 62
    18
420
        0
370
    25
100
AcDbSpline
210
0.0
220
0.0
230
1.0
 70
     8
 71
     3
 72
     8
 73
     4
 74
     0
 42
0.0000000001
 43
0.0000000001
 40
0.0
 40
0.0
 40
0.0
 40
0.0
 40
1.0
 40
1.0
 40
1.0
 40
1.0
 10
39.50675366904244
 20
93.34267663404316
 30
0.0
 10
39.23061129412697
 20
93.34267663404316
 30
0.0
 10
39.00675366904243
 20
93.11881900895862
 30
0.0
 10
39.00675366904243
 20
92.84267663404348
 30
0.0
  0
CIRCLE
  5
13B
330
70
100
AcDbEntity
  8
0
 62
    18
420
        0
370
    25
100
AcDbCircle
 10
51.50675366904255
 20
109.9190158477434
 30
0.0
 40
1.000000000000035
  0
CIRCLE
  5
13C
330
70
100
AcDbEntity
  8
0
 62
    18
420
        0
370
    25
100
AcDbCircle
 10
51.50675366904247
 20
109.9190158477433
 30
0.0
 40
1.499999999999892
  0
LINE
  5
13D
330
70
100
AcDbEntity
  8
0
 62
    18
420
        0
370
    25
100
AcDbLine
 10
69.92319691814268
 20
89.96767643064346
 30
0.0
 11
33.0903111014425
 21
89.96767643064346
 31
0.0
  0
LINE
  5
13E
330
70
100
AcDbEntity
  8
0
 62
    18
420
        0
370
    25
100
AcDbLine
 10
69.8839267704425
 20
84.96767747374336
 30
0.0
 11
33.12958124914238
 21
84.96767747374336
 31
0.0
  0
LINE
  5
13F
330
70
100
AcDbEntity
  8
0
 62
    18
420
        0
370
    25
100
AcDbLine
 10
66.26407056934218
 20
33.96767656474343
 30
0.0
 11
36.74943651894231
 21
33.96767656474343
 31
0.0
  0
LINE
  5
140
330
70
100
AcDbEntity
  8
0
 62
    18
420
        0
370
    25
100
AcDbLine
 10
46.5067536559424
 20
113.1683895287434
 30
0.0
 11
56.50675389804233
 21
113.1683895287434
 31
0.0
  0
LINE
  5
141
330
70
100
AcDbEntity
  8
0
 62
    18
420
        0
370
    25
100
AcDbLine
 10
46.5067536559424
 20
101.4190176424435
 30
0.0
 11
56.50675389804233
 21
101.4190176424435
 31
0.0
  0
LINE
  5
142
330
70
100
AcDbEntity
  8
0
 62
    18
420
        0
370
    25
100
AcDbLine
 10
48.55886730254251
 20
91.2049459216432
 30
0.0
 11
43.75675320514247
 21
91.2049459216432
 31
0.0
  0
LINE
  5
143
330
70
100
AcDbEntity
  8
0
 62
    18
420
        0
370
    25
100
AcDbLine
 10
59.25675388314233
 20
91.2049459216432
 30
0.0
 11
48.55886730254251
 21
91.2049459216432
 31
0.0
  0
LINE
  5
144
330
70
100
AcDbEntity
  8
0
 62
     8
420
  8421504
370
    25
100
AcDbLine
 10
32.47568290574238
 20
77.09485757324308
 30
0.0
 11
70.53782325124268
 21
77.09485757324308
 31
0.0
  0
LINE
  5
145
330
70
100
AcDbEntity
  8
0
 62
     8
420
  8421504
370
    25
100
AcDbLine
 10
32.50675368944245
 20
80.65517711614289
 30
0.0
 11
70.5067543302422
 21
80.65517711614289
 31
0.0
  0
LINE
  5
146
330
70
100
AcDbEntity
  8
0
 62
     8
420
  8421504
370
    25
100
AcDbLine
 10
70.402628741042
 20
84.60584375234365
 30
0.0
 11
32.61087741594242
 21
84.60584375234365
 31
0.0
  0
LWPOLYLINE
  5
147
330
70
100
AcDbEntity
  8
0
 62
     8
420
  8421504
370
    25
100
AcDbPolyline
 90
        3
 70
     0
 43
0.0
 10
39.48550950624245
 20
92.84286665884346
 10
39.48511183154252
 20
91.84286835764345
 10
39.48480728904243
 20
90.98399150344322
  0
LWPOLYLINE
  5
148
330
70
100
AcDbEntity
  8
0
 62
     8
420
  8421504
370
    25
100
AcDbPolyline
 90
        3
 70
     0
 43
0.0
 10
63.52860852964234
 20
90.96818509674333
 10
63.52799851334243
 20
92.84286665884346
 10
63.52799385674233
 20
92.85338315344317
  0
LWPOLYLINE
  5
149
330
70
100
AcDbEntity
  8
0
 62
     8
420
  8421504
370
    25
100
AcDbPolyline
 90
        4
 70
     0
 43
0.0
 10
43.77124458444257
 20
92.86547544574318
 10
43.00665855294256
 20
92.86524820304318
 10
39.50656298434257
 20
92.86392199964318
 10
39.49604742124249
 20
92.86391827434348
  0
LWPOLYLINE
  5
14A
330
70
100
AcDbEntity
  8
0
 62
     8
420
  8421504
370
    25
100
AcDbPolyline
 90
        3
 70
     0
 43
0.0
 10
63.50694410394255
 20
92.86392199964318
 10
62.50694394004232
 20
92.86431688044324
 10
59.24226250394234
 20
92.86547917104321
  0
LINE
  5
14B
330
70
100
AcDbEntity
  8
0
 62
     8
420
  8421504
370
    25
100
AcDbLine
 10
70.17318811154289
 20
89.71549662924337
 30
0.0
 11
32.84031990804231
 21
89.71549662924337
 31
0.0
  0
LINE
  5
14C
330
70
100
AcDbEntity
  8
0
 62
     8
420
  8421504
370
    25
100
AcDbLine
 10
70.13391610124258
 20
85.21549496024338
 30
0.0
 11
32.8795919183423
 21
85.21549496024338
 31
0.0
  0
LINE
  5
14D
330
70
100
AcDbEntity
  8
0
 62
     8
420
  8421504
370
    25
100
AcDbLine
 10
67.01403483634258
 20
34.71032436164345
 30
0.0
 11
35.99947225194255
 21
34.71032436164345
 31
0.0
  0
LINE
  5
14E
330
70
100
AcDbEntity
  8
0
 62
     8
420
  8421504
370
    25
100
AcDbLine
 10
59.1966016207424
 20
98.09766802164316
 30
0.0
 11
43.8169054676425
 21
98.09766802164316
 31
0.0
  0
LINE
  5
14F
330
70
100
AcDbEntity
  8
0
 62
     8
420
  8421504
370
    25
100
AcDbLine
 10
48.67211985294231
 20
98.34518003434334
 30
0.0
 11
58.95901238434255
 21
98.34518003434334
 31
0.0
  0
LINE
  5
150
330
70
100
AcDbEntity
  8
0
 62
     8
420
  8421504
370
    25
100
AcDbLine
 10
44.0544951696425
 20
98.34518003434334
 30
0.0
 11
48.67211985294231
 21
98.34518003434334
 31
0.0
  0
LINE
  5
151
330
70
100
AcDbEntity
  8
0
 62
     8
420
  8421504
370
    25
100
AcDbLine
 10
49.77713245784237
 20
98.44715985624329
 30
0.0
 11
46.95957573024245
 21
98.44715985624329
 31
0.0
  0
LINE
  5
152
330
70
100
AcDbEntity
  8
0
 62
     8
420
  8421504
370
    25
100
AcDbLine
 10
56.05393159094252
 20
98.44715985624329
 30
0.0
 11
49.77713245784237
 21
98.44715985624329
 31
0.0
  0
LINE
  5
153
330
70
100
AcDbEntity
  8
0
 62
     8
420
  8421504
370
    25
100
AcDbLine
 10
49.96340256074231
 20
98.94269052124318
 30
0.0
 11
55.56422751284234
 21
98.94269052124318
 31
0.0
  0
LINE
  5
154
330
70
100
AcDbEntity
  8
0
 62
     8
420
  8421504
370
    25
100
AcDbLine
 10
47.44928004114239
 20
98.94269052124318
 30
0.0
 11
49.96340256074231
 21
98.94269052124318
 31
0.0
  0
LINE
  5
155
330
70
100
AcDbEntity
  8
0
 62
     8
420
  8421504
370
    25
100
AcDbLine
 10
68.50675400234226
 20
90.48431086514327
 30
0.0
 11
34.50675401724228
 21
90.48431086514327
 31
0.0
  0
LINE
  5
156
330
70
100
AcDbEntity
  8
0
 62
     8
420
  8421504
370
    25
100
AcDbLine
 10
49.96819142144248
 20
90.73372650114315
 30
0.0
 11
68.2738246385422
 21
90.73372650114315
 31
0.0
  0
LINE
  5
157
330
70
100
AcDbEntity
  8
0
 62
     8
420
  8421504
370
    25
100
AcDbLine
 10
34.73968338114245
 20
90.73372650114315
 30
0.0
 11
49.96819142144248
 21
90.73372650114315
 31
0.0
  0
LINE
  5
158
330
70
100
AcDbEntity
  8
0
 62
     8
420
  8421504
370
    25
100
AcDbLine
 10
34.50675401724228
 20
90.06767812344328
 30
0.0
 11
68.50675400234226
 21
90.06767812344328
 31
0.0
  0
SPLINE
  5
159
330
70
100
AcDbEntity
  8
0
 62
    18
420
        0
370
    25
100
AcDbSpline
210
0.0
220
0.0
230
1.0
 70
     8
 71
     3
 72
    11
 73
     7
 74
     0
 42
0.0000000001
 43
0.0000000001
 40
0.0
 40
0.0
 40
0.0
 40
0.0
 40
1.0
 40
1.0
 40
1.0
 40
2.0
 40
2.0
 40
2.0
 40
2.0
 10
180.2246639731423
 20
76.84267663404354
 30
0.0
 10
180.3627351605999
 20
76.84267663404354
 30
0.0
 10
180.4746639731425
 20
76.95460544658549
 30
0.0
 10
180.4746639731425
 20
77.09267663404308
 30
0.0
 10
180.4746639731425
 20
77.09340385571834
 30
0.0
 10
180.4746608000344
 20
77.09413107393228
 30
0.0
 10
180.4746544539088
 20
77.09485826791757
 30
0.0
  0
LINE
  5
15A
330
70
100
AcDbEntity
  8
0
 62
    18
420
        0
370
    25
100
AcDbLine
 10
180.4746544442422
 20
77.09485757324308
 30
0.0
 11
180.4435836605422
 21
80.65517711614289
 31
0.0
  0
SPLINE
  5
15B
330
70
100
AcDbEntity
  8
0
 62
    18
420
        0
370
    25
100
AcDbSpline
210
0.0
220
0.0
230
1.0
 70
     8
 71
     3
 72
     8
 73
     4
 74
     0
 42
0.0000000001
 43
0.0000000001
 40
0.0
 40
0.0
 40
0.0
 40
0.0
 40
1.0
 40
1.0
 40
1.0
 40
1.0
 10
180.4435840262471
 20
80.65517663404341
 30
0.0
 10
180.4435840262471
 20
81.97275226323114
 30
0.0
 10
180.40886391652
 20
83.29009912087315
 30
0.0
 10
180.3394598490966
 20
84.60584553035115
 30
0.0
  0
SPLINE
  5
15C
330
70
100
AcDbEntity
  8
0
 62
    18
420
        0
370
    25
100
AcDbSpline
210
0.0
220
0.0
230
1.0
 70
     8
 71
     3
 72
     8
 73
     4
 74
     0
 42
0.0000000001
 43
0.0000000001
 40
0.0
 40
0.0
 40
0.0
 40
0.0
 40
1.0
 40
1.0
 40
1.0
 40
1.0
 10
180.3394598490517
 20
84.60584553036463
 30
0.0
 10
180.3324564369934
 20
84.73861461166213
 30
0.0
 10
180.2227605934848
 20
84.84267663404319
 30
0.0
 10
180.0898069296423
 20
84.84267663404319
 30
0.0
  0
LINE
  5
15D
330
70
100
AcDbEntity
  8
0
 62
    18
420
        0
370
    25
100
AcDbLine
 10
128.9435836009422
 20
76.84267590914308
 30
0.0
 11
142.6625034294422
 21
76.84267590914308
 31
0.0
  0
LINE
  5
15E
330
70
100
AcDbEntity
  8
0
 62
    18
420
        0
370
    25
100
AcDbLine
 10
142.7973608009421
 20
84.84267535774293
 30
0.0
 11
128.9955029718426
 21
84.84267535774293
 31
0.0
  0
LWPOLYLINE
  5
15F
330
70
100
AcDbEntity
  8
0
 62
    18
420
        0
370
    25
100
AcDbPolyline
 90
       16
 70
     0
 43
0.0
 10
128.9462248317423
 20
78.65380960674315
 10
128.9463328651426
 20
79.00074775484284
 10
128.9463961951427
 20
79.40683419974371
 10
128.9464297227426
 20
79.81535139654333
 10
128.9464744262422
 20
80.18357957874348
 10
128.9465377561422
 20
80.4828638133433
 10
128.9465675584424
 20
80.78811410044343
 10
128.9465265802425
 20
81.03436696504344
 10
128.9465228549421
 20
81.18749502274347
 10
128.9465377561422
 20
81.33793528354299
 10
128.9465414814426
 20
81.4904710200431
 10
128.9464707009425
 20
81.66736829254293
 10
128.9464222721425
 20
81.79304654864379
 10
128.9463850192423
 20
81.94387423964299
 10
128.9463552169421
 20
82.30298663644287
 10
128.9463365904423
 20
82.62770156534376
  0
LWPOLYLINE
  5
160
330
70
100
AcDbEntity
  8
0
 62
    18
420
        0
370
    25
100
AcDbPolyline
 90
        3
 70
     0
 43
0.0
 10
128.6853464774421
 20
68.81862226104292
 10
128.8761446706423
 20
73.71001224194323
 10
128.9465563825426
 20
77.4653134790432
  0
LWPOLYLINE
  5
161
330
70
100
AcDbEntity
  8
0
 62
    18
420
        0
370
    25
100
AcDbPolyline
 90
        5
 70
     0
 43
0.0
 10
128.9465563825426
 20
77.46650184664331
 10
128.9465414814426
 20
77.61991675174343
 10
128.9464408985423
 20
77.89088878004378
 10
128.9463105134425
 20
78.2567532655436
 10
128.9461987547425
 20
78.69801948934352
  0
SPLINE
  5
162
330
70
100
AcDbEntity
  8
0
 62
    18
420
        0
370
    25
100
AcDbSpline
210
0.0
220
0.0
230
1.0
 70
     8
 71
     3
 72
     8
 73
     4
 74
     0
 42
0.0000000001
 43
0.0000000001
 40
0.0
 40
0.0
 40
0.0
 40
0.0
 40
1.0
 40
1.0
 40
1.0
 40
1.0
 10
128.1870322976041
 20
68.34267663427265
 30
0.0
 10
128.4538379322709
 20
68.34266855825923
 30
0.0
 10
128.6736458694166
 20
68.55214744842695
 30
0.0
 10
128.6864695657639
 20
68.81864472715088
 30
0.0
  0
LINE
  5
163
330
70
100
AcDbEntity
  8
0
 62
    18
420
        0
370
    25
100
AcDbLine
 10
166.4435841597424
 20
108.4190169272432
 30
0.0
 11
186.6935842193424
 21
108.4190169272432
 31
0.0
  0
LINE
  5
164
330
70
100
AcDbEntity
  8
0
 62
    18
420
        0
370
    25
100
AcDbLine
 10
186.6935842193424
 20
111.4190155563431
 30
0.0
 11
166.4435841597424
 21
111.4190155563431
 31
0.0
  0
SPLINE
  5
165
330
70
100
AcDbEntity
  8
0
 62
    18
420
        0
370
    25
100
AcDbSpline
210
0.0
220
0.0
230
1.0
 70
     8
 71
     3
 72
    11
 73
     7
 74
     0
 42
0.0000000001
 43
0.0000000001
 40
0.0
 40
0.0
 40
0.0
 40
0.0
 40
1.0
 40
1.0
 40
1.0
 40
2.0
 40
2.0
 40
2.0
 40
2.0
 10
180.1100176094084
 20
89.71549500016845
 30
0.0
 10
180.1112224925271
 20
89.85356093029873
 30
0.0
 10
180.0002746926467
 20
89.96646223169078
 30
0.0
 10
179.8622087625171
 20
89.96766711480942
 30
0.0
 10
179.8614815685318
 20
89.96767346093506
 30
0.0
 10
179.8607543503178
 20
89.96767663404344
 30
0.0
 10
179.8600271286426
 20
89.96767663404344
 30
0.0
  0
SPLINE
  5
166
330
70
100
AcDbEntity
  8
0
 62
    18
420
        0
370
    25
100
AcDbSpline
210
0.0
220
0.0
230
1.0
 70
     8
 71
     3
 72
    11
 73
     7
 74
     0
 42
0.0000000001
 43
0.0000000001
 40
0.0
 40
0.0
 40
0.0
 40
0.0
 40
1.0
 40
1.0
 40
1.0
 40
2.0
 40
2.0
 40
2.0
 40
2.0
 10
143.0271409238425
 20
89.96767663404344
 30
0.0
 10
142.8890697363849
 20
89.96767663404344
 30
0.0
 10
142.7771409238423
 20
89.85574782150116
 30
0.0
 10
142.7771409238423
 20
89.7176766340436
 30
0.0
 10
142.7771409238423
 20
89.71694941236769
 30
0.0
 10
142.7771440969504
 20
89.71622219415376
 30
0.0
 10
142.777150443076
 20
89.71549500016845
 30
0.0
  0
LINE
  5
167
330
70
100
AcDbEntity
  8
0
 62
    18
420
        0
370
    25
100
AcDbLine
 10
142.7771511010422
 20
89.71549662924337
 30
0.0
 11
142.8164212487423
 21
85.21549496024338
 31
0.0
  0
LINE
  5
168
330
70
100
AcDbEntity
  8
0
 62
    18
420
        0
370
    25
100
AcDbLine
 10
180.0707463629423
 20
85.21549496024338
 30
0.0
 11
180.1100174419423
 21
89.71549662924337
 31
0.0
  0
SPLINE
  5
169
330
70
100
AcDbEntity
  8
0
 62
    18
420
        0
370
    25
100
AcDbSpline
210
0.0
220
0.0
230
1.0
 70
     8
 71
     3
 72
     8
 73
     4
 74
     0
 42
0.0000000001
 43
0.0000000001
 40
0.0
 40
0.0
 40
0.0
 40
0.0
 40
1.0
 40
1.0
 40
1.0
 40
1.0
 10
179.8207562235424
 20
84.96767663404359
 30
0.0
 10
179.9579761870411
 20
84.96767663404359
 30
0.0
 10
180.0695492494259
 20
85.0782802615863
 30
0.0
 10
180.0707467043083
 20
85.2154950001686
 30
0.0
  0
SPLINE
  5
16A
330
70
100
AcDbEntity
  8
0
 62
    18
420
        0
370
    25
100
AcDbSpline
210
0.0
220
0.0
230
1.0
 70
     8
 71
     3
 72
     8
 73
     4
 74
     0
 42
0.0000000001
 43
0.0000000001
 40
0.0
 40
0.0
 40
0.0
 40
0.0
 40
1.0
 40
1.0
 40
1.0
 40
1.0
 10
142.8164213480761
 20
85.2154950001686
 30
0.0
 10
142.8176188029592
 20
85.0782802615863
 30
0.0
 10
142.9291918653439
 20
84.96767663404359
 30
0.0
 10
143.0664118288426
 20
84.96767663404359
 30
0.0
  0
LINE
  5
16B
330
70
100
AcDbEntity
  8
0
 62
    18
420
        0
370
    25
100
AcDbLine
 10
145.5232413939426
 20
76.84267590914308
 30
0.0
 11
145.9363034449421
 21
34.71032436164345
 31
0.0
  0
LINE
  5
16C
330
70
100
AcDbEntity
  8
0
 62
    18
420
        0
370
    25
100
AcDbLine
 10
176.9508650980424
 20
34.71032436164345
 30
0.0
 11
177.3639271489424
 21
76.84267590914308
 31
0.0
  0
SPLINE
  5
16D
330
70
100
AcDbEntity
  8
0
 62
    18
420
        0
370
    25
100
AcDbSpline
210
0.0
220
0.0
230
1.0
 70
     8
 71
     3
 72
     8
 73
     4
 74
     0
 42
0.0000000001
 43
0.0000000001
 40
0.0
 40
0.0
 40
0.0
 40
0.0
 40
1.0
 40
1.0
 40
1.0
 40
1.0
 10
176.2009009244426
 20
33.96767663404371
 30
0.0
 10
176.612245983017
 20
33.96767663404371
 30
0.0
 10
176.9468322823149
 20
34.29899875481368
 30
0.0
 10
176.9508648832112
 20
34.71032404621179
 30
0.0
  0
SPLINE
  5
16E
330
70
100
AcDbEntity
  8
0
 62
    18
420
        0
370
    25
100
AcDbSpline
210
0.0
220
0.0
230
1.0
 70
     8
 71
     3
 72
     8
 73
     4
 74
     0
 42
0.0000000001
 43
0.0000000001
 40
0.0
 40
0.0
 40
0.0
 40
0.0
 40
1.0
 40
1.0
 40
1.0
 40
1.0
 10
145.9363031692733
 20
34.71032404621179
 30
0.0
 10
145.9403357701702
 20
34.29899875481368
 30
0.0
 10
146.2749220694681
 20
33.96767663404371
 30
0.0
 10
146.6862671280425
 20
33.96767663404371
 30
0.0
  0
SPLINE
  5
16F
330
70
100
AcDbEntity
  8
0
 62
    18
420
        0
370
    25
100
AcDbSpline
210
0.0
220
0.0
230
1.0
 70
     8
 71
     3
 72
     8
 73
     4
 74
     0
 42
0.0000000001
 43
0.0000000001
 40
0.0
 40
0.0
 40
0.0
 40
0.0
 40
1.0
 40
1.0
 40
1.0
 40
1.0
 10
166.443584026271
 20
113.1683877030715
 30
0.0
 10
163.1186259551719
 20
113.5025585626339
 30
0.0
 10
159.7685420973126
 20
113.5025585626339
 30
0.0
 10
156.4435840262135
 20
113.1683877030715
 30
0.0
  0
LINE
  5
170
330
70
100
AcDbEntity
  8
0
 62
    18
420
        0
370
    25
100
AcDbLine
 10
156.4435843832426
 20
113.1683895287434
 30
0.0
 11
156.4435843832426
 21
101.4190176424435
 31
0.0
  0
LINE
  5
171
330
70
100
AcDbEntity
  8
0
 62
    18
420
        0
370
    25
100
AcDbLine
 10
166.4435841597424
 20
111.4190155563431
 30
0.0
 11
166.4435841597424
 21
113.1683895287434
 31
0.0
  0
LINE
  5
172
330
70
100
AcDbEntity
  8
0
 62
    18
420
        0
370
    25
100
AcDbLine
 10
166.4435841597424
 20
101.4190176424435
 30
0.0
 11
166.4435841597424
 21
108.4190169272432
 31
0.0
  0
LINE
  5
173
330
70
100
AcDbEntity
  8
0
 62
    18
420
        0
370
    25
100
AcDbLine
 10
169.1935839119426
 20
91.2049459216432
 30
0.0
 11
169.1334321152426
 21
98.09766802164316
 31
0.0
  0
LINE
  5
174
330
70
100
AcDbEntity
  8
0
 62
    18
420
        0
370
    25
100
AcDbLine
 10
153.7537357292422
 20
98.09766802164316
 30
0.0
 11
153.6935834668426
 21
91.2049459216432
 31
0.0
  0
SPLINE
  5
175
330
70
100
AcDbEntity
  8
0
 62
    18
420
        0
370
    25
100
AcDbSpline
210
0.0
220
0.0
230
1.0
 70
     8
 71
     3
 72
     8
 73
     4
 74
     0
 42
0.0000000001
 43
0.0000000001
 40
0.0
 40
0.0
 40
0.0
 40
0.0
 40
1.0
 40
1.0
 40
1.0
 40
1.0
 10
153.9913253299157
 20
98.3451782884901
 30
0.0
 10
153.8590802165697
 20
98.33861029060566
 30
0.0
 10
153.754891361982
 20
98.23007075592304
 30
0.0
 10
153.7537358978762
 20
98.09766768381782
 30
0.0
  0
SPLINE
  5
176
330
70
100
AcDbEntity
  8
0
 62
    18
420
        0
370
    25
100
AcDbSpline
210
0.0
220
0.0
230
1.0
 70
     8
 71
     3
 72
     8
 73
     4
 74
     0
 42
0.0000000001
 43
0.0000000001
 40
0.0
 40
0.0
 40
0.0
 40
0.0
 40
1.0
 40
1.0
 40
1.0
 40
1.0
 10
169.1334321546082
 20
98.09766768381782
 30
0.0
 10
169.1322766905031
 20
98.23007075592304
 30
0.0
 10
169.0280878359154
 20
98.33861029060566
 30
0.0
 10
168.8958427225694
 20
98.3451782884901
 30
0.0
  0
SPLINE
  5
177
330
70
100
AcDbEntity
  8
0
 62
    18
420
        0
370
    25
100
AcDbSpline
210
0.0
220
0.0
230
1.0
 70
     8
 71
     3
 72
     8
 73
     4
 74
     0
 42
0.0000000001
 43
0.0000000001
 40
0.0
 40
0.0
 40
0.0
 40
0.0
 40
1.0
 40
1.0
 40
1.0
 40
1.0
 10
168.8958427224552
 20
98.34517828853437
 30
0.0
 10
167.9280277353366
 20
98.39324514429087
 30
0.0
 10
166.9595652109757
 20
98.42724215594916
 30
0.0
 10
165.9907620270789
 20
98.44715855084103
 30
0.0
  0
SPLINE
  5
178
330
70
100
AcDbEntity
  8
0
 62
    18
420
        0
370
    25
100
AcDbSpline
210
0.0
220
0.0
230
1.0
 70
     8
 71
     3
 72
     8
 73
     4
 74
     0
 42
0.0000000001
 43
0.0000000001
 40
0.0
 40
0.0
 40
0.0
 40
0.0
 40
1.0
 40
1.0
 40
1.0
 40
1.0
 10
156.8964060254056
 20
98.44715855084103
 30
0.0
 10
155.9276028415094
 20
98.42724215594916
 30
0.0
 10
154.9591403171478
 20
98.39324514429087
 30
0.0
 10
153.9913253300299
 20
98.34517828853437
 30
0.0
  0
SPLINE
  5
179
330
70
100
AcDbEntity
  8
0
 62
    18
420
        0
370
    25
100
AcDbSpline
210
0.0
220
0.0
230
1.0
 70
     8
 71
     3
 72
     8
 73
     4
 74
     0
 42
0.0000000001
 43
0.0000000001
 40
0.0
 40
0.0
 40
0.0
 40
0.0
 40
1.0
 40
1.0
 40
1.0
 40
1.0
 10
165.5010577595103
 20
98.94268966149416
 30
0.0
 10
165.5034177811611
 20
98.67225796625506
 30
0.0
 10
165.7203771632536
 20
98.45271705003602
 30
0.0
 10
165.9907620270654
 20
98.44715855083814
 30
0.0
  0
SPLINE
  5
17A
330
70
100
AcDbEntity
  8
0
 62
    18
420
        0
370
    25
100
AcDbSpline
210
0.0
220
0.0
230
1.0
 70
     8
 71
     3
 72
     8
 73
     4
 74
     0
 42
0.0000000001
 43
0.0000000001
 40
0.0
 40
0.0
 40
0.0
 40
0.0
 40
1.0
 40
1.0
 40
1.0
 40
1.0
 10
156.896406025419
 20
98.44715855083814
 30
0.0
 10
157.1667908892309
 20
98.45271705003602
 30
0.0
 10
157.383750271324
 20
98.67225796625506
 30
0.0
 10
157.3861102929748
 20
98.94268966149416
 30
0.0
  0
LINE
  5
17B
330
70
100
AcDbEntity
  8
0
 62
    18
420
        0
370
    25
100
AcDbLine
 10
165.5010577745421
 20
98.94269052124318
 30
0.0
 11
165.4794473655425
 21
101.4190176424435
 31
0.0
  0
LINE
  5
17C
330
70
100
AcDbEntity
  8
0
 62
    18
420
        0
370
    25
100
AcDbLine
 10
157.4077211774426
 20
101.4190176424435
 30
0.0
 11
157.3861098371426
 21
98.94269052124318
 31
0.0
  0
LINE
  5
17D
330
70
100
AcDbEntity
  8
0
 62
    18
420
        0
370
    25
100
AcDbLine
 10
143.4435831836423
 20
84.96767747374336
 30
0.0
 11
143.4435831836423
 21
84.84267535774293
 31
0.0
  0
LINE
  5
17E
330
70
100
AcDbEntity
  8
0
 62
    18
420
        0
370
    25
100
AcDbLine
 10
179.4435839622427
 20
84.84267535774293
 30
0.0
 11
179.4435839622427
 21
84.96767747374336
 31
0.0
  0
SPLINE
  5
17F
330
70
100
AcDbEntity
  8
0
 62
    18
420
        0
370
    25
100
AcDbSpline
210
0.0
220
0.0
230
1.0
 70
     8
 71
     3
 72
     8
 73
     4
 74
     0
 42
0.0000000001
 43
0.0000000001
 40
0.0
 40
0.0
 40
0.0
 40
0.0
 40
1.0
 40
1.0
 40
1.0
 40
1.0
 10
144.6765138834887
 20
90.73372770634378
 30
0.0
 10
144.5453747292249
 20
90.7247525033061
 30
0.0
 10
144.4435840262426
 20
90.61575709498169
 30
0.0
 10
144.4435840262426
 20
90.48431116674342
 30
0.0
  0
SPLINE
  5
180
330
70
100
AcDbEntity
  8
0
 62
    18
420
        0
370
    25
100
AcDbSpline
210
0.0
220
0.0
230
1.0
 70
     8
 71
     3
 72
     8
 73
     4
 74
     0
 42
0.0000000001
 43
0.0000000001
 40
0.0
 40
0.0
 40
0.0
 40
0.0
 40
1.0
 40
1.0
 40
1.0
 40
1.0
 10
178.4435840262425
 20
90.48431116674342
 30
0.0
 10
178.4435840262425
 20
90.61575709498169
 30
0.0
 10
178.3417933232596
 20
90.7247525033061
 30
0.0
 10
178.2106541689964
 20
90.73372770634378
 30
0.0
  0
LINE
  5
181
330
70
100
AcDbEntity
  8
0
 62
    18
420
        0
370
    25
100
AcDbLine
 10
178.4435837983425
 20
90.06767812344328
 30
0.0
 11
178.4435837983425
 21
90.48431086514327
 31
0.0
  0
LINE
  5
182
330
70
100
AcDbEntity
  8
0
 62
    18
420
        0
370
    25
100
AcDbLine
 10
144.4435833476427
 20
90.48431086514327
 30
0.0
 11
144.4435833476427
 21
90.06767812344328
 31
0.0
  0
SPLINE
  5
183
330
70
100
AcDbEntity
  8
0
 62
    18
420
        0
370
    25
100
AcDbSpline
210
0.0
220
0.0
230
1.0
 70
     8
 71
     3
 72
     8
 73
     4
 74
     0
 42
0.0000000001
 43
0.0000000001
 40
0.0
 40
0.0
 40
0.0
 40
0.0
 40
1.0
 40
1.0
 40
1.0
 40
1.0
 10
144.4435840262426
 20
90.06767663404344
 30
0.0
 10
144.4435840262426
 20
90.01244815906035
 30
0.0
 10
144.4883555512595
 20
89.96767663404344
 30
0.0
 10
144.5435840262422
 20
89.96767663404344
 30
0.0
  0
SPLINE
  5
184
330
70
100
AcDbEntity
  8
0
 62
    18
420
        0
370
    25
100
AcDbSpline
210
0.0
220
0.0
230
1.0
 70
     8
 71
     3
 72
     8
 73
     4
 74
     0
 42
0.0000000001
 43
0.0000000001
 40
0.0
 40
0.0
 40
0.0
 40
0.0
 40
1.0
 40
1.0
 40
1.0
 40
1.0
 10
178.3435840262422
 20
89.96767663404344
 30
0.0
 10
178.3988125012256
 20
89.96767663404344
 30
0.0
 10
178.4435840262425
 20
90.01244815906035
 30
0.0
 10
178.4435840262425
 20
90.06767663404344
 30
0.0
  0
SPLINE
  5
185
330
70
100
AcDbEntity
  8
0
 62
    18
420
        0
370
    25
100
AcDbSpline
210
0.0
220
0.0
230
1.0
 70
     8
 71
     3
 72
     8
 73
     4
 74
     0
 42
0.0000000001
 43
0.0000000001
 40
0.0
 40
0.0
 40
0.0
 40
0.0
 40
1.0
 40
1.0
 40
1.0
 40
1.0
 10
154.2560959270615
 20
91.20494590951349
 30
0.0
 10
151.0601824117654
 20
91.1091461615725
 30
0.0
 10
147.8664008024749
 20
90.95204452346742
 30
0.0
 10
144.6765138834296
 20
90.73372770629019
 30
0.0
  0
SPLINE
  5
186
330
70
100
AcDbEntity
  8
0
 62
    18
420
        0
370
    25
100
AcDbSpline
210
0.0
220
0.0
230
1.0
 70
     8
 71
     3
 72
     8
 73
     4
 74
     0
 42
0.0000000001
 43
0.0000000001
 40
0.0
 40
0.0
 40
0.0
 40
0.0
 40
1.0
 40
1.0
 40
1.0
 40
1.0
 10
178.2106541689547
 20
90.73372770629019
 30
0.0
 10
175.0207672499101
 20
90.95204452346742
 30
0.0
 10
171.8269856406196
 20
91.1091461615725
 30
0.0
 10
168.6310721253235
 20
91.20494590951349
 30
0.0
  0
LINE
  5
187
330
70
100
AcDbEntity
  8
0
 62
    18
420
        0
370
    25
100
AcDbLine
 10
180.2246641821424
 20
76.84267590914308
 30
0.0
 11
142.6625034294422
 21
76.84267590914308
 31
0.0
  0
LWPOLYLINE
  5
188
330
70
100
AcDbEntity
  8
0
 62
    18
420
        0
370
    25
100
AcDbPolyline
 90
        5
 70
     0
 43
0.0
 10
142.5160157017421
 20
77.09485757324308
 10
142.5044840655425
 20
76.94540451434311
 10
142.6368641189426
 20
76.84405985444314
 10
142.6609443954427
 20
76.84268149704291
 10
142.6625034294422
 20
76.84267590914308
  0
SPLINE
  5
189
330
70
100
AcDbEntity
  8
0
 62
    18
420
        0
370
    25
100
AcDbSpline
210
0.0
220
0.0
230
1.0
 70
     8
 71
     3
 72
     8
 73
     4
 74
     0
 42
0.0000000001
 43
0.0000000001
 40
0.0
 40
0.0
 40
0.0
 40
0.0
 40
1.0
 40
1.0
 40
1.0
 40
1.0
 10
142.5160157017248
 20
77.09485757326361
 30
0.0
 10
142.754399614029
 20
78.26736160274371
 30
0.0
 10
142.8867716145893
 20
79.45894151126625
 30
0.0
 10
142.9115297727122
 20
80.65517711615189
 30
0.0
  0
LINE
  5
18A
330
70
100
AcDbEntity
  8
0
 62
    18
420
        0
370
    25
100
AcDbLine
 10
142.9115074209422
 20
80.65517711614289
 30
0.0
 11
142.9115297726423
 21
80.65517711614289
 31
0.0
  0
SPLINE
  5
18B
330
70
100
AcDbEntity
  8
0
 62
    18
420
        0
370
    25
100
AcDbSpline
210
0.0
220
0.0
230
1.0
 70
     8
 71
     3
 72
     8
 73
     4
 74
     0
 42
0.0000000001
 43
0.0000000001
 40
0.0
 40
0.0
 40
0.0
 40
0.0
 40
1.0
 40
1.0
 40
1.0
 40
1.0
 10
142.9115074209416
 20
80.65517711608579
 30
0.0
 10
142.9237163470232
 20
81.97690667010624
 30
0.0
 10
142.8349408357188
 20
83.29763784861048
 30
0.0
 10
142.6459556899515
 20
84.60584375232953
 30
0.0
  0
LWPOLYLINE
  5
18C
330
70
100
AcDbEntity
  8
0
 62
    18
420
        0
370
    25
100
AcDbPolyline
 90
        5
 70
     0
 43
0.0
 10
142.7973608009421
 20
84.84267535774293
 10
142.7958017669426
 20
84.84267163244323
 10
142.7485352836424
 20
84.83737426964351
 10
142.6451249502426
 20
84.75472870444335
 10
142.6459556899425
 20
84.60584375234365
  0
LINE
  5
18D
330
70
100
AcDbEntity
  8
0
 62
    18
420
        0
370
    25
100
AcDbLine
 10
142.7973608009421
 20
84.84267535774293
 30
0.0
 11
180.0898068107426
 21
84.84267535774293
 31
0.0
  0
SPLINE
  5
18E
330
70
100
AcDbEntity
  8
0
 62
    18
420
        0
370
    25
100
AcDbSpline
210
0.0
220
0.0
230
1.0
 70
     8
 71
     3
 72
     8
 73
     4
 74
     0
 42
0.0000000001
 43
0.0000000001
 40
0.0
 40
0.0
 40
0.0
 40
0.0
 40
1.0
 40
1.0
 40
1.0
 40
1.0
 10
142.5160157016536
 20
77.0948575732341
 30
0.0
 10
142.5017338502979
 20
77.22143829369691
 30
0.0
 10
142.3947679459543
 20
77.31716774163307
 30
0.0
 10
142.2673842391987
 20
77.31737102540695
 30
0.0
  0
SPLINE
  5
18F
330
70
100
AcDbEntity
  8
0
 62
    18
420
        0
370
    25
100
AcDbSpline
210
0.0
220
0.0
230
1.0
 70
     8
 71
     3
 72
     8
 73
     4
 74
     0
 42
0.0000000001
 43
0.0000000001
 40
0.0
 40
0.0
 40
0.0
 40
0.0
 40
1.0
 40
1.0
 40
1.0
 40
1.0
 10
142.2673842392429
 20
77.31737102537938
 30
0.0
 10
142.5085814043702
 20
78.41846183939243
 30
0.0
 10
142.6426370143504
 20
79.54031338978062
 30
0.0
 10
142.6676759950356
 20
80.66723401813737
 30
0.0
  0
SPLINE
  5
190
330
70
100
AcDbEntity
  8
0
 62
    18
420
        0
370
    25
100
AcDbSpline
210
0.0
220
0.0
230
1.0
 70
     8
 71
     3
 72
     8
 73
     4
 74
     0
 42
0.0000000001
 43
0.0000000001
 40
0.0
 40
0.0
 40
0.0
 40
0.0
 40
1.0
 40
1.0
 40
1.0
 40
1.0
 10
142.9115074209133
 20
80.65517897879244
 30
0.0
 10
142.8304919736581
 20
80.66339182547974
 30
0.0
 10
142.7491064598117
 20
80.66741552985986
 30
0.0
 10
142.6676759950074
 20
80.66723401819769
 30
0.0
  0
SPLINE
  5
191
330
70
100
AcDbEntity
  8
0
 62
    18
420
        0
370
    25
100
AcDbSpline
210
0.0
220
0.0
230
1.0
 70
     8
 71
     3
 72
     8
 73
     4
 74
     0
 42
0.0000000001
 43
0.0000000001
 40
0.0
 40
0.0
 40
0.0
 40
0.0
 40
1.0
 40
1.0
 40
1.0
 40
1.0
 10
142.6676759950471
 20
80.66723401819642
 30
0.0
 10
142.6794401743991
 20
81.91573110505373
 30
0.0
 10
142.5891139489729
 20
83.16310029621497
 30
0.0
 10
142.3975998989879
 20
84.39687731839702
 30
0.0
  0
SPLINE
  5
192
330
70
100
AcDbEntity
  8
0
 62
    18
420
        0
370
    25
100
AcDbSpline
210
0.0
220
0.0
230
1.0
 70
     8
 71
     3
 72
     8
 73
     4
 74
     0
 42
0.0000000001
 43
0.0000000001
 40
0.0
 40
0.0
 40
0.0
 40
0.0
 40
1.0
 40
1.0
 40
1.0
 40
1.0
 10
142.397599898936
 20
84.39687731836622
 30
0.0
 10
142.5206238875214
 20
84.39566079596408
 30
0.0
 10
142.626118135
 20
84.48442360120074
 30
0.0
 10
142.6459556899085
 20
84.60584375236804
 30
0.0
  0
LWPOLYLINE
  5
193
330
70
100
AcDbEntity
  8
0
 62
    18
420
        0
370
    25
100
AcDbPolyline
 90
        5
 70
     0
 43
0.0
 10
142.3975998989424
 20
84.39687731834313
 10
142.4551463208426
 20
84.67713090754363
 10
142.7389463863423
 20
84.83936357474288
 10
142.7943004749426
 20
84.84266790724362
 10
142.7973608009421
 20
84.84267535774293
  0
LWPOLYLINE
  5
194
330
70
100
AcDbEntity
  8
0
 62
    18
420
        0
370
    25
100
AcDbPolyline
 90
        6
 70
     0
 43
0.0
 10
142.6625034294422
 20
76.84267590914308
 10
142.6594431034427
 20
76.84268522234328
 10
142.6106026850423
 20
76.84527988704363
 10
142.4352420948426
 20
76.90094876264331
 10
142.3029346845427
 20
77.03604641524337
 10
142.2673842392423
 20
77.3173710254429
  0
LINE
  5
195
330
70
100
AcDbEntity
  8
0
 62
    18
420
        0
370
    25
100
AcDbLine
 10
128.9458411268424
 20
82.61766935854337
 30
0.0
 11
128.9435836009422
 21
83.66559538214344
 31
0.0
  0
LWPOLYLINE
  5
196
330
70
100
AcDbEntity
  8
0
 62
    18
420
        0
370
    25
100
AcDbPolyline
 90
        8
 70
     0
 43
0.0
 10
128.9955029718426
 20
84.84267535774293
 10
128.9951788715423
 20
84.82807594514332
 10
128.9925860695422
 20
84.71192511884376
 10
128.9874749712422
 20
84.4830023047435
 10
128.9799983135424
 20
84.14798694824334
 10
128.9703721634422
 20
83.71663558454326
 10
128.9588721923424
 20
83.20152479384331
 10
128.9458411268424
 20
82.61766935854337
  0
LINE
  5
197
330
70
100
AcDbEntity
  8
0
 62
    18
420
        0
370
    25
100
AcDbLine
 10
128.9435836009422
 20
83.66559538214344
 30
0.0
 11
128.9435836009422
 21
78.01055628034365
 31
0.0
  0
LWPOLYLINE
  5
198
330
70
100
AcDbEntity
  8
0
 62
    18
420
        0
370
    25
100
AcDbPolyline
 90
        7
 70
     0
 43
0.0
 10
128.6837893060421
 20
92.84286665884346
 10
128.6841469339423
 20
91.84286835764345
 10
128.6854098073421
 20
87.84286770194336
 10
128.6864342622426
 20
79.84286825334351
 10
128.6860878102423
 20
76.79566460824327
 10
128.6837893060421
 20
68.84248647064365
 10
128.6837855808425
 20
68.83196997614373
  0
LWPOLYLINE
  5
199
330
70
100
AcDbEntity
  8
0
 62
    18
420
        0
370
    25
100
AcDbPolyline
 90
        7
 70
     0
 43
0.0
 10
128.6837855808425
 20
68.83196997614373
 10
128.6486039392426
 20
68.83272434744312
 10
128.5610931448426
 20
68.83459816844329
 10
128.4311065904423
 20
68.83738468564337
 10
128.2732734910424
 20
68.84076724914286
 10
128.1996468536425
 20
68.84234677224299
 10
128.1842390529423
 20
68.84267646044313
  0
LWPOLYLINE
  5
19A
330
70
100
AcDbEntity
  8
0
 62
    18
420
        0
370
    25
100
AcDbPolyline
 90
        4
 70
     0
 43
0.0
 10
128.1842390529423
 20
68.84267646044313
 10
128.1866567663424
 20
76.79575774044342
 10
128.1866753928422
 20
84.74883902044371
 10
128.1842390529423
 20
92.84267666904334
  0
LWPOLYLINE
  5
19B
330
70
100
AcDbEntity
  8
0
 62
    18
420
        0
370
    25
100
AcDbPolyline
 90
        9
 70
     0
 43
0.0
 10
128.6837893060421
 20
92.84286665884346
 10
128.6706651083425
 20
92.84286293364322
 10
128.6398457817425
 20
92.84285175774344
 10
128.5924489132425
 20
92.84283313124328
 10
128.5301993123426
 20
92.84280705424317
 10
128.4553619555424
 20
92.84278097724337
 10
128.3706637553423
 20
92.84274744964319
 10
128.2791780762422
 20
92.84271392194323
 10
128.1842390529423
 20
92.84267666904334
  0
LWPOLYLINE
  5
19C
330
70
100
AcDbEntity
  8
0
 62
    18
420
        0
370
    25
100
AcDbPolyline
 90
        3
 70
     0
 43
0.0
 10
128.6846833757421
 20
68.84247715744347
 10
128.6846796504424
 20
68.84244735514332
 10
128.6837893060421
 20
68.8214329925432
  0
LWPOLYLINE
  5
19D
330
70
100
AcDbEntity
  8
0
 62
    18
420
        0
370
    25
100
AcDbPolyline
 90
        9
 70
     0
 43
0.0
 10
128.1842390529423
 20
68.84267646044313
 10
128.2816740207424
 20
68.83853393764368
 10
128.3753650717424
 20
68.83454787704319
 10
128.4617135755421
 20
68.83087660344337
 10
128.5374077491422
 20
68.82765795264345
 10
128.5995344154423
 20
68.82501485914374
 10
128.6457093886422
 20
68.82305163114302
 10
128.6741557053424
 20
68.82184091184348
 10
128.6837893060421
 20
68.8214329925432
  0
SPLINE
  5
19E
330
70
100
AcDbEntity
  8
0
 62
    18
420
        0
370
    25
100
AcDbSpline
210
0.0
220
0.0
230
1.0
 70
     8
 71
     3
 72
     8
 73
     4
 74
     0
 42
0.0000000001
 43
0.0000000001
 40
0.0
 40
0.0
 40
0.0
 40
0.0
 40
1.0
 40
1.0
 40
1.0
 40
1.0
 10
128.683785580752
 20
68.83196997611164
 30
0.0
 10
128.6843912110146
 20
68.8354394183008
 30
0.0
 10
128.6846916252203
 20
68.83895526173464
 30
0.0
 10
128.6846833757139
 20
68.84247715739855
 30
0.0
  0
LINE
  5
19F
330
70
100
AcDbEntity
  8
0
 62
    18
420
        0
370
    25
100
AcDbLine
 10
125.9435849718423
 20
92.84267666904334
 30
0.0
 11
125.9435849718423
 21
93.34267768234324
 31
0.0
  0
LINE
  5
1A0
330
70
100
AcDbEntity
  8
0
 62
    18
420
        0
370
    25
100
AcDbLine
 10
125.9435849718423
 20
93.34267768234324
 30
0.0
 11
128.1842390529423
 21
93.34267768234324
 31
0.0
  0
LINE
  5
1A1
330
70
100
AcDbEntity
  8
0
 62
    18
420
        0
370
    25
100
AcDbLine
 10
128.1842390529423
 20
92.84267666904334
 30
0.0
 11
128.1842390529423
 21
93.34267768234324
 31
0.0
  0
LINE
  5
1A2
330
70
100
AcDbEntity
  8
0
 62
    18
420
        0
370
    25
100
AcDbLine
 10
128.1842390529423
 20
92.84267666904334
 30
0.0
 11
125.9435849718423
 21
92.84267666904334
 31
0.0
  0
SPLINE
  5
1A3
330
70
100
AcDbEntity
  8
0
 62
    18
420
        0
370
    25
100
AcDbSpline
210
0.0
220
0.0
230
1.0
 70
     8
 71
     3
 72
     8
 73
     4
 74
     0
 42
0.0000000001
 43
0.0000000001
 40
0.0
 40
0.0
 40
0.0
 40
0.0
 40
1.0
 40
1.0
 40
1.0
 40
1.0
 10
128.68378930613
 20
92.84286665888165
 30
0.0
 10
128.6838082253838
 20
93.1188106776478
 30
0.0
 10
128.4601830440397
 20
93.34255259361468
 30
0.0
 10
128.1842390529769
 20
93.34267768235511
 30
0.0
  0
LINE
  5
1A4
330
70
100
AcDbEntity
  8
0
 62
    18
420
        0
370
    25
100
AcDbLine
 10
125.9435849718423
 20
68.84267646044313
 30
0.0
 11
128.1842390529423
 21
68.84267646044313
 31
0.0
  0
LINE
  5
1A5
330
70
100
AcDbEntity
  8
0
 62
    18
420
        0
370
    25
100
AcDbLine
 10
128.1842390529423
 20
68.34267730984312
 30
0.0
 11
128.1842390529423
 21
68.84267646044313
 31
0.0
  0
LINE
  5
1A6
330
70
100
AcDbEntity
  8
0
 62
    18
420
        0
370
    25
100
AcDbLine
 10
128.1842390529423
 20
68.34267730984312
 30
0.0
 11
125.9435849718423
 21
68.34267730984312
 31
0.0
  0
LINE
  5
1A7
330
70
100
AcDbEntity
  8
0
 62
    18
420
        0
370
    25
100
AcDbLine
 10
125.9435849718423
 20
68.34267730984312
 30
0.0
 11
125.9435849718423
 21
68.84267646044313
 31
0.0
  0
LINE
  5
1A8
330
70
100
AcDbEntity
  8
0
 62
    18
420
        0
370
    25
100
AcDbLine
 10
125.9435849718423
 20
92.84267666904334
 30
0.0
 11
125.9435849718423
 21
68.84267646044313
 31
0.0
  0
SPLINE
  5
1A9
330
70
100
AcDbEntity
  8
0
 62
    18
420
        0
370
    25
100
AcDbSpline
210
0.0
220
0.0
230
1.0
 70
     8
 71
     3
 72
     8
 73
     4
 74
     0
 42
0.0000000001
 43
0.0000000001
 40
0.0
 40
0.0
 40
0.0
 40
0.0
 40
1.0
 40
1.0
 40
1.0
 40
1.0
 10
128.1842390529705
 20
68.34267730984826
 30
0.0
 10
128.452118784803
 20
68.34267751827211
 30
0.0
 10
128.6724063021055
 20
68.55379521878863
 30
0.0
 10
128.683789306123
 20
68.82143299255474
 30
0.0
  0
SPLINE
  5
1AA
330
70
100
AcDbEntity
  8
0
 62
    18
420
        0
370
    25
100
AcDbSpline
210
0.0
220
0.0
230
1.0
 70
     8
 71
     3
 72
     8
 73
     4
 74
     0
 42
0.0000000001
 43
0.0000000001
 40
0.0
 40
0.0
 40
0.0
 40
0.0
 40
1.0
 40
1.0
 40
1.0
 40
1.0
 10
128.6846833758076
 20
68.84247715759362
 30
0.0
 10
128.818544758152
 20
71.90468045408192
 30
0.0
 10
128.9048552344014
 20
74.96877749671959
 30
0.0
 10
128.9435836009621
 20
78.0336605307567
 30
0.0
  0
LWPOLYLINE
  5
1AB
330
70
100
AcDbEntity
  8
0
 62
    18
420
        0
370
    25
100
AcDbPolyline
 90
        3
 70
     0
 43
0.0
 10
128.6846833757421
 20
92.84287410944321
 10
128.6846796504424
 20
92.84287410944321
 10
128.6837893060421
 20
92.84286665884346
  0
SPLINE
  5
1AC
330
70
100
AcDbEntity
  8
0
 62
    18
420
        0
370
    25
100
AcDbSpline
210
0.0
220
0.0
230
1.0
 70
     8
 71
     3
 72
     8
 73
     4
 74
     0
 42
0.0000000001
 43
0.0000000001
 40
0.0
 40
0.0
 40
0.0
 40
0.0
 40
1.0
 40
1.0
 40
1.0
 40
1.0
 10
128.9373735420209
 20
83.67105293234173
 30
0.0
 10
128.9008472706491
 20
86.72945474484974
 30
0.0
 10
128.8166069638934
 20
89.78710056056412
 30
0.0
 10
128.6846833757845
 20
92.84287410946213
 30
0.0
  0
LINE
  5
1AD
330
70
100
AcDbEntity
  8
0
 62
    18
420
        0
370
    25
100
AcDbLine
 10
128.6837855808066
 20
92.86391827435309
 30
0.0
 11
128.6855766833123
 21
92.86592325566138
 31
0.0
  0
SPLINE
  5
1AE
330
70
100
AcDbEntity
  8
0
 62
    18
420
        0
370
    25
100
AcDbSpline
210
0.0
220
0.0
230
1.0
 70
     8
 71
     3
 72
     8
 73
     4
 74
     0
 42
0.0000000001
 43
0.0000000001
 40
0.0
 40
0.0
 40
0.0
 40
0.0
 40
1.0
 40
1.0
 40
1.0
 40
1.0
 10
128.6837855808322
 20
92.86391827437105
 30
0.0
 10
128.6723990296559
 20
93.13155356604625
 30
0.0
 10
128.4521164555908
 20
93.34266974616021
 30
0.0
 10
128.1842390529699
 20
93.34267768236827
 30
0.0
  0
LINE
  5
1AF
330
70
100
AcDbEntity
  8
0
 62
    18
420
        0
370
    25
100
AcDbLine
 10
128.1842390529423
 20
93.34267768234324
 30
0.0
 11
128.1870441965421
 21
93.34267768234324
 31
0.0
  0
LINE
  5
1B0
330
70
100
AcDbEntity
  8
0
 62
    18
420
        0
370
    25
100
AcDbLine
 10
128.6837855808425
 20
92.86391827434348
 30
0.0
 11
128.6846833757421
 21
92.84287410944321
 31
0.0
  0
LWPOLYLINE
  5
1B1
330
70
100
AcDbEntity
  8
0
 62
    18
420
        0
370
    25
100
AcDbPolyline
 90
        3
 70
     0
 43
0.0
 10
128.6876226298421
 20
92.84287410944321
 10
128.6869707040425
 20
92.85635220974318
 10
128.6864566139421
 20
92.8669394848433
  0
LINE
  5
1B2
330
70
100
AcDbEntity
  8
0
 62
    18
420
        0
370
    25
100
AcDbLine
 10
128.6876226298421
 20
92.84287410944321
 30
0.0
 11
128.6846833757421
 21
92.84287410944321
 31
0.0
  0
LWPOLYLINE
  5
1B3
330
70
100
AcDbEntity
  8
0
 62
    18
420
        0
370
    25
100
AcDbPolyline
 90
        5
 70
     0
 43
0.0
 10
128.9400743774425
 20
83.95808654994288
 10
128.9400147728422
 20
83.96263512944313
 10
128.9409237436423
 20
83.89191794364352
 10
128.9427193335423
 20
83.74519365994345
 10
128.9436096779426
 20
83.6528995928435
  0
LINE
  5
1B4
330
70
100
AcDbEntity
  8
0
 62
    18
420
        0
370
    25
100
AcDbLine
 10
186.6935842193424
 20
111.4190155563431
 30
0.0
 11
186.6935842193424
 21
108.4190169272432
 31
0.0
  0
LINE
  5
1B5
330
70
100
AcDbEntity
  8
0
 62
    18
420
        0
370
    25
100
AcDbLine
 10
179.8600271798425
 20
89.96767643064346
 30
0.0
 11
143.0271404318423
 21
89.96767643064346
 31
0.0
  0
LINE
  5
1B6
330
70
100
AcDbEntity
  8
0
 62
    18
420
        0
370
    25
100
AcDbLine
 10
179.8207561008426
 20
84.96767747374336
 30
0.0
 11
143.0664124421426
 21
84.96767747374336
 31
0.0
  0
LINE
  5
1B7
330
70
100
AcDbEntity
  8
0
 62
    18
420
        0
370
    25
100
AcDbLine
 10
176.2009008310426
 20
33.96767656474343
 30
0.0
 11
146.6862677119425
 21
33.96767656474343
 31
0.0
  0
LINE
  5
1B8
330
70
100
AcDbEntity
  8
0
 62
    18
420
        0
370
    25
100
AcDbLine
 10
156.4435843832426
 20
113.1683895287434
 30
0.0
 11
166.4435841597424
 21
113.1683895287434
 31
0.0
  0
LINE
  5
1B9
330
70
100
AcDbEntity
  8
0
 62
    18
420
        0
370
    25
100
AcDbLine
 10
156.4435843832426
 20
101.4190176424435
 30
0.0
 11
166.4435841597424
 21
101.4190176424435
 31
0.0
  0
LINE
  5
1BA
330
70
100
AcDbEntity
  8
0
 62
    18
420
        0
370
    25
100
AcDbLine
 10
168.6110428057427
 20
91.2049459216432
 30
0.0
 11
153.6935834668426
 21
91.2049459216432
 31
0.0
  0
LINE
  5
1BB
330
70
100
AcDbEntity
  8
0
 62
    18
420
        0
370
    25
100
AcDbLine
 10
169.1935839119426
 20
91.2049459216432
 30
0.0
 11
168.6110428057427
 21
91.2049459216432
 31
0.0
  0
LINE
  5
1BC
330
70
100
AcDbEntity
  8
0
 62
     8
420
  8421504
370
    25
100
AcDbLine
 10
142.5160157017421
 20
77.09485757324308
 30
0.0
 11
180.4746544442422
 21
77.09485757324308
 31
0.0
  0
LINE
  5
1BD
330
70
100
AcDbEntity
  8
0
 62
     8
420
  8421504
370
    25
100
AcDbLine
 10
142.9115297726423
 20
80.65517711614289
 30
0.0
 11
180.4435836605422
 21
80.65517711614289
 31
0.0
  0
LINE
  5
1BE
330
70
100
AcDbEntity
  8
0
 62
     8
420
  8421504
370
    25
100
AcDbLine
 10
180.3394599340422
 20
84.60584375234365
 30
0.0
 11
142.6459556899425
 21
84.60584375234365
 31
0.0
  0
LINE
  5
1BF
330
70
100
AcDbEntity
  8
0
 62
     8
420
  8421504
370
    25
100
AcDbLine
 10
128.6863113276506
 20
68.81858314546045
 30
0.0
 11
128.6846383594764
 21
68.82049049218865
 31
0.0
  0
LINE
  5
1C0
330
70
100
AcDbEntity
  8
0
 62
     8
420
  8421504
370
    25
100
AcDbLine
 10
180.1100174419423
 20
89.71549662924337
 30
0.0
 11
142.7771511010422
 21
89.71549662924337
 31
0.0
  0
LINE
  5
1C1
330
70
100
AcDbEntity
  8
0
 62
     8
420
  8421504
370
    25
100
AcDbLine
 10
180.0707463629423
 20
85.21549496024338
 30
0.0
 11
142.8164212487423
 21
85.21549496024338
 31
0.0
  0
LINE
  5
1C2
330
70
100
AcDbEntity
  8
0
 62
     8
420
  8421504
370
    25
100
AcDbLine
 10
176.9508650980424
 20
34.71032436164345
 30
0.0
 11
145.9363034449421
 21
34.71032436164345
 31
0.0
  0
LINE
  5
1C3
330
70
100
AcDbEntity
  8
0
 62
     8
420
  8421504
370
    25
100
AcDbLine
 10
169.1334321152426
 20
98.09766802164316
 30
0.0
 11
153.7537357292422
 21
98.09766802164316
 31
0.0
  0
LINE
  5
1C4
330
70
100
AcDbEntity
  8
0
 62
     8
420
  8421504
370
    25
100
AcDbLine
 10
168.3356816868423
 20
98.34518003434334
 30
0.0
 11
168.8958426460423
 21
98.34518003434334
 31
0.0
  0
LINE
  5
1C5
330
70
100
AcDbEntity
  8
0
 62
     8
420
  8421504
370
    25
100
AcDbLine
 10
153.9913254312425
 20
98.34518003434334
 30
0.0
 11
168.3356816868423
 21
98.34518003434334
 31
0.0
  0
LINE
  5
1C6
330
70
100
AcDbEntity
  8
0
 62
     8
420
  8421504
370
    25
100
AcDbLine
 10
165.6489662348423
 20
98.44715985624329
 30
0.0
 11
156.8964064575424
 21
98.44715985624329
 31
0.0
  0
LINE
  5
1C7
330
70
100
AcDbEntity
  8
0
 62
     8
420
  8421504
370
    25
100
AcDbLine
 10
165.9907620854421
 20
98.44715985624329
 30
0.0
 11
165.6489662348423
 21
98.44715985624329
 31
0.0
  0
LINE
  5
1C8
330
70
100
AcDbEntity
  8
0
 62
     8
420
  8421504
370
    25
100
AcDbLine
 10
165.1960710517422
 20
98.94269052124318
 30
0.0
 11
165.5010577745421
 21
98.94269052124318
 31
0.0
  0
LINE
  5
1C9
330
70
100
AcDbEntity
  8
0
 62
     8
420
  8421504
370
    25
100
AcDbLine
 10
157.3861098371426
 20
98.94269052124318
 30
0.0
 11
165.1960710517422
 21
98.94269052124318
 31
0.0
  0
LINE
  5
1CA
330
70
100
AcDbEntity
  8
0
 62
     8
420
  8421504
370
    25
100
AcDbLine
 10
178.4435837983425
 20
90.48431086514327
 30
0.0
 11
144.4435833476427
 21
90.48431086514327
 31
0.0
  0
LINE
  5
1CB
330
70
100
AcDbEntity
  8
0
 62
     8
420
  8421504
370
    25
100
AcDbLine
 10
178.1399148970427
 20
90.73372650114315
 30
0.0
 11
178.2106539688421
 21
90.73372650114315
 31
0.0
  0
LINE
  5
1CC
330
70
100
AcDbEntity
  8
0
 62
     8
420
  8421504
370
    25
100
AcDbLine
 10
144.6765145741423
 20
90.73372650114315
 30
0.0
 11
178.1399148970427
 21
90.73372650114315
 31
0.0
  0
LINE
  5
1CD
330
70
100
AcDbEntity
  8
0
 62
     8
420
  8421504
370
    25
100
AcDbLine
 10
144.4435833476427
 20
90.06767812344328
 30
0.0
 11
178.4435837983425
 21
90.06767812344328
 31
0.0
  0
LINE
  5
1CE
330
70
100
AcDbEntity
  8
0
 62
    18
420
        0
370
    25
100
AcDbLine
 10
47.50675381984232
 20
-2.052970298056562
 30
0.0
 11
47.50675381984232
 21
-15.77698073575652
 31
0.0
  0
LINE
  5
1CF
330
70
100
AcDbEntity
  8
0
 62
    18
420
        0
370
    25
100
AcDbLine
 10
55.50675373414241
 20
-15.77698073575652
 30
0.0
 11
55.50675373414241
 21
-2.052970298056562
 31
0.0
  0
LWPOLYLINE
  5
1D0
330
70
100
AcDbEntity
  8
0
 62
    18
420
        0
370
    25
100
AcDbPolyline
 90
       12
 70
     0
 43
0.0
 10
47.50659502934232
 20
-15.77824360915641
 10
47.50696988664256
 20
-15.78038937635656
 10
47.49233508374252
 20
-15.86246497225646
 10
47.46128572044248
 20
-15.92222980455649
 10
47.42357274404255
 20
-15.96454723965684
 10
47.38629888634249
 20
-15.99208272285675
 10
47.35768306894244
 20
-16.00692614205643
 10
47.34203219304233
 20
-16.01316972865653
 10
47.33194736654243
 20
-16.01655042955654
 10
47.32361435784247
 20
-16.01897186825638
 10
47.31723386684233
 20
-16.02058119365666
 10
47.31809859984237
 20
-16.02041169295649
  0
LWPOLYLINE
  5
1D1
330
70
100
AcDbEntity
  8
0
 62
    18
420
        0
370
    25
100
AcDbPolyline
 90
       10
 70
     0
 43
0.0
 10
55.69446273034229
 20
-16.02018631295638
 10
55.69510278184253
 20
-16.02030552215697
 10
55.68097391984244
 20
-16.01636789035647
 10
55.66809954944254
 20
-16.0119273443566
 10
55.6483089447423
 20
-16.00347652325647
 10
55.60879385924242
 20
-15.97981534195641
 10
55.56401074754242
 20
-15.93763946785684
 10
55.52250146754239
 20
-15.86608781705694
 10
55.50653138084256
 20
-15.77958471365642
 10
55.50677073074241
 20
-15.77824174655693
  0
LINE
  5
1D2
330
70
100
AcDbEntity
  8
0
 62
    18
420
        0
370
    25
100
AcDbLine
 10
52.23175366594228
 20
-2.092037417456726
 30
0.0
 11
52.23175366594228
 21
-2.068061449056542
 31
0.0
  0
LINE
  5
1D3
330
70
100
AcDbEntity
  8
0
 62
    18
420
        0
370
    25
100
AcDbLine
 10
50.78175361154236
 20
-2.068061449056542
 30
0.0
 11
50.78175361154236
 21
-2.092037417456726
 31
0.0
  0
LINE
  5
1D4
330
70
100
AcDbEntity
  8
0
 62
    18
420
        0
370
    25
100
AcDbLine
 10
48.26590604974239
 20
-2.055630155356511
 30
0.0
 11
48.88725001254231
 21
-2.055630155356511
 31
0.0
  0
LINE
  5
1D5
330
70
100
AcDbEntity
  8
0
 62
    18
420
        0
370
    25
100
AcDbLine
 10
52.23175366594228
 20
-2.068061449056542
 30
0.0
 11
52.23175366594228
 21
-2.054970778956866
 31
0.0
  0
LINE
  5
1D6
330
70
100
AcDbEntity
  8
0
 62
    18
420
        0
370
    25
100
AcDbLine
 10
50.78175361154236
 20
-2.055309780356554
 30
0.0
 11
50.78175361154236
 21
-2.068061449056542
 31
0.0
  0
SPLINE
  5
1D7
330
70
100
AcDbEntity
  8
0
 62
    18
420
        0
370
    25
100
AcDbSpline
210
0.0
220
0.0
230
1.0
 70
     8
 71
     3
 72
    11
 73
     7
 74
     0
 42
0.0000000001
 43
0.0000000001
 40
0.0
 40
0.0
 40
0.0
 40
0.0
 40
1.0
 40
1.0
 40
1.0
 40
2.0
 40
2.0
 40
2.0
 40
2.0
 10
47.35190608928163
 20
-15.98096906670811
 30
0.0
 10
37.09487280048234
 20
-18.27562802288151
 30
0.0
 10
30.64009305622035
 20
-28.45078501431821
 30
0.0
 10
32.93475201239375
 20
-38.7078183031175
 30
0.0
 10
34.75799351112712
 20
-46.85763450814333
 30
0.0
 10
41.68146438623342
 20
-52.8666106726713
 30
0.0
 10
50.0067536690518
 20
-53.52484474638441
 30
0.0
  0
SPLINE
  5
1D8
330
70
100
AcDbEntity
  8
0
 62
    18
420
        0
370
    25
100
AcDbSpline
210
0.0
220
0.0
230
1.0
 70
     8
 71
     3
 72
    11
 73
     7
 74
     0
 42
0.0000000001
 43
0.0000000001
 40
0.0
 40
0.0
 40
0.0
 40
0.0
 40
1.0
 40
1.0
 40
1.0
 40
2.0
 40
2.0
 40
2.0
 40
2.0
 10
53.00675366903297
 20
-53.52484474638441
 30
0.0
 10
63.48463036766227
 20
-52.69641762164344
 30
0.0
 10
71.30705481681103
 20
-43.53084742199545
 30
0.0
 10
70.47862769207069
 20
-33.05297072336615
 30
0.0
 10
69.82158919724186
 20
-24.74280302187138
 30
0.0
 10
63.83273437941535
 20
-17.82745756878401
 30
0.0
 10
55.70166710534929
 20
-15.98997782868846
 30
0.0
  0
LWPOLYLINE
  5
1D9
330
70
100
AcDbEntity
  8
0
 62
    18
420
        0
370
    25
100
AcDbPolyline
 90
        3
 70
     0
 43
0.0
 10
54.47368696224254
 20
-2.055704661156934
 10
58.40715486444246
 20
-1.992166109756628
 10
63.53080645094252
 20
-1.794651218156641
  0
LWPOLYLINE
  5
1DA
330
70
100
AcDbEntity
  8
0
 62
    18
420
        0
370
    25
100
AcDbPolyline
 90
        3
 70
     0
 43
0.0
 10
39.48270156874246
 20
-1.794651218156641
 10
44.6063238185425
 20
-1.992166109756628
 10
48.53976983464248
 20
-2.055704661156934
  0
SPLINE
  5
1DB
330
70
100
AcDbEntity
  8
0
 62
    18
420
        0
370
    25
100
AcDbSpline
210
0.0
220
0.0
230
1.0
 70
     8
 71
     3
 72
     8
 73
     4
 74
     0
 42
0.0000000001
 43
0.0000000001
 40
0.0
 40
0.0
 40
0.0
 40
0.0
 40
1.0
 40
1.0
 40
1.0
 40
1.0
 10
63.53061419832003
 20
-1.795864479998687
 30
0.0
 10
63.79718214016318
 20
-1.783129066196318
 30
0.0
 10
64.00676174685028
 20
-1.563290983325398
 30
0.0
 10
64.00675366881326
 20
-1.296418994690186
 30
0.0
  0
LINE
  5
1DC
330
70
100
AcDbEntity
  8
0
 62
    18
420
        0
370
    25
100
AcDbLine
 10
53.68739319854245
 20
-2.055630155356511
 30
0.0
 11
53.83802961914252
 21
-2.055630155356511
 31
0.0
  0
LINE
  5
1DD
330
70
100
AcDbEntity
  8
0
 62
    18
420
        0
370
    25
100
AcDbLine
 10
49.17519516204235
 20
-2.055630155356511
 30
0.0
 11
49.32611412264254
 21
-2.055630155356511
 31
0.0
  0
SPLINE
  5
1DE
330
70
100
AcDbEntity
  8
0
 62
    18
420
        0
370
    25
100
AcDbSpline
210
0.0
220
0.0
230
1.0
 70
     8
 71
     3
 72
     8
 73
     4
 74
     0
 42
0.0000000001
 43
0.0000000001
 40
0.0
 40
0.0
 40
0.0
 40
0.0
 40
1.0
 40
1.0
 40
1.0
 40
1.0
 10
39.00675366927151
 20
-1.296418994690186
 30
0.0
 10
39.00674559324301
 20
-1.563224629368615
 30
0.0
 10
39.21622448341619
 20
-1.783032566530937
 30
0.0
 10
39.48272176215135
 20
-1.795856262878212
 30
0.0
  0
LINE
  5
1DF
330
70
100
AcDbEntity
  8
0
 62
    18
420
        0
370
    25
100
AcDbLine
 10
50.0067537639424
 20
-39.32266689135698
 30
0.0
 11
50.0067537639424
 21
-59.80297091645674
 31
0.0
  0
LINE
  5
1E0
330
70
100
AcDbEntity
  8
0
 62
    18
420
        0
370
    25
100
AcDbLine
 10
53.00675367364229
 20
-59.80297091645674
 30
0.0
 11
53.00675367364229
 21
-39.32266689135698
 31
0.0
  0
SPLINE
  5
1E1
330
70
100
AcDbEntity
  8
0
 62
    18
420
        0
370
    25
100
AcDbSpline
210
0.0
220
0.0
230
1.0
 70
     8
 71
     3
 72
    11
 73
     7
 74
     0
 42
0.0000000001
 43
0.0000000001
 40
0.0
 40
0.0
 40
0.0
 40
0.0
 40
1.0
 40
1.0
 40
1.0
 40
2.0
 40
2.0
 40
2.0
 40
2.0
 10
51.50675366904255
 20
-15.88652762094707
 30
0.0
 10
41.1975618099975
 20
-15.88652762094707
 30
0.0
 10
32.84031056663271
 20
-24.24377886431153
 30
0.0
 10
32.84031056663271
 20
-34.5529707233569
 30
0.0
 10
32.84031056663271
 20
-44.28051079473127
 30
0.0
 10
40.31067189543793
 20
-52.37736094727324
 30
0.0
 10
50.00675366902997
 20
-53.15904763643715
 30
0.0
  0
SPLINE
  5
1E2
330
70
100
AcDbEntity
  8
0
 62
    18
420
        0
370
    25
100
AcDbSpline
210
0.0
220
0.0
230
1.0
 70
     8
 71
     3
 72
    11
 73
     7
 74
     0
 42
0.0000000001
 43
0.0000000001
 40
0.0
 40
0.0
 40
0.0
 40
0.0
 40
1.0
 40
1.0
 40
1.0
 40
2.0
 40
2.0
 40
2.0
 40
2.0
 10
53.00675366905511
 20
-53.15904763643715
 30
0.0
 10
63.28260620232804
 20
-52.33062051168397
 30
0.0
 10
70.94125770687596
 20
-43.32882325661695
 30
0.0
 10
70.11283058212278
 20
-33.05297072334434
 30
0.0
 10
69.33114389295951
 20
-23.35688894975261
 30
0.0
 10
61.23429374041691
 20
-15.88652762094707
 30
0.0
 10
51.50675366904255
 20
-15.88652762094707
 30
0.0
  0
SPLINE
  5
1E3
330
70
100
AcDbEntity
  8
0
 62
    18
420
        0
370
    25
100
AcDbSpline
210
0.0
220
0.0
230
1.0
 70
     8
 71
     3
 72
     8
 73
     4
 74
     0
 42
0.0000000001
 43
0.0000000001
 40
0.0
 40
0.0
 40
0.0
 40
0.0
 40
1.0
 40
1.0
 40
1.0
 40
1.0
 10
51.506753660558
 20
-15.90674749801477
 30
0.0
 10
50.91975566546665
 20
-15.67821773996667
 30
0.0
 10
50.30050099259584
 20
-15.54331975434952
 30
0.0
 10
49.67163503059328
 20
-15.50698659608688
 30
0.0
  0
SPLINE
  5
1E4
330
70
100
AcDbEntity
  8
0
 62
    18
420
        0
370
    25
100
AcDbSpline
210
0.0
220
0.0
230
1.0
 70
     8
 71
     3
 72
     8
 73
     4
 74
     0
 42
0.0000000001
 43
0.0000000001
 40
0.0
 40
0.0
 40
0.0
 40
0.0
 40
1.0
 40
1.0
 40
1.0
 40
1.0
 10
51.50675366056923
 20
-15.90674749805841
 30
0.0
 10
50.87226388463816
 20
-15.78978107729207
 30
0.0
 10
50.22734013425235
 20
-15.73904041135056
 30
0.0
 10
49.58236520068155
 20
-15.75534238710305
 30
0.0
  0
LWPOLYLINE
  5
1E5
330
70
100
AcDbEntity
  8
0
 62
    18
420
        0
370
    25
100
AcDbPolyline
 90
        9
 70
     0
 43
0.0
 10
49.67163503064238
 20
-15.50698659615683
 10
49.67239708534254
 20
-15.55278531505688
 10
49.66923384814233
 20
-15.59702686265698
 10
49.66225265414255
 20
-15.63820808425693
 10
49.65169099054254
 20
-15.67492827065693
 10
49.63790788204253
 20
-15.70593758715658
 10
49.62137201694228
 20
-15.73018177635692
 10
49.60264568104245
 20
-15.74683941195648
 10
49.5823652006424
 20
-15.75534238705685
  0
SPLINE
  5
1E6
330
70
100
AcDbEntity
  8
0
 62
    18
420
        0
370
    25
100
AcDbSpline
210
0.0
220
0.0
230
1.0
 70
     8
 71
     3
 72
     8
 73
     4
 74
     0
 42
0.0000000001
 43
0.0000000001
 40
0.0
 40
0.0
 40
0.0
 40
0.0
 40
1.0
 40
1.0
 40
1.0
 40
1.0
 10
53.4311421204229
 20
-15.75534238708252
 30
0.0
 10
52.78616719475301
 20
-15.73904070815112
 30
0.0
 10
52.14124347507187
 20
-15.78978137167728
 30
0.0
 10
51.50675366052592
 20
-15.90674749803852
 30
0.0
  0
LWPOLYLINE
  5
1E7
330
70
100
AcDbEntity
  8
0
 62
    18
420
        0
370
    25
100
AcDbPolyline
 90
        9
 70
     0
 43
0.0
 10
53.34187229054228
 20
-15.50698659615683
 10
53.34111023584244
 20
-15.55278531505688
 10
53.34427358934227
 20
-15.59702686265698
 10
53.35125466704242
 20
-15.63820808425693
 10
53.36181633064244
 20
-15.67492827065693
 10
53.37559943914245
 20
-15.70593758715658
 10
53.39213530424238
 20
-15.73018177635692
 10
53.41086175644246
 20
-15.74683941195648
 10
53.43114212044247
 20
-15.75534238705685
  0
SPLINE
  5
1E8
330
70
100
AcDbEntity
  8
0
 62
    18
420
        0
370
    25
100
AcDbSpline
210
0.0
220
0.0
230
1.0
 70
     8
 71
     3
 72
     8
 73
     4
 74
     0
 42
0.0000000001
 43
0.0000000001
 40
0.0
 40
0.0
 40
0.0
 40
0.0
 40
1.0
 40
1.0
 40
1.0
 40
1.0
 10
53.34187229057181
 20
-15.5069865961363
 30
0.0
 10
52.71300633234726
 20
-15.54331978200932
 30
0.0
 10
52.09375166373829
 20
-15.67821776669729
 30
0.0
 10
51.50675366059843
 20
-15.90674749806547
 30
0.0
  0
SPLINE
  5
1E9
330
70
100
AcDbEntity
  8
0
 62
    18
420
        0
370
    25
100
AcDbSpline
210
0.0
220
0.0
230
1.0
 70
     8
 71
     3
 72
     8
 73
     4
 74
     0
 42
0.0000000001
 43
0.0000000001
 40
0.0
 40
0.0
 40
0.0
 40
0.0
 40
1.0
 40
1.0
 40
1.0
 40
1.0
 10
47.92214697119037
 20
-2.055227823981736
 30
0.0
 10
50.3113415779971
 20
-2.12728021751254
 30
0.0
 10
52.7021655102877
 20
-2.12728021751254
 30
0.0
 10
55.09136011709443
 20
-2.055227823981736
 30
0.0
  0
LINE
  5
1EA
330
70
100
AcDbEntity
  8
0
 62
    18
420
        0
370
    25
100
AcDbLine
 10
48.32909768334228
 20
-2.052970298056562
 30
0.0
 11
47.50675381984232
 21
-2.052970298056562
 31
0.0
  0
SPLINE
  5
1EB
330
70
100
AcDbEntity
  8
0
 62
    18
420
        0
370
    25
100
AcDbSpline
210
0.0
220
0.0
230
1.0
 70
     8
 71
     3
 72
     8
 73
     4
 74
     0
 42
0.0000000001
 43
0.0000000001
 40
0.0
 40
0.0
 40
0.0
 40
0.0
 40
1.0
 40
1.0
 40
1.0
 40
1.0
 10
49.33156631791304
 20
-2.076812155972606
 30
0.0
 10
51.06208266643169
 20
-2.108017877677136
 30
0.0
 10
52.79307840682888
 20
-2.10082132916659
 30
0.0
 10
54.52327546550236
 20
-2.055227823983661
 30
0.0
  0
SPLINE
  5
1EC
330
70
100
AcDbEntity
  8
0
 62
    18
420
        0
370
    25
100
AcDbSpline
210
0.0
220
0.0
230
1.0
 70
     8
 71
     3
 72
     8
 73
     4
 74
     0
 42
0.0000000001
 43
0.0000000001
 40
0.0
 40
0.0
 40
0.0
 40
0.0
 40
1.0
 40
1.0
 40
1.0
 40
1.0
 10
49.58236520072357
 20
-15.75534238712359
 30
0.0
 10
48.82287120053995
 20
-15.78987397062618
 30
0.0
 10
48.06681186070921
 20
-15.87858820068937
 30
0.0
 10
47.31995379446272
 20
-16.02080843643785
 30
0.0
  0
LINE
  5
1ED
330
70
100
AcDbEntity
  8
0
 62
    18
420
        0
370
    25
100
AcDbLine
 10
47.38683253414239
 20
-15.99168784215648
 30
0.0
 11
47.31603246074234
 21
-16.02089411805655
 31
0.0
  0
SPLINE
  5
1EE
330
70
100
AcDbEntity
  8
0
 62
    18
420
        0
370
    25
100
AcDbSpline
210
0.0
220
0.0
230
1.0
 70
     8
 71
     3
 72
     8
 73
     4
 74
     0
 42
0.0000000001
 43
0.0000000001
 40
0.0
 40
0.0
 40
0.0
 40
0.0
 40
1.0
 40
1.0
 40
1.0
 40
1.0
 10
55.693544446283
 20
-16.02080843634929
 30
0.0
 10
54.94271796982787
 20
-15.9061033855812
 30
0.0
 10
54.18812724263261
 20
-15.81756112370884
 30
0.0
 10
53.43114212043733
 20
-15.75534238703824
 30
0.0
  0
LINE
  5
1EF
330
70
100
AcDbEntity
  8
0
 62
    18
420
        0
370
    25
100
AcDbLine
 10
55.69757117004254
 20
-16.02091609705655
 30
0.0
 11
55.69747456074257
 21
-16.02089425015671
 31
0.0
  0
SPLINE
  5
1F0
330
70
100
AcDbEntity
  8
0
 62
    18
420
        0
370
    25
100
AcDbSpline
210
0.0
220
0.0
230
1.0
 70
     8
 71
     3
 72
    11
 73
     7
 74
     0
 42
0.0000000001
 43
0.0000000001
 40
0.0
 40
0.0
 40
0.0
 40
0.0
 40
1.0
 40
1.0
 40
1.0
 40
2.0
 40
2.0
 40
2.0
 40
2.0
 10
47.31593616807848
 20
-16.0209160970174
 30
0.0
 10
37.08096501492037
 20
-18.33544069212389
 30
0.0
 10
30.66017444759687
 20
-28.50881707116254
 30
0.0
 10
32.97469904270336
 20
-38.74378822432065
 30
0.0
 10
34.80995443178875
 20
-46.85940125590469
 30
0.0
 10
41.71218677453921
 20
-52.83678314228887
 30
0.0
 10
50.00675366904538
 20
-53.4936676482328
 30
0.0
  0
SPLINE
  5
1F1
330
70
100
AcDbEntity
  8
0
 62
    18
420
        0
370
    25
100
AcDbSpline
210
0.0
220
0.0
230
1.0
 70
     8
 71
     3
 72
    11
 73
     7
 74
     0
 42
0.0000000001
 43
0.0000000001
 40
0.0
 40
0.0
 40
0.0
 40
0.0
 40
1.0
 40
1.0
 40
1.0
 40
2.0
 40
2.0
 40
2.0
 40
2.0
 10
53.00675366903971
 20
-53.4936676482328
 30
0.0
 10
63.46741173181556
 20
-52.66524052348796
 30
0.0
 10
71.27587771866263
 20
-43.51362878613527
 30
0.0
 10
70.44745059391843
 20
-33.05297072335974
 30
0.0
 10
69.79056608797451
 20
-24.75840382885325
 30
0.0
 10
63.81318420159033
 20
-17.85617148610279
 30
0.0
 10
55.69757117000628
 20
-16.0209160970174
 30
0.0
  0
LWPOLYLINE
  5
1F2
330
70
100
AcDbEntity
  8
0
 62
    18
420
        0
370
    25
100
AcDbPolyline
 90
        9
 70
     0
 43
0.0
 10
47.31603292634248
 20
-16.02089411805655
 10
47.31602081924243
 20
-16.0208978433569
 10
47.31600871204259
 20
-16.02089970605649
 10
47.31599660484243
 20
-16.02090156865661
 10
47.31598449764227
 20
-16.02090529395696
 10
47.31597239044243
 20
-16.02090715655644
 10
47.31596028324228
 20
-16.0209108818568
 10
47.31594817604245
 20
-16.02091274455639
 10
47.31593606884229
 20
-16.02091646985674
  0
LWPOLYLINE
  5
1F3
330
70
100
AcDbEntity
  8
0
 62
    18
420
        0
370
    25
100
AcDbPolyline
 90
        3
 70
     0
 43
0.0
 10
54.11865073144229
 20
-2.05471373395638
 10
53.76583384244234
 20
-2.054266699056946
 10
53.57584170884256
 20
-2.052970298056562
  0
LINE
  5
1F4
330
70
100
AcDbEntity
  8
0
 62
    18
420
        0
370
    25
100
AcDbLine
 10
49.43766561224232
 20
-2.052970298056562
 30
0.0
 11
48.88725001254231
 21
-2.054635502856887
 31
0.0
  0
SPLINE
  5
1F5
330
70
100
AcDbEntity
  8
0
 62
    18
420
        0
370
    25
100
AcDbSpline
210
0.0
220
0.0
230
1.0
 70
     8
 71
     3
 72
     8
 73
     4
 74
     0
 42
0.0000000001
 43
0.0000000001
 40
0.0
 40
0.0
 40
0.0
 40
0.0
 40
1.0
 40
1.0
 40
1.0
 40
1.0
 10
50.78347981800777
 20
-2.066947587204244
 30
0.0
 10
51.26513511867396
 20
-2.098836858435292
 30
0.0
 10
51.74837217341093
 20
-2.098836858435292
 30
0.0
 10
52.23002747407711
 20
-2.066947587204244
 30
0.0
  0
LINE
  5
1F6
330
70
100
AcDbEntity
  8
0
 62
    18
420
        0
370
    25
100
AcDbLine
 10
50.78347981794232
 20
-2.066947587256863
 30
0.0
 11
52.23002747404247
 21
-2.066947587256863
 31
0.0
  0
LINE
  5
1F7
330
70
100
AcDbEntity
  8
0
 62
    18
420
        0
370
    25
100
AcDbLine
 10
53.57584170884256
 20
-2.052970298056562
 30
0.0
 11
54.34067756764252
 21
-2.052970298056562
 31
0.0
  0
LINE
  5
1F8
330
70
100
AcDbEntity
  8
0
 62
    18
420
        0
370
    25
100
AcDbLine
 10
48.67282975354246
 20
-2.052970298056562
 30
0.0
 11
49.43766561224232
 21
-2.052970298056562
 31
0.0
  0
LWPOLYLINE
  5
1F9
330
70
100
AcDbEntity
  8
0
 62
    18
420
        0
370
    25
100
AcDbPolyline
 90
        3
 70
     0
 43
0.0
 10
47.31593606884229
 20
-16.02091646985674
 10
47.31973726194234
 20
-16.01939841405649
 10
47.34315816204249
 20
-16.01272083115697
  0
SPLINE
  5
1FA
330
70
100
AcDbEntity
  8
0
 62
    18
420
        0
370
    25
100
AcDbSpline
210
0.0
220
0.0
230
1.0
 70
     8
 71
     3
 72
    11
 73
     7
 74
     0
 42
0.0000000001
 43
0.0000000001
 40
0.0
 40
0.0
 40
0.0
 40
0.0
 40
1.0
 40
1.0
 40
1.0
 40
2.0
 40
2.0
 40
2.0
 40
2.0
 10
47.35142773496498
 20
-15.9810858431224
 30
0.0
 10
37.09445893999867
 20
-18.27600898708936
 30
0.0
 10
30.63994564484076
 20
-28.45132786246718
 30
0.0
 10
32.93486878880805
 20
-38.70829665743414
 30
0.0
 10
34.75828042750409
 20
-46.85788385718372
 30
0.0
 10
41.68165016607363
 20
-52.86661548100948
 30
0.0
 10
50.00675366905468
 20
-53.52483519744389
 30
0.0
  0
SPLINE
  5
1FB
330
70
100
AcDbEntity
  8
0
 62
    18
420
        0
370
    25
100
AcDbSpline
210
0.0
220
0.0
230
1.0
 70
     8
 71
     3
 72
    11
 73
     7
 74
     0
 42
0.0000000001
 43
0.0000000001
 40
0.0
 40
0.0
 40
0.0
 40
0.0
 40
1.0
 40
1.0
 40
1.0
 40
2.0
 40
2.0
 40
2.0
 40
2.0
 10
53.00675366903008
 20
-53.52483519744389
 30
0.0
 10
63.48462509392513
 20
-52.69640807270484
 30
0.0
 10
71.30704526786859
 20
-43.53084214826377
 30
0.0
 10
70.47861814312954
 20
-33.05297072336872
 30
0.0
 10
69.82160659122779
 20
-24.74314797623669
 30
0.0
 10
63.83320759150562
 20
-17.82798959964287
 30
0.0
 10
55.7025671145351
 20
-15.99019099741831
 30
0.0
  0
LINE
  5
1FC
330
70
100
AcDbEntity
  8
0
 62
    18
420
        0
370
    25
100
AcDbLine
 10
50.78347981794232
 20
-2.055309780356554
 30
0.0
 11
50.78347981794232
 21
-2.066947587256863
 31
0.0
  0
LINE
  5
1FD
330
70
100
AcDbEntity
  8
0
 62
    18
420
        0
370
    25
100
AcDbLine
 10
52.23002747404247
 20
-2.054937251357006
 30
0.0
 11
52.23002747404247
 21
-2.066947587256863
 31
0.0
  0
LWPOLYLINE
  5
1FE
330
70
100
AcDbEntity
  8
0
 62
    18
420
        0
370
    25
100
AcDbPolyline
 90
        3
 70
     0
 43
0.0
 10
39.50655460244245
 20
-1.794070072856488
 10
39.5065248001423
 20
-1.794066347556777
 10
39.48550950624245
 20
-1.793176003256546
  0
LWPOLYLINE
  5
1FF
330
70
100
AcDbEntity
  8
0
 62
    18
420
        0
370
    25
100
AcDbPolyline
 90
        9
 70
     0
 43
0.0
 10
39.48550950624245
 20
-1.793176003256546
 10
39.48591835684246
 20
-1.783542402556894
 10
39.48712814494238
 20
-1.755096085756583
 10
39.48909230424252
 20
-1.708921112556638
 10
39.49173446634238
 20
-1.646794446256524
 10
39.4949531171423
 20
-1.571100272656511
 10
39.4986253220425
 20
-1.484751768856785
 10
39.50261045134227
 20
-1.391060717856771
 10
39.50675390554255
 20
-1.293625750056637
  0
LWPOLYLINE
  5
200
330
70
100
AcDbEntity
  8
0
 62
    18
420
        0
370
    25
100
AcDbPolyline
 90
        7
 70
     0
 43
0.0
 10
39.49604742124249
 20
-1.793172277956836
 10
39.49680086114236
 20
-1.757990636356933
 10
39.49867561354239
 20
-1.670479841956901
 10
39.5014611993423
 20
-1.540493287556664
 10
39.50484469424227
 20
-1.382660188156749
 10
39.50642328604234
 20
-1.309033550756863
 10
39.50675390554255
 20
-1.293625750056637
  0
SPLINE
  5
201
330
70
100
AcDbEntity
  8
0
 62
    18
420
        0
370
    25
100
AcDbSpline
210
0.0
220
0.0
230
1.0
 70
     8
 71
     3
 72
     8
 73
     4
 74
     0
 42
0.0000000001
 43
0.0000000001
 40
0.0
 40
0.0
 40
0.0
 40
0.0
 40
1.0
 40
1.0
 40
1.0
 40
1.0
 10
39.49604742115523
 20
-1.793172277893949
 30
0.0
 10
39.49951685018056
 20
-1.793778009605317
 30
0.0
 10
39.50303270254013
 20
-1.794078424573978
 30
0.0
 10
39.50655460244181
 20
-1.794070072855846
 30
0.0
  0
LWPOLYLINE
  5
202
330
70
100
AcDbEntity
  8
0
 62
    18
420
        0
370
    25
100
AcDbPolyline
 90
        6
 70
     0
 43
0.0
 10
51.50675366054228
 20
-1.795843311056454
 10
50.50675361304239
 20
-1.795817234056658
 10
46.5067536559424
 20
-1.795288242856843
 10
43.00665855294256
 20
-1.794364370856649
 10
39.50656298434257
 20
-1.793176003256546
 10
39.49604742124249
 20
-1.793172277956836
  0
LWPOLYLINE
  5
203
330
70
100
AcDbEntity
  8
0
 62
    18
420
        0
370
    25
100
AcDbPolyline
 90
        4
 70
     0
 43
0.0
 10
39.50675390554255
 20
-1.293625750056637
 10
45.2013122838425
 20
-1.295525648156722
 10
48.35403291394232
 20
-1.296188749756615
 10
51.50675366054228
 20
-1.296430893656437
  0
LINE
  5
204
330
70
100
AcDbEntity
  8
0
 62
    18
420
        0
370
    25
100
AcDbLine
 10
51.50675366054228
 20
-1.795843311056454
 30
0.0
 11
51.50675366054228
 21
-1.296430893656437
 31
0.0
  0
LINE
  5
205
330
70
100
AcDbEntity
  8
0
 62
    18
420
        0
370
    25
100
AcDbLine
 10
63.50675411414242
 20
0.9470283310433838
 30
0.0
 11
64.00675326474242
 21
0.9470283310433838
 31
0.0
  0
LINE
  5
206
330
70
100
AcDbEntity
  8
0
 62
    18
420
        0
370
    25
100
AcDbLine
 10
64.00675326474242
 20
0.9470283310433838
 30
0.0
 11
64.00675326474242
 21
-1.293625750056637
 31
0.0
  0
LINE
  5
207
330
70
100
AcDbEntity
  8
0
 62
    18
420
        0
370
    25
100
AcDbLine
 10
63.50675411414242
 20
-1.293625750056637
 30
0.0
 11
64.00675326474242
 21
-1.293625750056637
 31
0.0
  0
LINE
  5
208
330
70
100
AcDbEntity
  8
0
 62
    18
420
        0
370
    25
100
AcDbLine
 10
63.50675411414242
 20
-1.293625750056637
 30
0.0
 11
63.50675411414242
 21
0.9470283310433838
 31
0.0
  0
LINE
  5
209
330
70
100
AcDbEntity
  8
0
 62
    18
420
        0
370
    25
100
AcDbLine
 10
63.50675411414242
 20
0.9470283310433838
 30
0.0
 11
39.50675390554255
 21
0.9470283310433838
 31
0.0
  0
LWPOLYLINE
  5
20A
330
70
100
AcDbEntity
  8
0
 62
    18
420
        0
370
    25
100
AcDbPolyline
 90
        4
 70
     0
 43
0.0
 10
51.50675366054228
 20
-1.296430893656437
 10
57.20133194594233
 20
-1.295682110356989
 10
60.35404279714237
 20
-1.294758238356795
 10
63.50675411414242
 20
-1.293625750056637
  0
LINE
  5
20B
330
70
100
AcDbEntity
  8
0
 62
    18
420
        0
370
    25
100
AcDbLine
 10
39.50675390554255
 20
0.9470283310433838
 30
0.0
 11
39.50675390554255
 21
-1.293625750056637
 31
0.0
  0
LWPOLYLINE
  5
20C
330
70
100
AcDbEntity
  8
0
 62
    18
420
        0
370
    25
100
AcDbPolyline
 90
        5
 70
     0
 43
0.0
 10
63.50694410394255
 20
-1.793176003256546
 10
62.50694394004232
 20
-1.793533631056609
 10
58.50694468134253
 20
-1.794800229756845
 10
55.00684911274255
 20
-1.79556391425642
 10
51.50675366054228
 20
-1.795843311056454
  0
LWPOLYLINE
  5
20D
330
70
100
AcDbEntity
  8
0
 62
    18
420
        0
370
    25
100
AcDbPolyline
 90
        9
 70
     0
 43
0.0
 10
63.50694410394255
 20
-1.793176003256546
 10
63.5069385160424
 20
-1.780051805456906
 10
63.50692734014231
 20
-1.749232478856848
 10
63.50690871364246
 20
-1.701835610356837
 10
63.50688543064232
 20
-1.639586009456957
 10
63.50685655964255
 20
-1.564748652656778
 10
63.5068248946425
 20
-1.480050452456609
 10
63.5067895043424
 20
-1.388564773356511
 10
63.50675411414242
 20
-1.293625750056637
  0
SPLINE
  5
20E
330
70
100
AcDbEntity
  8
0
 62
    18
420
        0
370
    25
100
AcDbSpline
210
0.0
220
0.0
230
1.0
 70
     8
 71
     3
 72
     8
 73
     4
 74
     0
 42
0.0000000001
 43
0.0000000001
 40
0.0
 40
0.0
 40
0.0
 40
0.0
 40
1.0
 40
1.0
 40
1.0
 40
1.0
 10
63.50694410395828
 20
-1.793176003189168
 30
0.0
 10
63.78288823880619
 20
-1.793195931084817
 30
0.0
 10
64.00663021298928
 20
-1.569569858167838
 30
0.0
 10
64.00675326478702
 20
-1.293625750036744
 30
0.0
  0
LINE
  5
20F
330
70
100
AcDbEntity
  8
0
 62
    18
420
        0
370
    25
100
AcDbLine
 10
39.00675382354238
 20
-1.293625750056637
 30
0.0
 11
39.50675390554255
 21
-1.293625750056637
 31
0.0
  0
LINE
  5
210
330
70
100
AcDbEntity
  8
0
 62
    18
420
        0
370
    25
100
AcDbLine
 10
39.00675382354238
 20
-1.293625750056637
 30
0.0
 11
39.00675382354238
 21
0.9470283310433838
 31
0.0
  0
LINE
  5
211
330
70
100
AcDbEntity
  8
0
 62
    18
420
        0
370
    25
100
AcDbLine
 10
39.00675382354238
 20
0.9470283310433838
 30
0.0
 11
39.50675390554255
 21
0.9470283310433838
 31
0.0
  0
SPLINE
  5
212
330
70
100
AcDbEntity
  8
0
 62
    18
420
        0
370
    25
100
AcDbSpline
210
0.0
220
0.0
230
1.0
 70
     8
 71
     3
 72
     8
 73
     4
 74
     0
 42
0.0000000001
 43
0.0000000001
 40
0.0
 40
0.0
 40
0.0
 40
0.0
 40
1.0
 40
1.0
 40
1.0
 40
1.0
 10
39.00675382354976
 20
-1.293625750089363
 30
0.0
 10
39.00675456103489
 20
-1.561505269335914
 30
0.0
 10
39.21787196736642
 20
-1.781792479675926
 30
0.0
 10
39.48550950625688
 20
-1.793176003242429
 30
0.0
  0
SPLINE
  5
213
330
70
100
AcDbEntity
  8
0
 62
    18
420
        0
370
    25
100
AcDbSpline
210
0.0
220
0.0
230
1.0
 70
     8
 71
     3
 72
     8
 73
     4
 74
     0
 42
0.0000000001
 43
0.0000000001
 40
0.0
 40
0.0
 40
0.0
 40
0.0
 40
1.0
 40
1.0
 40
1.0
 40
1.0
 10
53.78034838846608
 20
-2.055630155362286
 30
0.0
 10
57.02392395658193
 20
-2.030645029387019
 30
0.0
 10
60.26672183648511
 20
-1.943442294258341
 30
0.0
 10
63.50695248600502
 20
-1.794070072918733
 30
0.0
  0
LINE
  5
214
330
70
100
AcDbEntity
  8
0
 62
    18
420
        0
370
    25
100
AcDbLine
 10
63.52799385674233
 20
-1.793172277956836
 30
0.0
 11
63.50695248584235
 21
-1.794070072856488
 31
0.0
  0
LWPOLYLINE
  5
215
330
70
100
AcDbEntity
  8
0
 62
    18
420
        0
370
    25
100
AcDbPolyline
 90
        3
 70
     0
 43
0.0
 10
53.9665360691424
 20
-2.055641331156822
 10
53.99329075484239
 20
-2.055656232356948
 10
54.65146805984239
 20
-2.05522782395671
  0
LWPOLYLINE
  5
216
330
70
100
AcDbEntity
  8
0
 62
    18
420
        0
370
    25
100
AcDbPolyline
 90
        4
 70
     0
 43
0.0
 10
54.65146805984239
 20
-2.05522782395671
 10
54.0344042226425
 20
-2.055607803556962
 10
53.8563581638423
 20
-2.055630155356511
 10
53.83802961914252
 20
-2.055630155356511
  0
LWPOLYLINE
  5
217
330
70
100
AcDbEntity
  8
0
 62
    18
420
        0
370
    25
100
AcDbPolyline
 90
        3
 70
     0
 43
0.0
 10
48.35923807584258
 20
-2.05522782395671
 10
49.04334130584246
 20
-2.055645056456532
 10
49.04500744194253
 20
-2.055641331156822
  0
SPLINE
  5
218
330
70
100
AcDbEntity
  8
0
 62
    18
420
        0
370
    25
100
AcDbSpline
210
0.0
220
0.0
230
1.0
 70
     8
 71
     3
 72
     8
 73
     4
 74
     0
 42
0.0000000001
 43
0.0000000001
 40
0.0
 40
0.0
 40
0.0
 40
0.0
 40
1.0
 40
1.0
 40
1.0
 40
1.0
 10
39.5065546025172
 20
-1.794070072859055
 30
0.0
 10
42.74686122941003
 20
-1.941354225611483
 30
0.0
 10
45.98961983394733
 20
-2.028555901443279
 30
0.0
 10
49.2331590494831
 20
-2.05563015529555
 30
0.0
  0
LWPOLYLINE
  5
219
330
70
100
AcDbEntity
  8
0
 62
    18
420
        0
370
    25
100
AcDbPolyline
 90
        4
 70
     0
 43
0.0
 10
49.23315904924246
 20
-2.055630155356511
 10
49.15716173014234
 20
-2.055630155356511
 10
48.98349242174239
 20
-2.055611528856673
 10
48.35923807584258
 20
-2.05522782395671
  0
LINE
  5
21A
330
70
100
AcDbEntity
  8
0
 62
    18
420
        0
370
    25
100
AcDbLine
 10
51.50675366054228
 20
-1.797009326956471
 30
0.0
 11
51.50675366054228
 21
-1.795843311056454
 31
0.0
  0
LWPOLYLINE
  5
21B
330
70
100
AcDbEntity
  8
0
 62
    18
420
        0
370
    25
100
AcDbPolyline
 90
        4
 70
     0
 43
0.0
 10
51.50675366054228
 20
-1.797009326956471
 10
48.38175373044236
 20
-1.796759732456585
 10
45.25675391664238
 20
-1.796074279056503
 10
39.50655460244245
 20
-1.794070072856488
  0
LWPOLYLINE
  5
21C
330
70
100
AcDbEntity
  8
0
 62
    18
420
        0
370
    25
100
AcDbPolyline
 90
        3
 70
     0
 43
0.0
 10
63.50695248584235
 20
-1.794070072856488
 10
63.50695248584235
 20
-1.794066347556777
 10
63.50694410394255
 20
-1.793176003256546
  0
LWPOLYLINE
  5
21D
330
70
100
AcDbEntity
  8
0
 62
    18
420
        0
370
    25
100
AcDbPolyline
 90
        4
 70
     0
 43
0.0
 10
63.50695248584235
 20
-1.794070072856488
 10
60.38195267214248
 20
-1.795243539356568
 10
57.25695285834249
 20
-1.796208389556685
 10
51.50675366054228
 20
-1.797009326956471
  0
SPLINE
  5
21E
330
70
100
AcDbEntity
  8
0
 62
    18
420
        0
370
    25
100
AcDbSpline
210
0.0
220
0.0
230
1.0
 70
     8
 71
     3
 72
     8
 73
     4
 74
     0
 42
0.0000000001
 43
0.0000000001
 40
0.0
 40
0.0
 40
0.0
 40
0.0
 40
1.0
 40
1.0
 40
1.0
 40
1.0
 10
63.5279938567218
 20
-1.79317227793566
 30
0.0
 10
63.79563214276684
 20
-1.781792350428114
 30
0.0
 10
64.00675207339382
 20
-1.56150586300763
 30
0.0
 10
64.00675326471868
 20
-1.293625750073321
 30
0.0
  0
LWPOLYLINE
  5
21F
330
70
100
AcDbEntity
  8
0
 62
    18
420
        0
370
    25
100
AcDbPolyline
 90
        5
 70
     0
 43
0.0
 10
52.25054661314235
 20
-2.055317230956618
 10
52.86348680854236
 20
-2.055466242556822
 10
53.53388422994243
 20
-2.055618979456736
 10
53.66493237564228
 20
-2.055630155356511
 10
53.68739319854245
 20
-2.055630155356511
  0
SPLINE
  5
220
330
70
100
AcDbEntity
  8
0
 62
    18
420
        0
370
    25
100
AcDbSpline
210
0.0
220
0.0
230
1.0
 70
     8
 71
     3
 72
     8
 73
     4
 74
     0
 42
0.0000000001
 43
0.0000000001
 40
0.0
 40
0.0
 40
0.0
 40
0.0
 40
1.0
 40
1.0
 40
1.0
 40
1.0
 10
52.25054661311347
 20
-2.055317230893731
 30
0.0
 10
51.75472168219773
 20
-2.046745399404765
 30
0.0
 10
51.25878561708702
 20
-2.046745399404765
 30
0.0
 10
50.76296068617129
 20
-2.055317230893731
 30
0.0
  0
LWPOLYLINE
  5
221
330
70
100
AcDbEntity
  8
0
 62
    18
420
        0
370
    25
100
AcDbPolyline
 90
        5
 70
     0
 43
0.0
 10
49.32611412264254
 20
-2.055630155356511
 10
49.34857506194241
 20
-2.055630155356511
 10
49.47962309124256
 20
-2.055618979456736
 10
50.15002051254252
 20
-2.055466242556822
 10
50.76296068614241
 20
-2.055317230956618
  0
LINE
  5
222
330
70
100
AcDbEntity
  8
0
 62
    18
420
        0
370
    25
100
AcDbLine
 10
53.00675367364229
 20
-59.80297091645674
 30
0.0
 11
50.0067537639424
 21
-59.80297091645674
 31
0.0
  0
CIRCLE
  5
223
330
70
100
AcDbEntity
  8
0
 62
    18
420
        0
370
    25
100
AcDbCircle
 10
51.50675366904247
 20
-34.55297072335675
 30
0.0
 40
5.000000000000055
  0
SPLINE
  5
224
330
70
100
AcDbEntity
  8
0
 62
    18
420
        0
370
    25
100
AcDbSpline
210
0.0
220
0.0
230
1.0
 70
     8
 71
     3
 72
    17
 73
    13
 74
     0
 42
0.0000000001
 43
0.0000000001
 40
0.0
 40
0.0
 40
0.0
 40
0.0
 40
1.0
 40
1.0
 40
1.0
 40
2.0
 40
2.0
 40
2.0
 40
3.0
 40
3.0
 40
3.0
 40
4.0
 40
4.0
 40
4.0
 40
4.0
 10
53.0067536690442
 20
-42.15642388622884
 30
0.0
 10
57.20602489695138
 20
-41.32799676148208
 30
0.0
 10
59.9386339566622
 20
-37.2522419512621
 30
0.0
 10
59.1102068319148
 20
-33.05297072335461
 30
0.0
 10
58.2817797071674
 20
-28.85369949544775
 30
0.0
 10
54.20602489694774
 20
-26.12109043573692
 30
0.0
 10
50.00675366904056
 20
-26.94951756048432
 30
0.0
 10
45.8074824411334
 20
-27.77794468523172
 30
0.0
 10
43.07487338142289
 20
-31.85369949545171
 30
0.0
 10
43.90330050616996
 20
-36.05297072335857
 30
0.0
 10
44.40643873627392
 20
-38.60336270138642
 30
0.0
 10
46.15471898838314
 20
-40.73163336969059
 30
0.0
 10
48.55886736052997
 20
-41.72042956956484
 30
0.0
  0
LWPOLYLINE
  5
225
330
70
100
AcDbEntity
  8
0
 62
    18
420
        0
370
    25
100
AcDbPolyline
 90
        3
 70
     0
 43
0.0
 10
50.0067537639424
 20
-42.15642397515678
 10
49.4272764761425
 20
-42.01877775825651
 10
48.55886730254251
 20
-41.72042950285638
  0
SPLINE
  5
226
330
70
100
AcDbEntity
  8
0
 62
    18
420
        0
370
    25
100
AcDbSpline
210
0.0
220
0.0
230
1.0
 70
     8
 71
     3
 72
    11
 73
     7
 74
     0
 42
0.0000000001
 43
0.0000000001
 40
0.0
 40
0.0
 40
0.0
 40
0.0
 40
1.0
 40
1.0
 40
1.0
 40
2.0
 40
2.0
 40
2.0
 40
2.0
 10
53.00675366904709
 20
-51.48666494523259
 30
0.0
 10
62.35897474608679
 20
-50.65823782048391
 30
0.0
 10
69.26887501566691
 20
-42.40519180039205
 30
0.0
 10
68.44044789091824
 20
-33.05297072335204
 30
0.0
 10
67.71573753015278
 20
-24.87162162428859
 30
0.0
 10
61.24542210090301
 20
-18.37836051593516
 30
0.0
 10
53.06668974829808
 20
-17.62469262342461
 30
0.0
  0
SPLINE
  5
227
330
70
100
AcDbEntity
  8
0
 62
    18
420
        0
370
    25
100
AcDbSpline
210
0.0
220
0.0
230
1.0
 70
     8
 71
     3
 72
    14
 73
    10
 74
     0
 42
0.0000000001
 43
0.0000000001
 40
0.0
 40
0.0
 40
0.0
 40
0.0
 40
1.0
 40
1.0
 40
1.0
 40
2.0
 40
2.0
 40
2.0
 40
3.0
 40
3.0
 40
3.0
 40
3.0
 10
53.06668974829808
 20
-17.62469262342461
 30
0.0
 10
43.71745991281105
 20
-16.7631637161411
 30
0.0
 10
35.4400044763941
 20
-23.64380480861372
 30
0.0
 10
34.57847556911057
 20
-32.99303464410073
 30
0.0
 10
33.71694666182674
 20
-42.34226447958774
 30
0.0
 10
40.59758775429968
 20
-50.61971991600503
 30
0.0
 10
49.9468175897867
 20
-51.48124882328855
 30
0.0
 10
49.96679307169243
 20
-51.48308955834401
 30
0.0
 10
49.98677179607196
 20
-51.48489493515354
 30
0.0
 10
50.00675366903799
 20
-51.48666494523259
 30
0.0
  0
SPLINE
  5
228
330
70
100
AcDbEntity
  8
0
 62
     8
420
  8421504
370
    25
100
AcDbSpline
210
0.0
220
0.0
230
1.0
 70
     8
 71
     3
 72
    11
 73
     7
 74
     0
 42
0.0000000001
 43
0.0000000001
 40
0.0
 40
0.0
 40
0.0
 40
0.0
 40
1.0
 40
1.0
 40
1.0
 40
2.0
 40
2.0
 40
2.0
 40
2.0
 10
53.00675366903874
 20
-53.38921565467338
 30
0.0
 10
63.40972448868254
 20
-52.5607885299292
 30
0.0
 10
71.17142572510322
 20
-43.45594154300417
 30
0.0
 10
70.34299860035902
 20
-33.05297072336038
 30
0.0
 10
69.61899194530788
 20
-23.96125959904334
 30
0.0
 10
62.50421441603034
 20
-16.68418853106467
 30
0.0
 10
53.4311421356995
 20
-15.75534182655327
 30
0.0
  0
SPLINE
  5
229
330
70
100
AcDbEntity
  8
0
 62
     8
420
  8421504
370
    25
100
AcDbSpline
210
0.0
220
0.0
230
1.0
 70
     8
 71
     3
 72
    11
 73
     7
 74
     0
 42
0.0000000001
 43
0.0000000001
 40
0.0
 40
0.0
 40
0.0
 40
0.0
 40
1.0
 40
1.0
 40
1.0
 40
2.0
 40
2.0
 40
2.0
 40
2.0
 10
49.58236520238526
 20
-15.75534182655327
 30
0.0
 10
39.20072142970208
 20
-16.81815222943842
 30
0.0
 10
31.6463143693541
 20
-26.09571541733068
 30
0.0
 10
32.70912477223923
 20
-36.47735919001418
 30
0.0
 10
33.63797147675
 20
-45.55043147034437
 30
0.0
 10
40.9150425447293
 20
-52.66520899962223
 30
0.0
 10
50.00675366904602
 20
-53.38921565467338
 30
0.0
  0
SPLINE
  5
22A
330
70
100
AcDbEntity
  8
0
 62
     8
420
  8421504
370
    25
100
AcDbSpline
210
0.0
220
0.0
230
1.0
 70
     8
 71
     3
 72
     8
 73
     4
 74
     0
 42
0.0000000001
 43
0.0000000001
 40
0.0
 40
0.0
 40
0.0
 40
0.0
 40
1.0
 40
1.0
 40
1.0
 40
1.0
 10
55.49978115487942
 20
-15.77698073581171
 30
0.0
 10
54.78840212017702
 20
-15.63216881726259
 30
0.0
 10
54.06700062679109
 20
-15.54190820487782
 30
0.0
 10
53.34187229055576
 20
-15.5069865961395
 30
0.0
  0
SPLINE
  5
22B
330
70
100
AcDbEntity
  8
0
 62
     8
420
  8421504
370
    25
100
AcDbSpline
210
0.0
220
0.0
230
1.0
 70
     8
 71
     3
 72
     8
 73
     4
 74
     0
 42
0.0000000001
 43
0.0000000001
 40
0.0
 40
0.0
 40
0.0
 40
0.0
 40
1.0
 40
1.0
 40
1.0
 40
1.0
 10
49.67163503063563
 20
-15.50698659608175
 30
0.0
 10
48.94926500802473
 20
-15.57049634375353
 30
0.0
 10
48.22947545839991
 20
-15.6605552722876
 30
0.0
 10
47.5137261663476
 20
-15.77698073574947
 30
0.0
  0
LINE
  5
22C
330
70
100
AcDbEntity
  8
0
 62
     8
420
  8421504
370
    25
100
AcDbLine
 10
47.3199537944425
 20
-16.02080843635699
 30
0.0
 11
47.31603292634248
 21
-16.02089411805655
 31
0.0
  0
LINE
  5
22D
330
70
100
AcDbEntity
  8
0
 62
     8
420
  8421504
370
    25
100
AcDbLine
 10
55.69747462764257
 20
-16.02089411805655
 30
0.0
 11
55.69354444634235
 21
-16.02080843635699
 31
0.0
  0
LWPOLYLINE
  5
22E
330
70
100
AcDbEntity
  8
0
 62
     8
420
  8421504
370
    25
100
AcDbPolyline
 90
        5
 70
     0
 43
0.0
 10
63.53084649784237
 20
-1.795698024756602
 10
63.53099085284249
 20
-1.795820959356369
 10
63.53058852144236
 20
-1.795474507356617
 10
63.52799851334243
 20
-1.793176003256546
 10
63.52799385674233
 20
-1.793172277956836
  0
LINE
  5
22F
330
70
100
AcDbEntity
  8
0
 62
     8
420
  8421504
370
    25
100
AcDbLine
 10
53.83802961914252
 20
-2.055630155356511
 30
0.0
 11
53.78034838834255
 21
-2.055630155356511
 31
0.0
  0
LINE
  5
230
330
70
100
AcDbEntity
  8
0
 62
     8
420
  8421504
370
    25
100
AcDbLine
 10
39.48266059047131
 20
-1.795698024727084
 30
0.0
 11
39.48456771290356
 21
-1.794025497731314
 31
0.0
  0
SPLINE
  5
231
330
70
100
AcDbEntity
  8
0
 62
     8
420
  8421504
370
    25
100
AcDbSpline
210
0.0
220
0.0
230
1.0
 70
     8
 71
     3
 72
    11
 73
     7
 74
     0
 42
0.0000000001
 43
0.0000000001
 40
0.0
 40
0.0
 40
0.0
 40
0.0
 40
1.0
 40
1.0
 40
1.0
 40
2.0
 40
2.0
 40
2.0
 40
2.0
 10
53.00675366905254
 20
-52.9082254626479
 30
0.0
 10
63.1440809408223
 20
-52.079798337896
 30
0.0
 10
70.69043553308478
 20
-43.19029799511666
 30
0.0
 10
69.8620084083329
 20
-33.05297072334691
 30
0.0
 10
69.85352597875581
 20
-32.94917261954549
 30
0.0
 10
69.84416324165659
 20
-32.8454483344998
 30
0.0
 10
69.8339212074956
 20
-32.74180906250069
 30
0.0
  0
SPLINE
  5
232
330
70
100
AcDbEntity
  8
0
 62
     8
420
  8421504
370
    25
100
AcDbSpline
210
0.0
220
0.0
230
1.0
 70
     8
 71
     3
 72
    14
 73
    10
 74
     0
 42
0.0000000001
 43
0.0000000001
 40
0.0
 40
0.0
 40
0.0
 40
0.0
 40
1.0
 40
1.0
 40
1.0
 40
2.0
 40
2.0
 40
2.0
 40
3.0
 40
3.0
 40
3.0
 40
3.0
 10
69.8339212074956
 20
-32.74180906250069
 30
0.0
 10
68.83364424272655
 20
-22.61999392341897
 30
0.0
 10
59.81740714726804
 20
-15.22552622013414
 30
0.0
 10
49.69559200818633
 20
-16.22580318490319
 30
0.0
 10
39.57377686910462
 20
-17.22608014967225
 30
0.0
 10
32.17930916582011
 20
-26.24231724513077
 30
0.0
 10
33.17958613058916
 20
-36.36413238421248
 30
0.0
 10
34.05476582152072
 20
-45.22008664197495
 30
0.0
 10
41.13722726678435
 20
-52.18340361776291
 30
0.0
 10
50.00675366903255
 20
-52.9082254626479
 30
0.0
  0
LWPOLYLINE
  5
233
330
70
100
AcDbEntity
  8
0
 62
     8
420
  8421504
370
    25
100
AcDbPolyline
 90
        3
 70
     0
 43
0.0
 10
48.67211985294231
 20
-41.44506838405672
 10
49.52353821024231
 20
-41.7364945844566
 10
50.0067537639424
 20
-41.85270757645687
  0
SPLINE
  5
234
330
70
100
AcDbEntity
  8
0
 62
     8
420
  8421504
370
    25
100
AcDbSpline
210
0.0
220
0.0
230
1.0
 70
     8
 71
     3
 72
    17
 73
    13
 74
     0
 42
0.0000000001
 43
0.0000000001
 40
0.0
 40
0.0
 40
0.0
 40
0.0
 40
1.0
 40
1.0
 40
1.0
 40
2.0
 40
2.0
 40
2.0
 40
3.0
 40
3.0
 40
3.0
 40
4.0
 40
4.0
 40
4.0
 40
4.0
 10
53.00675366903939
 20
-41.8527076827864
 30
0.0
 10
57.03828706950826
 20
-41.02428055804157
 30
0.0
 10
59.63491775321623
 20
-37.08450412382893
 30
0.0
 10
58.80649062847172
 20
-33.05297072335974
 30
0.0
 10
57.97806350372721
 20
-29.02143732289055
 30
0.0
 10
54.03828706951457
 20
-26.42480663918258
 30
0.0
 10
50.00675366904538
 20
-27.2532337639274
 30
0.0
 10
45.9752202685765
 20
-28.08166088867159
 30
0.0
 10
43.37858958486854
 20
-32.02143732288423
 30
0.0
 10
44.20701670961304
 20
-36.05297072335343
 30
0.0
 10
44.70596334023093
 20
-38.48109016356123
 30
0.0
 10
46.37959397790825
 20
-40.50218116967438
 30
0.0
 10
48.67211994280103
 20
-41.44506846750583
 30
0.0
  0
SPLINE
  5
235
330
70
100
AcDbEntity
  8
0
 62
     8
420
  8421504
370
    25
100
AcDbSpline
210
0.0
220
0.0
230
1.0
 70
     8
 71
     3
 72
    11
 73
     7
 74
     0
 42
0.0000000001
 43
0.0000000001
 40
0.0
 40
0.0
 40
0.0
 40
0.0
 40
1.0
 40
1.0
 40
1.0
 40
2.0
 40
2.0
 40
2.0
 40
2.0
 10
53.00675366904452
 20
-42.09510332874065
 30
0.0
 10
57.17215848819956
 20
-41.26667620399325
 30
0.0
 10
59.87731339917369
 20
-37.21837554250932
 30
0.0
 10
59.04888627442629
 20
-33.05297072335461
 30
0.0
 10
58.54656850249373
 20
-30.52727255938737
 30
0.0
 10
56.81335839039038
 20
-28.42066406696465
 30
0.0
 10
54.43175986415541
 20
-27.4411423370872
 30
0.0
  0
SPLINE
  5
236
330
70
100
AcDbEntity
  8
0
 62
     8
420
  8421504
370
    25
100
AcDbSpline
210
0.0
220
0.0
230
1.0
 70
     8
 71
     3
 72
    14
 73
    10
 74
     0
 42
0.0000000001
 43
0.0000000001
 40
0.0
 40
0.0
 40
0.0
 40
0.0
 40
1.0
 40
1.0
 40
1.0
 40
2.0
 40
2.0
 40
2.0
 40
3.0
 40
3.0
 40
3.0
 40
3.0
 10
54.43175986415541
 20
-27.4411423370872
 30
0.0
 10
50.5040055030051
 20
-25.82570602236561
 30
0.0
 10
46.01036159749443
 20
-27.70021016709341
 30
0.0
 10
44.39492528277284
 20
-31.62796452824372
 30
0.0
 10
42.77948896805125
 20
-35.55571888939403
 30
0.0
 10
44.65399311277905
 20
-40.04936279490501
 30
0.0
 10
48.58174747392935
 20
-41.66479910962659
 30
0.0
 10
49.04171655797196
 20
-41.85397864930483
 30
0.0
 10
49.51895395878228
 20
-41.99808838566408
 30
0.0
 10
50.00675366904024
 20
-42.09510332874065
 30
0.0
  0
SPLINE
  5
237
330
70
100
AcDbEntity
  8
0
 62
     8
420
  8421504
370
    25
100
AcDbSpline
210
0.0
220
0.0
230
1.0
 70
     8
 71
     3
 72
    17
 73
    13
 74
     0
 42
0.0000000001
 43
0.0000000001
 40
0.0
 40
0.0
 40
0.0
 40
0.0
 40
1.0
 40
1.0
 40
1.0
 40
2.0
 40
2.0
 40
2.0
 40
3.0
 40
3.0
 40
3.0
 40
4.0
 40
4.0
 40
4.0
 40
4.0
 10
53.00675366903682
 20
-51.25281027863534
 30
0.0
 10
62.22982038003843
 20
-50.42438315389244
 30
0.0
 10
69.03502034906452
 20
-42.27603743436391
 30
0.0
 10
68.20659322432098
 20
-33.05297072336231
 30
0.0
 10
67.37816609957744
 20
-23.8299040123607
 30
0.0
 10
59.22982038004923
 20
-17.02470404333492
 30
0.0
 10
50.00675366904794
 20
-17.85313116807782
 30
0.0
 10
40.78368695804665
 20
-18.68155829282137
 30
0.0
 10
33.97848698902088
 20
-26.82990401234989
 30
0.0
 10
34.80691411376378
 20
-36.05297072335086
 30
0.0
 10
35.53092843934869
 20
-44.11358610537241
 30
0.0
 10
41.90926958791252
 20
-50.50667429227793
 30
0.0
 10
49.96819145380176
 20
-51.249301682039
 30
0.0
  0
SPLINE
  5
239
330
70
100
AcDbEntity
  8
CAPA_BASE
 62
    18
420
        0
370
    25
100
AcDbSpline
210
0.0
220
0.0
230
1.0
 70
     8
 71
     3
 72
    11
 73
     7
 74
     0
 42
0.0000000001
 43
0.0000000001
 40
0.0
 40
0.0
 40
0.0
 40
0.0
 40
1.0
 40
1.0
 40
1.0
 40
2.0
 40
2.0
 40
2.0
 40
2.0
 10
160.1303855099849
 20
8.499575018489505
 30
0.0
 10
159.19366120242
 20
8.571672986444145
 30
0.0
 10
158.3758491632512
 20
7.870754849450378
 30
0.0
 10
158.3037511952966
 20
6.934030541885531
 30
0.0
 10
158.277806452576
 20
6.596946545640008
 30
0.0
 10
158.3528917188168
 20
6.259776714773557
 30
0.0
 10
158.5194234616326
 20
5.965555830344374
 30
0.0
  0
INSERT
  5
23B
330
70
100
AcDbEntity
  8
CAPA_BASE
100
AcDbBlockReference
  2
Block_0
 10
0.0
 20
0.0
 30
0.0
  0
LINE
  5
247
330
70
100
AcDbEntity
  8
CAPA_BASE
 62
    18
420
        0
370
    25
100
AcDbLine
 10
166.4435840262421
 20
112.1999319270432
 30
0.0
 11
166.4435840262421
 21
106.7355380288432
 31
0.0
  0
INSERT
  5
249
330
70
100
AcDbEntity
  8
CAPA_BASE
100
AcDbBlockReference
  2
Block_1
 10
0.0
 20
0.0
 30
0.0
  0
INSERT
  5
255
330
70
100
AcDbEntity
  8
CAPA_BASE
100
AcDbBlockReference
  2
Block_2
 10
0.0
 20
0.0
 30
0.0
  0
ENDSEC
  0
SECTION
  2
OBJECTS
  0
DICTIONARY
  5
C
330
0
100
AcDbDictionary
281
     1
  3
ACAD_COLOR
350
63
  3
ACAD_DETAILVIEWSTYLE
350
6A
  3
ACAD_GROUP
350
D
  3
ACAD_LAYOUT
350
62
  3
ACAD_MATERIAL
350
10
  3
ACAD_MLEADERSTYLE
350
66
  3
ACAD_MLINESTYLE
350
5F
  3
ACAD_PLOTSETTINGS
350
61
  3
ACAD_PLOTSTYLENAME
350
E
  3
ACAD_SCALELIST
350
42
  3
ACAD_SECTIONVIEWSTYLE
350
68
  3
ACAD_TABLESTYLE
350
64
  3
ACAD_VISUALSTYLE
350
29
  3
ACDB_RECOMPOSE_DATA
350
268
  3
AcDbVariableDictionary
350
260
  0
DICTIONARY
  5
63
102
{ACAD_REACTORS
330
C
102
}
330
C
100
AcDbDictionary
281
     1
  0
DICTIONARY
  5
6A
102
{ACAD_REACTORS
330
C
102
}
330
C
100
AcDbDictionary
281
     1
  3
Imperial24
350
6B
  0
DICTIONARY
  5
D
102
{ACAD_REACTORS
330
C
102
}
330
C
100
AcDbDictionary
281
     1
  0
DICTIONARY
  5
62
102
{ACAD_REACTORS
330
C
102
}
330
C
100
AcDbDictionary
281
     1
  3
Layout1
350
6F
  3
Layout2
350
77
  3
Model
350
73
  0
DICTIONARY
  5
10
102
{ACAD_REACTORS
330
C
102
}
330
C
100
AcDbDictionary
281
     1
  3
ByBlock
350
19
  3
ByLayer
350
11
  3
Global
350
21
  0
DICTIONARY
  5
66
102
{ACAD_REACTORS
330
C
102
}
330
C
100
AcDbDictionary
281
     1
  3
Standard
350
67
  0
DICTIONARY
  5
5F
102
{ACAD_REACTORS
330
C
102
}
330
C
100
AcDbDictionary
281
     1
  3
Standard
350
60
  0
DICTIONARY
  5
61
102
{ACAD_REACTORS
330
C
102
}
330
C
100
AcDbDictionary
281
     1
  0
ACDBDICTIONARYWDFLT
  5
E
102
{ACAD_REACTORS
330
C
102
}
330
C
100
AcDbDictionary
281
     1
  3
Normal
350
F
100
AcDbDictionaryWithDefault
340
F
  0
DICTIONARY
  5
42
102
{ACAD_REACTORS
330
C
102
}
330
C
100
AcDbDictionary
281
     1
  3
A0
350
43
  3
A1
350
44
  3
A2
350
45
  3
A3
350
46
  3
A4
350
47
  3
A5
350
48
  3
A6
350
49
  3
A7
350
4A
  3
A8
350
4B
  3
A9
350
4C
  3
B0
350
4D
  3
B1
350
4E
  3
B2
350
4F
  3
B3
350
50
  3
B4
350
51
  3
B5
350
52
  3
B6
350
53
  0
DICTIONARY
  5
68
102
{ACAD_REACTORS
330
C
102
}
330
C
100
AcDbDictionary
281
     1
  3
Imperial24
350
69
  0
DICTIONARY
  5
64
102
{ACAD_REACTORS
330
C
102
}
330
C
100
AcDbDictionary
281
     1
  3
Standard
350
65
  0
DICTIONARY
  5
29
102
{ACAD_REACTORS
330
C
102
}
330
C
100
AcDbDictionary
281
     1
  3
2dWireframe
350
2F
  3
Basic
350
2E
  3
Brighten
350
35
  3
ColorChange
350
39
  3
Conceptual
350
32
  3
Dim
350
34
  3
EdgeColorOff
350
41
  3
Facepattern
350
38
  3
Flat
350
2A
  3
FlatWithEdges
350
2B
  3
Gouraud
350
2C
  3
GouraudWithEdges
350
2D
  3
Hidden
350
31
  3
JitterOff
350
3F
  3
Linepattern
350
37
  3
OverhangOff
350
40
  3
Realistic
350
33
  3
Shaded
350
3E
  3
Shaded with edges
350
3D
  3
Shades of Gray
350
3A
  3
Sketchy
350
3B
  3
Thicken
350
36
  3
Wireframe
350
30
  3
X-Ray
350
3C
  0
XRECORD
  5
268
102
{ACAD_REACTORS
330
C
102
}
330
C
100
AcDbXrecord
280
     1
 90
        1
330
65
  0
DICTIONARY
  5
260
102
{ACAD_REACTORS
330
C
102
}
330
C
100
AcDbDictionary
281
     1
  3
CANNOSCALE
350
265
  3
CMLEADERSTYLE
350
262
  3
CTABLESTYLE
350
261
  3
CVIEWDETAILSTYLE
350
263
  3
CVIEWSECTIONSTYLE
350
264
  0
ACDBDETAILVIEWSTYLE
  5
6B
102
{ACAD_REACTORS
330
6A
102
}
330
6A
100
AcDbModelDocViewStyle
 70
     0
  3
Imperial24
290
     1
300
Imperial24
 90
        0
100
AcDbDetailViewStyle
 70
     0
 71
     0
 90
        3
 71
     1
340
55
 62
   256
 40
0.24
340
0
 62
   256
 40
0.24
300

 40
0.36
280
     3
 71
     2
340
5D
 90
       25
 62
   256
 71
     3
340
55
 62
   256
 40
0.24
 90
        1
 40
0.75
 90
        1
300
%<\AcVar ViewType \f "%tc1">% %<\AcVar ViewDetailId>%\PSCALE %<\AcVar ViewScale \f "%sn">%
 71
     4
340
5D
 90
       25
 62
   256
340
5D
 90
       25
 62
   256
280
     0
  0
LAYOUT
  5
6F
102
{ACAD_REACTORS
330
62
102
}
330
62
100
AcDbPlotSettings
  1

  2

  4

  6

 40
0.0
 41
0.0
 42
0.0
 43
0.0
 44
0.0
 45
0.0
 46
0.0
 47
0.0
 48
0.0
 49
0.0
140
0.0
141
0.0
142
1.0
143
1.0
 70
   688
 72
     0
 73
     0
 74
     5
  7

 75
    16
147
1.0
 76
     0
 77
     2
 78
   300
148
0.0
149
0.0
100
AcDbLayout
  1
Layout1
 70
     1
 71
     1
 10
0.0
 20
0.0
 11
12.0
 21
9.0
 12
0.0
 22
0.0
 32
0.0
 14
0.0
 24
0.0
 34
0.0
 15
0.0
 25
0.0
 35
0.0
146
0.0
 13
0.0
 23
0.0
 33
0.0
 16
1.0
 26
0.0
 36
0.0
 17
0.0
 27
1.0
 37
0.0
 76
     0
330
6C
  0
LAYOUT
  5
77
102
{ACAD_REACTORS
330
62
102
}
330
62
100
AcDbPlotSettings
  1

  2

  4

  6

 40
0.0
 41
0.0
 42
0.0
 43
0.0
 44
0.0
 45
0.0
 46
0.0
 47
0.0
 48
0.0
 49
0.0
140
0.0
141
0.0
142
1.0
143
1.0
 70
   688
 72
     0
 73
     0
 74
     5
  7

 75
    16
147
1.0
 76
     0
 77
     2
 78
   300
148
0.0
149
0.0
100
AcDbLayout
  1
Layout2
 70
     1
 71
     2
 10
0.0
 20
0.0
 11
12.0
 21
9.0
 12
0.0
 22
0.0
 32
0.0
 14
0.0
 24
0.0
 34
0.0
 15
0.0
 25
0.0
 35
0.0
146
0.0
 13
0.0
 23
0.0
 33
0.0
 16
1.0
 26
0.0
 36
0.0
 17
0.0
 27
1.0
 37
0.0
 76
     0
330
74
  0
LAYOUT
  5
73
102
{ACAD_REACTORS
330
62
102
}
330
62
100
AcDbPlotSettings
  1

  2

  4

  6

 40
0.0
 41
0.0
 42
0.0
 43
0.0
 44
0.0
 45
0.0
 46
0.0
 47
0.0
 48
0.0
 49
0.0
140
0.0
141
0.0
142
1.0
143
1.0
 70
  1712
 72
     0
 73
     0
 74
     0
  7

 75
     0
147
1.0
 76
     0
 77
     2
 78
   300
148
0.0
149
0.0
100
AcDbLayout
  1
Model
 70
     1
 71
     0
 10
0.0
 20
0.0
 11
12.0
 21
9.0
 12
0.0
 22
0.0
 32
0.0
 14
0.0
 24
0.0
 34
0.0
 15
0.0
 25
0.0
 35
0.0
146
0.0
 13
0.0
 23
0.0
 33
0.0
 16
1.0
 26
0.0
 36
0.0
 17
0.0
 27
1.0
 37
0.0
 76
     0
330
70
  0
MATERIAL
  5
19
102
{ACAD_XDICTIONARY
360
1A
102
}
102
{ACAD_REACTORS
330
10
102
}
330
10
100
AcDbMaterial
  1
ByBlock
 72
     0
 43
0.0208333333333333
 43
0.0
 43
0.0
 43
0.0
 43
0.0
 43
0.0208333333333333
 43
0.0
 43
0.0
 43
0.0
 43
0.0
 43
1.0
 43
0.0
 43
0.0
 43
0.0
 43
0.0
 43
1.0
 77
     0
 47
0.0208333333333333
 47
0.0
 47
0.0
 47
0.0
 47
0.0
 47
0.0208333333333333
 47
0.0
 47
0.0
 47
0.0
 47
0.0
 47
1.0
 47
0.0
 47
0.0
 47
0.0
 47
0.0
 47
1.0
171
     0
 49
0.0208333333333333
 49
0.0
 49
0.0
 49
0.0
 49
0.0
 49
0.0208333333333333
 49
0.0
 49
0.0
 49
0.0
 49
0.0
 49
1.0
 49
0.0
 49
0.0
 49
0.0
 49
0.0
 49
1.0
175
     0
142
0.0208333333333333
142
0.0
142
0.0
142
0.0
142
0.0
142
0.0208333333333333
142
0.0
142
0.0
142
0.0
142
0.0
142
1.0
142
0.0
142
0.0
142
0.0
142
0.0
142
1.0
179
     0
144
0.0208333333333333
144
0.0
144
0.0
144
0.0
144
0.0
144
0.0208333333333333
144
0.0
144
0.0
144
0.0
144
0.0
144
1.0
144
0.0
144
0.0
144
0.0
144
0.0
144
1.0
147
0.0208333333333333
147
0.0
147
0.0
147
0.0
147
0.0
147
0.0208333333333333
147
0.0
147
0.0
147
0.0
147
0.0
147
1.0
147
0.0
147
0.0
147
0.0
147
0.0
147
1.0
  0
MATERIAL
  5
11
102
{ACAD_XDICTIONARY
360
12
102
}
102
{ACAD_REACTORS
330
10
102
}
330
10
100
AcDbMaterial
  1
ByLayer
 72
     0
 43
0.0208333333333333
 43
0.0
 43
0.0
 43
0.0
 43
0.0
 43
0.0208333333333333
 43
0.0
 43
0.0
 43
0.0
 43
0.0
 43
1.0
 43
0.0
 43
0.0
 43
0.0
 43
0.0
 43
1.0
 77
     0
 47
0.0208333333333333
 47
0.0
 47
0.0
 47
0.0
 47
0.0
 47
0.0208333333333333
 47
0.0
 47
0.0
 47
0.0
 47
0.0
 47
1.0
 47
0.0
 47
0.0
 47
0.0
 47
0.0
 47
1.0
171
     0
 49
0.0208333333333333
 49
0.0
 49
0.0
 49
0.0
 49
0.0
 49
0.0208333333333333
 49
0.0
 49
0.0
 49
0.0
 49
0.0
 49
1.0
 49
0.0
 49
0.0
 49
0.0
 49
0.0
 49
1.0
175
     0
142
0.0208333333333333
142
0.0
142
0.0
142
0.0
142
0.0
142
0.0208333333333333
142
0.0
142
0.0
142
0.0
142
0.0
142
1.0
142
0.0
142
0.0
142
0.0
142
0.0
142
1.0
179
     0
144
0.0208333333333333
144
0.0
144
0.0
144
0.0
144
0.0
144
0.0208333333333333
144
0.0
144
0.0
144
0.0
144
0.0
144
1.0
144
0.0
144
0.0
144
0.0
144
0.0
144
1.0
147
0.0208333333333333
147
0.0
147
0.0
147
0.0
147
0.0
147
0.0208333333333333
147
0.0
147
0.0
147
0.0
147
0.0
147
1.0
147
0.0
147
0.0
147
0.0
147
0.0
147
1.0
  0
MATERIAL
  5
21
102
{ACAD_XDICTIONARY
360
22
102
}
102
{ACAD_REACTORS
330
10
102
}
330
10
100
AcDbMaterial
  1
Global
 72
     0
 43
0.0208333333333333
 43
0.0
 43
0.0
 43
0.0
 43
0.0
 43
0.0208333333333333
 43
0.0
 43
0.0
 43
0.0
 43
0.0
 43
1.0
 43
0.0
 43
0.0
 43
0.0
 43
0.0
 43
1.0
 77
     0
 47
0.0208333333333333
 47
0.0
 47
0.0
 47
0.0
 47
0.0
 47
0.0208333333333333
 47
0.0
 47
0.0
 47
0.0
 47
0.0
 47
1.0
 47
0.0
 47
0.0
 47
0.0
 47
0.0
 47
1.0
171
     0
 49
0.0208333333333333
 49
0.0
 49
0.0
 49
0.0
 49
0.0
 49
0.0208333333333333
 49
0.0
 49
0.0
 49
0.0
 49
0.0
 49
1.0
 49
0.0
 49
0.0
 49
0.0
 49
0.0
 49
1.0
175
     0
142
0.0208333333333333
142
0.0
142
0.0
142
0.0
142
0.0
142
0.0208333333333333
142
0.0
142
0.0
142
0.0
142
0.0
142
1.0
142
0.0
142
0.0
142
0.0
142
0.0
142
1.0
179
     0
144
0.0208333333333333
144
0.0
144
0.0
144
0.0
144
0.0
144
0.0208333333333333
144
0.0
144
0.0
144
0.0
144
0.0
144
1.0
144
0.0
144
0.0
144
0.0
144
0.0
144
1.0
147
0.0208333333333333
147
0.0
147
0.0
147
0.0
147
0.0
147
0.0208333333333333
147
0.0
147
0.0
147
0.0
147
0.0
147
1.0
147
0.0
147
0.0
147
0.0
147
0.0
147
1.0
  0
MLEADERSTYLE
  5
67
102
{ACAD_REACTORS
330
66
102
}
330
66
100
AcDbMLeaderStyle
179
     2
170
     2
171
     1
172
     0
 90
        2
 40
0.0
 41
0.0
173
     1
 91
-1056964608
340
5B
 92
       -2
290
     1
 42
0.09
291
     1
 43
0.36
  3
Standard
 44
0.18
300

342
55
174
     1
178
     6
175
     1
176
     0
 93
-1056964608
 45
0.18
292
     0
297
     0
 46
0.18
 94
-1056964608
 47
1.0
 49
1.0
140
1.0
293
     1
141
0.0
294
     1
177
     0
142
1.0
295
     1
296
     0
143
0.125
271
     0
272
     9
273
     9
298
     1
  0
MLINESTYLE
  5
60
102
{ACAD_REACTORS
330
5F
102
}
330
5F
100
AcDbMlineStyle
  2
STANDARD
 70
     0
  3

 62
   256
 51
90.0
 52
90.0
 71
     2
 49
0.5
 62
   256
  6
BYLAYER
 49
-0.5
 62
   256
  6
BYLAYER
  0
ACDBPLACEHOLDER
  5
F
102
{ACAD_REACTORS
330
E
102
}
330
E
  0
SCALE
  5
43
102
{ACAD_REACTORS
330
42
102
}
330
42
100
AcDbScale
 70
     0
300
1:1
140
1.0
141
1.0
290
     1
  0
SCALE
  5
44
102
{ACAD_REACTORS
330
42
102
}
330
42
100
AcDbScale
 70
     0
300
1/128" = 1'-0"
140
0.0078125
141
12.0
290
     0
  0
SCALE
  5
45
102
{ACAD_REACTORS
330
42
102
}
330
42
100
AcDbScale
 70
     0
300
1/64" = 1'-0"
140
0.015625
141
12.0
290
     0
  0
SCALE
  5
46
102
{ACAD_REACTORS
330
42
102
}
330
42
100
AcDbScale
 70
     0
300
1/32" = 1'-0"
140
0.03125
141
12.0
290
     0
  0
SCALE
  5
47
102
{ACAD_REACTORS
330
42
102
}
330
42
100
AcDbScale
 70
     0
300
1/16" = 1'-0"
140
0.0625
141
12.0
290
     0
  0
SCALE
  5
48
102
{ACAD_REACTORS
330
42
102
}
330
42
100
AcDbScale
 70
     0
300
3/32" = 1'-0"
140
0.09375
141
12.0
290
     0
  0
SCALE
  5
49
102
{ACAD_REACTORS
330
42
102
}
330
42
100
AcDbScale
 70
     0
300
1/8" = 1'-0"
140
0.125
141
12.0
290
     0
  0
SCALE
  5
4A
102
{ACAD_REACTORS
330
42
102
}
330
42
100
AcDbScale
 70
     0
300
3/16" = 1'-0"
140
0.1875
141
12.0
290
     0
  0
SCALE
  5
4B
102
{ACAD_REACTORS
330
42
102
}
330
42
100
AcDbScale
 70
     0
300
1/4" = 1'-0"
140
0.25
141
12.0
290
     0
  0
SCALE
  5
4C
102
{ACAD_REACTORS
330
42
102
}
330
42
100
AcDbScale
 70
     0
300
3/8" = 1'-0"
140
0.375
141
12.0
290
     0
  0
SCALE
  5
4D
102
{ACAD_REACTORS
330
42
102
}
330
42
100
AcDbScale
 70
     0
300
1/2" = 1'-0"
140
0.5
141
12.0
290
     0
  0
SCALE
  5
4E
102
{ACAD_REACTORS
330
42
102
}
330
42
100
AcDbScale
 70
     0
300
3/4" = 1'-0"
140
0.75
141
12.0
290
     0
  0
SCALE
  5
4F
102
{ACAD_REACTORS
330
42
102
}
330
42
100
AcDbScale
 70
     0
300
1" = 1'-0"
140
1.0
141
12.0
290
     0
  0
SCALE
  5
50
102
{ACAD_REACTORS
330
42
102
}
330
42
100
AcDbScale
 70
     0
300
1-1/2" = 1'-0"
140
1.5
141
12.0
290
     0
  0
SCALE
  5
51
102
{ACAD_REACTORS
330
42
102
}
330
42
100
AcDbScale
 70
     0
300
3" = 1'-0"
140
3.0
141
12.0
290
     0
  0
SCALE
  5
52
102
{ACAD_REACTORS
330
42
102
}
330
42
100
AcDbScale
 70
     0
300
6" = 1'-0"
140
6.0
141
12.0
290
     0
  0
SCALE
  5
53
102
{ACAD_REACTORS
330
42
102
}
330
42
100
AcDbScale
 70
     0
300
1'-0" = 1'-0"
140
12.0
141
12.0
290
     0
  0
ACDBSECTIONVIEWSTYLE
  5
69
102
{ACAD_REACTORS
330
68
102
}
330
68
100
AcDbModelDocViewStyle
 70
     0
  3
Imperial24
290
     1
300
Imperial24
 90
        0
100
AcDbSectionViewStyle
 70
     0
 71
     0
 90
       78
 71
     1
340
55
 62
   256
 40
0.24
340
0
340
0
 62
   256
 40
0.24
300
I, O, Q, S, X, Z
 40
0.48
 90
        3
 40
0.18
 90
        1
 71
     2
340
5D
 90
       25
 62
   256
340
5D
 90
       50
 62
   256
 40
0.24
 40
0.0
 40
0.24
 71
     3
340
55
 62
   256
 40
0.24
 90
        1
 40
0.75
 90
        1
300
%<\AcVar ViewType \f "%tc1">% %<\AcVar ViewSectionStartId>%-%<\AcVar ViewSectionEndId>%\PSCALE %<\AcVar ViewScale \f "%sn">%
 71
     4
 62
   256
 62
   257
300
ANSI31
 40
1.0
 90
        0
290
     0
290
     0
 90
        6
 40
0.0
 40
1.570796326794896
 40
0.2617993877991494
 40
1.308996938995747
 40
-0.2617993877991494
 40
1.832595714594046
  0
TABLESTYLE
  5
65
102
{ACAD_XDICTIONARY
360
266
102
}
102
{ACAD_REACTORS
330
64
102
}
330
64
100
AcDbTableStyle
280
     0
  3
Standard
 70
     0
 71
     0
 40
0.06
 41
0.06
280
     0
281
     0
  7
Standard
140
0.18
170
     2
 62
     0
 63
     7
283
     0
 90
      512
 91
        0
  1

274
    -2
284
     1
 64
     0
275
    -2
285
     1
 65
     0
276
    -2
286
     1
 66
     0
277
    -2
287
     1
 67
     0
278
    -2
288
     1
 68
     0
279
    -2
289
     1
 69
     0
  7
Standard
140
0.25
170
     5
 62
     0
 63
     7
283
     0
 90
      512
 91
        0
  1

274
    -2
284
     1
 64
     0
275
    -2
285
     1
 65
     0
276
    -2
286
     1
 66
     0
277
    -2
287
     1
 67
     0
278
    -2
288
     1
 68
     0
279
    -2
289
     1
 69
     0
  7
Standard
140
0.18
170
     5
 62
     0
 63
     7
283
     0
 90
      512
 91
        0
  1

274
    -2
284
     1
 64
     0
275
    -2
285
     1
 65
     0
276
    -2
286
     1
 66
     0
277
    -2
287
     1
 67
     0
278
    -2
288
     1
 68
     0
279
    -2
289
     1
 69
     0
  0
VISUALSTYLE
  5
2F
102
{ACAD_REACTORS
330
29
102
}
330
29
100
AcDbVisualStyle
  2
2dWireframe
 70
     4
177
     3
291
     0
 70
    58
 90
        0
176
     1
 90
        2
176
     1
 90
        0
176
     1
 90
        0
176
     1
 40
0.6
176
     1
 40
30.0
176
     1
 62
     7
420
 16777215
176
     1
 90
        1
176
     1
 90
        4
176
     1
 62
     7
176
     1
 62
   257
176
     1
 90
        1
176
     1
 90
        1
176
     1
 40
1.0
176
     1
 90
        0
176
     1
 62
   257
176
     1
 40
1.0
176
     1
 90
        1
176
     1
 90
        6
176
     1
 90
        2
176
     1
 62
     7
176
     1
 90
        5
176
     1
 90
        0
176
     1
 90
        0
176
     1
290
     0
176
     1
 90
        1
176
     1
 40
0.0
176
     1
 90
        0
176
     1
290
     1
176
     1
290
     1
176
     1
290
     0
176
     1
290
     0
176
     1
290
     0
176
     1
290
     0
176
     1
290
     0
176
     1
290
     0
176
     1
290
     0
176
     1
 90
       50
176
     1
 40
0.0
176
     1
 40
1.0
176
     1
 90
        0
176
     1
 62
    18
420
        0
176
     1
 90
       50
176
     1
 90
        3
176
     1
 62
     5
420
      255
176
     1
290
     0
176
     1
 90
       50
176
     1
 90
       50
176
     1
 90
       50
176
     1
290
     0
176
     1
 90
       50
176
     1
 62
   256
176
     0
 40
1.0
176
     0
 90
        2
176
     1
  1
strokes_ogs.tif
176
     1
290
     0
176
     1
 40
1.0
176
     1
 40
1.0
176
     1
  0
VISUALSTYLE
  5
2E
102
{ACAD_REACTORS
330
29
102
}
330
29
100
AcDbVisualStyle
  2
Basic
 70
     7
177
     3
291
     1
 70
    58
 90
        1
176
     1
 90
        0
176
     1
 90
        1
176
     1
 90
        0
176
     1
 40
0.6
176
     1
 40
30.0
176
     1
 62
     7
420
 16777215
176
     1
 90
        0
176
     1
 90
        4
176
     1
 62
     7
176
     1
 62
   257
176
     1
 90
        1
176
     1
 90
        1
176
     1
 40
1.0
176
     1
 90
        8
176
     1
 62
     7
176
     1
 40
1.0
176
     1
 90
        1
176
     1
 90
        6
176
     1
 90
        2
176
     1
 62
     7
176
     1
 90
        5
176
     1
 90
        0
176
     1
 90
        0
176
     1
290
     0
176
     1
 90
        1
176
     1
 40
0.0
176
     1
 90
        0
176
     1
290
     0
176
     1
290
     1
176
     1
290
     1
176
     1
290
     0
176
     1
290
     0
176
     1
290
     0
176
     1
290
     0
176
     1
290
     0
176
     1
290
     0
176
     1
 90
       50
176
     1
 40
0.0
176
     1
 40
1.0
176
     1
 90
        0
176
     1
 62
    18
420
        0
176
     1
 90
       50
176
     1
 90
        3
176
     1
 62
     5
420
      255
176
     1
290
     0
176
     1
 90
       50
176
     1
 90
       50
176
     1
 90
       50
176
     1
290
     0
176
     1
 90
       50
176
     1
 62
   256
176
     0
 40
1.0
176
     0
 90
        2
176
     1
  1
strokes_ogs.tif
176
     1
290
     0
176
     1
 40
1.0
176
     1
 40
1.0
176
     1
  0
VISUALSTYLE
  5
35
102
{ACAD_REACTORS
330
29
102
}
330
29
100
AcDbVisualStyle
  2
Brighten
 70
    12
177
     3
291
     1
 70
    58
 90
        2
176
     1
 90
        2
176
     1
 90
        0
176
     1
 90
        0
176
     1
 40
0.6
176
     1
 40
30.0
176
     1
 62
     7
420
 16777215
176
     1
 90
        1
176
     1
 90
        4
176
     1
 62
     7
176
     1
 62
   257
176
     1
 90
        1
176
     1
 90
        1
176
     1
 40
1.0
176
     1
 90
        8
176
     1
 62
     7
176
     1
 40
1.0
176
     1
 90
        1
176
     1
 90
        6
176
     1
 90
        2
176
     1
 62
     7
176
     1
 90
        5
176
     1
 90
        0
176
     1
 90
        0
176
     1
290
     0
176
     1
 90
        1
176
     1
 40
50.0
176
     1
 90
        0
176
     1
290
     0
176
     1
290
     1
176
     1
290
     1
176
     1
290
     0
176
     1
290
     0
176
     1
290
     0
176
     1
290
     0
176
     1
290
     0
176
     1
290
     0
176
     1
 90
       50
176
     1
 40
0.0
176
     1
 40
1.0
176
     1
 90
        0
176
     1
 62
    18
420
        0
176
     1
 90
       50
176
     1
 90
        3
176
     1
 62
     5
420
      255
176
     1
290
     0
176
     1
 90
       50
176
     1
 90
       50
176
     1
 90
       50
176
     1
290
     0
176
     1
 90
       50
176
     1
 62
   256
176
     0
 40
1.0
176
     0
 90
        2
176
     1
  1
strokes_ogs.tif
176
     1
290
     0
176
     1
 40
1.0
176
     1
 40
1.0
176
     1
  0
VISUALSTYLE
  5
39
102
{ACAD_REACTORS
330
29
102
}
330
29
100
AcDbVisualStyle
  2
ColorChange
 70
    16
177
     3
291
     1
 70
    58
 90
        2
176
     1
 90
        2
176
     1
 90
        3
176
     1
 90
        0
176
     1
 40
0.6
176
     1
 40
30.0
176
     1
 62
     8
420
  8421504
176
     1
 90
        1
176
     1
 90
        4
176
     1
 62
     7
176
     1
 62
   257
176
     1
 90
        1
176
     1
 90
        1
176
     1
 40
1.0
176
     1
 90
        8
176
     1
 62
     8
420
  8421504
176
     1
 40
1.0
176
     1
 90
        1
176
     1
 90
        6
176
     1
 90
        2
176
     1
 62
     7
176
     1
 90
        5
176
     1
 90
        0
176
     1
 90
        0
176
     1
290
     0
176
     1
 90
        1
176
     1
 40
0.0
176
     1
 90
        0
176
     1
290
     0
176
     1
290
     1
176
     1
290
     1
176
     1
290
     0
176
     1
290
     0
176
     1
290
     0
176
     1
290
     0
176
     1
290
     0
176
     1
290
     0
176
     1
 90
       50
176
     1
 40
0.0
176
     1
 40
1.0
176
     1
 90
        0
176
     1
 62
    18
420
        0
176
     1
 90
       50
176
     1
 90
        3
176
     1
 62
     5
420
      255
176
     1
290
     0
176
     1
 90
       50
176
     1
 90
       50
176
     1
 90
       50
176
     1
290
     0
176
     1
 90
       50
176
     1
 62
   256
176
     0
 40
1.0
176
     0
 90
        2
176
     1
  1
strokes_ogs.tif
176
     1
290
     0
176
     1
 40
1.0
176
     1
 40
1.0
176
     1
  0
VISUALSTYLE
  5
32
102
{ACAD_REACTORS
330
29
102
}
330
29
100
AcDbVisualStyle
  2
Conceptual
 70
     9
177
     3
291
     0
 70
    58
 90
        3
176
     1
 90
        2
176
     1
 90
        0
176
     1
 90
        0
176
     1
 40
0.6
176
     1
 40
30.0
176
     1
 62
     7
420
 16777215
176
     1
 90
        2
176
     1
 90
        2
176
     1
 62
     7
176
     1
 62
   257
176
     1
 90
        1
176
     1
 90
        1
176
     1
 40
179.0
176
     1
 90
        8
176
     1
 62
     7
176
     1
 40
1.0
176
     1
 90
        1
176
     1
 90
        6
176
     1
 90
        2
176
     1
 62
     7
176
     1
 90
        3
176
     1
 90
        0
176
     1
 90
        0
176
     1
290
     0
176
     1
 90
        1
176
     1
 40
0.0
176
     1
 90
        0
176
     1
290
     0
176
     1
290
     1
176
     1
290
     1
176
     1
290
     0
176
     1
290
     0
176
     1
290
     0
176
     1
290
     0
176
     1
290
     0
176
     1
290
     0
176
     1
 90
       50
176
     1
 40
0.0
176
     1
 40
1.0
176
     1
 90
        0
176
     1
 62
    18
420
        0
176
     1
 90
       50
176
     1
 90
        3
176
     1
 62
     5
420
      255
176
     1
290
     0
176
     1
 90
       50
176
     1
 90
       50
176
     1
 90
       50
176
     1
290
     0
176
     1
 90
       50
176
     1
 62
   256
176
     0
 40
1.0
176
     0
 90
        2
176
     1
  1
strokes_ogs.tif
176
     1
290
     0
176
     1
 40
1.0
176
     1
 40
1.0
176
     1
  0
VISUALSTYLE
  5
34
102
{ACAD_REACTORS
330
29
102
}
330
29
100
AcDbVisualStyle
  2
Dim
 70
    11
177
     3
291
     1
 70
    58
 90
        2
176
     1
 90
        2
176
     1
 90
        0
176
     1
 90
        0
176
     1
 40
0.6
176
     1
 40
30.0
176
     1
 62
     7
420
 16777215
176
     1
 90
        1
176
     1
 90
        4
176
     1
 62
     7
176
     1
 62
   257
176
     1
 90
        1
176
     1
 90
        1
176
     1
 40
1.0
176
     1
 90
        8
176
     1
 62
     7
176
     1
 40
1.0
176
     1
 90
        1
176
     1
 90
        6
176
     1
 90
        2
176
     1
 62
     7
176
     1
 90
        5
176
     1
 90
        0
176
     1
 90
        0
176
     1
290
     0
176
     1
 90
        1
176
     1
 40
-50.0
176
     1
 90
        0
176
     1
290
     0
176
     1
290
     1
176
     1
290
     1
176
     1
290
     0
176
     1
290
     0
176
     1
290
     0
176
     1
290
     0
176
     1
290
     0
176
     1
290
     0
176
     1
 90
       50
176
     1
 40
0.0
176
     1
 40
1.0
176
     1
 90
        0
176
     1
 62
    18
420
        0
176
     1
 90
       50
176
     1
 90
        3
176
     1
 62
     5
420
      255
176
     1
290
     0
176
     1
 90
       50
176
     1
 90
       50
176
     1
 90
       50
176
     1
290
     0
176
     1
 90
       50
176
     1
 62
   256
176
     0
 40
1.0
176
     0
 90
        2
176
     1
  1
strokes_ogs.tif
176
     1
290
     0
176
     1
 40
1.0
176
     1
 40
1.0
176
     1
  0
VISUALSTYLE
  5
41
102
{ACAD_REACTORS
330
29
102
}
330
29
100
AcDbVisualStyle
  2
EdgeColorOff
 70
    22
177
     3
291
     1
 70
    58
 90
        2
176
     0
 90
        2
176
     0
 90
        0
176
     0
 90
        0
176
     0
 40
0.6
176
     0
 40
30.0
176
     0
 62
     7
420
 16777215
176
     0
 90
        1
176
     0
 90
        4
176
     0
 62
     7
176
     0
 62
   257
176
     0
 90
        1
176
     0
 90
        1
176
     0
 40
1.0
176
     0
 90
        8
176
     2
 62
     7
176
     0
 40
1.0
176
     0
 90
        1
176
     0
 90
        6
176
     0
 90
        2
176
     0
 62
     7
176
     0
 90
        5
176
     0
 90
        0
176
     0
 90
        0
176
     0
290
     0
176
     0
 90
        1
176
     0
 40
0.0
176
     0
 90
        0
176
     0
290
     0
176
     0
290
     1
176
     0
290
     1
176
     0
290
     0
176
     0
290
     0
176
     0
290
     0
176
     0
290
     0
176
     0
290
     0
176
     0
290
     0
176
     0
 90
       50
176
     0
 40
0.0
176
     0
 40
1.0
176
     0
 90
        0
176
     0
 62
    18
420
        0
176
     0
 90
       50
176
     0
 90
        3
176
     0
 62
     5
420
      255
176
     0
290
     0
176
     0
 90
       50
176
     0
 90
       50
176
     0
 90
       50
176
     0
290
     0
176
     0
 90
       50
176
     0
 62
   256
176
     0
 40
1.0
176
     0
 90
        2
176
     0
  1
strokes_ogs.tif
176
     0
290
     0
176
     0
 40
1.0
176
     0
 40
1.0
176
     0
  0
VISUALSTYLE
  5
38
102
{ACAD_REACTORS
330
29
102
}
330
29
100
AcDbVisualStyle
  2
Facepattern
 70
    15
177
     3
291
     1
 70
    58
 90
        2
176
     1
 90
        2
176
     1
 90
        0
176
     1
 90
        0
176
     1
 40
0.6
176
     1
 40
30.0
176
     1
 62
     7
420
 16777215
176
     1
 90
        1
176
     1
 90
        4
176
     1
 62
     7
176
     1
 62
   257
176
     1
 90
        1
176
     1
 90
        1
176
     1
 40
1.0
176
     1
 90
        8
176
     1
 62
     7
176
     1
 40
1.0
176
     1
 90
        1
176
     1
 90
        6
176
     1
 90
        2
176
     1
 62
     7
176
     1
 90
        5
176
     1
 90
        0
176
     1
 90
        0
176
     1
290
     0
176
     1
 90
        1
176
     1
 40
0.0
176
     1
 90
        0
176
     1
290
     0
176
     1
290
     1
176
     1
290
     1
176
     1
290
     0
176
     1
290
     0
176
     1
290
     0
176
     1
290
     0
176
     1
290
     0
176
     1
290
     0
176
     1
 90
       50
176
     1
 40
0.0
176
     1
 40
1.0
176
     1
 90
        0
176
     1
 62
    18
420
        0
176
     1
 90
       50
176
     1
 90
        3
176
     1
 62
     5
420
      255
176
     1
290
     0
176
     1
 90
       50
176
     1
 90
       50
176
     1
 90
       50
176
     1
290
     0
176
     1
 90
       50
176
     1
 62
   256
176
     0
 40
1.0
176
     0
 90
        2
176
     1
  1
strokes_ogs.tif
176
     1
290
     0
176
     1
 40
1.0
176
     1
 40
1.0
176
     1
  0
VISUALSTYLE
  5
2A
102
{ACAD_REACTORS
330
29
102
}
330
29
100
AcDbVisualStyle
  2
Flat
 70
     0
177
     3
291
     1
 70
    58
 90
        2
176
     1
 90
        1
176
     1
 90
        1
176
     1
 90
        2
176
     1
 40
0.6
176
     1
 40
30.0
176
     1
 62
     7
420
 16777215
176
     1
 90
        0
176
     1
 90
        0
176
     1
 62
     7
176
     1
 62
   257
176
     1
 90
        1
176
     1
 90
        1
176
     1
 40
1.0
176
     1
 90
        8
176
     1
 62
     7
176
     1
 40
1.0
176
     1
 90
        1
176
     1
 90
        6
176
     1
 90
        2
176
     1
 62
     7
176
     1
 90
        5
176
     1
 90
        0
176
     1
 90
        0
176
     1
290
     0
176
     1
 90
       13
176
     1
 40
0.0
176
     1
 90
        0
176
     1
290
     0
176
     1
290
     1
176
     1
290
     1
176
     1
290
     0
176
     1
290
     0
176
     1
290
     0
176
     1
290
     0
176
     1
290
     0
176
     1
290
     0
176
     1
 90
       50
176
     1
 40
0.0
176
     1
 40
1.0
176
     1
 90
        0
176
     1
 62
    18
420
        0
176
     1
 90
       50
176
     1
 90
        3
176
     1
 62
     5
420
      255
176
     1
290
     0
176
     1
 90
       50
176
     1
 90
       50
176
     1
 90
       50
176
     1
290
     0
176
     1
 90
       50
176
     1
 62
   256
176
     0
 40
1.0
176
     0
 90
        2
176
     1
  1
strokes_ogs.tif
176
     1
290
     0
176
     1
 40
1.0
176
     1
 40
1.0
176
     1
  0
VISUALSTYLE
  5
2B
102
{ACAD_REACTORS
330
29
102
}
330
29
100
AcDbVisualStyle
  2
FlatWithEdges
 70
     1
177
     3
291
     1
 70
    58
 90
        2
176
     1
 90
        1
176
     1
 90
        1
176
     1
 90
        2
176
     1
 40
0.6
176
     1
 40
30.0
176
     1
 62
     7
420
 16777215
176
     1
 90
        1
176
     1
 90
        0
176
     1
 62
     7
176
     1
 62
   257
176
     1
 90
        1
176
     1
 90
        1
176
     1
 40
1.0
176
     1
 90
        0
176
     1
 62
   257
176
     1
 40
1.0
176
     1
 90
        1
176
     1
 90
        6
176
     1
 90
        2
176
     1
 62
     7
176
     1
 90
        5
176
     1
 90
        0
176
     1
 90
        0
176
     1
290
     0
176
     1
 90
       13
176
     1
 40
0.0
176
     1
 90
        0
176
     1
290
     0
176
     1
290
     1
176
     1
290
     1
176
     1
290
     0
176
     1
290
     0
176
     1
290
     0
176
     1
290
     0
176
     1
290
     0
176
     1
290
     0
176
     1
 90
       50
176
     1
 40
0.0
176
     1
 40
1.0
176
     1
 90
        0
176
     1
 62
    18
420
        0
176
     1
 90
       50
176
     1
 90
        3
176
     1
 62
     5
420
      255
176
     1
290
     0
176
     1
 90
       50
176
     1
 90
       50
176
     1
 90
       50
176
     1
290
     0
176
     1
 90
       50
176
     1
 62
   256
176
     0
 40
1.0
176
     0
 90
        2
176
     1
  1
strokes_ogs.tif
176
     1
290
     0
176
     1
 40
1.0
176
     1
 40
1.0
176
     1
  0
VISUALSTYLE
  5
2C
102
{ACAD_REACTORS
330
29
102
}
330
29
100
AcDbVisualStyle
  2
Gouraud
 70
     2
177
     3
291
     1
 70
    58
 90
        2
176
     1
 90
        2
176
     1
 90
        1
176
     1
 90
        2
176
     1
 40
0.6
176
     1
 40
30.0
176
     1
 62
     7
420
 16777215
176
     1
 90
        0
176
     1
 90
        0
176
     1
 62
     7
176
     1
 62
   257
176
     1
 90
        1
176
     1
 90
        1
176
     1
 40
1.0
176
     1
 90
        0
176
     1
 62
     7
176
     1
 40
1.0
176
     1
 90
        1
176
     1
 90
        6
176
     1
 90
        2
176
     1
 62
     7
176
     1
 90
        5
176
     1
 90
        0
176
     1
 90
        0
176
     1
290
     0
176
     1
 90
       13
176
     1
 40
0.0
176
     1
 90
        0
176
     1
290
     0
176
     1
290
     1
176
     1
290
     1
176
     1
290
     0
176
     1
290
     0
176
     1
290
     0
176
     1
290
     0
176
     1
290
     0
176
     1
290
     0
176
     1
 90
       50
176
     1
 40
0.0
176
     1
 40
1.0
176
     1
 90
        0
176
     1
 62
    18
420
        0
176
     1
 90
       50
176
     1
 90
        3
176
     1
 62
     5
420
      255
176
     1
290
     0
176
     1
 90
       50
176
     1
 90
       50
176
     1
 90
       50
176
     1
290
     0
176
     1
 90
       50
176
     1
 62
   256
176
     0
 40
1.0
176
     0
 90
        2
176
     1
  1
strokes_ogs.tif
176
     1
290
     0
176
     1
 40
1.0
176
     1
 40
1.0
176
     1
  0
VISUALSTYLE
  5
2D
102
{ACAD_REACTORS
330
29
102
}
330
29
100
AcDbVisualStyle
  2
GouraudWithEdges
 70
     3
177
     3
291
     1
 70
    58
 90
        2
176
     1
 90
        2
176
     1
 90
        1
176
     1
 90
        2
176
     1
 40
0.6
176
     1
 40
30.0
176
     1
 62
     7
420
 16777215
176
     1
 90
        1
176
     1
 90
        0
176
     1
 62
     7
176
     1
 62
   257
176
     1
 90
        1
176
     1
 90
        1
176
     1
 40
1.0
176
     1
 90
        0
176
     1
 62
   257
176
     1
 40
1.0
176
     1
 90
        1
176
     1
 90
        6
176
     1
 90
        2
176
     1
 62
     7
176
     1
 90
        5
176
     1
 90
        0
176
     1
 90
        0
176
     1
290
     0
176
     1
 90
       13
176
     1
 40
0.0
176
     1
 90
        0
176
     1
290
     0
176
     1
290
     1
176
     1
290
     1
176
     1
290
     0
176
     1
290
     0
176
     1
290
     0
176
     1
290
     0
176
     1
290
     0
176
     1
290
     0
176
     1
 90
       50
176
     1
 40
0.0
176
     1
 40
1.0
176
     1
 90
        0
176
     1
 62
    18
420
        0
176
     1
 90
       50
176
     1
 90
        3
176
     1
 62
     5
420
      255
176
     1
290
     0
176
     1
 90
       50
176
     1
 90
       50
176
     1
 90
       50
176
     1
290
     0
176
     1
 90
       50
176
     1
 62
   256
176
     0
 40
1.0
176
     0
 90
        2
176
     1
  1
strokes_ogs.tif
176
     1
290
     0
176
     1
 40
1.0
176
     1
 40
1.0
176
     1
  0
VISUALSTYLE
  5
31
102
{ACAD_REACTORS
330
29
102
}
330
29
100
AcDbVisualStyle
  2
Hidden
 70
     6
177
     3
291
     0
 70
    58
 90
        1
176
     1
 90
        2
176
     1
 90
        2
176
     1
 90
        0
176
     1
 40
0.6
176
     1
 40
30.0
176
     1
 62
     7
420
 16777215
176
     1
 90
        2
176
     1
 90
        2
176
     1
 62
     7
176
     1
 62
   257
176
     1
 90
        2
176
     1
 90
        1
176
     1
 40
40.0
176
     1
 90
        0
176
     1
 62
   257
176
     1
 40
1.0
176
     1
 90
        1
176
     1
 90
        6
176
     1
 90
        2
176
     1
 62
     7
176
     1
 90
        3
176
     1
 90
        0
176
     1
 90
        0
176
     1
290
     0
176
     1
 90
        1
176
     1
 40
0.0
176
     1
 90
        0
176
     1
290
     0
176
     1
290
     1
176
     1
290
     1
176
     1
290
     0
176
     1
290
     0
176
     1
290
     0
176
     1
290
     0
176
     1
290
     0
176
     1
290
     0
176
     1
 90
       50
176
     1
 40
0.0
176
     1
 40
1.0
176
     1
 90
        0
176
     1
 62
    18
420
        0
176
     1
 90
       50
176
     1
 90
        3
176
     1
 62
     5
420
      255
176
     1
290
     0
176
     1
 90
       50
176
     1
 90
       50
176
     1
 90
       50
176
     1
290
     0
176
     1
 90
       50
176
     1
 62
   256
176
     0
 40
1.0
176
     0
 90
        2
176
     1
  1
strokes_ogs.tif
176
     1
290
     0
176
     1
 40
1.0
176
     1
 40
1.0
176
     1
  0
VISUALSTYLE
  5
3F
102
{ACAD_REACTORS
330
29
102
}
330
29
100
AcDbVisualStyle
  2
JitterOff
 70
    20
177
     3
291
     1
 70
    58
 90
        2
176
     0
 90
        2
176
     0
 90
        0
176
     0
 90
        0
176
     0
 40
0.6
176
     0
 40
30.0
176
     0
 62
     7
420
 16777215
176
     0
 90
        1
176
     0
 90
        4
176
     0
 62
     7
176
     0
 62
   257
176
     0
 90
        1
176
     0
 90
        1
176
     0
 40
1.0
176
     0
 90
       10
176
     2
 62
     7
176
     0
 40
1.0
176
     0
 90
        1
176
     0
 90
        6
176
     0
 90
        2
176
     0
 62
     7
176
     0
 90
        5
176
     0
 90
        0
176
     0
 90
        0
176
     0
290
     0
176
     0
 90
        1
176
     0
 40
0.0
176
     0
 90
        0
176
     0
290
     0
176
     0
290
     1
176
     0
290
     1
176
     0
290
     0
176
     0
290
     0
176
     0
290
     0
176
     0
290
     0
176
     0
290
     0
176
     0
290
     0
176
     0
 90
       50
176
     0
 40
0.0
176
     0
 40
1.0
176
     0
 90
        0
176
     0
 62
    18
420
        0
176
     0
 90
       50
176
     0
 90
        3
176
     0
 62
     5
420
      255
176
     0
290
     0
176
     0
 90
       50
176
     0
 90
       50
176
     0
 90
       50
176
     0
290
     0
176
     0
 90
       50
176
     0
 62
   256
176
     0
 40
1.0
176
     0
 90
        2
176
     0
  1
strokes_ogs.tif
176
     0
290
     0
176
     0
 40
1.0
176
     0
 40
1.0
176
     0
  0
VISUALSTYLE
  5
37
102
{ACAD_REACTORS
330
29
102
}
330
29
100
AcDbVisualStyle
  2
Linepattern
 70
    14
177
     3
291
     1
 70
    58
 90
        2
176
     1
 90
        2
176
     1
 90
        0
176
     1
 90
        0
176
     1
 40
0.6
176
     1
 40
30.0
176
     1
 62
     7
420
 16777215
176
     1
 90
        1
176
     1
 90
        4
176
     1
 62
     7
176
     1
 62
   257
176
     1
 90
        7
176
     1
 90
        7
176
     1
 40
1.0
176
     1
 90
        8
176
     1
 62
     7
176
     1
 40
1.0
176
     1
 90
        1
176
     1
 90
        6
176
     1
 90
        2
176
     1
 62
     7
176
     1
 90
        5
176
     1
 90
        0
176
     1
 90
        0
176
     1
290
     0
176
     1
 90
        1
176
     1
 40
0.0
176
     1
 90
        0
176
     1
290
     0
176
     1
290
     1
176
     1
290
     1
176
     1
290
     0
176
     1
290
     0
176
     1
290
     0
176
     1
290
     0
176
     1
290
     0
176
     1
290
     0
176
     1
 90
       50
176
     1
 40
0.0
176
     1
 40
1.0
176
     1
 90
        0
176
     1
 62
    18
420
        0
176
     1
 90
       50
176
     1
 90
        3
176
     1
 62
     5
420
      255
176
     1
290
     0
176
     1
 90
       50
176
     1
 90
       50
176
     1
 90
       50
176
     1
290
     0
176
     1
 90
       50
176
     1
 62
   256
176
     0
 40
1.0
176
     0
 90
        2
176
     1
  1
strokes_ogs.tif
176
     1
290
     0
176
     1
 40
1.0
176
     1
 40
1.0
176
     1
  0
VISUALSTYLE
  5
40
102
{ACAD_REACTORS
330
29
102
}
330
29
100
AcDbVisualStyle
  2
OverhangOff
 70
    21
177
     3
291
     1
 70
    58
 90
        2
176
     0
 90
        2
176
     0
 90
        0
176
     0
 90
        0
176
     0
 40
0.6
176
     0
 40
30.0
176
     0
 62
     7
420
 16777215
176
     0
 90
        1
176
     0
 90
        4
176
     0
 62
     7
176
     0
 62
   257
176
     0
 90
        1
176
     0
 90
        1
176
     0
 40
1.0
176
     0
 90
        9
176
     2
 62
     7
176
     0
 40
1.0
176
     0
 90
        1
176
     0
 90
        6
176
     0
 90
        2
176
     0
 62
     7
176
     0
 90
        5
176
     0
 90
        0
176
     0
 90
        0
176
     0
290
     0
176
     0
 90
        1
176
     0
 40
0.0
176
     0
 90
        0
176
     0
290
     0
176
     0
290
     1
176
     0
290
     1
176
     0
290
     0
176
     0
290
     0
176
     0
290
     0
176
     0
290
     0
176
     0
290
     0
176
     0
290
     0
176
     0
 90
       50
176
     0
 40
0.0
176
     0
 40
1.0
176
     0
 90
        0
176
     0
 62
    18
420
        0
176
     0
 90
       50
176
     0
 90
        3
176
     0
 62
     5
420
      255
176
     0
290
     0
176
     0
 90
       50
176
     0
 90
       50
176
     0
 90
       50
176
     0
290
     0
176
     0
 90
       50
176
     0
 62
   256
176
     0
 40
1.0
176
     0
 90
        2
176
     0
  1
strokes_ogs.tif
176
     0
290
     0
176
     0
 40
1.0
176
     0
 40
1.0
176
     0
  0
VISUALSTYLE
  5
33
102
{ACAD_REACTORS
330
29
102
}
330
29
100
AcDbVisualStyle
  2
Realistic
 70
     8
177
     3
291
     0
 70
    58
 90
        2
176
     1
 90
        3
176
     1
 90
        0
176
     1
 90
        2
176
     1
 40
0.6
176
     1
 40
30.0
176
     1
 62
     7
420
 16777215
176
     1
 90
        0
176
     1
 90
        0
176
     1
 62
     7
176
     1
 62
   257
176
     1
 90
        1
176
     1
 90
        1
176
     1
 40
1.0
176
     1
 90
        8
176
     1
 62
   257
176
     1
 40
1.0
176
     1
 90
        1
176
     1
 90
        6
176
     1
 90
        2
176
     1
 62
     7
176
     1
 90
        3
176
     1
 90
        0
176
     1
 90
        0
176
     1
290
     0
176
     1
 90
       13
176
     1
 40
0.0
176
     1
 90
        0
176
     1
290
     0
176
     1
290
     1
176
     1
290
     1
176
     1
290
     0
176
     1
290
     0
176
     1
290
     0
176
     1
290
     0
176
     1
290
     0
176
     1
290
     0
176
     1
 90
       50
176
     1
 40
0.0
176
     1
 40
1.0
176
     1
 90
        0
176
     1
 62
    18
420
        0
176
     1
 90
       50
176
     1
 90
        3
176
     1
 62
     5
420
      255
176
     1
290
     0
176
     1
 90
       50
176
     1
 90
       50
176
     1
 90
       50
176
     1
290
     0
176
     1
 90
       50
176
     1
 62
   256
176
     0
 40
1.0
176
     0
 90
        2
176
     1
  1
strokes_ogs.tif
176
     1
290
     0
176
     1
 40
1.0
176
     1
 40
1.0
176
     1
  0
VISUALSTYLE
  5
3E
102
{ACAD_REACTORS
330
29
102
}
330
29
100
AcDbVisualStyle
  2
Shaded
 70
    27
177
     3
291
     0
 70
    58
 90
        2
176
     1
 90
        2
176
     1
 90
        1
176
     1
 90
        2
176
     1
 40
0.6
176
     1
 40
30.0
176
     1
 62
     7
420
 16777215
176
     1
 90
        0
176
     1
 90
        4
176
     1
 62
     7
176
     1
 62
   257
176
     1
 90
        1
176
     1
 90
        1
176
     1
 40
1.0
176
     1
 90
        8
176
     1
 62
   257
176
     1
 40
1.0
176
     1
 90
        1
176
     1
 90
        6
176
     1
 90
        2
176
     1
 62
     8
420
  7895160
176
     1
 90
        3
176
     1
 90
        0
176
     1
 90
        0
176
     1
290
     0
176
     1
 90
        5
176
     1
 40
0.0
176
     1
 90
        0
176
     1
290
     0
176
     1
290
     1
176
     1
290
     1
176
     1
290
     0
176
     1
290
     0
176
     1
290
     0
176
     1
290
     0
176
     1
290
     0
176
     1
290
     0
176
     1
 90
       50
176
     1
 40
0.0
176
     1
 40
1.0
176
     1
 90
        0
176
     1
 62
    18
420
        0
176
     1
 90
       50
176
     1
 90
        3
176
     1
 62
     5
420
      255
176
     1
290
     0
176
     1
 90
       50
176
     1
 90
       50
176
     1
 90
       50
176
     1
290
     0
176
     1
 90
       50
176
     1
 62
   256
176
     0
 40
1.0
176
     0
 90
        2
176
     1
  1
strokes_ogs.tif
176
     1
290
     0
176
     1
 40
1.0
176
     1
 40
1.0
176
     1
  0
VISUALSTYLE
  5
3D
102
{ACAD_REACTORS
330
29
102
}
330
29
100
AcDbVisualStyle
  2
Shaded with edges
 70
    26
177
     3
291
     0
 70
    58
 90
        2
176
     1
 90
        2
176
     1
 90
        1
176
     1
 90
        2
176
     1
 40
0.6
176
     1
 40
30.0
176
     1
 62
     7
420
 16777215
176
     1
 90
        1
176
     1
 90
        2
176
     1
 62
     7
176
     1
 62
   257
176
     1
 90
        2
176
     1
 90
        1
176
     1
 40
1.0
176
     1
 90
        8
176
     1
 62
   257
176
     1
 40
1.0
176
     1
 90
        1
176
     1
 90
        6
176
     1
 90
        2
176
     1
 62
     7
176
     1
 90
        3
176
     1
 90
        0
176
     1
 90
        0
176
     1
290
     0
176
     1
 90
        5
176
     1
 40
0.0
176
     1
 90
        0
176
     1
290
     0
176
     1
290
     1
176
     1
290
     1
176
     1
290
     0
176
     1
290
     0
176
     1
290
     0
176
     1
290
     0
176
     1
290
     0
176
     1
290
     0
176
     1
 90
       50
176
     1
 40
0.0
176
     1
 40
1.0
176
     1
 90
        0
176
     1
 62
    18
420
        0
176
     1
 90
       50
176
     1
 90
        3
176
     1
 62
     5
420
      255
176
     1
290
     0
176
     1
 90
       50
176
     1
 90
       50
176
     1
 90
       50
176
     1
290
     0
176
     1
 90
       50
176
     1
 62
   256
176
     0
 40
1.0
176
     0
 90
        2
176
     1
  1
strokes_ogs.tif
176
     1
290
     0
176
     1
 40
1.0
176
     1
 40
1.0
176
     1
  0
VISUALSTYLE
  5
3A
102
{ACAD_REACTORS
330
29
102
}
330
29
100
AcDbVisualStyle
  2
Shades of Gray
 70
    23
177
     3
291
     0
 70
    58
 90
        2
176
     1
 90
        2
176
     1
 90
        3
176
     1
 90
        0
176
     1
 40
0.6
176
     1
 40
30.0
176
     1
 62
     7
420
 16777215
176
     1
 90
        2
176
     1
 90
        2
176
     1
 62
     7
176
     1
 62
     7
176
     1
 90
        1
176
     1
 90
        1
176
     1
 40
40.0
176
     1
 90
        8
176
     1
 62
     7
176
     1
 40
1.0
176
     1
 90
        1
176
     1
 90
        6
176
     1
 90
        2
176
     1
 62
     7
176
     1
 90
        3
176
     1
 90
        0
176
     1
 90
        0
176
     1
290
     0
176
     1
 90
        1
176
     1
 40
0.0
176
     1
 90
        0
176
     1
290
     0
176
     1
290
     1
176
     1
290
     1
176
     1
290
     0
176
     1
290
     0
176
     1
290
     0
176
     1
290
     0
176
     1
290
     0
176
     1
290
     0
176
     1
 90
       50
176
     1
 40
0.0
176
     1
 40
1.0
176
     1
 90
        0
176
     1
 62
    18
420
        0
176
     1
 90
       50
176
     1
 90
        3
176
     1
 62
     5
420
      255
176
     1
290
     0
176
     1
 90
       50
176
     1
 90
       50
176
     1
 90
       50
176
     1
290
     0
176
     1
 90
       50
176
     1
 62
   256
176
     0
 40
1.0
176
     0
 90
        2
176
     1
  1
strokes_ogs.tif
176
     1
290
     0
176
     1
 40
1.0
176
     1
 40
1.0
176
     1
  0
VISUALSTYLE
  5
3B
102
{ACAD_REACTORS
330
29
102
}
330
29
100
AcDbVisualStyle
  2
Sketchy
 70
    24
177
     3
291
     0
 70
    58
 90
        1
176
     1
 90
        2
176
     1
 90
        2
176
     1
 90
        0
176
     1
 40
0.6
176
     1
 40
30.0
176
     1
 62
     7
420
 16777215
176
     1
 90
        2
176
     1
 90
        2
176
     1
 62
     7
176
     1
 62
     7
176
     1
 90
        1
176
     1
 90
        1
176
     1
 40
40.0
176
     1
 90
       11
176
     1
 62
     7
176
     1
 40
1.0
176
     1
 90
        1
176
     1
 90
        6
176
     1
 90
        2
176
     1
 62
     7
176
     1
 90
        6
176
     1
 90
        0
176
     1
 90
        0
176
     1
290
     0
176
     1
 90
        1
176
     1
 40
0.0
176
     1
 90
        0
176
     1
290
     0
176
     1
290
     1
176
     1
290
     1
176
     1
290
     0
176
     1
290
     0
176
     1
290
     0
176
     1
290
     0
176
     1
290
     0
176
     1
290
     0
176
     1
 90
       50
176
     1
 40
0.0
176
     1
 40
1.0
176
     1
 90
        0
176
     1
 62
    18
420
        0
176
     1
 90
       50
176
     1
 90
        3
176
     1
 62
     5
420
      255
176
     1
290
     0
176
     1
 90
       50
176
     1
 90
       50
176
     1
 90
       50
176
     1
290
     0
176
     1
 90
       50
176
     1
 62
   256
176
     0
 40
1.0
176
     0
 90
        2
176
     1
  1
strokes_ogs.tif
176
     1
290
     0
176
     1
 40
1.0
176
     1
 40
1.0
176
     1
  0
VISUALSTYLE
  5
36
102
{ACAD_REACTORS
330
29
102
}
330
29
100
AcDbVisualStyle
  2
Thicken
 70
    13
177
     3
291
     1
 70
    58
 90
        2
176
     1
 90
        2
176
     1
 90
        0
176
     1
 90
        0
176
     1
 40
0.6
176
     1
 40
30.0
176
     1
 62
     7
420
 16777215
176
     1
 90
        1
176
     1
 90
        4
176
     1
 62
     7
176
     1
 62
   257
176
     1
 90
        1
176
     1
 90
        1
176
     1
 40
1.0
176
     1
 90
       12
176
     1
 62
     7
176
     1
 40
1.0
176
     1
 90
        1
176
     1
 90
        6
176
     1
 90
        2
176
     1
 62
     7
176
     1
 90
        5
176
     1
 90
        0
176
     1
 90
        0
176
     1
290
     0
176
     1
 90
        1
176
     1
 40
0.0
176
     1
 90
        0
176
     1
290
     0
176
     1
290
     1
176
     1
290
     1
176
     1
290
     0
176
     1
290
     0
176
     1
290
     0
176
     1
290
     0
176
     1
290
     0
176
     1
290
     0
176
     1
 90
       50
176
     1
 40
0.0
176
     1
 40
1.0
176
     1
 90
        0
176
     1
 62
    18
420
        0
176
     1
 90
       50
176
     1
 90
        3
176
     1
 62
     5
420
      255
176
     1
290
     0
176
     1
 90
       50
176
     1
 90
       50
176
     1
 90
       50
176
     1
290
     0
176
     1
 90
       50
176
     1
 62
   256
176
     0
 40
1.0
176
     0
 90
        2
176
     1
  1
strokes_ogs.tif
176
     1
290
     0
176
     1
 40
1.0
176
     1
 40
1.0
176
     1
  0
VISUALSTYLE
  5
30
102
{ACAD_REACTORS
330
29
102
}
330
29
100
AcDbVisualStyle
  2
Wireframe
 70
     5
177
     3
291
     0
 70
    58
 90
        0
176
     1
 90
        2
176
     1
 90
        0
176
     1
 90
        0
176
     1
 40
0.6
176
     1
 40
30.0
176
     1
 62
     7
420
 16777215
176
     1
 90
        1
176
     1
 90
        4
176
     1
 62
     7
176
     1
 62
   257
176
     1
 90
        1
176
     1
 90
        1
176
     1
 40
1.0
176
     1
 90
        0
176
     1
 62
   257
176
     1
 40
1.0
176
     1
 90
        1
176
     1
 90
        6
176
     1
 90
        2
176
     1
 62
     7
176
     1
 90
        3
176
     1
 90
        0
176
     1
 90
        0
176
     1
290
     0
176
     1
 90
        1
176
     1
 40
0.0
176
     1
 90
        0
176
     1
290
     0
176
     1
290
     1
176
     1
290
     1
176
     1
290
     0
176
     1
290
     0
176
     1
290
     0
176
     1
290
     0
176
     1
290
     0
176
     1
290
     0
176
     1
 90
       50
176
     1
 40
0.0
176
     1
 40
1.0
176
     1
 90
        0
176
     1
 62
    18
420
        0
176
     1
 90
       50
176
     1
 90
        3
176
     1
 62
     5
420
      255
176
     1
290
     0
176
     1
 90
       50
176
     1
 90
       50
176
     1
 90
       50
176
     1
290
     0
176
     1
 90
       50
176
     1
 62
   256
176
     0
 40
1.0
176
     0
 90
        2
176
     1
  1
strokes_ogs.tif
176
     1
290
     0
176
     1
 40
1.0
176
     1
 40
1.0
176
     1
  0
VISUALSTYLE
  5
3C
102
{ACAD_REACTORS
330
29
102
}
330
29
100
AcDbVisualStyle
  2
X-Ray
 70
    25
177
     3
291
     0
 70
    58
 90
        2
176
     1
 90
        2
176
     1
 90
        1
176
     1
 90
        1
176
     1
 40
0.5
176
     1
 40
30.0
176
     1
 62
     7
420
 16777215
176
     1
 90
        1
176
     1
 90
        0
176
     1
 62
     7
176
     1
 62
   257
176
     1
 90
        1
176
     1
 90
        1
176
     1
 40
1.0
176
     1
 90
        8
176
     1
 62
     7
176
     1
 40
1.0
176
     1
 90
        1
176
     1
 90
        6
176
     1
 90
        2
176
     1
 62
     7
176
     1
 90
        3
176
     1
 90
        0
176
     1
 90
        0
176
     1
290
     0
176
     1
 90
       13
176
     1
 40
0.0
176
     1
 90
        0
176
     1
290
     0
176
     1
290
     1
176
     1
290
     1
176
     1
290
     0
176
     1
290
     0
176
     1
290
     0
176
     1
290
     0
176
     1
290
     0
176
     1
290
     0
176
     1
 90
       50
176
     1
 40
0.0
176
     1
 40
1.0
176
     1
 90
        0
176
     1
 62
    18
420
        0
176
     1
 90
       50
176
     1
 90
        3
176
     1
 62
     5
420
      255
176
     1
290
     0
176
     1
 90
       50
176
     1
 90
       50
176
     1
 90
       50
176
     1
290
     0
176
     1
 90
       50
176
     1
 62
   256
176
     0
 40
1.0
176
     0
 90
        2
176
     1
  1
strokes_ogs.tif
176
     1
290
     0
176
     1
 40
1.0
176
     1
 40
1.0
176
     1
  0
DICTIONARYVAR
  5
265
102
{ACAD_REACTORS
330
260
102
}
330
260
100
DictionaryVariables
280
     0
  1
1:1
  0
DICTIONARYVAR
  5
262
102
{ACAD_REACTORS
330
260
102
}
330
260
100
DictionaryVariables
280
     0
  1
STANDARD
  0
DICTIONARYVAR
  5
261
102
{ACAD_REACTORS
330
260
102
}
330
260
100
DictionaryVariables
280
     0
  1
STANDARD
  0
DICTIONARYVAR
  5
263
102
{ACAD_REACTORS
330
260
102
}
330
260
100
DictionaryVariables
280
     0
  1
Imperial24
  0
DICTIONARYVAR
  5
264
102
{ACAD_REACTORS
330
260
102
}
330
260
100
DictionaryVariables
280
     0
  1
Imperial24
  0
DICTIONARY
  5
1A
330
19
100
AcDbDictionary
280
     1
281
     1
  3
BUMPTILE
360
1C
  3
DIFFUSETILE
360
1B
  3
OPACITYTILE
360
1F
  3
REFLECTIONTILE
360
1E
  3
REFRACTIONTILE
360
20
  3
SPECULARTILE
360
1D
  0
DICTIONARY
  5
12
330
11
100
AcDbDictionary
280
     1
281
     1
  3
BUMPTILE
360
14
  3
DIFFUSETILE
360
13
  3
OPACITYTILE
360
17
  3
REFLECTIONTILE
360
16
  3
REFRACTIONTILE
360
18
  3
SPECULARTILE
360
15
  0
DICTIONARY
  5
22
330
21
100
AcDbDictionary
280
     1
281
     1
  3
BUMPTILE
360
24
  3
DIFFUSETILE
360
23
  3
OPACITYTILE
360
27
  3
REFLECTIONTILE
360
26
  3
REFRACTIONTILE
360
28
  3
SPECULARTILE
360
25
  0
DICTIONARY
  5
266
330
65
100
AcDbDictionary
280
     1
281
     1
  3
ACAD_ROUNDTRIP_2008_TABLESTYLE_CELLSTYLEMAP
360
267
  0
XRECORD
  5
1C
102
{ACAD_REACTORS
330
1A
102
}
330
1A
100
AcDbXrecord
280
     1
270
     1
271
     1
  0
XRECORD
  5
1B
102
{ACAD_REACTORS
330
1A
102
}
330
1A
100
AcDbXrecord
280
     1
270
     1
271
     1
  0
XRECORD
  5
1F
102
{ACAD_REACTORS
330
1A
102
}
330
1A
100
AcDbXrecord
280
     1
270
     1
271
     1
  0
XRECORD
  5
1E
102
{ACAD_REACTORS
330
1A
102
}
330
1A
100
AcDbXrecord
280
     1
270
     1
271
     1
  0
XRECORD
  5
20
102
{ACAD_REACTORS
330
1A
102
}
330
1A
100
AcDbXrecord
280
     1
270
     1
271
     1
  0
XRECORD
  5
1D
102
{ACAD_REACTORS
330
1A
102
}
330
1A
100
AcDbXrecord
280
     1
270
     1
271
     1
  0
XRECORD
  5
14
102
{ACAD_REACTORS
330
12
102
}
330
12
100
AcDbXrecord
280
     1
270
     1
271
     1
  0
XRECORD
  5
13
102
{ACAD_REACTORS
330
12
102
}
330
12
100
AcDbXrecord
280
     1
270
     1
271
     1
  0
XRECORD
  5
17
102
{ACAD_REACTORS
330
12
102
}
330
12
100
AcDbXrecord
280
     1
270
     1
271
     1
  0
XRECORD
  5
16
102
{ACAD_REACTORS
330
12
102
}
330
12
100
AcDbXrecord
280
     1
270
     1
271
     1
  0
XRECORD
  5
18
102
{ACAD_REACTORS
330
12
102
}
330
12
100
AcDbXrecord
280
     1
270
     1
271
     1
  0
XRECORD
  5
15
102
{ACAD_REACTORS
330
12
102
}
330
12
100
AcDbXrecord
280
     1
270
     1
271
     1
  0
XRECORD
  5
24
102
{ACAD_REACTORS
330
22
102
}
330
22
100
AcDbXrecord
280
     1
270
     1
271
     1
  0
XRECORD
  5
23
102
{ACAD_REACTORS
330
22
102
}
330
22
100
AcDbXrecord
280
     1
270
     1
271
     1
  0
XRECORD
  5
27
102
{ACAD_REACTORS
330
22
102
}
330
22
100
AcDbXrecord
280
     1
270
     1
271
     1
  0
XRECORD
  5
26
102
{ACAD_REACTORS
330
22
102
}
330
22
100
AcDbXrecord
280
     1
270
     1
271
     1
  0
XRECORD
  5
28
102
{ACAD_REACTORS
330
22
102
}
330
22
100
AcDbXrecord
280
     1
270
     1
271
     1
  0
XRECORD
  5
25
102
{ACAD_REACTORS
330
22
102
}
330
22
100
AcDbXrecord
280
     1
270
     1
271
     1
  0
CELLSTYLEMAP
  5
267
102
{ACAD_REACTORS
330
266
102
}
330
266
100
AcDbCellStyleMap
 90
        3
300
CELLSTYLE
  1
TABLEFORMAT_BEGIN
 90
        5
170
     1
 91
        0
 92
    32768
 62
   257
 93
        1
300
CONTENTFORMAT
  1
CONTENTFORMAT_BEGIN
 90
        0
 91
        0
 92
      512
 93
        0
300

 40
0.0
140
1.0
 94
        5
 62
     0
340
55
144
0.25
309
CONTENTFORMAT_END
171
     0
 94
        0
309
TABLEFORMAT_END
  1
CELLSTYLE_BEGIN
 90
        1
 91
        1
300
_TITLE
309
CELLSTYLE_END
300
CELLSTYLE
  1
TABLEFORMAT_BEGIN
 90
        5
170
     1
 91
        0
 92
        0
 62
   257
 93
        1
300
CONTENTFORMAT
  1
CONTENTFORMAT_BEGIN
 90
        0
 91
        0
 92
      512
 93
        0
300

 40
0.0
140
1.0
 94
        5
 62
     0
340
55
144
0.18
309
CONTENTFORMAT_END
171
     0
 94
        0
309
TABLEFORMAT_END
  1
CELLSTYLE_BEGIN
 90
        2
 91
        1
300
_HEADER
309
CELLSTYLE_END
300
CELLSTYLE
  1
TABLEFORMAT_BEGIN
 90
        5
170
     1
 91
        0
 92
        0
 62
   257
 93
        1
300
CONTENTFORMAT
  1
CONTENTFORMAT_BEGIN
 90
        0
 91
        0
 92
      512
 93
        0
300

 40
0.0
140
1.0
 94
        2
 62
     0
340
55
144
0.18
309
CONTENTFORMAT_END
171
     0
 94
        0
309
TABLEFORMAT_END
  1
CELLSTYLE_BEGIN
 90
        3
 91
        2
300
_DATA
309
CELLSTYLE_END
  0
ENDSEC
  0
EOF
