  0
SECTION
  2
HEADER
  9
$ACADVER
  1
AC1032
  9
$ACADMAINTVER
 90
      251
  9
$DWGCODEPAGE
  3
ANSI_1252
  9
$REQUIREDVERSIONS
160
                 0
  9
$INSBASE
 10
0.0
 20
0.0
 30
0.0
  9
$EXTMIN
 10
1.000000000000000E+20
 20
1.000000000000000E+20
 30
1.000000000000000E+20
  9
$EXTMAX
 10
-1.000000000000000E+20
 20
-1.000000000000000E+20
 30
-1.000000000000000E+20
  9
$LIMMIN
 10
0.0
 20
0.0
  9
$LIMMAX
 10
12.0
 20
9.0
  9
$ORTHOMODE
 70
     0
  9
$REGENMODE
 70
     1
  9
$FILLMODE
 70
     1
  9
$QTEXTMODE
 70
     0
  9
$MIRRTEXT
 70
     0
  9
$LTSCALE
 40
1.0
  9
$ATTMODE
 70
     1
  9
$TEXTSIZE
 40
0.2
  9
$TRACEWID
 40
0.05
  9
$TEXTSTYLE
  7
Standard
  9
$CLAYER
  8
0
  9
$CELTYPE
  6
ByLayer
  9
$CECOLOR
 62
   256
  9
$CELTSCALE
 40
1.0
  9
$DISPSILH
 70
     0
  9
$DIMSCALE
 40
1.0
  9
$DIMASZ
 40
0.18
  9
$DIMEXO
 40
0.0625
  9
$DIMDLI
 40
0.38
  9
$DIMRND
 40
0.0
  9
$DIMDLE
 40
0.0
  9
$DIMEXE
 40
0.18
  9
$DIMTP
 40
0.0
  9
$DIMTM
 40
0.0
  9
$DIMTXT
 40
0.18
  9
$DIMCEN
 40
0.09
  9
$DIMTSZ
 40
0.0
  9
$DIMTOL
 70
     0
  9
$DIMLIM
 70
     0
  9
$DIMTIH
 70
     1
  9
$DIMTOH
 70
     1
  9
$DIMSE1
 70
     0
  9
$DIMSE2
 70
     0
  9
$DIMTAD
 70
     0
  9
$DIMZIN
 70
     0
  9
$DIMBLK
  1

  9
$DIMASO
 70
     1
  9
$DIMSHO
 70
     1
  9
$DIMPOST
  1

  9
$DIMAPOST
  1

  9
$DIMALT
 70
     0
  9
$DIMALTD
 70
     2
  9
$DIMALTF
 40
25.4
  9
$DIMLFAC
 40
1.0
  9
$DIMTOFL
 70
     0
  9
$DIMTVP
 40
0.0
  9
$DIMTIX
 70
     0
  9
$DIMSOXD
 70
     0
  9
$DIMSAH
 70
     0
  9
$DIMBLK1
  1

  9
$DIMBLK2
  1

  9
$DIMSTYLE
  2
Standard
  9
$DIMCLRD
 70
     0
  9
$DIMCLRE
 70
     0
  9
$DIMCLRT
 70
     0
  9
$DIMTFAC
 40
1.0
  9
$DIMGAP
 40
0.09
  9
$DIMJUST
 70
     0
  9
$DIMSD1
 70
     0
  9
$DIMSD2
 70
     0
  9
$DIMTOLJ
 70
     1
  9
$DIMTZIN
 70
     0
  9
$DIMALTZ
 70
     0
  9
$DIMALTTZ
 70
     0
  9
$DIMUPT
 70
     0
  9
$DIMDEC
 70
     4
  9
$DIMTDEC
 70
     4
  9
$DIMALTU
 70
     2
  9
$DIMALTTD
 70
     2
  9
$DIMTXSTY
  7
Standard
  9
$DIMAUNIT
 70
     0
  9
$DIMADEC
 70
     0
  9
$DIMALTRND
 40
0.0
  9
$DIMAZIN
 70
     0
  9
$DIMDSEP
 70
    46
  9
$DIMATFIT
 70
     3
  9
$DIMFRAC
 70
     0
  9
$DIMLDRBLK
  1

  9
$DIMLUNIT
 70
     2
  9
$DIMLWD
 70
    -2
  9
$DIMLWE
 70
    -2
  9
$DIMTMOVE
 70
     0
  9
$DIMFXL
 40
1.0
  9
$DIMFXLON
 70
     0
  9
$DIMJOGANG
 40
0.7853981633974483
  9
$DIMTFILL
 70
     0
  9
$DIMTFILLCLR
 70
     0
  9
$DIMARCSYM
 70
     0
  9
$DIMLTYPE
  6

  9
$DIMLTEX1
  6

  9
$DIMLTEX2
  6

  9
$DIMTXTDIRECTION
 70
     0
  9
$LUNITS
 70
     2
  9
$LUPREC
 70
     4
  9
$SKETCHINC
 40
0.1
  9
$FILLETRAD
 40
0.0
  9
$AUNITS
 70
     0
  9
$AUPREC
 70
     0
  9
$MENU
  1
.
  9
$ELEVATION
 40
0.0
  9
$PELEVATION
 40
0.0
  9
$THICKNESS
 40
0.0
  9
$LIMCHECK
 70
     0
  9
$CHAMFERA
 40
0.0
  9
$CHAMFERB
 40
0.0
  9
$CHAMFERC
 40
0.0
  9
$CHAMFERD
 40
0.0
  9
$SKPOLY
 70
     0
  9
$TDCREATE
 40
2460035.513750000
  9
$TDUCREATE
 40
2460035.430416667
  9
$TDUPDATE
 40
2460035.513750000
  9
$TDUUPDATE
 40
2460035.430416667
  9
$TDINDWG
 40
0.0000000000
  9
$TDUSRTIMER
 40
0.0000000000
  9
$USRTIMER
 70
     1
  9
$ANGBASE
 50
0.0
  9
$ANGDIR
 70
     0
  9
$PDMODE
 70
     0
  9
$PDSIZE
 40
0.0
  9
$PLINEWID
 40
0.0
  9
$SPLFRAME
 70
     0
  9
$SPLINETYPE
 70
     6
  9
$SPLINESEGS
 70
     8
  9
$HANDSEED
  5
19C
  9
$SURFTAB1
 70
     6
  9
$SURFTAB2
 70
     6
  9
$SURFTYPE
 70
     6
  9
$SURFU
 70
     6
  9
$SURFV
 70
     6
  9
$UCSBASE
  2

  9
$UCSNAME
  2

  9
$UCSORG
 10
0.0
 20
0.0
 30
0.0
  9
$UCSXDIR
 10
1.0
 20
0.0
 30
0.0
  9
$UCSYDIR
 10
0.0
 20
1.0
 30
0.0
  9
$UCSORTHOREF
  2

  9
$UCSORTHOVIEW
 70
     0
  9
$UCSORGTOP
 10
0.0
 20
0.0
 30
0.0
  9
$UCSORGBOTTOM
 10
0.0
 20
0.0
 30
0.0
  9
$UCSORGLEFT
 10
0.0
 20
0.0
 30
0.0
  9
$UCSORGRIGHT
 10
0.0
 20
0.0
 30
0.0
  9
$UCSORGFRONT
 10
0.0
 20
0.0
 30
0.0
  9
$UCSORGBACK
 10
0.0
 20
0.0
 30
0.0
  9
$PUCSBASE
  2

  9
$PUCSNAME
  2

  9
$PUCSORG
 10
0.0
 20
0.0
 30
0.0
  9
$PUCSXDIR
 10
1.0
 20
0.0
 30
0.0
  9
$PUCSYDIR
 10
0.0
 20
1.0
 30
0.0
  9
$PUCSORTHOREF
  2

  9
$PUCSORTHOVIEW
 70
     0
  9
$PUCSORGTOP
 10
0.0
 20
0.0
 30
0.0
  9
$PUCSORGBOTTOM
 10
0.0
 20
0.0
 30
0.0
  9
$PUCSORGLEFT
 10
0.0
 20
0.0
 30
0.0
  9
$PUCSORGRIGHT
 10
0.0
 20
0.0
 30
0.0
  9
$PUCSORGFRONT
 10
0.0
 20
0.0
 30
0.0
  9
$PUCSORGBACK
 10
0.0
 20
0.0
 30
0.0
  9
$USERI1
 70
     0
  9
$USERI2
 70
     0
  9
$USERI3
 70
     0
  9
$USERI4
 70
     0
  9
$USERI5
 70
     0
  9
$USERR1
 40
0.0
  9
$USERR2
 40
0.0
  9
$USERR3
 40
0.0
  9
$USERR4
 40
0.0
  9
$USERR5
 40
0.0
  9
$WORLDVIEW
 70
     1
  9
$SHADEDGE
 70
     3
  9
$SHADEDIF
 70
    70
  9
$TILEMODE
 70
     1
  9
$MAXACTVP
 70
    64
  9
$PINSBASE
 10
0.0
 20
0.0
 30
0.0
  9
$PLIMCHECK
 70
     0
  9
$PEXTMIN
 10
1.000000000000000E+20
 20
1.000000000000000E+20
 30
1.000000000000000E+20
  9
$PEXTMAX
 10
-1.000000000000000E+20
 20
-1.000000000000000E+20
 30
-1.000000000000000E+20
  9
$PLIMMIN
 10
0.0
 20
0.0
  9
$PLIMMAX
 10
12.0
 20
9.0
  9
$UNITMODE
 70
     0
  9
$VISRETAIN
 70
     1
  9
$PLINEGEN
 70
     0
  9
$PSLTSCALE
 70
     1
  9
$TREEDEPTH
 70
  3020
  9
$CMLSTYLE
  2
Standard
  9
$CMLJUST
 70
     0
  9
$CMLSCALE
 40
1.0
  9
$PROXYGRAPHICS
 70
     1
  9
$MEASUREMENT
 70
     0
  9
$CELWEIGHT
370
    -1
  9
$ENDCAPS
280
     0
  9
$JOINSTYLE
280
     0
  9
$LWDISPLAY
290
     1
  9
$INSUNITS
 70
     4
  9
$HYPERLINKBASE
  1

  9
$STYLESHEET
  1

  9
$XEDIT
290
     1
  9
$CEPSNTYPE
380
     0
  9
$PSTYLEMODE
290
     1
  9
$FINGERPRINTGUID
  2
{1CC5686D-94A8-3F4E-8291-5C6B11654AE5}
  9
$VERSIONGUID
  2
{DFA2B965-0E4B-5B46-A82A-5641B4D73748}
  9
$EXTNAMES
290
     1
  9
$PSVPSCALE
 40
0.0
  9
$OLESTARTUP
290
     0
  9
$SORTENTS
280
   127
  9
$INDEXCTL
280
     0
  9
$HIDETEXT
280
     1
  9
$XCLIPFRAME
280
     2
  9
$HALOGAP
280
     0
  9
$OBSCOLOR
 70
   257
  9
$OBSLTYPE
280
     0
  9
$INTERSECTIONDISPLAY
280
     0
  9
$INTERSECTIONCOLOR
 70
   257
  9
$DIMASSOC
280
     2
  9
$PROJECTNAME
  1

  9
$CAMERADISPLAY
290
     0
  9
$LENSLENGTH
 40
50.0
  9
$CAMERAHEIGHT
 40
0.0
  9
$STEPSPERSEC
 40
2.0
  9
$STEPSIZE
 40
6.0
  9
$3DDWFPREC
 40
2.0
  9
$PSOLWIDTH
 40
0.25
  9
$PSOLHEIGHT
 40
4.0
  9
$LOFTANG1
 40
1.570796326794896
  9
$LOFTANG2
 40
1.570796326794896
  9
$LOFTMAG1
 40
0.0
  9
$LOFTMAG2
 40
0.0
  9
$LOFTPARAM
 70
     7
  9
$LOFTNORMALS
280
     1
  9
$LATITUDE
 40
37.795
  9
$LONGITUDE
 40
-122.394
  9
$NORTHDIRECTION
 40
0.0
  9
$TIMEZONE
 70
 -8000
  9
$LIGHTGLYPHDISPLAY
280
     1
  9
$TILEMODELIGHTSYNCH
280
     1
  9
$CMATERIAL
347
11
  9
$SOLIDHIST
280
     0
  9
$SHOWHIST
280
     1
  9
$DWFFRAME
280
     2
  9
$DGNFRAME
280
     0
  9
$REALWORLDSCALE
290
     1
  9
$INTERFERECOLOR
 62
     1
  9
$INTERFEREOBJVS
345
33
  9
$INTERFEREVPVS
346
30
  9
$CSHADOW
280
     0
  9
$SHADOWPLANELOCATION
 40
0.0
  0
ENDSEC
  0
SECTION
  2
CLASSES
  0
CLASS
  1
ACDBDICTIONARYWDFLT
  2
AcDbDictionaryWithDefault
  3
ObjectDBX Classes
 90
        0
 91
        1
280
     0
281
     0
  0
CLASS
  1
MATERIAL
  2
AcDbMaterial
  3
ObjectDBX Classes
 90
     1153
 91
        3
280
     0
281
     0
  0
CLASS
  1
VISUALSTYLE
  2
AcDbVisualStyle
  3
ObjectDBX Classes
 90
     4095
 91
       24
280
     0
281
     0
  0
CLASS
  1
SCALE
  2
AcDbScale
  3
ObjectDBX Classes
 90
     1153
 91
       17
280
     0
281
     0
  0
CLASS
  1
TABLESTYLE
  2
AcDbTableStyle
  3
ObjectDBX Classes
 90
     4095
 91
        1
280
     0
281
     0
  0
CLASS
  1
MLEADERSTYLE
  2
AcDbMLeaderStyle
  3
ACDB_MLEADERSTYLE_CLASS
 90
     4095
 91
        1
280
     0
281
     0
  0
CLASS
  1
ACDBSECTIONVIEWSTYLE
  2
AcDbSectionViewStyle
  3
ObjectDBX Classes
 90
     1025
 91
        1
280
     0
281
     0
  0
CLASS
  1
ACDBDETAILVIEWSTYLE
  2
AcDbDetailViewStyle
  3
ObjectDBX Classes
 90
     1025
 91
        1
280
     0
281
     0
  0
CLASS
  1
DICTIONARYVAR
  2
AcDbDictionaryVar
  3
ObjectDBX Classes
 90
        0
 91
        5
280
     0
281
     0
  0
CLASS
  1
CELLSTYLEMAP
  2
AcDbCellStyleMap
  3
ObjectDBX Classes
 90
     1152
 91
        1
280
     0
281
     0
  0
ENDSEC
  0
SECTION
  2
TABLES
  0
TABLE
  2
VPORT
  5
8
330
0
100
AcDbSymbolTable
 70
     1
  0
VPORT
  5
57
330
8
100
AcDbSymbolTableRecord
100
AcDbViewportTableRecord
  2
*Active
 70
     0
 10
0.0
 20
0.0
 11
1.0
 21
1.0
 12
0.0
 22
0.0
 13
0.0
 23
0.0
 14
1.0
 24
1.0
 15
0.0
 25
0.0
 16
0.0
 26
0.0
 36
1.0
 17
104.9999999737499
 27
31.49999999212523
 37
0.0
 40
302.9399999242649
 41
0.7070707070707066
 42
50.0
 43
0.0
 44
0.0
 50
0.0
 51
0.0
 71
     0
 72
   100
 73
     1
 74
     1
 75
     0
 76
     0
 77
     0
 78
     0
281
     0
 65
     1
110
0.0
120
0.0
130
0.0
111
1.0
121
0.0
131
0.0
112
0.0
122
1.0
132
0.0
 79
     0
146
0.0
 60
     3
 61
     5
292
     1
282
     1
141
0.0
142
0.0
 63
   250
421
  3355443
  0
ENDTAB
  0
TABLE
  2
LTYPE
  5
5
330
0
100
AcDbSymbolTable
 70
     1
  0
LTYPE
  5
5B
330
5
100
AcDbSymbolTableRecord
100
AcDbLinetypeTableRecord
  2
ByBlock
 70
     0
  3

 72
    65
 73
     0
 40
0.0
  0
LTYPE
  5
5C
330
5
100
AcDbSymbolTableRecord
100
AcDbLinetypeTableRecord
  2
ByLayer
 70
     0
  3

 72
    65
 73
     0
 40
0.0
  0
LTYPE
  5
5D
330
5
100
AcDbSymbolTableRecord
100
AcDbLinetypeTableRecord
  2
Continuous
 70
     0
  3
Solid line
 72
    65
 73
     0
 40
0.0
  0
ENDTAB
  0
TABLE
  2
LAYER
  5
2
330
0
100
AcDbSymbolTable
 70
     2
  0
LAYER
  5
54
330
2
100
AcDbSymbolTableRecord
100
AcDbLayerTableRecord
  2
0
 70
     0
 62
     7
  6
Continuous
370
     0
390
F
347
21
348
0
  0
LAYER
  5
16D
330
2
100
AcDbSymbolTableRecord
100
AcDbLayerTableRecord
  2
CAPA_BASE
 70
     0
 62
     7
  6
Continuous
370
     0
390
F
347
21
348
0
  0
ENDTAB
  0
TABLE
  2
STYLE
  5
3
330
0
100
AcDbSymbolTable
 70
     2
  0
STYLE
  5
55
330
3
100
AcDbSymbolTableRecord
100
AcDbTextStyleTableRecord
  2
Standard
 70
     0
 40
0.0
 41
1.0
 50
0.0
 71
     0
 42
0.2
  3
txt
  4

  0
STYLE
  5
5A
330
3
100
AcDbSymbolTableRecord
100
AcDbTextStyleTableRecord
  2
Annotative
 70
     0
 40
0.0
 41
1.0
 50
0.0
 71
     0
 42
0.2
  3
txt
  4

1001
AcadAnnotative
1000
AnnotativeData
1002
{
1070
     1
1070
     1
1002
}
  0
ENDTAB
  0
TABLE
  2
VIEW
  5
6
330
0
100
AcDbSymbolTable
 70
     0
  0
ENDTAB
  0
TABLE
  2
UCS
  5
7
330
0
100
AcDbSymbolTable
 70
     0
  0
ENDTAB
  0
TABLE
  2
APPID
  5
9
330
0
100
AcDbSymbolTable
 70
     2
  0
APPID
  5
56
330
9
100
AcDbSymbolTableRecord
100
AcDbRegAppTableRecord
  2
ACAD
 70
     0
  0
APPID
  5
5E
330
9
100
AcDbSymbolTableRecord
100
AcDbRegAppTableRecord
  2
AcadAnnotative
 70
     0
  0
ENDTAB
  0
TABLE
  2
DIMSTYLE
  5
A
330
0
100
AcDbSymbolTable
 70
     2
100
AcDbDimStyleTable
 71
     0
  0
DIMSTYLE
105
58
330
A
100
AcDbSymbolTableRecord
100
AcDbDimStyleTableRecord
  2
Standard
 70
     0
340
55
  0
DIMSTYLE
105
59
330
A
100
AcDbSymbolTableRecord
100
AcDbDimStyleTableRecord
  2
Annotative
 70
     0
340
55
1001
AcadAnnotative
1000
AnnotativeData
1002
{
1070
     1
1070
     1
1002
}
  0
ENDTAB
  0
TABLE
  2
BLOCK_RECORD
  5
1
330
0
100
AcDbSymbolTable
 70
     4
  0
BLOCK_RECORD
  5
70
330
1
100
AcDbSymbolTableRecord
100
AcDbBlockTableRecord
  2
*Model_Space
340
73
 70
     0
280
     1
281
     0
  0
BLOCK_RECORD
  5
6C
330
1
100
AcDbSymbolTableRecord
100
AcDbBlockTableRecord
  2
*Paper_Space
340
6F
 70
     0
280
     1
281
     0
  0
BLOCK_RECORD
  5
74
330
1
100
AcDbSymbolTableRecord
100
AcDbBlockTableRecord
  2
*Paper_Space0
340
77
 70
     0
280
     1
281
     0
  0
BLOCK_RECORD
  5
16E
330
1
100
AcDbSymbolTableRecord
100
AcDbBlockTableRecord
  2
Block_0
340
0
102
{BLKREFS
331
16F
102
}
 70
     0
280
     1
281
     0
  0
BLOCK_RECORD
  5
17B
330
1
100
AcDbSymbolTableRecord
100
AcDbBlockTableRecord
  2
Block_1
340
0
102
{BLKREFS
331
17C
102
}
 70
     0
280
     1
281
     0
  0
BLOCK_RECORD
  5
187
330
1
100
AcDbSymbolTableRecord
100
AcDbBlockTableRecord
  2
Block_2
340
0
102
{BLKREFS
331
188
102
}
 70
     0
280
     1
281
     0
  0
ENDTAB
  0
ENDSEC
  0
SECTION
  2
BLOCKS
  0
BLOCK
  5
71
330
70
100
AcDbEntity
  8
0
100
AcDbBlockBegin
  2
*Model_Space
 70
     0
 10
0.0
 20
0.0
 30
0.0
  3
*Model_Space
  1

  0
ENDBLK
  5
72
330
70
100
AcDbEntity
  8
0
100
AcDbBlockEnd
  0
BLOCK
  5
6D
330
6C
100
AcDbEntity
 67
     1
  8
0
100
AcDbBlockBegin
  2
*Paper_Space
 70
     0
 10
0.0
 20
0.0
 30
0.0
  3
*Paper_Space
  1

  0
ENDBLK
  5
6E
330
6C
100
AcDbEntity
 67
     1
  8
0
100
AcDbBlockEnd
  0
BLOCK
  5
75
330
74
100
AcDbEntity
 67
     1
  8
0
100
AcDbBlockBegin
  2
*Paper_Space0
 70
     0
 10
0.0
 20
0.0
 30
0.0
  3
*Paper_Space0
  1

  0
ENDBLK
  5
76
330
74
100
AcDbEntity
 67
     1
  8
0
100
AcDbBlockEnd
  0
BLOCK
  5
170
330
16E
100
AcDbEntity
  8
0
100
AcDbBlockBegin
  2
Block_0
 70
     0
 10
0.0
 20
0.0
 30
0.0
  3
Block_0
  1

  0
LWPOLYLINE
  5
172
330
16E
100
AcDbEntity
  8
CAPA_BASE
100
AcDbPolyline
 90
        4
 70
     1
 43
0.0
 10
25.4124315312778
 20
54.9301476573455
 10
27.91243153127789
 20
54.62014765734578
 10
27.91243153127789
 20
55.24014765734587
 10
27.91243153127789
 20
55.24014765734587
  0
HATCH
  5
173
330
16E
100
AcDbEntity
  8
CAPA_BASE
 62
    18
420
        0
440
 33554687
100
AcDbHatch
 10
0.0
 20
0.0
 30
0.0
210
0.0
220
0.0
230
1.0
  2
SOLID
 70
     1
 71
     1
 91
        1
 92
        1
 93
        3
 72
     1
 10
25.4124315312778
 20
54.9301476573455
 11
27.91243153127789
 21
54.62014765734578
 72
     1
 10
27.91243153127789
 20
54.62014765734578
 11
27.91243153127789
 21
55.24014765734587
 72
     1
 10
27.91243153127789
 20
55.24014765734587
 11
25.4124315312778
 21
54.9301476573455
 97
        1
330
172
 75
     2
 76
     1
 98
        1
 10
0.0
 20
0.0
450
        0
451
        0
460
0.0
461
0.0
452
        0
462
0.0
453
        0
470

  0
LWPOLYLINE
  5
174
330
16E
100
AcDbEntity
  8
CAPA_BASE
100
AcDbPolyline
 90
        4
 70
     1
 43
0.0
 10
80.41243153127782
 20
54.9301476573455
 10
77.91243153127806
 20
55.24014765734587
 10
77.91243153127806
 20
54.62014765734578
 10
77.91243153127806
 20
54.62014765734578
  0
HATCH
  5
175
330
16E
100
AcDbEntity
  8
CAPA_BASE
 62
    18
420
        0
440
 33554687
100
AcDbHatch
 10
0.0
 20
0.0
 30
0.0
210
0.0
220
0.0
230
1.0
  2
SOLID
 70
     1
 71
     1
 91
        1
 92
        1
 93
        3
 72
     1
 10
80.41243153127782
 20
54.9301476573455
 11
77.91243153127806
 21
55.24014765734587
 72
     1
 10
77.91243153127806
 20
55.24014765734587
 11
77.91243153127806
 21
54.62014765734578
 72
     1
 10
77.91243153127806
 20
54.62014765734578
 11
80.41243153127782
 21
54.9301476573455
 97
        1
330
174
 75
     2
 76
     1
 98
        1
 10
0.0
 20
0.0
450
        0
451
        0
460
0.0
461
0.0
452
        0
462
0.0
453
        0
470

  0
LINE
  5
176
330
16E
100
AcDbEntity
  8
CAPA_BASE
 62
    18
420
        0
370
    25
100
AcDbLine
 10
25.4124315312778
 20
85.58333331054528
 30
0.0
 11
25.4124315312778
 21
53.93014765734547
 31
0.0
  0
LINE
  5
177
330
16E
100
AcDbEntity
  8
CAPA_BASE
 62
    18
420
        0
370
    25
100
AcDbLine
 10
80.41243153127782
 20
85.58333331054528
 30
0.0
 11
80.41243153127782
 21
53.93014765734547
 31
0.0
  0
LINE
  5
178
330
16E
100
AcDbEntity
  8
CAPA_BASE
 62
    18
420
        0
370
    25
100
AcDbLine
 10
25.4124315312778
 20
54.9301476573455
 30
0.0
 11
80.41243153127782
 21
54.9301476573455
 31
0.0
  0
MTEXT
  5
179
330
16E
100
AcDbEntity
  8
CAPA_BASE
100
AcDbMText
 10
48.58043262538744
 20
55.72389732663164
 30
0.0
 40
0.2
 41
0.0
 46
0.0
 71
     7
 72
     1
  1
\C18;\c0;\FArial Bold|b1|i0|c1;\H2.997200;\W0.700000;Ø
 73
     1
 44
1.0
  0
MTEXT
  5
17A
330
16E
100
AcDbEntity
  8
CAPA_BASE
100
AcDbMText
 10
51.95276661739647
 20
55.72389732663164
 30
0.0
 40
0.2
 41
0.0
 46
0.0
 71
     7
 72
     1
  1
\C18;\c0;\FArial Bold|b1|i0|c1;\H2.997200;\W0.700000;110
 73
     1
 44
1.0
  0
ENDBLK
  5
171
330
16E
100
AcDbEntity
  8
0
100
AcDbBlockEnd
  0
BLOCK
  5
17D
330
17B
100
AcDbEntity
  8
0
100
AcDbBlockBegin
  2
Block_1
 70
     0
 10
0.0
 20
0.0
 30
0.0
  3
Block_1
  1

  0
LWPOLYLINE
  5
17F
330
17B
100
AcDbEntity
  8
CAPA_BASE
100
AcDbPolyline
 90
        4
 70
     1
 43
0.0
 10
90.41243153127817
 20
21.90771118774539
 10
90.10243153127781
 20
19.40771118774562
 10
90.72243153127789
 20
19.40771118774562
 10
90.72243153127789
 20
19.40771118774562
  0
HATCH
  5
180
330
17B
100
AcDbEntity
  8
CAPA_BASE
 62
    18
420
        0
440
 33554687
100
AcDbHatch
 10
0.0
 20
0.0
 30
0.0
210
0.0
220
0.0
230
1.0
  2
SOLID
 70
     1
 71
     1
 91
        1
 92
        1
 93
        3
 72
     1
 10
90.41243153127817
 20
21.90771118774539
 11
90.10243153127781
 21
19.40771118774562
 72
     1
 10
90.10243153127781
 20
19.40771118774562
 11
90.72243153127789
 21
19.40771118774562
 72
     1
 10
90.72243153127789
 20
19.40771118774562
 11
90.41243153127817
 21
21.90771118774539
 97
        1
330
17F
 75
     2
 76
     1
 98
        1
 10
0.0
 20
0.0
450
        0
451
        0
460
0.0
461
0.0
452
        0
462
0.0
453
        0
470

  0
LWPOLYLINE
  5
181
330
17B
100
AcDbEntity
  8
CAPA_BASE
100
AcDbPolyline
 90
        4
 70
     1
 43
0.0
 10
90.41243153127817
 20
-41.09228881225426
 10
90.72243153127789
 20
-38.5922888122545
 10
90.10243153127781
 20
-38.5922888122545
 10
90.10243153127781
 20
-38.5922888122545
  0
HATCH
  5
182
330
17B
100
AcDbEntity
  8
CAPA_BASE
 62
    18
420
        0
440
 33554687
100
AcDbHatch
 10
0.0
 20
0.0
 30
0.0
210
0.0
220
0.0
230
1.0
  2
SOLID
 70
     1
 71
     1
 91
        1
 92
        1
 93
        3
 72
     1
 10
90.41243153127817
 20
-41.09228881225426
 11
90.72243153127789
 21
-38.5922888122545
 72
     1
 10
90.72243153127789
 20
-38.5922888122545
 11
90.10243153127781
 21
-38.5922888122545
 72
     1
 10
90.10243153127781
 20
-38.5922888122545
 11
90.41243153127817
 21
-41.09228881225426
 97
        1
330
181
 75
     2
 76
     1
 98
        1
 10
0.0
 20
0.0
450
        0
451
        0
460
0.0
461
0.0
452
        0
462
0.0
453
        0
470

  0
LINE
  5
183
330
17B
100
AcDbEntity
  8
CAPA_BASE
 62
    18
420
        0
370
    25
100
AcDbLine
 10
66.41243153127797
 20
21.90771118774539
 30
0.0
 11
91.41243153127756
 21
21.90771118774539
 31
0.0
  0
LINE
  5
184
330
17B
100
AcDbEntity
  8
CAPA_BASE
 62
    18
420
        0
370
    25
100
AcDbLine
 10
53.91243153127785
 20
-41.09228881225426
 30
0.0
 11
91.41243153127756
 21
-41.09228881225426
 31
0.0
  0
LINE
  5
185
330
17B
100
AcDbEntity
  8
CAPA_BASE
 62
    18
420
        0
370
    25
100
AcDbLine
 10
90.41243153127817
 20
21.90771118774539
 30
0.0
 11
90.41243153127817
 21
-41.09228881225426
 31
0.0
  0
MTEXT
  5
186
330
17B
100
AcDbEntity
  8
CAPA_BASE
100
AcDbMText
 10
89.61868457673062
 20
-12.23766818270511
 30
0.0
 40
0.2
 41
0.0
 46
0.0
 71
     7
 72
     1
  1
\C18;\c0;\FArial Bold|b1|i0|c1;\H2.997200;\W0.700000;126
 11
0.0000000000000003
 21
1.0
 31
0.0
 73
     1
 44
1.0
  0
ENDBLK
  5
17E
330
17B
100
AcDbEntity
  8
0
100
AcDbBlockEnd
  0
BLOCK
  5
189
330
187
100
AcDbEntity
  8
0
100
AcDbBlockBegin
  2
Block_2
 70
     0
 10
0.0
 20
0.0
 30
0.0
  3
Block_2
  1

  0
LWPOLYLINE
  5
18B
330
187
100
AcDbEntity
  8
CAPA_BASE
100
AcDbPolyline
 90
        4
 70
     1
 43
0.0
 10
114.871851174178
 20
89.95833331054601
 10
114.5618511741776
 20
87.4583333105456
 10
115.1818511741777
 20
87.4583333105456
 10
115.1818511741777
 20
87.4583333105456
  0
HATCH
  5
18C
330
187
100
AcDbEntity
  8
CAPA_BASE
 62
    18
420
        0
440
 33554687
100
AcDbHatch
 10
0.0
 20
0.0
 30
0.0
210
0.0
220
0.0
230
1.0
  2
SOLID
 70
     1
 71
     1
 91
        1
 92
        1
 93
        3
 72
     1
 10
114.871851174178
 20
89.95833331054601
 11
114.5618511741776
 21
87.4583333105456
 72
     1
 10
114.5618511741776
 20
87.4583333105456
 11
115.1818511741777
 21
87.4583333105456
 72
     1
 10
115.1818511741777
 20
87.4583333105456
 11
114.871851174178
 21
89.95833331054601
 97
        1
330
18B
 75
     2
 76
     1
 98
        1
 10
0.0
 20
0.0
450
        0
451
        0
460
0.0
461
0.0
452
        0
462
0.0
453
        0
470

  0
LWPOLYLINE
  5
18D
330
187
100
AcDbEntity
  8
CAPA_BASE
100
AcDbPolyline
 90
        4
 70
     1
 43
0.0
 10
114.871851174178
 20
64.95833331054576
 10
115.1818511741777
 20
67.45833331054552
 10
114.5618511741776
 20
67.45833331054552
 10
114.5618511741776
 20
67.45833331054552
  0
HATCH
  5
18E
330
187
100
AcDbEntity
  8
CAPA_BASE
 62
    18
420
        0
440
 33554687
100
AcDbHatch
 10
0.0
 20
0.0
 30
0.0
210
0.0
220
0.0
230
1.0
  2
SOLID
 70
     1
 71
     1
 91
        1
 92
        1
 93
        3
 72
     1
 10
114.871851174178
 20
64.95833331054576
 11
115.1818511741777
 21
67.45833331054552
 72
     1
 10
115.1818511741777
 20
67.45833331054552
 11
114.5618511741776
 21
67.45833331054552
 72
     1
 10
114.5618511741776
 20
67.45833331054552
 11
114.871851174178
 21
64.95833331054576
 97
        1
330
18D
 75
     2
 76
     1
 98
        1
 10
0.0
 20
0.0
450
        0
451
        0
460
0.0
461
0.0
452
        0
462
0.0
453
        0
470

  0
LINE
  5
18F
330
187
100
AcDbEntity
  8
CAPA_BASE
 62
    18
420
        0
370
    25
100
AcDbLine
 10
123.8718511741776
 20
89.95833331054601
 30
0.0
 11
113.8718511741779
 21
89.95833331054601
 31
0.0
  0
LINE
  5
190
330
187
100
AcDbEntity
  8
CAPA_BASE
 62
    18
420
        0
370
    25
100
AcDbLine
 10
123.8718511741776
 20
64.95833331054576
 30
0.0
 11
113.8718511741779
 21
64.95833331054576
 31
0.0
  0
LINE
  5
191
330
187
100
AcDbEntity
  8
CAPA_BASE
 62
    18
420
        0
370
    25
100
AcDbLine
 10
114.871851174178
 20
89.95833331054601
 30
0.0
 11
114.871851174178
 21
64.95833331054576
 31
0.0
  0
MTEXT
  5
192
330
187
100
AcDbEntity
  8
CAPA_BASE
100
AcDbMText
 10
114.0781008329245
 20
75.69425996371468
 30
0.0
 40
0.2
 41
0.0
 46
0.0
 71
     7
 72
     1
  1
\C18;\c0;\FArial Bold|b1|i0|c1;\H2.997200;\W0.700000;50
 11
0.0000000000000003
 21
1.0
 31
0.0
 73
     1
 44
1.0
  0
ENDBLK
  5
18A
330
187
100
AcDbEntity
  8
0
100
AcDbBlockEnd
  0
ENDSEC
  0
SECTION
  2
ENTITIES
  0
SPLINE
  5
78
330
70
100
AcDbEntity
  8
0
 62
    18
420
        0
370
    25
100
AcDbSpline
210
0.0
220
0.0
230
1.0
 70
     8
 71
     3
 72
     8
 73
     4
 74
     0
 42
0.0000000001
 43
0.0000000001
 40
0.0
 40
0.0
 40
0.0
 40
0.0
 40
1.0
 40
1.0
 40
1.0
 40
1.0
 10
179.9582647398616
 20
-15.79758273178042
 30
0.0
 10
180.1103974955426
 20
-15.8782419216089
 30
0.0
 10
180.2933294162629
 20
-15.87494464250741
 30
0.0
 10
180.4424565933373
 20
-15.78885535564445
 30
0.0
  0
SPLINE
  5
79
330
70
100
AcDbEntity
  8
0
 62
    18
420
        0
370
    25
100
AcDbSpline
210
0.0
220
0.0
230
1.0
 70
     8
 71
     3
 72
     8
 73
     4
 74
     0
 42
0.0000000001
 43
0.0000000001
 40
0.0
 40
0.0
 40
0.0
 40
0.0
 40
1.0
 40
1.0
 40
1.0
 40
1.0
 10
162.9719344785194
 20
14.47107033383631
 30
0.0
 10
162.8172734933885
 20
14.38178644758155
 30
0.0
 10
162.7219730639761
 20
14.21679301869276
 30
0.0
 10
162.7219141888503
 20
14.03821074297641
 30
0.0
  0
LINE
  5
7A
330
70
100
AcDbEntity
  8
0
 62
    18
420
        0
370
    25
100
AcDbLine
 10
179.9546583112781
 20
-15.79361449135413
 30
0.0
 11
179.9599367188779
 21
-15.79644577665432
 31
0.0
  0
LINE
  5
7B
330
70
100
AcDbEntity
  8
0
 62
    18
420
        0
370
    25
100
AcDbLine
 10
175.1407641534778
 20
-13.0167742551542
 30
0.0
 11
179.9487293505782
 21
-15.79139718595429
 31
0.0
  0
LWPOLYLINE
  5
7C
330
70
100
AcDbEntity
  8
0
 62
    18
420
        0
370
    25
100
AcDbPolyline
 90
        3
 70
     0
 43
0.0
 10
162.7219518074779
 20
14.03822267694542
 10
162.7205880377777
 20
9.451193393545972
 10
162.721003944578
 20
6.663999032645812
  0
LINE
  5
7D
330
70
100
AcDbEntity
  8
0
 62
    18
420
        0
370
    25
100
AcDbLine
 10
180.4424565932776
 20
-15.78885535565408
 30
0.0
 11
182.026839425378
 21
-14.87421061545402
 31
0.0
  0
LINE
  5
7E
330
70
100
AcDbEntity
  8
0
 62
    18
420
        0
370
    25
100
AcDbLine
 10
164.556317310578
 20
15.38571507404535
 30
0.0
 11
162.9719344784777
 21
14.47107033384593
 31
0.0
  0
LINE
  5
7F
330
70
100
AcDbEntity
  8
0
 62
    18
420
        0
370
    25
100
AcDbLine
 10
120.7064749208782
 20
-7.345746207554237
 30
0.0
 11
120.9563186727777
 21
-11.42334854545402
 31
0.0
  0
LINE
  5
80
330
70
100
AcDbEntity
  8
0
 62
    18
420
        0
370
    25
100
AcDbLine
 10
175.4222565989779
 20
-11.42334854545402
 30
0.0
 11
175.6721003508781
 21
-7.345746207554237
 31
0.0
  0
LWPOLYLINE
  5
81
330
70
100
AcDbEntity
  8
0
 62
    18
420
        0
370
    25
100
AcDbPolyline
 90
       32
 70
     0
 43
0.0
 10
132.853884243178
 20
-23.86772450865441
 10
133.1888811673777
 20
-24.13493380685428
 10
133.9751064991776
 20
-24.68365012195443
 10
134.7840688058777
 20
-25.18054502445413
 10
135.2504786022779
 20
-25.44077803805424
 10
136.1763621786776
 20
-25.90861378295441
 10
137.1518813678777
 20
-26.34054392965452
 10
138.1728966160777
 20
-26.73482508965446
 10
139.2351636972779
 20
-27.08990279285433
 10
140.3342837668781
 20
-27.40437964805421
 10
141.4657174847779
 20
-27.67701863185424
 10
142.6248004366777
 20
-27.90674696765416
 10
143.8067598126778
 20
-28.09266011275456
 10
145.0067322070778
 20
-28.23402550245464
 10
146.2197823533782
 20
-28.33028579565422
 10
147.4409225931776
 20
-28.38106145095457
 10
148.6651328823777
 20
-28.38615251575444
 10
149.8873811421779
 20
-28.34553955595459
 10
151.1026323658779
 20
-28.25938470845454
 10
152.3058909656779
 20
-28.12803018005425
 10
153.492212465678
 20
-27.95199592465442
 10
154.6567220163778
 20
-27.73197689285419
 10
155.7946338090776
 20
-27.4688393798545
 10
156.9012697304778
 20
-27.16361656165457
 10
157.9720770322778
 20
-26.8175033415541
 10
159.0026447719776
 20
-26.4318506963541
 10
159.9887187772781
 20
-26.00815982405401
 10
160.9262149147782
 20
-25.5480765436543
 10
161.8112305286778
 20
-25.0533866032546
 10
162.6400541272781
 20
-24.52601279155459
 10
163.4091737964776
 20
-23.9680149871544
 10
163.5396812002779
 20
-23.8596299151542
  0
SPLINE
  5
82
330
70
100
AcDbEntity
  8
0
 62
    18
420
        0
370
    25
100
AcDbSpline
210
0.0
220
0.0
230
1.0
 70
     8
 71
     3
 72
     8
 73
     4
 74
     0
 42
0.0000000001
 43
0.0000000001
 40
0.0
 40
0.0
 40
0.0
 40
0.0
 40
1.0
 40
1.0
 40
1.0
 40
1.0
 10
180.5460303006104
 20
4.037046532752972
 30
0.0
 10
180.5346791661862
 20
4.28649159148545
 30
0.0
 10
180.4028271008737
 20
4.514866067043069
 30
0.0
 10
180.1924769100453
 20
4.64941896666767
 30
0.0
  0
SPLINE
  5
83
330
70
100
AcDbEntity
  8
0
 62
    18
420
        0
370
    25
100
AcDbSpline
210
0.0
220
0.0
230
1.0
 70
     8
 71
     3
 72
     8
 73
     4
 74
     0
 42
0.0000000001
 43
0.0000000001
 40
0.0
 40
0.0
 40
0.0
 40
0.0
 40
1.0
 40
1.0
 40
1.0
 40
1.0
 10
179.8393773371186
 20
4.054500236375742
 30
0.0
 10
180.0593895468039
 20
3.939077933033054
 30
0.0
 10
180.3205881809471
 20
3.932626557630219
 30
0.0
 10
180.5460303006027
 20
4.037046532752972
 30
0.0
  0
SPLINE
  5
84
330
70
100
AcDbEntity
  8
0
 62
    18
420
        0
370
    25
100
AcDbSpline
210
0.0
220
0.0
230
1.0
 70
     8
 71
     3
 72
     8
 73
     4
 74
     0
 42
0.0000000001
 43
0.0000000001
 40
0.0
 40
0.0
 40
0.0
 40
0.0
 40
1.0
 40
1.0
 40
1.0
 40
1.0
 10
180.1924769099644
 20
4.649418966616334
 30
0.0
 10
179.9876775822856
 20
4.517764341893951
 30
0.0
 10
179.8568491942917
 20
4.297338534442306
 30
0.0
 10
179.839377337046
 20
4.054500236324406
 30
0.0
  0
LWPOLYLINE
  5
85
330
70
100
AcDbEntity
  8
0
 62
    18
420
        0
370
    25
100
AcDbPolyline
 90
        4
 70
     0
 43
0.0
 10
180.5460303005777
 20
4.037046532745913
 10
180.5443215524779
 20
-2.457955751954104
 10
180.5443072203782
 20
-8.951979515754141
 10
180.5460303007779
 20
-15.55993295245424
  0
SPLINE
  5
86
330
70
100
AcDbEntity
  8
0
 62
    18
420
        0
370
    25
100
AcDbSpline
210
0.0
220
0.0
230
1.0
 70
     8
 71
     3
 72
     8
 73
     4
 74
     0
 42
0.0000000001
 43
0.0000000001
 40
0.0
 40
0.0
 40
0.0
 40
0.0
 40
1.0
 40
1.0
 40
1.0
 40
1.0
 10
179.8542649820364
 20
-15.56857604351653
 30
0.0
 10
180.0733400194347
 20
-15.67482952082382
 30
0.0
 10
180.3296783519401
 20
-15.67162676476858
 30
0.0
 10
180.5460303006964
 20
-15.55993295240483
 30
0.0
  0
LWPOLYLINE
  5
87
330
70
100
AcDbEntity
  8
0
 62
    18
420
        0
370
    25
100
AcDbPolyline
 90
        7
 70
     0
 43
0.0
 10
179.8542649820781
 20
-15.56857604355439
 10
179.8542926355777
 20
-14.75234340265411
 10
179.8544028956776
 20
-11.48727644935459
 10
179.8545090548777
 20
-4.955847908354556
 10
179.8544708407778
 20
-2.467377364954311
 10
179.8542649737777
 20
4.028714093045629
 10
179.8542646903777
 20
4.037304251945569
  0
SPLINE
  5
88
330
70
100
AcDbEntity
  8
0
 62
    18
420
        0
370
    25
100
AcDbSpline
210
0.0
220
0.0
230
1.0
 70
     8
 71
     3
 72
     8
 73
     4
 74
     0
 42
0.0000000001
 43
0.0000000001
 40
0.0
 40
0.0
 40
0.0
 40
0.0
 40
1.0
 40
1.0
 40
1.0
 40
1.0
 10
179.8542646904438
 20
4.037304251911559
 30
0.0
 10
180.071604211283
 20
3.926849548717231
 30
0.0
 10
180.3286085396749
 20
3.92675380102687
 30
0.0
 10
180.5460303005963
 20
4.037046532673401
 30
0.0
  0
SPLINE
  5
89
330
70
100
AcDbEntity
  8
0
 62
    18
420
        0
370
    25
100
AcDbSpline
210
0.0
220
0.0
230
1.0
 70
     8
 71
     3
 72
     8
 73
     4
 74
     0
 42
0.0000000001
 43
0.0000000001
 40
0.0
 40
0.0
 40
0.0
 40
0.0
 40
1.0
 40
1.0
 40
1.0
 40
1.0
 10
179.8542646904124
 20
4.037304251968671
 30
0.0
 10
179.8494156390138
 20
4.04002445832194
 30
0.0
 10
179.8434698962176
 20
4.03988756322717
 30
0.0
 10
179.8387511771095
 20
4.036947068021566
 30
0.0
  0
LWPOLYLINE
  5
8A
330
70
100
AcDbEntity
  8
0
 62
    18
420
        0
370
    25
100
AcDbPolyline
 90
        5
 70
     0
 43
0.0
 10
179.8387511770781
 20
4.036947068045951
 10
179.8387520678776
 20
4.036972066245707
 10
179.839064518778
 20
4.045736054945817
 10
179.8392208819776
 20
4.050118121545408
 10
179.8393773370781
 20
4.054500236345582
  0
LWPOLYLINE
  5
8B
330
70
100
AcDbEntity
  8
0
 62
    18
420
        0
370
    25
100
AcDbPolyline
 90
        3
 70
     0
 43
0.0
 10
173.167842036878
 20
0.1829883862456937
 10
175.865544490278
 20
1.74254283594579
 10
179.8387511770781
 20
4.036947068045951
  0
LWPOLYLINE
  5
8C
330
70
100
AcDbEntity
  8
0
 62
    18
420
        0
370
    25
100
AcDbPolyline
 90
        5
 70
     0
 43
0.0
 10
179.8387511770781
 20
-15.56035688415408
 10
179.8387732704776
 20
-15.56036859025447
 10
179.8465189509782
 20
-15.56447242625412
 10
179.8503919226776
 20
-15.56652426225411
 10
179.8542649820781
 20
-15.56857604355439
  0
LWPOLYLINE
  5
8D
330
70
100
AcDbEntity
  8
0
 62
    18
420
        0
370
    25
100
AcDbPolyline
 90
        3
 70
     0
 43
0.0
 10
175.5991129145777
 20
-8.536945662254527
 10
176.3389879365777
 20
-9.775096121354543
 10
179.8387511770781
 20
-15.56035688415408
  0
LWPOLYLINE
  5
8E
330
70
100
AcDbEntity
  8
0
 62
    18
420
        0
370
    25
100
AcDbPolyline
 90
        5
 70
     0
 43
0.0
 10
179.8393773370781
 20
4.054500236345582
 10
179.1320173800782
 20
4.46288213784592
 10
176.3026939592777
 20
6.096343608545587
 10
173.8272145875777
 20
7.525497160545497
 10
171.3520748913777
 20
8.9544008275458
  0
SPLINE
  5
8F
330
70
100
AcDbEntity
  8
0
 62
    18
420
        0
370
    25
100
AcDbSpline
210
0.0
220
0.0
230
1.0
 70
     8
 71
     3
 72
     8
 73
     4
 74
     0
 42
0.0000000001
 43
0.0000000001
 40
0.0
 40
0.0
 40
0.0
 40
0.0
 40
1.0
 40
1.0
 40
1.0
 40
1.0
 10
171.7052118244704
 20
9.546722465423066
 30
0.0
 10
171.5011343402531
 20
9.415576855661811
 30
0.0
 10
171.3703982805644
 20
9.196291389479426
 30
0.0
 10
171.3520748913809
 20
8.954400827586226
 30
0.0
  0
LWPOLYLINE
  5
90
330
70
100
AcDbEntity
  8
0
 62
    18
420
        0
370
    25
100
AcDbPolyline
 90
        4
 70
     0
 43
0.0
 10
171.7052118244781
 20
9.546722465345419
 10
175.7324166859779
 20
7.222478633546017
 10
177.962372352178
 20
5.935905794645861
 10
180.1924769099779
 20
4.649418966645852
  0
SPLINE
  5
91
330
70
100
AcDbEntity
  8
0
 62
    18
420
        0
370
    25
100
AcDbSpline
210
0.0
220
0.0
230
1.0
 70
     8
 71
     3
 72
     8
 73
     4
 74
     0
 42
0.0000000001
 43
0.0000000001
 40
0.0
 40
0.0
 40
0.0
 40
0.0
 40
1.0
 40
1.0
 40
1.0
 40
1.0
 10
182.1304131328615
 20
4.951691272976773
 30
0.0
 10
182.1190619983995
 20
5.20113633170091
 30
0.0
 10
181.9872099330831
 20
5.429510807241844
 30
0.0
 10
181.7768597422682
 20
5.564063706874787
 30
0.0
  0
LINE
  5
92
330
70
100
AcDbEntity
  8
0
 62
    18
420
        0
370
    25
100
AcDbLine
 10
182.1304131328776
 20
4.951691273045435
 30
0.0
 11
180.5460303005777
 21
4.037046532745913
 31
0.0
  0
LINE
  5
93
330
70
100
AcDbEntity
  8
0
 62
    18
420
        0
370
    25
100
AcDbLine
 10
180.1924769099779
 20
4.649418966645852
 30
0.0
 11
181.7768597422778
 21
5.564063706946016
 31
0.0
  0
LWPOLYLINE
  5
94
330
70
100
AcDbEntity
  8
0
 62
    18
420
        0
370
    25
100
AcDbPolyline
 90
        6
 70
     0
 43
0.0
 10
168.3033206277777
 20
4.026948814045477
 10
167.8053399123776
 20
4.91046711764593
 10
167.0856400882777
 20
6.19374552754575
 10
166.3681385944779
 20
7.479282196845582
 10
165.6531650488779
 20
8.766163071445562
 10
162.8679074472779
 20
13.83400661694595
  0
LWPOLYLINE
  5
95
330
70
100
AcDbEntity
  8
0
 62
    18
420
        0
370
    25
100
AcDbPolyline
 90
        5
 70
     0
 43
0.0
 10
171.3512491319778
 20
8.934275979945519
 10
173.561134780878
 20
7.658740460745582
 10
175.7713294258781
 20
6.383383377645688
 10
177.8049796515776
 20
5.21013019294573
 10
179.8387511736777
 20
4.03694706994538
  0
LWPOLYLINE
  5
96
330
70
100
AcDbEntity
  8
0
 62
    18
420
        0
370
    25
100
AcDbPolyline
 90
        3
 70
     0
 43
0.0
 10
171.3512491319778
 20
8.934275979945519
 10
171.351711355178
 20
8.945545789245757
 10
171.3520748913777
 20
8.9544008275458
  0
LINE
  5
97
330
70
100
AcDbEntity
  8
0
 62
    18
420
        0
370
    25
100
AcDbLine
 10
182.1304131328776
 20
-14.64528821225419
 30
0.0
 11
182.1304131328776
 21
4.951691273045435
 31
0.0
  0
LINE
  5
98
330
70
100
AcDbEntity
  8
0
 62
    18
420
        0
370
    25
100
AcDbLine
 10
180.5460303007779
 20
-15.55993295245424
 30
0.0
 11
182.1304131328776
 21
-14.64528821225419
 31
0.0
  0
LINE
  5
99
330
70
100
AcDbEntity
  8
0
 62
    18
420
        0
370
    25
100
AcDbLine
 10
181.7768597422778
 20
5.564063706946016
 30
0.0
 11
164.8062969937776
 21
15.3609610487459
 31
0.0
  0
LWPOLYLINE
  5
9A
330
70
100
AcDbEntity
  8
0
 62
    18
420
        0
370
    25
100
AcDbPolyline
 90
        4
 70
     0
 43
0.0
 10
163.2219141615778
 20
14.44631630854584
 10
167.2472323168781
 20
12.12099917584595
 10
169.4760726395781
 20
10.83377458204542
 10
171.7052118244781
 20
9.546722465345419
  0
LINE
  5
9B
330
70
100
AcDbEntity
  8
0
 62
    18
420
        0
370
    25
100
AcDbLine
 10
164.8062969937776
 20
15.3609610487459
 30
0.0
 11
163.2219141615778
 21
14.44631630854584
 31
0.0
  0
LWPOLYLINE
  5
9C
330
70
100
AcDbEntity
  8
0
 62
    18
420
        0
370
    25
100
AcDbPolyline
 90
        6
 70
     0
 43
0.0
 10
171.3520748913777
 20
8.9544008275458
 10
170.644984945078
 20
9.362592040645594
 10
167.8169342119778
 20
10.99512446264597
 10
165.3426457037779
 20
12.42339784364587
 10
162.8685455695779
 20
13.85155287954554
 10
162.861112227178
 20
13.85584372824551
  0
SPLINE
  5
9D
330
70
100
AcDbEntity
  8
0
 62
    18
420
        0
370
    25
100
AcDbSpline
210
0.0
220
0.0
230
1.0
 70
     8
 71
     3
 72
     8
 73
     4
 74
     0
 42
0.0000000001
 43
0.0000000001
 40
0.0
 40
0.0
 40
0.0
 40
0.0
 40
1.0
 40
1.0
 40
1.0
 40
1.0
 10
163.2219141615675
 20
14.44631630853878
 30
0.0
 10
163.0125453739741
 20
14.32011334669809
 30
0.0
 10
162.8778833619573
 20
14.09973141933071
 30
0.0
 10
162.8611122271922
 20
13.8558437283039
 30
0.0
  0
SPLINE
  5
9E
330
70
100
AcDbEntity
  8
0
 62
    18
420
        0
370
    25
100
AcDbSpline
210
0.0
220
0.0
230
1.0
 70
     8
 71
     3
 72
     8
 73
     4
 74
     0
 42
0.0000000001
 43
0.0000000001
 40
0.0
 40
0.0
 40
0.0
 40
0.0
 40
1.0
 40
1.0
 40
1.0
 40
1.0
 10
162.8611122271299
 20
13.85584372827695
 30
0.0
 10
162.8615410489345
 20
13.84811555670407
 30
0.0
 10
162.863875497445
 20
13.84061357576532
 30
0.0
 10
162.8679074472721
 20
13.8340066169652
 30
0.0
  0
LWPOLYLINE
  5
9F
330
70
100
AcDbEntity
  8
0
 62
    18
420
        0
370
    25
100
AcDbPolyline
 90
        5
 70
     0
 43
0.0
 10
162.8679074472779
 20
13.83400661694595
 10
165.0767846167781
 20
12.55788909094565
 10
167.2858121709778
 20
11.28185832324584
 10
169.3183971746779
 20
10.10799013734558
 10
171.3512491319778
 20
8.934275979945519
  0
LWPOLYLINE
  5
A0
330
70
100
AcDbEntity
  8
0
 62
    18
420
        0
370
    25
100
AcDbPolyline
 90
        5
 70
     0
 43
0.0
 10
162.8679074472779
 20
13.83400661694595
 10
162.8678871523779
 20
13.83401936134555
 10
162.8607723480778
 20
13.83848739434539
 10
162.8572150889779
 20
13.84072148734546
 10
162.8536579253776
 20
13.84295563144595
  0
SPLINE
  5
A1
330
70
100
AcDbEntity
  8
0
 62
    18
420
        0
370
    25
100
AcDbSpline
210
0.0
220
0.0
230
1.0
 70
     8
 71
     3
 72
     8
 73
     4
 74
     0
 42
0.0000000001
 43
0.0000000001
 40
0.0
 40
0.0
 40
0.0
 40
0.0
 40
1.0
 40
1.0
 40
1.0
 40
1.0
 10
179.8468160891428
 20
-15.5814610169442
 30
0.0
 10
179.8458032195819
 20
-15.57389544350679
 30
0.0
 10
179.843041954808
 20
-15.5666698099706
 30
0.0
 10
179.8387511771396
 20
-15.5603568840899
 30
0.0
  0
SPLINE
  5
A2
330
70
100
AcDbEntity
  8
0
 62
    18
420
        0
370
    25
100
AcDbSpline
210
0.0
220
0.0
230
1.0
 70
     8
 71
     3
 72
     8
 73
     4
 74
     0
 42
0.0000000001
 43
0.0000000001
 40
0.0
 40
0.0
 40
0.0
 40
0.0
 40
1.0
 40
1.0
 40
1.0
 40
1.0
 10
173.1663635878391
 20
0.1838418769602659
 30
0.0
 10
172.6983461086701
 20
1.051547348701284
 30
0.0
 10
172.0098411204004
 20
1.780531210884918
 30
0.0
 10
171.1702580376397
 20
2.297303301499586
 30
0.0
  0
LWPOLYLINE
  5
A3
330
70
100
AcDbEntity
  8
0
 62
    18
420
        0
370
    25
100
AcDbPolyline
 90
        3
 70
     0
 43
0.0
 10
171.170258023378
 20
2.297303082645561
 10
170.6712317395779
 20
2.532505065545459
 10
170.326722085478
 20
2.620582273845501
  0
SPLINE
  5
A4
330
70
100
AcDbEntity
  8
0
 62
    18
420
        0
370
    25
100
AcDbSpline
210
0.0
220
0.0
230
1.0
 70
     8
 71
     3
 72
     8
 73
     4
 74
     0
 42
0.0000000001
 43
0.0000000001
 40
0.0
 40
0.0
 40
0.0
 40
0.0
 40
1.0
 40
1.0
 40
1.0
 40
1.0
 10
163.2219141615752
 20
14.44631630850927
 30
0.0
 10
163.0050335993213
 20
14.32040575849965
 30
0.0
 10
162.8664869804284
 20
14.0934073438631
 30
0.0
 10
162.8536579254719
 20
13.84295563147931
 30
0.0
  0
SPLINE
  5
A5
330
70
100
AcDbEntity
  8
0
 62
    18
420
        0
370
    25
100
AcDbSpline
210
0.0
220
0.0
230
1.0
 70
     8
 71
     3
 72
     8
 73
     4
 74
     0
 42
0.0000000001
 43
0.0000000001
 40
0.0
 40
0.0
 40
0.0
 40
0.0
 40
1.0
 40
1.0
 40
1.0
 40
1.0
 10
179.854264982055
 20
-15.56857604357557
 30
0.0
 10
179.8431926492813
 20
-15.65838217843331
 30
0.0
 10
179.8833567387287
 20
-15.74682320281843
 30
0.0
 10
179.9582647398052
 20
-15.79758273183368
 30
0.0
  0
LWPOLYLINE
  5
A6
330
70
100
AcDbEntity
  8
0
 62
    18
420
        0
370
    25
100
AcDbPolyline
 90
        4
 70
     0
 43
0.0
 10
179.9563065977782
 20
-15.7901706639541
 10
179.9317135389776
 20
-15.78127852095424
 10
179.8711595345781
 20
-15.70081204895406
 10
179.8468160890779
 20
-15.58146101695447
  0
SPLINE
  5
A7
330
70
100
AcDbEntity
  8
0
 62
    18
420
        0
370
    25
100
AcDbSpline
210
0.0
220
0.0
230
1.0
 70
     8
 71
     3
 72
     8
 73
     4
 74
     0
 42
0.0000000001
 43
0.0000000001
 40
0.0
 40
0.0
 40
0.0
 40
0.0
 40
1.0
 40
1.0
 40
1.0
 40
1.0
 10
182.0268394254363
 20
-14.87421061550792
 30
0.0
 10
182.1017848605179
 20
-14.8235519656526
 30
0.0
 10
182.1418382954336
 20
-14.73502439619653
 30
0.0
 10
182.1304131328705
 20
-14.6452882122728
 30
0.0
  0
SPLINE
  5
A8
330
70
100
AcDbEntity
  8
0
 62
    18
420
        0
370
    25
100
AcDbSpline
210
0.0
220
0.0
230
1.0
 70
     8
 71
     3
 72
     8
 73
     4
 74
     0
 42
0.0000000001
 43
0.0000000001
 40
0.0
 40
0.0
 40
0.0
 40
0.0
 40
1.0
 40
1.0
 40
1.0
 40
1.0
 10
164.8062969938033
 20
15.36096104880494
 30
0.0
 10
164.7333533662321
 20
15.41321741236947
 30
0.0
 10
164.6380930773715
 20
15.42265048135247
 30
0.0
 10
164.5563173106441
 20
15.38571507405241
 30
0.0
  0
LWPOLYLINE
  5
A9
330
70
100
AcDbEntity
  8
0
 62
    18
420
        0
370
    25
100
AcDbPolyline
 90
      107
 70
     0
 43
0.0
 10
139.1850120389776
 20
-20.65642207975448
 10
137.819206720078
 20
-20.3248401963546
 10
136.4898266885777
 20
-19.94713163855422
 10
135.2015414403781
 20
-19.52462312135433
 10
133.9588761244779
 20
-19.05879872145459
 10
132.7661956478779
 20
-18.5512946639543
 10
131.6276893444779
 20
-18.00389357545434
 10
130.5473562589778
 20
-17.41851822225456
 10
129.5289911009781
 20
-16.79722475645416
 10
128.5761709150777
 20
-16.14219549425457
 10
127.6922425169777
 20
-15.45573124965422
 10
126.8803107374776
 20
-14.74024325345426
 10
126.1432275164777
 20
-13.99824468325408
 10
125.4835818855777
 20
-13.23234183605455
 10
124.903690874378
 20
-12.4452249737545
 10
124.4055913709777
 20
-11.6396588727546
 10
123.9910329681778
 20
-10.81847311365458
 10
123.6614718173777
 20
-9.98455214115417
 10
123.418065514278
 20
-9.140825133154381
 10
123.2616690322778
 20
-8.290255711554314
 10
123.1928317197777
 20
-7.435831532554123
 10
123.2117953703779
 20
-6.580553792054182
 10
123.3184933734778
 20
-5.727426684454047
 10
123.512550948478
 20
-4.879446849854006
 10
123.7932864611778
 20
-4.039592848254182
 10
124.1597138176777
 20
-3.210814697454464
 10
124.6105459285776
 20
-2.396023511054345
 10
125.1441992297779
 20
-1.598081272654038
 10
125.7587992443779
 20
-0.8197907836544162
 10
126.4521871675778
 20
-0.0638858176545357
 10
127.221927448978
 20
0.666978481545843
 10
128.0653163476777
 20
1.370234926445656
 10
128.9793914294781
 20
2.043413303145674
 10
129.960941972378
 20
2.68414904804548
 10
131.0065202441776
 20
3.290191553445906
 10
132.1124536131776
 20
3.859412072945587
 10
133.2748574479776
 20
4.389811198745973
 10
134.4896487627779
 20
4.879525884545504
 10
135.7525605587777
 20
5.326835989645455
 10
137.059156812278
 20
5.730170321045628
 10
138.4048480560781
 20
6.088112152045829
 10
139.784907500878
 20
6.399404199145546
 10
141.1944876373776
 20
6.66295303744541
 10
142.628637263978
 20
6.87783294214577
 10
144.0823188777778
 20
7.043289139745684
 10
145.550426369178
 20
7.158740459245593
 10
147.0278029569777
 20
7.223781373845651
 10
148.5092593021782
 20
7.238183424745628
 10
149.9895917351776
 20
7.201896024445585
 10
151.463600534278
 20
7.115046633545512
 10
152.9261081899778
 20
6.977940313845578
 10
154.3719775907777
 20
6.791058656145969
 10
155.796130067478
 20
6.555058089245427
 10
157.1935632328781
 20
6.270767573645388
 10
158.5593685516776
 20
5.939185690245499
 10
159.8887485831779
 20
5.561477132345661
 10
161.1770338313782
 20
5.138968615245878
 10
162.4196991473778
 20
4.673144215345494
 10
163.6123796238777
 20
4.165640157845849
 10
164.7508859272777
 20
3.618239069345881
 10
165.8312190127779
 20
3.032863716045362
 10
166.8495841707781
 20
2.411570250345707
 10
167.802404356678
 20
1.756540988145473
 10
168.686332754778
 20
1.070076743545767
 10
169.498264534278
 20
0.3545887473458032
 10
170.2353477553781
 20
-0.3874098228543756
 10
170.8949933861779
 20
-1.153312670054539
 10
171.4748843973776
 20
-1.94042953235459
 10
171.972983900778
 20
-2.745995633354493
 10
172.3875423035779
 20
-3.567181392454509
 10
172.7171034543779
 20
-4.401102364954286
 10
172.9605097574777
 20
-5.244829372954074
 10
173.1169062394778
 20
-6.095398794554141
 10
173.1857435519779
 20
-6.949822973554332
 10
173.1667799013778
 20
-7.805100714054272
 10
173.0600818982778
 20
-8.658227821654408
 10
172.8660243232777
 20
-9.506207656254449
 10
172.5852888106779
 20
-10.34606165785427
 10
172.2188614540779
 20
-11.17483980865399
 10
171.768029343178
 20
-11.98963099505411
 10
171.2343760420778
 20
-12.78757323345441
 10
170.6197760273777
 20
-13.56586372245404
 10
169.9263881041778
 20
-14.32176868845456
 10
169.1566478227776
 20
-15.0526329876543
 10
168.3132589240779
 20
-15.75588943255411
 10
167.3991838422781
 20
-16.42906780925413
 10
166.4176332993777
 20
-17.06980355415458
 10
165.372055027578
 20
-17.67584605955436
 10
164.266121658578
 20
-18.24506657905404
 10
163.103717823778
 20
-18.77546570485443
 10
161.8889265089778
 20
-19.2651803906546
 10
160.6260147129779
 20
-19.71249049575455
 10
159.3194184595777
 20
-20.11582482715409
 10
157.9737272156781
 20
-20.47376665815429
 10
156.5936677708776
 20
-20.785058705254
 10
155.1840876343781
 20
-21.04860754355451
 10
153.7499380077776
 20
-21.26348744825423
 10
152.2962563939778
 20
-21.42894364585414
 10
150.8281489025776
 20
-21.54439496545415
 10
149.3507723147779
 20
-21.60943587995411
 10
147.8693159695781
 20
-21.62383793095419
 10
146.3889835366781
 20
-21.58755053055404
 10
144.9149747374777
 20
-21.50070113965461
 10
143.4524670817778
 20
-21.36359481995404
 10
142.0065976809779
 20
-21.17671316225443
 10
140.5824452042776
 20
-20.94071259535453
 10
139.1850120389776
 20
-20.65642207975448
  0
LWPOLYLINE
  5
AA
330
70
100
AcDbEntity
  8
0
 62
    18
420
        0
370
    25
100
AcDbPolyline
 90
      112
 70
     0
 43
0.0
 10
138.2845844792779
 20
-21.59451115655438
 10
136.8490509385781
 20
-21.24730237785454
 10
135.449843594878
 20
-20.85376506505423
 10
134.0914445310779
 20
-20.41515983685457
 10
132.7782051088776
 20
-19.93289167795422
 10
131.5143320301778
 20
-19.40850543865425
 10
130.3038738612776
 20
-18.84368088625415
 10
129.1507080646776
 20
-18.24022732405443
 10
128.0585285780779
 20
-17.60007779565405
 10
127.0308339817779
 20
-16.92528289315407
 10
126.0709162911777
 20
-16.2180041878542
 10
125.1818504121778
 20
-15.48050730675459
 10
124.3664842907779
 20
-14.71515467475425
 10
123.6274297904776
 20
-13.9243979470545
 10
122.9670543256778
 20
-13.11077015585424
 10
122.387473278078
 20
-12.27687759615417
 10
121.8905432203781
 20
-11.42539147735429
 10
121.4778559694781
 20
-10.55903936605415
 10
121.150733487078
 20
-9.680596449454506
 10
120.9102236450777
 20
-8.792876644854585
 10
120.7570968689777
 20
-7.898723586454519
 10
120.6918436700778
 20
-7.001001516154506
 10
120.7146730739781
 20
-6.102586108254455
 10
120.8255119511781
 20
-5.206355258254435
 10
121.0240052513782
 20
-4.315179863754512
 10
121.3095171407778
 20
-3.431914628254266
 10
121.6811330386778
 20
-2.559388916454435
 10
122.1376625472782
 20
-1.700397691254535
 10
122.6776432649778
 20
-0.8576925606542825
 10
123.2993454706781
 20
-0.0339729631542068
 10
124.0007776648781
 20
0.7681224790458642
 10
124.779692948778
 20
1.546024412345482
 10
125.6335962217777
 20
2.297240982545721
 10
126.5597521744781
 20
3.019365816245998
 10
127.5551940498779
 20
3.710085730045644
 10
128.616733147878
 20
4.3671881398455
 10
129.7409690383778
 20
4.988568148345785
 10
130.9243004551776
 20
5.572235288345588
 10
132.1629368308776
 20
6.116319897745611
 10
133.4529104396779
 20
6.619079109645706
 10
134.7900891072779
 20
7.078902434745996
 10
136.1701894473779
 20
7.49431692034598
 10
137.5887905823776
 20
7.863991868445697
 10
139.0413483052782
 20
8.186743098845713
 10
140.5232096356781
 20
8.461536742045963
 10
142.0296277250779
 20
8.687492551245728
 10
143.5557770621776
 20
8.863886721645801
 10
145.0967689304778
 20
8.990154209745803
 10
146.6476670685779
 20
9.065890542645441
 10
148.203503482078
 20
9.090853114045545
 10
149.759294357878
 20
9.064961961345618
 10
151.310056028878
 20
8.988300021545697
 10
152.8508209379779
 20
8.861112866145729
 10
154.3766535504782
 20
8.683807913845665
 10
155.8826661645777
 20
8.456953125945632
 10
157.3640345679781
 20
8.181275186545871
 10
158.8160134908781
 20
7.857657175445682
 10
160.2339518072781
 20
7.487135738545862
 10
161.6133074331776
 20
7.070897767645884
 10
162.9496618765779
 20
6.610276598545865
 10
164.238734391378
 20
6.106747739745667
 10
165.4763956897776
 20
5.561924145945821
 10
166.6586811694777
 20
4.977551051445559
 10
167.7818036135778
 20
4.355500379245619
 10
168.8421653222779
 20
3.697764745345446
 10
169.8363696375782
 20
3.006451075245648
 10
170.7612318229779
 20
2.283773854945726
 10
171.613789266378
 20
1.532048037645883
 10
172.3913109691776
 20
0.7536816275458797
 10
173.0913062948778
 20
-0.0488320329545376
 10
173.7115329474776
 20
-0.8729222506542734
 10
174.2500041539776
 20
-1.715949216254553
 10
174.7049950288776
 20
-2.575212460054119
 10
175.0750480991778
 20
-3.447959502954506
 10
175.358977973278
 20
-4.331394673154586
 10
175.5558751381778
 20
-5.222688061254452
 10
175.6651088730782
 20
-6.118984585954214
 10
175.6863292691781
 20
-7.017413139354268
 10
175.619468351378
 20
-7.915095783754495
 10
175.464740295078
 20
-8.809156971154189
 10
175.2226407411778
 20
-9.696732753954302
 10
174.8939452072778
 20
-10.57497995935427
 10
174.4797066044776
 20
-11.44108529685431
 10
173.981251863678
 20
-12.29227436995457
 10
173.4001776859779
 20
-13.12582056325434
 10
172.7383454268778
 20
-13.93905377725422
 10
171.9978751347776
 20
-14.72936898065403
 10
171.1811387591778
 20
-15.49423455555439
 10
170.2907525529776
 20
-16.23120040705419
 10
169.3295686916777
 20
-16.9379058113543
 10
168.3006661367778
 20
-17.61208697785411
 10
167.2073407735776
 20
-18.25158430115412
 10
166.0530948525781
 20
-18.85434927855421
 10
164.8416257716777
 20
-19.41845107195448
 10
163.5768142313777
 20
-19.94208269335462
 10
162.2627118044781
 20
-20.42356679285412
 10
160.9035279571776
 20
-20.86136103165415
 10
159.503616565078
 20
-21.25406302285461
 10
158.0674619663776
 20
-21.60041482355405
 10
156.5996645973779
 20
-21.89930696455403
 10
155.1049262553779
 20
-22.14978200415457
 10
153.588035038078
 20
-22.35103759545429
 10
152.0538500051776
 20
-22.502429055854
 10
150.5072856138781
 20
-22.60347143315426
 10
148.953295976378
 20
-22.65384105795439
 10
147.396858989778
 20
-22.6533765812541
 10
145.8429603909779
 20
-22.60207949085446
 10
144.2965777857779
 20
-22.50011410695447
 10
142.7626647036778
 20
-22.34780705515447
 10
141.246134730978
 20
-22.14564622105402
 10
139.7518457700779
 20
-21.89427918675402
 10
138.2845844792779
 20
-21.59451115655438
  0
LWPOLYLINE
  5
AB
330
70
100
AcDbEntity
  8
0
 62
    18
420
        0
370
    25
100
AcDbPolyline
 90
       22
 70
     0
 43
0.0
 10
138.3746272351776
 20
-25.54257926765432
 10
136.9393706190777
 20
-25.19518683435442
 10
135.5408088939777
 20
-24.80105968465416
 10
134.1835038774776
 20
-24.36148337965417
 10
132.8718828164776
 20
-23.87789172565424
 10
131.6102239461777
 20
-23.35186209815403
 10
130.4026425356779
 20
-22.7851102966543
 10
129.2530774645779
 20
-22.1794849475545
 10
128.1652783749776
 20
-21.53696147485448
 10
127.1427934416779
 20
-20.85963565665422
 10
126.1889577977779
 20
-20.14971678895426
 10
125.3068826570781
 20
-19.40952047955457
 10
124.4994451652777
 20
-18.64146109495457
 10
123.7692790154781
 20
-17.84804388515433
 10
123.1187658581781
 20
-17.03185681235458
 10
122.5500275319776
 20
-16.19556210895411
 10
122.0649191429782
 20
-15.34188759455449
 10
121.6650230139778
 20
-14.47361777805404
 10
121.3516435230779
 20
-13.59358477495431
 10
121.1258028489778
 20
-12.7046590700542
 10
120.9882376370776
 20
-11.80974015425445
 10
120.9563186727777
 20
-11.42334854545402
  0
LWPOLYLINE
  5
AC
330
70
100
AcDbEntity
  8
0
 62
    18
420
        0
370
    25
100
AcDbPolyline
 90
       35
 70
     0
 43
0.0
 10
175.4222565989779
 20
-11.42334854545402
 10
175.399136235278
 20
-11.72091293785427
 10
175.2703409246776
 20
-12.6162666941541
 10
175.0532128472775
 20
-13.50591555715426
 10
174.7484602294779
 20
-14.38695767715434
 10
174.3570771109776
 20
-15.25651927775443
 10
173.8803401023781
 20
-16.11176402995443
 10
173.3198042205782
 20
-16.94990230305427
 10
172.6772978169776
 20
-17.76820026415421
 10
171.9549166141778
 20
-18.56398879545429
 10
171.1550168693778
 20
-19.3346722001544
 10
170.2802076892776
 20
-20.07773666925409
 10
169.333342519578
 20
-20.79075848075421
 10
168.3175098376777
 20
-21.47141190585436
 10
167.2360230787778
 20
-22.11747679445409
 10
166.0924098276778
 20
-22.72684581725402
 10
164.8904003131777
 20
-23.29753133905402
 10
163.6339152404781
 20
-23.8276719023544
 10
162.3270530027779
 20
-24.31553829885438
 10
160.9740763129777
 20
-24.75953920985439
 10
159.5793982998781
 20
-25.15822639645458
 10
158.1475681132779
 20
-25.51029942405441
 10
156.6832560855781
 20
-25.81460990365407
 10
155.1912384983781
 20
-26.0701652376546
 10
153.6763820027781
 20
-26.27613185765427
 10
152.1436277457775
 20
-26.43183794335445
 10
150.5979752533777
 20
-26.53677561395407
 10
149.0444661224779
 20
-26.59060258445442
 10
147.4881675772781
 20
-26.59314328255432
 10
145.9341559398778
 20
-26.54438942105463
 10
144.3875000732778
 20
-26.44450002485453
 10
142.853244847578
 20
-26.29380091235409
 10
141.3363946843776
 20
-26.09278363285458
 10
139.8418972335776
 20
-25.84210386285438
 10
138.3746272351776
 20
-25.54257926765432
  0
LWPOLYLINE
  5
AD
330
70
100
AcDbEntity
  8
0
 62
    18
420
        0
370
    25
100
AcDbPolyline
 90
       54
 70
     0
 43
0.0
 10
123.1992928890781
 20
-7.601097659054492
 10
123.2117953703779
 20
-7.397094603954608
 10
123.3184933734778
 20
-6.543967496354472
 10
123.512550948478
 20
-5.695987661754431
 10
123.7932864611778
 20
-4.856133660054502
 10
124.1597138176777
 20
-4.027355509354247
 10
124.6105459285776
 20
-3.212564322954129
 10
125.1441992297779
 20
-2.414622084554464
 10
125.7587992443779
 20
-1.636331595554199
 10
126.4521871675778
 20
-0.8804266295543193
 10
127.221927448978
 20
-0.1495623303545823
 10
128.0653163476777
 20
0.5536941146459782
 10
128.9793914294781
 20
1.22687249124589
 10
129.960941972378
 20
1.867608236145696
 10
131.0065202441776
 20
2.473650741545481
 10
132.1124536131776
 20
3.042871261145909
 10
133.2748574479776
 20
3.573270386845548
 10
134.4896487627779
 20
4.06298507264572
 10
135.7525605587777
 20
4.510295177745671
 10
137.059156812278
 20
4.913629509145844
 10
138.4048480560781
 20
5.271571340245509
 10
139.784907500878
 20
5.582863387245763
 10
141.1944876373776
 20
5.846412225545626
 10
142.628637263978
 20
6.061292130245987
 10
144.0823188777778
 20
6.226748327845901
 10
145.550426369178
 20
6.342199647445914
 10
147.0278029569777
 20
6.407240561945867
 10
148.5092593021782
 20
6.421642612945949
 10
149.9895917351776
 20
6.385355212545802
 10
151.463600534278
 20
6.298505821645728
 10
152.9261081899778
 20
6.161399501945794
 10
154.3719775907777
 20
5.974517844245543
 10
155.796130067478
 20
5.738517277345644
 10
157.1935632328781
 20
5.454226761745605
 10
158.5593685516776
 20
5.122644878345715
 10
159.8887485831779
 20
4.744936320545982
 10
161.1770338313782
 20
4.322427803345453
 10
162.4196991473778
 20
3.85660340344571
 10
163.6123796238777
 20
3.349099345945424
 10
164.7508859272777
 20
2.801698257445456
 10
165.8312190127779
 20
2.216322904245684
 10
166.8495841707781
 20
1.595029438445924
 10
167.802404356678
 20
0.9400001762456902
 10
168.686332754778
 20
0.2535359316459842
 10
169.498264534278
 20
-0.4619520645546221
 10
170.2353477553781
 20
-1.203950634754159
 10
170.8949933861779
 20
-1.969853481954323
 10
171.4748843973776
 20
-2.756970344254374
 10
171.972983900778
 20
-3.562536445154171
 10
172.3875423035779
 20
-4.383722204354293
 10
172.7171034543779
 20
-5.217643176854068
 10
172.9605097574777
 20
-6.0613701848545
 10
173.1169062394778
 20
-6.911939606454567
 10
173.1792823826781
 20
-7.601097659054492
  0
LWPOLYLINE
  5
AE
330
70
100
AcDbEntity
  8
0
 62
    18
420
        0
370
    25
100
AcDbPolyline
 90
       76
 70
     0
 43
0.0
 10
143.687149837378
 20
-14.74116547835419
 10
142.7271655560778
 20
-14.5000749900543
 10
141.8054941366779
 20
-14.21345685635455
 10
140.9286004418776
 20
-13.88332149735402
 10
140.1026352509776
 20
-13.51198457555431
 10
139.3333921162782
 20
-13.10205075245409
 10
138.6262667257776
 20
-12.65639541945447
 10
137.9862190558778
 20
-12.17814452835405
 10
137.4177385811778
 20
-11.67065266575429
 10
136.9248127836777
 20
-11.13747952225413
 10
136.5108991838778
 20
-10.5823649243543
 10
136.178901088078
 20
-10.00920260225421
 10
135.9311472244778
 20
-9.422012877754177
 10
135.769375408378
 20
-8.824914464853987
 10
135.6947203528776
 20
-8.22209557995457
 10
135.7077057095782
 20
-7.617784564354275
 10
135.808240395478
 20
-7.016220225654005
 10
135.9956192319782
 20
-6.421622105454252
 10
136.2685278911779
 20
-5.838160882454462
 10
136.6250521148781
 20
-5.269929117754466
 10
137.062691141978
 20
-4.720912548954248
 10
137.5783752489778
 20
-4.194962132954154
 10
138.1684872824776
 20
-3.695767033854563
 10
138.8288880304782
 20
-3.226828746654528
 10
139.5549452562779
 20
-2.791436536554087
 10
140.341566190078
 20
-2.392644367054166
 10
141.1832332512778
 20
-2.033249478654007
 10
142.0740427501777
 20
-1.715772768254282
 10
143.0077462980781
 20
-1.442441107054072
 10
143.9777946355777
 20
-1.215171720054244
 10
144.9773835705776
 20
-1.0355587387542
 10
145.9995017047779
 20
-0.9048620192541381
 10
147.0369796138776
 20
-0.8239983050543802
 10
148.0825401358782
 20
-0.7935347970545307
 10
149.1288494148782
 20
-0.813685174854514
 10
150.1685683430776
 20
-0.8843080980542769
 10
151.1944040392777
 20
-1.004908197554313
 10
152.199161002978
 20
-1.17463955035404
 10
153.1757915861778
 20
-1.392311612954584
 10
154.1174454269776
 20
-1.656397572154152
 10
155.0175175001782
 20
-1.965045054754093
 10
155.8696944469779
 20
-2.316089120454532
 10
156.6679988583781
 20
-2.707067447354118
 10
157.406831202478
 20
-3.135237603454215
 10
158.0810091012776
 20
-3.597596282554008
 10
158.6858036811779
 20
-4.090900370954035
 10
159.2169727427777
 20
-4.611689694754102
 10
159.6707905167779
 20
-5.156311291054235
 10
160.0440737973778
 20
-5.720945030754116
 10
160.3342042707781
 20
-6.301630413854101
 10
160.5391468801782
 20
-6.894294349454316
 10
160.6574641002779
 20
-7.494779726054261
 10
160.6883260207778
 20
-8.098874570154379
 10
160.6315161676778
 20
-8.702341590454581
 10
160.4874330210776
 20
-9.300947899254124
 10
160.2570872207776
 20
-9.890494703654388
 10
159.942094477178
 20
-10.46684675615406
 10
159.5446642378781
 20
-11.02596136135413
 10
159.0675841905781
 20
-11.56391673205449
 10
158.5142007090782
 20
-12.07693949775403
 10
157.8883953806781
 20
-12.56143117235464
 10
157.1945577802777
 20
-13.01399339495404
 10
156.4375546801777
 20
-13.43145176675446
 10
155.6226959130776
 20
-13.8108781170541
 10
154.7556971277776
 20
-14.14961104275459
 10
153.8426396978778
 20
-14.4452745757543
 10
152.8899280651776
 20
-14.69579484865403
 10
151.9042448172779
 20
-14.8994146419542
 10
150.8925038139782
 20
-15.054705708954
 10
149.8618016914777
 20
-15.1605787945542
 10
148.8193680844782
 20
-15.21629127495439
 10
147.772514915878
 20
-15.22145236715442
 10
146.728585108478
 20
-15.17602586995452
 10
145.6949010797781
 20
-15.08033041745403
 10
144.678713380578
 20
-14.93503724445449
 10
143.687149837378
 20
-14.74116547835419
  0
SPLINE
  5
AF
330
70
100
AcDbEntity
  8
0
 62
    18
420
        0
370
    25
100
AcDbSpline
210
0.0
220
0.0
230
1.0
 70
     8
 71
     3
 72
     8
 73
     4
 74
     0
 42
0.0000000001
 43
0.0000000001
 40
0.0
 40
0.0
 40
0.0
 40
0.0
 40
1.0
 40
1.0
 40
1.0
 40
1.0
 10
173.6134855691234
 20
-0.7337620346942354
 30
0.0
 10
173.0990559643285
 20
0.8390591852914541
 30
0.0
 10
171.8837587790907
 20
2.084037156500289
 30
0.0
 10
170.3238056727741
 20
2.636260584489774
 30
0.0
  0
LWPOLYLINE
  5
B0
330
70
100
AcDbEntity
  8
0
 62
     8
420
  8421504
370
    25
100
AcDbPolyline
 90
        4
 70
     0
 43
0.0
 10
162.8536579253776
 20
13.84295563144595
 10
162.8531243016779
 20
13.02643090014549
 10
162.8512258907776
 20
9.760331669345397
 10
162.8504776123779
 20
6.618008703045951
  0
LWPOLYLINE
  5
B1
330
70
100
AcDbEntity
  8
0
 62
     8
420
  8421504
370
    25
100
AcDbPolyline
 90
        3
 70
     0
 43
0.0
 10
175.1701874470776
 20
-12.88502157415408
 10
179.8393773383776
 20
-15.57717329145442
 10
179.8468160890779
 20
-15.58146101695447
  0
SPLINE
  5
B2
330
70
100
AcDbEntity
  8
0
 62
     8
420
  8421504
370
    25
100
AcDbSpline
210
0.0
220
0.0
230
1.0
 70
     8
 71
     3
 72
     8
 73
     4
 74
     0
 42
0.0000000001
 43
0.0000000001
 40
0.0
 40
0.0
 40
0.0
 40
0.0
 40
1.0
 40
1.0
 40
1.0
 40
1.0
 10
180.442456593336
 20
-15.78885535570734
 30
0.0
 10
180.5174020284182
 20
-15.73819670585266
 30
0.0
 10
180.5574554633339
 20
-15.64966913639659
 30
0.0
 10
180.5460303007702
 20
-15.55993295247285
 30
0.0
  0
SPLINE
  5
B3
330
70
100
AcDbEntity
  8
0
 62
     8
420
  8421504
370
    25
100
AcDbSpline
210
0.0
220
0.0
230
1.0
 70
     8
 71
     3
 72
     8
 73
     4
 74
     0
 42
0.0000000001
 43
0.0000000001
 40
0.0
 40
0.0
 40
0.0
 40
0.0
 40
1.0
 40
1.0
 40
1.0
 40
1.0
 10
162.7219141888837
 20
14.03821074294754
 30
0.0
 10
162.7290555302773
 20
13.95470385334931
 30
0.0
 10
162.7788955426686
 20
13.88083683371881
 30
0.0
 10
162.853657925468
 20
13.84295563144979
 30
0.0
  0
SPLINE
  5
B4
330
70
100
AcDbEntity
  8
0
 62
     8
420
  8421504
370
    25
100
AcDbSpline
210
0.0
220
0.0
230
1.0
 70
     8
 71
     3
 72
     8
 73
     4
 74
     0
 42
0.0000000001
 43
0.0000000001
 40
0.0
 40
0.0
 40
0.0
 40
0.0
 40
1.0
 40
1.0
 40
1.0
 40
1.0
 10
163.2219141615476
 20
14.44631630848167
 30
0.0
 10
163.1489705340708
 20
14.49857267214374
 30
0.0
 10
163.0537102452095
 20
14.50800574116268
 30
0.0
 10
162.9719344785277
 20
14.47107033381
 30
0.0
  0
LWPOLYLINE
  5
B5
330
70
100
AcDbEntity
  8
0
 62
     8
420
  8421504
370
    25
100
AcDbPolyline
 90
       29
 70
     0
 43
0.0
 10
133.0345806924781
 20
-23.94123271425412
 10
133.4274398156779
 20
-24.22967015485406
 10
134.2809739363779
 20
-24.79471360105406
 10
135.1992741000781
 20
-25.32483700155408
 10
136.1780641112778
 20
-25.81757176135438
 10
137.2127860949778
 20
-26.27062339065405
 10
138.2986217209776
 20
-26.68188219035405
 10
139.4305146409777
 20
-27.04943307505456
 10
140.6031940344776
 20
-27.37156449175404
 10
141.8111991529778
 20
-27.64677638975448
 10
143.0489047485782
 20
-27.87378720565426
 10
144.3105472689776
 20
-28.05153983125446
 10
145.5902516961778
 20
-28.17920653605403
 10
146.882058904278
 20
-28.25619282195452
 10
148.1799534090781
 20
-28.28214019135461
 10
149.4778913799779
 20
-28.25692781655463
 10
150.7698287841776
 20
-28.18067310265425
 10
152.0497495309776
 20
-28.05373114055415
 10
153.3116934873781
 20
-27.87669305365432
 10
154.5497842316775
 20
-27.65038324485423
 10
155.7582564178777
 20
-27.37585555815426
 10
156.9314826232778
 20
-27.054388370654
 10
158.063999553078
 20
-26.68747864025459
 10
159.1505334808776
 20
-26.27683493415443
 10
160.1860248066778
 20
-25.82436947345457
 10
161.1656516178782
 20
-25.33218922785455
 10
162.0848521425779
 20
-24.80258610485443
 10
162.939345992678
 20
-24.23802627665439
 10
163.3439945792782
 20
-23.94123271425412
  0
LINE
  5
B6
330
70
100
AcDbEntity
  8
0
 62
    18
420
        0
370
    25
100
AcDbLine
 10
34.91243153127782
 20
81.5833333105458
 30
0.0
 11
34.91243153127782
 21
81.45833331054538
 31
0.0
  0
LINE
  5
B7
330
70
100
AcDbEntity
  8
0
 62
    18
420
        0
370
    25
100
AcDbLine
 10
70.91243153127781
 20
81.45833331054538
 30
0.0
 11
70.91243153127781
 21
81.5833333105458
 31
0.0
  0
LINE
  5
B8
330
70
100
AcDbEntity
  8
0
 62
    18
420
        0
370
    25
100
AcDbLine
 10
25.4124315312778
 20
86.58333331054597
 30
0.0
 11
25.66243153127798
 21
81.5833333105458
 31
0.0
  0
LINE
  5
B9
330
70
100
AcDbEntity
  8
0
 62
    18
420
        0
370
    25
100
AcDbLine
 10
80.16243153127829
 20
81.5833333105458
 30
0.0
 11
80.41243153127782
 21
86.58333331054597
 31
0.0
  0
SPLINE
  5
BA
330
70
100
AcDbEntity
  8
0
 62
    18
420
        0
370
    25
100
AcDbSpline
210
0.0
220
0.0
230
1.0
 70
     8
 71
     3
 72
     8
 73
     4
 74
     0
 42
0.0000000001
 43
0.0000000001
 40
0.0
 40
0.0
 40
0.0
 40
0.0
 40
1.0
 40
1.0
 40
1.0
 40
1.0
 10
66.7504107598776
 20
72.58189268244523
 30
0.0
 10
67.33748985130887
 20
72.58189268244523
 30
0.0
 10
67.87060671822358
 20
72.92438550125815
 30
0.0
 10
68.11465916456755
 20
73.45833331053227
 30
0.0
  0
SPLINE
  5
BB
330
70
100
AcDbEntity
  8
0
 62
    18
420
        0
370
    25
100
AcDbSpline
210
0.0
220
0.0
230
1.0
 70
     8
 71
     3
 72
     8
 73
     4
 74
     0
 42
0.0000000001
 43
0.0000000001
 40
0.0
 40
0.0
 40
0.0
 40
0.0
 40
1.0
 40
1.0
 40
1.0
 40
1.0
 10
37.71020389798807
 20
73.45833331053227
 30
0.0
 10
37.95425634433236
 20
72.92438550125815
 30
0.0
 10
38.48737321124707
 20
72.58189268244523
 30
0.0
 10
39.07445230267803
 20
72.58189268244523
 30
0.0
  0
SPLINE
  5
BC
330
70
100
AcDbEntity
  8
0
 62
    18
420
        0
370
    25
100
AcDbSpline
210
0.0
220
0.0
230
1.0
 70
     8
 71
     3
 72
    11
 73
     7
 74
     0
 42
0.0000000001
 43
0.0000000001
 40
0.0
 40
0.0
 40
0.0
 40
0.0
 40
1.0
 40
1.0
 40
1.0
 40
2.0
 40
2.0
 40
2.0
 40
2.0
 10
33.88136110361191
 20
73.71051494441978
 30
0.0
 10
33.88015622049358
 20
73.57244901428948
 30
0.0
 10
33.9911040203739
 20
73.4595477128981
 30
0.0
 10
34.12916995050387
 20
73.45834282977945
 30
0.0
 10
34.12989714448854
 20
73.45833648365381
 30
0.0
 10
34.13062436270248
 20
73.45833331054574
 30
0.0
 10
34.13135158437806
 20
73.45833331054574
 30
0.0
  0
SPLINE
  5
BD
330
70
100
AcDbEntity
  8
0
 62
    18
420
        0
370
    25
100
AcDbSpline
210
0.0
220
0.0
230
1.0
 70
     8
 71
     3
 72
    11
 73
     7
 74
     0
 42
0.0000000001
 43
0.0000000001
 40
0.0
 40
0.0
 40
0.0
 40
0.0
 40
1.0
 40
1.0
 40
1.0
 40
2.0
 40
2.0
 40
2.0
 40
2.0
 10
71.6935114781782
 20
73.45833331054574
 30
0.0
 10
71.83158266563579
 20
73.45833331054574
 30
0.0
 10
71.94351147817774
 20
73.57026212308834
 30
0.0
 10
71.94351147817774
 20
73.70833331054591
 30
0.0
 10
71.94351147817774
 20
73.70906053222118
 30
0.0
 10
71.94350830506967
 20
73.70978775043511
 30
0.0
 10
71.94350195894402
 20
73.71051494441978
 30
0.0
  0
LINE
  5
BE
330
70
100
AcDbEntity
  8
0
 62
    18
420
        0
370
    25
100
AcDbLine
 10
71.94350195897804
 20
73.71051494444545
 30
0.0
 11
71.91243153127785
 21
77.2708333105456
 31
0.0
  0
LINE
  5
BF
330
70
100
AcDbEntity
  8
0
 62
    18
420
        0
370
    25
100
AcDbLine
 10
33.91243153127778
 20
77.2708333105456
 30
0.0
 11
33.88136110357791
 21
73.71051494444545
 31
0.0
  0
SPLINE
  5
C0
330
70
100
AcDbEntity
  8
0
 62
    18
420
        0
370
    25
100
AcDbSpline
210
0.0
220
0.0
230
1.0
 70
     8
 71
     3
 72
     8
 73
     4
 74
     0
 42
0.0000000001
 43
0.0000000001
 40
0.0
 40
0.0
 40
0.0
 40
0.0
 40
1.0
 40
1.0
 40
1.0
 40
1.0
 10
71.91243153128233
 20
77.2708333105456
 30
0.0
 10
71.91243153128233
 20
78.58840893973334
 30
0.0
 10
71.87771142155587
 20
79.90575579737535
 30
0.0
 10
71.80830735413188
 20
81.22150220685336
 30
0.0
  0
SPLINE
  5
C1
330
70
100
AcDbEntity
  8
0
 62
    18
420
        0
370
    25
100
AcDbSpline
210
0.0
220
0.0
230
1.0
 70
     8
 71
     3
 72
     8
 73
     4
 74
     0
 42
0.0000000001
 43
0.0000000001
 40
0.0
 40
0.0
 40
0.0
 40
0.0
 40
1.0
 40
1.0
 40
1.0
 40
1.0
 10
34.01655570842342
 20
81.22150220685336
 30
0.0
 10
33.94715164100007
 20
79.90575579737535
 30
0.0
 10
33.91243153127329
 20
78.58840893973334
 30
0.0
 10
33.91243153127329
 20
77.2708333105456
 30
0.0
  0
SPLINE
  5
C2
330
70
100
AcDbEntity
  8
0
 62
    18
420
        0
370
    25
100
AcDbSpline
210
0.0
220
0.0
230
1.0
 70
     8
 71
     3
 72
     8
 73
     4
 74
     0
 42
0.0000000001
 43
0.0000000001
 40
0.0
 40
0.0
 40
0.0
 40
0.0
 40
1.0
 40
1.0
 40
1.0
 40
1.0
 10
71.80830735408696
 20
81.22150220686682
 30
0.0
 10
71.80130394202928
 20
81.35427128816496
 30
0.0
 10
71.69160809852073
 20
81.45833331054538
 30
0.0
 10
71.5586544346776
 20
81.45833331054538
 30
0.0
  0
SPLINE
  5
C3
330
70
100
AcDbEntity
  8
0
 62
    18
420
        0
370
    25
100
AcDbSpline
210
0.0
220
0.0
230
1.0
 70
     8
 71
     3
 72
     8
 73
     4
 74
     0
 42
0.0000000001
 43
0.0000000001
 40
0.0
 40
0.0
 40
0.0
 40
0.0
 40
1.0
 40
1.0
 40
1.0
 40
1.0
 10
34.26620862787802
 20
81.45833331054538
 30
0.0
 10
34.13325496403553
 20
81.45833331054538
 30
0.0
 10
34.02355912052698
 20
81.35427128816496
 30
0.0
 10
34.01655570846834
 20
81.22150220686682
 30
0.0
  0
LINE
  5
C4
330
70
100
AcDbEntity
  8
0
 62
    18
420
        0
370
    25
100
AcDbLine
 10
43.78743153127805
 20
86.58333331054597
 30
0.0
 11
40.91223284747782
 21
89.45853199434555
 31
0.0
  0
LINE
  5
C5
330
70
100
AcDbEntity
  8
0
 62
    18
420
        0
370
    25
100
AcDbLine
 10
62.03743153127789
 20
86.58333331054597
 30
0.0
 11
64.9126302150778
 21
89.45853199434555
 31
0.0
  0
SPLINE
  5
C6
330
70
100
AcDbEntity
  8
0
 62
    18
420
        0
370
    25
100
AcDbSpline
210
0.0
220
0.0
230
1.0
 70
     8
 71
     3
 72
     8
 73
     4
 74
     0
 42
0.0000000001
 43
0.0000000001
 40
0.0
 40
0.0
 40
0.0
 40
0.0
 40
1.0
 40
1.0
 40
1.0
 40
1.0
 10
64.93367182813381
 20
89.46903969571797
 30
0.0
 10
64.92555921738818
 20
89.46840370850587
 30
0.0
 10
64.91801265733385
 20
89.46463512866156
 30
0.0
 10
64.91263021503833
 20
89.4585319944033
 30
0.0
  0
LINE
  5
C7
330
70
100
AcDbEntity
  8
0
 62
    18
420
        0
370
    25
100
AcDbLine
 10
64.9126302150778
 20
65.45813462674558
 30
0.0
 11
64.93367606527802
 21
65.45814309474535
 31
0.0
  0
LINE
  5
C8
330
70
100
AcDbEntity
  8
0
 62
    18
420
        0
370
    25
100
AcDbLine
 10
57.78887215937783
 20
72.58189268244587
 30
0.0
 11
64.9126302150778
 21
65.45813462674558
 31
0.0
  0
SPLINE
  5
C9
330
70
100
AcDbEntity
  8
0
 62
    18
420
        0
370
    25
100
AcDbSpline
210
0.0
220
0.0
230
1.0
 70
     8
 71
     3
 72
     8
 73
     4
 74
     0
 42
0.0000000001
 43
0.0000000001
 40
0.0
 40
0.0
 40
0.0
 40
0.0
 40
1.0
 40
1.0
 40
1.0
 40
1.0
 10
64.92313791524061
 20
65.43709301363342
 30
0.0
 10
64.9224963235661
 20
65.44520406780101
 30
0.0
 10
64.91872873741553
 20
65.45274863884919
 30
0.0
 10
64.91263021512335
 20
65.45813462672889
 30
0.0
  0
LWPOLYLINE
  5
CA
330
70
100
AcDbEntity
  8
0
 62
    18
420
        0
370
    25
100
AcDbPolyline
 90
        7
 70
     0
 43
0.0
 10
40.91224131547792
 20
65.43708877654599
 10
41.91224117267778
 20
65.43669189354578
 10
45.91224072577785
 20
65.4352715486461
 10
53.91224076217787
 20
65.43409656254557
 10
56.95944285337791
 20
65.43449799714593
 10
64.91262175827792
 20
65.437088787546
 10
64.92313791517806
 20
65.43709301364561
  0
LINE
  5
CB
330
70
100
AcDbEntity
  8
0
 62
    18
420
        0
370
    25
100
AcDbLine
 10
40.91223284747782
 20
65.45813462674558
 30
0.0
 11
40.91224131547792
 21
65.43708877654599
 31
0.0
  0
LINE
  5
CC
330
70
100
AcDbEntity
  8
0
 62
    18
420
        0
370
    25
100
AcDbLine
 10
48.03599090317779
 20
72.58189268244587
 30
0.0
 11
40.91223284747782
 21
65.45813462674558
 31
0.0
  0
SPLINE
  5
CD
330
70
100
AcDbEntity
  8
0
 62
    18
420
        0
370
    25
100
AcDbSpline
210
0.0
220
0.0
230
1.0
 70
     8
 71
     3
 72
     8
 73
     4
 74
     0
 42
0.0000000001
 43
0.0000000001
 40
0.0
 40
0.0
 40
0.0
 40
0.0
 40
1.0
 40
1.0
 40
1.0
 40
1.0
 10
40.89119123436534
 20
65.44762692668285
 30
0.0
 10
40.89930228853327
 20
65.44826851835705
 30
0.0
 10
40.90684685958143
 20
65.45203610450795
 30
0.0
 10
40.91223284746114
 20
65.45813462680012
 30
0.0
  0
LINE
  5
CE
330
70
100
AcDbEntity
  8
0
 62
    18
420
        0
370
    25
100
AcDbLine
 10
40.91223284747782
 20
89.45853199434555
 30
0.0
 11
40.89118699717781
 21
89.45852352644525
 31
0.0
  0
SPLINE
  5
CF
330
70
100
AcDbEntity
  8
0
 62
    18
420
        0
370
    25
100
AcDbSpline
210
0.0
220
0.0
230
1.0
 70
     8
 71
     3
 72
     8
 73
     4
 74
     0
 42
0.0000000001
 43
0.0000000001
 40
0.0
 40
0.0
 40
0.0
 40
0.0
 40
1.0
 40
1.0
 40
1.0
 40
1.0
 10
65.41243153124199
 20
89.45833331055721
 30
0.0
 10
65.24672665401252
 20
89.47951071531454
 30
0.0
 10
65.07952601132008
 20
89.48661761557199
 30
0.0
 10
64.91262175641411
 20
89.47957783545996
 30
0.0
  0
SPLINE
  5
D0
330
70
100
AcDbEntity
  8
0
 62
    18
420
        0
370
    25
100
AcDbSpline
210
0.0
220
0.0
230
1.0
 70
     8
 71
     3
 72
     8
 73
     4
 74
     0
 42
0.0000000001
 43
0.0000000001
 40
0.0
 40
0.0
 40
0.0
 40
0.0
 40
1.0
 40
1.0
 40
1.0
 40
1.0
 10
65.41243153125354
 20
89.45833331056235
 30
0.0
 10
65.25317932690963
 20
89.47102151389389
 30
0.0
 10
65.09333203304823
 20
89.47459613949126
 30
0.0
 10
64.93367182816141
 20
89.46903969569039
 30
0.0
  0
LINE
  5
D1
330
70
100
AcDbEntity
  8
0
 62
    18
420
        0
370
    25
100
AcDbLine
 10
64.9126302150778
 20
89.45853199434555
 30
0.0
 11
64.91262175647796
 21
89.47957783544584
 31
0.0
  0
LINE
  5
D2
330
70
100
AcDbEntity
  8
0
 62
    18
420
        0
370
    25
100
AcDbLine
 10
65.41243153127793
 20
89.45833331054567
 30
0.0
 11
65.41243153127793
 21
86.58333331054597
 31
0.0
  0
LINE
  5
D3
330
70
100
AcDbEntity
  8
0
 62
    18
420
        0
370
    25
100
AcDbLine
 10
65.41243153127793
 20
72.58189268244587
 30
0.0
 11
65.41243153127793
 21
65.45833331054611
 31
0.0
  0
SPLINE
  5
D4
330
70
100
AcDbEntity
  8
0
 62
    18
420
        0
370
    25
100
AcDbSpline
210
0.0
220
0.0
230
1.0
 70
     8
 71
     3
 72
     8
 73
     4
 74
     0
 42
0.0000000001
 43
0.0000000001
 40
0.0
 40
0.0
 40
0.0
 40
0.0
 40
1.0
 40
1.0
 40
1.0
 40
1.0
 10
64.93367606516187
 20
65.45814309471584
 30
0.0
 10
65.09326124561685
 20
65.45808311401893
 30
0.0
 10
65.25284644857619
 20
65.45814651931344
 30
0.0
 10
65.41243153098531
 20
65.45833331054289
 30
0.0
  0
SPLINE
  5
D5
330
70
100
AcDbEntity
  8
0
 62
    18
420
        0
370
    25
100
AcDbSpline
210
0.0
220
0.0
230
1.0
 70
     8
 71
     3
 72
     8
 73
     4
 74
     0
 42
0.0000000001
 43
0.0000000001
 40
0.0
 40
0.0
 40
0.0
 40
0.0
 40
1.0
 40
1.0
 40
1.0
 40
1.0
 10
40.41243153132133
 20
65.45833331616996
 30
0.0
 10
40.57168373532963
 20
65.44564510642913
 30
0.0
 10
40.73153102947371
 20
65.44207047935199
 30
0.0
 10
40.89119123441379
 20
65.4476269266296
 30
0.0
  0
LINE
  5
D6
330
70
100
AcDbEntity
  8
0
 62
    18
420
        0
370
    25
100
AcDbLine
 10
40.41243153127801
 20
65.45833331054611
 30
0.0
 11
40.41243153127801
 21
72.58189268244587
 31
0.0
  0
LINE
  5
D7
330
70
100
AcDbEntity
  8
0
 62
    18
420
        0
370
    25
100
AcDbLine
 10
40.41243153127801
 20
86.58333331054597
 30
0.0
 11
40.41243153127801
 21
89.45833331054567
 31
0.0
  0
SPLINE
  5
D8
330
70
100
AcDbEntity
  8
0
 62
    18
420
        0
370
    25
100
AcDbSpline
210
0.0
220
0.0
230
1.0
 70
     8
 71
     3
 72
     8
 73
     4
 74
     0
 42
0.0000000001
 43
0.0000000001
 40
0.0
 40
0.0
 40
0.0
 40
0.0
 40
1.0
 40
1.0
 40
1.0
 40
1.0
 10
40.89118699724648
 20
89.45852352643882
 30
0.0
 10
40.7316018166744
 20
89.45858350713637
 30
0.0
 10
40.57201661360532
 20
89.4585201018412
 30
0.0
 10
40.41243153107909
 20
89.45833331061177
 30
0.0
  0
SPLINE
  5
D9
330
70
100
AcDbEntity
  8
0
 62
    18
420
        0
370
    25
100
AcDbSpline
210
0.0
220
0.0
230
1.0
 70
     8
 71
     3
 72
     8
 73
     4
 74
     0
 42
0.0000000001
 43
0.0000000001
 40
0.0
 40
0.0
 40
0.0
 40
0.0
 40
1.0
 40
1.0
 40
1.0
 40
1.0
 10
40.41243153124079
 20
65.45833331061412
 30
0.0
 10
40.57813641081921
 20
65.43715589663175
 30
0.0
 10
40.74533705714109
 20
65.43004899329348
 30
0.0
 10
40.91224131541664
 20
65.43708877656588
 30
0.0
  0
SPLINE
  5
DA
330
70
100
AcDbEntity
  8
0
 62
    18
420
        0
370
    25
100
AcDbSpline
210
0.0
220
0.0
230
1.0
 70
     8
 71
     3
 72
     8
 73
     4
 74
     0
 42
0.0000000001
 43
0.0000000001
 40
0.0
 40
0.0
 40
0.0
 40
0.0
 40
1.0
 40
1.0
 40
1.0
 40
1.0
 10
64.91243153131161
 20
64.95833331060865
 30
0.0
 10
64.93360894529366
 20
65.12403819018675
 30
0.0
 10
64.9407158486316
 20
65.29123883650895
 30
0.0
 10
64.93367606535952
 20
65.45814309478449
 30
0.0
  0
SPLINE
  5
DB
330
70
100
AcDbEntity
  8
0
 62
    18
420
        0
370
    25
100
AcDbSpline
210
0.0
220
0.0
230
1.0
 70
     8
 71
     3
 72
     8
 73
     4
 74
     0
 42
0.0000000001
 43
0.0000000001
 40
0.0
 40
0.0
 40
0.0
 40
0.0
 40
1.0
 40
1.0
 40
1.0
 40
1.0
 10
64.91243153122979
 20
64.95833331061122
 30
0.0
 10
64.92511972946143
 20
65.11758551521694
 30
0.0
 10
64.92869435465323
 20
65.2774328088098
 30
0.0
 10
64.92313791516008
 20
65.43709301370272
 30
0.0
  0
LINE
  5
DC
330
70
100
AcDbEntity
  8
0
 62
    18
420
        0
370
    25
100
AcDbLine
 10
64.91243153127792
 20
64.95833331054576
 30
0.0
 11
40.91243153127803
 21
64.95833331054576
 31
0.0
  0
SPLINE
  5
DD
330
70
100
AcDbEntity
  8
0
 62
    18
420
        0
370
    25
100
AcDbSpline
210
0.0
220
0.0
230
1.0
 70
     8
 71
     3
 72
     8
 73
     4
 74
     0
 42
0.0000000001
 43
0.0000000001
 40
0.0
 40
0.0
 40
0.0
 40
0.0
 40
1.0
 40
1.0
 40
1.0
 40
1.0
 10
40.91224131542144
 20
65.43708877665316
 30
0.0
 10
40.91218133472423
 20
65.27750359602783
 30
0.0
 10
40.91224474001907
 20
65.11791839290515
 30
0.0
 10
40.91243153124883
 20
64.95833331032565
 30
0.0
  0
SPLINE
  5
DE
330
70
100
AcDbEntity
  8
0
 62
    18
420
        0
370
    25
100
AcDbSpline
210
0.0
220
0.0
230
1.0
 70
     8
 71
     3
 72
     8
 73
     4
 74
     0
 42
0.0000000001
 43
0.0000000001
 40
0.0
 40
0.0
 40
0.0
 40
0.0
 40
1.0
 40
1.0
 40
1.0
 40
1.0
 10
40.91243153123151
 20
89.95833331057296
 30
0.0
 10
40.89125411723823
 20
89.79262843099871
 30
0.0
 10
40.88414721390028
 20
89.62542778467843
 30
0.0
 10
40.8911869971839
 20
89.45852352640482
 30
0.0
  0
SPLINE
  5
DF
330
70
100
AcDbEntity
  8
0
 62
    18
420
        0
370
    25
100
AcDbSpline
210
0.0
220
0.0
230
1.0
 70
     8
 71
     3
 72
     8
 73
     4
 74
     0
 42
0.0000000001
 43
0.0000000001
 40
0.0
 40
0.0
 40
0.0
 40
0.0
 40
1.0
 40
1.0
 40
1.0
 40
1.0
 10
40.91243153126231
 20
89.95833331055884
 30
0.0
 10
40.90113315165156
 20
89.79901329123585
 30
0.0
 10
40.89756016854578
 20
89.63923943094934
 30
0.0
 10
40.90172514709811
 20
89.4795736083933
 30
0.0
  0
SPLINE
  5
E0
330
70
100
AcDbEntity
  8
0
 62
    18
420
        0
370
    25
100
AcDbSpline
210
0.0
220
0.0
230
1.0
 70
     8
 71
     3
 72
     8
 73
     4
 74
     0
 42
0.0000000001
 43
0.0000000001
 40
0.0
 40
0.0
 40
0.0
 40
0.0
 40
1.0
 40
1.0
 40
1.0
 40
1.0
 10
40.90172514710452
 20
89.47957360840936
 30
0.0
 10
40.90236673869593
 20
89.47146255390293
 30
0.0
 10
40.90613432493731
 20
89.46391798250889
 30
0.0
 10
40.91223284745569
 20
89.45853199438598
 30
0.0
  0
LWPOLYLINE
  5
E1
330
70
100
AcDbEntity
  8
0
 62
    18
420
        0
370
    25
100
AcDbPolyline
 90
        6
 70
     0
 43
0.0
 10
52.91243153127781
 20
89.48259465794604
 10
51.91243153127778
 20
89.48256702744549
 10
47.91243157967778
 20
89.48195340414564
 10
44.41233638117804
 20
89.48090461494592
 10
40.91224130607799
 20
89.47957783544584
 10
40.9017251470779
 20
89.47957360844529
  0
LINE
  5
E2
330
70
100
AcDbEntity
  8
0
 62
    18
420
        0
370
    25
100
AcDbLine
 10
40.91243153127803
 20
89.95833331054601
 30
0.0
 11
52.91243153127781
 21
89.95833331054601
 31
0.0
  0
LINE
  5
E3
330
70
100
AcDbEntity
  8
0
 62
    18
420
        0
370
    25
100
AcDbLine
 10
52.91243153127781
 20
89.48259465794604
 30
0.0
 11
52.91243153127781
 21
89.95833331054601
 31
0.0
  0
LWPOLYLINE
  5
E4
330
70
100
AcDbEntity
  8
0
 62
    18
420
        0
370
    25
100
AcDbPolyline
 90
        5
 70
     0
 43
0.0
 10
64.91262175647796
 20
89.47957783544584
 10
63.91262189937788
 20
89.47997477534615
 10
59.91262234897775
 20
89.48139911904602
 10
56.41252709017788
 20
89.48227012684556
 10
52.91243153127781
 20
89.48259465794604
  0
LINE
  5
E5
330
70
100
AcDbEntity
  8
0
 62
    18
420
        0
370
    25
100
AcDbLine
 10
52.91243153127781
 20
89.45853199434555
 30
0.0
 11
52.91243153127781
 21
89.48259465794604
 31
0.0
  0
LINE
  5
E6
330
70
100
AcDbEntity
  8
0
 62
    18
420
        0
370
    25
100
AcDbLine
 10
52.91243153127781
 20
89.45853199434555
 30
0.0
 11
64.91263021017778
 21
89.45853199434555
 31
0.0
  0
LINE
  5
E7
330
70
100
AcDbEntity
  8
0
 62
    18
420
        0
370
    25
100
AcDbLine
 10
40.91223284747782
 20
89.45853199434555
 30
0.0
 11
52.91243153127781
 21
89.45853199434555
 31
0.0
  0
LINE
  5
E8
330
70
100
AcDbEntity
  8
0
 62
    18
420
        0
370
    25
100
AcDbLine
 10
52.91243153127781
 20
89.95833331054601
 30
0.0
 11
64.91243153127792
 21
89.95833331054601
 31
0.0
  0
SPLINE
  5
E9
330
70
100
AcDbEntity
  8
0
 62
    18
420
        0
370
    25
100
AcDbSpline
210
0.0
220
0.0
230
1.0
 70
     8
 71
     3
 72
     8
 73
     4
 74
     0
 42
0.0000000001
 43
0.0000000001
 40
0.0
 40
0.0
 40
0.0
 40
0.0
 40
1.0
 40
1.0
 40
1.0
 40
1.0
 10
64.91262175649303
 20
89.47957783553952
 30
0.0
 10
64.91268174013789
 20
89.63916301915711
 30
0.0
 10
64.91261833172858
 20
89.79874822528101
 30
0.0
 10
64.91243153132187
 20
89.95833331084375
 30
0.0
  0
SPLINE
  5
EA
330
70
100
AcDbEntity
  8
0
 62
    18
420
        0
370
    25
100
AcDbSpline
210
0.0
220
0.0
230
1.0
 70
     8
 71
     3
 72
     8
 73
     4
 74
     0
 42
0.0000000001
 43
0.0000000001
 40
0.0
 40
0.0
 40
0.0
 40
0.0
 40
1.0
 40
1.0
 40
1.0
 40
1.0
 10
65.41243153127793
 20
89.45833331062395
 30
0.0
 10
65.4124315312343
 20
89.73447568550895
 30
0.0
 10
65.18857390616259
 20
89.95833331054601
 30
0.0
 10
64.91243153127792
 20
89.95833331054601
 30
0.0
  0
SPLINE
  5
EB
330
70
100
AcDbEntity
  8
0
 62
    18
420
        0
370
    25
100
AcDbSpline
210
0.0
220
0.0
230
1.0
 70
     8
 71
     3
 72
    11
 73
     7
 74
     0
 42
0.0000000001
 43
0.0000000001
 40
0.0
 40
0.0
 40
0.0
 40
0.0
 40
1.0
 40
1.0
 40
1.0
 40
2.0
 40
2.0
 40
2.0
 40
2.0
 10
40.41243153127801
 20
65.45833331101839
 30
0.0
 10
40.41243153101652
 20
65.18219093610324
 30
0.0
 10
40.63628915588962
 20
64.95833331080693
 30
0.0
 10
40.91243153080478
 20
64.95833331054576
 30
0.0
 10
40.91243153104156
 20
64.95833331054576
 30
0.0
 10
40.91243153104156
 20
64.95833331054576
 30
0.0
 10
40.91243153127803
 20
64.95833331054576
 30
0.0
  0
SPLINE
  5
EC
330
70
100
AcDbEntity
  8
0
 62
    18
420
        0
370
    25
100
AcDbSpline
210
0.0
220
0.0
230
1.0
 70
     8
 71
     3
 72
     8
 73
     4
 74
     0
 42
0.0000000001
 43
0.0000000001
 40
0.0
 40
0.0
 40
0.0
 40
0.0
 40
1.0
 40
1.0
 40
1.0
 40
1.0
 10
40.91243153127803
 20
89.95833331054601
 30
0.0
 10
40.63628915636255
 20
89.95833331054601
 30
0.0
 10
40.41243153127801
 20
89.73447568546083
 30
0.0
 10
40.41243153127801
 20
89.45833331054567
 30
0.0
  0
SPLINE
  5
ED
330
70
100
AcDbEntity
  8
0
 62
    18
420
        0
370
    25
100
AcDbSpline
210
0.0
220
0.0
230
1.0
 70
     8
 71
     3
 72
     8
 73
     4
 74
     0
 42
0.0000000001
 43
0.0000000001
 40
0.0
 40
0.0
 40
0.0
 40
0.0
 40
1.0
 40
1.0
 40
1.0
 40
1.0
 10
64.91243153127792
 20
64.95833331054576
 30
0.0
 10
65.1885739061934
 20
64.95833331054576
 30
0.0
 10
65.41243153127793
 20
65.1821909356303
 30
0.0
 10
65.41243153127793
 20
65.45833331054611
 30
0.0
  0
LINE
  5
EE
330
70
100
AcDbEntity
  8
0
 62
    18
420
        0
370
    25
100
AcDbLine
 10
64.04912989767776
 20
86.58333331054597
 30
0.0
 11
25.4124315312778
 21
86.58333331054597
 31
0.0
  0
LINE
  5
EF
330
70
100
AcDbEntity
  8
0
 62
    18
420
        0
370
    25
100
AcDbLine
 10
80.41243153127782
 20
86.58333331054597
 30
0.0
 11
64.04912989767776
 21
86.58333331054597
 31
0.0
  0
LINE
  5
F0
330
70
100
AcDbEntity
  8
0
 62
    18
420
        0
370
    25
100
AcDbLine
 10
63.94788718517797
 20
81.5833333105458
 30
0.0
 11
25.66243153127798
 21
81.5833333105458
 31
0.0
  0
LINE
  5
F1
330
70
100
AcDbEntity
  8
0
 62
    18
420
        0
370
    25
100
AcDbLine
 10
80.16243153127829
 20
81.5833333105458
 30
0.0
 11
63.94788718517797
 21
81.5833333105458
 31
0.0
  0
LINE
  5
F2
330
70
100
AcDbEntity
  8
0
 62
    18
420
        0
370
    25
100
AcDbLine
 10
58.51640973737797
 20
72.58189268244587
 30
0.0
 11
39.07445230267803
 21
72.58189268244587
 31
0.0
  0
LINE
  5
F3
330
70
100
AcDbEntity
  8
0
 62
    18
420
        0
370
    25
100
AcDbLine
 10
66.7504107598776
 20
72.58189268244587
 30
0.0
 11
58.51640973737797
 21
72.58189268244587
 31
0.0
  0
LINE
  5
F4
330
70
100
AcDbEntity
  8
0
 62
    18
420
        0
370
    25
100
AcDbLine
 10
71.6935114781782
 20
73.45833331054574
 30
0.0
 11
34.13135158437806
 21
73.45833331054574
 31
0.0
  0
LINE
  5
F5
330
70
100
AcDbEntity
  8
0
 62
    18
420
        0
370
    25
100
AcDbLine
 10
34.26620862787802
 20
81.45833331054538
 30
0.0
 11
71.5586544346776
 21
81.45833331054538
 31
0.0
  0
LWPOLYLINE
  5
F6
330
70
100
AcDbEntity
  8
0
 62
     8
420
  8421504
370
    25
100
AcDbPolyline
 90
        4
 70
     0
 43
0.0
 10
64.93367606527802
 20
65.45814309474535
 10
64.93407294827791
 20
66.45814295204563
 10
64.93549329317793
 20
70.45814250504529
 10
64.93580521527793
 20
72.58189268244587
  0
LWPOLYLINE
  5
F7
330
70
100
AcDbEntity
  8
0
 62
     8
420
  8421504
370
    25
100
AcDbPolyline
 90
        3
 70
     0
 43
0.0
 10
64.93461266287797
 20
86.58333331054597
 10
64.93367605437781
 20
89.45852353764546
 10
64.93367182817777
 20
89.46903969574556
  0
LWPOLYLINE
  5
F8
330
70
100
AcDbEntity
  8
0
 62
     8
420
  8421504
370
    25
100
AcDbPolyline
 90
        3
 70
     0
 43
0.0
 10
40.89118699717781
 20
89.45852352644525
 10
40.89079011427804
 20
88.45852366914559
 10
40.89012425997792
 20
86.58333331054597
  0
LWPOLYLINE
  5
F9
330
70
100
AcDbEntity
  8
0
 62
     8
420
  8421504
370
    25
100
AcDbPolyline
 90
        3
 70
     0
 43
0.0
 10
40.88886640887792
 20
72.58189268244587
 10
40.89118700817782
 20
65.45814308354578
 10
40.89119123437785
 20
65.44762692664564
  0
LINE
  5
FA
330
70
100
AcDbEntity
  8
0
 62
     8
420
  8421504
370
    25
100
AcDbLine
 10
33.88136110357791
 20
73.71051494444545
 30
0.0
 11
71.94350195897804
 21
73.71051494444545
 31
0.0
  0
LINE
  5
FB
330
70
100
AcDbEntity
  8
0
 62
     8
420
  8421504
370
    25
100
AcDbLine
 10
33.91243153127778
 20
77.2708333105456
 30
0.0
 11
71.91243153127785
 21
77.2708333105456
 31
0.0
  0
LINE
  5
FC
330
70
100
AcDbEntity
  8
0
 62
     8
420
  8421504
370
    25
100
AcDbLine
 10
71.80830735407798
 20
81.22150220684565
 30
0.0
 11
34.01655570837786
 21
81.22150220684565
 31
0.0
  0
LWPOLYLINE
  5
FD
330
70
100
AcDbEntity
  8
0
 62
    18
420
        0
370
    25
100
AcDbPolyline
 90
        3
 70
     0
 43
0.0
 10
56.07436035107797
 20
18.90771118774592
 10
59.15857033027802
 20
18.95094437214559
 10
64.93647968867804
 20
19.16618268664549
  0
LWPOLYLINE
  5
FE
330
70
100
AcDbEntity
  8
0
 62
    18
420
        0
370
    25
100
AcDbPolyline
 90
        3
 70
     0
 43
0.0
 10
40.88837906807799
 20
19.16603064274588
 10
46.01200161577783
 20
18.96851486084559
 10
49.77622771137788
 20
18.90771118774592
  0
SPLINE
  5
FF
330
70
100
AcDbEntity
  8
0
 62
    18
420
        0
370
    25
100
AcDbSpline
210
0.0
220
0.0
230
1.0
 70
     8
 71
     3
 72
     8
 73
     4
 74
     0
 42
0.0000000001
 43
0.0000000001
 40
0.0
 40
0.0
 40
0.0
 40
0.0
 40
1.0
 40
1.0
 40
1.0
 40
1.0
 10
64.93629206055562
 20
19.16481743110331
 30
0.0
 10
65.20286000239844
 20
19.17755284490568
 30
0.0
 10
65.41243960908555
 20
19.3973909277766
 30
0.0
 10
65.41243153104885
 20
19.66426291641117
 30
0.0
  0
SPLINE
  5
100
330
70
100
AcDbEntity
  8
0
 62
    18
420
        0
370
    25
100
AcDbSpline
210
0.0
220
0.0
230
1.0
 70
     8
 71
     3
 72
     8
 73
     4
 74
     0
 42
0.0000000001
 43
0.0000000001
 40
0.0
 40
0.0
 40
0.0
 40
0.0
 40
1.0
 40
1.0
 40
1.0
 40
1.0
 10
40.4124315315071
 20
19.66426291639769
 30
0.0
 10
40.41242345548598
 20
19.39745728172504
 30
0.0
 10
40.6219023456569
 20
19.17764934457106
 30
0.0
 10
40.88839962438694
 20
19.16482564822443
 30
0.0
  0
LINE
  5
101
330
70
100
AcDbEntity
  8
0
 62
    18
420
        0
370
    25
100
AcDbLine
 10
48.91243153127799
 20
18.90771118774592
 30
0.0
 11
48.91243153127799
 21
13.61524690854588
 31
0.0
  0
LINE
  5
102
330
70
100
AcDbEntity
  8
0
 62
    18
420
        0
370
    25
100
AcDbLine
 10
56.91243153127795
 20
13.61524690854588
 30
0.0
 11
56.91243153127795
 21
18.90771118774592
 31
0.0
  0
LWPOLYLINE
  5
103
330
70
100
AcDbEntity
  8
0
 62
    18
420
        0
370
    25
100
AcDbPolyline
 90
        6
 70
     0
 43
0.0
 10
52.91243153127781
 20
19.16483906684566
 10
51.91243153127778
 20
19.16486287494588
 10
47.91243157967778
 20
19.16539512484551
 10
44.41233638117804
 20
19.16631795764555
 10
40.91224130607799
 20
19.16750706834597
 10
40.9017251470779
 20
19.16751089364549
  0
LWPOLYLINE
  5
104
330
70
100
AcDbEntity
  8
0
 62
    18
420
        0
370
    25
100
AcDbPolyline
 90
       11
 70
     0
 43
0.0
 10
40.9017251470779
 20
19.16751089364549
 10
40.9019479537779
 20
19.17791257894552
 10
40.90247874207802
 20
19.20269131964539
 10
40.90327297727785
 20
19.23976589844574
 10
40.9043535697779
 20
19.29020244204539
 10
40.90563003387799
 20
19.34977374384572
 10
40.90713906477803
 20
19.42018818634551
 10
40.908754453178
 20
19.49555284404542
 10
40.91052243767787
 20
19.57802178004555
 10
40.91210114717774
 20
19.65164861934578
 10
40.91243153127803
 20
19.66705549844554
  0
LWPOLYLINE
  5
105
330
70
100
AcDbEntity
  8
0
 62
    18
420
        0
370
    25
100
AcDbPolyline
 90
        4
 70
     0
 43
0.0
 10
40.91243153127803
 20
19.66705549844554
 10
46.60699013947788
 20
19.66515641834553
 10
49.75971080337792
 20
19.66449196714539
 10
52.91243153127781
 20
19.66425010694585
  0
LINE
  5
106
330
70
100
AcDbEntity
  8
0
 62
    18
420
        0
370
    25
100
AcDbLine
 10
52.91243153127781
 20
19.16483906684566
 30
0.0
 11
52.91243153127781
 21
19.66425010694585
 31
0.0
  0
LWPOLYLINE
  5
107
330
70
100
AcDbEntity
  8
0
 62
    18
420
        0
370
    25
100
AcDbPolyline
 90
        5
 70
     0
 43
0.0
 10
40.91223284747782
 20
19.16661308574566
 10
40.91220287447803
 20
19.16661435744557
 10
40.9016949248778
 20
19.16706045424582
 10
40.89644095827797
 20
19.16728369684589
 10
40.89118699717781
 20
19.16750706894596
  0
LINE
  5
108
330
70
100
AcDbEntity
  8
0
 62
    18
420
        0
370
    25
100
AcDbLine
 10
40.89118699717781
 20
19.16750706894596
 30
0.0
 11
40.91243153127803
 21
19.66705549844554
 31
0.0
  0
SPLINE
  5
109
330
70
100
AcDbEntity
  8
0
 62
    18
420
        0
370
    25
100
AcDbSpline
210
0.0
220
0.0
230
1.0
 70
     8
 71
     3
 72
     8
 73
     4
 74
     0
 42
0.0000000001
 43
0.0000000001
 40
0.0
 40
0.0
 40
0.0
 40
0.0
 40
1.0
 40
1.0
 40
1.0
 40
1.0
 10
40.9017251471366
 20
19.16751089363972
 30
0.0
 10
40.90519429441917
 20
19.16690165016619
 30
0.0
 10
40.90871062953373
 20
19.16660120447169
 30
0.0
 10
40.91223284748745
 20
19.16661308577325
 30
0.0
  0
LINE
  5
10A
330
70
100
AcDbEntity
  8
0
 62
    18
420
        0
370
    25
100
AcDbLine
 10
64.91243153127792
 20
21.90771118774539
 30
0.0
 11
40.91243153127803
 21
21.90771118774539
 31
0.0
  0
LINE
  5
10B
330
70
100
AcDbEntity
  8
0
 62
    18
420
        0
370
    25
100
AcDbLine
 10
64.91243153127792
 20
19.66705549844554
 30
0.0
 11
64.91243153127792
 21
21.90771118774539
 31
0.0
  0
LWPOLYLINE
  5
10C
330
70
100
AcDbEntity
  8
0
 62
    18
420
        0
370
    25
100
AcDbPolyline
 90
        4
 70
     0
 43
0.0
 10
52.91243153127781
 20
19.66425010694585
 10
58.60700958007798
 20
19.66499979174582
 10
61.75972059087786
 20
19.66592232764584
 10
64.91243153127792
 20
19.66705549844554
  0
LINE
  5
10D
330
70
100
AcDbEntity
  8
0
 62
    18
420
        0
370
    25
100
AcDbLine
 10
40.91243153127803
 20
21.90771118774539
 30
0.0
 11
40.91243153127803
 21
19.66705549844554
 31
0.0
  0
LINE
  5
10E
330
70
100
AcDbEntity
  8
0
 62
    18
420
        0
370
    25
100
AcDbLine
 10
65.41243153127793
 20
21.90771118774539
 30
0.0
 11
65.41243153127793
 21
19.66705549834544
 31
0.0
  0
LINE
  5
10F
330
70
100
AcDbEntity
  8
0
 62
    18
420
        0
370
    25
100
AcDbLine
 10
64.91243153127792
 20
19.66705549844554
 30
0.0
 11
65.41243153127793
 21
19.66705549834544
 31
0.0
  0
LINE
  5
110
330
70
100
AcDbEntity
  8
0
 62
    18
420
        0
370
    25
100
AcDbLine
 10
64.91243153127792
 20
21.90771118774539
 30
0.0
 11
65.41243153127793
 21
21.90771118774539
 31
0.0
  0
SPLINE
  5
111
330
70
100
AcDbEntity
  8
0
 62
    18
420
        0
370
    25
100
AcDbSpline
210
0.0
220
0.0
230
1.0
 70
     8
 71
     3
 72
     8
 73
     4
 74
     0
 42
0.0000000001
 43
0.0000000001
 40
0.0
 40
0.0
 40
0.0
 40
0.0
 40
1.0
 40
1.0
 40
1.0
 40
1.0
 10
64.91262175646255
 20
19.16750706831453
 30
0.0
 10
65.18856517573711
 20
19.16748738967532
 30
0.0
 10
65.41230688455133
 20
19.39111210651154
 30
0.0
 10
65.41243153129205
 20
19.66705549833581
 30
0.0
  0
LINE
  5
112
330
70
100
AcDbEntity
  8
0
 62
    18
420
        0
370
    25
100
AcDbLine
 10
64.91262175647796
 20
19.16750706834597
 30
0.0
 11
64.91243153127792
 21
19.66705549844554
 31
0.0
  0
LINE
  5
113
330
70
100
AcDbEntity
  8
0
 62
    18
420
        0
370
    25
100
AcDbLine
 10
40.41243153127801
 20
19.66705549864575
 30
0.0
 11
40.91243153127803
 21
19.66705549844554
 31
0.0
  0
LINE
  5
114
330
70
100
AcDbEntity
  8
0
 62
    18
420
        0
370
    25
100
AcDbLine
 10
40.41243153127801
 20
19.66705549864575
 30
0.0
 11
40.41243153127801
 21
21.90771118774539
 31
0.0
  0
LINE
  5
115
330
70
100
AcDbEntity
  8
0
 62
    18
420
        0
370
    25
100
AcDbLine
 10
40.41243153127801
 20
21.90771118774539
 30
0.0
 11
40.91243153127803
 21
21.90771118774539
 31
0.0
  0
LWPOLYLINE
  5
116
330
70
100
AcDbEntity
  8
0
 62
    18
420
        0
370
    25
100
AcDbPolyline
 90
        5
 70
     0
 43
0.0
 10
64.91262175647796
 20
19.16750706834597
 10
63.91262189937788
 20
19.16714888074563
 10
59.91262234897775
 20
19.16588087704599
 10
56.41252709017788
 20
19.16511963514558
 10
52.91243153127781
 20
19.16483906684566
  0
SPLINE
  5
117
330
70
100
AcDbEntity
  8
0
 62
    18
420
        0
370
    25
100
AcDbSpline
210
0.0
220
0.0
230
1.0
 70
     8
 71
     3
 72
     8
 73
     4
 74
     0
 42
0.0000000001
 43
0.0000000001
 40
0.0
 40
0.0
 40
0.0
 40
0.0
 40
1.0
 40
1.0
 40
1.0
 40
1.0
 10
40.4124315312302
 20
19.66705549865281
 30
0.0
 10
40.41243154038789
 20
19.39917608256965
 30
0.0
 10
40.6235494940518
 20
19.1788890054932
 30
0.0
 10
40.89118699718262
 20
19.1675070689774
 30
0.0
  0
LWPOLYLINE
  5
118
330
70
100
AcDbEntity
  8
0
 62
    18
420
        0
370
    25
100
AcDbPolyline
 90
        3
 70
     0
 43
0.0
 10
55.73744193367791
 20
18.90771118774592
 10
59.48057457437782
 20
18.9797059438459
 10
64.9126302150778
 20
19.16661308574566
  0
LWPOLYLINE
  5
119
330
70
100
AcDbEntity
  8
0
 62
    18
420
        0
370
    25
100
AcDbPolyline
 90
        5
 70
     0
 43
0.0
 10
64.93367182817777
 20
19.16751089364549
 10
64.92598244667783
 20
19.16718354634548
 10
64.92140074167789
 20
19.1669880986454
 10
64.91710098557793
 20
19.16680439574595
 10
64.9126302150778
 20
19.16661308574566
  0
SPLINE
  5
11A
330
70
100
AcDbEntity
  8
0
 62
    18
420
        0
370
    25
100
AcDbSpline
210
0.0
220
0.0
230
1.0
 70
     8
 71
     3
 72
     8
 73
     4
 74
     0
 42
0.0000000001
 43
0.0000000001
 40
0.0
 40
0.0
 40
0.0
 40
0.0
 40
1.0
 40
1.0
 40
1.0
 40
1.0
 10
40.91223284765108
 20
19.16661308576748
 30
0.0
 10
43.9698102388435
 20
19.03306151329303
 30
0.0
 10
47.0292682801667
 20
18.94675058353629
 30
0.0
 10
50.08951197164246
 20
18.90771118774079
 30
0.0
  0
LINE
  5
11B
330
70
100
AcDbEntity
  8
0
 62
    18
420
        0
370
    25
100
AcDbLine
 10
64.9126302150778
 20
19.16661308574566
 30
0.0
 11
64.91262175647796
 21
19.16750706834597
 31
0.0
  0
LWPOLYLINE
  5
11C
330
70
100
AcDbEntity
  8
0
 62
    18
420
        0
370
    25
100
AcDbPolyline
 90
        5
 70
     0
 43
0.0
 10
52.91243153127781
 20
19.16367126664563
 10
56.037431531278
 20
19.16392152274557
 10
59.16243146217779
 20
19.16460883424554
 10
62.03753085997776
 20
19.16552516674597
 10
64.91263021017778
 20
19.16661308574566
  0
LINE
  5
11D
330
70
100
AcDbEntity
  8
0
 62
    18
420
        0
370
    25
100
AcDbLine
 10
52.91243153127781
 20
19.16367126664563
 30
0.0
 11
52.91243153127781
 21
19.16483906684566
 31
0.0
  0
LWPOLYLINE
  5
11E
330
70
100
AcDbEntity
  8
0
 62
    18
420
        0
370
    25
100
AcDbPolyline
 90
        5
 70
     0
 43
0.0
 10
40.91223284747782
 20
19.16661308574566
 10
44.03723263187805
 20
19.16543735204587
 10
47.16223248597802
 20
19.16447422474543
 10
50.03733195937783
 20
19.16388403024585
 10
52.91243153127781
 20
19.16367126664563
  0
SPLINE
  5
11F
330
70
100
AcDbEntity
  8
0
 62
    18
420
        0
370
    25
100
AcDbSpline
210
0.0
220
0.0
230
1.0
 70
     8
 71
     3
 72
     8
 73
     4
 74
     0
 42
0.0000000001
 43
0.0000000001
 40
0.0
 40
0.0
 40
0.0
 40
0.0
 40
1.0
 40
1.0
 40
1.0
 40
1.0
 10
64.93367182816332
 20
19.16751089360635
 30
0.0
 10
65.20131013073373
 20
19.17888921085679
 30
0.0
 10
65.41243075414702
 20
19.39917543732971
 30
0.0
 10
65.41243153125484
 20
19.66705549837495
 30
0.0
  0
LINE
  5
120
330
70
100
AcDbEntity
  8
0
 62
    18
420
        0
370
    25
100
AcDbLine
 10
55.73535109097798
 20
18.90771118774592
 30
0.0
 11
52.91243154997789
 21
18.90771118774592
 31
0.0
  0
LINE
  5
121
330
70
100
AcDbEntity
  8
0
 62
    18
420
        0
370
    25
100
AcDbLine
 10
52.91243153127781
 20
18.90771118624563
 30
0.0
 11
50.08951200637794
 21
18.90771118774592
 31
0.0
  0
CIRCLE
  5
122
330
70
100
AcDbEntity
  8
0
 62
    18
420
        0
370
    25
100
AcDbCircle
 10
52.9124315312779
 20
-13.59228881225426
 30
0.0
 40
25.00000000000012
  0
CIRCLE
  5
123
330
70
100
AcDbEntity
  8
0
 62
    18
420
        0
370
    25
100
AcDbCircle
 10
52.91243153127781
 20
-13.59228881225426
 30
0.0
 40
27.50000000000001
  0
CIRCLE
  5
124
330
70
100
AcDbEntity
  8
0
 62
    18
420
        0
370
    25
100
AcDbCircle
 10
52.9124315312779
 20
-13.59228881225426
 30
0.0
 40
12.5
  0
LINE
  5
125
330
70
100
AcDbEntity
  8
0
 62
    18
420
        0
370
    25
100
AcDbLine
 10
55.76415419037794
 20
18.90771118774592
 30
0.0
 11
50.08574833267797
 21
18.90771118774592
 31
0.0
  0
LWPOLYLINE
  5
126
330
70
100
AcDbEntity
  8
0
 62
     8
420
  8421504
370
    25
100
AcDbPolyline
 90
        5
 70
     0
 43
0.0
 10
64.93652428207784
 20
19.16498562434553
 10
64.93666827927779
 20
19.164860026046
 10
64.93626684467774
 20
19.16520741764587
 10
64.93367605437781
 20
19.16750706824586
 10
64.93367182817777
 20
19.16751089364549
  0
LINE
  5
127
330
70
100
AcDbEntity
  8
0
 62
     8
420
  8421504
370
    25
100
AcDbLine
 10
40.88833878229667
 20
19.16498562586957
 30
0.0
 11
40.89024683394732
 21
19.16665620596649
 31
0.0
  0
LWPOLYLINE
  5
128
330
70
100
AcDbEntity
  8
0
 62
    18
420
        0
370
    25
100
AcDbPolyline
 90
       19
 70
     0
 43
0.0
 10
127.8744911959778
 20
75.27273218844553
 10
127.8745592000777
 20
75.55434754534603
 10
127.8744294451778
 20
75.93265795464614
 10
127.8742586587778
 20
76.34277597444605
 10
127.8742486781779
 20
76.7311718328459
 10
127.8744577094781
 20
77.05846559244571
 10
127.8746055629777
 20
77.19115905054583
 10
127.8748318388776
 20
77.44096079244541
 10
127.8748332124781
 20
77.65062157774564
 10
127.8748266974778
 20
77.80825570154587
 10
127.8748168830779
 20
77.96672684184573
 10
127.8746929044781
 20
78.13449861184563
 10
127.8745090080781
 20
78.22613138984578
 10
127.8742926510781
 20
78.34115422024538
 10
127.874126501478
 20
78.48250108034604
 10
127.8740569514781
 20
78.64637874554571
 10
127.874220249878
 20
79.01607255954586
 10
127.8745058127782
 20
79.37938070544571
 10
127.8744911959778
 20
79.64393443264559
  0
LWPOLYLINE
  5
129
330
70
100
AcDbEntity
  8
0
 62
    18
420
        0
370
    25
100
AcDbPolyline
 90
        3
 70
     0
 43
0.0
 10
127.6136131829781
 20
65.43427814294524
 10
127.8044116177779
 20
70.32566847974596
 10
127.8748244097777
 20
74.0809694868456
  0
LWPOLYLINE
  5
12A
330
70
100
AcDbEntity
  8
0
 62
    18
420
        0
370
    25
100
AcDbPolyline
 90
        5
 70
     0
 43
0.0
 10
127.8748250318779
 20
74.082158564546
 10
127.8748050325779
 20
74.25141862584529
 10
127.8746929121778
 20
74.53641979114536
 10
127.8745518901779
 20
74.91270157214578
 10
127.8744438404778
 20
75.30971951334582
  0
SPLINE
  5
12B
330
70
100
AcDbEntity
  8
0
 62
    18
420
        0
370
    25
100
AcDbSpline
210
0.0
220
0.0
230
1.0
 70
     8
 71
     3
 72
     8
 73
     4
 74
     0
 42
0.0000000001
 43
0.0000000001
 40
0.0
 40
0.0
 40
0.0
 40
0.0
 40
1.0
 40
1.0
 40
1.0
 40
1.0
 10
127.1152994454125
 20
64.95833331077484
 30
0.0
 10
127.3821050800902
 20
64.95832523474667
 30
0.0
 10
127.6019130172519
 20
65.16780412491953
 30
0.0
 10
127.6147367135992
 20
65.43430140365373
 30
0.0
  0
LWPOLYLINE
  5
12C
330
70
100
AcDbEntity
  8
0
 62
    18
420
        0
370
    25
100
AcDbPolyline
 90
        5
 70
     0
 43
0.0
 10
127.8745058958782
 20
79.67786198714609
 10
127.8745811085781
 20
80.05238251914594
 10
127.8746543198778
 20
80.32926269994597
 10
127.8747064877779
 20
80.49827697754571
 10
127.874716134478
 20
80.52784514324594
  0
LINE
  5
12D
330
70
100
AcDbEntity
  8
0
 62
    18
420
        0
370
    25
100
AcDbLine
 10
127.8745058967779
 20
79.67786489044536
 30
0.0
 11
127.8745220570781
 21
79.75833331054565
 31
0.0
  0
LINE
  5
12E
330
70
100
AcDbEntity
  8
0
 62
    18
420
        0
370
    25
100
AcDbLine
 10
142.371851174178
 20
81.5833333105458
 30
0.0
 11
142.371851174178
 21
81.45833331054538
 31
0.0
  0
LINE
  5
12F
330
70
100
AcDbEntity
  8
0
 62
    18
420
        0
370
    25
100
AcDbLine
 10
178.371851174178
 20
81.45833331054538
 30
0.0
 11
178.371851174178
 21
81.5833333105458
 31
0.0
  0
LINE
  5
130
330
70
100
AcDbEntity
  8
0
 62
    18
420
        0
370
    25
100
AcDbLine
 10
132.871851174178
 20
86.58333331054597
 30
0.0
 11
133.1218511741782
 21
81.5833333105458
 31
0.0
  0
LINE
  5
131
330
70
100
AcDbEntity
  8
0
 62
    18
420
        0
370
    25
100
AcDbLine
 10
187.6218511741778
 20
81.5833333105458
 30
0.0
 11
187.871851174178
 21
86.58333331054597
 31
0.0
  0
SPLINE
  5
132
330
70
100
AcDbEntity
  8
0
 62
    18
420
        0
370
    25
100
AcDbSpline
210
0.0
220
0.0
230
1.0
 70
     8
 71
     3
 72
     8
 73
     4
 74
     0
 42
0.0000000001
 43
0.0000000001
 40
0.0
 40
0.0
 40
0.0
 40
0.0
 40
1.0
 40
1.0
 40
1.0
 40
1.0
 10
174.2098304027777
 20
72.58189268244523
 30
0.0
 10
174.7969094942084
 20
72.58189268244523
 30
0.0
 10
175.3300263611238
 20
72.92438550125815
 30
0.0
 10
175.5740788074677
 20
73.45833331053227
 30
0.0
  0
SPLINE
  5
133
330
70
100
AcDbEntity
  8
0
 62
    18
420
        0
370
    25
100
AcDbSpline
210
0.0
220
0.0
230
1.0
 70
     8
 71
     3
 72
     8
 73
     4
 74
     0
 42
0.0000000001
 43
0.0000000001
 40
0.0
 40
0.0
 40
0.0
 40
0.0
 40
1.0
 40
1.0
 40
1.0
 40
1.0
 10
145.1696235407881
 20
73.45833331053227
 30
0.0
 10
145.4136759871321
 20
72.92438550125815
 30
0.0
 10
145.9467928540474
 20
72.58189268244523
 30
0.0
 10
146.5338719454781
 20
72.58189268244523
 30
0.0
  0
SPLINE
  5
134
330
70
100
AcDbEntity
  8
0
 62
    18
420
        0
370
    25
100
AcDbSpline
210
0.0
220
0.0
230
1.0
 70
     8
 71
     3
 72
    11
 73
     7
 74
     0
 42
0.0000000001
 43
0.0000000001
 40
0.0
 40
0.0
 40
0.0
 40
0.0
 40
1.0
 40
1.0
 40
1.0
 40
2.0
 40
2.0
 40
2.0
 40
2.0
 10
179.1529311210777
 20
73.45833331054574
 30
0.0
 10
179.2910023085353
 20
73.45833331054574
 30
0.0
 10
179.4029311210779
 20
73.57026212308834
 30
0.0
 10
179.4029311210779
 20
73.70833331054591
 30
0.0
 10
179.4029311210779
 20
73.70906053222118
 30
0.0
 10
179.4029279479698
 20
73.70978775043511
 30
0.0
 10
179.4029216018442
 20
73.71051494441978
 30
0.0
  0
LINE
  5
135
330
70
100
AcDbEntity
  8
0
 62
    18
420
        0
370
    25
100
AcDbLine
 10
179.4029216017781
 20
73.71051494444545
 30
0.0
 11
179.371851174178
 21
77.2708333105456
 31
0.0
  0
SPLINE
  5
136
330
70
100
AcDbEntity
  8
0
 62
    18
420
        0
370
    25
100
AcDbSpline
210
0.0
220
0.0
230
1.0
 70
     8
 71
     3
 72
     8
 73
     4
 74
     0
 42
0.0000000001
 43
0.0000000001
 40
0.0
 40
0.0
 40
0.0
 40
0.0
 40
1.0
 40
1.0
 40
1.0
 40
1.0
 10
179.3718511740824
 20
77.2708333105456
 30
0.0
 10
179.3718511740824
 20
78.58840893973334
 30
0.0
 10
179.3371310643559
 20
79.90575579737535
 30
0.0
 10
179.2677269969319
 20
81.22150220685336
 30
0.0
  0
SPLINE
  5
137
330
70
100
AcDbEntity
  8
0
 62
    18
420
        0
370
    25
100
AcDbSpline
210
0.0
220
0.0
230
1.0
 70
     8
 71
     3
 72
     8
 73
     4
 74
     0
 42
0.0000000001
 43
0.0000000001
 40
0.0
 40
0.0
 40
0.0
 40
0.0
 40
1.0
 40
1.0
 40
1.0
 40
1.0
 10
179.2677269969871
 20
81.22150220686682
 30
0.0
 10
179.2607235849288
 20
81.35427128816496
 30
0.0
 10
179.1510277414203
 20
81.45833331054538
 30
0.0
 10
179.0180740775778
 20
81.45833331054538
 30
0.0
  0
LINE
  5
138
330
70
100
AcDbEntity
  8
0
 62
    18
420
        0
370
    25
100
AcDbLine
 10
127.8718511741778
 20
73.45833331054574
 30
0.0
 11
141.5907712271781
 21
73.45833331054574
 31
0.0
  0
LINE
  5
139
330
70
100
AcDbEntity
  8
0
 62
    18
420
        0
370
    25
100
AcDbLine
 10
141.7256282706781
 20
81.45833331054538
 30
0.0
 11
127.8718511741778
 21
81.45833331054538
 31
0.0
  0
LINE
  5
13A
330
70
100
AcDbEntity
  8
0
 62
    18
420
        0
370
    25
100
AcDbLine
 10
127.8718511741778
 20
80.53333331054558
 30
0.0
 11
127.8683839125776
 21
80.53333331054558
 31
0.0
  0
LWPOLYLINE
  5
13B
330
70
100
AcDbEntity
  8
0
 62
    18
420
        0
370
    25
100
AcDbPolyline
 90
        5
 70
     0
 43
0.0
 10
127.612949276078
 20
65.45813462674558
 10
127.6129480043781
 20
65.45810465374578
 10
127.6125019075778
 20
65.44759670414556
 10
127.6122786649777
 20
65.4423427375454
 10
127.6120552929778
 20
65.43708877654599
  0
LINE
  5
13C
330
70
100
AcDbEntity
  8
0
 62
    18
420
        0
370
    25
100
AcDbLine
 10
127.1125068634782
 20
65.45833331054611
 30
0.0
 11
127.6120552929778
 21
65.43708877654599
 31
0.0
  0
LWPOLYLINE
  5
13D
330
70
100
AcDbEntity
  8
0
 62
    18
420
        0
370
    25
100
AcDbPolyline
 90
        7
 70
     0
 43
0.0
 10
127.6120514682776
 20
65.44762692664564
 10
127.5768710426781
 20
65.44838052164577
 10
127.4893599204777
 20
65.45025534934596
 10
127.3593741763778
 20
65.4530408446461
 10
127.2015405827778
 20
65.45642421774582
 10
127.127913743278
 20
65.45800292734611
 10
127.1125068634782
 20
65.45833331614557
  0
SPLINE
  5
13E
330
70
100
AcDbEntity
  8
0
 62
    18
420
        0
370
    25
100
AcDbSpline
210
0.0
220
0.0
230
1.0
 70
     8
 71
     3
 72
     8
 73
     4
 74
     0
 42
0.0000000001
 43
0.0000000001
 40
0.0
 40
0.0
 40
0.0
 40
0.0
 40
1.0
 40
1.0
 40
1.0
 40
1.0
 10
127.6120514683116
 20
65.44762692666425
 30
0.0
 10
127.6126607117415
 20
65.45109607387333
 30
0.0
 10
127.6129611574193
 20
65.45461240890769
 30
0.0
 10
127.6129492761293
 20
65.45813462678151
 30
0.0
  0
LWPOLYLINE
  5
13F
330
70
100
AcDbEntity
  8
0
 62
    18
420
        0
370
    25
100
AcDbPolyline
 90
        7
 70
     0
 43
0.0
 10
127.6120552929778
 20
89.45852352644525
 10
127.6124130678777
 20
88.45852366914559
 10
127.6136774814778
 20
84.45852411604583
 10
127.6147023358777
 20
76.45852407964582
 10
127.6143549441778
 20
73.41132198854558
 10
127.6120552936779
 20
65.45814308354578
 10
127.6120514682776
 20
65.44762692664564
  0
LWPOLYLINE
  5
140
330
70
100
AcDbEntity
  8
0
 62
    18
420
        0
370
    25
100
AcDbPolyline
 90
        4
 70
     0
 43
0.0
 10
127.1125068634782
 20
65.45833331054611
 10
127.1149233981779
 20
73.41141508044575
 10
127.114943666878
 20
81.36449641514575
 10
127.112506863278
 20
89.45833331054567
  0
LINE
  5
141
330
70
100
AcDbEntity
  8
0
 62
    18
420
        0
370
    25
100
AcDbLine
 10
127.6120552929778
 20
89.45852352644525
 30
0.0
 11
127.112506863278
 21
89.45833331054567
 31
0.0
  0
LINE
  5
142
330
70
100
AcDbEntity
  8
0
 62
    18
420
        0
370
    25
100
AcDbLine
 10
124.8718511741777
 20
89.45833331054567
 30
0.0
 11
124.8718511741777
 21
89.95833331054601
 31
0.0
  0
LINE
  5
143
330
70
100
AcDbEntity
  8
0
 62
    18
420
        0
370
    25
100
AcDbLine
 10
124.8718511741777
 20
89.95833331054601
 30
0.0
 11
127.1125068634782
 21
89.95833331054601
 31
0.0
  0
LINE
  5
144
330
70
100
AcDbEntity
  8
0
 62
    18
420
        0
370
    25
100
AcDbLine
 10
127.112506863278
 20
89.45833331054567
 30
0.0
 11
127.1125068634782
 21
89.95833331054601
 31
0.0
  0
LINE
  5
145
330
70
100
AcDbEntity
  8
0
 62
    18
420
        0
370
    25
100
AcDbLine
 10
127.112506863278
 20
89.45833331054567
 30
0.0
 11
124.8718511741777
 21
89.45833331054567
 31
0.0
  0
LINE
  5
146
330
70
100
AcDbEntity
  8
0
 62
    18
420
        0
370
    25
100
AcDbLine
 10
124.8718511741777
 20
65.45833331054611
 30
0.0
 11
127.1125068634782
 21
65.45833331054611
 31
0.0
  0
LINE
  5
147
330
70
100
AcDbEntity
  8
0
 62
    18
420
        0
370
    25
100
AcDbLine
 10
127.112506863278
 20
64.95833331054576
 30
0.0
 11
127.1125068634782
 21
65.45833331054611
 31
0.0
  0
LINE
  5
148
330
70
100
AcDbEntity
  8
0
 62
    18
420
        0
370
    25
100
AcDbLine
 10
127.112506863278
 20
64.95833331054576
 30
0.0
 11
124.8718511741777
 21
64.95833331054576
 31
0.0
  0
LINE
  5
149
330
70
100
AcDbEntity
  8
0
 62
    18
420
        0
370
    25
100
AcDbLine
 10
124.8718511741777
 20
64.95833331054576
 30
0.0
 11
124.8718511741777
 21
65.45833331054611
 31
0.0
  0
LINE
  5
14A
330
70
100
AcDbEntity
  8
0
 62
    18
420
        0
370
    25
100
AcDbLine
 10
124.8718511741777
 20
89.45833331054567
 30
0.0
 11
124.8718511741777
 21
65.45833331054611
 31
0.0
  0
SPLINE
  5
14B
330
70
100
AcDbEntity
  8
0
 62
    18
420
        0
370
    25
100
AcDbSpline
210
0.0
220
0.0
230
1.0
 70
     8
 71
     3
 72
     8
 73
     4
 74
     0
 42
0.0000000001
 43
0.0000000001
 40
0.0
 40
0.0
 40
0.0
 40
0.0
 40
1.0
 40
1.0
 40
1.0
 40
1.0
 10
127.6120552929238
 20
89.45852352640288
 30
0.0
 10
127.6120749768244
 20
89.73446694915578
 30
0.0
 10
127.3884502587484
 20
89.95820866363523
 30
0.0
 10
127.1125068634455
 20
89.95833331057552
 30
0.0
  0
SPLINE
  5
14C
330
70
100
AcDbEntity
  8
0
 62
    18
420
        0
370
    25
100
AcDbSpline
210
0.0
220
0.0
230
1.0
 70
     8
 71
     3
 72
     8
 73
     4
 74
     0
 42
0.0000000001
 43
0.0000000001
 40
0.0
 40
0.0
 40
0.0
 40
0.0
 40
1.0
 40
1.0
 40
1.0
 40
1.0
 10
127.1125068632709
 20
64.95833331059839
 30
0.0
 10
127.3803862793541
 20
64.95833331975543
 30
0.0
 10
127.6006733564305
 20
65.16945127341902
 30
0.0
 10
127.6120552929463
 20
65.43708877655048
 30
0.0
  0
SPLINE
  5
14D
330
70
100
AcDbEntity
  8
0
 62
    18
420
        0
370
    25
100
AcDbSpline
210
0.0
220
0.0
230
1.0
 70
     8
 71
     3
 72
     8
 73
     4
 74
     0
 42
0.0000000001
 43
0.0000000001
 40
0.0
 40
0.0
 40
0.0
 40
0.0
 40
1.0
 40
1.0
 40
1.0
 40
1.0
 10
127.6129492760683
 20
65.45813462651328
 30
0.0
 10
127.7482688853966
 20
68.51380538576093
 30
0.0
 10
127.8341642201534
 20
71.57146469865139
 30
0.0
 10
127.8706015891727
 20
74.62991324386668
 30
0.0
  0
LINE
  5
14E
330
70
100
AcDbEntity
  8
0
 62
    18
420
        0
370
    25
100
AcDbLine
 10
127.612949276078
 20
89.45853199434555
 30
0.0
 11
127.6120552929778
 21
89.45852352644525
 31
0.0
  0
SPLINE
  5
14F
330
70
100
AcDbEntity
  8
0
 62
    18
420
        0
370
    25
100
AcDbSpline
210
0.0
220
0.0
230
1.0
 70
     8
 71
     3
 72
     8
 73
     4
 74
     0
 42
0.0000000001
 43
0.0000000001
 40
0.0
 40
0.0
 40
0.0
 40
0.0
 40
1.0
 40
1.0
 40
1.0
 40
1.0
 10
127.8718511740912
 20
80.28125287017996
 30
0.0
 10
127.8328117782957
 20
83.34149656165475
 30
0.0
 10
127.7465008485389
 20
86.40095460297731
 30
0.0
 10
127.6129492760651
 20
89.45853199416843
 30
0.0
  0
LINE
  5
150
330
70
100
AcDbEntity
  8
0
 62
    18
420
        0
370
    25
100
AcDbLine
 10
127.6120514682295
 20
89.47957360839266
 30
0.0
 11
127.6138448794387
 21
89.48157692302181
 31
0.0
  0
SPLINE
  5
151
330
70
100
AcDbEntity
  8
0
 62
    18
420
        0
370
    25
100
AcDbSpline
210
0.0
220
0.0
230
1.0
 70
     8
 71
     3
 72
     8
 73
     4
 74
     0
 42
0.0000000001
 43
0.0000000001
 40
0.0
 40
0.0
 40
0.0
 40
0.0
 40
1.0
 40
1.0
 40
1.0
 40
1.0
 10
127.612051468257
 20
89.47957360839909
 30
0.0
 10
127.6006730128462
 20
89.7472118483621
 30
0.0
 10
127.3803868678601
 20
89.95833239327316
 30
0.0
 10
127.1125068634974
 20
89.95833331056269
 30
0.0
  0
LINE
  5
152
330
70
100
AcDbEntity
  8
0
 62
    18
420
        0
370
    25
100
AcDbLine
 10
127.1125068634782
 20
89.95833331054601
 30
0.0
 11
127.1153122548778
 21
89.95833331054601
 31
0.0
  0
LWPOLYLINE
  5
153
330
70
100
AcDbEntity
  8
0
 62
    18
420
        0
370
    25
100
AcDbPolyline
 90
        4
 70
     0
 43
0.0
 10
127.6120514682776
 20
89.47957360844529
 10
127.6123788155776
 20
89.47188422524549
 10
127.6127579661778
 20
89.46300276344613
 10
127.612949276078
 20
89.45853199434555
  0
LWPOLYLINE
  5
154
330
70
100
AcDbEntity
  8
0
 62
    18
420
        0
370
    25
100
AcDbPolyline
 90
        3
 70
     0
 43
0.0
 10
127.615891095178
 20
89.45853199434555
 10
127.615237412778
 20
89.47200709974564
 10
127.6147232950781
 20
89.48259465794604
  0
LINE
  5
155
330
70
100
AcDbEntity
  8
0
 62
    18
420
        0
370
    25
100
AcDbLine
 10
127.612949276078
 20
89.45853199434555
 30
0.0
 11
127.615891095178
 21
89.45853199434555
 31
0.0
  0
LINE
  5
156
330
70
100
AcDbEntity
  8
0
 62
    18
420
        0
370
    25
100
AcDbLine
 10
127.871851175578
 20
81.45833303394615
 30
0.0
 11
127.8718511741778
 21
80.2812529058456
 31
0.0
  0
LINE
  5
157
330
70
100
AcDbEntity
  8
0
 62
    18
420
        0
370
    25
100
AcDbLine
 10
187.871851174178
 20
86.58333331054597
 30
0.0
 11
132.871851174178
 21
86.58333331054597
 31
0.0
  0
LINE
  5
158
330
70
100
AcDbEntity
  8
0
 62
    18
420
        0
370
    25
100
AcDbLine
 10
187.6218511741778
 20
81.5833333105458
 30
0.0
 11
133.1218511741782
 21
81.5833333105458
 31
0.0
  0
LINE
  5
159
330
70
100
AcDbEntity
  8
0
 62
    18
420
        0
370
    25
100
AcDbLine
 10
174.2098304027777
 20
72.58189268244587
 30
0.0
 11
146.5338719454781
 21
72.58189268244587
 31
0.0
  0
LINE
  5
15A
330
70
100
AcDbEntity
  8
0
 62
    18
420
        0
370
    25
100
AcDbLine
 10
141.5907712271781
 20
73.45833331054574
 30
0.0
 11
179.1529311210777
 21
73.45833331054574
 31
0.0
  0
LWPOLYLINE
  5
15B
330
70
100
AcDbEntity
  8
0
 62
    18
420
        0
370
    25
100
AcDbPolyline
 90
        6
 70
     0
 43
0.0
 10
141.444283155478
 20
73.71051494444545
 10
141.4327511949777
 20
73.56106075484611
 10
141.4831105179781
 20
73.48988103744573
 10
141.565131913778
 20
73.45971658034591
 10
141.5892112211778
 20
73.45833819164552
 10
141.5907712271781
 20
73.45833331054574
  0
SPLINE
  5
15C
330
70
100
AcDbEntity
  8
0
 62
    18
420
        0
370
    25
100
AcDbSpline
210
0.0
220
0.0
230
1.0
 70
     8
 71
     3
 72
     8
 73
     4
 74
     0
 42
0.0000000001
 43
0.0000000001
 40
0.0
 40
0.0
 40
0.0
 40
0.0
 40
1.0
 40
1.0
 40
1.0
 40
1.0
 10
141.4442831554478
 20
73.71051494443261
 30
0.0
 10
141.6826657958486
 20
74.88301876138904
 30
0.0
 10
141.8150375591266
 20
76.07459818463374
 30
0.0
 10
141.8397965478102
 20
77.27083331056036
 30
0.0
  0
LINE
  5
15D
330
70
100
AcDbEntity
  8
0
 62
    18
420
        0
370
    25
100
AcDbLine
 10
141.8397747009778
 20
77.2708333105456
 30
0.0
 11
141.8397965477782
 21
77.2708333105456
 31
0.0
  0
SPLINE
  5
15E
330
70
100
AcDbEntity
  8
0
 62
    18
420
        0
370
    25
100
AcDbSpline
210
0.0
220
0.0
230
1.0
 70
     8
 71
     3
 72
     8
 73
     4
 74
     0
 42
0.0000000001
 43
0.0000000001
 40
0.0
 40
0.0
 40
0.0
 40
0.0
 40
1.0
 40
1.0
 40
1.0
 40
1.0
 10
141.8397747009431
 20
77.27083331054624
 30
0.0
 10
141.8519831976081
 20
78.59256362703091
 30
0.0
 10
141.7632074560666
 20
79.91329554154536
 30
0.0
 10
141.5742222773217
 20
81.22150220683924
 30
0.0
  0
LWPOLYLINE
  5
15F
330
70
100
AcDbEntity
  8
0
 62
    18
420
        0
370
    25
100
AcDbPolyline
 90
        5
 70
     0
 43
0.0
 10
141.7256282706781
 20
81.45833331054538
 10
141.7240682796781
 20
81.4583284294456
 10
141.6768030471777
 20
81.45303005834547
 10
141.5733928265777
 20
81.37038617734603
 10
141.5742222772781
 20
81.22150220684565
  0
LINE
  5
160
330
70
100
AcDbEntity
  8
0
 62
    18
420
        0
370
    25
100
AcDbLine
 10
141.7256282706781
 20
81.45833331054538
 30
0.0
 11
179.0180740768777
 21
81.45833331054538
 31
0.0
  0
SPLINE
  5
161
330
70
100
AcDbEntity
  8
0
 62
    18
420
        0
370
    25
100
AcDbSpline
210
0.0
220
0.0
230
1.0
 70
     8
 71
     3
 72
     8
 73
     4
 74
     0
 42
0.0000000001
 43
0.0000000001
 40
0.0
 40
0.0
 40
0.0
 40
0.0
 40
1.0
 40
1.0
 40
1.0
 40
1.0
 10
141.4442831554048
 20
73.71051494444287
 30
0.0
 10
141.4299996676505
 20
73.83709454949609
 30
0.0
 10
141.3230350520549
 20
73.93282296174027
 30
0.0
 10
141.1956522732531
 20
73.93302815080267
 30
0.0
  0
SPLINE
  5
162
330
70
100
AcDbEntity
  8
0
 62
    18
420
        0
370
    25
100
AcDbSpline
210
0.0
220
0.0
230
1.0
 70
     8
 71
     3
 72
     8
 73
     4
 74
     0
 42
0.0000000001
 43
0.0000000001
 40
0.0
 40
0.0
 40
0.0
 40
0.0
 40
1.0
 40
1.0
 40
1.0
 40
1.0
 10
141.195652273264
 20
73.93302815082833
 30
0.0
 10
141.4368474843015
 20
75.03411895457038
 30
0.0
 10
141.5709025552038
 20
76.15597006789605
 30
0.0
 10
141.5959424682085
 20
77.28289024726497
 30
0.0
  0
SPLINE
  5
163
330
70
100
AcDbEntity
  8
0
 62
    18
420
        0
370
    25
100
AcDbSpline
210
0.0
220
0.0
230
1.0
 70
     8
 71
     3
 72
     8
 73
     4
 74
     0
 42
0.0000000001
 43
0.0000000001
 40
0.0
 40
0.0
 40
0.0
 40
0.0
 40
1.0
 40
1.0
 40
1.0
 40
1.0
 10
141.8397747234001
 20
77.2708355838915
 30
0.0
 10
141.7587592609937
 20
77.27905186991048
 30
0.0
 10
141.677373286693
 20
77.283075457862
 30
0.0
 10
141.5959424681911
 20
77.28289024727525
 30
0.0
  0
SPLINE
  5
164
330
70
100
AcDbEntity
  8
0
 62
    18
420
        0
370
    25
100
AcDbSpline
210
0.0
220
0.0
230
1.0
 70
     8
 71
     3
 72
     8
 73
     4
 74
     0
 42
0.0000000001
 43
0.0000000001
 40
0.0
 40
0.0
 40
0.0
 40
0.0
 40
1.0
 40
1.0
 40
1.0
 40
1.0
 10
141.5959424682386
 20
77.28289024719632
 30
0.0
 10
141.607888153154
 20
78.5313930085161
 30
0.0
 10
141.5175612010165
 20
79.77877699291226
 30
0.0
 10
141.3258673994825
 20
81.01253358595085
 30
0.0
  0
SPLINE
  5
165
330
70
100
AcDbEntity
  8
0
 62
    18
420
        0
370
    25
100
AcDbSpline
210
0.0
220
0.0
230
1.0
 70
     8
 71
     3
 72
     8
 73
     4
 74
     0
 42
0.0000000001
 43
0.0000000001
 40
0.0
 40
0.0
 40
0.0
 40
0.0
 40
1.0
 40
1.0
 40
1.0
 40
1.0
 10
141.3258673994273
 20
81.01253358598164
 30
0.0
 10
141.4488921107589
 20
81.01131667775476
 30
0.0
 10
141.5543866707706
 20
81.10008100123978
 30
0.0
 10
141.5742222772884
 20
81.22150220687453
 30
0.0
  0
LINE
  5
166
330
70
100
AcDbEntity
  8
0
 62
    18
420
        0
370
    25
100
AcDbLine
 10
127.8718511741778
 20
81.45833331054538
 30
0.0
 11
127.8718511741778
 21
74.71709644894542
 31
0.0
  0
SPLINE
  5
167
330
70
100
AcDbEntity
  8
0
 62
    18
420
        0
370
    25
100
AcDbSpline
210
0.0
220
0.0
230
1.0
 70
     8
 71
     3
 72
    11
 73
     7
 74
     0
 42
0.0000000001
 43
0.0000000001
 40
0.0
 40
0.0
 40
0.0
 40
0.0
 40
1.0
 40
1.0
 40
1.0
 40
2.0
 40
2.0
 40
2.0
 40
2.0
 10
141.7256282706537
 20
81.45833331061661
 30
0.0
 10
141.5148216399454
 20
81.47092145378676
 30
0.0
 10
141.3337243941774
 20
81.31023362062988
 30
0.0
 10
141.3211362510066
 20
81.09942698992089
 30
0.0
 10
141.3194015463444
 20
81.07037685597669
 30
0.0
 10
141.3209888724708
 20
81.04122364455218
 30
0.0
 10
141.3258673994286
 20
81.0125335860439
 30
0.0
  0
SPLINE
  5
168
330
70
100
AcDbEntity
  8
0
 62
    18
420
        0
370
    25
100
AcDbSpline
210
0.0
220
0.0
230
1.0
 70
     8
 71
     3
 72
    11
 73
     7
 74
     0
 42
0.0000000001
 43
0.0000000001
 40
0.0
 40
0.0
 40
0.0
 40
0.0
 40
1.0
 40
1.0
 40
1.0
 40
2.0
 40
2.0
 40
2.0
 40
2.0
 10
141.1956522733256
 20
73.93302815080907
 30
0.0
 10
141.1451931397521
 20
73.72705733675818
 30
0.0
 10
141.2712602653624
 20
73.51917979136651
 30
0.0
 10
141.477231079414
 20
73.46872065779365
 30
0.0
 10
141.5143499809862
 20
73.45962719656075
 30
0.0
 10
141.5526184766505
 20
73.45612616050036
 30
0.0
 10
141.5907712272673
 20
73.45833331057526
 30
0.0
  0
LINE
  5
169
330
70
100
AcDbEntity
  8
0
 62
     8
420
  8421504
370
    25
100
AcDbLine
 10
127.6145767399287
 20
65.4342405571181
 30
0.0
 11
127.612906157247
 21
65.43614861177639
 31
0.0
  0
LINE
  5
16A
330
70
100
AcDbEntity
  8
0
 62
     8
420
  8421504
370
    25
100
AcDbLine
 10
141.444283155478
 20
73.71051494444545
 30
0.0
 11
179.4029216017781
 21
73.71051494444545
 31
0.0
  0
LINE
  5
16B
330
70
100
AcDbEntity
  8
0
 62
     8
420
  8421504
370
    25
100
AcDbLine
 10
141.8397965477782
 20
77.2708333105456
 30
0.0
 11
179.371851174178
 21
77.2708333105456
 31
0.0
  0
LINE
  5
16C
330
70
100
AcDbEntity
  8
0
 62
     8
420
  8421504
370
    25
100
AcDbLine
 10
179.2677269969782
 20
81.22150220684565
 30
0.0
 11
141.5742222772781
 21
81.22150220684565
 31
0.0
  0
INSERT
  5
16F
330
70
100
AcDbEntity
  8
CAPA_BASE
100
AcDbBlockReference
  2
Block_0
 10
0.0
 20
0.0
 30
0.0
  0
INSERT
  5
17C
330
70
100
AcDbEntity
  8
CAPA_BASE
100
AcDbBlockReference
  2
Block_1
 10
0.0
 20
0.0
 30
0.0
  0
INSERT
  5
188
330
70
100
AcDbEntity
  8
CAPA_BASE
100
AcDbBlockReference
  2
Block_2
 10
0.0
 20
0.0
 30
0.0
  0
ENDSEC
  0
SECTION
  2
OBJECTS
  0
DICTIONARY
  5
C
330
0
100
AcDbDictionary
281
     1
  3
ACAD_COLOR
350
63
  3
ACAD_DETAILVIEWSTYLE
350
6A
  3
ACAD_GROUP
350
D
  3
ACAD_LAYOUT
350
62
  3
ACAD_MATERIAL
350
10
  3
ACAD_MLEADERSTYLE
350
66
  3
ACAD_MLINESTYLE
350
5F
  3
ACAD_PLOTSETTINGS
350
61
  3
ACAD_PLOTSTYLENAME
350
E
  3
ACAD_SCALELIST
350
42
  3
ACAD_SECTIONVIEWSTYLE
350
68
  3
ACAD_TABLESTYLE
350
64
  3
ACAD_VISUALSTYLE
350
29
  3
ACDB_RECOMPOSE_DATA
350
19B
  3
AcDbVariableDictionary
350
193
  0
DICTIONARY
  5
63
102
{ACAD_REACTORS
330
C
102
}
330
C
100
AcDbDictionary
281
     1
  0
DICTIONARY
  5
6A
102
{ACAD_REACTORS
330
C
102
}
330
C
100
AcDbDictionary
281
     1
  3
Imperial24
350
6B
  0
DICTIONARY
  5
D
102
{ACAD_REACTORS
330
C
102
}
330
C
100
AcDbDictionary
281
     1
  0
DICTIONARY
  5
62
102
{ACAD_REACTORS
330
C
102
}
330
C
100
AcDbDictionary
281
     1
  3
Layout1
350
6F
  3
Layout2
350
77
  3
Model
350
73
  0
DICTIONARY
  5
10
102
{ACAD_REACTORS
330
C
102
}
330
C
100
AcDbDictionary
281
     1
  3
ByBlock
350
19
  3
ByLayer
350
11
  3
Global
350
21
  0
DICTIONARY
  5
66
102
{ACAD_REACTORS
330
C
102
}
330
C
100
AcDbDictionary
281
     1
  3
Standard
350
67
  0
DICTIONARY
  5
5F
102
{ACAD_REACTORS
330
C
102
}
330
C
100
AcDbDictionary
281
     1
  3
Standard
350
60
  0
DICTIONARY
  5
61
102
{ACAD_REACTORS
330
C
102
}
330
C
100
AcDbDictionary
281
     1
  0
ACDBDICTIONARYWDFLT
  5
E
102
{ACAD_REACTORS
330
C
102
}
330
C
100
AcDbDictionary
281
     1
  3
Normal
350
F
100
AcDbDictionaryWithDefault
340
F
  0
DICTIONARY
  5
42
102
{ACAD_REACTORS
330
C
102
}
330
C
100
AcDbDictionary
281
     1
  3
A0
350
43
  3
A1
350
44
  3
A2
350
45
  3
A3
350
46
  3
A4
350
47
  3
A5
350
48
  3
A6
350
49
  3
A7
350
4A
  3
A8
350
4B
  3
A9
350
4C
  3
B0
350
4D
  3
B1
350
4E
  3
B2
350
4F
  3
B3
350
50
  3
B4
350
51
  3
B5
350
52
  3
B6
350
53
  0
DICTIONARY
  5
68
102
{ACAD_REACTORS
330
C
102
}
330
C
100
AcDbDictionary
281
     1
  3
Imperial24
350
69
  0
DICTIONARY
  5
64
102
{ACAD_REACTORS
330
C
102
}
330
C
100
AcDbDictionary
281
     1
  3
Standard
350
65
  0
DICTIONARY
  5
29
102
{ACAD_REACTORS
330
C
102
}
330
C
100
AcDbDictionary
281
     1
  3
2dWireframe
350
2F
  3
Basic
350
2E
  3
Brighten
350
35
  3
ColorChange
350
39
  3
Conceptual
350
32
  3
Dim
350
34
  3
EdgeColorOff
350
41
  3
Facepattern
350
38
  3
Flat
350
2A
  3
FlatWithEdges
350
2B
  3
Gouraud
350
2C
  3
GouraudWithEdges
350
2D
  3
Hidden
350
31
  3
JitterOff
350
3F
  3
Linepattern
350
37
  3
OverhangOff
350
40
  3
Realistic
350
33
  3
Shaded
350
3E
  3
Shaded with edges
350
3D
  3
Shades of Gray
350
3A
  3
Sketchy
350
3B
  3
Thicken
350
36
  3
Wireframe
350
30
  3
X-Ray
350
3C
  0
XRECORD
  5
19B
102
{ACAD_REACTORS
330
C
102
}
330
C
100
AcDbXrecord
280
     1
 90
        1
330
65
  0
DICTIONARY
  5
193
102
{ACAD_REACTORS
330
C
102
}
330
C
100
AcDbDictionary
281
     1
  3
CANNOSCALE
350
198
  3
CMLEADERSTYLE
350
195
  3
CTABLESTYLE
350
194
  3
CVIEWDETAILSTYLE
350
196
  3
CVIEWSECTIONSTYLE
350
197
  0
ACDBDETAILVIEWSTYLE
  5
6B
102
{ACAD_REACTORS
330
6A
102
}
330
6A
100
AcDbModelDocViewStyle
 70
     0
  3
Imperial24
290
     1
300
Imperial24
 90
        0
100
AcDbDetailViewStyle
 70
     0
 71
     0
 90
        3
 71
     1
340
55
 62
   256
 40
0.24
340
0
 62
   256
 40
0.24
300

 40
0.36
280
     3
 71
     2
340
5D
 90
       25
 62
   256
 71
     3
340
55
 62
   256
 40
0.24
 90
        1
 40
0.75
 90
        1
300
%<\AcVar ViewType \f "%tc1">% %<\AcVar ViewDetailId>%\PSCALE %<\AcVar ViewScale \f "%sn">%
 71
     4
340
5D
 90
       25
 62
   256
340
5D
 90
       25
 62
   256
280
     0
  0
LAYOUT
  5
6F
102
{ACAD_REACTORS
330
62
102
}
330
62
100
AcDbPlotSettings
  1

  2

  4

  6

 40
0.0
 41
0.0
 42
0.0
 43
0.0
 44
0.0
 45
0.0
 46
0.0
 47
0.0
 48
0.0
 49
0.0
140
0.0
141
0.0
142
1.0
143
1.0
 70
   688
 72
     0
 73
     0
 74
     5
  7

 75
    16
147
1.0
 76
     0
 77
     2
 78
   300
148
0.0
149
0.0
100
AcDbLayout
  1
Layout1
 70
     1
 71
     1
 10
0.0
 20
0.0
 11
12.0
 21
9.0
 12
0.0
 22
0.0
 32
0.0
 14
0.0
 24
0.0
 34
0.0
 15
0.0
 25
0.0
 35
0.0
146
0.0
 13
0.0
 23
0.0
 33
0.0
 16
1.0
 26
0.0
 36
0.0
 17
0.0
 27
1.0
 37
0.0
 76
     0
330
6C
  0
LAYOUT
  5
77
102
{ACAD_REACTORS
330
62
102
}
330
62
100
AcDbPlotSettings
  1

  2

  4

  6

 40
0.0
 41
0.0
 42
0.0
 43
0.0
 44
0.0
 45
0.0
 46
0.0
 47
0.0
 48
0.0
 49
0.0
140
0.0
141
0.0
142
1.0
143
1.0
 70
   688
 72
     0
 73
     0
 74
     5
  7

 75
    16
147
1.0
 76
     0
 77
     2
 78
   300
148
0.0
149
0.0
100
AcDbLayout
  1
Layout2
 70
     1
 71
     2
 10
0.0
 20
0.0
 11
12.0
 21
9.0
 12
0.0
 22
0.0
 32
0.0
 14
0.0
 24
0.0
 34
0.0
 15
0.0
 25
0.0
 35
0.0
146
0.0
 13
0.0
 23
0.0
 33
0.0
 16
1.0
 26
0.0
 36
0.0
 17
0.0
 27
1.0
 37
0.0
 76
     0
330
74
  0
LAYOUT
  5
73
102
{ACAD_REACTORS
330
62
102
}
330
62
100
AcDbPlotSettings
  1

  2

  4

  6

 40
0.0
 41
0.0
 42
0.0
 43
0.0
 44
0.0
 45
0.0
 46
0.0
 47
0.0
 48
0.0
 49
0.0
140
0.0
141
0.0
142
1.0
143
1.0
 70
  1712
 72
     0
 73
     0
 74
     0
  7

 75
     0
147
1.0
 76
     0
 77
     2
 78
   300
148
0.0
149
0.0
100
AcDbLayout
  1
Model
 70
     1
 71
     0
 10
0.0
 20
0.0
 11
12.0
 21
9.0
 12
0.0
 22
0.0
 32
0.0
 14
0.0
 24
0.0
 34
0.0
 15
0.0
 25
0.0
 35
0.0
146
0.0
 13
0.0
 23
0.0
 33
0.0
 16
1.0
 26
0.0
 36
0.0
 17
0.0
 27
1.0
 37
0.0
 76
     0
330
70
  0
MATERIAL
  5
19
102
{ACAD_XDICTIONARY
360
1A
102
}
102
{ACAD_REACTORS
330
10
102
}
330
10
100
AcDbMaterial
  1
ByBlock
 72
     0
 43
0.0208333333333333
 43
0.0
 43
0.0
 43
0.0
 43
0.0
 43
0.0208333333333333
 43
0.0
 43
0.0
 43
0.0
 43
0.0
 43
1.0
 43
0.0
 43
0.0
 43
0.0
 43
0.0
 43
1.0
 77
     0
 47
0.0208333333333333
 47
0.0
 47
0.0
 47
0.0
 47
0.0
 47
0.0208333333333333
 47
0.0
 47
0.0
 47
0.0
 47
0.0
 47
1.0
 47
0.0
 47
0.0
 47
0.0
 47
0.0
 47
1.0
171
     0
 49
0.0208333333333333
 49
0.0
 49
0.0
 49
0.0
 49
0.0
 49
0.0208333333333333
 49
0.0
 49
0.0
 49
0.0
 49
0.0
 49
1.0
 49
0.0
 49
0.0
 49
0.0
 49
0.0
 49
1.0
175
     0
142
0.0208333333333333
142
0.0
142
0.0
142
0.0
142
0.0
142
0.0208333333333333
142
0.0
142
0.0
142
0.0
142
0.0
142
1.0
142
0.0
142
0.0
142
0.0
142
0.0
142
1.0
179
     0
144
0.0208333333333333
144
0.0
144
0.0
144
0.0
144
0.0
144
0.0208333333333333
144
0.0
144
0.0
144
0.0
144
0.0
144
1.0
144
0.0
144
0.0
144
0.0
144
0.0
144
1.0
147
0.0208333333333333
147
0.0
147
0.0
147
0.0
147
0.0
147
0.0208333333333333
147
0.0
147
0.0
147
0.0
147
0.0
147
1.0
147
0.0
147
0.0
147
0.0
147
0.0
147
1.0
  0
MATERIAL
  5
11
102
{ACAD_XDICTIONARY
360
12
102
}
102
{ACAD_REACTORS
330
10
102
}
330
10
100
AcDbMaterial
  1
ByLayer
 72
     0
 43
0.0208333333333333
 43
0.0
 43
0.0
 43
0.0
 43
0.0
 43
0.0208333333333333
 43
0.0
 43
0.0
 43
0.0
 43
0.0
 43
1.0
 43
0.0
 43
0.0
 43
0.0
 43
0.0
 43
1.0
 77
     0
 47
0.0208333333333333
 47
0.0
 47
0.0
 47
0.0
 47
0.0
 47
0.0208333333333333
 47
0.0
 47
0.0
 47
0.0
 47
0.0
 47
1.0
 47
0.0
 47
0.0
 47
0.0
 47
0.0
 47
1.0
171
     0
 49
0.0208333333333333
 49
0.0
 49
0.0
 49
0.0
 49
0.0
 49
0.0208333333333333
 49
0.0
 49
0.0
 49
0.0
 49
0.0
 49
1.0
 49
0.0
 49
0.0
 49
0.0
 49
0.0
 49
1.0
175
     0
142
0.0208333333333333
142
0.0
142
0.0
142
0.0
142
0.0
142
0.0208333333333333
142
0.0
142
0.0
142
0.0
142
0.0
142
1.0
142
0.0
142
0.0
142
0.0
142
0.0
142
1.0
179
     0
144
0.0208333333333333
144
0.0
144
0.0
144
0.0
144
0.0
144
0.0208333333333333
144
0.0
144
0.0
144
0.0
144
0.0
144
1.0
144
0.0
144
0.0
144
0.0
144
0.0
144
1.0
147
0.0208333333333333
147
0.0
147
0.0
147
0.0
147
0.0
147
0.0208333333333333
147
0.0
147
0.0
147
0.0
147
0.0
147
1.0
147
0.0
147
0.0
147
0.0
147
0.0
147
1.0
  0
MATERIAL
  5
21
102
{ACAD_XDICTIONARY
360
22
102
}
102
{ACAD_REACTORS
330
10
102
}
330
10
100
AcDbMaterial
  1
Global
 72
     0
 43
0.0208333333333333
 43
0.0
 43
0.0
 43
0.0
 43
0.0
 43
0.0208333333333333
 43
0.0
 43
0.0
 43
0.0
 43
0.0
 43
1.0
 43
0.0
 43
0.0
 43
0.0
 43
0.0
 43
1.0
 77
     0
 47
0.0208333333333333
 47
0.0
 47
0.0
 47
0.0
 47
0.0
 47
0.0208333333333333
 47
0.0
 47
0.0
 47
0.0
 47
0.0
 47
1.0
 47
0.0
 47
0.0
 47
0.0
 47
0.0
 47
1.0
171
     0
 49
0.0208333333333333
 49
0.0
 49
0.0
 49
0.0
 49
0.0
 49
0.0208333333333333
 49
0.0
 49
0.0
 49
0.0
 49
0.0
 49
1.0
 49
0.0
 49
0.0
 49
0.0
 49
0.0
 49
1.0
175
     0
142
0.0208333333333333
142
0.0
142
0.0
142
0.0
142
0.0
142
0.0208333333333333
142
0.0
142
0.0
142
0.0
142
0.0
142
1.0
142
0.0
142
0.0
142
0.0
142
0.0
142
1.0
179
     0
144
0.0208333333333333
144
0.0
144
0.0
144
0.0
144
0.0
144
0.0208333333333333
144
0.0
144
0.0
144
0.0
144
0.0
144
1.0
144
0.0
144
0.0
144
0.0
144
0.0
144
1.0
147
0.0208333333333333
147
0.0
147
0.0
147
0.0
147
0.0
147
0.0208333333333333
147
0.0
147
0.0
147
0.0
147
0.0
147
1.0
147
0.0
147
0.0
147
0.0
147
0.0
147
1.0
  0
MLEADERSTYLE
  5
67
102
{ACAD_REACTORS
330
66
102
}
330
66
100
AcDbMLeaderStyle
179
     2
170
     2
171
     1
172
     0
 90
        2
 40
0.0
 41
0.0
173
     1
 91
-1056964608
340
5B
 92
       -2
290
     1
 42
0.09
291
     1
 43
0.36
  3
Standard
 44
0.18
300

342
55
174
     1
178
     6
175
     1
176
     0
 93
-1056964608
 45
0.18
292
     0
297
     0
 46
0.18
 94
-1056964608
 47
1.0
 49
1.0
140
1.0
293
     1
141
0.0
294
     1
177
     0
142
1.0
295
     1
296
     0
143
0.125
271
     0
272
     9
273
     9
298
     1
  0
MLINESTYLE
  5
60
102
{ACAD_REACTORS
330
5F
102
}
330
5F
100
AcDbMlineStyle
  2
STANDARD
 70
     0
  3

 62
   256
 51
90.0
 52
90.0
 71
     2
 49
0.5
 62
   256
  6
BYLAYER
 49
-0.5
 62
   256
  6
BYLAYER
  0
ACDBPLACEHOLDER
  5
F
102
{ACAD_REACTORS
330
E
102
}
330
E
  0
SCALE
  5
43
102
{ACAD_REACTORS
330
42
102
}
330
42
100
AcDbScale
 70
     0
300
1:1
140
1.0
141
1.0
290
     1
  0
SCALE
  5
44
102
{ACAD_REACTORS
330
42
102
}
330
42
100
AcDbScale
 70
     0
300
1/128" = 1'-0"
140
0.0078125
141
12.0
290
     0
  0
SCALE
  5
45
102
{ACAD_REACTORS
330
42
102
}
330
42
100
AcDbScale
 70
     0
300
1/64" = 1'-0"
140
0.015625
141
12.0
290
     0
  0
SCALE
  5
46
102
{ACAD_REACTORS
330
42
102
}
330
42
100
AcDbScale
 70
     0
300
1/32" = 1'-0"
140
0.03125
141
12.0
290
     0
  0
SCALE
  5
47
102
{ACAD_REACTORS
330
42
102
}
330
42
100
AcDbScale
 70
     0
300
1/16" = 1'-0"
140
0.0625
141
12.0
290
     0
  0
SCALE
  5
48
102
{ACAD_REACTORS
330
42
102
}
330
42
100
AcDbScale
 70
     0
300
3/32" = 1'-0"
140
0.09375
141
12.0
290
     0
  0
SCALE
  5
49
102
{ACAD_REACTORS
330
42
102
}
330
42
100
AcDbScale
 70
     0
300
1/8" = 1'-0"
140
0.125
141
12.0
290
     0
  0
SCALE
  5
4A
102
{ACAD_REACTORS
330
42
102
}
330
42
100
AcDbScale
 70
     0
300
3/16" = 1'-0"
140
0.1875
141
12.0
290
     0
  0
SCALE
  5
4B
102
{ACAD_REACTORS
330
42
102
}
330
42
100
AcDbScale
 70
     0
300
1/4" = 1'-0"
140
0.25
141
12.0
290
     0
  0
SCALE
  5
4C
102
{ACAD_REACTORS
330
42
102
}
330
42
100
AcDbScale
 70
     0
300
3/8" = 1'-0"
140
0.375
141
12.0
290
     0
  0
SCALE
  5
4D
102
{ACAD_REACTORS
330
42
102
}
330
42
100
AcDbScale
 70
     0
300
1/2" = 1'-0"
140
0.5
141
12.0
290
     0
  0
SCALE
  5
4E
102
{ACAD_REACTORS
330
42
102
}
330
42
100
AcDbScale
 70
     0
300
3/4" = 1'-0"
140
0.75
141
12.0
290
     0
  0
SCALE
  5
4F
102
{ACAD_REACTORS
330
42
102
}
330
42
100
AcDbScale
 70
     0
300
1" = 1'-0"
140
1.0
141
12.0
290
     0
  0
SCALE
  5
50
102
{ACAD_REACTORS
330
42
102
}
330
42
100
AcDbScale
 70
     0
300
1-1/2" = 1'-0"
140
1.5
141
12.0
290
     0
  0
SCALE
  5
51
102
{ACAD_REACTORS
330
42
102
}
330
42
100
AcDbScale
 70
     0
300
3" = 1'-0"
140
3.0
141
12.0
290
     0
  0
SCALE
  5
52
102
{ACAD_REACTORS
330
42
102
}
330
42
100
AcDbScale
 70
     0
300
6" = 1'-0"
140
6.0
141
12.0
290
     0
  0
SCALE
  5
53
102
{ACAD_REACTORS
330
42
102
}
330
42
100
AcDbScale
 70
     0
300
1'-0" = 1'-0"
140
12.0
141
12.0
290
     0
  0
ACDBSECTIONVIEWSTYLE
  5
69
102
{ACAD_REACTORS
330
68
102
}
330
68
100
AcDbModelDocViewStyle
 70
     0
  3
Imperial24
290
     1
300
Imperial24
 90
        0
100
AcDbSectionViewStyle
 70
     0
 71
     0
 90
       78
 71
     1
340
55
 62
   256
 40
0.24
340
0
340
0
 62
   256
 40
0.24
300
I, O, Q, S, X, Z
 40
0.48
 90
        3
 40
0.18
 90
        1
 71
     2
340
5D
 90
       25
 62
   256
340
5D
 90
       50
 62
   256
 40
0.24
 40
0.0
 40
0.24
 71
     3
340
55
 62
   256
 40
0.24
 90
        1
 40
0.75
 90
        1
300
%<\AcVar ViewType \f "%tc1">% %<\AcVar ViewSectionStartId>%-%<\AcVar ViewSectionEndId>%\PSCALE %<\AcVar ViewScale \f "%sn">%
 71
     4
 62
   256
 62
   257
300
ANSI31
 40
1.0
 90
        0
290
     0
290
     0
 90
        6
 40
0.0
 40
1.570796326794896
 40
0.2617993877991494
 40
1.308996938995747
 40
-0.2617993877991494
 40
1.832595714594046
  0
TABLESTYLE
  5
65
102
{ACAD_XDICTIONARY
360
199
102
}
102
{ACAD_REACTORS
330
64
102
}
330
64
100
AcDbTableStyle
280
     0
  3
Standard
 70
     0
 71
     0
 40
0.06
 41
0.06
280
     0
281
     0
  7
Standard
140
0.18
170
     2
 62
     0
 63
     7
283
     0
 90
      512
 91
        0
  1

274
    -2
284
     1
 64
     0
275
    -2
285
     1
 65
     0
276
    -2
286
     1
 66
     0
277
    -2
287
     1
 67
     0
278
    -2
288
     1
 68
     0
279
    -2
289
     1
 69
     0
  7
Standard
140
0.25
170
     5
 62
     0
 63
     7
283
     0
 90
      512
 91
        0
  1

274
    -2
284
     1
 64
     0
275
    -2
285
     1
 65
     0
276
    -2
286
     1
 66
     0
277
    -2
287
     1
 67
     0
278
    -2
288
     1
 68
     0
279
    -2
289
     1
 69
     0
  7
Standard
140
0.18
170
     5
 62
     0
 63
     7
283
     0
 90
      512
 91
        0
  1

274
    -2
284
     1
 64
     0
275
    -2
285
     1
 65
     0
276
    -2
286
     1
 66
     0
277
    -2
287
     1
 67
     0
278
    -2
288
     1
 68
     0
279
    -2
289
     1
 69
     0
  0
VISUALSTYLE
  5
2F
102
{ACAD_REACTORS
330
29
102
}
330
29
100
AcDbVisualStyle
  2
2dWireframe
 70
     4
177
     3
291
     0
 70
    58
 90
        0
176
     1
 90
        2
176
     1
 90
        0
176
     1
 90
        0
176
     1
 40
0.6
176
     1
 40
30.0
176
     1
 62
     7
420
 16777215
176
     1
 90
        1
176
     1
 90
        4
176
     1
 62
     7
176
     1
 62
   257
176
     1
 90
        1
176
     1
 90
        1
176
     1
 40
1.0
176
     1
 90
        0
176
     1
 62
   257
176
     1
 40
1.0
176
     1
 90
        1
176
     1
 90
        6
176
     1
 90
        2
176
     1
 62
     7
176
     1
 90
        5
176
     1
 90
        0
176
     1
 90
        0
176
     1
290
     0
176
     1
 90
        1
176
     1
 40
0.0
176
     1
 90
        0
176
     1
290
     1
176
     1
290
     1
176
     1
290
     0
176
     1
290
     0
176
     1
290
     0
176
     1
290
     0
176
     1
290
     0
176
     1
290
     0
176
     1
290
     0
176
     1
 90
       50
176
     1
 40
0.0
176
     1
 40
1.0
176
     1
 90
        0
176
     1
 62
    18
420
        0
176
     1
 90
       50
176
     1
 90
        3
176
     1
 62
     5
420
      255
176
     1
290
     0
176
     1
 90
       50
176
     1
 90
       50
176
     1
 90
       50
176
     1
290
     0
176
     1
 90
       50
176
     1
 62
   256
176
     0
 40
1.0
176
     0
 90
        2
176
     1
  1
strokes_ogs.tif
176
     1
290
     0
176
     1
 40
1.0
176
     1
 40
1.0
176
     1
  0
VISUALSTYLE
  5
2E
102
{ACAD_REACTORS
330
29
102
}
330
29
100
AcDbVisualStyle
  2
Basic
 70
     7
177
     3
291
     1
 70
    58
 90
        1
176
     1
 90
        0
176
     1
 90
        1
176
     1
 90
        0
176
     1
 40
0.6
176
     1
 40
30.0
176
     1
 62
     7
420
 16777215
176
     1
 90
        0
176
     1
 90
        4
176
     1
 62
     7
176
     1
 62
   257
176
     1
 90
        1
176
     1
 90
        1
176
     1
 40
1.0
176
     1
 90
        8
176
     1
 62
     7
176
     1
 40
1.0
176
     1
 90
        1
176
     1
 90
        6
176
     1
 90
        2
176
     1
 62
     7
176
     1
 90
        5
176
     1
 90
        0
176
     1
 90
        0
176
     1
290
     0
176
     1
 90
        1
176
     1
 40
0.0
176
     1
 90
        0
176
     1
290
     0
176
     1
290
     1
176
     1
290
     1
176
     1
290
     0
176
     1
290
     0
176
     1
290
     0
176
     1
290
     0
176
     1
290
     0
176
     1
290
     0
176
     1
 90
       50
176
     1
 40
0.0
176
     1
 40
1.0
176
     1
 90
        0
176
     1
 62
    18
420
        0
176
     1
 90
       50
176
     1
 90
        3
176
     1
 62
     5
420
      255
176
     1
290
     0
176
     1
 90
       50
176
     1
 90
       50
176
     1
 90
       50
176
     1
290
     0
176
     1
 90
       50
176
     1
 62
   256
176
     0
 40
1.0
176
     0
 90
        2
176
     1
  1
strokes_ogs.tif
176
     1
290
     0
176
     1
 40
1.0
176
     1
 40
1.0
176
     1
  0
VISUALSTYLE
  5
35
102
{ACAD_REACTORS
330
29
102
}
330
29
100
AcDbVisualStyle
  2
Brighten
 70
    12
177
     3
291
     1
 70
    58
 90
        2
176
     1
 90
        2
176
     1
 90
        0
176
     1
 90
        0
176
     1
 40
0.6
176
     1
 40
30.0
176
     1
 62
     7
420
 16777215
176
     1
 90
        1
176
     1
 90
        4
176
     1
 62
     7
176
     1
 62
   257
176
     1
 90
        1
176
     1
 90
        1
176
     1
 40
1.0
176
     1
 90
        8
176
     1
 62
     7
176
     1
 40
1.0
176
     1
 90
        1
176
     1
 90
        6
176
     1
 90
        2
176
     1
 62
     7
176
     1
 90
        5
176
     1
 90
        0
176
     1
 90
        0
176
     1
290
     0
176
     1
 90
        1
176
     1
 40
50.0
176
     1
 90
        0
176
     1
290
     0
176
     1
290
     1
176
     1
290
     1
176
     1
290
     0
176
     1
290
     0
176
     1
290
     0
176
     1
290
     0
176
     1
290
     0
176
     1
290
     0
176
     1
 90
       50
176
     1
 40
0.0
176
     1
 40
1.0
176
     1
 90
        0
176
     1
 62
    18
420
        0
176
     1
 90
       50
176
     1
 90
        3
176
     1
 62
     5
420
      255
176
     1
290
     0
176
     1
 90
       50
176
     1
 90
       50
176
     1
 90
       50
176
     1
290
     0
176
     1
 90
       50
176
     1
 62
   256
176
     0
 40
1.0
176
     0
 90
        2
176
     1
  1
strokes_ogs.tif
176
     1
290
     0
176
     1
 40
1.0
176
     1
 40
1.0
176
     1
  0
VISUALSTYLE
  5
39
102
{ACAD_REACTORS
330
29
102
}
330
29
100
AcDbVisualStyle
  2
ColorChange
 70
    16
177
     3
291
     1
 70
    58
 90
        2
176
     1
 90
        2
176
     1
 90
        3
176
     1
 90
        0
176
     1
 40
0.6
176
     1
 40
30.0
176
     1
 62
     8
420
  8421504
176
     1
 90
        1
176
     1
 90
        4
176
     1
 62
     7
176
     1
 62
   257
176
     1
 90
        1
176
     1
 90
        1
176
     1
 40
1.0
176
     1
 90
        8
176
     1
 62
     8
420
  8421504
176
     1
 40
1.0
176
     1
 90
        1
176
     1
 90
        6
176
     1
 90
        2
176
     1
 62
     7
176
     1
 90
        5
176
     1
 90
        0
176
     1
 90
        0
176
     1
290
     0
176
     1
 90
        1
176
     1
 40
0.0
176
     1
 90
        0
176
     1
290
     0
176
     1
290
     1
176
     1
290
     1
176
     1
290
     0
176
     1
290
     0
176
     1
290
     0
176
     1
290
     0
176
     1
290
     0
176
     1
290
     0
176
     1
 90
       50
176
     1
 40
0.0
176
     1
 40
1.0
176
     1
 90
        0
176
     1
 62
    18
420
        0
176
     1
 90
       50
176
     1
 90
        3
176
     1
 62
     5
420
      255
176
     1
290
     0
176
     1
 90
       50
176
     1
 90
       50
176
     1
 90
       50
176
     1
290
     0
176
     1
 90
       50
176
     1
 62
   256
176
     0
 40
1.0
176
     0
 90
        2
176
     1
  1
strokes_ogs.tif
176
     1
290
     0
176
     1
 40
1.0
176
     1
 40
1.0
176
     1
  0
VISUALSTYLE
  5
32
102
{ACAD_REACTORS
330
29
102
}
330
29
100
AcDbVisualStyle
  2
Conceptual
 70
     9
177
     3
291
     0
 70
    58
 90
        3
176
     1
 90
        2
176
     1
 90
        0
176
     1
 90
        0
176
     1
 40
0.6
176
     1
 40
30.0
176
     1
 62
     7
420
 16777215
176
     1
 90
        2
176
     1
 90
        2
176
     1
 62
     7
176
     1
 62
   257
176
     1
 90
        1
176
     1
 90
        1
176
     1
 40
179.0
176
     1
 90
        8
176
     1
 62
     7
176
     1
 40
1.0
176
     1
 90
        1
176
     1
 90
        6
176
     1
 90
        2
176
     1
 62
     7
176
     1
 90
        3
176
     1
 90
        0
176
     1
 90
        0
176
     1
290
     0
176
     1
 90
        1
176
     1
 40
0.0
176
     1
 90
        0
176
     1
290
     0
176
     1
290
     1
176
     1
290
     1
176
     1
290
     0
176
     1
290
     0
176
     1
290
     0
176
     1
290
     0
176
     1
290
     0
176
     1
290
     0
176
     1
 90
       50
176
     1
 40
0.0
176
     1
 40
1.0
176
     1
 90
        0
176
     1
 62
    18
420
        0
176
     1
 90
       50
176
     1
 90
        3
176
     1
 62
     5
420
      255
176
     1
290
     0
176
     1
 90
       50
176
     1
 90
       50
176
     1
 90
       50
176
     1
290
     0
176
     1
 90
       50
176
     1
 62
   256
176
     0
 40
1.0
176
     0
 90
        2
176
     1
  1
strokes_ogs.tif
176
     1
290
     0
176
     1
 40
1.0
176
     1
 40
1.0
176
     1
  0
VISUALSTYLE
  5
34
102
{ACAD_REACTORS
330
29
102
}
330
29
100
AcDbVisualStyle
  2
Dim
 70
    11
177
     3
291
     1
 70
    58
 90
        2
176
     1
 90
        2
176
     1
 90
        0
176
     1
 90
        0
176
     1
 40
0.6
176
     1
 40
30.0
176
     1
 62
     7
420
 16777215
176
     1
 90
        1
176
     1
 90
        4
176
     1
 62
     7
176
     1
 62
   257
176
     1
 90
        1
176
     1
 90
        1
176
     1
 40
1.0
176
     1
 90
        8
176
     1
 62
     7
176
     1
 40
1.0
176
     1
 90
        1
176
     1
 90
        6
176
     1
 90
        2
176
     1
 62
     7
176
     1
 90
        5
176
     1
 90
        0
176
     1
 90
        0
176
     1
290
     0
176
     1
 90
        1
176
     1
 40
-50.0
176
     1
 90
        0
176
     1
290
     0
176
     1
290
     1
176
     1
290
     1
176
     1
290
     0
176
     1
290
     0
176
     1
290
     0
176
     1
290
     0
176
     1
290
     0
176
     1
290
     0
176
     1
 90
       50
176
     1
 40
0.0
176
     1
 40
1.0
176
     1
 90
        0
176
     1
 62
    18
420
        0
176
     1
 90
       50
176
     1
 90
        3
176
     1
 62
     5
420
      255
176
     1
290
     0
176
     1
 90
       50
176
     1
 90
       50
176
     1
 90
       50
176
     1
290
     0
176
     1
 90
       50
176
     1
 62
   256
176
     0
 40
1.0
176
     0
 90
        2
176
     1
  1
strokes_ogs.tif
176
     1
290
     0
176
     1
 40
1.0
176
     1
 40
1.0
176
     1
  0
VISUALSTYLE
  5
41
102
{ACAD_REACTORS
330
29
102
}
330
29
100
AcDbVisualStyle
  2
EdgeColorOff
 70
    22
177
     3
291
     1
 70
    58
 90
        2
176
     0
 90
        2
176
     0
 90
        0
176
     0
 90
        0
176
     0
 40
0.6
176
     0
 40
30.0
176
     0
 62
     7
420
 16777215
176
     0
 90
        1
176
     0
 90
        4
176
     0
 62
     7
176
     0
 62
   257
176
     0
 90
        1
176
     0
 90
        1
176
     0
 40
1.0
176
     0
 90
        8
176
     2
 62
     7
176
     0
 40
1.0
176
     0
 90
        1
176
     0
 90
        6
176
     0
 90
        2
176
     0
 62
     7
176
     0
 90
        5
176
     0
 90
        0
176
     0
 90
        0
176
     0
290
     0
176
     0
 90
        1
176
     0
 40
0.0
176
     0
 90
        0
176
     0
290
     0
176
     0
290
     1
176
     0
290
     1
176
     0
290
     0
176
     0
290
     0
176
     0
290
     0
176
     0
290
     0
176
     0
290
     0
176
     0
290
     0
176
     0
 90
       50
176
     0
 40
0.0
176
     0
 40
1.0
176
     0
 90
        0
176
     0
 62
    18
420
        0
176
     0
 90
       50
176
     0
 90
        3
176
     0
 62
     5
420
      255
176
     0
290
     0
176
     0
 90
       50
176
     0
 90
       50
176
     0
 90
       50
176
     0
290
     0
176
     0
 90
       50
176
     0
 62
   256
176
     0
 40
1.0
176
     0
 90
        2
176
     0
  1
strokes_ogs.tif
176
     0
290
     0
176
     0
 40
1.0
176
     0
 40
1.0
176
     0
  0
VISUALSTYLE
  5
38
102
{ACAD_REACTORS
330
29
102
}
330
29
100
AcDbVisualStyle
  2
Facepattern
 70
    15
177
     3
291
     1
 70
    58
 90
        2
176
     1
 90
        2
176
     1
 90
        0
176
     1
 90
        0
176
     1
 40
0.6
176
     1
 40
30.0
176
     1
 62
     7
420
 16777215
176
     1
 90
        1
176
     1
 90
        4
176
     1
 62
     7
176
     1
 62
   257
176
     1
 90
        1
176
     1
 90
        1
176
     1
 40
1.0
176
     1
 90
        8
176
     1
 62
     7
176
     1
 40
1.0
176
     1
 90
        1
176
     1
 90
        6
176
     1
 90
        2
176
     1
 62
     7
176
     1
 90
        5
176
     1
 90
        0
176
     1
 90
        0
176
     1
290
     0
176
     1
 90
        1
176
     1
 40
0.0
176
     1
 90
        0
176
     1
290
     0
176
     1
290
     1
176
     1
290
     1
176
     1
290
     0
176
     1
290
     0
176
     1
290
     0
176
     1
290
     0
176
     1
290
     0
176
     1
290
     0
176
     1
 90
       50
176
     1
 40
0.0
176
     1
 40
1.0
176
     1
 90
        0
176
     1
 62
    18
420
        0
176
     1
 90
       50
176
     1
 90
        3
176
     1
 62
     5
420
      255
176
     1
290
     0
176
     1
 90
       50
176
     1
 90
       50
176
     1
 90
       50
176
     1
290
     0
176
     1
 90
       50
176
     1
 62
   256
176
     0
 40
1.0
176
     0
 90
        2
176
     1
  1
strokes_ogs.tif
176
     1
290
     0
176
     1
 40
1.0
176
     1
 40
1.0
176
     1
  0
VISUALSTYLE
  5
2A
102
{ACAD_REACTORS
330
29
102
}
330
29
100
AcDbVisualStyle
  2
Flat
 70
     0
177
     3
291
     1
 70
    58
 90
        2
176
     1
 90
        1
176
     1
 90
        1
176
     1
 90
        2
176
     1
 40
0.6
176
     1
 40
30.0
176
     1
 62
     7
420
 16777215
176
     1
 90
        0
176
     1
 90
        0
176
     1
 62
     7
176
     1
 62
   257
176
     1
 90
        1
176
     1
 90
        1
176
     1
 40
1.0
176
     1
 90
        8
176
     1
 62
     7
176
     1
 40
1.0
176
     1
 90
        1
176
     1
 90
        6
176
     1
 90
        2
176
     1
 62
     7
176
     1
 90
        5
176
     1
 90
        0
176
     1
 90
        0
176
     1
290
     0
176
     1
 90
       13
176
     1
 40
0.0
176
     1
 90
        0
176
     1
290
     0
176
     1
290
     1
176
     1
290
     1
176
     1
290
     0
176
     1
290
     0
176
     1
290
     0
176
     1
290
     0
176
     1
290
     0
176
     1
290
     0
176
     1
 90
       50
176
     1
 40
0.0
176
     1
 40
1.0
176
     1
 90
        0
176
     1
 62
    18
420
        0
176
     1
 90
       50
176
     1
 90
        3
176
     1
 62
     5
420
      255
176
     1
290
     0
176
     1
 90
       50
176
     1
 90
       50
176
     1
 90
       50
176
     1
290
     0
176
     1
 90
       50
176
     1
 62
   256
176
     0
 40
1.0
176
     0
 90
        2
176
     1
  1
strokes_ogs.tif
176
     1
290
     0
176
     1
 40
1.0
176
     1
 40
1.0
176
     1
  0
VISUALSTYLE
  5
2B
102
{ACAD_REACTORS
330
29
102
}
330
29
100
AcDbVisualStyle
  2
FlatWithEdges
 70
     1
177
     3
291
     1
 70
    58
 90
        2
176
     1
 90
        1
176
     1
 90
        1
176
     1
 90
        2
176
     1
 40
0.6
176
     1
 40
30.0
176
     1
 62
     7
420
 16777215
176
     1
 90
        1
176
     1
 90
        0
176
     1
 62
     7
176
     1
 62
   257
176
     1
 90
        1
176
     1
 90
        1
176
     1
 40
1.0
176
     1
 90
        0
176
     1
 62
   257
176
     1
 40
1.0
176
     1
 90
        1
176
     1
 90
        6
176
     1
 90
        2
176
     1
 62
     7
176
     1
 90
        5
176
     1
 90
        0
176
     1
 90
        0
176
     1
290
     0
176
     1
 90
       13
176
     1
 40
0.0
176
     1
 90
        0
176
     1
290
     0
176
     1
290
     1
176
     1
290
     1
176
     1
290
     0
176
     1
290
     0
176
     1
290
     0
176
     1
290
     0
176
     1
290
     0
176
     1
290
     0
176
     1
 90
       50
176
     1
 40
0.0
176
     1
 40
1.0
176
     1
 90
        0
176
     1
 62
    18
420
        0
176
     1
 90
       50
176
     1
 90
        3
176
     1
 62
     5
420
      255
176
     1
290
     0
176
     1
 90
       50
176
     1
 90
       50
176
     1
 90
       50
176
     1
290
     0
176
     1
 90
       50
176
     1
 62
   256
176
     0
 40
1.0
176
     0
 90
        2
176
     1
  1
strokes_ogs.tif
176
     1
290
     0
176
     1
 40
1.0
176
     1
 40
1.0
176
     1
  0
VISUALSTYLE
  5
2C
102
{ACAD_REACTORS
330
29
102
}
330
29
100
AcDbVisualStyle
  2
Gouraud
 70
     2
177
     3
291
     1
 70
    58
 90
        2
176
     1
 90
        2
176
     1
 90
        1
176
     1
 90
        2
176
     1
 40
0.6
176
     1
 40
30.0
176
     1
 62
     7
420
 16777215
176
     1
 90
        0
176
     1
 90
        0
176
     1
 62
     7
176
     1
 62
   257
176
     1
 90
        1
176
     1
 90
        1
176
     1
 40
1.0
176
     1
 90
        0
176
     1
 62
     7
176
     1
 40
1.0
176
     1
 90
        1
176
     1
 90
        6
176
     1
 90
        2
176
     1
 62
     7
176
     1
 90
        5
176
     1
 90
        0
176
     1
 90
        0
176
     1
290
     0
176
     1
 90
       13
176
     1
 40
0.0
176
     1
 90
        0
176
     1
290
     0
176
     1
290
     1
176
     1
290
     1
176
     1
290
     0
176
     1
290
     0
176
     1
290
     0
176
     1
290
     0
176
     1
290
     0
176
     1
290
     0
176
     1
 90
       50
176
     1
 40
0.0
176
     1
 40
1.0
176
     1
 90
        0
176
     1
 62
    18
420
        0
176
     1
 90
       50
176
     1
 90
        3
176
     1
 62
     5
420
      255
176
     1
290
     0
176
     1
 90
       50
176
     1
 90
       50
176
     1
 90
       50
176
     1
290
     0
176
     1
 90
       50
176
     1
 62
   256
176
     0
 40
1.0
176
     0
 90
        2
176
     1
  1
strokes_ogs.tif
176
     1
290
     0
176
     1
 40
1.0
176
     1
 40
1.0
176
     1
  0
VISUALSTYLE
  5
2D
102
{ACAD_REACTORS
330
29
102
}
330
29
100
AcDbVisualStyle
  2
GouraudWithEdges
 70
     3
177
     3
291
     1
 70
    58
 90
        2
176
     1
 90
        2
176
     1
 90
        1
176
     1
 90
        2
176
     1
 40
0.6
176
     1
 40
30.0
176
     1
 62
     7
420
 16777215
176
     1
 90
        1
176
     1
 90
        0
176
     1
 62
     7
176
     1
 62
   257
176
     1
 90
        1
176
     1
 90
        1
176
     1
 40
1.0
176
     1
 90
        0
176
     1
 62
   257
176
     1
 40
1.0
176
     1
 90
        1
176
     1
 90
        6
176
     1
 90
        2
176
     1
 62
     7
176
     1
 90
        5
176
     1
 90
        0
176
     1
 90
        0
176
     1
290
     0
176
     1
 90
       13
176
     1
 40
0.0
176
     1
 90
        0
176
     1
290
     0
176
     1
290
     1
176
     1
290
     1
176
     1
290
     0
176
     1
290
     0
176
     1
290
     0
176
     1
290
     0
176
     1
290
     0
176
     1
290
     0
176
     1
 90
       50
176
     1
 40
0.0
176
     1
 40
1.0
176
     1
 90
        0
176
     1
 62
    18
420
        0
176
     1
 90
       50
176
     1
 90
        3
176
     1
 62
     5
420
      255
176
     1
290
     0
176
     1
 90
       50
176
     1
 90
       50
176
     1
 90
       50
176
     1
290
     0
176
     1
 90
       50
176
     1
 62
   256
176
     0
 40
1.0
176
     0
 90
        2
176
     1
  1
strokes_ogs.tif
176
     1
290
     0
176
     1
 40
1.0
176
     1
 40
1.0
176
     1
  0
VISUALSTYLE
  5
31
102
{ACAD_REACTORS
330
29
102
}
330
29
100
AcDbVisualStyle
  2
Hidden
 70
     6
177
     3
291
     0
 70
    58
 90
        1
176
     1
 90
        2
176
     1
 90
        2
176
     1
 90
        0
176
     1
 40
0.6
176
     1
 40
30.0
176
     1
 62
     7
420
 16777215
176
     1
 90
        2
176
     1
 90
        2
176
     1
 62
     7
176
     1
 62
   257
176
     1
 90
        2
176
     1
 90
        1
176
     1
 40
40.0
176
     1
 90
        0
176
     1
 62
   257
176
     1
 40
1.0
176
     1
 90
        1
176
     1
 90
        6
176
     1
 90
        2
176
     1
 62
     7
176
     1
 90
        3
176
     1
 90
        0
176
     1
 90
        0
176
     1
290
     0
176
     1
 90
        1
176
     1
 40
0.0
176
     1
 90
        0
176
     1
290
     0
176
     1
290
     1
176
     1
290
     1
176
     1
290
     0
176
     1
290
     0
176
     1
290
     0
176
     1
290
     0
176
     1
290
     0
176
     1
290
     0
176
     1
 90
       50
176
     1
 40
0.0
176
     1
 40
1.0
176
     1
 90
        0
176
     1
 62
    18
420
        0
176
     1
 90
       50
176
     1
 90
        3
176
     1
 62
     5
420
      255
176
     1
290
     0
176
     1
 90
       50
176
     1
 90
       50
176
     1
 90
       50
176
     1
290
     0
176
     1
 90
       50
176
     1
 62
   256
176
     0
 40
1.0
176
     0
 90
        2
176
     1
  1
strokes_ogs.tif
176
     1
290
     0
176
     1
 40
1.0
176
     1
 40
1.0
176
     1
  0
VISUALSTYLE
  5
3F
102
{ACAD_REACTORS
330
29
102
}
330
29
100
AcDbVisualStyle
  2
JitterOff
 70
    20
177
     3
291
     1
 70
    58
 90
        2
176
     0
 90
        2
176
     0
 90
        0
176
     0
 90
        0
176
     0
 40
0.6
176
     0
 40
30.0
176
     0
 62
     7
420
 16777215
176
     0
 90
        1
176
     0
 90
        4
176
     0
 62
     7
176
     0
 62
   257
176
     0
 90
        1
176
     0
 90
        1
176
     0
 40
1.0
176
     0
 90
       10
176
     2
 62
     7
176
     0
 40
1.0
176
     0
 90
        1
176
     0
 90
        6
176
     0
 90
        2
176
     0
 62
     7
176
     0
 90
        5
176
     0
 90
        0
176
     0
 90
        0
176
     0
290
     0
176
     0
 90
        1
176
     0
 40
0.0
176
     0
 90
        0
176
     0
290
     0
176
     0
290
     1
176
     0
290
     1
176
     0
290
     0
176
     0
290
     0
176
     0
290
     0
176
     0
290
     0
176
     0
290
     0
176
     0
290
     0
176
     0
 90
       50
176
     0
 40
0.0
176
     0
 40
1.0
176
     0
 90
        0
176
     0
 62
    18
420
        0
176
     0
 90
       50
176
     0
 90
        3
176
     0
 62
     5
420
      255
176
     0
290
     0
176
     0
 90
       50
176
     0
 90
       50
176
     0
 90
       50
176
     0
290
     0
176
     0
 90
       50
176
     0
 62
   256
176
     0
 40
1.0
176
     0
 90
        2
176
     0
  1
strokes_ogs.tif
176
     0
290
     0
176
     0
 40
1.0
176
     0
 40
1.0
176
     0
  0
VISUALSTYLE
  5
37
102
{ACAD_REACTORS
330
29
102
}
330
29
100
AcDbVisualStyle
  2
Linepattern
 70
    14
177
     3
291
     1
 70
    58
 90
        2
176
     1
 90
        2
176
     1
 90
        0
176
     1
 90
        0
176
     1
 40
0.6
176
     1
 40
30.0
176
     1
 62
     7
420
 16777215
176
     1
 90
        1
176
     1
 90
        4
176
     1
 62
     7
176
     1
 62
   257
176
     1
 90
        7
176
     1
 90
        7
176
     1
 40
1.0
176
     1
 90
        8
176
     1
 62
     7
176
     1
 40
1.0
176
     1
 90
        1
176
     1
 90
        6
176
     1
 90
        2
176
     1
 62
     7
176
     1
 90
        5
176
     1
 90
        0
176
     1
 90
        0
176
     1
290
     0
176
     1
 90
        1
176
     1
 40
0.0
176
     1
 90
        0
176
     1
290
     0
176
     1
290
     1
176
     1
290
     1
176
     1
290
     0
176
     1
290
     0
176
     1
290
     0
176
     1
290
     0
176
     1
290
     0
176
     1
290
     0
176
     1
 90
       50
176
     1
 40
0.0
176
     1
 40
1.0
176
     1
 90
        0
176
     1
 62
    18
420
        0
176
     1
 90
       50
176
     1
 90
        3
176
     1
 62
     5
420
      255
176
     1
290
     0
176
     1
 90
       50
176
     1
 90
       50
176
     1
 90
       50
176
     1
290
     0
176
     1
 90
       50
176
     1
 62
   256
176
     0
 40
1.0
176
     0
 90
        2
176
     1
  1
strokes_ogs.tif
176
     1
290
     0
176
     1
 40
1.0
176
     1
 40
1.0
176
     1
  0
VISUALSTYLE
  5
40
102
{ACAD_REACTORS
330
29
102
}
330
29
100
AcDbVisualStyle
  2
OverhangOff
 70
    21
177
     3
291
     1
 70
    58
 90
        2
176
     0
 90
        2
176
     0
 90
        0
176
     0
 90
        0
176
     0
 40
0.6
176
     0
 40
30.0
176
     0
 62
     7
420
 16777215
176
     0
 90
        1
176
     0
 90
        4
176
     0
 62
     7
176
     0
 62
   257
176
     0
 90
        1
176
     0
 90
        1
176
     0
 40
1.0
176
     0
 90
        9
176
     2
 62
     7
176
     0
 40
1.0
176
     0
 90
        1
176
     0
 90
        6
176
     0
 90
        2
176
     0
 62
     7
176
     0
 90
        5
176
     0
 90
        0
176
     0
 90
        0
176
     0
290
     0
176
     0
 90
        1
176
     0
 40
0.0
176
     0
 90
        0
176
     0
290
     0
176
     0
290
     1
176
     0
290
     1
176
     0
290
     0
176
     0
290
     0
176
     0
290
     0
176
     0
290
     0
176
     0
290
     0
176
     0
290
     0
176
     0
 90
       50
176
     0
 40
0.0
176
     0
 40
1.0
176
     0
 90
        0
176
     0
 62
    18
420
        0
176
     0
 90
       50
176
     0
 90
        3
176
     0
 62
     5
420
      255
176
     0
290
     0
176
     0
 90
       50
176
     0
 90
       50
176
     0
 90
       50
176
     0
290
     0
176
     0
 90
       50
176
     0
 62
   256
176
     0
 40
1.0
176
     0
 90
        2
176
     0
  1
strokes_ogs.tif
176
     0
290
     0
176
     0
 40
1.0
176
     0
 40
1.0
176
     0
  0
VISUALSTYLE
  5
33
102
{ACAD_REACTORS
330
29
102
}
330
29
100
AcDbVisualStyle
  2
Realistic
 70
     8
177
     3
291
     0
 70
    58
 90
        2
176
     1
 90
        3
176
     1
 90
        0
176
     1
 90
        2
176
     1
 40
0.6
176
     1
 40
30.0
176
     1
 62
     7
420
 16777215
176
     1
 90
        0
176
     1
 90
        0
176
     1
 62
     7
176
     1
 62
   257
176
     1
 90
        1
176
     1
 90
        1
176
     1
 40
1.0
176
     1
 90
        8
176
     1
 62
   257
176
     1
 40
1.0
176
     1
 90
        1
176
     1
 90
        6
176
     1
 90
        2
176
     1
 62
     7
176
     1
 90
        3
176
     1
 90
        0
176
     1
 90
        0
176
     1
290
     0
176
     1
 90
       13
176
     1
 40
0.0
176
     1
 90
        0
176
     1
290
     0
176
     1
290
     1
176
     1
290
     1
176
     1
290
     0
176
     1
290
     0
176
     1
290
     0
176
     1
290
     0
176
     1
290
     0
176
     1
290
     0
176
     1
 90
       50
176
     1
 40
0.0
176
     1
 40
1.0
176
     1
 90
        0
176
     1
 62
    18
420
        0
176
     1
 90
       50
176
     1
 90
        3
176
     1
 62
     5
420
      255
176
     1
290
     0
176
     1
 90
       50
176
     1
 90
       50
176
     1
 90
       50
176
     1
290
     0
176
     1
 90
       50
176
     1
 62
   256
176
     0
 40
1.0
176
     0
 90
        2
176
     1
  1
strokes_ogs.tif
176
     1
290
     0
176
     1
 40
1.0
176
     1
 40
1.0
176
     1
  0
VISUALSTYLE
  5
3E
102
{ACAD_REACTORS
330
29
102
}
330
29
100
AcDbVisualStyle
  2
Shaded
 70
    27
177
     3
291
     0
 70
    58
 90
        2
176
     1
 90
        2
176
     1
 90
        1
176
     1
 90
        2
176
     1
 40
0.6
176
     1
 40
30.0
176
     1
 62
     7
420
 16777215
176
     1
 90
        0
176
     1
 90
        4
176
     1
 62
     7
176
     1
 62
   257
176
     1
 90
        1
176
     1
 90
        1
176
     1
 40
1.0
176
     1
 90
        8
176
     1
 62
   257
176
     1
 40
1.0
176
     1
 90
        1
176
     1
 90
        6
176
     1
 90
        2
176
     1
 62
     8
420
  7895160
176
     1
 90
        3
176
     1
 90
        0
176
     1
 90
        0
176
     1
290
     0
176
     1
 90
        5
176
     1
 40
0.0
176
     1
 90
        0
176
     1
290
     0
176
     1
290
     1
176
     1
290
     1
176
     1
290
     0
176
     1
290
     0
176
     1
290
     0
176
     1
290
     0
176
     1
290
     0
176
     1
290
     0
176
     1
 90
       50
176
     1
 40
0.0
176
     1
 40
1.0
176
     1
 90
        0
176
     1
 62
    18
420
        0
176
     1
 90
       50
176
     1
 90
        3
176
     1
 62
     5
420
      255
176
     1
290
     0
176
     1
 90
       50
176
     1
 90
       50
176
     1
 90
       50
176
     1
290
     0
176
     1
 90
       50
176
     1
 62
   256
176
     0
 40
1.0
176
     0
 90
        2
176
     1
  1
strokes_ogs.tif
176
     1
290
     0
176
     1
 40
1.0
176
     1
 40
1.0
176
     1
  0
VISUALSTYLE
  5
3D
102
{ACAD_REACTORS
330
29
102
}
330
29
100
AcDbVisualStyle
  2
Shaded with edges
 70
    26
177
     3
291
     0
 70
    58
 90
        2
176
     1
 90
        2
176
     1
 90
        1
176
     1
 90
        2
176
     1
 40
0.6
176
     1
 40
30.0
176
     1
 62
     7
420
 16777215
176
     1
 90
        1
176
     1
 90
        2
176
     1
 62
     7
176
     1
 62
   257
176
     1
 90
        2
176
     1
 90
        1
176
     1
 40
1.0
176
     1
 90
        8
176
     1
 62
   257
176
     1
 40
1.0
176
     1
 90
        1
176
     1
 90
        6
176
     1
 90
        2
176
     1
 62
     7
176
     1
 90
        3
176
     1
 90
        0
176
     1
 90
        0
176
     1
290
     0
176
     1
 90
        5
176
     1
 40
0.0
176
     1
 90
        0
176
     1
290
     0
176
     1
290
     1
176
     1
290
     1
176
     1
290
     0
176
     1
290
     0
176
     1
290
     0
176
     1
290
     0
176
     1
290
     0
176
     1
290
     0
176
     1
 90
       50
176
     1
 40
0.0
176
     1
 40
1.0
176
     1
 90
        0
176
     1
 62
    18
420
        0
176
     1
 90
       50
176
     1
 90
        3
176
     1
 62
     5
420
      255
176
     1
290
     0
176
     1
 90
       50
176
     1
 90
       50
176
     1
 90
       50
176
     1
290
     0
176
     1
 90
       50
176
     1
 62
   256
176
     0
 40
1.0
176
     0
 90
        2
176
     1
  1
strokes_ogs.tif
176
     1
290
     0
176
     1
 40
1.0
176
     1
 40
1.0
176
     1
  0
VISUALSTYLE
  5
3A
102
{ACAD_REACTORS
330
29
102
}
330
29
100
AcDbVisualStyle
  2
Shades of Gray
 70
    23
177
     3
291
     0
 70
    58
 90
        2
176
     1
 90
        2
176
     1
 90
        3
176
     1
 90
        0
176
     1
 40
0.6
176
     1
 40
30.0
176
     1
 62
     7
420
 16777215
176
     1
 90
        2
176
     1
 90
        2
176
     1
 62
     7
176
     1
 62
     7
176
     1
 90
        1
176
     1
 90
        1
176
     1
 40
40.0
176
     1
 90
        8
176
     1
 62
     7
176
     1
 40
1.0
176
     1
 90
        1
176
     1
 90
        6
176
     1
 90
        2
176
     1
 62
     7
176
     1
 90
        3
176
     1
 90
        0
176
     1
 90
        0
176
     1
290
     0
176
     1
 90
        1
176
     1
 40
0.0
176
     1
 90
        0
176
     1
290
     0
176
     1
290
     1
176
     1
290
     1
176
     1
290
     0
176
     1
290
     0
176
     1
290
     0
176
     1
290
     0
176
     1
290
     0
176
     1
290
     0
176
     1
 90
       50
176
     1
 40
0.0
176
     1
 40
1.0
176
     1
 90
        0
176
     1
 62
    18
420
        0
176
     1
 90
       50
176
     1
 90
        3
176
     1
 62
     5
420
      255
176
     1
290
     0
176
     1
 90
       50
176
     1
 90
       50
176
     1
 90
       50
176
     1
290
     0
176
     1
 90
       50
176
     1
 62
   256
176
     0
 40
1.0
176
     0
 90
        2
176
     1
  1
strokes_ogs.tif
176
     1
290
     0
176
     1
 40
1.0
176
     1
 40
1.0
176
     1
  0
VISUALSTYLE
  5
3B
102
{ACAD_REACTORS
330
29
102
}
330
29
100
AcDbVisualStyle
  2
Sketchy
 70
    24
177
     3
291
     0
 70
    58
 90
        1
176
     1
 90
        2
176
     1
 90
        2
176
     1
 90
        0
176
     1
 40
0.6
176
     1
 40
30.0
176
     1
 62
     7
420
 16777215
176
     1
 90
        2
176
     1
 90
        2
176
     1
 62
     7
176
     1
 62
     7
176
     1
 90
        1
176
     1
 90
        1
176
     1
 40
40.0
176
     1
 90
       11
176
     1
 62
     7
176
     1
 40
1.0
176
     1
 90
        1
176
     1
 90
        6
176
     1
 90
        2
176
     1
 62
     7
176
     1
 90
        6
176
     1
 90
        0
176
     1
 90
        0
176
     1
290
     0
176
     1
 90
        1
176
     1
 40
0.0
176
     1
 90
        0
176
     1
290
     0
176
     1
290
     1
176
     1
290
     1
176
     1
290
     0
176
     1
290
     0
176
     1
290
     0
176
     1
290
     0
176
     1
290
     0
176
     1
290
     0
176
     1
 90
       50
176
     1
 40
0.0
176
     1
 40
1.0
176
     1
 90
        0
176
     1
 62
    18
420
        0
176
     1
 90
       50
176
     1
 90
        3
176
     1
 62
     5
420
      255
176
     1
290
     0
176
     1
 90
       50
176
     1
 90
       50
176
     1
 90
       50
176
     1
290
     0
176
     1
 90
       50
176
     1
 62
   256
176
     0
 40
1.0
176
     0
 90
        2
176
     1
  1
strokes_ogs.tif
176
     1
290
     0
176
     1
 40
1.0
176
     1
 40
1.0
176
     1
  0
VISUALSTYLE
  5
36
102
{ACAD_REACTORS
330
29
102
}
330
29
100
AcDbVisualStyle
  2
Thicken
 70
    13
177
     3
291
     1
 70
    58
 90
        2
176
     1
 90
        2
176
     1
 90
        0
176
     1
 90
        0
176
     1
 40
0.6
176
     1
 40
30.0
176
     1
 62
     7
420
 16777215
176
     1
 90
        1
176
     1
 90
        4
176
     1
 62
     7
176
     1
 62
   257
176
     1
 90
        1
176
     1
 90
        1
176
     1
 40
1.0
176
     1
 90
       12
176
     1
 62
     7
176
     1
 40
1.0
176
     1
 90
        1
176
     1
 90
        6
176
     1
 90
        2
176
     1
 62
     7
176
     1
 90
        5
176
     1
 90
        0
176
     1
 90
        0
176
     1
290
     0
176
     1
 90
        1
176
     1
 40
0.0
176
     1
 90
        0
176
     1
290
     0
176
     1
290
     1
176
     1
290
     1
176
     1
290
     0
176
     1
290
     0
176
     1
290
     0
176
     1
290
     0
176
     1
290
     0
176
     1
290
     0
176
     1
 90
       50
176
     1
 40
0.0
176
     1
 40
1.0
176
     1
 90
        0
176
     1
 62
    18
420
        0
176
     1
 90
       50
176
     1
 90
        3
176
     1
 62
     5
420
      255
176
     1
290
     0
176
     1
 90
       50
176
     1
 90
       50
176
     1
 90
       50
176
     1
290
     0
176
     1
 90
       50
176
     1
 62
   256
176
     0
 40
1.0
176
     0
 90
        2
176
     1
  1
strokes_ogs.tif
176
     1
290
     0
176
     1
 40
1.0
176
     1
 40
1.0
176
     1
  0
VISUALSTYLE
  5
30
102
{ACAD_REACTORS
330
29
102
}
330
29
100
AcDbVisualStyle
  2
Wireframe
 70
     5
177
     3
291
     0
 70
    58
 90
        0
176
     1
 90
        2
176
     1
 90
        0
176
     1
 90
        0
176
     1
 40
0.6
176
     1
 40
30.0
176
     1
 62
     7
420
 16777215
176
     1
 90
        1
176
     1
 90
        4
176
     1
 62
     7
176
     1
 62
   257
176
     1
 90
        1
176
     1
 90
        1
176
     1
 40
1.0
176
     1
 90
        0
176
     1
 62
   257
176
     1
 40
1.0
176
     1
 90
        1
176
     1
 90
        6
176
     1
 90
        2
176
     1
 62
     7
176
     1
 90
        3
176
     1
 90
        0
176
     1
 90
        0
176
     1
290
     0
176
     1
 90
        1
176
     1
 40
0.0
176
     1
 90
        0
176
     1
290
     0
176
     1
290
     1
176
     1
290
     1
176
     1
290
     0
176
     1
290
     0
176
     1
290
     0
176
     1
290
     0
176
     1
290
     0
176
     1
290
     0
176
     1
 90
       50
176
     1
 40
0.0
176
     1
 40
1.0
176
     1
 90
        0
176
     1
 62
    18
420
        0
176
     1
 90
       50
176
     1
 90
        3
176
     1
 62
     5
420
      255
176
     1
290
     0
176
     1
 90
       50
176
     1
 90
       50
176
     1
 90
       50
176
     1
290
     0
176
     1
 90
       50
176
     1
 62
   256
176
     0
 40
1.0
176
     0
 90
        2
176
     1
  1
strokes_ogs.tif
176
     1
290
     0
176
     1
 40
1.0
176
     1
 40
1.0
176
     1
  0
VISUALSTYLE
  5
3C
102
{ACAD_REACTORS
330
29
102
}
330
29
100
AcDbVisualStyle
  2
X-Ray
 70
    25
177
     3
291
     0
 70
    58
 90
        2
176
     1
 90
        2
176
     1
 90
        1
176
     1
 90
        1
176
     1
 40
0.5
176
     1
 40
30.0
176
     1
 62
     7
420
 16777215
176
     1
 90
        1
176
     1
 90
        0
176
     1
 62
     7
176
     1
 62
   257
176
     1
 90
        1
176
     1
 90
        1
176
     1
 40
1.0
176
     1
 90
        8
176
     1
 62
     7
176
     1
 40
1.0
176
     1
 90
        1
176
     1
 90
        6
176
     1
 90
        2
176
     1
 62
     7
176
     1
 90
        3
176
     1
 90
        0
176
     1
 90
        0
176
     1
290
     0
176
     1
 90
       13
176
     1
 40
0.0
176
     1
 90
        0
176
     1
290
     0
176
     1
290
     1
176
     1
290
     1
176
     1
290
     0
176
     1
290
     0
176
     1
290
     0
176
     1
290
     0
176
     1
290
     0
176
     1
290
     0
176
     1
 90
       50
176
     1
 40
0.0
176
     1
 40
1.0
176
     1
 90
        0
176
     1
 62
    18
420
        0
176
     1
 90
       50
176
     1
 90
        3
176
     1
 62
     5
420
      255
176
     1
290
     0
176
     1
 90
       50
176
     1
 90
       50
176
     1
 90
       50
176
     1
290
     0
176
     1
 90
       50
176
     1
 62
   256
176
     0
 40
1.0
176
     0
 90
        2
176
     1
  1
strokes_ogs.tif
176
     1
290
     0
176
     1
 40
1.0
176
     1
 40
1.0
176
     1
  0
DICTIONARYVAR
  5
198
102
{ACAD_REACTORS
330
193
102
}
330
193
100
DictionaryVariables
280
     0
  1
1:1
  0
DICTIONARYVAR
  5
195
102
{ACAD_REACTORS
330
193
102
}
330
193
100
DictionaryVariables
280
     0
  1
STANDARD
  0
DICTIONARYVAR
  5
194
102
{ACAD_REACTORS
330
193
102
}
330
193
100
DictionaryVariables
280
     0
  1
STANDARD
  0
DICTIONARYVAR
  5
196
102
{ACAD_REACTORS
330
193
102
}
330
193
100
DictionaryVariables
280
     0
  1
Imperial24
  0
DICTIONARYVAR
  5
197
102
{ACAD_REACTORS
330
193
102
}
330
193
100
DictionaryVariables
280
     0
  1
Imperial24
  0
DICTIONARY
  5
1A
330
19
100
AcDbDictionary
280
     1
281
     1
  3
BUMPTILE
360
1C
  3
DIFFUSETILE
360
1B
  3
OPACITYTILE
360
1F
  3
REFLECTIONTILE
360
1E
  3
REFRACTIONTILE
360
20
  3
SPECULARTILE
360
1D
  0
DICTIONARY
  5
12
330
11
100
AcDbDictionary
280
     1
281
     1
  3
BUMPTILE
360
14
  3
DIFFUSETILE
360
13
  3
OPACITYTILE
360
17
  3
REFLECTIONTILE
360
16
  3
REFRACTIONTILE
360
18
  3
SPECULARTILE
360
15
  0
DICTIONARY
  5
22
330
21
100
AcDbDictionary
280
     1
281
     1
  3
BUMPTILE
360
24
  3
DIFFUSETILE
360
23
  3
OPACITYTILE
360
27
  3
REFLECTIONTILE
360
26
  3
REFRACTIONTILE
360
28
  3
SPECULARTILE
360
25
  0
DICTIONARY
  5
199
330
65
100
AcDbDictionary
280
     1
281
     1
  3
ACAD_ROUNDTRIP_2008_TABLESTYLE_CELLSTYLEMAP
360
19A
  0
XRECORD
  5
1C
102
{ACAD_REACTORS
330
1A
102
}
330
1A
100
AcDbXrecord
280
     1
270
     1
271
     1
  0
XRECORD
  5
1B
102
{ACAD_REACTORS
330
1A
102
}
330
1A
100
AcDbXrecord
280
     1
270
     1
271
     1
  0
XRECORD
  5
1F
102
{ACAD_REACTORS
330
1A
102
}
330
1A
100
AcDbXrecord
280
     1
270
     1
271
     1
  0
XRECORD
  5
1E
102
{ACAD_REACTORS
330
1A
102
}
330
1A
100
AcDbXrecord
280
     1
270
     1
271
     1
  0
XRECORD
  5
20
102
{ACAD_REACTORS
330
1A
102
}
330
1A
100
AcDbXrecord
280
     1
270
     1
271
     1
  0
XRECORD
  5
1D
102
{ACAD_REACTORS
330
1A
102
}
330
1A
100
AcDbXrecord
280
     1
270
     1
271
     1
  0
XRECORD
  5
14
102
{ACAD_REACTORS
330
12
102
}
330
12
100
AcDbXrecord
280
     1
270
     1
271
     1
  0
XRECORD
  5
13
102
{ACAD_REACTORS
330
12
102
}
330
12
100
AcDbXrecord
280
     1
270
     1
271
     1
  0
XRECORD
  5
17
102
{ACAD_REACTORS
330
12
102
}
330
12
100
AcDbXrecord
280
     1
270
     1
271
     1
  0
XRECORD
  5
16
102
{ACAD_REACTORS
330
12
102
}
330
12
100
AcDbXrecord
280
     1
270
     1
271
     1
  0
XRECORD
  5
18
102
{ACAD_REACTORS
330
12
102
}
330
12
100
AcDbXrecord
280
     1
270
     1
271
     1
  0
XRECORD
  5
15
102
{ACAD_REACTORS
330
12
102
}
330
12
100
AcDbXrecord
280
     1
270
     1
271
     1
  0
XRECORD
  5
24
102
{ACAD_REACTORS
330
22
102
}
330
22
100
AcDbXrecord
280
     1
270
     1
271
     1
  0
XRECORD
  5
23
102
{ACAD_REACTORS
330
22
102
}
330
22
100
AcDbXrecord
280
     1
270
     1
271
     1
  0
XRECORD
  5
27
102
{ACAD_REACTORS
330
22
102
}
330
22
100
AcDbXrecord
280
     1
270
     1
271
     1
  0
XRECORD
  5
26
102
{ACAD_REACTORS
330
22
102
}
330
22
100
AcDbXrecord
280
     1
270
     1
271
     1
  0
XRECORD
  5
28
102
{ACAD_REACTORS
330
22
102
}
330
22
100
AcDbXrecord
280
     1
270
     1
271
     1
  0
XRECORD
  5
25
102
{ACAD_REACTORS
330
22
102
}
330
22
100
AcDbXrecord
280
     1
270
     1
271
     1
  0
CELLSTYLEMAP
  5
19A
102
{ACAD_REACTORS
330
199
102
}
330
199
100
AcDbCellStyleMap
 90
        3
300
CELLSTYLE
  1
TABLEFORMAT_BEGIN
 90
        5
170
     1
 91
        0
 92
    32768
 62
   257
 93
        1
300
CONTENTFORMAT
  1
CONTENTFORMAT_BEGIN
 90
        0
 91
        0
 92
      512
 93
        0
300

 40
0.0
140
1.0
 94
        5
 62
     0
340
55
144
0.25
309
CONTENTFORMAT_END
171
     0
 94
        0
309
TABLEFORMAT_END
  1
CELLSTYLE_BEGIN
 90
        1
 91
        1
300
_TITLE
309
CELLSTYLE_END
300
CELLSTYLE
  1
TABLEFORMAT_BEGIN
 90
        5
170
     1
 91
        0
 92
        0
 62
   257
 93
        1
300
CONTENTFORMAT
  1
CONTENTFORMAT_BEGIN
 90
        0
 91
        0
 92
      512
 93
        0
300

 40
0.0
140
1.0
 94
        5
 62
     0
340
55
144
0.18
309
CONTENTFORMAT_END
171
     0
 94
        0
309
TABLEFORMAT_END
  1
CELLSTYLE_BEGIN
 90
        2
 91
        1
300
_HEADER
309
CELLSTYLE_END
300
CELLSTYLE
  1
TABLEFORMAT_BEGIN
 90
        5
170
     1
 91
        0
 92
        0
 62
   257
 93
        1
300
CONTENTFORMAT
  1
CONTENTFORMAT_BEGIN
 90
        0
 91
        0
 92
      512
 93
        0
300

 40
0.0
140
1.0
 94
        2
 62
     0
340
55
144
0.18
309
CONTENTFORMAT_END
171
     0
 94
        0
309
TABLEFORMAT_END
  1
CELLSTYLE_BEGIN
 90
        3
 91
        2
300
_DATA
309
CELLSTYLE_END
  0
ENDSEC
  0
EOF
