  0
SECTION
  2
HEADER
  9
$ACADVER
  1
AC1032
  9
$ACADMAINTVER
 90
      251
  9
$DWGCODEPAGE
  3
ANSI_1252
  9
$REQUIREDVERSIONS
160
                 0
  9
$INSBASE
 10
0.0
 20
0.0
 30
0.0
  9
$EXTMIN
 10
1.000000000000000E+20
 20
1.000000000000000E+20
 30
1.000000000000000E+20
  9
$EXTMAX
 10
-1.000000000000000E+20
 20
-1.000000000000000E+20
 30
-1.000000000000000E+20
  9
$LIMMIN
 10
0.0
 20
0.0
  9
$LIMMAX
 10
12.0
 20
9.0
  9
$ORTHOMODE
 70
     0
  9
$REGENMODE
 70
     1
  9
$FILLMODE
 70
     1
  9
$QTEXTMODE
 70
     0
  9
$MIRRTEXT
 70
     0
  9
$LTSCALE
 40
1.0
  9
$ATTMODE
 70
     1
  9
$TEXTSIZE
 40
0.2
  9
$TRACEWID
 40
0.05
  9
$TEXTSTYLE
  7
Standard
  9
$CLAYER
  8
0
  9
$CELTYPE
  6
ByLayer
  9
$CECOLOR
 62
   256
  9
$CELTSCALE
 40
1.0
  9
$DISPSILH
 70
     0
  9
$DIMSCALE
 40
1.0
  9
$DIMASZ
 40
0.18
  9
$DIMEXO
 40
0.0625
  9
$DIMDLI
 40
0.38
  9
$DIMRND
 40
0.0
  9
$DIMDLE
 40
0.0
  9
$DIMEXE
 40
0.18
  9
$DIMTP
 40
0.0
  9
$DIMTM
 40
0.0
  9
$DIMTXT
 40
0.18
  9
$DIMCEN
 40
0.09
  9
$DIMTSZ
 40
0.0
  9
$DIMTOL
 70
     0
  9
$DIMLIM
 70
     0
  9
$DIMTIH
 70
     1
  9
$DIMTOH
 70
     1
  9
$DIMSE1
 70
     0
  9
$DIMSE2
 70
     0
  9
$DIMTAD
 70
     0
  9
$DIMZIN
 70
     0
  9
$DIMBLK
  1

  9
$DIMASO
 70
     1
  9
$DIMSHO
 70
     1
  9
$DIMPOST
  1

  9
$DIMAPOST
  1

  9
$DIMALT
 70
     0
  9
$DIMALTD
 70
     2
  9
$DIMALTF
 40
25.4
  9
$DIMLFAC
 40
1.0
  9
$DIMTOFL
 70
     0
  9
$DIMTVP
 40
0.0
  9
$DIMTIX
 70
     0
  9
$DIMSOXD
 70
     0
  9
$DIMSAH
 70
     0
  9
$DIMBLK1
  1

  9
$DIMBLK2
  1

  9
$DIMSTYLE
  2
Standard
  9
$DIMCLRD
 70
     0
  9
$DIMCLRE
 70
     0
  9
$DIMCLRT
 70
     0
  9
$DIMTFAC
 40
1.0
  9
$DIMGAP
 40
0.09
  9
$DIMJUST
 70
     0
  9
$DIMSD1
 70
     0
  9
$DIMSD2
 70
     0
  9
$DIMTOLJ
 70
     1
  9
$DIMTZIN
 70
     0
  9
$DIMALTZ
 70
     0
  9
$DIMALTTZ
 70
     0
  9
$DIMUPT
 70
     0
  9
$DIMDEC
 70
     4
  9
$DIMTDEC
 70
     4
  9
$DIMALTU
 70
     2
  9
$DIMALTTD
 70
     2
  9
$DIMTXSTY
  7
Standard
  9
$DIMAUNIT
 70
     0
  9
$DIMADEC
 70
     0
  9
$DIMALTRND
 40
0.0
  9
$DIMAZIN
 70
     0
  9
$DIMDSEP
 70
    46
  9
$DIMATFIT
 70
     3
  9
$DIMFRAC
 70
     0
  9
$DIMLDRBLK
  1

  9
$DIMLUNIT
 70
     2
  9
$DIMLWD
 70
    -2
  9
$DIMLWE
 70
    -2
  9
$DIMTMOVE
 70
     0
  9
$DIMFXL
 40
1.0
  9
$DIMFXLON
 70
     0
  9
$DIMJOGANG
 40
0.7853981633974483
  9
$DIMTFILL
 70
     0
  9
$DIMTFILLCLR
 70
     0
  9
$DIMARCSYM
 70
     0
  9
$DIMLTYPE
  6

  9
$DIMLTEX1
  6

  9
$DIMLTEX2
  6

  9
$DIMTXTDIRECTION
 70
     0
  9
$LUNITS
 70
     2
  9
$LUPREC
 70
     4
  9
$SKETCHINC
 40
0.1
  9
$FILLETRAD
 40
0.0
  9
$AUNITS
 70
     0
  9
$AUPREC
 70
     0
  9
$MENU
  1
.
  9
$ELEVATION
 40
0.0
  9
$PELEVATION
 40
0.0
  9
$THICKNESS
 40
0.0
  9
$LIMCHECK
 70
     0
  9
$CHAMFERA
 40
0.0
  9
$CHAMFERB
 40
0.0
  9
$CHAMFERC
 40
0.0
  9
$CHAMFERD
 40
0.0
  9
$SKPOLY
 70
     0
  9
$TDCREATE
 40
2460035.534305556
  9
$TDUCREATE
 40
2460035.450972222
  9
$TDUPDATE
 40
2460035.534305556
  9
$TDUUPDATE
 40
2460035.450972222
  9
$TDINDWG
 40
0.0000000000
  9
$TDUSRTIMER
 40
0.0000000000
  9
$USRTIMER
 70
     1
  9
$ANGBASE
 50
0.0
  9
$ANGDIR
 70
     0
  9
$PDMODE
 70
     0
  9
$PDSIZE
 40
0.0
  9
$PLINEWID
 40
0.0
  9
$SPLFRAME
 70
     0
  9
$SPLINETYPE
 70
     6
  9
$SPLINESEGS
 70
     8
  9
$HANDSEED
  5
3B9
  9
$SURFTAB1
 70
     6
  9
$SURFTAB2
 70
     6
  9
$SURFTYPE
 70
     6
  9
$SURFU
 70
     6
  9
$SURFV
 70
     6
  9
$UCSBASE
  2

  9
$UCSNAME
  2

  9
$UCSORG
 10
0.0
 20
0.0
 30
0.0
  9
$UCSXDIR
 10
1.0
 20
0.0
 30
0.0
  9
$UCSYDIR
 10
0.0
 20
1.0
 30
0.0
  9
$UCSORTHOREF
  2

  9
$UCSORTHOVIEW
 70
     0
  9
$UCSORGTOP
 10
0.0
 20
0.0
 30
0.0
  9
$UCSORGBOTTOM
 10
0.0
 20
0.0
 30
0.0
  9
$UCSORGLEFT
 10
0.0
 20
0.0
 30
0.0
  9
$UCSORGRIGHT
 10
0.0
 20
0.0
 30
0.0
  9
$UCSORGFRONT
 10
0.0
 20
0.0
 30
0.0
  9
$UCSORGBACK
 10
0.0
 20
0.0
 30
0.0
  9
$PUCSBASE
  2

  9
$PUCSNAME
  2

  9
$PUCSORG
 10
0.0
 20
0.0
 30
0.0
  9
$PUCSXDIR
 10
1.0
 20
0.0
 30
0.0
  9
$PUCSYDIR
 10
0.0
 20
1.0
 30
0.0
  9
$PUCSORTHOREF
  2

  9
$PUCSORTHOVIEW
 70
     0
  9
$PUCSORGTOP
 10
0.0
 20
0.0
 30
0.0
  9
$PUCSORGBOTTOM
 10
0.0
 20
0.0
 30
0.0
  9
$PUCSORGLEFT
 10
0.0
 20
0.0
 30
0.0
  9
$PUCSORGRIGHT
 10
0.0
 20
0.0
 30
0.0
  9
$PUCSORGFRONT
 10
0.0
 20
0.0
 30
0.0
  9
$PUCSORGBACK
 10
0.0
 20
0.0
 30
0.0
  9
$USERI1
 70
     0
  9
$USERI2
 70
     0
  9
$USERI3
 70
     0
  9
$USERI4
 70
     0
  9
$USERI5
 70
     0
  9
$USERR1
 40
0.0
  9
$USERR2
 40
0.0
  9
$USERR3
 40
0.0
  9
$USERR4
 40
0.0
  9
$USERR5
 40
0.0
  9
$WORLDVIEW
 70
     1
  9
$SHADEDGE
 70
     3
  9
$SHADEDIF
 70
    70
  9
$TILEMODE
 70
     1
  9
$MAXACTVP
 70
    64
  9
$PINSBASE
 10
0.0
 20
0.0
 30
0.0
  9
$PLIMCHECK
 70
     0
  9
$PEXTMIN
 10
1.000000000000000E+20
 20
1.000000000000000E+20
 30
1.000000000000000E+20
  9
$PEXTMAX
 10
-1.000000000000000E+20
 20
-1.000000000000000E+20
 30
-1.000000000000000E+20
  9
$PLIMMIN
 10
0.0
 20
0.0
  9
$PLIMMAX
 10
12.0
 20
9.0
  9
$UNITMODE
 70
     0
  9
$VISRETAIN
 70
     1
  9
$PLINEGEN
 70
     0
  9
$PSLTSCALE
 70
     1
  9
$TREEDEPTH
 70
  3020
  9
$CMLSTYLE
  2
Standard
  9
$CMLJUST
 70
     0
  9
$CMLSCALE
 40
1.0
  9
$PROXYGRAPHICS
 70
     1
  9
$MEASUREMENT
 70
     0
  9
$CELWEIGHT
370
    -1
  9
$ENDCAPS
280
     0
  9
$JOINSTYLE
280
     0
  9
$LWDISPLAY
290
     1
  9
$INSUNITS
 70
     4
  9
$HYPERLINKBASE
  1

  9
$STYLESHEET
  1

  9
$XEDIT
290
     1
  9
$CEPSNTYPE
380
     0
  9
$PSTYLEMODE
290
     1
  9
$FINGERPRINTGUID
  2
{A242129F-7E1E-1C49-8200-31854D87C5AD}
  9
$VERSIONGUID
  2
{48F90D42-B800-3F46-83BE-95D449D7D983}
  9
$EXTNAMES
290
     1
  9
$PSVPSCALE
 40
0.0
  9
$OLESTARTUP
290
     0
  9
$SORTENTS
280
   127
  9
$INDEXCTL
280
     0
  9
$HIDETEXT
280
     1
  9
$XCLIPFRAME
280
     2
  9
$HALOGAP
280
     0
  9
$OBSCOLOR
 70
   257
  9
$OBSLTYPE
280
     0
  9
$INTERSECTIONDISPLAY
280
     0
  9
$INTERSECTIONCOLOR
 70
   257
  9
$DIMASSOC
280
     2
  9
$PROJECTNAME
  1

  9
$CAMERADISPLAY
290
     0
  9
$LENSLENGTH
 40
50.0
  9
$CAMERAHEIGHT
 40
0.0
  9
$STEPSPERSEC
 40
2.0
  9
$STEPSIZE
 40
6.0
  9
$3DDWFPREC
 40
2.0
  9
$PSOLWIDTH
 40
0.25
  9
$PSOLHEIGHT
 40
4.0
  9
$LOFTANG1
 40
1.570796326794896
  9
$LOFTANG2
 40
1.570796326794896
  9
$LOFTMAG1
 40
0.0
  9
$LOFTMAG2
 40
0.0
  9
$LOFTPARAM
 70
     7
  9
$LOFTNORMALS
280
     1
  9
$LATITUDE
 40
37.795
  9
$LONGITUDE
 40
-122.394
  9
$NORTHDIRECTION
 40
0.0
  9
$TIMEZONE
 70
 -8000
  9
$LIGHTGLYPHDISPLAY
280
     1
  9
$TILEMODELIGHTSYNCH
280
     1
  9
$CMATERIAL
347
11
  9
$SOLIDHIST
280
     0
  9
$SHOWHIST
280
     1
  9
$DWFFRAME
280
     2
  9
$DGNFRAME
280
     0
  9
$REALWORLDSCALE
290
     1
  9
$INTERFERECOLOR
 62
     1
  9
$INTERFEREOBJVS
345
33
  9
$INTERFEREVPVS
346
30
  9
$CSHADOW
280
     0
  9
$SHADOWPLANELOCATION
 40
0.0
  0
ENDSEC
  0
SECTION
  2
CLASSES
  0
CLASS
  1
ACDBDICTIONARYWDFLT
  2
AcDbDictionaryWithDefault
  3
ObjectDBX Classes
 90
        0
 91
        1
280
     0
281
     0
  0
CLASS
  1
MATERIAL
  2
AcDbMaterial
  3
ObjectDBX Classes
 90
     1153
 91
        3
280
     0
281
     0
  0
CLASS
  1
VISUALSTYLE
  2
AcDbVisualStyle
  3
ObjectDBX Classes
 90
     4095
 91
       24
280
     0
281
     0
  0
CLASS
  1
SCALE
  2
AcDbScale
  3
ObjectDBX Classes
 90
     1153
 91
       17
280
     0
281
     0
  0
CLASS
  1
TABLESTYLE
  2
AcDbTableStyle
  3
ObjectDBX Classes
 90
     4095
 91
        1
280
     0
281
     0
  0
CLASS
  1
MLEADERSTYLE
  2
AcDbMLeaderStyle
  3
ACDB_MLEADERSTYLE_CLASS
 90
     4095
 91
        1
280
     0
281
     0
  0
CLASS
  1
ACDBSECTIONVIEWSTYLE
  2
AcDbSectionViewStyle
  3
ObjectDBX Classes
 90
     1025
 91
        1
280
     0
281
     0
  0
CLASS
  1
ACDBDETAILVIEWSTYLE
  2
AcDbDetailViewStyle
  3
ObjectDBX Classes
 90
     1025
 91
        1
280
     0
281
     0
  0
CLASS
  1
DICTIONARYVAR
  2
AcDbDictionaryVar
  3
ObjectDBX Classes
 90
        0
 91
        5
280
     0
281
     0
  0
CLASS
  1
CELLSTYLEMAP
  2
AcDbCellStyleMap
  3
ObjectDBX Classes
 90
     1152
 91
        1
280
     0
281
     0
  0
ENDSEC
  0
SECTION
  2
TABLES
  0
TABLE
  2
VPORT
  5
8
330
0
100
AcDbSymbolTable
 70
     1
  0
VPORT
  5
57
330
8
100
AcDbSymbolTableRecord
100
AcDbViewportTableRecord
  2
*Active
 70
     0
 10
0.0
 20
0.0
 11
1.0
 21
1.0
 12
0.0
 22
0.0
 13
0.0
 23
0.0
 14
1.0
 24
1.0
 15
0.0
 25
0.0
 16
0.0
 26
0.0
 36
1.0
 17
104.9999999737499
 27
31.49999999212523
 37
0.0
 40
302.9399999242649
 41
0.7070707070707066
 42
50.0
 43
0.0
 44
0.0
 50
0.0
 51
0.0
 71
     0
 72
   100
 73
     1
 74
     1
 75
     0
 76
     0
 77
     0
 78
     0
281
     0
 65
     1
110
0.0
120
0.0
130
0.0
111
1.0
121
0.0
131
0.0
112
0.0
122
1.0
132
0.0
 79
     0
146
0.0
 60
     3
 61
     5
292
     1
282
     1
141
0.0
142
0.0
 63
   250
421
  3355443
  0
ENDTAB
  0
TABLE
  2
LTYPE
  5
5
330
0
100
AcDbSymbolTable
 70
     1
  0
LTYPE
  5
5B
330
5
100
AcDbSymbolTableRecord
100
AcDbLinetypeTableRecord
  2
ByBlock
 70
     0
  3

 72
    65
 73
     0
 40
0.0
  0
LTYPE
  5
5C
330
5
100
AcDbSymbolTableRecord
100
AcDbLinetypeTableRecord
  2
ByLayer
 70
     0
  3

 72
    65
 73
     0
 40
0.0
  0
LTYPE
  5
5D
330
5
100
AcDbSymbolTableRecord
100
AcDbLinetypeTableRecord
  2
Continuous
 70
     0
  3
Solid line
 72
    65
 73
     0
 40
0.0
  0
ENDTAB
  0
TABLE
  2
LAYER
  5
2
330
0
100
AcDbSymbolTable
 70
     2
  0
LAYER
  5
54
330
2
100
AcDbSymbolTableRecord
100
AcDbLayerTableRecord
  2
0
 70
     0
 62
     7
  6
Continuous
370
     0
390
F
347
21
348
0
  0
LAYER
  5
38B
330
2
100
AcDbSymbolTableRecord
100
AcDbLayerTableRecord
  2
CAPA_BASE
 70
     0
 62
     7
  6
Continuous
370
     0
390
F
347
21
348
0
  0
ENDTAB
  0
TABLE
  2
STYLE
  5
3
330
0
100
AcDbSymbolTable
 70
     2
  0
STYLE
  5
55
330
3
100
AcDbSymbolTableRecord
100
AcDbTextStyleTableRecord
  2
Standard
 70
     0
 40
0.0
 41
1.0
 50
0.0
 71
     0
 42
0.2
  3
txt
  4

  0
STYLE
  5
5A
330
3
100
AcDbSymbolTableRecord
100
AcDbTextStyleTableRecord
  2
Annotative
 70
     0
 40
0.0
 41
1.0
 50
0.0
 71
     0
 42
0.2
  3
txt
  4

1001
AcadAnnotative
1000
AnnotativeData
1002
{
1070
     1
1070
     1
1002
}
  0
ENDTAB
  0
TABLE
  2
VIEW
  5
6
330
0
100
AcDbSymbolTable
 70
     0
  0
ENDTAB
  0
TABLE
  2
UCS
  5
7
330
0
100
AcDbSymbolTable
 70
     0
  0
ENDTAB
  0
TABLE
  2
APPID
  5
9
330
0
100
AcDbSymbolTable
 70
     2
  0
APPID
  5
56
330
9
100
AcDbSymbolTableRecord
100
AcDbRegAppTableRecord
  2
ACAD
 70
     0
  0
APPID
  5
5E
330
9
100
AcDbSymbolTableRecord
100
AcDbRegAppTableRecord
  2
AcadAnnotative
 70
     0
  0
ENDTAB
  0
TABLE
  2
DIMSTYLE
  5
A
330
0
100
AcDbSymbolTable
 70
     2
100
AcDbDimStyleTable
 71
     0
  0
DIMSTYLE
105
58
330
A
100
AcDbSymbolTableRecord
100
AcDbDimStyleTableRecord
  2
Standard
 70
     0
340
55
  0
DIMSTYLE
105
59
330
A
100
AcDbSymbolTableRecord
100
AcDbDimStyleTableRecord
  2
Annotative
 70
     0
340
55
1001
AcadAnnotative
1000
AnnotativeData
1002
{
1070
     1
1070
     1
1002
}
  0
ENDTAB
  0
TABLE
  2
BLOCK_RECORD
  5
1
330
0
100
AcDbSymbolTable
 70
     4
  0
BLOCK_RECORD
  5
70
330
1
100
AcDbSymbolTableRecord
100
AcDbBlockTableRecord
  2
*Model_Space
340
73
 70
     0
280
     1
281
     0
  0
BLOCK_RECORD
  5
6C
330
1
100
AcDbSymbolTableRecord
100
AcDbBlockTableRecord
  2
*Paper_Space
340
6F
 70
     0
280
     1
281
     0
  0
BLOCK_RECORD
  5
74
330
1
100
AcDbSymbolTableRecord
100
AcDbBlockTableRecord
  2
*Paper_Space0
340
77
 70
     0
280
     1
281
     0
  0
BLOCK_RECORD
  5
38C
330
1
100
AcDbSymbolTableRecord
100
AcDbBlockTableRecord
  2
Block_0
340
0
102
{BLKREFS
331
38D
102
}
 70
     0
280
     1
281
     0
  0
BLOCK_RECORD
  5
398
330
1
100
AcDbSymbolTableRecord
100
AcDbBlockTableRecord
  2
Block_1
340
0
102
{BLKREFS
331
399
102
}
 70
     0
280
     1
281
     0
  0
BLOCK_RECORD
  5
3A4
330
1
100
AcDbSymbolTableRecord
100
AcDbBlockTableRecord
  2
Block_2
340
0
102
{BLKREFS
331
3A5
102
}
 70
     0
280
     1
281
     0
  0
ENDTAB
  0
ENDSEC
  0
SECTION
  2
BLOCKS
  0
BLOCK
  5
71
330
70
100
AcDbEntity
  8
0
100
AcDbBlockBegin
  2
*Model_Space
 70
     0
 10
0.0
 20
0.0
 30
0.0
  3
*Model_Space
  1

  0
ENDBLK
  5
72
330
70
100
AcDbEntity
  8
0
100
AcDbBlockEnd
  0
BLOCK
  5
6D
330
6C
100
AcDbEntity
 67
     1
  8
0
100
AcDbBlockBegin
  2
*Paper_Space
 70
     0
 10
0.0
 20
0.0
 30
0.0
  3
*Paper_Space
  1

  0
ENDBLK
  5
6E
330
6C
100
AcDbEntity
 67
     1
  8
0
100
AcDbBlockEnd
  0
BLOCK
  5
75
330
74
100
AcDbEntity
 67
     1
  8
0
100
AcDbBlockBegin
  2
*Paper_Space0
 70
     0
 10
0.0
 20
0.0
 30
0.0
  3
*Paper_Space0
  1

  0
ENDBLK
  5
76
330
74
100
AcDbEntity
 67
     1
  8
0
100
AcDbBlockEnd
  0
BLOCK
  5
38E
330
38C
100
AcDbEntity
  8
0
100
AcDbBlockBegin
  2
Block_0
 70
     0
 10
0.0
 20
0.0
 30
0.0
  3
Block_0
  1

  0
LWPOLYLINE
  5
390
330
38C
100
AcDbEntity
  8
CAPA_BASE
100
AcDbPolyline
 90
        4
 70
     1
 43
0.0
 10
110.2091069130839
 20
74.56566093359846
 10
107.7091069130841
 20
74.87566093359882
 10
107.7091069130841
 20
74.25566093359875
 10
107.7091069130841
 20
74.25566093359875
  0
HATCH
  5
391
330
38C
100
AcDbEntity
  8
CAPA_BASE
 62
    18
420
        0
440
 33554687
100
AcDbHatch
 10
0.0
 20
0.0
 30
0.0
210
0.0
220
0.0
230
1.0
  2
SOLID
 70
     1
 71
     1
 91
        1
 92
        1
 93
        3
 72
     1
 10
110.2091069130839
 20
74.56566093359846
 11
107.7091069130841
 21
74.87566093359882
 72
     1
 10
107.7091069130841
 20
74.87566093359882
 11
107.7091069130841
 21
74.25566093359875
 72
     1
 10
107.7091069130841
 20
74.25566093359875
 11
110.2091069130839
 21
74.56566093359846
 97
        1
330
390
 75
     2
 76
     1
 98
        1
 10
0.0
 20
0.0
450
        0
451
        0
460
0.0
461
0.0
452
        0
462
0.0
453
        0
470

  0
LWPOLYLINE
  5
392
330
38C
100
AcDbEntity
  8
CAPA_BASE
100
AcDbPolyline
 90
        4
 70
     1
 43
0.0
 10
10.20910691308424
 20
74.56566093359846
 10
12.70910691308433
 20
74.25566093359875
 10
12.70910691308433
 20
74.87566093359882
 10
12.70910691308433
 20
74.87566093359882
  0
HATCH
  5
393
330
38C
100
AcDbEntity
  8
CAPA_BASE
 62
    18
420
        0
440
 33554687
100
AcDbHatch
 10
0.0
 20
0.0
 30
0.0
210
0.0
220
0.0
230
1.0
  2
SOLID
 70
     1
 71
     1
 91
        1
 92
        1
 93
        3
 72
     1
 10
10.20910691308424
 20
74.56566093359846
 11
12.70910691308433
 21
74.25566093359875
 72
     1
 10
12.70910691308433
 20
74.25566093359875
 11
12.70910691308433
 21
74.87566093359882
 72
     1
 10
12.70910691308433
 20
74.87566093359882
 11
10.20910691308424
 21
74.56566093359846
 97
        1
330
392
 75
     2
 76
     1
 98
        1
 10
0.0
 20
0.0
450
        0
451
        0
460
0.0
461
0.0
452
        0
462
0.0
453
        0
470

  0
LINE
  5
394
330
38C
100
AcDbEntity
  8
CAPA_BASE
 62
    18
420
        0
370
    25
100
AcDbLine
 10
110.2091069130839
 20
95.39899426699895
 30
0.0
 11
110.2091069130839
 21
73.56566093359908
 31
0.0
  0
LINE
  5
395
330
38C
100
AcDbEntity
  8
CAPA_BASE
 62
    18
420
        0
370
    25
100
AcDbLine
 10
10.20910691308424
 20
95.39899426699895
 30
0.0
 11
10.20910691308424
 21
73.56566093359908
 31
0.0
  0
LINE
  5
396
330
38C
100
AcDbEntity
  8
CAPA_BASE
 62
    18
420
        0
370
    25
100
AcDbLine
 10
110.2091069130839
 20
74.56566093359846
 30
0.0
 11
10.20910691308424
 21
74.56566093359846
 31
0.0
  0
MTEXT
  5
397
330
38C
100
AcDbEntity
  8
CAPA_BASE
100
AcDbMText
 10
57.5632714869384
 20
75.35940744847244
 30
0.0
 40
0.2
 41
0.0
 46
0.0
 71
     7
 72
     1
  1
\C18;\c0;\FArial Bold|b1|i0|c1;\H2.997200;\W0.700000;300
 73
     1
 44
1.0
  0
ENDBLK
  5
38F
330
38C
100
AcDbEntity
  8
0
100
AcDbBlockEnd
  0
BLOCK
  5
39A
330
398
100
AcDbEntity
  8
0
100
AcDbBlockBegin
  2
Block_1
 70
     0
 10
0.0
 20
0.0
 30
0.0
  3
Block_1
  1

  0
LWPOLYLINE
  5
39C
330
398
100
AcDbEntity
  8
CAPA_BASE
100
AcDbPolyline
 90
        4
 70
     1
 43
0.0
 10
135.0295711165843
 20
106.2323276002989
 10
134.719571116584
 20
103.7323276002989
 10
135.3395711165841
 20
103.7323276002989
 10
135.3395711165841
 20
103.7323276002989
  0
HATCH
  5
39D
330
398
100
AcDbEntity
  8
CAPA_BASE
 62
    18
420
        0
440
 33554687
100
AcDbHatch
 10
0.0
 20
0.0
 30
0.0
210
0.0
220
0.0
230
1.0
  2
SOLID
 70
     1
 71
     1
 91
        1
 92
        1
 93
        3
 72
     1
 10
135.0295711165843
 20
106.2323276002989
 11
134.719571116584
 21
103.7323276002989
 72
     1
 10
134.719571116584
 20
103.7323276002989
 11
135.3395711165841
 21
103.7323276002989
 72
     1
 10
135.3395711165841
 20
103.7323276002989
 11
135.0295711165843
 21
106.2323276002989
 97
        1
330
39C
 75
     2
 76
     1
 98
        1
 10
0.0
 20
0.0
450
        0
451
        0
460
0.0
461
0.0
452
        0
462
0.0
453
        0
470

  0
LWPOLYLINE
  5
39E
330
398
100
AcDbEntity
  8
CAPA_BASE
100
AcDbPolyline
 90
        4
 70
     1
 43
0.0
 10
135.0295711165843
 20
84.56566093359882
 10
135.3395711165841
 20
87.06566093359922
 10
134.719571116584
 20
87.06566093359922
 10
134.719571116584
 20
87.06566093359922
  0
HATCH
  5
39F
330
398
100
AcDbEntity
  8
CAPA_BASE
 62
    18
420
        0
440
 33554687
100
AcDbHatch
 10
0.0
 20
0.0
 30
0.0
210
0.0
220
0.0
230
1.0
  2
SOLID
 70
     1
 71
     1
 91
        1
 92
        1
 93
        3
 72
     1
 10
135.0295711165843
 20
84.56566093359882
 11
135.3395711165841
 21
87.06566093359922
 72
     1
 10
135.3395711165841
 20
87.06566093359922
 11
134.719571116584
 21
87.06566093359922
 72
     1
 10
134.719571116584
 20
87.06566093359922
 11
135.0295711165843
 21
84.56566093359882
 97
        1
330
39E
 75
     2
 76
     1
 98
        1
 10
0.0
 20
0.0
450
        0
451
        0
460
0.0
461
0.0
452
        0
462
0.0
453
        0
470

  0
LINE
  5
3A0
330
398
100
AcDbEntity
  8
CAPA_BASE
 62
    18
420
        0
370
    25
100
AcDbLine
 10
144.029571116584
 20
106.2323276002989
 30
0.0
 11
134.0295711165843
 21
106.2323276002989
 31
0.0
  0
LINE
  5
3A1
330
398
100
AcDbEntity
  8
CAPA_BASE
 62
    18
420
        0
370
    25
100
AcDbLine
 10
152.1962377831839
 20
84.56566093359882
 30
0.0
 11
134.0295711165843
 21
84.56566093359882
 31
0.0
  0
LINE
  5
3A2
330
398
100
AcDbEntity
  8
CAPA_BASE
 62
    18
420
        0
370
    25
100
AcDbLine
 10
135.0295711165843
 20
106.2323276002989
 30
0.0
 11
135.0295711165843
 21
84.56566093359882
 31
0.0
  0
MTEXT
  5
3A3
330
398
100
AcDbEntity
  8
CAPA_BASE
100
AcDbMText
 10
134.2358241805293
 20
93.63493921270174
 30
0.0
 40
0.2
 41
0.0
 46
0.0
 71
     7
 72
     1
  1
\C18;\c0;\FArial Bold|b1|i0|c1;\H2.997200;\W0.700000;65
 11
0.0000000000000003
 21
1.0
 31
0.0
 73
     1
 44
1.0
  0
ENDBLK
  5
39B
330
398
100
AcDbEntity
  8
0
100
AcDbBlockEnd
  0
BLOCK
  5
3A6
330
3A4
100
AcDbEntity
  8
0
100
AcDbBlockBegin
  2
Block_2
 70
     0
 10
0.0
 20
0.0
 30
0.0
  3
Block_2
  1

  0
LWPOLYLINE
  5
3A8
330
3A4
100
AcDbEntity
  8
CAPA_BASE
100
AcDbPolyline
 90
        4
 70
     1
 43
0.0
 10
120.2091069130842
 20
3.933736478698986
 10
120.519106913084
 20
6.433736478698754
 10
119.8991069130839
 20
6.433736478698754
 10
119.8991069130839
 20
6.433736478698754
  0
HATCH
  5
3A9
330
3A4
100
AcDbEntity
  8
CAPA_BASE
 62
    18
420
        0
440
 33554687
100
AcDbHatch
 10
0.0
 20
0.0
 30
0.0
210
0.0
220
0.0
230
1.0
  2
SOLID
 70
     1
 71
     1
 91
        1
 92
        1
 93
        3
 72
     1
 10
120.2091069130842
 20
3.933736478698986
 11
120.519106913084
 21
6.433736478698754
 72
     1
 10
120.519106913084
 20
6.433736478698754
 11
119.8991069130839
 21
6.433736478698754
 72
     1
 10
119.8991069130839
 20
6.433736478698754
 11
120.2091069130842
 21
3.933736478698986
 97
        1
330
3A8
 75
     2
 76
     1
 98
        1
 10
0.0
 20
0.0
450
        0
451
        0
460
0.0
461
0.0
452
        0
462
0.0
453
        0
470

  0
LWPOLYLINE
  5
3AA
330
3A4
100
AcDbEntity
  8
CAPA_BASE
100
AcDbPolyline
 90
        4
 70
     1
 43
0.0
 10
120.2091069130842
 20
47.60040314529917
 10
119.8991069130839
 20
45.10040314529876
 10
120.519106913084
 20
45.10040314529876
 10
120.519106913084
 20
45.10040314529876
  0
HATCH
  5
3AB
330
3A4
100
AcDbEntity
  8
CAPA_BASE
 62
    18
420
        0
440
 33554687
100
AcDbHatch
 10
0.0
 20
0.0
 30
0.0
210
0.0
220
0.0
230
1.0
  2
SOLID
 70
     1
 71
     1
 91
        1
 92
        1
 93
        3
 72
     1
 10
120.2091069130842
 20
47.60040314529917
 11
119.8991069130839
 21
45.10040314529876
 72
     1
 10
119.8991069130839
 20
45.10040314529876
 11
120.519106913084
 21
45.10040314529876
 72
     1
 10
120.519106913084
 20
45.10040314529876
 11
120.2091069130842
 21
47.60040314529917
 97
        1
330
3AA
 75
     2
 76
     1
 98
        1
 10
0.0
 20
0.0
450
        0
451
        0
460
0.0
461
0.0
452
        0
462
0.0
453
        0
470

  0
LINE
  5
3AC
330
3A4
100
AcDbEntity
  8
CAPA_BASE
 62
    18
420
        0
370
    25
100
AcDbLine
 10
111.2091069130839
 20
3.933736478698986
 30
0.0
 11
121.2091069130843
 21
3.933736478698986
 31
0.0
  0
LINE
  5
3AD
330
3A4
100
AcDbEntity
  8
CAPA_BASE
 62
    18
420
        0
370
    25
100
AcDbLine
 10
97.87577357978417
 20
47.60040314529917
 30
0.0
 11
121.2091069130843
 21
47.60040314529917
 31
0.0
  0
LINE
  5
3AE
330
3A4
100
AcDbEntity
  8
CAPA_BASE
 62
    18
420
        0
370
    25
100
AcDbLine
 10
120.2091069130842
 20
3.933736478698986
 30
0.0
 11
120.2091069130842
 21
47.60040314529917
 31
0.0
  0
MTEXT
  5
3AF
330
3A4
100
AcDbEntity
  8
CAPA_BASE
100
AcDbMText
 10
119.4153558008692
 20
23.12141383970512
 30
0.0
 40
0.2
 41
0.0
 46
0.0
 71
     7
 72
     1
  1
\C18;\c0;\FArial Bold|b1|i0|c1;\H2.997200;\W0.700000;131
 11
0.0000000000000003
 21
1.0
 31
0.0
 73
     1
 44
1.0
  0
ENDBLK
  5
3A7
330
3A4
100
AcDbEntity
  8
0
100
AcDbBlockEnd
  0
ENDSEC
  0
SECTION
  2
ENTITIES
  0
SPLINE
  5
78
330
70
100
AcDbEntity
  8
0
 62
    18
420
        0
370
    25
100
AcDbSpline
210
0.0
220
0.0
230
1.0
 70
     8
 71
     3
 72
     8
 73
     4
 74
     0
 42
0.0000000001
 43
0.0000000001
 40
0.0
 40
0.0
 40
0.0
 40
0.0
 40
1.0
 40
1.0
 40
1.0
 40
1.0
 10
11.62577357978417
 20
86.5656609335989
 30
0.0
 10
11.62577357978417
 20
86.01337618376858
 30
0.0
 10
12.07348882995324
 20
85.56566093359885
 30
0.0
 10
12.6257735797842
 20
85.56566093359885
 30
0.0
  0
SPLINE
  5
79
330
70
100
AcDbEntity
  8
0
 62
    18
420
        0
370
    25
100
AcDbSpline
210
0.0
220
0.0
230
1.0
 70
     8
 71
     3
 72
     8
 73
     4
 74
     0
 42
0.0000000001
 43
0.0000000001
 40
0.0
 40
0.0
 40
0.0
 40
0.0
 40
1.0
 40
1.0
 40
1.0
 40
1.0
 10
10.62577357978413
 20
86.5656609335989
 30
0.0
 10
10.62577357978413
 20
85.46109143393698
 30
0.0
 10
11.52120408012261
 20
84.56566093359882
 30
0.0
 10
12.6257735797842
 20
84.56566093359882
 30
0.0
  0
LINE
  5
7A
330
70
100
AcDbEntity
  8
0
 62
    18
420
        0
370
    25
100
AcDbLine
 10
10.62577397718417
 20
91.56566077549886
 30
0.0
 11
10.62577397718417
 21
86.56566057679881
 31
0.0
  0
LINE
  5
7B
330
70
100
AcDbEntity
  8
0
 62
    18
420
        0
370
    25
100
AcDbLine
 10
11.62577352018412
 20
86.56566057679881
 30
0.0
 11
11.62577352018412
 21
89.83360940289911
 31
0.0
  0
LINE
  5
7C
330
70
100
AcDbEntity
  8
0
 62
    18
420
        0
370
    25
100
AcDbLine
 10
108.7924384185845
 20
89.83360940289911
 30
0.0
 11
108.7924384185845
 21
86.56566057679881
 31
0.0
  0
LINE
  5
7D
330
70
100
AcDbEntity
  8
0
 62
    18
420
        0
370
    25
100
AcDbLine
 10
109.7924404451843
 20
86.56566057679881
 30
0.0
 11
109.7924404451843
 21
91.56566077549886
 31
0.0
  0
SPLINE
  5
7E
330
70
100
AcDbEntity
  8
0
 62
    18
420
        0
370
    25
100
AcDbSpline
210
0.0
220
0.0
230
1.0
 70
     8
 71
     3
 72
     8
 73
     4
 74
     0
 42
0.0000000001
 43
0.0000000001
 40
0.0
 40
0.0
 40
0.0
 40
0.0
 40
1.0
 40
1.0
 40
1.0
 40
1.0
 10
107.792440246484
 20
85.56566093359885
 30
0.0
 10
108.344724996315
 20
85.56566093359885
 30
0.0
 10
108.7924402464841
 20
86.01337618376858
 30
0.0
 10
108.7924402464841
 20
86.5656609335989
 30
0.0
  0
SPLINE
  5
7F
330
70
100
AcDbEntity
  8
0
 62
    18
420
        0
370
    25
100
AcDbSpline
210
0.0
220
0.0
230
1.0
 70
     8
 71
     3
 72
     8
 73
     4
 74
     0
 42
0.0000000001
 43
0.0000000001
 40
0.0
 40
0.0
 40
0.0
 40
0.0
 40
1.0
 40
1.0
 40
1.0
 40
1.0
 10
107.792440246484
 20
84.56566093359882
 30
0.0
 10
108.897009746146
 20
84.56566093359882
 30
0.0
 10
109.7924402464841
 20
85.46109143393698
 30
0.0
 10
109.7924402464841
 20
86.5656609335989
 30
0.0
  0
LINE
  5
80
330
70
100
AcDbEntity
  8
0
 62
    18
420
        0
370
    25
100
AcDbLine
 10
107.7924413590843
 20
85.56566103369942
 30
0.0
 11
12.62577306318407
 21
85.56566103369942
 31
0.0
  0
LINE
  5
81
330
70
100
AcDbEntity
  8
0
 62
    18
420
        0
370
    25
100
AcDbLine
 10
12.62577306318407
 20
84.56566149069884
 30
0.0
 11
107.7924413590843
 21
84.56566149069884
 31
0.0
  0
LINE
  5
82
330
70
100
AcDbEntity
  8
0
 62
    18
420
        0
370
    25
100
AcDbLine
 10
108.7924384185845
 20
96.23232820699875
 30
0.0
 11
108.7924384185845
 21
91.56566077549886
 31
0.0
  0
LINE
  5
83
330
70
100
AcDbEntity
  8
0
 62
    18
420
        0
370
    25
100
AcDbLine
 10
109.7924404451843
 20
91.56566077549886
 30
0.0
 11
109.7924404451843
 21
96.23232820699875
 31
0.0
  0
LINE
  5
84
330
70
100
AcDbEntity
  8
0
 62
    18
420
        0
370
    25
100
AcDbLine
 10
107.7924413590843
 20
90.5656612323988
 30
0.0
 11
12.62577306318407
 21
90.5656612323988
 31
0.0
  0
LINE
  5
85
330
70
100
AcDbEntity
  8
0
 62
    18
420
        0
370
    25
100
AcDbLine
 10
12.62577306318407
 20
89.56566168939918
 30
0.0
 11
107.7924413590843
 21
89.56566168939918
 31
0.0
  0
LINE
  5
86
330
70
100
AcDbEntity
  8
0
 62
    18
420
        0
370
    25
100
AcDbLine
 10
10.62577397718417
 20
96.23232820699875
 30
0.0
 11
10.62577397718417
 21
91.56566077549886
 31
0.0
  0
LINE
  5
87
330
70
100
AcDbEntity
  8
0
 62
    18
420
        0
370
    25
100
AcDbLine
 10
11.62577352018412
 20
91.56566077549886
 30
0.0
 11
11.62577352018412
 21
96.23232820699875
 31
0.0
  0
SPLINE
  5
88
330
70
100
AcDbEntity
  8
0
 62
    18
420
        0
370
    25
100
AcDbSpline
210
0.0
220
0.0
230
1.0
 70
     8
 71
     3
 72
     8
 73
     4
 74
     0
 42
0.0000000001
 43
0.0000000001
 40
0.0
 40
0.0
 40
0.0
 40
0.0
 40
1.0
 40
1.0
 40
1.0
 40
1.0
 10
11.62577357978417
 20
91.56566093359876
 30
0.0
 10
11.62577357978417
 20
91.01337618376811
 30
0.0
 10
12.07348882995324
 20
90.56566093359903
 30
0.0
 10
12.6257735797842
 20
90.56566093359903
 30
0.0
  0
SPLINE
  5
89
330
70
100
AcDbEntity
  8
0
 62
    18
420
        0
370
    25
100
AcDbSpline
210
0.0
220
0.0
230
1.0
 70
     8
 71
     3
 72
     8
 73
     4
 74
     0
 42
0.0000000001
 43
0.0000000001
 40
0.0
 40
0.0
 40
0.0
 40
0.0
 40
1.0
 40
1.0
 40
1.0
 40
1.0
 10
10.62577357978413
 20
91.56566093359876
 30
0.0
 10
10.62577357978413
 20
90.46109143393715
 30
0.0
 10
11.52120408012261
 20
89.56566093359899
 30
0.0
 10
12.6257735797842
 20
89.56566093359899
 30
0.0
  0
SPLINE
  5
8A
330
70
100
AcDbEntity
  8
0
 62
    18
420
        0
370
    25
100
AcDbSpline
210
0.0
220
0.0
230
1.0
 70
     8
 71
     3
 72
     8
 73
     4
 74
     0
 42
0.0000000001
 43
0.0000000001
 40
0.0
 40
0.0
 40
0.0
 40
0.0
 40
1.0
 40
1.0
 40
1.0
 40
1.0
 10
107.792440246484
 20
90.56566093359903
 30
0.0
 10
108.344724996315
 20
90.56566093359903
 30
0.0
 10
108.7924402464841
 20
91.01337618376811
 30
0.0
 10
108.7924402464841
 20
91.56566093359876
 30
0.0
  0
SPLINE
  5
8B
330
70
100
AcDbEntity
  8
0
 62
    18
420
        0
370
    25
100
AcDbSpline
210
0.0
220
0.0
230
1.0
 70
     8
 71
     3
 72
     8
 73
     4
 74
     0
 42
0.0000000001
 43
0.0000000001
 40
0.0
 40
0.0
 40
0.0
 40
0.0
 40
1.0
 40
1.0
 40
1.0
 40
1.0
 10
107.792440246484
 20
89.56566093359899
 30
0.0
 10
108.897009746146
 20
89.56566093359899
 30
0.0
 10
109.7924402464841
 20
90.46109143393715
 30
0.0
 10
109.7924402464841
 20
91.56566093359876
 30
0.0
  0
SPLINE
  5
8C
330
70
100
AcDbEntity
  8
0
 62
    18
420
        0
370
    25
100
AcDbSpline
210
0.0
220
0.0
230
1.0
 70
     8
 71
     3
 72
    11
 73
     7
 74
     0
 42
0.0000000001
 43
0.0000000001
 40
0.0
 40
0.0
 40
0.0
 40
0.0
 40
1.0
 40
1.0
 40
1.0
 40
2.0
 40
2.0
 40
2.0
 40
2.0
 10
10.37577471230897
 20
99.5656608450006
 30
0.0
 10
10.28372829366064
 20
99.56566207119699
 30
0.0
 10
10.20910893407879
 20
99.49104469967224
 30
0.0
 10
10.20910770788272
 20
99.3989982810239
 30
0.0
 10
10.20910770786283
 20
99.39899680087352
 30
0.0
 10
10.20910770786283
 20
99.39899532072443
 30
0.0
 10
10.20910770788272
 20
99.39899384057405
 30
0.0
  0
LINE
  5
8D
330
70
100
AcDbEntity
  8
0
 62
    18
420
        0
370
    25
100
AcDbLine
 10
11.87577402678418
 20
99.565660844999
 30
0.0
 11
10.37577471228426
 21
99.565660844999
 31
0.0
  0
SPLINE
  5
8E
330
70
100
AcDbEntity
  8
0
 62
    18
420
        0
370
    25
100
AcDbSpline
210
0.0
220
0.0
230
1.0
 70
     8
 71
     3
 72
     8
 73
     4
 74
     0
 42
0.0000000001
 43
0.0000000001
 40
0.0
 40
0.0
 40
0.0
 40
0.0
 40
1.0
 40
1.0
 40
1.0
 40
1.0
 10
12.04243978951477
 20
99.39899384060163
 30
0.0
 10
12.04244002644289
 20
99.49104109864684
 30
0.0
 10
11.96782128489614
 20
99.56566039614946
 30
0.0
 10
11.87577402685188
 20
99.56566084502789
 30
0.0
  0
LINE
  5
8F
330
70
100
AcDbEntity
  8
0
 62
    18
420
        0
370
    25
100
AcDbLine
 10
12.04243978948429
 20
96.39899396969886
 30
0.0
 11
12.04243978948429
 21
99.39899384059906
 31
0.0
  0
SPLINE
  5
90
330
70
100
AcDbEntity
  8
0
 62
    18
420
        0
370
    25
100
AcDbSpline
210
0.0
220
0.0
230
1.0
 70
     8
 71
     3
 72
    11
 73
     7
 74
     0
 42
0.0000000001
 43
0.0000000001
 40
0.0
 40
0.0
 40
0.0
 40
0.0
 40
1.0
 40
1.0
 40
1.0
 40
2.0
 40
2.0
 40
2.0
 40
2.0
 10
11.87577402678034
 20
96.23232820703982
 30
0.0
 10
11.96782044540557
 20
96.23232766662688
 30
0.0
 10
12.04243924903092
 20
96.30694559407027
 30
0.0
 10
12.04243978944354
 20
96.39899201269518
 30
0.0
 10
12.04243978944739
 20
96.39899266503038
 30
0.0
 10
12.04243978944739
 20
96.39899331736751
 30
0.0
 10
12.04243978944354
 20
96.39899396970271
 30
0.0
  0
LINE
  5
91
330
70
100
AcDbEntity
  8
0
 62
    18
420
        0
370
    25
100
AcDbLine
 10
11.87577402678418
 20
96.23232820699875
 30
0.0
 11
10.37577471228426
 21
96.23232820699875
 31
0.0
  0
SPLINE
  5
92
330
70
100
AcDbEntity
  8
0
 62
    18
420
        0
370
    25
100
AcDbSpline
210
0.0
220
0.0
230
1.0
 70
     8
 71
     3
 72
    11
 73
     7
 74
     0
 42
0.0000000001
 43
0.0000000001
 40
0.0
 40
0.0
 40
0.0
 40
0.0
 40
1.0
 40
1.0
 40
1.0
 40
2.0
 40
2.0
 40
2.0
 40
2.0
 10
10.20910770781503
 20
96.39899396972902
 30
0.0
 10
10.20910534611839
 20
96.30694937236791
 30
0.0
 10
10.28372032069317
 20
96.23233056872619
 30
0.0
 10
10.37576491805396
 20
96.23232820702956
 30
0.0
 10
10.37576818278317
 20
96.23232820694582
 30
0.0
 10
10.37577144751238
 20
96.232328206958
 30
0.0
 10
10.37577471224127
 20
96.23232820706613
 30
0.0
  0
LINE
  5
93
330
70
100
AcDbEntity
  8
0
 62
    18
420
        0
370
    25
100
AcDbLine
 10
10.20910770788433
 20
99.39899384059906
 30
0.0
 11
10.20910770788433
 21
96.39899396969886
 31
0.0
  0
SPLINE
  5
94
330
70
100
AcDbEntity
  8
0
 62
    18
420
        0
370
    25
100
AcDbSpline
210
0.0
220
0.0
230
1.0
 70
     8
 71
     3
 72
    11
 73
     7
 74
     0
 42
0.0000000001
 43
0.0000000001
 40
0.0
 40
0.0
 40
0.0
 40
0.0
 40
1.0
 40
1.0
 40
1.0
 40
2.0
 40
2.0
 40
2.0
 40
2.0
 10
108.375772149249
 20
96.39899396973447
 30
0.0
 10
108.375772993673
 20
96.30694616626882
 30
0.0
 10
108.4503931663828
 20
96.23232736264025
 30
0.0
 10
108.5424409698488
 20
96.23232820706389
 30
0.0
 10
108.5424411923027
 20
96.23232820706613
 30
0.0
 10
108.5424414147484
 20
96.23232820706871
 30
0.0
 10
108.5424416372023
 20
96.23232820707158
 30
0.0
  0
LINE
  5
95
330
70
100
AcDbEntity
  8
0
 62
    18
420
        0
370
    25
100
AcDbLine
 10
108.3757721492843
 20
99.39899384059906
 30
0.0
 11
108.3757721492843
 21
96.39899396969886
 31
0.0
  0
SPLINE
  5
96
330
70
100
AcDbEntity
  8
0
 62
    18
420
        0
370
    25
100
AcDbSpline
210
0.0
220
0.0
230
1.0
 70
     8
 71
     3
 72
    11
 73
     7
 74
     0
 42
0.0000000001
 43
0.0000000001
 40
0.0
 40
0.0
 40
0.0
 40
0.0
 40
1.0
 40
1.0
 40
1.0
 40
2.0
 40
2.0
 40
2.0
 40
2.0
 10
108.5424416371895
 20
99.56566084500991
 30
0.0
 10
108.4503946740386
 20
99.565662898297
 30
0.0
 10
108.3757742025602
 20
99.49104575585527
 30
0.0
 10
108.3757721492734
 20
99.39899879270413
 30
0.0
 10
108.3757721492362
 20
99.3989971419972
 30
0.0
 10
108.375772149224
 20
99.39899549129027
 30
0.0
 10
108.3757721492362
 20
99.39899384058335
 30
0.0
  0
LINE
  5
97
330
70
100
AcDbEntity
  8
0
 62
    18
420
        0
370
    25
100
AcDbLine
 10
110.042442193584
 20
99.565660844999
 30
0.0
 11
108.5424416371843
 21
99.565660844999
 31
0.0
  0
SPLINE
  5
98
330
70
100
AcDbEntity
  8
0
 62
    18
420
        0
370
    25
100
AcDbSpline
210
0.0
220
0.0
230
1.0
 70
     8
 71
     3
 72
     8
 73
     4
 74
     0
 42
0.0000000001
 43
0.0000000001
 40
0.0
 40
0.0
 40
0.0
 40
0.0
 40
1.0
 40
1.0
 40
1.0
 40
1.0
 10
110.2091067144466
 20
99.39899384057756
 30
0.0
 10
110.209105269839
 20
99.49103991717272
 30
0.0
 10
110.1344882701108
 20
99.56565802879559
 30
0.0
 10
110.0424421935474
 20
99.5656608450038
 30
0.0
  0
SPLINE
  5
99
330
70
100
AcDbEntity
  8
0
 62
    18
420
        0
370
    25
100
AcDbSpline
210
0.0
220
0.0
230
1.0
 70
     8
 71
     3
 72
     8
 73
     4
 74
     0
 42
0.0000000001
 43
0.0000000001
 40
0.0
 40
0.0
 40
0.0
 40
0.0
 40
1.0
 40
1.0
 40
1.0
 40
1.0
 10
110.0424421935853
 20
96.23232820700293
 30
0.0
 10
110.134488665982
 20
96.2323288969141
 30
0.0
 10
110.2091067103795
 20
96.3069474972662
 30
0.0
 10
110.2091067144851
 20
96.39899396966582
 30
0.0
  0
LINE
  5
9A
330
70
100
AcDbEntity
  8
0
 62
    18
420
        0
370
    25
100
AcDbLine
 10
110.042442193584
 20
96.23232820699875
 30
0.0
 11
108.5424416371843
 21
96.23232820699875
 31
0.0
  0
LINE
  5
9B
330
70
100
AcDbEntity
  8
0
 62
    18
420
        0
370
    25
100
AcDbLine
 10
110.2091067144838
 20
99.39899384059906
 30
0.0
 11
110.2091067144838
 21
96.39899396969886
 31
0.0
  0
LINE
  5
9C
330
70
100
AcDbEntity
  8
0
 62
    18
420
        0
370
    25
100
AcDbLine
 10
11.87577402678418
 20
99.565660844999
 30
0.0
 11
15.20910666478411
 21
99.565660844999
 31
0.0
  0
LINE
  5
9D
330
70
100
AcDbEntity
  8
0
 62
    18
420
        0
370
    25
100
AcDbLine
 10
15.20910666478411
 20
99.565660844999
 30
0.0
 11
15.20910666478411
 21
99.39899384059906
 31
0.0
  0
LINE
  5
9E
330
70
100
AcDbEntity
  8
0
 62
    18
420
        0
370
    25
100
AcDbLine
 10
15.20910666478411
 20
99.39899384059906
 30
0.0
 11
12.04243978948429
 21
99.39899384059906
 31
0.0
  0
LINE
  5
9F
330
70
100
AcDbEntity
  8
0
 62
    18
420
        0
370
    25
100
AcDbLine
 10
15.20910666478411
 20
99.39899384059906
 30
0.0
 11
15.20910666478411
 21
96.39899396969886
 31
0.0
  0
LINE
  5
A0
330
70
100
AcDbEntity
  8
0
 62
    18
420
        0
370
    25
100
AcDbLine
 10
12.04243978948429
 20
96.39899396969886
 30
0.0
 11
15.20910666478411
 21
96.39899396969886
 31
0.0
  0
LINE
  5
A1
330
70
100
AcDbEntity
  8
0
 62
    18
420
        0
370
    25
100
AcDbLine
 10
15.20910666478411
 20
96.39899396969886
 30
0.0
 11
15.20910666478411
 21
96.23232820699875
 31
0.0
  0
LINE
  5
A2
330
70
100
AcDbEntity
  8
0
 62
    18
420
        0
370
    25
100
AcDbLine
 10
15.20910666478411
 20
96.23232820699875
 30
0.0
 11
11.87577402678418
 21
96.23232820699875
 31
0.0
  0
LINE
  5
A3
330
70
100
AcDbEntity
  8
0
 62
    18
420
        0
370
    25
100
AcDbLine
 10
108.3757721492843
 20
99.39899384059906
 30
0.0
 11
105.2091065157841
 21
99.39899384059906
 31
0.0
  0
LINE
  5
A4
330
70
100
AcDbEntity
  8
0
 62
    18
420
        0
370
    25
100
AcDbLine
 10
105.2091065157841
 20
99.565660844999
 30
0.0
 11
105.2091065157841
 21
99.39899384059906
 31
0.0
  0
LINE
  5
A5
330
70
100
AcDbEntity
  8
0
 62
    18
420
        0
370
    25
100
AcDbLine
 10
105.2091065157841
 20
99.565660844999
 30
0.0
 11
108.5424416371843
 21
99.565660844999
 31
0.0
  0
LINE
  5
A6
330
70
100
AcDbEntity
  8
0
 62
    18
420
        0
370
    25
100
AcDbLine
 10
105.2091065157841
 20
96.39899396969886
 30
0.0
 11
108.3757721492843
 21
96.39899396969886
 31
0.0
  0
LINE
  5
A7
330
70
100
AcDbEntity
  8
0
 62
    18
420
        0
370
    25
100
AcDbLine
 10
105.2091065157841
 20
99.39899384059906
 30
0.0
 11
105.2091065157841
 21
96.39899396969886
 31
0.0
  0
LINE
  5
A8
330
70
100
AcDbEntity
  8
0
 62
    18
420
        0
370
    25
100
AcDbLine
 10
105.2091065157841
 20
96.39899396969886
 30
0.0
 11
105.2091065157841
 21
96.23232820699875
 31
0.0
  0
LINE
  5
A9
330
70
100
AcDbEntity
  8
0
 62
    18
420
        0
370
    25
100
AcDbLine
 10
108.5424416371843
 20
96.23232820699875
 30
0.0
 11
105.2091065157841
 21
96.23232820699875
 31
0.0
  0
LINE
  5
AA
330
70
100
AcDbEntity
  8
0
 62
    18
420
        0
370
    25
100
AcDbLine
 10
105.2091065157841
 20
99.39899384059906
 30
0.0
 11
15.20910666478411
 21
99.39899384059906
 31
0.0
  0
LINE
  5
AB
330
70
100
AcDbEntity
  8
0
 62
    18
420
        0
370
    25
100
AcDbLine
 10
15.20910666478411
 20
96.39899396969886
 30
0.0
 11
105.2091065157841
 21
96.39899396969886
 31
0.0
  0
CIRCLE
  5
AC
330
70
100
AcDbEntity
  8
0
 62
    18
420
        0
370
    25
100
AcDbCircle
 10
31.87577357978416
 20
97.89899426699896
 30
0.0
 40
1.416666666666636
  0
CIRCLE
  5
AD
330
70
100
AcDbEntity
  8
0
 62
    18
420
        0
370
    25
100
AcDbCircle
 10
88.54244024648451
 20
97.89899426699896
 30
0.0
 40
1.416666666666596
  0
CIRCLE
  5
AE
330
70
100
AcDbEntity
  8
0
 62
    18
420
        0
370
    25
100
AcDbCircle
 10
31.87577357978416
 20
97.89899426699896
 30
0.0
 40
1.249999999999963
  0
LINE
  5
AF
330
70
100
AcDbEntity
  8
0
 62
    18
420
        0
370
    25
100
AcDbLine
 10
15.20910666478411
 20
99.565660844999
 30
0.0
 11
105.2091065157841
 21
99.565660844999
 31
0.0
  0
LINE
  5
B0
330
70
100
AcDbEntity
  8
0
 62
    18
420
        0
370
    25
100
AcDbLine
 10
105.2091065157841
 20
96.23232820699875
 30
0.0
 11
15.20910666478411
 21
96.23232820699875
 31
0.0
  0
CIRCLE
  5
B1
330
70
100
AcDbEntity
  8
0
 62
    18
420
        0
370
    25
100
AcDbCircle
 10
88.54244024648435
 20
97.89899426699896
 30
0.0
 40
1.250000000000003
  0
SPLINE
  5
B2
330
70
100
AcDbEntity
  8
0
 62
    18
420
        0
370
    25
100
AcDbSpline
210
0.0
220
0.0
230
1.0
 70
     8
 71
     3
 72
    11
 73
     7
 74
     0
 42
0.0000000001
 43
0.0000000001
 40
0.0
 40
0.0
 40
0.0
 40
0.0
 40
1.0
 40
1.0
 40
1.0
 40
2.0
 40
2.0
 40
2.0
 40
2.0
 10
89.03544576058273
 20
99.56566084497012
 30
0.0
 10
88.98942364198184
 20
99.83793994282764
 30
0.0
 10
88.73138952316983
 20
100.021357464498
 30
0.0
 10
88.45911042531263
 20
99.97533534589718
 30
0.0
 10
88.24928713933498
 20
99.93986985394997
 30
0.0
 10
88.0849014163331
 20
99.77548413094778
 30
0.0
 10
88.0494359243859
 20
99.56566084497012
 30
0.0
  0
LWPOLYLINE
  5
B3
330
70
100
AcDbEntity
  8
0
 62
    18
420
        0
370
    25
100
AcDbPolyline
 90
        6
 70
     0
 43
0.0
 10
80.53249052258427
 20
105.8991224971989
 10
81.71292077588462
 20
104.0204846766989
 10
82.99849362268435
 20
102.2134543862989
 10
84.49831536498408
 20
100.480783373899
 10
85.42157144438375
 20
99.6689768043991
 10
85.59691837518458
 20
99.565660844999
  0
LWPOLYLINE
  5
B4
330
70
100
AcDbEntity
  8
0
 62
    18
420
        0
370
    25
100
AcDbPolyline
 90
        3
 70
     0
 43
0.0
 10
80.5300169297841
 20
105.906131630899
 10
80.5316759257843
 20
105.9006082670988
 10
80.53249052258427
 20
105.8991224971989
  0
LWPOLYLINE
  5
B5
330
70
100
AcDbEntity
  8
0
 62
    18
420
        0
370
    25
100
AcDbPolyline
 90
        6
 70
     0
 43
0.0
 10
91.48744176918429
 20
99.565660844999
 10
91.66235656628455
 20
99.66850865959887
 10
92.58608948278432
 20
100.4800184475989
 10
94.08620428138373
 20
102.212927257799
 10
95.37411661038397
 20
104.0236337887987
 10
96.5565982569845
 20
105.906131630899
  0
LINE
  5
B6
330
70
100
AcDbEntity
  8
0
 62
    18
420
        0
370
    25
100
AcDbLine
 10
87.35910486268448
 20
97.5822032895989
 30
0.0
 11
87.35910486268448
 21
98.28596774809907
 31
0.0
  0
LWPOLYLINE
  5
B7
330
70
100
AcDbEntity
  8
0
 62
    18
420
        0
370
    25
100
AcDbPolyline
 90
        6
 70
     0
 43
0.0
 10
86.87577576528429
 20
96.23232820699875
 10
86.6884632020845
 20
96.04501564379896
 10
85.75186064928386
 20
95.108416816299
 10
84.74322588338424
 20
94.09978080859879
 10
83.72902801728377
 20
93.08558418429893
 10
81.20910754888408
 20
90.5656612323988
  0
LINE
  5
B8
330
70
100
AcDbEntity
  8
0
 62
    18
420
        0
370
    25
100
AcDbLine
 10
80.53249052258427
 20
105.8991224971989
 30
0.0
 11
80.52827846098457
 21
105.8991212553989
 31
0.0
  0
SPLINE
  5
B9
330
70
100
AcDbEntity
  8
0
 62
    18
420
        0
370
    25
100
AcDbSpline
210
0.0
220
0.0
230
1.0
 70
     8
 71
     3
 72
    11
 73
     7
 74
     0
 42
0.0000000001
 43
0.0000000001
 40
0.0
 40
0.0
 40
0.0
 40
0.0
 40
1.0
 40
1.0
 40
1.0
 40
2.0
 40
2.0
 40
2.0
 40
2.0
 10
88.05386156925109
 20
96.23232820708409
 30
0.0
 10
88.09430789631875
 20
95.96325868601864
 30
0.0
 10
88.34522006693394
 20
95.77792296829919
 30
0.0
 10
88.61428958799875
 20
95.8183692953659
 30
0.0
 10
88.82818691788276
 20
95.85052218034901
 30
0.0
 10
88.99609561473383
 20
96.01843087720007
 30
0.0
 10
89.02824849971693
 20
96.23232820708409
 30
0.0
  0
LWPOLYLINE
  5
BA
330
70
100
AcDbEntity
  8
0
 62
    18
420
        0
370
    25
100
AcDbPolyline
 90
        6
 70
     0
 43
0.0
 10
90.20910591968434
 20
96.23232820699875
 10
90.39641848298423
 20
96.04501564379896
 10
91.33301606868393
 20
95.108416816299
 10
92.34165083458419
 20
94.09978080859879
 10
93.35584870068402
 20
93.08558418429893
 10
95.87577413608391
 20
90.5656612323988
  0
LINE
  5
BB
330
70
100
AcDbEntity
  8
0
 62
    18
420
        0
370
    25
100
AcDbLine
 10
89.72577185518451
 20
98.22730684359898
 30
0.0
 11
89.72577185518451
 21
97.52212304949898
 31
0.0
  0
LINE
  5
BC
330
70
100
AcDbEntity
  8
0
 62
    18
420
        0
370
    25
100
AcDbLine
 10
88.54244084248431
 20
99.98232711429885
 30
0.0
 11
88.54244084248431
 21
100.3418002433989
 31
0.0
  0
SPLINE
  5
BD
330
70
100
AcDbEntity
  8
0
 62
    18
420
        0
370
    25
100
AcDbSpline
210
0.0
220
0.0
230
1.0
 70
     8
 71
     3
 72
     8
 73
     4
 74
     0
 42
0.0000000001
 43
0.0000000001
 40
0.0
 40
0.0
 40
0.0
 40
0.0
 40
1.0
 40
1.0
 40
1.0
 40
1.0
 10
88.54244084249842
 20
100.3418002433938
 30
0.0
 10
87.90354769980579
 20
100.3318413046735
 30
0.0
 10
87.30250784929975
 20
100.0369880866452
 30
0.0
 10
86.90360120029206
 20
99.53783168468511
 30
0.0
  0
SPLINE
  5
BE
330
70
100
AcDbEntity
  8
0
 62
    18
420
        0
370
    25
100
AcDbSpline
210
0.0
220
0.0
230
1.0
 70
     8
 71
     3
 72
     8
 73
     4
 74
     0
 42
0.0000000001
 43
0.0000000001
 40
0.0
 40
0.0
 40
0.0
 40
0.0
 40
1.0
 40
1.0
 40
1.0
 40
1.0
 10
88.542440842544
 20
99.98232711431231
 30
0.0
 10
88.30325368041725
 20
99.982325191979
 30
0.0
 10
88.09756610831042
 20
99.81292706841397
 30
0.0
 10
88.05171083505397
 20
99.57817657864934
 30
0.0
  0
SPLINE
  5
BF
330
70
100
AcDbEntity
  8
0
 62
    18
420
        0
370
    25
100
AcDbSpline
210
0.0
220
0.0
230
1.0
 70
     8
 71
     3
 72
     8
 73
     4
 74
     0
 42
0.0000000001
 43
0.0000000001
 40
0.0
 40
0.0
 40
0.0
 40
0.0
 40
1.0
 40
1.0
 40
1.0
 40
1.0
 10
90.18127551769177
 20
99.53783168471655
 30
0.0
 10
89.78237129613081
 20
100.0369884103111
 30
0.0
 10
89.18133273159927
 20
100.3318418911296
 30
0.0
 10
88.54244084254078
 20
100.3418002434252
 30
0.0
  0
SPLINE
  5
C0
330
70
100
AcDbEntity
  8
0
 62
    18
420
        0
370
    25
100
AcDbSpline
210
0.0
220
0.0
230
1.0
 70
     8
 71
     3
 72
     8
 73
     4
 74
     0
 42
0.0000000001
 43
0.0000000001
 40
0.0
 40
0.0
 40
0.0
 40
0.0
 40
1.0
 40
1.0
 40
1.0
 40
1.0
 10
89.03316588294847
 20
99.57817657862015
 30
0.0
 10
88.9873254529172
 20
99.81293386503608
 30
0.0
 10
88.78163182983614
 20
99.98233868667879
 30
0.0
 10
88.54244084251254
 20
99.98232711428343
 30
0.0
  0
LINE
  5
C1
330
70
100
AcDbEntity
  8
0
 62
    18
420
        0
370
    25
100
AcDbLine
 10
96.87577119558408
 20
105.898993974699
 30
0.0
 11
96.87577119558408
 21
99.565660844999
 31
0.0
  0
LINE
  5
C2
330
70
100
AcDbEntity
  8
0
 62
    18
420
        0
370
    25
100
AcDbLine
 10
96.87577119558408
 20
96.23232820699875
 30
0.0
 11
96.87577119558408
 21
90.5656612323988
 31
0.0
  0
SPLINE
  5
C3
330
70
100
AcDbEntity
  8
0
 62
    18
420
        0
370
    25
100
AcDbSpline
210
0.0
220
0.0
230
1.0
 70
     8
 71
     3
 72
     8
 73
     4
 74
     0
 42
0.0000000001
 43
0.0000000001
 40
0.0
 40
0.0
 40
0.0
 40
0.0
 40
1.0
 40
1.0
 40
1.0
 40
1.0
 10
96.87577119562449
 20
105.8989939746354
 30
0.0
 10
96.7696032771744
 20
105.9074557567865
 30
0.0
 10
96.66303831083954
 20
105.9098388663856
 30
0.0
 10
96.55659825695948
 20
105.9061316308473
 30
0.0
  0
LINE
  5
C4
330
70
100
AcDbEntity
  8
0
 62
    18
420
        0
370
    25
100
AcDbLine
 10
96.54257129718429
 20
105.906131630899
 30
0.0
 11
96.54256633018411
 21
105.913157528399
 31
0.0
  0
SPLINE
  5
C5
330
70
100
AcDbEntity
  8
0
 62
    18
420
        0
370
    25
100
AcDbSpline
210
0.0
220
0.0
230
1.0
 70
     8
 71
     3
 72
     8
 73
     4
 74
     0
 42
0.0000000001
 43
0.0000000001
 40
0.0
 40
0.0
 40
0.0
 40
0.0
 40
1.0
 40
1.0
 40
1.0
 40
1.0
 10
96.8757711956476
 20
105.8989939747038
 30
0.0
 10
96.76530190686897
 20
105.9131131393733
 30
0.0
 10
96.65383529937034
 20
105.9178512553085
 30
0.0
 10
96.54256633019116
 20
105.9131575284186
 30
0.0
  0
LINE
  5
C6
330
70
100
AcDbEntity
  8
0
 62
    18
420
        0
370
    25
100
AcDbLine
 10
96.5565982569845
 20
105.906131630899
 30
0.0
 11
96.54257129718429
 21
105.906131630899
 31
0.0
  0
LINE
  5
C7
330
70
100
AcDbEntity
  8
0
 62
    18
420
        0
370
    25
100
AcDbLine
 10
80.20910552238436
 20
90.5656612323988
 30
0.0
 11
80.20910552238436
 21
96.23232820699875
 31
0.0
  0
LINE
  5
C8
330
70
100
AcDbEntity
  8
0
 62
    18
420
        0
370
    25
100
AcDbLine
 10
80.20910552238436
 20
99.565660844999
 30
0.0
 11
80.20910552238436
 21
105.898993974699
 31
0.0
  0
SPLINE
  5
C9
330
70
100
AcDbEntity
  8
0
 62
    18
420
        0
370
    25
100
AcDbSpline
210
0.0
220
0.0
230
1.0
 70
     8
 71
     3
 72
     8
 73
     4
 74
     0
 42
0.0000000001
 43
0.0000000001
 40
0.0
 40
0.0
 40
0.0
 40
0.0
 40
1.0
 40
1.0
 40
1.0
 40
1.0
 10
80.5282784608819
 20
105.8991212554012
 30
0.0
 10
80.42188746450838
 20
105.8991615242359
 30
0.0
 10
80.31549645289837
 20
105.899119097306
 30
0.0
 10
80.20910552248061
 20
105.8989939746496
 30
0.0
  0
LWPOLYLINE
  5
CA
330
70
100
AcDbEntity
  8
0
 62
    18
420
        0
370
    25
100
AcDbPolyline
 90
        6
 70
     0
 43
0.0
 10
88.54244084248431
 20
105.9151685642988
 10
87.87577282478446
 20
105.915149937799
 10
85.20910572098463
 20
105.9147407767989
 10
82.87570805438416
 20
105.9140416639989
 10
80.54231535488463
 20
105.913157528399
 10
80.5353018749842
 20
105.913154423999
  0
SPLINE
  5
CB
330
70
100
AcDbEntity
  8
0
 62
    18
420
        0
370
    25
100
AcDbSpline
210
0.0
220
0.0
230
1.0
 70
     8
 71
     3
 72
     8
 73
     4
 74
     0
 42
0.0000000001
 43
0.0000000001
 40
0.0
 40
0.0
 40
0.0
 40
0.0
 40
1.0
 40
1.0
 40
1.0
 40
1.0
 10
80.5424395312375
 20
106.2323273625992
 30
0.0
 10
80.53398088427426
 20
106.1261592843067
 30
0.0
 10
80.53159777868641
 20
106.0195944973418
 30
0.0
 10
80.53530187502591
 20
105.9131544239338
 30
0.0
  0
LINE
  5
CC
330
70
100
AcDbEntity
  8
0
 62
    18
420
        0
370
    25
100
AcDbLine
 10
80.54243953118422
 20
106.2323273625989
 30
0.0
 11
88.54244084248431
 21
106.2323273625989
 31
0.0
  0
LINE
  5
CD
330
70
100
AcDbEntity
  8
0
 62
    18
420
        0
370
    25
100
AcDbLine
 10
88.54244084248431
 20
105.9151685642988
 30
0.0
 11
88.54244084248431
 21
106.2323273625989
 31
0.0
  0
SPLINE
  5
CE
330
70
100
AcDbEntity
  8
0
 62
    18
420
        0
370
    25
100
AcDbSpline
210
0.0
220
0.0
230
1.0
 70
     8
 71
     3
 72
     8
 73
     4
 74
     0
 42
0.0000000001
 43
0.0000000001
 40
0.0
 40
0.0
 40
0.0
 40
0.0
 40
1.0
 40
1.0
 40
1.0
 40
1.0
 10
80.54243953116305
 20
106.2323273626675
 30
0.0
 10
80.5283198626571
 20
106.121857700687
 30
0.0
 10
80.52358257286224
 20
106.010390567891
 30
0.0
 10
80.52827846097558
 20
105.8991212554474
 30
0.0
  0
LWPOLYLINE
  5
CF
330
70
100
AcDbEntity
  8
0
 62
    18
420
        0
370
    25
100
AcDbPolyline
 90
        3
 70
     0
 43
0.0
 10
80.5353018749842
 20
105.913154423999
 10
80.53623568108424
 20
105.9080284244989
 10
80.53705524498385
 20
105.906131630899
  0
LINE
  5
D0
330
70
100
AcDbEntity
  8
0
 62
    18
420
        0
370
    25
100
AcDbLine
 10
80.53705524498385
 20
105.906131630899
 30
0.0
 11
80.5300169297841
 21
105.906131630899
 31
0.0
  0
LINE
  5
D1
330
70
100
AcDbEntity
  8
0
 62
    18
420
        0
370
    25
100
AcDbLine
 10
88.54244084248431
 20
105.906131630899
 30
0.0
 11
88.54244084248431
 21
105.9151685642988
 31
0.0
  0
LINE
  5
D2
330
70
100
AcDbEntity
  8
0
 62
    18
420
        0
370
    25
100
AcDbLine
 10
88.54244084248431
 20
105.906131630899
 30
0.0
 11
80.53705524498385
 21
105.906131630899
 31
0.0
  0
LWPOLYLINE
  5
D3
330
70
100
AcDbEntity
  8
0
 62
    18
420
        0
370
    25
100
AcDbPolyline
 90
        5
 70
     0
 43
0.0
 10
96.54256633018411
 20
105.913157528399
 10
95.87589831248426
 20
105.913422023999
 10
93.20923617568395
 20
105.914371352099
 10
90.87583850908414
 20
105.9149518765989
 10
88.54244084248431
 20
105.9151685642988
  0
LINE
  5
D4
330
70
100
AcDbEntity
  8
0
 62
    18
420
        0
370
    25
100
AcDbLine
 10
96.54257129718429
 20
105.906131630899
 30
0.0
 11
88.54244084248431
 21
105.906131630899
 31
0.0
  0
LINE
  5
D5
330
70
100
AcDbEntity
  8
0
 62
    18
420
        0
370
    25
100
AcDbLine
 10
88.54244084248431
 20
106.2323273625989
 30
0.0
 11
96.54244215378376
 21
106.2323273625989
 31
0.0
  0
SPLINE
  5
D6
330
70
100
AcDbEntity
  8
0
 62
    18
420
        0
370
    25
100
AcDbSpline
210
0.0
220
0.0
230
1.0
 70
     8
 71
     3
 72
     8
 73
     4
 74
     0
 42
0.0000000001
 43
0.0000000001
 40
0.0
 40
0.0
 40
0.0
 40
0.0
 40
1.0
 40
1.0
 40
1.0
 40
1.0
 10
96.54256633016228
 20
105.9131575284038
 30
0.0
 10
96.54260514279735
 20
106.0195474892095
 30
0.0
 10
96.54256375067076
 20
106.1259374641775
 30
0.0
 10
96.54244215381904
 20
106.2323273625745
 30
0.0
  0
SPLINE
  5
D7
330
70
100
AcDbEntity
  8
0
 62
    18
420
        0
370
    25
100
AcDbSpline
210
0.0
220
0.0
230
1.0
 70
     8
 71
     3
 72
     8
 73
     4
 74
     0
 42
0.0000000001
 43
0.0000000001
 40
0.0
 40
0.0
 40
0.0
 40
0.0
 40
1.0
 40
1.0
 40
1.0
 40
1.0
 10
96.8757735798175
 20
105.8989942670779
 30
0.0
 10
96.87577357977387
 20
106.0830891836572
 30
0.0
 10
96.72653516306347
 20
106.2323276003323
 30
0.0
 10
96.54244024648415
 20
106.2323276003323
 30
0.0
  0
SPLINE
  5
D8
330
70
100
AcDbEntity
  8
0
 62
    18
420
        0
370
    25
100
AcDbSpline
210
0.0
220
0.0
230
1.0
 70
     8
 71
     3
 72
     8
 73
     4
 74
     0
 42
0.0000000001
 43
0.0000000001
 40
0.0
 40
0.0
 40
0.0
 40
0.0
 40
1.0
 40
1.0
 40
1.0
 40
1.0
 10
80.54244024648424
 20
106.2323276003323
 30
0.0
 10
80.35834532987413
 20
106.2323276003323
 30
0.0
 10
80.20910691315089
 20
106.0830891836091
 30
0.0
 10
80.20910691315089
 20
105.898994266999
 30
0.0
  0
CIRCLE
  5
D9
330
70
100
AcDbEntity
  8
0
 62
    18
420
        0
370
    25
100
AcDbCircle
 10
88.54244024648419
 20
97.89899426699903
 30
0.0
 40
0.8666666666668575
  0
LWPOLYLINE
  5
DA
330
70
100
AcDbEntity
  8
0
 62
    18
420
        0
370
    25
100
AcDbPolyline
 90
        6
 70
     0
 43
0.0
 10
33.54244020918414
 20
99.565660844999
 10
33.72975199638433
 20
99.75297216649895
 10
34.66635128948411
 20
100.6895722356987
 10
35.67498667628435
 20
101.698207622499
 10
36.68918423198407
 20
102.7124048677989
 10
39.87590589718428
 20
105.8991268433989
  0
SPLINE
  5
DB
330
70
100
AcDbEntity
  8
0
 62
    18
420
        0
370
    25
100
AcDbSpline
210
0.0
220
0.0
230
1.0
 70
     8
 71
     3
 72
     8
 73
     4
 74
     0
 42
0.0000000001
 43
0.0000000001
 40
0.0
 40
0.0
 40
0.0
 40
0.0
 40
1.0
 40
1.0
 40
1.0
 40
1.0
 10
39.88993347780201
 20
105.9061316308605
 30
0.0
 10
39.88452630985943
 20
105.9057036156809
 30
0.0
 10
39.87949678751619
 20
105.9031920824151
 30
0.0
 10
39.87590589718332
 20
105.899126843336
 30
0.0
  0
LWPOLYLINE
  5
DC
330
70
100
AcDbEntity
  8
0
 62
    18
420
        0
370
    25
100
AcDbPolyline
 90
        6
 70
     0
 43
0.0
 10
33.54244020918414
 20
96.23232820699875
 10
33.72974609798431
 20
96.04502185259876
 10
34.66634539108408
 20
95.10842302519892
 10
35.67498170928416
 20
94.09978577569878
 10
36.68918050668404
 20
93.08558790959896
 10
39.20910687338431
 20
90.5656612323988
  0
LINE
  5
DD
330
70
100
AcDbEntity
  8
0
 62
    18
420
        0
370
    25
100
AcDbLine
 10
33.05910692078432
 20
98.22730684359898
 30
0.0
 11
33.05910692078432
 21
97.52212304949898
 31
0.0
  0
LWPOLYLINE
  5
DE
330
70
100
AcDbEntity
  8
0
 62
    18
420
        0
370
    25
100
AcDbPolyline
 90
        6
 70
     0
 43
0.0
 10
30.20910695038435
 20
99.565660844999
 10
30.02179516318415
 20
99.75297216649895
 10
29.08519587008404
 20
100.6895722356987
 10
28.07656048328413
 20
101.698207622499
 10
27.06236292758409
 20
102.7124048677989
 10
23.87564126248431
 20
105.8991268433989
  0
SPLINE
  5
DF
330
70
100
AcDbEntity
  8
0
 62
    18
420
        0
370
    25
100
AcDbSpline
210
0.0
220
0.0
230
1.0
 70
     8
 71
     3
 72
     8
 73
     4
 74
     0
 42
0.0000000001
 43
0.0000000001
 40
0.0
 40
0.0
 40
0.0
 40
0.0
 40
1.0
 40
1.0
 40
1.0
 40
1.0
 10
23.86863585400819
 20
105.9131544239483
 30
0.0
 10
23.86906373137359
 20
105.9077470818649
 30
0.0
 10
23.87157554691224
 20
105.9027174400624
 30
0.0
 10
23.87564126241436
 20
105.8991268433293
 30
0.0
  0
LWPOLYLINE
  5
E0
330
70
100
AcDbEntity
  8
0
 62
    18
420
        0
370
    25
100
AcDbPolyline
 90
        7
 70
     0
 43
0.0
 10
39.87590030918434
 20
105.913157528399
 10
39.20923353328411
 20
105.913422023999
 10
36.54256736078433
 20
105.9143688685989
 10
31.20923408458415
 20
105.9151518004989
 10
29.1777659191842
 20
105.9148842003988
 10
23.87564685038414
 20
105.913157528399
 10
23.86863585408423
 20
105.913154423999
  0
LINE
  5
E1
330
70
100
AcDbEntity
  8
0
 62
    18
420
        0
370
    25
100
AcDbLine
 10
39.87590589718428
 20
105.8991268433989
 30
0.0
 11
39.87590030918434
 21
105.913157528399
 31
0.0
  0
SPLINE
  5
E2
330
70
100
AcDbEntity
  8
0
 62
    18
420
        0
370
    25
100
AcDbSpline
210
0.0
220
0.0
230
1.0
 70
     8
 71
     3
 72
    11
 73
     7
 74
     0
 42
0.0000000001
 43
0.0000000001
 40
0.0
 40
0.0
 40
0.0
 40
0.0
 40
1.0
 40
1.0
 40
1.0
 40
2.0
 40
2.0
 40
2.0
 40
2.0
 10
32.36435161126356
 20
99.56566084498712
 30
0.0
 10
32.32390559962114
 20
99.83473014102219
 30
0.0
 10
32.07299386713079
 20
100.0200659320204
 30
0.0
 10
31.80392457109605
 20
99.97961992037806
 30
0.0
 10
31.59002705165092
 20
99.94746723075797
 30
0.0
 10
31.4221181853252
 20
99.77955836443225
 30
0.0
 10
31.3899654957048
 20
99.56566084498712
 30
0.0
  0
LINE
  5
E3
330
70
100
AcDbEntity
  8
0
 62
    18
420
        0
370
    25
100
AcDbLine
 10
23.87564126248431
 20
105.8991268433989
 30
0.0
 11
23.86161057738405
 21
105.8991212553989
 31
0.0
  0
LINE
  5
E4
330
70
100
AcDbEntity
  8
0
 62
    18
420
        0
370
    25
100
AcDbLine
 10
30.69244023878417
 20
97.5822032895989
 30
0.0
 11
30.69244023878417
 21
98.28596774809907
 31
0.0
  0
LWPOLYLINE
  5
E5
330
70
100
AcDbEntity
  8
0
 62
    18
420
        0
370
    25
100
AcDbPolyline
 90
        6
 70
     0
 43
0.0
 10
30.20910695038435
 20
96.23232820699875
 10
30.02180106158418
 20
96.04502185259876
 10
29.08520176848408
 20
95.10842302519892
 10
28.0765654503841
 20
94.09978577569878
 10
27.06236665288412
 20
93.08558790959896
 10
24.54244028618417
 20
90.5656612323988
  0
SPLINE
  5
E6
330
70
100
AcDbEntity
  8
0
 62
    18
420
        0
370
    25
100
AcDbSpline
210
0.0
220
0.0
230
1.0
 70
     8
 71
     3
 72
     8
 73
     4
 74
     0
 42
0.0000000001
 43
0.0000000001
 40
0.0
 40
0.0
 40
0.0
 40
0.0
 40
1.0
 40
1.0
 40
1.0
 40
1.0
 10
31.87577357978729
 20
95.8156606959718
 30
0.0
 10
32.12077543733772
 20
95.80892254396045
 30
0.0
 10
32.33092000710684
 20
95.98915918002294
 30
0.0
 10
32.36158166388551
 20
96.23232820703726
 30
0.0
  0
SPLINE
  5
E7
330
70
100
AcDbEntity
  8
0
 62
    18
420
        0
370
    25
100
AcDbSpline
210
0.0
220
0.0
230
1.0
 70
     8
 71
     3
 72
     8
 73
     4
 74
     0
 42
0.0000000001
 43
0.0000000001
 40
0.0
 40
0.0
 40
0.0
 40
0.0
 40
1.0
 40
1.0
 40
1.0
 40
1.0
 10
31.38503309497192
 20
96.2323282070931
 30
0.0
 10
31.41789713499401
 20
95.98832867674225
 30
0.0
 10
31.6296744375213
 20
95.80851730135179
 30
0.0
 10
31.87577357984087
 20
95.81566069602763
 30
0.0
  0
LINE
  5
E8
330
70
100
AcDbEntity
  8
0
 62
    18
420
        0
370
    25
100
AcDbLine
 10
23.54244012228425
 20
90.5656612323988
 30
0.0
 11
23.54244012228425
 21
96.23232820699875
 31
0.0
  0
LINE
  5
E9
330
70
100
AcDbEntity
  8
0
 62
    18
420
        0
370
    25
100
AcDbLine
 10
23.54244012228425
 20
99.565660844999
 30
0.0
 11
23.54244012228425
 21
105.898993974699
 31
0.0
  0
SPLINE
  5
EA
330
70
100
AcDbEntity
  8
0
 62
    18
420
        0
370
    25
100
AcDbSpline
210
0.0
220
0.0
230
1.0
 70
     8
 71
     3
 72
     8
 73
     4
 74
     0
 42
0.0000000001
 43
0.0000000001
 40
0.0
 40
0.0
 40
0.0
 40
0.0
 40
1.0
 40
1.0
 40
1.0
 40
1.0
 10
23.86161057749089
 20
105.8991212554686
 30
0.0
 10
23.75522040878626
 20
105.8991615239741
 30
0.0
 10
23.64883022483549
 20
105.8991190970439
 30
0.0
 10
23.54244012208629
 20
105.8989939747166
 30
0.0
  0
SPLINE
  5
EB
330
70
100
AcDbEntity
  8
0
 62
    18
420
        0
370
    25
100
AcDbSpline
210
0.0
220
0.0
230
1.0
 70
     8
 71
     3
 72
     8
 73
     4
 74
     0
 42
0.0000000001
 43
0.0000000001
 40
0.0
 40
0.0
 40
0.0
 40
0.0
 40
1.0
 40
1.0
 40
1.0
 40
1.0
 10
40.20910703734358
 20
105.8989939747249
 30
0.0
 10
40.10293878189946
 20
105.907453214963
 30
0.0
 10
39.99637375437698
 20
105.9098363212949
 30
0.0
 10
39.88993347779496
 20
105.9061316309369
 30
0.0
  0
LINE
  5
EC
330
70
100
AcDbEntity
  8
0
 62
    18
420
        0
370
    25
100
AcDbLine
 10
40.20910703728422
 20
105.898993974699
 30
0.0
 11
40.20910703728422
 21
99.565660844999
 31
0.0
  0
LINE
  5
ED
330
70
100
AcDbEntity
  8
0
 62
    18
420
        0
370
    25
100
AcDbLine
 10
40.20910703728422
 20
96.23232820699875
 30
0.0
 11
40.20910703728422
 21
90.5656612323988
 31
0.0
  0
SPLINE
  5
EE
330
70
100
AcDbEntity
  8
0
 62
    18
420
        0
370
    25
100
AcDbSpline
210
0.0
220
0.0
230
1.0
 70
     8
 71
     3
 72
     8
 73
     4
 74
     0
 42
0.0000000001
 43
0.0000000001
 40
0.0
 40
0.0
 40
0.0
 40
0.0
 40
1.0
 40
1.0
 40
1.0
 40
1.0
 10
40.20910703726786
 20
105.8989939746801
 30
0.0
 10
40.09863707900655
 20
105.9131126070801
 30
0.0
 10
39.98716989801925
 20
105.9178507209061
 30
0.0
 10
39.87590030916797
 20
105.9131575283946
 30
0.0
  0
LINE
  5
EF
330
70
100
AcDbEntity
  8
0
 62
    18
420
        0
370
    25
100
AcDbLine
 10
23.87577351028426
 20
106.2323273625989
 30
0.0
 11
39.87577364928422
 21
106.2323273625989
 31
0.0
  0
SPLINE
  5
F0
330
70
100
AcDbEntity
  8
0
 62
    18
420
        0
370
    25
100
AcDbSpline
210
0.0
220
0.0
230
1.0
 70
     8
 71
     3
 72
     8
 73
     4
 74
     0
 42
0.0000000001
 43
0.0000000001
 40
0.0
 40
0.0
 40
0.0
 40
0.0
 40
1.0
 40
1.0
 40
1.0
 40
1.0
 10
39.87590030923856
 20
105.9131575282762
 30
0.0
 10
39.87594009049877
 20
106.0195474898002
 30
0.0
 10
39.87589787052939
 20
106.125937466179
 30
0.0
 10
39.87577364936861
 20
106.2323273626197
 30
0.0
  0
SPLINE
  5
F1
330
70
100
AcDbEntity
  8
0
 62
    18
420
        0
370
    25
100
AcDbSpline
210
0.0
220
0.0
230
1.0
 70
     8
 71
     3
 72
     8
 73
     4
 74
     0
 42
0.0000000001
 43
0.0000000001
 40
0.0
 40
0.0
 40
0.0
 40
0.0
 40
1.0
 40
1.0
 40
1.0
 40
1.0
 10
23.87577351026212
 20
106.2323273626034
 30
0.0
 10
23.86731425703801
 20
106.1261593152167
 30
0.0
 10
23.86493115067467
 20
106.0195944935737
 30
0.0
 10
23.86863585405054
 20
105.9131544239383
 30
0.0
  0
SPLINE
  5
F2
330
70
100
AcDbEntity
  8
0
 62
    18
420
        0
370
    25
100
AcDbSpline
210
0.0
220
0.0
230
1.0
 70
     8
 71
     3
 72
     8
 73
     4
 74
     0
 42
0.0000000001
 43
0.0000000001
 40
0.0
 40
0.0
 40
0.0
 40
0.0
 40
1.0
 40
1.0
 40
1.0
 40
1.0
 10
23.87577351023196
 20
106.232327362604
 30
0.0
 10
23.86165537496511
 20
106.1218575701998
 30
0.0
 10
23.85691746982644
 20
106.0103906200771
 30
0.0
 10
23.86161057739881
 20
105.8991212553868
 30
0.0
  0
SPLINE
  5
F3
330
70
100
AcDbEntity
  8
0
 62
    18
420
        0
370
    25
100
AcDbSpline
210
0.0
220
0.0
230
1.0
 70
     8
 71
     3
 72
     8
 73
     4
 74
     0
 42
0.0000000001
 43
0.0000000001
 40
0.0
 40
0.0
 40
0.0
 40
0.0
 40
1.0
 40
1.0
 40
1.0
 40
1.0
 10
40.20910691311739
 20
105.8989942674719
 30
0.0
 10
40.20910691285621
 20
106.0830891838975
 30
0.0
 10
40.05986849620966
 20
106.2323276003323
 30
0.0
 10
39.87577357978404
 20
106.2323276003323
 30
0.0
  0
SPLINE
  5
F4
330
70
100
AcDbEntity
  8
0
 62
    18
420
        0
370
    25
100
AcDbSpline
210
0.0
220
0.0
230
1.0
 70
     8
 71
     3
 72
     8
 73
     4
 74
     0
 42
0.0000000001
 43
0.0000000001
 40
0.0
 40
0.0
 40
0.0
 40
0.0
 40
1.0
 40
1.0
 40
1.0
 40
1.0
 10
23.87577357978412
 20
106.2323276003323
 30
0.0
 10
23.69167866317401
 20
106.2323276003323
 30
0.0
 10
23.54244024645077
 20
106.0830891836091
 30
0.0
 10
23.54244024645077
 20
105.898994266999
 30
0.0
  0
CIRCLE
  5
F5
330
70
100
AcDbEntity
  8
0
 62
    18
420
        0
370
    25
100
AcDbCircle
 10
31.87577357978408
 20
97.89899426699903
 30
0.0
 40
0.8666666666666971
  0
LWPOLYLINE
  5
F6
330
70
100
AcDbEntity
  8
0
 62
     8
420
  8421504
370
    25
100
AcDbPolyline
 90
        4
 70
     0
 43
0.0
 10
80.52827846098457
 20
105.8991212553989
 10
80.52801024008431
 20
105.232454479499
 10
80.52706649988444
 20
102.5657879965989
 10
80.52662443208403
 20
99.565660844999
  0
LWPOLYLINE
  5
F7
330
70
100
AcDbEntity
  8
0
 62
     8
420
  8421504
370
    25
100
AcDbPolyline
 90
        3
 70
     0
 43
0.0
 10
80.52641581588416
 20
96.23232820699875
 10
80.52654992628424
 20
95.20098655499905
 10
80.52805991068423
 20
90.5656612323988
  0
LWPOLYLINE
  5
F8
330
70
100
AcDbEntity
  8
0
 62
     8
420
  8421504
370
    25
100
AcDbPolyline
 90
        3
 70
     0
 43
0.0
 10
96.55686647788414
 20
90.5656612323988
 10
96.55781518508419
 20
93.23220043459903
 10
96.5582572528846
 20
96.23232820699875
  0
LWPOLYLINE
  5
F9
330
70
100
AcDbEntity
  8
0
 62
     8
420
  8421504
370
    25
100
AcDbPolyline
 90
        4
 70
     0
 43
0.0
 10
96.55846586918457
 20
99.565660844999
 10
96.55833175868373
 20
100.5970012552988
 10
96.55660322398405
 20
105.8991212553989
 10
96.5565982569845
 20
105.906131630899
  0
LINE
  5
FA
330
70
100
AcDbEntity
  8
0
 62
     8
420
  8421504
370
    25
100
AcDbLine
 10
12.62577306318407
 20
85.06566002049863
 30
0.0
 11
12.62577306318407
 21
84.56566149069884
 31
0.0
  0
LINE
  5
FB
330
70
100
AcDbEntity
  8
0
 62
     8
420
  8421504
370
    25
100
AcDbLine
 10
12.62577306318407
 20
85.56566103369942
 30
0.0
 11
12.62577306318407
 21
85.06566002049863
 31
0.0
  0
LINE
  5
FC
330
70
100
AcDbEntity
  8
0
 62
     8
420
  8421504
370
    25
100
AcDbLine
 10
11.12577374868415
 20
86.56566057679881
 30
0.0
 11
10.62577397718417
 21
86.56566057679881
 31
0.0
  0
LINE
  5
FD
330
70
100
AcDbEntity
  8
0
 62
     8
420
  8421504
370
    25
100
AcDbLine
 10
11.62577352018412
 20
86.56566057679881
 30
0.0
 11
11.12577374868415
 21
86.56566057679881
 31
0.0
  0
LINE
  5
FE
330
70
100
AcDbEntity
  8
0
 62
     8
420
  8421504
370
    25
100
AcDbLine
 10
109.2924419153838
 20
86.56566057679881
 30
0.0
 11
109.7924404451843
 21
86.56566057679881
 31
0.0
  0
LINE
  5
FF
330
70
100
AcDbEntity
  8
0
 62
     8
420
  8421504
370
    25
100
AcDbLine
 10
108.7924384185845
 20
86.56566057679881
 30
0.0
 11
109.2924419153838
 21
86.56566057679881
 31
0.0
  0
LINE
  5
100
330
70
100
AcDbEntity
  8
0
 62
     8
420
  8421504
370
    25
100
AcDbLine
 10
107.7924413590843
 20
85.06566002049863
 30
0.0
 11
107.7924413590843
 21
84.56566149069884
 31
0.0
  0
LINE
  5
101
330
70
100
AcDbEntity
  8
0
 62
     8
420
  8421504
370
    25
100
AcDbLine
 10
107.7924413590843
 20
85.56566103369942
 30
0.0
 11
107.7924413590843
 21
85.06566002049863
 31
0.0
  0
LINE
  5
102
330
70
100
AcDbEntity
  8
0
 62
     8
420
  8421504
370
    25
100
AcDbLine
 10
109.2924419153838
 20
91.56566077549886
 30
0.0
 11
109.7924404451843
 21
91.56566077549886
 31
0.0
  0
LINE
  5
103
330
70
100
AcDbEntity
  8
0
 62
     8
420
  8421504
370
    25
100
AcDbLine
 10
108.7924384185845
 20
91.56566077549886
 30
0.0
 11
109.2924419153838
 21
91.56566077549886
 31
0.0
  0
LINE
  5
104
330
70
100
AcDbEntity
  8
0
 62
     8
420
  8421504
370
    25
100
AcDbLine
 10
107.7924413590843
 20
90.0656602190989
 30
0.0
 11
107.7924413590843
 21
89.56566168939918
 31
0.0
  0
LINE
  5
105
330
70
100
AcDbEntity
  8
0
 62
     8
420
  8421504
370
    25
100
AcDbLine
 10
107.7924413590843
 20
90.5656612323988
 30
0.0
 11
107.7924413590843
 21
90.0656602190989
 31
0.0
  0
LINE
  5
106
330
70
100
AcDbEntity
  8
0
 62
     8
420
  8421504
370
    25
100
AcDbLine
 10
12.62577306318407
 20
90.0656602190989
 30
0.0
 11
12.62577306318407
 21
89.56566168939918
 31
0.0
  0
LINE
  5
107
330
70
100
AcDbEntity
  8
0
 62
     8
420
  8421504
370
    25
100
AcDbLine
 10
12.62577306318407
 20
90.5656612323988
 30
0.0
 11
12.62577306318407
 21
90.0656602190989
 31
0.0
  0
LINE
  5
108
330
70
100
AcDbEntity
  8
0
 62
     8
420
  8421504
370
    25
100
AcDbLine
 10
11.12577374868415
 20
91.56566077549886
 30
0.0
 11
10.62577397718417
 21
91.56566077549886
 31
0.0
  0
LINE
  5
109
330
70
100
AcDbEntity
  8
0
 62
     8
420
  8421504
370
    25
100
AcDbLine
 10
11.62577352018412
 20
91.56566077549886
 30
0.0
 11
11.12577374868415
 21
91.56566077549886
 31
0.0
  0
LWPOLYLINE
  5
10A
330
70
100
AcDbEntity
  8
0
 62
     8
420
  8421504
370
    25
100
AcDbPolyline
 90
        3
 70
     0
 43
0.0
 10
39.89020107778434
 20
90.5656612323988
 10
39.89114792238427
 20
93.23220043459903
 10
39.89158874838411
 20
96.23232820699875
  0
LWPOLYLINE
  5
10B
330
70
100
AcDbEntity
  8
0
 62
     8
420
  8421504
370
    25
100
AcDbPolyline
 90
        4
 70
     0
 43
0.0
 10
39.89179984818417
 20
99.565660844999
 10
39.89166387508419
 20
100.5970012552988
 10
39.88993658218411
 20
105.8991212553989
 10
39.88993347778405
 20
105.906131630899
  0
LWPOLYLINE
  5
10C
330
70
100
AcDbEntity
  8
0
 62
     8
420
  8421504
370
    25
100
AcDbPolyline
 90
        4
 70
     0
 43
0.0
 10
23.86161057738405
 20
105.8991212553989
 10
23.86134608178414
 20
105.232454479499
 10
23.86039923718421
 20
102.5657879965989
 10
23.85995841118405
 20
99.565660844999
  0
LWPOLYLINE
  5
10D
330
70
100
AcDbEntity
  8
0
 62
     8
420
  8421504
370
    25
100
AcDbPolyline
 90
        3
 70
     0
 43
0.0
 10
23.85974731138432
 20
96.23232820699875
 10
23.8598832844843
 20
95.20098655499905
 10
23.86139326878419
 20
90.5656612323988
  0
LINE
  5
10E
330
70
100
AcDbEntity
  8
0
 62
     8
420
  8421504
370
    25
100
AcDbLine
 10
31.87577357978408
 20
95.81566069599906
 30
0.0
 11
31.87577357978408
 21
90.5656612323988
 31
0.0
  0
LWPOLYLINE
  5
10F
330
70
100
AcDbEntity
  8
0
 62
    18
420
        0
370
    25
100
AcDbPolyline
 90
        4
 70
     0
 43
0.0
 10
147.0315126434841
 20
95.82975346919877
 10
147.0314755263841
 20
95.93113600289891
 10
147.0313899999841
 20
96.17504441809897
 10
147.0313717809843
 20
96.24535306369898
  0
LINE
  5
110
330
70
100
AcDbEntity
  8
0
 62
    18
420
        0
370
    25
100
AcDbLine
 10
153.6962376834841
 20
85.06566002049863
 30
0.0
 11
153.6962376834841
 21
86.56566057679881
 31
0.0
  0
LINE
  5
111
330
70
100
AcDbEntity
  8
0
 62
    18
420
        0
370
    25
100
AcDbLine
 10
152.6962375195839
 20
86.56566057679881
 30
0.0
 11
152.6962375195839
 21
85.06566002049863
 31
0.0
  0
LINE
  5
112
330
70
100
AcDbEntity
  8
0
 62
    18
420
        0
370
    25
100
AcDbLine
 10
152.6962375195839
 20
96.23232820699875
 30
0.0
 11
152.6962375195839
 21
86.56566057679881
 31
0.0
  0
LINE
  5
113
330
70
100
AcDbEntity
  8
0
 62
    18
420
        0
370
    25
100
AcDbLine
 10
153.6962376834841
 20
86.56566057679881
 30
0.0
 11
153.6962376834841
 21
96.23232820699875
 31
0.0
  0
LINE
  5
114
330
70
100
AcDbEntity
  8
0
 62
    18
420
        0
370
    25
100
AcDbLine
 10
160.3629042010844
 20
85.06566002049863
 30
0.0
 11
160.3629042010844
 21
86.56566057679881
 31
0.0
  0
LINE
  5
115
330
70
100
AcDbEntity
  8
0
 62
    18
420
        0
370
    25
100
AcDbLine
 10
159.3629046580844
 20
86.56566057679881
 30
0.0
 11
159.3629046580844
 21
85.06566002049863
 31
0.0
  0
LINE
  5
116
330
70
100
AcDbEntity
  8
0
 62
    18
420
        0
370
    25
100
AcDbLine
 10
159.3629046580844
 20
96.23232820699875
 30
0.0
 11
159.3629046580844
 21
86.56566057679881
 31
0.0
  0
LINE
  5
117
330
70
100
AcDbEntity
  8
0
 62
    18
420
        0
370
    25
100
AcDbLine
 10
160.3629042010844
 20
86.56566057679881
 30
0.0
 11
160.3629042010844
 21
96.23232820699875
 31
0.0
  0
LINE
  5
118
330
70
100
AcDbEntity
  8
0
 62
    18
420
        0
370
    25
100
AcDbLine
 10
166.029571175684
 20
96.23232820699875
 30
0.0
 11
166.029571175684
 21
86.56566057679881
 31
0.0
  0
LINE
  5
119
330
70
100
AcDbEntity
  8
0
 62
    18
420
        0
370
    25
100
AcDbLine
 10
167.029570718784
 20
86.56566057679881
 30
0.0
 11
167.029570718784
 21
96.23232820699875
 31
0.0
  0
LINE
  5
11A
330
70
100
AcDbEntity
  8
0
 62
    18
420
        0
370
    25
100
AcDbLine
 10
167.029570718784
 20
85.06566002049863
 30
0.0
 11
167.029570718784
 21
86.56566057679881
 31
0.0
  0
LINE
  5
11B
330
70
100
AcDbEntity
  8
0
 62
    18
420
        0
370
    25
100
AcDbLine
 10
166.029571175684
 20
86.56566057679881
 30
0.0
 11
166.029571175684
 21
85.06566002049863
 31
0.0
  0
LINE
  5
11C
330
70
100
AcDbEntity
  8
0
 62
    18
420
        0
370
    25
100
AcDbLine
 10
173.6962372363842
 20
85.06566002049863
 30
0.0
 11
173.6962372363842
 21
86.56566057679881
 31
0.0
  0
LINE
  5
11D
330
70
100
AcDbEntity
  8
0
 62
    18
420
        0
370
    25
100
AcDbLine
 10
172.6962376933843
 20
86.56566057679881
 30
0.0
 11
172.6962376933843
 21
85.06566002049863
 31
0.0
  0
LINE
  5
11E
330
70
100
AcDbEntity
  8
0
 62
    18
420
        0
370
    25
100
AcDbLine
 10
172.6962376933843
 20
96.23232820699875
 30
0.0
 11
172.6962376933843
 21
86.56566057679881
 31
0.0
  0
LINE
  5
11F
330
70
100
AcDbEntity
  8
0
 62
    18
420
        0
370
    25
100
AcDbLine
 10
173.6962372363842
 20
86.56566057679881
 30
0.0
 11
173.6962372363842
 21
96.23232820699875
 31
0.0
  0
LINE
  5
120
330
70
100
AcDbEntity
  8
0
 62
    18
420
        0
370
    25
100
AcDbLine
 10
179.3629054527845
 20
86.56566057679881
 30
0.0
 11
179.3629054527845
 21
85.06566002049863
 31
0.0
  0
LINE
  5
121
330
70
100
AcDbEntity
  8
0
 62
    18
420
        0
370
    25
100
AcDbLine
 10
180.3629049957844
 20
85.06566002049863
 30
0.0
 11
180.3629049957844
 21
86.56566057679881
 31
0.0
  0
LINE
  5
122
330
70
100
AcDbEntity
  8
0
 62
    18
420
        0
370
    25
100
AcDbLine
 10
179.3629054527845
 20
96.23232820699875
 30
0.0
 11
179.3629054527845
 21
86.56566057679881
 31
0.0
  0
LINE
  5
123
330
70
100
AcDbEntity
  8
0
 62
    18
420
        0
370
    25
100
AcDbLine
 10
180.3629049957844
 20
86.56566057679881
 30
0.0
 11
180.3629049957844
 21
96.23232820699875
 31
0.0
  0
LINE
  5
124
330
70
100
AcDbEntity
  8
0
 62
    18
420
        0
370
    25
100
AcDbLine
 10
186.0295707286842
 20
96.23232820699875
 30
0.0
 11
186.0295707286842
 21
91.56566077549886
 31
0.0
  0
LINE
  5
125
330
70
100
AcDbEntity
  8
0
 62
    18
420
        0
370
    25
100
AcDbLine
 10
187.0295702716841
 20
91.56566077549886
 30
0.0
 11
187.0295702716841
 21
96.23232820699875
 31
0.0
  0
LINE
  5
126
330
70
100
AcDbEntity
  8
0
 62
    18
420
        0
370
    25
100
AcDbLine
 10
186.0295707286842
 20
91.56566077549886
 30
0.0
 11
186.0295707286842
 21
90.0656602190989
 31
0.0
  0
LINE
  5
127
330
70
100
AcDbEntity
  8
0
 62
    18
420
        0
370
    25
100
AcDbLine
 10
187.0295702716841
 20
90.0656602190989
 30
0.0
 11
187.0295702716841
 21
91.56566077549886
 31
0.0
  0
LWPOLYLINE
  5
128
330
70
100
AcDbEntity
  8
0
 62
    18
420
        0
370
    25
100
AcDbPolyline
 90
        5
 70
     0
 43
0.0
 10
147.0313340235842
 20
99.40767625049879
 10
147.031389689584
 20
99.62410319919907
 10
147.0314762054839
 20
99.86897522289877
 10
147.0315422129842
 20
100.049639384699
 10
147.0315528455844
 20
100.1513658868988
  0
LWPOLYLINE
  5
129
330
70
100
AcDbEntity
  8
0
 62
    18
420
        0
370
    25
100
AcDbPolyline
 90
        3
 70
     0
 43
0.0
 10
147.0315532724843
 20
100.1505699164989
 10
146.9846114132841
 20
102.654104074599
 10
146.8574124625844
 20
105.9150313493989
  0
LWPOLYLINE
  5
12A
330
70
100
AcDbEntity
  8
0
 62
    18
420
        0
370
    25
100
AcDbPolyline
 90
        3
 70
     0
 43
0.0
 10
147.031143878584
 20
96.35648840739882
 10
147.0312395913839
 20
96.37553954199885
 10
147.0312510194842
 20
96.38998745949884
  0
LINE
  5
12B
330
70
100
AcDbEntity
  8
0
 62
    18
420
        0
370
    25
100
AcDbLine
 10
152.0295710540841
 20
99.39899384059906
 30
0.0
 11
147.0295711075843
 21
99.39899384059906
 31
0.0
  0
SPLINE
  5
12C
330
70
100
AcDbEntity
  8
0
 62
    18
420
        0
370
    25
100
AcDbSpline
210
0.0
220
0.0
230
1.0
 70
     8
 71
     3
 72
     8
 73
     4
 74
     0
 42
0.0000000001
 43
0.0000000001
 40
0.0
 40
0.0
 40
0.0
 40
0.0
 40
1.0
 40
1.0
 40
1.0
 40
1.0
 10
147.1962377831844
 20
99.56566093366545
 30
0.0
 10
147.1041903248793
 20
99.56566093366545
 30
0.0
 10
147.0295711165174
 20
99.49104172530415
 30
0.0
 10
147.0295711165174
 20
99.39899426699877
 30
0.0
  0
LINE
  5
12D
330
70
100
AcDbEntity
  8
0
 62
    18
420
        0
370
    25
100
AcDbLine
 10
147.196237782184
 20
99.565660844999
 30
0.0
 11
152.0295710540841
 21
99.565660844999
 31
0.0
  0
LINE
  5
12E
330
70
100
AcDbEntity
  8
0
 62
    18
420
        0
370
    25
100
AcDbLine
 10
152.0295710540841
 20
99.39899384059906
 30
0.0
 11
152.0295710540841
 21
99.565660844999
 31
0.0
  0
LINE
  5
12F
330
70
100
AcDbEntity
  8
0
 62
    18
420
        0
370
    25
100
AcDbLine
 10
152.0295710540841
 20
96.23232820699875
 30
0.0
 11
147.196237782184
 21
96.23232820699875
 31
0.0
  0
SPLINE
  5
130
330
70
100
AcDbEntity
  8
0
 62
    18
420
        0
370
    25
100
AcDbSpline
210
0.0
220
0.0
230
1.0
 70
     8
 71
     3
 72
     8
 73
     4
 74
     0
 42
0.0000000001
 43
0.0000000001
 40
0.0
 40
0.0
 40
0.0
 40
0.0
 40
1.0
 40
1.0
 40
1.0
 40
1.0
 10
147.0295711165174
 20
96.39899426699898
 30
0.0
 10
147.0295711165174
 20
96.30694680869394
 30
0.0
 10
147.1041903248793
 20
96.23232760033232
 30
0.0
 10
147.1962377831844
 20
96.23232760033232
 30
0.0
  0
LINE
  5
131
330
70
100
AcDbEntity
  8
0
 62
    18
420
        0
370
    25
100
AcDbLine
 10
147.0295711075843
 20
96.39899396969886
 30
0.0
 11
152.0295710540841
 21
96.39899396969886
 31
0.0
  0
LINE
  5
132
330
70
100
AcDbEntity
  8
0
 62
    18
420
        0
370
    25
100
AcDbLine
 10
152.0295710540841
 20
96.23232820699875
 30
0.0
 11
152.0295710540841
 21
96.39899396969886
 31
0.0
  0
LINE
  5
133
330
70
100
AcDbEntity
  8
0
 62
    18
420
        0
370
    25
100
AcDbLine
 10
152.0295710540841
 20
99.39899384059906
 30
0.0
 11
152.0295710540841
 21
96.39899396969886
 31
0.0
  0
LINE
  5
134
330
70
100
AcDbEntity
  8
0
 62
    18
420
        0
370
    25
100
AcDbLine
 10
147.0295711075843
 20
99.39899384059906
 30
0.0
 11
147.0295711075843
 21
96.39899396969886
 31
0.0
  0
LINE
  5
135
330
70
100
AcDbEntity
  8
0
 62
    18
420
        0
370
    25
100
AcDbLine
 10
188.4283422729843
 20
99.39899384059906
 30
0.0
 11
152.0295710540841
 21
99.39899384059906
 31
0.0
  0
LINE
  5
136
330
70
100
AcDbEntity
  8
0
 62
    18
420
        0
370
    25
100
AcDbLine
 10
152.0295710540841
 20
99.565660844999
 30
0.0
 11
188.362903823584
 21
99.565660844999
 31
0.0
  0
SPLINE
  5
137
330
70
100
AcDbEntity
  8
0
 62
    18
420
        0
370
    25
100
AcDbSpline
210
0.0
220
0.0
230
1.0
 70
     8
 71
     3
 72
     8
 73
     4
 74
     0
 42
0.0000000001
 43
0.0000000001
 40
0.0
 40
0.0
 40
0.0
 40
0.0
 40
1.0
 40
1.0
 40
1.0
 40
1.0
 10
188.4283422729946
 20
99.39899384058206
 30
0.0
 10
188.4076829513485
 20
99.45499552282328
 30
0.0
 10
188.3858654522396
 20
99.51056311733132
 30
0.0
 10
188.362903823611
 20
99.56566084501055
 30
0.0
  0
LINE
  5
138
330
70
100
AcDbEntity
  8
0
 62
    18
420
        0
370
    25
100
AcDbLine
 10
188.362903823584
 20
96.23232820699875
 30
0.0
 11
152.0295710540841
 21
96.23232820699875
 31
0.0
  0
LINE
  5
139
330
70
100
AcDbEntity
  8
0
 62
    18
420
        0
370
    25
100
AcDbLine
 10
152.0295710540841
 20
96.39899396969886
 30
0.0
 11
188.4283422729843
 21
96.39899396969886
 31
0.0
  0
SPLINE
  5
13A
330
70
100
AcDbEntity
  8
0
 62
    18
420
        0
370
    25
100
AcDbSpline
210
0.0
220
0.0
230
1.0
 70
     8
 71
     3
 72
     8
 73
     4
 74
     0
 42
0.0000000001
 43
0.0000000001
 40
0.0
 40
0.0
 40
0.0
 40
0.0
 40
1.0
 40
1.0
 40
1.0
 40
1.0
 10
188.3629038235898
 20
96.23232820705716
 30
0.0
 10
188.3858748669084
 20
96.28742170736941
 30
0.0
 10
188.4076924433119
 20
96.34298908473002
 30
0.0
 10
188.4283422729728
 20
96.39899396971971
 30
0.0
  0
SPLINE
  5
13B
330
70
100
AcDbEntity
  8
0
 62
    18
420
        0
370
    25
100
AcDbSpline
210
0.0
220
0.0
230
1.0
 70
     8
 71
     3
 72
     8
 73
     4
 74
     0
 42
0.0000000001
 43
0.0000000001
 40
0.0
 40
0.0
 40
0.0
 40
0.0
 40
1.0
 40
1.0
 40
1.0
 40
1.0
 10
188.4283414224341
 20
96.39899426699802
 30
0.0
 10
188.785536570145
 20
97.36709717361165
 30
0.0
 10
188.785536570145
 20
98.43089136038642
 30
0.0
 10
188.4283414224341
 20
99.39899426699973
 30
0.0
  0
LWPOLYLINE
  5
13C
330
70
100
AcDbEntity
  8
0
 62
    18
420
        0
370
    25
100
AcDbPolyline
 90
        3
 70
     0
 43
0.0
 10
146.8563713215844
 20
105.906131630899
 10
146.8565144347839
 20
105.9006082670988
 10
146.8565528906843
 20
105.8991224971989
  0
SPLINE
  5
13D
330
70
100
AcDbEntity
  8
0
 62
    18
420
        0
370
    25
100
AcDbSpline
210
0.0
220
0.0
230
1.0
 70
     8
 71
     3
 72
    11
 73
     7
 74
     0
 42
0.0000000001
 43
0.0000000001
 40
0.0
 40
0.0
 40
0.0
 40
0.0
 40
1.0
 40
1.0
 40
1.0
 40
2.0
 40
2.0
 40
2.0
 40
2.0
 10
152.6962377831842
 20
85.06566093359916
 30
0.0
 10
152.6962377831842
 20
84.78951855868336
 30
0.0
 10
152.9200954082688
 20
84.56566093359882
 30
0.0
 10
153.1962377831839
 20
84.56566093359882
 30
0.0
 10
153.4723801580997
 20
84.56566093359882
 30
0.0
 10
153.6962377831843
 20
84.78951855868336
 30
0.0
 10
153.6962377831843
 20
85.06566093359916
 30
0.0
  0
SPLINE
  5
13E
330
70
100
AcDbEntity
  8
0
 62
    18
420
        0
370
    25
100
AcDbSpline
210
0.0
220
0.0
230
1.0
 70
     8
 71
     3
 72
    11
 73
     7
 74
     0
 42
0.0000000001
 43
0.0000000001
 40
0.0
 40
0.0
 40
0.0
 40
0.0
 40
1.0
 40
1.0
 40
1.0
 40
2.0
 40
2.0
 40
2.0
 40
2.0
 10
159.3629044498839
 20
85.06566093359916
 30
0.0
 10
159.3629044498839
 20
84.78951855868336
 30
0.0
 10
159.586762074969
 20
84.56566093359882
 30
0.0
 10
159.8629044498842
 20
84.56566093359882
 30
0.0
 10
160.1390468247994
 20
84.56566093359882
 30
0.0
 10
160.3629044498839
 20
84.78951855868336
 30
0.0
 10
160.3629044498839
 20
85.06566093359916
 30
0.0
  0
SPLINE
  5
13F
330
70
100
AcDbEntity
  8
0
 62
    18
420
        0
370
    25
100
AcDbSpline
210
0.0
220
0.0
230
1.0
 70
     8
 71
     3
 72
    11
 73
     7
 74
     0
 42
0.0000000001
 43
0.0000000001
 40
0.0
 40
0.0
 40
0.0
 40
0.0
 40
1.0
 40
1.0
 40
1.0
 40
2.0
 40
2.0
 40
2.0
 40
2.0
 10
166.0295711165841
 20
85.06566093359916
 30
0.0
 10
166.0295711165841
 20
84.78951855868336
 30
0.0
 10
166.2534287416687
 20
84.56566093359882
 30
0.0
 10
166.5295711165838
 20
84.56566093359882
 30
0.0
 10
166.8057134914996
 20
84.56566093359882
 30
0.0
 10
167.0295711165842
 20
84.78951855868336
 30
0.0
 10
167.0295711165842
 20
85.06566093359916
 30
0.0
  0
SPLINE
  5
140
330
70
100
AcDbEntity
  8
0
 62
    18
420
        0
370
    25
100
AcDbSpline
210
0.0
220
0.0
230
1.0
 70
     8
 71
     3
 72
    11
 73
     7
 74
     0
 42
0.0000000001
 43
0.0000000001
 40
0.0
 40
0.0
 40
0.0
 40
0.0
 40
1.0
 40
1.0
 40
1.0
 40
2.0
 40
2.0
 40
2.0
 40
2.0
 10
172.6962377831843
 20
85.06566093359916
 30
0.0
 10
172.6962377831843
 20
84.78951855868336
 30
0.0
 10
172.9200954082688
 20
84.56566093359882
 30
0.0
 10
173.196237783184
 20
84.56566093359882
 30
0.0
 10
173.4723801580998
 20
84.56566093359882
 30
0.0
 10
173.6962377831843
 20
84.78951855868336
 30
0.0
 10
173.6962377831843
 20
85.06566093359916
 30
0.0
  0
SPLINE
  5
141
330
70
100
AcDbEntity
  8
0
 62
    18
420
        0
370
    25
100
AcDbSpline
210
0.0
220
0.0
230
1.0
 70
     8
 71
     3
 72
    11
 73
     7
 74
     0
 42
0.0000000001
 43
0.0000000001
 40
0.0
 40
0.0
 40
0.0
 40
0.0
 40
1.0
 40
1.0
 40
1.0
 40
2.0
 40
2.0
 40
2.0
 40
2.0
 10
179.3629044498839
 20
85.06566093359916
 30
0.0
 10
179.3629044498839
 20
84.78951855868336
 30
0.0
 10
179.5867620749685
 20
84.56566093359882
 30
0.0
 10
179.8629044498843
 20
84.56566093359882
 30
0.0
 10
180.1390468247994
 20
84.56566093359882
 30
0.0
 10
180.362904449884
 20
84.78951855868336
 30
0.0
 10
180.362904449884
 20
85.06566093359916
 30
0.0
  0
SPLINE
  5
142
330
70
100
AcDbEntity
  8
0
 62
    18
420
        0
370
    25
100
AcDbSpline
210
0.0
220
0.0
230
1.0
 70
     8
 71
     3
 72
    11
 73
     7
 74
     0
 42
0.0000000001
 43
0.0000000001
 40
0.0
 40
0.0
 40
0.0
 40
0.0
 40
1.0
 40
1.0
 40
1.0
 40
2.0
 40
2.0
 40
2.0
 40
2.0
 10
186.0295711165842
 20
90.065660933599
 30
0.0
 10
186.0295711165842
 20
89.78951855868354
 30
0.0
 10
186.2534287416687
 20
89.56566093359899
 30
0.0
 10
186.5295711165839
 20
89.56566093359899
 30
0.0
 10
186.8057134914997
 20
89.56566093359899
 30
0.0
 10
187.0295711165842
 20
89.78951855868354
 30
0.0
 10
187.0295711165842
 20
90.065660933599
 30
0.0
  0
LWPOLYLINE
  5
143
330
70
100
AcDbEntity
  8
0
 62
    18
420
        0
370
    25
100
AcDbPolyline
 90
        9
 70
     0
 43
0.0
 10
146.5233415447844
 20
89.89899321469863
 10
146.5882974137845
 20
89.89623153279854
 10
146.6507582696841
 20
89.89357664259888
 10
146.7083249090839
 20
89.89112788509931
 10
146.7587861780842
 20
89.8889821178985
 10
146.800203800384
 20
89.88721881379902
 10
146.8309869217839
 20
89.88590999519903
 10
146.8499531120839
 20
89.88510533249888
 10
146.8563738438844
 20
89.88483214449898
  0
LWPOLYLINE
  5
144
330
70
100
AcDbEntity
  8
0
 62
    18
420
        0
370
    25
100
AcDbPolyline
 90
        7
 70
     0
 43
0.0
 10
146.5233415447844
 20
89.89899321469863
 10
146.5336128685844
 20
89.89877466439894
 10
146.5826973711843
 20
89.89772164899886
 10
146.6879197478843
 20
89.89546660659849
 10
146.7745769462843
 20
89.89360892849891
 10
146.8329177087841
 20
89.8923597144992
 10
146.8563713215844
 20
89.89185555849861
  0
SPLINE
  5
145
330
70
100
AcDbEntity
  8
0
 62
    18
420
        0
370
    25
100
AcDbSpline
210
0.0
220
0.0
230
1.0
 70
     8
 71
     3
 72
     8
 73
     4
 74
     0
 42
0.0000000001
 43
0.0000000001
 40
0.0
 40
0.0
 40
0.0
 40
0.0
 40
1.0
 40
1.0
 40
1.0
 40
1.0
 10
146.8563713215593
 20
89.89185555855508
 30
0.0
 10
146.8567772472688
 20
89.89416865553941
 30
0.0
 10
146.8569775395425
 20
89.8965131555505
 30
0.0
 10
146.8569698515343
 20
89.89886158784326
 30
0.0
  0
LINE
  5
146
330
70
100
AcDbEntity
  8
0
 62
    18
420
        0
370
    25
100
AcDbLine
 10
146.8569698514843
 20
89.89886158779897
 30
0.0
 11
146.8563738438844
 21
89.88483214449898
 31
0.0
  0
LWPOLYLINE
  5
147
330
70
100
AcDbEntity
  8
0
 62
    18
420
        0
370
    25
100
AcDbPolyline
 90
        4
 70
     0
 43
0.0
 10
146.5233415447844
 20
89.89899321469863
 10
146.5249525775841
 20
95.2010486430988
 10
146.5249660817842
 20
100.5031028297988
 10
146.5233415447844
 20
105.898993974699
  0
LWPOLYLINE
  5
148
330
70
100
AcDbEntity
  8
0
 62
    18
420
        0
370
    25
100
AcDbPolyline
 90
        9
 70
     0
 43
0.0
 10
146.5233415447844
 20
105.898993974699
 10
146.5866339164843
 20
105.899018189099
 10
146.6476233602842
 20
105.899041782599
 10
146.7040909225839
 20
105.8990628924988
 10
146.7539820669844
 20
105.8990821398989
 10
146.7954815680841
 20
105.8990976618989
 10
146.8270794415841
 20
105.899110079599
 10
146.8476260861844
 20
105.8991175300989
 10
146.8563738438844
 20
105.8991212553989
  0
LWPOLYLINE
  5
149
330
70
100
AcDbEntity
  8
0
 62
    18
420
        0
370
    25
100
AcDbPolyline
 90
        7
 70
     0
 43
0.0
 10
146.8563738438844
 20
105.8991212553989
 10
146.8566123788843
 20
105.232454479499
 10
146.8574553033844
 20
102.5657879965989
 10
146.8581385449839
 20
97.23245440989883
 10
146.8579069560842
 20
95.20098655499905
 10
146.8563738438838
 20
89.89886655479851
 10
146.8563713215844
 20
89.89185555849861
  0
LINE
  5
14A
330
70
100
AcDbEntity
  8
0
 62
    18
420
        0
370
    25
100
AcDbLine
 10
145.0295711483841
 20
105.898993974699
 30
0.0
 11
145.0295711483841
 21
89.89899321469863
 31
0.0
  0
LINE
  5
14B
330
70
100
AcDbEntity
  8
0
 62
    18
420
        0
370
    25
100
AcDbLine
 10
146.5233415447844
 20
105.898993974699
 30
0.0
 11
145.0295711483841
 21
105.898993974699
 31
0.0
  0
LINE
  5
14C
330
70
100
AcDbEntity
  8
0
 62
    18
420
        0
370
    25
100
AcDbLine
 10
145.0295711483841
 20
89.89899321469863
 30
0.0
 11
146.5233415447844
 21
89.89899321469863
 31
0.0
  0
LINE
  5
14D
330
70
100
AcDbEntity
  8
0
 62
    18
420
        0
370
    25
100
AcDbLine
 10
145.0295711483841
 20
105.898993974699
 30
0.0
 11
145.0295711483841
 21
106.2323273625989
 31
0.0
  0
LINE
  5
14E
330
70
100
AcDbEntity
  8
0
 62
    18
420
        0
370
    25
100
AcDbLine
 10
145.0295711483841
 20
106.2323273625989
 30
0.0
 11
146.5233415447844
 21
106.2323273625989
 31
0.0
  0
LINE
  5
14F
330
70
100
AcDbEntity
  8
0
 62
    18
420
        0
370
    25
100
AcDbLine
 10
146.5233415447844
 20
105.898993974699
 30
0.0
 11
146.5233415447844
 21
106.2323273625989
 31
0.0
  0
LINE
  5
150
330
70
100
AcDbEntity
  8
0
 62
    18
420
        0
370
    25
100
AcDbLine
 10
146.5233415447844
 20
89.56566168939918
 30
0.0
 11
146.5233415447844
 21
89.89899321469863
 31
0.0
  0
LINE
  5
151
330
70
100
AcDbEntity
  8
0
 62
    18
420
        0
370
    25
100
AcDbLine
 10
146.5233415447844
 20
89.56566168939918
 30
0.0
 11
145.0295711483841
 21
89.56566168939918
 31
0.0
  0
LINE
  5
152
330
70
100
AcDbEntity
  8
0
 62
    18
420
        0
370
    25
100
AcDbLine
 10
145.0295711483841
 20
89.56566168939918
 30
0.0
 11
145.0295711483841
 21
89.89899321469863
 31
0.0
  0
SPLINE
  5
153
330
70
100
AcDbEntity
  8
0
 62
    18
420
        0
370
    25
100
AcDbSpline
210
0.0
220
0.0
230
1.0
 70
     8
 71
     3
 72
     8
 73
     4
 74
     0
 42
0.0000000001
 43
0.0000000001
 40
0.0
 40
0.0
 40
0.0
 40
0.0
 40
1.0
 40
1.0
 40
1.0
 40
1.0
 10
146.8563738439018
 20
105.8991212554753
 30
0.0
 10
146.8563871026084
 20
106.0830835313988
 30
0.0
 10
146.7073038025594
 20
106.2322446373592
 30
0.0
 10
146.5233415447581
 20
106.2323273626942
 30
0.0
  0
SPLINE
  5
154
330
70
100
AcDbEntity
  8
0
 62
    18
420
        0
370
    25
100
AcDbSpline
210
0.0
220
0.0
230
1.0
 70
     8
 71
     3
 72
     8
 73
     4
 74
     0
 42
0.0000000001
 43
0.0000000001
 40
0.0
 40
0.0
 40
0.0
 40
0.0
 40
1.0
 40
1.0
 40
1.0
 40
1.0
 10
146.5233415447735
 20
89.56566168935555
 30
0.0
 10
146.7019279110806
 20
89.56566161632634
 30
0.0
 10
146.8487860354386
 20
89.70640704706255
 30
0.0
 10
146.8563738439165
 20
89.88483214449384
 30
0.0
  0
LINE
  5
155
330
70
100
AcDbEntity
  8
0
 62
    18
420
        0
370
    25
100
AcDbLine
 10
146.8569698514843
 20
105.8991268433989
 30
0.0
 11
146.8563738438844
 21
105.8991212553989
 31
0.0
  0
SPLINE
  5
156
330
70
100
AcDbEntity
  8
0
 62
    18
420
        0
370
    25
100
AcDbSpline
210
0.0
220
0.0
230
1.0
 70
     8
 71
     3
 72
     8
 73
     4
 74
     0
 42
0.0000000001
 43
0.0000000001
 40
0.0
 40
0.0
 40
0.0
 40
0.0
 40
1.0
 40
1.0
 40
1.0
 40
1.0
 10
147.0305935639632
 20
99.34485916372974
 30
0.0
 10
147.0162744073723
 20
101.5305516717948
 30
0.0
 10
146.9583883385847
 20
103.7157416119609
 30
0.0
 10
146.8569698515421
 20
105.8991268433261
 30
0.0
  0
SPLINE
  5
157
330
70
100
AcDbEntity
  8
0
 62
    18
420
        0
370
    25
100
AcDbSpline
210
0.0
220
0.0
230
1.0
 70
     8
 71
     3
 72
     8
 73
     4
 74
     0
 42
0.0000000001
 43
0.0000000001
 40
0.0
 40
0.0
 40
0.0
 40
0.0
 40
1.0
 40
1.0
 40
1.0
 40
1.0
 10
146.8569698515709
 20
89.89886158785351
 30
0.0
 10
146.9573947367614
 20
92.06259176231219
 30
0.0
 10
147.0152443070718
 20
94.22808816620751
 30
0.0
 10
147.0304849872998
 20
96.39409397116144
 30
0.0
  0
LINE
  5
158
330
70
100
AcDbEntity
  8
0
 62
    18
420
        0
370
    25
100
AcDbLine
 10
147.031079074084
 20
99.48232734279887
 30
0.0
 11
147.0310169470841
 21
99.40611411209888
 31
0.0
  0
LWPOLYLINE
  5
159
330
70
100
AcDbEntity
  8
0
 62
    18
420
        0
370
    25
100
AcDbPolyline
 90
        4
 70
     0
 43
0.0
 10
146.8563713215844
 20
105.913154423999
 10
146.856589561484
 20
105.9080284244989
 10
146.8568422991842
 20
105.902107075599
 10
146.8569698514843
 20
105.8991268433989
  0
LINE
  5
15A
330
70
100
AcDbEntity
  8
0
 62
    18
420
        0
370
    25
100
AcDbLine
 10
147.0310791128843
 20
96.31566046749904
 30
0.0
 11
147.031023524584
 21
96.38348310269897
 31
0.0
  0
LWPOLYLINE
  5
15B
330
70
100
AcDbEntity
  8
0
 62
    18
420
        0
370
    25
100
AcDbPolyline
 90
        6
 70
     0
 43
0.0
 10
147.0315077734838
 20
95.81566069599906
 10
147.0314841217843
 20
95.84384624239907
 10
147.0314119442842
 20
95.9252252089988
 10
147.0313038720842
 20
96.0506234474988
 10
147.0311734480841
 20
96.20590223939885
 10
147.0310791128843
 20
96.31566046749904
  0
LWPOLYLINE
  5
15C
330
70
100
AcDbEntity
  8
0
 62
    18
420
        0
370
    25
100
AcDbPolyline
 90
        3
 70
     0
 43
0.0
 10
147.0315077734838
 20
95.81566069599906
 10
146.9644397035843
 20
92.49243352889884
 10
146.8581525147842
 20
89.882820487799
  0
LINE
  5
15D
330
70
100
AcDbEntity
  8
0
 62
    18
420
        0
370
    25
100
AcDbLine
 10
146.8581525148182
 20
89.88282048773099
 30
0.0
 11
146.8569740222566
 21
89.8841680716446
 31
0.0
  0
SPLINE
  5
15E
330
70
100
AcDbEntity
  8
0
 62
    18
420
        0
370
    25
100
AcDbSpline
210
0.0
220
0.0
230
1.0
 70
     8
 71
     3
 72
     8
 73
     4
 74
     0
 42
0.0000000001
 43
0.0000000001
 40
0.0
 40
0.0
 40
0.0
 40
0.0
 40
1.0
 40
1.0
 40
1.0
 40
1.0
 10
146.8563713215317
 20
105.9131544239916
 30
0.0
 10
146.8487855850192
 20
106.0915798571107
 30
0.0
 10
146.7019281583894
 20
106.2323267803167
 30
0.0
 10
146.5233415447202
 20
106.2323273626563
 30
0.0
  0
SPLINE
  5
15F
330
70
100
AcDbEntity
  8
0
 62
    18
420
        0
370
    25
100
AcDbSpline
210
0.0
220
0.0
230
1.0
 70
     8
 71
     3
 72
     8
 73
     4
 74
     0
 42
0.0000000001
 43
0.0000000001
 40
0.0
 40
0.0
 40
0.0
 40
0.0
 40
1.0
 40
1.0
 40
1.0
 40
1.0
 10
146.5252118370841
 20
89.56566093366573
 30
0.0
 10
146.7030191391778
 20
89.56566093366573
 30
0.0
 10
146.8495248410836
 20
89.70522217606319
 30
0.0
 10
146.858152530518
 20
89.88282003543263
 30
0.0
  0
LINE
  5
160
330
70
100
AcDbEntity
  8
0
 62
     8
420
  8421504
370
    25
100
AcDbLine
 10
152.6962375195839
 20
86.56566057679881
 30
0.0
 11
153.6962376834841
 21
86.56566057679881
 31
0.0
  0
LINE
  5
161
330
70
100
AcDbEntity
  8
0
 62
     8
420
  8421504
370
    25
100
AcDbLine
 10
159.3629046580844
 20
86.56566057679881
 30
0.0
 11
160.3629042010844
 21
86.56566057679881
 31
0.0
  0
LINE
  5
162
330
70
100
AcDbEntity
  8
0
 62
     8
420
  8421504
370
    25
100
AcDbLine
 10
166.029571175684
 20
86.56566057679881
 30
0.0
 11
167.029570718784
 21
86.56566057679881
 31
0.0
  0
LINE
  5
163
330
70
100
AcDbEntity
  8
0
 62
     8
420
  8421504
370
    25
100
AcDbLine
 10
172.6962376933843
 20
86.56566057679881
 30
0.0
 11
173.6962372363842
 21
86.56566057679881
 31
0.0
  0
LINE
  5
164
330
70
100
AcDbEntity
  8
0
 62
     8
420
  8421504
370
    25
100
AcDbLine
 10
180.3629049957844
 20
86.56566057679881
 30
0.0
 11
179.3629054527845
 21
86.56566057679881
 31
0.0
  0
LINE
  5
165
330
70
100
AcDbEntity
  8
0
 62
     8
420
  8421504
370
    25
100
AcDbLine
 10
187.0295702716841
 20
91.56566077549886
 30
0.0
 11
186.0295707286842
 21
91.56566077549886
 31
0.0
  0
LWPOLYLINE
  5
166
330
70
100
AcDbEntity
  8
0
 62
     8
420
  8421504
370
    25
100
AcDbPolyline
 90
        5
 70
     0
 43
0.0
 10
146.8580548422842
 20
105.9150561846989
 10
146.8581385449839
 20
105.9151518004989
 10
146.8579069560842
 20
105.9148842003988
 10
146.8563738438838
 20
105.913157528399
 10
146.8563713215844
 20
105.913154423999
  0
LINE
  5
167
330
70
100
AcDbEntity
  8
0
 62
    18
420
        0
370
    25
100
AcDbLine
 10
108.3757721492843
 20
3.933736429399174
 30
0.0
 11
110.2091067144838
 21
3.933736429399174
 31
0.0
  0
LINE
  5
168
330
70
100
AcDbEntity
  8
0
 62
    18
420
        0
370
    25
100
AcDbLine
 10
10.20910770788433
 20
3.933736429399174
 30
0.0
 11
12.04243978948429
 21
3.933736429399174
 31
0.0
  0
LWPOLYLINE
  5
169
330
70
100
AcDbEntity
  8
0
 62
    18
420
        0
370
    25
100
AcDbPolyline
 90
        3
 70
     0
 43
0.0
 10
90.63320786848441
 20
45.60040315429893
 10
93.14270745808411
 20
45.64093840669886
 10
96.55847580328376
 20
45.77261612649887
  0
LWPOLYLINE
  5
16A
330
70
100
AcDbEntity
  8
0
 62
    18
420
        0
370
    25
100
AcDbPolyline
 90
        3
 70
     0
 43
0.0
 10
80.52640588178432
 20
45.77261612649887
 10
83.94215435878431
 20
45.64093891119879
 10
86.45163408008423
 20
45.60040315429893
  0
SPLINE
  5
16B
330
70
100
AcDbEntity
  8
0
 62
    18
420
        0
370
    25
100
AcDbSpline
210
0.0
220
0.0
230
1.0
 70
     8
 71
     3
 72
     8
 73
     4
 74
     0
 42
0.0000000001
 43
0.0000000001
 40
0.0
 40
0.0
 40
0.0
 40
0.0
 40
1.0
 40
1.0
 40
1.0
 40
1.0
 10
96.55834726600263
 20
45.77180730760452
 30
0.0
 10
96.7360592272316
 20
45.78029758347192
 30
0.0
 10
96.87577896502258
 20
45.92685630538672
 30
0.0
 10
96.87577357966477
 20
46.104770964476
 30
0.0
  0
SPLINE
  5
16C
330
70
100
AcDbEntity
  8
0
 62
    18
420
        0
370
    25
100
AcDbSpline
210
0.0
220
0.0
230
1.0
 70
     8
 71
     3
 72
     8
 73
     4
 74
     0
 42
0.0000000001
 43
0.0000000001
 40
0.0
 40
0.0
 40
0.0
 40
0.0
 40
1.0
 40
1.0
 40
1.0
 40
1.0
 10
80.20910691330362
 20
46.10477096443879
 30
0.0
 10
80.20910152930429
 20
45.9269005413348
 30
0.0
 10
80.34875412274814
 20
45.78036191658174
 30
0.0
 10
80.52641897522393
 20
45.77181278568462
 30
0.0
  0
LWPOLYLINE
  5
16D
330
70
100
AcDbEntity
  8
0
 62
    18
420
        0
370
    25
100
AcDbPolyline
 90
        5
 70
     0
 43
0.0
 10
87.03247140938449
 20
45.59862983849894
 10
87.34140228318388
 20
45.59856530559868
 10
87.70606349998423
 20
45.59849194459897
 10
88.11174264638372
 20
45.59842946829858
 10
88.54244084248431
 20
45.59840036449939
  0
LWPOLYLINE
  5
16E
330
70
100
AcDbEntity
  8
0
 62
    18
420
        0
370
    25
100
AcDbPolyline
 90
        5
 70
     0
 43
0.0
 10
88.54244084248431
 20
45.59840036449939
 10
88.97313903858425
 20
45.59842946829858
 10
89.37881818508385
 20
45.59849194459897
 10
89.74347940178409
 20
45.59856530559868
 10
90.05240530858458
 20
45.59862983849894
  0
LINE
  5
16F
330
70
100
AcDbEntity
  8
0
 62
    18
420
        0
370
    25
100
AcDbLine
 10
107.7924413590843
 20
38.93373657839908
 30
0.0
 11
108.3757721492843
 21
38.93373657839908
 31
0.0
  0
LINE
  5
170
330
70
100
AcDbEntity
  8
0
 62
    18
420
        0
370
    25
100
AcDbLine
 10
108.3757721492843
 20
39.93373674239878
 30
0.0
 11
107.7924413590843
 21
39.93373674239878
 31
0.0
  0
LINE
  5
171
330
70
100
AcDbEntity
  8
0
 62
    18
420
        0
370
    25
100
AcDbLine
 10
12.04243978948429
 20
38.93373657839908
 30
0.0
 11
12.62577306318407
 21
38.93373657839908
 31
0.0
  0
LINE
  5
172
330
70
100
AcDbEntity
  8
0
 62
    18
420
        0
370
    25
100
AcDbLine
 10
12.62577306318407
 20
39.93373674239878
 30
0.0
 11
12.04243978948429
 21
39.93373674239878
 31
0.0
  0
LINE
  5
173
330
70
100
AcDbEntity
  8
0
 62
    18
420
        0
370
    25
100
AcDbLine
 10
12.62577306318407
 20
38.93373657839908
 30
0.0
 11
107.7924413590843
 21
38.93373657839908
 31
0.0
  0
LINE
  5
174
330
70
100
AcDbEntity
  8
0
 62
    18
420
        0
370
    25
100
AcDbLine
 10
107.7924413590843
 20
39.93373674239878
 30
0.0
 11
12.62577306318407
 21
39.93373674239878
 31
0.0
  0
LINE
  5
175
330
70
100
AcDbEntity
  8
0
 62
    18
420
        0
370
    25
100
AcDbLine
 10
107.7924413590843
 20
32.26707006079886
 30
0.0
 11
108.3757721492843
 21
32.26707006079886
 31
0.0
  0
LINE
  5
176
330
70
100
AcDbEntity
  8
0
 62
    18
420
        0
370
    25
100
AcDbLine
 10
108.3757721492843
 20
33.26706960379881
 30
0.0
 11
107.7924413590843
 21
33.26706960379881
 31
0.0
  0
LINE
  5
177
330
70
100
AcDbEntity
  8
0
 62
    18
420
        0
370
    25
100
AcDbLine
 10
12.04243978948429
 20
32.26707006079886
 30
0.0
 11
12.62577306318407
 21
32.26707006079886
 31
0.0
  0
LINE
  5
178
330
70
100
AcDbEntity
  8
0
 62
    18
420
        0
370
    25
100
AcDbLine
 10
12.62577306318407
 20
33.26706960379881
 30
0.0
 11
12.04243978948429
 21
33.26706960379881
 31
0.0
  0
LINE
  5
179
330
70
100
AcDbEntity
  8
0
 62
    18
420
        0
370
    25
100
AcDbLine
 10
12.62577306318407
 20
32.26707006079886
 30
0.0
 11
107.7924413590843
 21
32.26707006079886
 31
0.0
  0
LINE
  5
17A
330
70
100
AcDbEntity
  8
0
 62
    18
420
        0
370
    25
100
AcDbLine
 10
107.7924413590843
 20
33.26706960379881
 30
0.0
 11
12.62577306318407
 21
33.26706960379881
 31
0.0
  0
LINE
  5
17B
330
70
100
AcDbEntity
  8
0
 62
    18
420
        0
370
    25
100
AcDbLine
 10
107.7924413590843
 20
25.60040354309919
 30
0.0
 11
108.3757721492843
 21
25.60040354309919
 31
0.0
  0
LINE
  5
17C
330
70
100
AcDbEntity
  8
0
 62
    18
420
        0
370
    25
100
AcDbLine
 10
108.3757721492843
 20
26.60040308619859
 30
0.0
 11
107.7924413590843
 21
26.60040308619859
 31
0.0
  0
LINE
  5
17D
330
70
100
AcDbEntity
  8
0
 62
    18
420
        0
370
    25
100
AcDbLine
 10
12.04243978948429
 20
25.60040354309919
 30
0.0
 11
12.62577306318407
 21
25.60040354309919
 31
0.0
  0
LINE
  5
17E
330
70
100
AcDbEntity
  8
0
 62
    18
420
        0
370
    25
100
AcDbLine
 10
12.62577306318407
 20
26.60040308619859
 30
0.0
 11
12.04243978948429
 21
26.60040308619859
 31
0.0
  0
LINE
  5
17F
330
70
100
AcDbEntity
  8
0
 62
    18
420
        0
370
    25
100
AcDbLine
 10
12.62577306318407
 20
25.60040354309919
 30
0.0
 11
107.7924413590843
 21
25.60040354309919
 31
0.0
  0
LINE
  5
180
330
70
100
AcDbEntity
  8
0
 62
    18
420
        0
370
    25
100
AcDbLine
 10
107.7924413590843
 20
26.60040308619859
 30
0.0
 11
12.62577306318407
 21
26.60040308619859
 31
0.0
  0
LINE
  5
181
330
70
100
AcDbEntity
  8
0
 62
    18
420
        0
370
    25
100
AcDbLine
 10
107.7924413590843
 20
18.93373702549897
 30
0.0
 11
108.3757721492843
 21
18.93373702549897
 31
0.0
  0
LINE
  5
182
330
70
100
AcDbEntity
  8
0
 62
    18
420
        0
370
    25
100
AcDbLine
 10
108.3757721492843
 20
19.93373656849891
 30
0.0
 11
107.7924413590843
 21
19.93373656849891
 31
0.0
  0
LINE
  5
183
330
70
100
AcDbEntity
  8
0
 62
    18
420
        0
370
    25
100
AcDbLine
 10
12.04243978948429
 20
18.93373702549897
 30
0.0
 11
12.62577306318407
 21
18.93373702549897
 31
0.0
  0
LINE
  5
184
330
70
100
AcDbEntity
  8
0
 62
    18
420
        0
370
    25
100
AcDbLine
 10
12.62577306318407
 20
19.93373656849891
 30
0.0
 11
12.04243978948429
 21
19.93373656849891
 31
0.0
  0
LINE
  5
185
330
70
100
AcDbEntity
  8
0
 62
    18
420
        0
370
    25
100
AcDbLine
 10
12.62577306318407
 20
18.93373702549897
 30
0.0
 11
107.7924413590843
 21
18.93373702549897
 31
0.0
  0
LINE
  5
186
330
70
100
AcDbEntity
  8
0
 62
    18
420
        0
370
    25
100
AcDbLine
 10
107.7924413590843
 20
19.93373656849891
 30
0.0
 11
12.62577306318407
 21
19.93373656849891
 31
0.0
  0
LINE
  5
187
330
70
100
AcDbEntity
  8
0
 62
    18
420
        0
370
    25
100
AcDbLine
 10
108.3757721492843
 20
13.26706880909876
 30
0.0
 11
107.7924413590843
 21
13.26706880909876
 31
0.0
  0
LINE
  5
188
330
70
100
AcDbEntity
  8
0
 62
    18
420
        0
370
    25
100
AcDbLine
 10
107.7924413590843
 20
12.26706926609881
 30
0.0
 11
108.3757721492843
 21
12.26706926609881
 31
0.0
  0
LINE
  5
189
330
70
100
AcDbEntity
  8
0
 62
    18
420
        0
370
    25
100
AcDbLine
 10
12.62577306318407
 20
13.26706880909876
 30
0.0
 11
12.04243978948429
 21
13.26706880909876
 31
0.0
  0
LINE
  5
18A
330
70
100
AcDbEntity
  8
0
 62
    18
420
        0
370
    25
100
AcDbLine
 10
12.04243978948429
 20
12.26706926609881
 30
0.0
 11
12.62577306318407
 21
12.26706926609881
 31
0.0
  0
LINE
  5
18B
330
70
100
AcDbEntity
  8
0
 62
    18
420
        0
370
    25
100
AcDbLine
 10
107.7924413590843
 20
13.26706880909876
 30
0.0
 11
12.62577306318407
 21
13.26706880909876
 31
0.0
  0
LINE
  5
18C
330
70
100
AcDbEntity
  8
0
 62
    18
420
        0
370
    25
100
AcDbLine
 10
12.62577306318407
 20
12.26706926609881
 30
0.0
 11
107.7924413590843
 21
12.26706926609881
 31
0.0
  0
LINE
  5
18D
330
70
100
AcDbEntity
  8
0
 62
    18
420
        0
370
    25
100
AcDbLine
 10
108.3757721492843
 20
6.60040353319902
 30
0.0
 11
107.7924413590843
 21
6.60040353319902
 31
0.0
  0
LINE
  5
18E
330
70
100
AcDbEntity
  8
0
 62
    18
420
        0
370
    25
100
AcDbLine
 10
107.7924413590843
 20
5.600403990199073
 30
0.0
 11
108.3757721492843
 21
5.600403990199073
 31
0.0
  0
LINE
  5
18F
330
70
100
AcDbEntity
  8
0
 62
    18
420
        0
370
    25
100
AcDbLine
 10
12.62577306318407
 20
6.60040353319902
 30
0.0
 11
12.04243978948429
 21
6.60040353319902
 31
0.0
  0
LINE
  5
190
330
70
100
AcDbEntity
  8
0
 62
    18
420
        0
370
    25
100
AcDbLine
 10
12.04243978948429
 20
5.600403990199073
 30
0.0
 11
12.62577306318407
 21
5.600403990199073
 31
0.0
  0
LINE
  5
191
330
70
100
AcDbEntity
  8
0
 62
    18
420
        0
370
    25
100
AcDbLine
 10
107.7924413590843
 20
6.60040353319902
 30
0.0
 11
12.62577306318407
 21
6.60040353319902
 31
0.0
  0
LINE
  5
192
330
70
100
AcDbEntity
  8
0
 62
    18
420
        0
370
    25
100
AcDbLine
 10
12.62577306318407
 20
5.600403990199073
 30
0.0
 11
107.7924413590843
 21
5.600403990199073
 31
0.0
  0
LWPOLYLINE
  5
193
330
70
100
AcDbEntity
  8
0
 62
    18
420
        0
370
    25
100
AcDbPolyline
 90
        5
 70
     0
 43
0.0
 10
30.2425870655841
 20
45.59879617659887
 10
30.99246541808423
 20
45.59857198009906
 10
31.87793112648409
 20
45.59846417949884
 10
32.76457988188428
 20
45.59857248459898
 10
33.50896009398407
 20
45.59879617659887
  0
LWPOLYLINE
  5
194
330
70
100
AcDbEntity
  8
0
 62
    18
420
        0
370
    25
100
AcDbPolyline
 90
        3
 70
     0
 43
0.0
 10
23.85973861908409
 20
45.77261612649887
 10
27.27550603288423
 20
45.64093840669886
 10
29.78500360468407
 20
45.60040315429893
  0
LWPOLYLINE
  5
195
330
70
100
AcDbEntity
  8
0
 62
    18
420
        0
370
    25
100
AcDbPolyline
 90
        3
 70
     0
 43
0.0
 10
33.96657739298414
 20
45.60040315429893
 10
36.47606006358419
 20
45.64093891119879
 10
39.89180854058417
 20
45.77261612649887
  0
SPLINE
  5
196
330
70
100
AcDbEntity
  8
0
 62
    18
420
        0
370
    25
100
AcDbSpline
210
0.0
220
0.0
230
1.0
 70
     8
 71
     3
 72
     8
 73
     4
 74
     0
 42
0.0000000001
 43
0.0000000001
 40
0.0
 40
0.0
 40
0.0
 40
0.0
 40
1.0
 40
1.0
 40
1.0
 40
1.0
 10
23.5424402466035
 20
46.104770964476
 30
0.0
 10
23.5424348625846
 20
45.92690054135791
 30
0.0
 10
23.68208745603328
 20
45.78036191658302
 30
0.0
 10
23.8597523085235
 20
45.77181278568462
 30
0.0
  0
SPLINE
  5
197
330
70
100
AcDbEntity
  8
0
 62
    18
420
        0
370
    25
100
AcDbSpline
210
0.0
220
0.0
230
1.0
 70
     8
 71
     3
 72
     8
 73
     4
 74
     0
 42
0.0000000001
 43
0.0000000001
 40
0.0
 40
0.0
 40
0.0
 40
0.0
 40
1.0
 40
1.0
 40
1.0
 40
1.0
 10
108.5424402464172
 20
40.60040314529892
 30
0.0
 10
108.5424402464172
 20
42.4413523114019
 30
0.0
 10
107.0500560791867
 20
43.93373647863238
 30
0.0
 10
105.2091069130844
 20
43.93373647863238
 30
0.0
  0
LINE
  5
198
330
70
100
AcDbEntity
  8
0
 62
    18
420
        0
370
    25
100
AcDbLine
 10
105.2091065157841
 20
43.9337364666987
 30
0.0
 11
105.2091065157841
 21
45.43373647969925
 31
0.0
  0
SPLINE
  5
199
330
70
100
AcDbEntity
  8
0
 62
    18
420
        0
370
    25
100
AcDbSpline
210
0.0
220
0.0
230
1.0
 70
     8
 71
     3
 72
     8
 73
     4
 74
     0
 42
0.0000000001
 43
0.0000000001
 40
0.0
 40
0.0
 40
0.0
 40
0.0
 40
1.0
 40
1.0
 40
1.0
 40
1.0
 10
110.0424402464176
 20
40.60040314529892
 30
0.0
 10
110.0424402464176
 20
43.26977943614736
 30
0.0
 10
107.8784832039328
 20
45.43373647863211
 30
0.0
 10
105.2091069130844
 20
45.43373647863211
 30
0.0
  0
LINE
  5
19A
330
70
100
AcDbEntity
  8
0
 62
    18
420
        0
370
    25
100
AcDbLine
 10
110.042442193584
 20
40.60040320789859
 30
0.0
 11
108.5424416371843
 21
40.60040320789859
 31
0.0
  0
SPLINE
  5
19B
330
70
100
AcDbEntity
  8
0
 62
    18
420
        0
370
    25
100
AcDbSpline
210
0.0
220
0.0
230
1.0
 70
     8
 71
     3
 72
     8
 73
     4
 74
     0
 42
0.0000000001
 43
0.0000000001
 40
0.0
 40
0.0
 40
0.0
 40
0.0
 40
1.0
 40
1.0
 40
1.0
 40
1.0
 10
110.2091069130839
 20
40.60040314529892
 30
0.0
 10
110.2091069130839
 20
43.36182689445306
 30
0.0
 10
107.9705306622378
 20
45.6004031452991
 30
0.0
 10
105.2091069130844
 20
45.6004031452991
 30
0.0
  0
LINE
  5
19C
330
70
100
AcDbEntity
  8
0
 62
    18
420
        0
370
    25
100
AcDbLine
 10
110.2091067144838
 20
40.60040320789859
 30
0.0
 11
110.042442193584
 21
40.60040320789859
 31
0.0
  0
LINE
  5
19D
330
70
100
AcDbEntity
  8
0
 62
    18
420
        0
370
    25
100
AcDbLine
 10
105.2091065157841
 20
45.60040315429893
 30
0.0
 11
105.2091065157841
 21
45.43373647969925
 31
0.0
  0
LINE
  5
19E
330
70
100
AcDbEntity
  8
0
 62
    18
420
        0
370
    25
100
AcDbLine
 10
108.5424416371843
 20
40.60040320789859
 30
0.0
 11
108.5424416371843
 21
4.267070438299151
 31
0.0
  0
LINE
  5
19F
330
70
100
AcDbEntity
  8
0
 62
    18
420
        0
370
    25
100
AcDbLine
 10
110.042442193584
 20
4.267070438299151
 30
0.0
 11
110.042442193584
 21
40.60040320789859
 31
0.0
  0
LINE
  5
1A0
330
70
100
AcDbEntity
  8
0
 62
    18
420
        0
370
    25
100
AcDbLine
 10
110.042442193584
 20
4.267070438299151
 30
0.0
 11
108.5424416371843
 21
4.267070438299151
 31
0.0
  0
LINE
  5
1A1
330
70
100
AcDbEntity
  8
0
 62
    18
420
        0
370
    25
100
AcDbLine
 10
96.87577119558408
 20
45.59881261059854
 30
0.0
 11
96.87577119558408
 21
45.60040315429893
 31
0.0
  0
LINE
  5
1A2
330
70
100
AcDbEntity
  8
0
 62
    18
420
        0
370
    25
100
AcDbLine
 10
96.87577119558408
 20
45.60040315429893
 30
0.0
 11
105.2091065157841
 21
45.60040315429893
 31
0.0
  0
LINE
  5
1A3
330
70
100
AcDbEntity
  8
0
 62
    18
420
        0
370
    25
100
AcDbLine
 10
105.2091065157841
 20
45.43373647969925
 30
0.0
 11
15.20910666478411
 21
45.43373647969925
 31
0.0
  0
LINE
  5
1A4
330
70
100
AcDbEntity
  8
0
 62
    18
420
        0
370
    25
100
AcDbLine
 10
15.20910666478411
 20
45.60040315429893
 30
0.0
 11
15.20910666478411
 21
45.43373647969925
 31
0.0
  0
LINE
  5
1A5
330
70
100
AcDbEntity
  8
0
 62
    18
420
        0
370
    25
100
AcDbLine
 10
15.20910666478411
 20
45.60040315429893
 30
0.0
 11
30.00309575808426
 21
45.60040315429893
 31
0.0
  0
LINE
  5
1A6
330
70
100
AcDbEntity
  8
0
 62
    18
420
        0
370
    25
100
AcDbLine
 10
30.33368903988434
 20
45.60040315429893
 30
0.0
 11
30.6175265134843
 21
45.60040315429893
 31
0.0
  0
LINE
  5
1A7
330
70
100
AcDbEntity
  8
0
 62
    18
420
        0
370
    25
100
AcDbLine
 10
32.38635829798433
 20
45.60040315429893
 30
0.0
 11
33.41786743298412
 21
45.60040315429893
 31
0.0
  0
LINE
  5
1A8
330
70
100
AcDbEntity
  8
0
 62
    18
420
        0
370
    25
100
AcDbLine
 10
33.74845140148423
 20
45.60040315429893
 30
0.0
 11
80.20910552238436
 21
45.60040315429893
 31
0.0
  0
LINE
  5
1A9
330
70
100
AcDbEntity
  8
0
 62
    18
420
        0
370
    25
100
AcDbLine
 10
80.20910552238436
 20
45.59881261059854
 30
0.0
 11
80.20910552238436
 21
45.60040315429893
 31
0.0
  0
LINE
  5
1AA
330
70
100
AcDbEntity
  8
0
 62
    18
420
        0
370
    25
100
AcDbLine
 10
80.20910552238436
 20
45.59881261059854
 30
0.0
 11
86.77179546248405
 21
45.59881261059854
 31
0.0
  0
LINE
  5
1AB
330
70
100
AcDbEntity
  8
0
 62
    18
420
        0
370
    25
100
AcDbLine
 10
88.07724149118437
 20
45.59881261059854
 30
0.0
 11
89.00764019378426
 21
45.59881261059854
 31
0.0
  0
LINE
  5
1AC
330
70
100
AcDbEntity
  8
0
 62
    18
420
        0
370
    25
100
AcDbLine
 10
90.31157623818405
 20
45.59881261059854
 30
0.0
 11
96.87577119558408
 21
45.59881261059854
 31
0.0
  0
LINE
  5
1AD
330
70
100
AcDbEntity
  8
0
 62
    18
420
        0
370
    25
100
AcDbLine
 10
110.2091067144838
 20
40.60040320789859
 30
0.0
 11
110.2091067144838
 21
4.201631988898864
 31
0.0
  0
LWPOLYLINE
  5
1AE
330
70
100
AcDbEntity
  8
0
 62
    18
420
        0
370
    25
100
AcDbPolyline
 90
        6
 70
     0
 43
0.0
 10
110.2091067144838
 20
4.201631988898864
 10
110.1985467581841
 20
4.223650938099082
 10
110.1677559920842
 20
4.243879264398792
 10
110.120971313084
 20
4.25893440429914
 10
110.0670191753839
 20
4.266310479098645
 10
110.042442193584
 20
4.267070438299151
  0
LINE
  5
1AF
330
70
100
AcDbEntity
  8
0
 62
    18
420
        0
370
    25
100
AcDbLine
 10
15.20910666478411
 20
43.9337364666987
 30
0.0
 11
105.2091065157841
 21
43.9337364666987
 31
0.0
  0
LINE
  5
1B0
330
70
100
AcDbEntity
  8
0
 62
    18
420
        0
370
    25
100
AcDbLine
 10
15.20910666478411
 20
45.43373647969925
 30
0.0
 11
15.20910666478411
 21
43.9337364666987
 31
0.0
  0
LINE
  5
1B1
330
70
100
AcDbEntity
  8
0
 62
    18
420
        0
370
    25
100
AcDbLine
 10
108.3757721492843
 20
4.201631988898864
 30
0.0
 11
108.3757721492843
 21
40.60040320789859
 31
0.0
  0
LINE
  5
1B2
330
70
100
AcDbEntity
  8
0
 62
    18
420
        0
370
    25
100
AcDbLine
 10
108.5424416371843
 20
40.60040320789859
 30
0.0
 11
108.3757721492843
 21
40.60040320789859
 31
0.0
  0
LWPOLYLINE
  5
1B3
330
70
100
AcDbEntity
  8
0
 62
    18
420
        0
370
    25
100
AcDbPolyline
 90
        6
 70
     0
 43
0.0
 10
108.5424416371843
 20
4.267070438299151
 10
108.4903372435841
 20
4.263598467698999
 10
108.4441585450838
 20
4.253860558898776
 10
108.407139093584
 20
4.238877441299078
 10
108.3827409256845
 20
4.219548151698958
 10
108.3757721492843
 20
4.201631988898864
  0
SPLINE
  5
1B4
330
70
100
AcDbEntity
  8
0
 62
    18
420
        0
370
    25
100
AcDbSpline
210
0.0
220
0.0
230
1.0
 70
     8
 71
     3
 72
     8
 73
     4
 74
     0
 42
0.0000000001
 43
0.0000000001
 40
0.0
 40
0.0
 40
0.0
 40
0.0
 40
1.0
 40
1.0
 40
1.0
 40
1.0
 10
108.3757735797508
 20
40.60040314529892
 30
0.0
 10
108.3757735797508
 20
42.34930485309685
 30
0.0
 10
106.9580086208816
 20
43.76706981196538
 30
0.0
 10
105.2091069130844
 20
43.76706981196538
 30
0.0
  0
LINE
  5
1B5
330
70
100
AcDbEntity
  8
0
 62
    18
420
        0
370
    25
100
AcDbLine
 10
105.2091065157841
 20
43.9337364666987
 30
0.0
 11
105.2091065157841
 21
43.76706977269853
 31
0.0
  0
LINE
  5
1B6
330
70
100
AcDbEntity
  8
0
 62
    18
420
        0
370
    25
100
AcDbLine
 10
105.2091065157841
 20
43.76706977269853
 30
0.0
 11
15.20910666478411
 21
43.76706977269853
 31
0.0
  0
LINE
  5
1B7
330
70
100
AcDbEntity
  8
0
 62
    18
420
        0
370
    25
100
AcDbLine
 10
15.20910666478411
 20
43.9337364666987
 30
0.0
 11
15.20910666478411
 21
43.76706977269853
 31
0.0
  0
SPLINE
  5
1B8
330
70
100
AcDbEntity
  8
0
 62
    18
420
        0
370
    25
100
AcDbSpline
210
0.0
220
0.0
230
1.0
 70
     8
 71
     3
 72
     8
 73
     4
 74
     0
 42
0.0000000001
 43
0.0000000001
 40
0.0
 40
0.0
 40
0.0
 40
0.0
 40
1.0
 40
1.0
 40
1.0
 40
1.0
 10
15.2091069130841
 20
45.6004031452991
 30
0.0
 10
12.44768316393028
 20
45.6004031452991
 30
0.0
 10
10.20910691308424
 20
43.36182689445306
 30
0.0
 10
10.20910691308424
 20
40.60040314529892
 30
0.0
  0
SPLINE
  5
1B9
330
70
100
AcDbEntity
  8
0
 62
    18
420
        0
370
    25
100
AcDbSpline
210
0.0
220
0.0
230
1.0
 70
     8
 71
     3
 72
     8
 73
     4
 74
     0
 42
0.0000000001
 43
0.0000000001
 40
0.0
 40
0.0
 40
0.0
 40
0.0
 40
1.0
 40
1.0
 40
1.0
 40
1.0
 10
15.2091069130841
 20
45.43373647863211
 30
0.0
 10
12.53973062223533
 20
45.43373647863275
 30
0.0
 10
10.37577357975091
 20
43.26977943614736
 30
0.0
 10
10.37577357975091
 20
40.60040314529892
 30
0.0
  0
LINE
  5
1BA
330
70
100
AcDbEntity
  8
0
 62
    18
420
        0
370
    25
100
AcDbLine
 10
10.20910770788433
 20
40.60040320789859
 30
0.0
 11
10.37577471228426
 21
40.60040320789859
 31
0.0
  0
SPLINE
  5
1BB
330
70
100
AcDbEntity
  8
0
 62
    18
420
        0
370
    25
100
AcDbSpline
210
0.0
220
0.0
230
1.0
 70
     8
 71
     3
 72
     8
 73
     4
 74
     0
 42
0.0000000001
 43
0.0000000001
 40
0.0
 40
0.0
 40
0.0
 40
0.0
 40
1.0
 40
1.0
 40
1.0
 40
1.0
 10
15.2091069130841
 20
43.93373647863238
 30
0.0
 10
13.36815774698145
 20
43.93373647863238
 30
0.0
 10
11.87577357975096
 20
42.4413523114019
 30
0.0
 10
11.87577357975096
 20
40.60040314529892
 30
0.0
  0
LINE
  5
1BC
330
70
100
AcDbEntity
  8
0
 62
    18
420
        0
370
    25
100
AcDbLine
 10
11.87577402678418
 20
40.60040320789859
 30
0.0
 11
10.37577471228426
 21
40.60040320789859
 31
0.0
  0
LINE
  5
1BD
330
70
100
AcDbEntity
  8
0
 62
    18
420
        0
370
    25
100
AcDbLine
 10
11.87577402678418
 20
4.267070438299151
 30
0.0
 11
11.87577402678418
 21
40.60040320789859
 31
0.0
  0
LINE
  5
1BE
330
70
100
AcDbEntity
  8
0
 62
    18
420
        0
370
    25
100
AcDbLine
 10
11.87577402678418
 20
40.60040320789859
 30
0.0
 11
12.04243978948429
 21
40.60040320789859
 31
0.0
  0
LINE
  5
1BF
330
70
100
AcDbEntity
  8
0
 62
    18
420
        0
370
    25
100
AcDbLine
 10
12.04243978948429
 20
40.60040320789859
 30
0.0
 11
12.04243978948429
 21
4.201631988898864
 31
0.0
  0
LWPOLYLINE
  5
1C0
330
70
100
AcDbEntity
  8
0
 62
    18
420
        0
370
    25
100
AcDbPolyline
 90
        6
 70
     0
 43
0.0
 10
12.04243978948429
 20
4.201631988898864
 10
12.03188231678412
 20
4.223650938099082
 10
12.00108782538424
 20
4.243879264398792
 10
11.95430314628415
 20
4.25893440429914
 10
11.90035473398423
 20
4.266310479098645
 10
11.87577402678418
 20
4.267070438299151
  0
LINE
  5
1C1
330
70
100
AcDbEntity
  8
0
 62
    18
420
        0
370
    25
100
AcDbLine
 10
11.87577402678418
 20
4.267070438299151
 30
0.0
 11
10.37577471228426
 21
4.267070438299151
 31
0.0
  0
LINE
  5
1C2
330
70
100
AcDbEntity
  8
0
 62
    18
420
        0
370
    25
100
AcDbLine
 10
10.37577471228426
 20
40.60040320789859
 30
0.0
 11
10.37577471228426
 21
4.267070438299151
 31
0.0
  0
SPLINE
  5
1C3
330
70
100
AcDbEntity
  8
0
 62
    18
420
        0
370
    25
100
AcDbSpline
210
0.0
220
0.0
230
1.0
 70
     8
 71
     3
 72
     8
 73
     4
 74
     0
 42
0.0000000001
 43
0.0000000001
 40
0.0
 40
0.0
 40
0.0
 40
0.0
 40
1.0
 40
1.0
 40
1.0
 40
1.0
 10
15.2091069130841
 20
43.76706981196538
 30
0.0
 10
13.46020520528682
 20
43.76706981196538
 30
0.0
 10
12.04244024641764
 20
42.34930485309685
 30
0.0
 10
12.04244024641764
 20
40.60040314529892
 30
0.0
  0
LINE
  5
1C4
330
70
100
AcDbEntity
  8
0
 62
    18
420
        0
370
    25
100
AcDbLine
 10
10.20910770788433
 20
4.201631988898864
 30
0.0
 11
10.20910770788433
 21
40.60040320789859
 31
0.0
  0
LWPOLYLINE
  5
1C5
330
70
100
AcDbEntity
  8
0
 62
    18
420
        0
370
    25
100
AcDbPolyline
 90
        6
 70
     0
 43
0.0
 10
10.37577471228426
 20
4.267070438299151
 10
10.32367031868406
 20
4.263598467698999
 10
10.2774891365842
 20
4.253860558898776
 10
10.24047465218404
 20
4.238877441299078
 10
10.21607648428417
 20
4.219548151698958
 10
10.20910770788433
 20
4.201631988898864
  0
LINE
  5
1C6
330
70
100
AcDbEntity
  8
0
 62
    18
420
        0
370
    25
100
AcDbLine
 10
108.3757721492843
 20
4.201631988898864
 30
0.0
 11
108.3757721492843
 21
3.933736429399174
 31
0.0
  0
LINE
  5
1C7
330
70
100
AcDbEntity
  8
0
 62
    18
420
        0
370
    25
100
AcDbLine
 10
110.2091067144838
 20
4.201631988898864
 30
0.0
 11
110.2091067144838
 21
3.933736429399174
 31
0.0
  0
LINE
  5
1C8
330
70
100
AcDbEntity
  8
0
 62
    18
420
        0
370
    25
100
AcDbLine
 10
12.04243978948429
 20
3.933736429399174
 30
0.0
 11
12.04243978948429
 21
4.201631988898864
 31
0.0
  0
LINE
  5
1C9
330
70
100
AcDbEntity
  8
0
 62
    18
420
        0
370
    25
100
AcDbLine
 10
10.20910770788433
 20
4.201631988898864
 30
0.0
 11
10.20910770788433
 21
3.933736429399174
 31
0.0
  0
LINE
  5
1CA
330
70
100
AcDbEntity
  8
0
 62
    18
420
        0
370
    25
100
AcDbLine
 10
80.20910552238436
 20
45.60040315429893
 30
0.0
 11
86.84799503378449
 21
45.60040315429893
 31
0.0
  0
LINE
  5
1CB
330
70
100
AcDbEntity
  8
0
 62
    18
420
        0
370
    25
100
AcDbLine
 10
88.07721665588376
 20
45.60040315429893
 30
0.0
 11
89.00766502908423
 21
45.60040315429893
 31
0.0
  0
LINE
  5
1CC
330
70
100
AcDbEntity
  8
0
 62
    18
420
        0
370
    25
100
AcDbLine
 10
90.23688665118411
 20
45.60040315429893
 30
0.0
 11
96.87577119558408
 21
45.60040315429893
 31
0.0
  0
LWPOLYLINE
  5
1CD
330
70
100
AcDbEntity
  8
0
 62
    18
420
        0
370
    25
100
AcDbPolyline
 90
        6
 70
     0
 43
0.0
 10
88.54244084248431
 20
45.77182174709899
 10
87.87577282478446
 20
45.77183761839854
 10
85.20910572098463
 20
45.77219245229938
 10
82.87570805438416
 20
45.77280766849901
 10
80.54231535488463
 20
45.77360041799938
 10
80.5353018749842
 20
45.77360294029884
  0
LWPOLYLINE
  5
1CE
330
70
100
AcDbEntity
  8
0
 62
    18
420
        0
370
    25
100
AcDbPolyline
 90
        7
 70
     0
 43
0.0
 10
80.5353018749842
 20
45.77360294029884
 10
80.53580354738427
 20
45.79705655309914
 10
80.53705524498385
 20
45.85539731559891
 10
80.53891292308408
 20
45.94205451399889
 10
80.54116796548445
 20
46.04727689069895
 10
80.54222098088454
 20
46.09636147089879
 10
80.54243953118422
 20
46.10663271709882
  0
LWPOLYLINE
  5
1CF
330
70
100
AcDbEntity
  8
0
 62
    18
420
        0
370
    25
100
AcDbPolyline
 90
        4
 70
     0
 43
0.0
 10
80.54243953118422
 20
46.10663271709882
 10
84.33881333558423
 20
46.10536666169886
 10
86.440627089084
 20
46.10492366259933
 10
88.54244084248431
 20
46.10476238859892
  0
LINE
  5
1D0
330
70
100
AcDbEntity
  8
0
 62
    18
420
        0
370
    25
100
AcDbLine
 10
88.54244084248431
 20
45.77182174709899
 30
0.0
 11
88.54244084248431
 21
46.10476238859892
 31
0.0
  0
LWPOLYLINE
  5
1D1
330
70
100
AcDbEntity
  8
0
 62
    18
420
        0
370
    25
100
AcDbPolyline
 90
        3
 70
     0
 43
0.0
 10
80.5300169297841
 20
45.77360294029884
 10
80.5316759257843
 20
45.77345982709931
 10
80.53249052258427
 20
45.77342137119885
  0
LINE
  5
1D2
330
70
100
AcDbEntity
  8
0
 62
    18
420
        0
370
    25
100
AcDbLine
 10
80.53249052258427
 20
45.77342137119885
 30
0.0
 11
80.52827846098457
 21
45.77360041799938
 31
0.0
  0
LWPOLYLINE
  5
1D3
330
70
100
AcDbEntity
  8
0
 62
    18
420
        0
370
    25
100
AcDbPolyline
 90
        9
 70
     0
 43
0.0
 10
80.52827846098457
 20
45.77360041799938
 10
80.52855164898449
 20
45.7800211498988
 10
80.52935631168399
 20
45.79898734009862
 10
80.53066761388384
 20
45.82977042269888
 10
80.53242595088432
 20
45.87118808389909
 10
80.53457171808448
 20
45.92164935279866
 10
80.53702047558406
 20
45.97921599219908
 10
80.53967784928413
 20
46.04167684809875
 10
80.54243953118422
 20
46.10663271709882
  0
LWPOLYLINE
  5
1D4
330
70
100
AcDbEntity
  8
0
 62
    18
420
        0
370
    25
100
AcDbPolyline
 90
        3
 70
     0
 43
0.0
 10
80.5353018749842
 20
45.77360294029884
 10
80.53623568108424
 20
45.7733847003986
 10
80.53705524498385
 20
45.77330383059929
  0
LINE
  5
1D5
330
70
100
AcDbEntity
  8
0
 62
    18
420
        0
370
    25
100
AcDbLine
 10
80.53705524498385
 20
45.77330383059929
 30
0.0
 11
80.5300169297841
 21
45.77360294029884
 31
0.0
  0
LINE
  5
1D6
330
70
100
AcDbEntity
  8
0
 62
    18
420
        0
370
    25
100
AcDbLine
 10
96.54244215378376
 20
47.60040311349913
 30
0.0
 11
80.54243953118422
 21
47.60040311349913
 31
0.0
  0
LINE
  5
1D7
330
70
100
AcDbEntity
  8
0
 62
    18
420
        0
370
    25
100
AcDbLine
 10
96.54244215378376
 20
46.10663271709882
 30
0.0
 11
96.54244215378376
 21
47.60040311349913
 31
0.0
  0
LWPOLYLINE
  5
1D8
330
70
100
AcDbEntity
  8
0
 62
    18
420
        0
370
    25
100
AcDbPolyline
 90
        4
 70
     0
 43
0.0
 10
88.54244084248431
 20
46.10476238859892
 10
92.33882458098413
 20
46.10526219839888
 10
94.44063336738427
 20
46.105877259299
 10
96.54244215378376
 20
46.10663271709882
  0
LINE
  5
1D9
330
70
100
AcDbEntity
  8
0
 62
    18
420
        0
370
    25
100
AcDbLine
 10
80.54243953118422
 20
47.60040311349913
 30
0.0
 11
80.54243953118422
 21
46.10663271709882
 31
0.0
  0
LINE
  5
1DA
330
70
100
AcDbEntity
  8
0
 62
    18
420
        0
370
    25
100
AcDbLine
 10
96.54244215378376
 20
47.60040311349913
 30
0.0
 11
96.87577119558408
 21
47.60040311349913
 31
0.0
  0
LINE
  5
1DB
330
70
100
AcDbEntity
  8
0
 62
    18
420
        0
370
    25
100
AcDbLine
 10
96.87577119558408
 20
47.60040311349913
 30
0.0
 11
96.87577119558408
 21
46.10663271709882
 31
0.0
  0
LINE
  5
1DC
330
70
100
AcDbEntity
  8
0
 62
    18
420
        0
370
    25
100
AcDbLine
 10
96.54244215378376
 20
46.10663271709882
 30
0.0
 11
96.87577119558408
 21
46.10663271709882
 31
0.0
  0
LINE
  5
1DD
330
70
100
AcDbEntity
  8
0
 62
    18
420
        0
370
    25
100
AcDbLine
 10
80.20910552238436
 20
46.10663271709882
 30
0.0
 11
80.54243953118422
 21
46.10663271709882
 31
0.0
  0
LINE
  5
1DE
330
70
100
AcDbEntity
  8
0
 62
    18
420
        0
370
    25
100
AcDbLine
 10
80.20910552238436
 20
46.10663271709882
 30
0.0
 11
80.20910552238436
 21
47.60040311349913
 31
0.0
  0
LINE
  5
1DF
330
70
100
AcDbEntity
  8
0
 62
    18
420
        0
370
    25
100
AcDbLine
 10
80.20910552238436
 20
47.60040311349913
 30
0.0
 11
80.54243953118422
 21
47.60040311349913
 31
0.0
  0
SPLINE
  5
1E0
330
70
100
AcDbEntity
  8
0
 62
    18
420
        0
370
    25
100
AcDbSpline
210
0.0
220
0.0
230
1.0
 70
     8
 71
     3
 72
     8
 73
     4
 74
     0
 42
0.0000000001
 43
0.0000000001
 40
0.0
 40
0.0
 40
0.0
 40
0.0
 40
1.0
 40
1.0
 40
1.0
 40
1.0
 10
96.54256633010067
 20
45.77360041796473
 30
0.0
 10
96.72652981868392
 20
45.77358374471271
 30
0.0
 10
96.87569256971325
 20
45.92266924457217
 30
0.0
 10
96.87577119555648
 20
46.1066327171078
 30
0.0
  0
LWPOLYLINE
  5
1E1
330
70
100
AcDbEntity
  8
0
 62
    18
420
        0
370
    25
100
AcDbPolyline
 90
        9
 70
     0
 43
0.0
 10
96.54256633018411
 20
45.77360041799938
 10
96.54256136308445
 20
45.78234817569874
 10
96.54255639608427
 20
45.80289482029908
 10
96.54254149488414
 20
45.83449269379915
 10
96.54252659368465
 20
45.87599215609906
 10
96.54250672548434
 20
45.92588333929928
 10
96.54248685728402
 20
45.98235090159906
 10
96.54246202198407
 20
46.04334034539889
 10
96.54244215378376
 20
46.10663271709882
  0
LWPOLYLINE
  5
1E2
330
70
100
AcDbEntity
  8
0
 62
    18
420
        0
370
    25
100
AcDbPolyline
 90
        5
 70
     0
 43
0.0
 10
96.54256633018411
 20
45.77360041799938
 10
95.87589831248426
 20
45.77336161139851
 10
93.20923617568395
 20
45.77251628089919
 10
90.87583850908414
 20
45.7720087876991
 10
88.54244084248431
 20
45.77182174709899
  0
SPLINE
  5
1E3
330
70
100
AcDbEntity
  8
0
 62
    18
420
        0
370
    25
100
AcDbSpline
210
0.0
220
0.0
230
1.0
 70
     8
 71
     3
 72
     8
 73
     4
 74
     0
 42
0.0000000001
 43
0.0000000001
 40
0.0
 40
0.0
 40
0.0
 40
0.0
 40
1.0
 40
1.0
 40
1.0
 40
1.0
 10
80.20910552230992
 20
46.10663271716813
 30
0.0
 10
80.20910601785045
 20
45.92804563510159
 30
0.0
 10
80.34985261360025
 20
45.78118743786445
 30
0.0
 10
80.5282784609743
 20
45.77360041802441
 30
0.0
  0
SPLINE
  5
1E4
330
70
100
AcDbEntity
  8
0
 62
    18
420
        0
370
    25
100
AcDbSpline
210
0.0
220
0.0
230
1.0
 70
     8
 71
     3
 72
     8
 73
     4
 74
     0
 42
0.0000000001
 43
0.0000000001
 40
0.0
 40
0.0
 40
0.0
 40
0.0
 40
1.0
 40
1.0
 40
1.0
 40
1.0
 10
89.0424393723021
 20
45.60717018290179
 30
0.0
 10
89.1144579560844
 20
45.60013536417957
 30
0.0
 10
89.18683413210635
 20
45.59743360691433
 30
0.0
 10
89.2591767618672
 20
45.59907951206033
 30
0.0
  0
SPLINE
  5
1E5
330
70
100
AcDbEntity
  8
0
 62
    18
420
        0
370
    25
100
AcDbSpline
210
0.0
220
0.0
230
1.0
 70
     8
 71
     3
 72
     8
 73
     4
 74
     0
 42
0.0000000001
 43
0.0000000001
 40
0.0
 40
0.0
 40
0.0
 40
0.0
 40
1.0
 40
1.0
 40
1.0
 40
1.0
 10
89.04243937223728
 20
45.60717018298522
 30
0.0
 10
88.70947350347734
 20
45.62927548644719
 30
0.0
 10
88.37540818149127
 20
45.62927548644719
 30
0.0
 10
88.0424423127307
 20
45.60717018298522
 30
0.0
  0
SPLINE
  5
1E6
330
70
100
AcDbEntity
  8
0
 62
    18
420
        0
370
    25
100
AcDbSpline
210
0.0
220
0.0
230
1.0
 70
     8
 71
     3
 72
     8
 73
     4
 74
     0
 42
0.0000000001
 43
0.0000000001
 40
0.0
 40
0.0
 40
0.0
 40
0.0
 40
1.0
 40
1.0
 40
1.0
 40
1.0
 10
87.82570492320088
 20
45.59907951206033
 30
0.0
 10
87.89804755296172
 20
45.59743360691433
 30
0.0
 10
87.97042372898433
 20
45.60013536418021
 30
0.0
 10
88.04244231276662
 20
45.60717018290179
 30
0.0
  0
SPLINE
  5
1E7
330
70
100
AcDbEntity
  8
0
 62
    18
420
        0
370
    25
100
AcDbSpline
210
0.0
220
0.0
230
1.0
 70
     8
 71
     3
 72
     8
 73
     4
 74
     0
 42
0.0000000001
 43
0.0000000001
 40
0.0
 40
0.0
 40
0.0
 40
0.0
 40
1.0
 40
1.0
 40
1.0
 40
1.0
 10
80.53249052267219
 20
45.77342137121362
 30
0.0
 10
82.53163779941241
 20
45.6780968899581
 30
0.0
 10
84.53238208783925
 20
45.61988394551034
 30
0.0
 10
86.53368980772285
 20
45.5988126105517
 30
0.0
  0
SPLINE
  5
1E8
330
70
100
AcDbEntity
  8
0
 62
    18
420
        0
370
    25
100
AcDbSpline
210
0.0
220
0.0
230
1.0
 70
     8
 71
     3
 72
     8
 73
     4
 74
     0
 42
0.0000000001
 43
0.0000000001
 40
0.0
 40
0.0
 40
0.0
 40
0.0
 40
1.0
 40
1.0
 40
1.0
 40
1.0
 10
90.54906597830497
 20
45.59881261052602
 30
0.0
 10
92.55248661473965
 20
45.61985593932837
 30
0.0
 10
94.55534318075857
 20
45.67812944389067
 30
0.0
 10
96.55659825687029
 20
45.77360294028922
 30
0.0
  0
LINE
  5
1E9
330
70
100
AcDbEntity
  8
0
 62
    18
420
        0
370
    25
100
AcDbLine
 10
90.18127551768408
 20
45.59881261059854
 30
0.0
 11
90.54906597828443
 21
45.59881261059854
 31
0.0
  0
LINE
  5
1EA
330
70
100
AcDbEntity
  8
0
 62
    18
420
        0
370
    25
100
AcDbLine
 10
86.53368980778445
 20
45.59881261059854
 30
0.0
 11
86.90360120028435
 21
45.59881261059854
 31
0.0
  0
LINE
  5
1EB
330
70
100
AcDbEntity
  8
0
 62
    18
420
        0
370
    25
100
AcDbLine
 10
88.54244084248431
 20
45.7713829777991
 30
0.0
 11
88.54244084248431
 21
45.77182174709899
 31
0.0
  0
LWPOLYLINE
  5
1EC
330
70
100
AcDbEntity
  8
0
 62
    18
420
        0
370
    25
100
AcDbPolyline
 90
        4
 70
     0
 43
0.0
 10
88.54244084248431
 20
45.7713829777991
 10
86.45910452898394
 20
45.77154615319932
 10
84.37577318238428
 20
45.77199435219921
 10
80.53705524498385
 20
45.77330383059929
  0
LINE
  5
1ED
330
70
100
AcDbEntity
  8
0
 62
    18
420
        0
370
    25
100
AcDbLine
 10
96.54257129718429
 20
45.77330181269902
 30
0.0
 11
96.54256633018411
 21
45.77360041799938
 31
0.0
  0
LWPOLYLINE
  5
1EE
330
70
100
AcDbEntity
  8
0
 62
    18
420
        0
370
    25
100
AcDbPolyline
 90
        4
 70
     0
 43
0.0
 10
96.54257129718429
 20
45.77330181269902
 10
94.46624349648406
 20
45.77253711929904
 10
92.38291214998385
 20
45.77190836009893
 10
88.54244084248431
 20
45.7713829777991
  0
SPLINE
  5
1EF
330
70
100
AcDbEntity
  8
0
 62
    18
420
        0
370
    25
100
AcDbSpline
210
0.0
220
0.0
230
1.0
 70
     8
 71
     3
 72
     8
 73
     4
 74
     0
 42
0.0000000001
 43
0.0000000001
 40
0.0
 40
0.0
 40
0.0
 40
0.0
 40
1.0
 40
1.0
 40
1.0
 40
1.0
 10
96.55659825696845
 20
45.77360294038098
 30
0.0
 10
96.73503569400855
 20
45.78116212035975
 30
0.0
 10
96.87579765570836
 20
45.92803523837718
 30
0.0
 10
96.8757711956335
 20
46.10663271719251
 30
0.0
  0
LINE
  5
1F0
330
70
100
AcDbEntity
  8
0
 62
    18
420
        0
370
    25
100
AcDbLine
 10
96.5565982569845
 20
45.77360294029884
 30
0.0
 11
96.54257129718429
 21
45.77330181269902
 31
0.0
  0
LINE
  5
1F1
330
70
100
AcDbEntity
  8
0
 62
    18
420
        0
370
    25
100
AcDbLine
 10
86.90360120028435
 20
45.59881261059854
 30
0.0
 11
88.54244084248431
 21
45.59881261059854
 31
0.0
  0
LINE
  5
1F2
330
70
100
AcDbEntity
  8
0
 62
    18
420
        0
370
    25
100
AcDbLine
 10
88.54244084248431
 20
45.59881261059854
 30
0.0
 11
90.18127551768408
 21
45.59881261059854
 31
0.0
  0
LINE
  5
1F3
330
70
100
AcDbEntity
  8
0
 62
    18
420
        0
370
    25
100
AcDbLine
 10
88.0424423127846
 20
45.60040315429893
 30
0.0
 11
88.0424423127846
 21
45.60717018289923
 31
0.0
  0
LINE
  5
1F4
330
70
100
AcDbEntity
  8
0
 62
    18
420
        0
370
    25
100
AcDbLine
 10
89.04243937228413
 20
45.60040315429893
 30
0.0
 11
89.04243937228413
 21
45.60717018289923
 31
0.0
  0
LWPOLYLINE
  5
1F5
330
70
100
AcDbEntity
  8
0
 62
    18
420
        0
370
    25
100
AcDbPolyline
 90
        4
 70
     0
 43
0.0
 10
23.87577351028426
 20
46.10663271709882
 10
29.17782800738405
 20
46.10502168429911
 10
34.47988234928411
 20
46.10500818009897
 10
39.87577364928422
 20
46.10663271709882
  0
LWPOLYLINE
  5
1F6
330
70
100
AcDbEntity
  8
0
 62
    18
420
        0
370
    25
100
AcDbPolyline
 90
        9
 70
     0
 43
0.0
 10
39.87577364928422
 20
46.10663271709882
 10
39.87579786368421
 20
46.04334034539889
 10
39.87582083638405
 20
45.98235090159906
 10
39.87584256718417
 20
45.92588333929928
 10
39.87586119368432
 20
45.87599219489876
 10
39.87587733658428
 20
45.83449269379915
 10
39.87588913328424
 20
45.80289482029908
 10
39.87589720478427
 20
45.78234817569874
 10
39.87590030918434
 20
45.77360041799938
  0
LWPOLYLINE
  5
1F7
330
70
100
AcDbEntity
  8
0
 62
    18
420
        0
370
    25
100
AcDbPolyline
 90
        7
 70
     0
 43
0.0
 10
39.87590030918434
 20
45.77360041799938
 10
39.20923353328411
 20
45.77336188299891
 10
36.54256736078433
 20
45.7725189584988
 10
31.20923408458415
 20
45.77183571689927
 10
29.1777659191842
 20
45.77206730579896
 10
23.87564685038414
 20
45.77360041799938
 10
23.86863585408423
 20
45.77360294029884
  0
LWPOLYLINE
  5
1F8
330
70
100
AcDbEntity
  8
0
 62
    18
420
        0
370
    25
100
AcDbPolyline
 90
        7
 70
     0
 43
0.0
 10
23.87577351028426
 20
46.10663271709882
 10
23.87555309728434
 20
46.09636147089879
 10
23.87450070278422
 20
46.04727689069895
 10
23.8722450394842
 20
45.94205451399889
 10
23.87038798228426
 20
45.85539731559891
 10
23.86913814738428
 20
45.79705655309914
 10
23.86863585408423
 20
45.77360294029884
  0
LWPOLYLINE
  5
1F9
330
70
100
AcDbEntity
  8
0
 62
    18
420
        0
370
    25
100
AcDbPolyline
 90
        9
 70
     0
 43
0.0
 10
23.87577351028426
 20
46.10663271709882
 10
23.87301120748419
 20
46.04167684809875
 10
23.87035507548427
 20
45.97921599219908
 10
23.86790693888435
 20
45.92164935279866
 10
23.86576055078422
 20
45.87118808389909
 10
23.86399910938432
 20
45.82977042269888
 10
23.86269029068422
 20
45.79898734009862
 10
23.86188376538428
 20
45.7800211498988
 10
23.86161057738405
 20
45.77360041799938
  0
SPLINE
  5
1FA
330
70
100
AcDbEntity
  8
0
 62
    18
420
        0
370
    25
100
AcDbSpline
210
0.0
220
0.0
230
1.0
 70
     8
 71
     3
 72
     8
 73
     4
 74
     0
 42
0.0000000001
 43
0.0000000001
 40
0.0
 40
0.0
 40
0.0
 40
0.0
 40
1.0
 40
1.0
 40
1.0
 40
1.0
 10
23.86863585408262
 20
45.77360294034761
 30
0.0
 10
23.87094871787225
 20
45.77319682840871
 30
0.0
 10
23.87329302830362
 20
45.77299653458082
 30
0.0
 10
23.8756412624888
 20
45.77300441037258
 30
0.0
  0
LINE
  5
1FB
330
70
100
AcDbEntity
  8
0
 62
    18
420
        0
370
    25
100
AcDbLine
 10
23.87564126248431
 20
45.7730044103989
 30
0.0
 11
23.86161057738405
 21
45.77360041799938
 31
0.0
  0
LINE
  5
1FC
330
70
100
AcDbEntity
  8
0
 62
    18
420
        0
370
    25
100
AcDbLine
 10
39.87577364928422
 20
47.60040311349913
 30
0.0
 11
23.87577351028426
 21
47.60040311349913
 31
0.0
  0
LINE
  5
1FD
330
70
100
AcDbEntity
  8
0
 62
    18
420
        0
370
    25
100
AcDbLine
 10
39.87577364928422
 20
46.10663271709882
 30
0.0
 11
39.87577364928422
 21
47.60040311349913
 31
0.0
  0
LINE
  5
1FE
330
70
100
AcDbEntity
  8
0
 62
    18
420
        0
370
    25
100
AcDbLine
 10
23.87577351028426
 20
47.60040311349913
 30
0.0
 11
23.87577351028426
 21
46.10663271709882
 31
0.0
  0
LINE
  5
1FF
330
70
100
AcDbEntity
  8
0
 62
    18
420
        0
370
    25
100
AcDbLine
 10
40.20910703728422
 20
47.60040311349913
 30
0.0
 11
40.20910703728422
 21
46.10663271709882
 31
0.0
  0
LINE
  5
200
330
70
100
AcDbEntity
  8
0
 62
    18
420
        0
370
    25
100
AcDbLine
 10
39.87577364928422
 20
46.10663271709882
 30
0.0
 11
40.20910703728422
 21
46.10663271709882
 31
0.0
  0
LINE
  5
201
330
70
100
AcDbEntity
  8
0
 62
    18
420
        0
370
    25
100
AcDbLine
 10
39.87577364928422
 20
47.60040311349913
 30
0.0
 11
40.20910703728422
 21
47.60040311349913
 31
0.0
  0
SPLINE
  5
202
330
70
100
AcDbEntity
  8
0
 62
    18
420
        0
370
    25
100
AcDbSpline
210
0.0
220
0.0
230
1.0
 70
     8
 71
     3
 72
     8
 73
     4
 74
     0
 42
0.0000000001
 43
0.0000000001
 40
0.0
 40
0.0
 40
0.0
 40
0.0
 40
1.0
 40
1.0
 40
1.0
 40
1.0
 10
39.87590030917246
 20
45.77360041798526
 30
0.0
 10
40.05986254506036
 20
45.77358749873551
 30
0.0
 10
40.20902362971601
 20
45.92267049969571
 30
0.0
 10
40.20910703727332
 20
46.10663271712962
 30
0.0
  0
LINE
  5
203
330
70
100
AcDbEntity
  8
0
 62
    18
420
        0
370
    25
100
AcDbLine
 10
23.54244012228425
 20
46.10663271709882
 30
0.0
 11
23.87577351028426
 21
46.10663271709882
 31
0.0
  0
LINE
  5
204
330
70
100
AcDbEntity
  8
0
 62
    18
420
        0
370
    25
100
AcDbLine
 10
23.54244012228425
 20
46.10663271709882
 30
0.0
 11
23.54244012228425
 21
47.60040311349913
 31
0.0
  0
LINE
  5
205
330
70
100
AcDbEntity
  8
0
 62
    18
420
        0
370
    25
100
AcDbLine
 10
23.54244012228425
 20
47.60040311349913
 30
0.0
 11
23.87577351028426
 21
47.60040311349913
 31
0.0
  0
SPLINE
  5
206
330
70
100
AcDbEntity
  8
0
 62
    18
420
        0
370
    25
100
AcDbSpline
210
0.0
220
0.0
230
1.0
 70
     8
 71
     3
 72
     8
 73
     4
 74
     0
 42
0.0000000001
 43
0.0000000001
 40
0.0
 40
0.0
 40
0.0
 40
0.0
 40
1.0
 40
1.0
 40
1.0
 40
1.0
 10
23.5424401222926
 20
46.10663271717839
 30
0.0
 10
23.54244026042184
 20
45.92804643571868
 30
0.0
 10
23.68318557374253
 20
45.78118843387697
 30
0.0
 10
23.86161057743057
 20
45.77360041803531
 30
0.0
  0
SPLINE
  5
207
330
70
100
AcDbEntity
  8
0
 62
    18
420
        0
370
    25
100
AcDbSpline
210
0.0
220
0.0
230
1.0
 70
     8
 71
     3
 72
     8
 73
     4
 74
     0
 42
0.0000000001
 43
0.0000000001
 40
0.0
 40
0.0
 40
0.0
 40
0.0
 40
1.0
 40
1.0
 40
1.0
 40
1.0
 10
23.87564126232709
 20
45.77300441040338
 30
0.0
 10
26.05732173450092
 20
45.67167134812396
 30
0.0
 10
28.24080362169313
 20
45.61378844220103
 30
0.0
 10
30.42478868577961
 20
45.59939010821504
 30
0.0
  0
LINE
  5
208
330
70
100
AcDbEntity
  8
0
 62
    18
420
        0
370
    25
100
AcDbLine
 10
39.87590589718428
 20
45.7730044103989
 30
0.0
 11
39.87590030918434
 21
45.77360041799938
 31
0.0
  0
SPLINE
  5
209
330
70
100
AcDbEntity
  8
0
 62
    18
420
        0
370
    25
100
AcDbSpline
210
0.0
220
0.0
230
1.0
 70
     8
 71
     3
 72
     8
 73
     4
 74
     0
 42
0.0000000001
 43
0.0000000001
 40
0.0
 40
0.0
 40
0.0
 40
0.0
 40
1.0
 40
1.0
 40
1.0
 40
1.0
 10
33.32677725541175
 20
45.59939014696212
 30
0.0
 10
35.51075605648256
 20
45.61378876297804
 30
0.0
 10
37.69423167848245
 20
45.67167165587319
 30
0.0
 10
39.87590589718268
 20
45.77300441034435
 30
0.0
  0
LWPOLYLINE
  5
20A
330
70
100
AcDbEntity
  8
0
 62
    18
420
        0
370
    25
100
AcDbPolyline
 90
        4
 70
     0
 43
0.0
 10
39.88993347778405
 20
45.77360294029884
 10
39.88480747828431
 20
45.7733847003986
 10
39.87888675028404
 20
45.77313196269896
 10
39.87590589718428
 20
45.7730044103989
  0
SPLINE
  5
20B
330
70
100
AcDbEntity
  8
0
 62
    18
420
        0
370
    25
100
AcDbSpline
210
0.0
220
0.0
230
1.0
 70
     8
 71
     3
 72
     8
 73
     4
 74
     0
 42
0.0000000001
 43
0.0000000001
 40
0.0
 40
0.0
 40
0.0
 40
0.0
 40
1.0
 40
1.0
 40
1.0
 40
1.0
 10
39.88993347776929
 20
45.77360294030525
 30
0.0
 10
40.06835904768069
 20
45.78118859179589
 30
0.0
 10
40.20910619864358
 20
45.9280459703919
 30
0.0
 10
40.20910703731567
 20
46.10663271711743
 30
0.0
  0
LWPOLYLINE
  5
20C
330
70
100
AcDbEntity
  8
0
 62
     8
420
  8421504
370
    25
100
AcDbPolyline
 90
        5
 70
     0
 43
0.0
 10
96.55850063848426
 20
45.77191941959898
 10
96.55859997958401
 20
45.77183571689927
 10
96.55833175868373
 20
45.77206730579896
 10
96.55660322398405
 20
45.77360041799938
 10
96.5565982569845
 20
45.77360294029884
  0
LINE
  5
20D
330
70
100
AcDbEntity
  8
0
 62
     8
420
  8421504
370
    25
100
AcDbLine
 10
90.06666571988462
 20
45.59869427439869
 30
0.0
 11
90.18127551768408
 21
45.59881261059854
 31
0.0
  0
LINE
  5
20E
330
70
100
AcDbEntity
  8
0
 62
     8
420
  8421504
370
    25
100
AcDbLine
 10
87.01821596518412
 20
45.59869427439869
 30
0.0
 11
86.90360120028435
 21
45.59881261059854
 31
0.0
  0
LINE
  5
20F
330
70
100
AcDbEntity
  8
0
 62
     8
420
  8421504
370
    25
100
AcDbLine
 10
80.52637607939498
 20
45.77191941952519
 30
0.0
 11
80.52764760295824
 21
45.77303639627317
 31
0.0
  0
LINE
  5
210
330
70
100
AcDbEntity
  8
0
 62
     8
420
  8421504
370
    25
100
AcDbLine
 10
88.54244084248431
 20
45.59881259119869
 30
0.0
 11
88.54244084248431
 21
45.59843499809899
 31
0.0
  0
LINE
  5
211
330
70
100
AcDbEntity
  8
0
 62
     8
420
  8421504
370
    25
100
AcDbLine
 10
107.7924413590843
 20
38.93373657839908
 30
0.0
 11
107.7924413590843
 21
39.93373674239878
 31
0.0
  0
LINE
  5
212
330
70
100
AcDbEntity
  8
0
 62
     8
420
  8421504
370
    25
100
AcDbLine
 10
12.62577306318407
 20
38.93373657839908
 30
0.0
 11
12.62577306318407
 21
39.93373674239878
 31
0.0
  0
LINE
  5
213
330
70
100
AcDbEntity
  8
0
 62
     8
420
  8421504
370
    25
100
AcDbLine
 10
107.7924413590843
 20
32.26707006079886
 30
0.0
 11
107.7924413590843
 21
33.26706960379881
 31
0.0
  0
LINE
  5
214
330
70
100
AcDbEntity
  8
0
 62
     8
420
  8421504
370
    25
100
AcDbLine
 10
12.62577306318407
 20
32.26707006079886
 30
0.0
 11
12.62577306318407
 21
33.26706960379881
 31
0.0
  0
LINE
  5
215
330
70
100
AcDbEntity
  8
0
 62
     8
420
  8421504
370
    25
100
AcDbLine
 10
107.7924413590843
 20
25.60040354309919
 30
0.0
 11
107.7924413590843
 21
26.60040308619859
 31
0.0
  0
LINE
  5
216
330
70
100
AcDbEntity
  8
0
 62
     8
420
  8421504
370
    25
100
AcDbLine
 10
12.62577306318407
 20
25.60040354309919
 30
0.0
 11
12.62577306318407
 21
26.60040308619859
 31
0.0
  0
LINE
  5
217
330
70
100
AcDbEntity
  8
0
 62
     8
420
  8421504
370
    25
100
AcDbLine
 10
107.7924413590843
 20
18.93373702549897
 30
0.0
 11
107.7924413590843
 21
19.93373656849891
 31
0.0
  0
LINE
  5
218
330
70
100
AcDbEntity
  8
0
 62
     8
420
  8421504
370
    25
100
AcDbLine
 10
12.62577306318407
 20
18.93373702549897
 30
0.0
 11
12.62577306318407
 21
19.93373656849891
 31
0.0
  0
LINE
  5
219
330
70
100
AcDbEntity
  8
0
 62
     8
420
  8421504
370
    25
100
AcDbLine
 10
107.7924413590843
 20
13.26706880909876
 30
0.0
 11
107.7924413590843
 21
12.26706926609881
 31
0.0
  0
LINE
  5
21A
330
70
100
AcDbEntity
  8
0
 62
     8
420
  8421504
370
    25
100
AcDbLine
 10
12.62577306318407
 20
13.26706880909876
 30
0.0
 11
12.62577306318407
 21
12.26706926609881
 31
0.0
  0
LINE
  5
21B
330
70
100
AcDbEntity
  8
0
 62
     8
420
  8421504
370
    25
100
AcDbLine
 10
107.7924413590843
 20
6.60040353319902
 30
0.0
 11
107.7924413590843
 21
5.600403990199073
 31
0.0
  0
LINE
  5
21C
330
70
100
AcDbEntity
  8
0
 62
     8
420
  8421504
370
    25
100
AcDbLine
 10
12.62577306318407
 20
6.60040353319902
 30
0.0
 11
12.62577306318407
 21
5.600403990199073
 31
0.0
  0
LINE
  5
21D
330
70
100
AcDbEntity
  8
0
 62
     8
420
  8421504
370
    25
100
AcDbLine
 10
23.85971192116476
 20
45.77191941960411
 30
0.0
 11
23.86098391719401
 21
45.77303309312159
 31
0.0
  0
LWPOLYLINE
  5
21E
330
70
100
AcDbEntity
  8
0
 62
     8
420
  8421504
370
    25
100
AcDbPolyline
 90
        5
 70
     0
 43
0.0
 10
39.89183523848426
 20
45.77191941959898
 10
39.89193147508415
 20
45.77183571689927
 10
39.89166387508419
 20
45.77206730579896
 10
39.88993658218411
 20
45.77360041799938
 10
39.88993347778405
 20
45.77360294029884
  0
LINE
  5
21F
330
70
100
AcDbEntity
  8
0
 62
    18
420
        0
370
    25
100
AcDbLine
 10
120.3700165161843
 20
-55.541677495901
 30
0.0
 11
94.66400011378409
 21
-40.70191010000129
 31
0.0
  0
LINE
  5
220
330
70
100
AcDbEntity
  8
0
 62
    18
420
        0
370
    25
100
AcDbLine
 10
93.43668651928394
 20
-44.05252168680117
 30
0.0
 11
119.1427029217842
 21
-58.89228908260077
 31
0.0
  0
LWPOLYLINE
  5
221
330
70
100
AcDbEntity
  8
0
 62
    18
420
        0
370
    25
100
AcDbPolyline
 90
        3
 70
     0
 43
0.0
 10
93.43668686228427
 20
-37.3682436752008
 10
93.17856444288407
 20
-37.52898349230127
 10
93.0342285814839
 20
-37.641405506601
  0
LINE
  5
222
330
70
100
AcDbEntity
  8
0
 62
    18
420
        0
370
    25
100
AcDbLine
 10
91.93769615038378
 20
-39.48557144860112
 30
0.0
 11
91.93769615038378
 21
-41.93519377880129
 31
0.0
  0
SPLINE
  5
223
330
70
100
AcDbEntity
  8
0
 62
    18
420
        0
370
    25
100
AcDbSpline
210
0.0
220
0.0
230
1.0
 70
     8
 71
     3
 72
     8
 73
     4
 74
     0
 42
0.0000000001
 43
0.0000000001
 40
0.0
 40
0.0
 40
0.0
 40
0.0
 40
1.0
 40
1.0
 40
1.0
 40
1.0
 10
93.7752871660178
 20
-39.44275846059812
 30
0.0
 10
93.7618679886733
 20
-39.9071979430045
 30
0.0
 10
94.01780197495234
 20
-40.33763486421832
 30
0.0
 10
94.43225500869086
 20
-40.54766531430598
 30
0.0
  0
LWPOLYLINE
  5
224
330
70
100
AcDbEntity
  8
0
 62
    18
420
        0
370
    25
100
AcDbPolyline
 90
        3
 70
     0
 43
0.0
 10
94.66400011378409
 20
-40.70191010000129
 10
94.4712601608845
 20
-40.58004840310131
 10
94.43225500868445
 20
-40.54766531430085
  0
LWPOLYLINE
  5
225
330
70
100
AcDbEntity
  8
0
 62
    18
420
        0
370
    25
100
AcDbPolyline
 90
        3
 70
     0
 43
0.0
 10
93.03883848908412
 20
-43.78528698960082
 10
93.13323338078431
 20
-43.86088840550073
 10
93.43668651928394
 20
-44.05252168680117
  0
LINE
  5
226
330
70
100
AcDbEntity
  8
0
 62
    18
420
        0
370
    25
100
AcDbLine
 10
157.0762970636843
 20
-0.6298787040013085
 30
0.0
 11
93.43668686228427
 21
-37.3682436752008
 31
0.0
  0
LINE
  5
227
330
70
100
AcDbEntity
  8
0
 62
    18
420
        0
370
    25
100
AcDbLine
 10
94.67867687568414
 20
-40.7103823496013
 30
0.0
 11
158.3036103151841
 21
-3.9804900928011
 31
0.0
  0
LINE
  5
228
330
70
100
AcDbEntity
  8
0
 62
    18
420
        0
370
    25
100
AcDbLine
 10
189.7843315072839
 20
-15.46964640870135
 30
0.0
 11
164.0783151047843
 21
-0.6298790129011086
 31
0.0
  0
LINE
  5
229
330
70
100
AcDbEntity
  8
0
 62
    18
420
        0
370
    25
100
AcDbLine
 10
162.8510023883844
 20
-3.9804900928011
 30
0.0
 11
188.5570187908841
 21
-18.82025748860134
 31
0.0
  0
SPLINE
  5
22A
330
70
100
AcDbEntity
  8
0
 62
    18
420
        0
370
    25
100
AcDbSpline
210
0.0
220
0.0
230
1.0
 70
     8
 71
     3
 72
     8
 73
     4
 74
     0
 42
0.0000000001
 43
0.0000000001
 40
0.0
 40
0.0
 40
0.0
 40
0.0
 40
1.0
 40
1.0
 40
1.0
 40
1.0
 10
158.4348524116125
 20
-0.074799341440869
 30
0.0
 10
157.959899486628
 20
-0.2002898218060589
 30
0.0
 10
157.5032358450943
 20
-0.386873727604705
 30
0.0
 10
157.0762970637093
 20
-0.6298787040199177
 30
0.0
  0
SPLINE
  5
22B
330
70
100
AcDbEntity
  8
0
 62
    18
420
        0
370
    25
100
AcDbSpline
210
0.0
220
0.0
230
1.0
 70
     8
 71
     3
 72
     8
 73
     4
 74
     0
 42
0.0000000001
 43
0.0000000001
 40
0.0
 40
0.0
 40
0.0
 40
0.0
 40
1.0
 40
1.0
 40
1.0
 40
1.0
 10
164.0783151047932
 20
-0.6298790128324468
 30
0.0
 10
163.7225849550261
 20
-0.4225164354496769
 30
0.0
 10
163.3421725800681
 20
-0.2607462678599495
 30
0.0
 10
162.9460446293585
 20
-0.1483815731440214
 30
0.0
  0
LINE
  5
22C
330
70
100
AcDbEntity
  8
0
 62
    18
420
        0
370
    25
100
AcDbLine
 10
162.7812473784843
 20
-3.943484969700957
 30
0.0
 11
162.8510023883844
 21
-3.9804900928011
 31
0.0
  0
LWPOLYLINE
  5
22D
330
70
100
AcDbEntity
  8
0
 62
    18
420
        0
370
    25
100
AcDbPolyline
 90
        3
 70
     0
 43
0.0
 10
158.3036103151841
 20
-3.9804900928011
 10
158.5163501550844
 20
-3.868382309601349
 10
158.6334574785844
 20
-3.821412128801002
  0
LINE
  5
22E
330
70
100
AcDbEntity
  8
0
 62
    18
420
        0
370
    25
100
AcDbLine
 10
145.2078586021844
 20
-7.117918198900808
 30
0.0
 11
145.5226618649841
 21
-7.29965025430083
 31
0.0
  0
SPLINE
  5
22F
330
70
100
AcDbEntity
  8
0
 62
    18
420
        0
370
    25
100
AcDbSpline
210
0.0
220
0.0
230
1.0
 70
     8
 71
     3
 72
     8
 73
     4
 74
     0
 42
0.0000000001
 43
0.0000000001
 40
0.0
 40
0.0
 40
0.0
 40
0.0
 40
1.0
 40
1.0
 40
1.0
 40
1.0
 10
139.0751940386785
 20
-18.61439477582836
 30
0.0
 10
139.1782868455753
 20
-18.67390898645379
 30
0.0
 10
139.3052926786766
 20
-18.6739299221365
 30
0.0
 10
139.4084051006536
 20
-18.61444970244651
 30
0.0
  0
SPLINE
  5
230
330
70
100
AcDbEntity
  8
0
 62
    18
420
        0
370
    25
100
AcDbSpline
210
0.0
220
0.0
230
1.0
 70
     8
 71
     3
 72
     8
 73
     4
 74
     0
 42
0.0000000001
 43
0.0000000001
 40
0.0
 40
0.0
 40
0.0
 40
0.0
 40
1.0
 40
1.0
 40
1.0
 40
1.0
 10
150.8886724694295
 20
1.282218652619042
 30
0.0
 10
150.8845349118867
 20
1.396955775215718
 30
0.0
 10
150.82164132502
 20
1.501487831853508
 30
0.0
 10
150.7222087819899
 20
1.558889017125876
 30
0.0
  0
LWPOLYLINE
  5
231
330
70
100
AcDbEntity
  8
0
 62
    18
420
        0
370
    25
100
AcDbPolyline
 90
        3
 70
     0
 43
0.0
 10
150.8888628529839
 20
-11.79453712290117
 10
150.8897716992841
 20
-8.73756699590138
 10
150.889702497184
 20
-8.260448117301173
  0
LINE
  5
232
330
70
100
AcDbEntity
  8
0
 62
    18
420
        0
370
    25
100
AcDbLine
 10
150.8890979258839
 20
-4.201671904101226
 30
0.0
 11
150.888280809384
 21
1.274652777198706
 31
0.0
  0
LINE
  5
233
330
70
100
AcDbEntity
  8
0
 62
    18
420
        0
370
    25
100
AcDbLine
 10
150.888070376984
 20
1.278548069198621
 30
0.0
 11
150.887942509584
 21
1.282549422098751
 31
0.0
  0
LWPOLYLINE
  5
234
330
70
100
AcDbEntity
  8
0
 62
    18
420
        0
370
    25
100
AcDbPolyline
 90
        3
 70
     0
 43
0.0
 10
139.4083853224843
 20
-18.61443128190126
 10
142.0570195313842
 20
-17.08645735890136
 10
150.7251436668843
 20
-12.0807318601012
  0
LINE
  5
235
330
70
100
AcDbEntity
  8
0
 62
    18
420
        0
370
    25
100
AcDbLine
 10
138.0189393048842
 20
-18.00463226440117
 30
0.0
 11
139.0751944816844
 21
-18.61439539880134
 31
0.0
  0
LINE
  5
236
330
70
100
AcDbEntity
  8
0
 62
    18
420
        0
370
    25
100
AcDbLine
 10
150.7222091376843
 20
1.55888905449907
 30
0.0
 11
149.6659539608841
 21
2.168652188899242
 31
0.0
  0
LINE
  5
237
330
70
100
AcDbEntity
  8
0
 62
    18
420
        0
370
    25
100
AcDbLine
 10
150.728200383484
 20
-12.07814866300096
 30
0.0
 11
150.7316305497839
 21
-12.07601694020116
 31
0.0
  0
SPLINE
  5
238
330
70
100
AcDbEntity
  8
0
 62
    18
420
        0
370
    25
100
AcDbSpline
210
0.0
220
0.0
230
1.0
 70
     8
 71
     3
 72
     8
 73
     4
 74
     0
 42
0.0000000001
 43
0.0000000001
 40
0.0
 40
0.0
 40
0.0
 40
0.0
 40
1.0
 40
1.0
 40
1.0
 40
1.0
 10
150.7329458430836
 20
-12.07665931871452
 30
0.0
 10
150.8299595992108
 20
-12.01567940254695
 30
0.0
 10
150.8888511834308
 20
-11.9091440241963
 30
0.0
 10
150.8888889749886
 20
-11.79455686249986
 30
0.0
  0
LINE
  5
239
330
70
100
AcDbEntity
  8
0
 62
    18
420
        0
370
    25
100
AcDbLine
 10
94.37530144548409
 20
-44.59437184760104
 30
0.0
 11
94.37530144548409
 21
-52.10758298060086
 31
0.0
  0
LINE
  5
23A
330
70
100
AcDbEntity
  8
0
 62
    18
420
        0
370
    25
100
AcDbLine
 10
95.37530171988427
 20
-52.10758272710086
 30
0.0
 11
95.37530171988427
 21
-45.17165925390118
 31
0.0
  0
LWPOLYLINE
  5
23B
330
70
100
AcDbEntity
  8
0
 62
    18
420
        0
370
    25
100
AcDbPolyline
 90
        8
 70
     0
 43
0.0
 10
95.68598150628456
 20
-52.28706417670114
 10
95.59947685578425
 20
-52.33041186750091
 10
95.48142748438458
 20
-52.36354474480118
 10
95.43805354798374
 20
-52.36206881190081
 10
95.43391569328425
 20
-52.35951934300133
 10
95.40947886268453
 20
-52.31879278920117
 10
95.38080144458403
 20
-52.20252386230093
 10
95.37530171988427
 20
-52.10758272710086
  0
SPLINE
  5
23C
330
70
100
AcDbEntity
  8
0
 62
    18
420
        0
370
    25
100
AcDbSpline
210
0.0
220
0.0
230
1.0
 70
     8
 71
     3
 72
    11
 73
     7
 74
     0
 42
0.0000000001
 43
0.0000000001
 40
0.0
 40
0.0
 40
0.0
 40
0.0
 40
1.0
 40
1.0
 40
1.0
 40
2.0
 40
2.0
 40
2.0
 40
2.0
 10
94.37530144547384
 20
-52.10758298055209
 30
0.0
 10
94.32075391541379
 20
-52.74279438202687
 30
0.0
 10
94.79147498916075
 20
-53.30195447595123
 30
0.0
 10
95.42668639063553
 20
-53.35650200601127
 30
0.0
 10
95.69577112624275
 20
-53.37960912856977
 30
0.0
 10
95.96444027415632
 20
-53.30763817687511
 30
0.0
 10
96.1859410332433
 20
-53.15311326699401
 30
0.0
  0
LINE
  5
23D
330
70
100
AcDbEntity
  8
0
 62
    18
420
        0
370
    25
100
AcDbLine
 10
96.18594103318427
 20
-53.15311326700107
 30
0.0
 11
99.08934698698443
 21
-51.47701268670086
 31
0.0
  0
LINE
  5
23E
330
70
100
AcDbEntity
  8
0
 62
    18
420
        0
370
    25
100
AcDbLine
 10
100.0893468223841
 20
-50.89972506970076
 30
0.0
 11
102.6935114688843
 21
-49.39637281900086
 31
0.0
  0
LINE
  5
23F
330
70
100
AcDbEntity
  8
0
 62
    18
420
        0
370
    25
100
AcDbLine
 10
106.209196983784
 20
-47.36681077170132
 30
0.0
 11
163.4789375281843
 21
-14.3056932811012
 31
0.0
  0
LINE
  5
240
330
70
100
AcDbEntity
  8
0
 62
    18
420
        0
370
    25
100
AcDbLine
 10
162.9789780011838
 20
-13.43964419080128
 30
0.0
 11
105.2091154888844
 21
-46.78947594800102
 31
0.0
  0
LINE
  5
241
330
70
100
AcDbEntity
  8
0
 62
    18
420
        0
370
    25
100
AcDbLine
 10
101.6934299739841
 20
-48.81903799530119
 30
0.0
 11
100.0893463833837
 21
-49.74505574140104
 31
0.0
  0
LINE
  5
242
330
70
100
AcDbEntity
  8
0
 62
    18
420
        0
370
    25
100
AcDbLine
 10
99.089346547984
 20
-50.32234335840114
 30
0.0
 11
95.68598150628456
 21
-52.28706417670114
 31
0.0
  0
LINE
  5
243
330
70
100
AcDbEntity
  8
0
 62
    18
420
        0
370
    25
100
AcDbLine
 10
163.7896173145839
 20
-4.52234025350086
 30
0.0
 11
163.7896173145839
 21
-12.03555138650132
 31
0.0
  0
LINE
  5
244
330
70
100
AcDbEntity
  8
0
 62
    18
420
        0
370
    25
100
AcDbLine
 10
164.7896158328842
 20
-12.0355521469012
 30
0.0
 11
164.7896158328842
 21
-5.09962867360078
 31
0.0
  0
SPLINE
  5
245
330
70
100
AcDbEntity
  8
0
 62
    18
420
        0
370
    25
100
AcDbSpline
210
0.0
220
0.0
230
1.0
 70
     8
 71
     3
 72
     8
 73
     4
 74
     0
 42
0.0000000001
 43
0.0000000001
 40
0.0
 40
0.0
 40
0.0
 40
0.0
 40
1.0
 40
1.0
 40
1.0
 40
1.0
 10
162.9789780012538
 20
-13.43964419084043
 30
0.0
 10
163.4599905831463
 20
-13.12989880901499
 30
0.0
 10
163.7618848104439
 20
-12.60699360912094
 30
0.0
 10
163.7896173146212
 20
-12.03555138657126
 30
0.0
  0
SPLINE
  5
246
330
70
100
AcDbEntity
  8
0
 62
    18
420
        0
370
    25
100
AcDbSpline
210
0.0
220
0.0
230
1.0
 70
     8
 71
     3
 72
     8
 73
     4
 74
     0
 42
0.0000000001
 43
0.0000000001
 40
0.0
 40
0.0
 40
0.0
 40
0.0
 40
1.0
 40
1.0
 40
1.0
 40
1.0
 10
163.4789375281644
 20
-14.30569328110698
 30
0.0
 10
164.2682466586325
 20
-13.81604201196966
 30
0.0
 10
164.7602127768871
 20
-12.96393931240162
 30
0.0
 10
164.7896158328611
 20
-12.0355521468781
 30
0.0
  0
LINE
  5
247
330
70
100
AcDbEntity
  8
0
 62
    18
420
        0
370
    25
100
AcDbLine
 10
99.089346547984
 20
-47.31573215950136
 30
0.0
 11
99.089346547984
 21
-54.82894329250118
 31
0.0
  0
LINE
  5
248
330
70
100
AcDbEntity
  8
0
 62
    18
420
        0
370
    25
100
AcDbLine
 10
100.0893472613846
 20
-54.82894329250118
 30
0.0
 11
100.0893472613846
 21
-47.89301981920075
 31
0.0
  0
LWPOLYLINE
  5
249
330
70
100
AcDbEntity
  8
0
 62
    18
420
        0
370
    25
100
AcDbPolyline
 90
        8
 70
     0
 43
0.0
 10
100.4000266087844
 20
-55.00842448870092
 10
100.3135219583842
 20
-55.05177217950133
 10
100.1954730259837
 20
-55.08490531010075
 10
100.1520986504843
 20
-55.08342912380114
 10
100.147961234884
 20
-55.08087990840101
 10
100.1235239652845
 20
-55.04015310110084
 10
100.0948465470839
 20
-54.92388417420126
 10
100.0893472613846
 20
-54.82894329250118
  0
SPLINE
  5
24A
330
70
100
AcDbEntity
  8
0
 62
    18
420
        0
370
    25
100
AcDbSpline
210
0.0
220
0.0
230
1.0
 70
     8
 71
     3
 72
    11
 73
     7
 74
     0
 42
0.0000000001
 43
0.0000000001
 40
0.0
 40
0.0
 40
0.0
 40
0.0
 40
1.0
 40
1.0
 40
1.0
 40
2.0
 40
2.0
 40
2.0
 40
2.0
 10
99.08934654799427
 20
-54.82894329252107
 30
0.0
 10
99.03479941534101
 20
-55.4641550851127
 30
0.0
 10
99.5055211283126
 20
-56.02331517393811
 30
0.0
 10
100.1407329209042
 20
-56.07786230659137
 30
0.0
 10
100.409817289869
 20
-56.10096921508997
 30
0.0
 10
100.6784860262565
 20
-56.02899837362702
 30
0.0
 10
100.8999865747943
 20
-55.87447383240843
 30
0.0
  0
LINE
  5
24B
330
70
100
AcDbEntity
  8
0
 62
    18
420
        0
370
    25
100
AcDbLine
 10
100.899986574784
 20
-55.87447383240074
 30
0.0
 11
103.8033925285842
 21
-54.19837325210117
 31
0.0
  0
LINE
  5
24C
330
70
100
AcDbEntity
  8
0
 62
    18
420
        0
370
    25
100
AcDbLine
 10
104.8033923639839
 20
-53.62108563500097
 30
0.0
 11
107.4075570104841
 21
-52.11773338440117
 31
0.0
  0
LINE
  5
24D
330
70
100
AcDbEntity
  8
0
 62
    18
420
        0
370
    25
100
AcDbLine
 10
110.9232425253844
 20
-50.08817133700089
 30
0.0
 11
168.192983069684
 21
-17.02705384650087
 31
0.0
  0
LINE
  5
24E
330
70
100
AcDbEntity
  8
0
 62
    18
420
        0
370
    25
100
AcDbLine
 10
167.6930231037838
 20
-16.16100450270096
 30
0.0
 11
109.9231605914845
 21
-49.51083625990134
 31
0.0
  0
LINE
  5
24F
330
70
100
AcDbEntity
  8
0
 62
    18
420
        0
370
    25
100
AcDbLine
 10
106.407475076484
 20
-51.54039830730098
 30
0.0
 11
104.8033914858842
 21
-52.46641605330136
 31
0.0
  0
LINE
  5
250
330
70
100
AcDbEntity
  8
0
 62
    18
420
        0
370
    25
100
AcDbLine
 10
103.803391650584
 20
-53.04370367030081
 30
0.0
 11
100.4000266087844
 21
-55.00842448870092
 31
0.0
  0
LINE
  5
251
330
70
100
AcDbEntity
  8
0
 62
    18
420
        0
370
    25
100
AcDbLine
 10
168.5036624170838
 20
-7.243700565401176
 30
0.0
 11
168.5036624170838
 21
-14.75691169840099
 31
0.0
  0
LINE
  5
252
330
70
100
AcDbEntity
  8
0
 62
    18
420
        0
370
    25
100
AcDbLine
 10
169.5036613743839
 20
-14.75691271220077
 30
0.0
 11
169.5036613743839
 21
-7.820989238900988
 31
0.0
  0
SPLINE
  5
253
330
70
100
AcDbEntity
  8
0
 62
    18
420
        0
370
    25
100
AcDbSpline
210
0.0
220
0.0
230
1.0
 70
     8
 71
     3
 72
     8
 73
     4
 74
     0
 42
0.0000000001
 43
0.0000000001
 40
0.0
 40
0.0
 40
0.0
 40
0.0
 40
1.0
 40
1.0
 40
1.0
 40
1.0
 10
167.6930231037171
 20
-16.16100450268042
 30
0.0
 10
168.1740362602133
 20
-15.8512596682371
 30
0.0
 10
168.4759306742594
 20
-15.32835414487989
 30
0.0
 10
168.5036624170864
 20
-14.75691169841062
 30
0.0
  0
SPLINE
  5
254
330
70
100
AcDbEntity
  8
0
 62
    18
420
        0
370
    25
100
AcDbSpline
210
0.0
220
0.0
230
1.0
 70
     8
 71
     3
 72
     8
 73
     4
 74
     0
 42
0.0000000001
 43
0.0000000001
 40
0.0
 40
0.0
 40
0.0
 40
0.0
 40
1.0
 40
1.0
 40
1.0
 40
1.0
 10
168.1929830696968
 20
-17.02705384646044
 30
0.0
 10
168.9822916082476
 20
-16.53740200384888
 30
0.0
 10
169.4742575258192
 20
-15.68529965187061
 30
0.0
 10
169.5036613743929
 20
-14.75691271223221
 30
0.0
  0
LINE
  5
255
330
70
100
AcDbEntity
  8
0
 62
    18
420
        0
370
    25
100
AcDbLine
 10
103.803391650584
 20
-50.03709247140103
 30
0.0
 11
103.803391650584
 21
-57.55030360440085
 31
0.0
  0
LINE
  5
256
330
70
100
AcDbEntity
  8
0
 62
    18
420
        0
370
    25
100
AcDbLine
 10
104.8033923639839
 20
-57.55030360440085
 30
0.0
 11
104.8033923639839
 21
-50.61438013110106
 31
0.0
  0
LWPOLYLINE
  5
257
330
70
100
AcDbEntity
  8
0
 62
    18
420
        0
370
    25
100
AcDbPolyline
 90
        8
 70
     0
 43
0.0
 10
105.1140717113844
 20
-57.72978480060125
 10
105.0275670608841
 20
-57.773132491401
 10
104.9095181284843
 20
-57.80626562200106
 10
104.8661437530843
 20
-57.80478943570081
 10
104.8620063373839
 20
-57.80224022030132
 10
104.8375690677844
 20
-57.76151341300116
 10
104.8088916496839
 20
-57.64524448610092
 10
104.8033923639839
 20
-57.55030360440085
  0
SPLINE
  5
258
330
70
100
AcDbEntity
  8
0
 62
    18
420
        0
370
    25
100
AcDbSpline
210
0.0
220
0.0
230
1.0
 70
     8
 71
     3
 72
    11
 73
     7
 74
     0
 42
0.0000000001
 43
0.0000000001
 40
0.0
 40
0.0
 40
0.0
 40
0.0
 40
1.0
 40
1.0
 40
1.0
 40
2.0
 40
2.0
 40
2.0
 40
2.0
 10
103.8033916505699
 20
-57.55030360442844
 30
0.0
 10
103.7488441914099
 20
-58.18551520848377
 30
0.0
 10
104.2195654868568
 20
-58.74467540915603
 30
0.0
 10
104.8547770909121
 20
-58.7992228683154
 30
0.0
 10
105.1238618032956
 20
-58.82232995147614
 30
0.0
 10
105.3925309187103
 20
-58.75035900847906
 30
0.0
 10
105.6140316773693
 20
-58.59583414431773
 30
0.0
  0
LINE
  5
259
330
70
100
AcDbEntity
  8
0
 62
    18
420
        0
370
    25
100
AcDbLine
 10
105.614031677384
 20
-58.59583414430105
 30
0.0
 11
108.5174376311842
 21
-56.91973356400084
 31
0.0
  0
LINE
  5
25A
330
70
100
AcDbEntity
  8
0
 62
    18
420
        0
370
    25
100
AcDbLine
 10
109.5174374664839
 20
-56.34244594690128
 30
0.0
 11
112.121602112984
 21
-54.83909369630085
 31
0.0
  0
LINE
  5
25B
330
70
100
AcDbEntity
  8
0
 62
    18
420
        0
370
    25
100
AcDbLine
 10
115.6372876278843
 20
-52.80953164890121
 30
0.0
 11
172.907028172284
 21
-19.74841415840119
 31
0.0
  0
LINE
  5
25C
330
70
100
AcDbEntity
  8
0
 62
    18
420
        0
370
    25
100
AcDbLine
 10
172.4070682062844
 20
-18.88236481460127
 30
0.0
 11
114.6372056939843
 21
-52.23219657180101
 31
0.0
  0
LINE
  5
25D
330
70
100
AcDbEntity
  8
0
 62
    18
420
        0
370
    25
100
AcDbLine
 10
111.121520179084
 20
-54.26175861920129
 30
0.0
 11
109.5174365884843
 21
-55.18777636520103
 31
0.0
  0
LINE
  5
25E
330
70
100
AcDbEntity
  8
0
 62
    18
420
        0
370
    25
100
AcDbLine
 10
108.5174367530839
 20
-55.76506398220113
 30
0.0
 11
105.1140717113844
 21
-57.72978480060125
 31
0.0
  0
LINE
  5
25F
330
70
100
AcDbEntity
  8
0
 62
    18
420
        0
370
    25
100
AcDbLine
 10
173.2177075196839
 20
-9.965060877300849
 30
0.0
 11
173.2177075196839
 21
-17.47827201040077
 31
0.0
  0
LINE
  5
260
330
70
100
AcDbEntity
  8
0
 62
    18
420
        0
370
    25
100
AcDbLine
 10
174.2177064769839
 20
-17.47827302410109
 30
0.0
 11
174.2177064769839
 21
-10.54234955090077
 31
0.0
  0
SPLINE
  5
261
330
70
100
AcDbEntity
  8
0
 62
    18
420
        0
370
    25
100
AcDbSpline
210
0.0
220
0.0
230
1.0
 70
     8
 71
     3
 72
     8
 73
     4
 74
     0
 42
0.0000000001
 43
0.0000000001
 40
0.0
 40
0.0
 40
0.0
 40
0.0
 40
1.0
 40
1.0
 40
1.0
 40
1.0
 10
172.4070682062844
 20
-18.88236481457946
 30
0.0
 10
172.8880818415285
 20
-18.57262043620576
 30
0.0
 10
173.1899764111693
 20
-18.04971464334521
 30
0.0
 10
173.2177075196517
 20
-17.47827201031286
 30
0.0
  0
SPLINE
  5
262
330
70
100
AcDbEntity
  8
0
 62
    18
420
        0
370
    25
100
AcDbSpline
210
0.0
220
0.0
230
1.0
 70
     8
 71
     3
 72
     8
 73
     4
 74
     0
 42
0.0000000001
 43
0.0000000001
 40
0.0
 40
0.0
 40
0.0
 40
0.0
 40
1.0
 40
1.0
 40
1.0
 40
1.0
 10
172.9070281722968
 20
-19.74841415836076
 30
0.0
 10
173.6963367108477
 20
-19.2587623157492
 30
0.0
 10
174.1883026284192
 20
-18.40665996377093
 30
0.0
 10
174.2177064769929
 20
-17.47827302413253
 30
0.0
  0
LINE
  5
263
330
70
100
AcDbEntity
  8
0
 62
    18
420
        0
370
    25
100
AcDbLine
 10
108.5174367530839
 20
-52.75845278330135
 30
0.0
 11
108.5174367530839
 21
-60.27166391630117
 31
0.0
  0
LINE
  5
264
330
70
100
AcDbEntity
  8
0
 62
    18
420
        0
370
    25
100
AcDbLine
 10
109.5174374664839
 20
-60.27166391630117
 30
0.0
 11
109.5174374664839
 21
-53.33574044300074
 31
0.0
  0
LWPOLYLINE
  5
265
330
70
100
AcDbEntity
  8
0
 62
    18
420
        0
370
    25
100
AcDbPolyline
 90
        8
 70
     0
 43
0.0
 10
109.828117691984
 20
-60.45114561940081
 10
109.7416130414844
 20
-60.4944933102012
 10
109.6235623529839
 20
-60.52762542710095
 10
109.5801897336839
 20
-60.52615025450101
 10
109.5760505618843
 20
-60.52360002530111
 10
109.5516141703844
 20
-60.48287372490083
 10
109.5229367521838
 20
-60.36660479800125
 10
109.5174374664839
 20
-60.27166391630117
  0
SPLINE
  5
266
330
70
100
AcDbEntity
  8
0
 62
    18
420
        0
370
    25
100
AcDbSpline
210
0.0
220
0.0
230
1.0
 70
     8
 71
     3
 72
    11
 73
     7
 74
     0
 42
0.0000000001
 43
0.0000000001
 40
0.0
 40
0.0
 40
0.0
 40
0.0
 40
1.0
 40
1.0
 40
1.0
 40
2.0
 40
2.0
 40
2.0
 40
2.0
 10
108.5174367530537
 20
-60.27166391638266
 30
0.0
 10
108.4628888255863
 20
-60.90687492673995
 30
0.0
 10
108.9336092601079
 20
-61.4660350257639
 30
0.0
 10
109.5688202704652
 20
-61.52058295323136
 30
0.0
 10
109.8379053727162
 20
-61.54369028985038
 30
0.0
 10
110.106574932159
 20
-61.47171922792338
 30
0.0
 10
110.3280759017939
 20
-61.31719394937849
 30
0.0
  0
LINE
  5
267
330
70
100
AcDbEntity
  8
0
 62
    18
420
        0
370
    25
100
AcDbLine
 10
110.3280759017843
 20
-61.31719394930083
 30
0.0
 11
113.2314818555844
 21
-59.64109336900127
 31
0.0
  0
LINE
  5
268
330
70
100
AcDbEntity
  8
0
 62
    18
420
        0
370
    25
100
AcDbLine
 10
114.2314816909842
 20
-59.06380575200117
 30
0.0
 11
116.8356463374843
 21
-57.56045350130127
 31
0.0
  0
LINE
  5
269
330
70
100
AcDbEntity
  8
0
 62
    18
420
        0
370
    25
100
AcDbLine
 10
120.351331852384
 20
-55.5308914540011
 30
0.0
 11
177.6210723967843
 21
-22.46977396340097
 31
0.0
  0
LINE
  5
26A
330
70
100
AcDbEntity
  8
0
 62
    18
420
        0
370
    25
100
AcDbLine
 10
177.121114186884
 20
-21.60372563340084
 30
0.0
 11
119.3512516745839
 21
-54.95355739060122
 31
0.0
  0
LINE
  5
26B
330
70
100
AcDbEntity
  8
0
 62
    18
420
        0
370
    25
100
AcDbLine
 10
115.8355661596842
 20
-56.98311943800085
 30
0.0
 11
114.2314825690845
 21
-57.90913718400124
 31
0.0
  0
LINE
  5
26C
330
70
100
AcDbEntity
  8
0
 62
    18
420
        0
370
    25
100
AcDbLine
 10
113.2314827336841
 20
-58.48642480100133
 30
0.0
 11
109.828117691984
 21
-60.45114561940081
 31
0.0
  0
LINE
  5
26D
330
70
100
AcDbEntity
  8
0
 62
    18
420
        0
370
    25
100
AcDbLine
 10
177.9317526221844
 20
-12.68642118930127
 30
0.0
 11
177.9317526221844
 21
-20.19963232230109
 31
0.0
  0
LINE
  5
26E
330
70
100
AcDbEntity
  8
0
 62
    18
420
        0
370
    25
100
AcDbLine
 10
178.9317515794844
 20
-20.19963333610087
 30
0.0
 11
178.9317515794844
 21
-13.26370986280108
 31
0.0
  0
SPLINE
  5
26F
330
70
100
AcDbEntity
  8
0
 62
    18
420
        0
370
    25
100
AcDbSpline
210
0.0
220
0.0
230
1.0
 70
     8
 71
     3
 72
     8
 73
     4
 74
     0
 42
0.0000000001
 43
0.0000000001
 40
0.0
 40
0.0
 40
0.0
 40
0.0
 40
1.0
 40
1.0
 40
1.0
 40
1.0
 10
177.1211141869109
 20
-21.60372563340148
 30
0.0
 10
177.6021272744835
 20
-21.29398061704097
 30
0.0
 10
177.9040214020822
 20
-20.77107483466386
 30
0.0
 10
177.931752622221
 20
-20.19963232223949
 30
0.0
  0
SPLINE
  5
270
330
70
100
AcDbEntity
  8
0
 62
    18
420
        0
370
    25
100
AcDbSpline
210
0.0
220
0.0
230
1.0
 70
     8
 71
     3
 72
     8
 73
     4
 74
     0
 42
0.0000000001
 43
0.0000000001
 40
0.0
 40
0.0
 40
0.0
 40
0.0
 40
1.0
 40
1.0
 40
1.0
 40
1.0
 10
177.6210723968036
 20
-22.4697739633644
 30
0.0
 10
178.4103813561511
 20
-21.98012265021487
 30
0.0
 10
178.9023476817566
 20
-21.12802035261802
 30
0.0
 10
178.9317515795582
 20
-20.19963333602964
 30
0.0
  0
LINE
  5
271
330
70
100
AcDbEntity
  8
0
 62
    18
420
        0
370
    25
100
AcDbLine
 10
113.2314827336841
 20
-55.47981360210091
 30
0.0
 11
113.2314827336841
 21
-62.99302473510137
 31
0.0
  0
LINE
  5
272
330
70
100
AcDbEntity
  8
0
 62
    18
420
        0
370
    25
100
AcDbLine
 10
114.2314834470841
 20
-62.99302473510137
 30
0.0
 11
114.2314834470841
 21
-56.05710126190105
 31
0.0
  0
SPLINE
  5
273
330
70
100
AcDbEntity
  8
0
 62
    18
420
        0
370
    25
100
AcDbSpline
210
0.0
220
0.0
230
1.0
 70
     8
 71
     3
 72
    11
 73
     7
 74
     0
 42
0.0000000001
 43
0.0000000001
 40
0.0
 40
0.0
 40
0.0
 40
0.0
 40
1.0
 40
1.0
 40
1.0
 40
2.0
 40
2.0
 40
2.0
 40
2.0
 10
113.2314827337027
 20
-62.99302473516426
 30
0.0
 10
113.1769354592468
 20
-63.62823612259481
 30
0.0
 10
113.6476567288166
 20
-64.18739599792631
 30
0.0
 10
114.2828681162471
 20
-64.24194327238223
 30
0.0
 10
114.5519525316606
 20
-64.26505025967827
 30
0.0
 10
114.820621333049
 20
-64.19307940081821
 30
0.0
 10
115.0421218824435
 20
-64.03855476816008
 30
0.0
  0
LWPOLYLINE
  5
274
330
70
100
AcDbEntity
  8
0
 62
    18
420
        0
370
    25
100
AcDbPolyline
 90
        8
 70
     0
 43
0.0
 10
114.5421619164844
 20
-63.17250542440123
 10
114.455657265984
 20
-63.21585311520099
 10
114.3376083335842
 20
-63.24898624590115
 10
114.2942339581842
 20
-63.24751005960091
 10
114.2900965424838
 20
-63.24496084410132
 10
114.265660150984
 20
-63.20423454370104
 10
114.236982732784
 20
-63.08796561680081
 10
114.2314834470841
 20
-62.99302473510137
  0
LINE
  5
275
330
70
100
AcDbEntity
  8
0
 62
    18
420
        0
370
    25
100
AcDbLine
 10
181.8351584113843
 20
-24.32508543850137
 30
0.0
 11
118.9455267935842
 21
-60.63049698900102
 31
0.0
  0
LINE
  5
276
330
70
100
AcDbEntity
  8
0
 62
    18
420
        0
370
    25
100
AcDbLine
 10
117.9455269581844
 20
-61.20778460610122
 30
0.0
 11
114.5421619164844
 21
-63.17250542440123
 31
0.0
  0
LINE
  5
277
330
70
100
AcDbEntity
  8
0
 62
    18
420
        0
370
    25
100
AcDbLine
 10
115.0421218823845
 20
-64.03855476810104
 30
0.0
 11
118.0897964986843
 21
-62.27916966170131
 31
0.0
  0
LINE
  5
278
330
70
100
AcDbEntity
  8
0
 62
    18
420
        0
370
    25
100
AcDbLine
 10
118.9629817352844
 20
-61.77509055430085
 30
0.0
 11
182.3351183773839
 21
-25.19113478220118
 31
0.0
  0
LINE
  5
279
330
70
100
AcDbEntity
  8
0
 62
    18
420
        0
370
    25
100
AcDbLine
 10
182.645798602784
 20
-15.40778200810083
 30
0.0
 11
182.645798602784
 21
-22.9209931411013
 31
0.0
  0
LINE
  5
27A
330
70
100
AcDbEntity
  8
0
 62
    18
420
        0
370
    25
100
AcDbLine
 10
183.645797560084
 20
-22.92099415490107
 30
0.0
 11
183.645797560084
 21
-15.98507068160129
 31
0.0
  0
SPLINE
  5
27B
330
70
100
AcDbEntity
  8
0
 62
    18
420
        0
370
    25
100
AcDbSpline
210
0.0
220
0.0
230
1.0
 70
     8
 71
     3
 72
     8
 73
     4
 74
     0
 42
0.0000000001
 43
0.0000000001
 40
0.0
 40
0.0
 40
0.0
 40
0.0
 40
1.0
 40
1.0
 40
1.0
 40
1.0
 10
182.3351183774038
 20
-25.19113478216461
 30
0.0
 10
183.1244273367513
 20
-24.70148346901507
 30
0.0
 10
183.6163936623562
 20
-23.84938117141823
 30
0.0
 10
183.6457975601578
 20
-22.92099415482985
 30
0.0
  0
SPLINE
  5
27C
330
70
100
AcDbEntity
  8
0
 62
    18
420
        0
370
    25
100
AcDbSpline
210
0.0
220
0.0
230
1.0
 70
     8
 71
     3
 72
     8
 73
     4
 74
     0
 42
0.0000000001
 43
0.0000000001
 40
0.0
 40
0.0
 40
0.0
 40
0.0
 40
1.0
 40
1.0
 40
1.0
 40
1.0
 10
181.8351584113336
 20
-24.32508543846672
 30
0.0
 10
182.3161716367515
 20
-24.01534078593866
 30
0.0
 10
182.6180663372443
 20
-23.49243552160261
 30
0.0
 10
182.6457986027621
 20
-22.92099314109039
 30
0.0
  0
LINE
  5
27D
330
70
100
AcDbEntity
  8
0
 62
    18
420
        0
370
    25
100
AcDbLine
 10
117.9455269581844
 20
-58.2011734072008
 30
0.0
 11
117.9455269581844
 21
-61.63168031850136
 31
0.0
  0
LINE
  5
27E
330
70
100
AcDbEntity
  8
0
 62
    18
420
        0
370
    25
100
AcDbLine
 10
118.9455276715844
 20
-61.63168031850136
 30
0.0
 11
118.9455276715844
 21
-58.77846106690084
 31
0.0
  0
SPLINE
  5
27F
330
70
100
AcDbEntity
  8
0
 62
    18
420
        0
370
    25
100
AcDbSpline
210
0.0
220
0.0
230
1.0
 70
     8
 71
     3
 72
    11
 73
     7
 74
     0
 42
0.0000000001
 43
0.0000000001
 40
0.0
 40
0.0
 40
0.0
 40
0.0
 40
1.0
 40
1.0
 40
1.0
 40
2.0
 40
2.0
 40
2.0
 40
2.0
 10
117.9455269581851
 20
-61.63168031847633
 30
0.0
 10
117.8909799673345
 20
-62.26689251622904
 30
0.0
 10
118.3617021237073
 20
-62.82605281854901
 30
0.0
 10
118.99691432146
 20
-62.88059980939961
 30
0.0
 10
119.265998643976
 20
-62.90370663910207
 30
0.0
 10
119.5346673153632
 20
-62.83173581503557
 30
0.0
 10
119.756167863045
 20
-62.67721136525717
 30
0.0
  0
LWPOLYLINE
  5
280
330
70
100
AcDbEntity
  8
0
 62
    18
420
        0
370
    25
100
AcDbPolyline
 90
        8
 70
     0
 43
0.0
 10
119.2562078970839
 20
-61.81116202150089
 10
119.1697032465843
 20
-61.85450971230129
 10
119.0516543141844
 20
-61.88764284300082
 10
119.0082799387844
 20
-61.88616665670121
 10
119.0041425230841
 20
-61.88361744130108
 10
118.9797043754843
 20
-61.84289012710102
 10
118.9510269572844
 20
-61.72662221410132
 10
118.9455276715844
 20
-61.63168031850136
  0
LINE
  5
281
330
70
100
AcDbEntity
  8
0
 62
    18
420
        0
370
    25
100
AcDbLine
 10
186.5492043919839
 20
-22.96374203560104
 30
0.0
 11
119.2562078970839
 21
-61.81116202150089
 31
0.0
  0
LINE
  5
282
330
70
100
AcDbEntity
  8
0
 62
    18
420
        0
370
    25
100
AcDbLine
 10
119.7561678629841
 20
-62.67721136530081
 30
0.0
 11
187.0491643579841
 21
-23.82979137930084
 31
0.0
  0
LINE
  5
283
330
70
100
AcDbEntity
  8
0
 62
    18
420
        0
370
    25
100
AcDbLine
 10
187.3598428272843
 20
-18.12914181310126
 30
0.0
 11
187.3598428272843
 21
-21.55964872440118
 31
0.0
  0
LINE
  5
284
330
70
100
AcDbEntity
  8
0
 62
    18
420
        0
370
    25
100
AcDbLine
 10
188.3598417845844
 20
-21.55964973820096
 30
0.0
 11
188.3598417845844
 21
-18.70643048660107
 31
0.0
  0
SPLINE
  5
285
330
70
100
AcDbEntity
  8
0
 62
    18
420
        0
370
    25
100
AcDbSpline
210
0.0
220
0.0
230
1.0
 70
     8
 71
     3
 72
     8
 73
     4
 74
     0
 42
0.0000000001
 43
0.0000000001
 40
0.0
 40
0.0
 40
0.0
 40
0.0
 40
1.0
 40
1.0
 40
1.0
 40
1.0
 10
187.0491643579161
 20
-23.82979137936694
 30
0.0
 10
187.8384724756651
 20
-23.34013900729014
 30
0.0
 10
188.330437985202
 20
-22.48803660093237
 30
0.0
 10
188.359841784551
 20
-21.55964973824524
 30
0.0
  0
SPLINE
  5
286
330
70
100
AcDbEntity
  8
0
 62
    18
420
        0
370
    25
100
AcDbSpline
210
0.0
220
0.0
230
1.0
 70
     8
 71
     3
 72
     8
 73
     4
 74
     0
 42
0.0000000001
 43
0.0000000001
 40
0.0
 40
0.0
 40
0.0
 40
0.0
 40
1.0
 40
1.0
 40
1.0
 40
1.0
 10
186.5492043920108
 20
-22.96374203560104
 30
0.0
 10
187.0302174795834
 20
-22.65399701924053
 30
0.0
 10
187.3321116071821
 20
-22.13109123686342
 30
0.0
 10
187.3598428273209
 20
-21.55964872443968
 30
0.0
  0
LINE
  5
287
330
70
100
AcDbEntity
  8
0
 62
    18
420
        0
370
    25
100
AcDbLine
 10
105.1384735018843
 20
-30.24948184810117
 30
0.0
 11
105.4532767646839
 21
-30.43121390350119
 31
0.0
  0
SPLINE
  5
288
330
70
100
AcDbEntity
  8
0
 62
    18
420
        0
370
    25
100
AcDbSpline
210
0.0
220
0.0
230
1.0
 70
     8
 71
     3
 72
     8
 73
     4
 74
     0
 42
0.0000000001
 43
0.0000000001
 40
0.0
 40
0.0
 40
0.0
 40
0.0
 40
1.0
 40
1.0
 40
1.0
 40
1.0
 10
99.00580977157837
 20
-41.7459579441279
 30
0.0
 10
99.10890257680547
 20
-41.80547215379015
 30
0.0
 10
99.23590840760882
 20
-41.80549309050022
 30
0.0
 10
99.33902082887868
 20
-41.74601287344375
 30
0.0
  0
SPLINE
  5
289
330
70
100
AcDbEntity
  8
0
 62
    18
420
        0
370
    25
100
AcDbSpline
210
0.0
220
0.0
230
1.0
 70
     8
 71
     3
 72
     8
 73
     4
 74
     0
 42
0.0000000001
 43
0.0000000001
 40
0.0
 40
0.0
 40
0.0
 40
0.0
 40
1.0
 40
1.0
 40
1.0
 40
1.0
 10
110.8192882019469
 20
-21.84934451051547
 30
0.0
 10
110.8151506427242
 20
-21.73460738978293
 30
0.0
 10
110.7522570561596
 20
-21.63007533544563
 30
0.0
 10
110.6528245146902
 20
-21.57267415107421
 30
0.0
  0
LINE
  5
28A
330
70
100
AcDbEntity
  8
0
 62
    18
420
        0
370
    25
100
AcDbLine
 10
110.818199133584
 20
-21.85275017690078
 30
0.0
 11
110.8180743668841
 21
-21.84875821830133
 31
0.0
  0
LWPOLYLINE
  5
28B
330
70
100
AcDbEntity
  8
0
 62
    18
420
        0
370
    25
100
AcDbPolyline
 90
        3
 70
     0
 43
0.0
 10
110.8194794813843
 20
-34.92609977410103
 10
110.8203887666843
 20
-31.86912939370134
 10
110.8203178084843
 20
-31.39201152900101
  0
LINE
  5
28C
330
70
100
AcDbEntity
  8
0
 62
    18
420
        0
370
    25
100
AcDbLine
 10
110.8197119200842
 20
-27.33323607600139
 30
0.0
 11
110.818895242584
 21
-21.85691114130092
 31
0.0
  0
LINE
  5
28D
330
70
100
AcDbEntity
  8
0
 62
    18
420
        0
370
    25
100
AcDbLine
 10
97.94955461618458
 20
-41.1361956760009
 30
0.0
 11
99.00580979298416
 21
-41.74595881040107
 31
0.0
  0
LINE
  5
28E
330
70
100
AcDbEntity
  8
0
 62
    18
420
        0
370
    25
100
AcDbLine
 10
110.652824448984
 20
-21.57267435710131
 30
0.0
 11
109.5965692721845
 21
-20.96291122270114
 31
0.0
  0
LWPOLYLINE
  5
28F
330
70
100
AcDbEntity
  8
0
 62
    18
420
        0
370
    25
100
AcDbPolyline
 90
        3
 70
     0
 43
0.0
 10
99.3390199510838
 20
-41.74600888720098
 10
100.5895200195842
 20
-41.02464026670093
 10
104.9970663748845
 20
-38.48096760600136
  0
LINE
  5
290
330
70
100
AcDbEntity
  8
0
 62
    18
420
        0
370
    25
100
AcDbLine
 10
104.9971268685844
 20
-38.48098951710126
 30
0.0
 11
110.6562042914839
 21
-35.21252750520079
 31
0.0
  0
LINE
  5
291
330
70
100
AcDbEntity
  8
0
 62
    18
420
        0
370
    25
100
AcDbLine
 10
110.6588174508842
 20
-35.20971106090102
 30
0.0
 11
110.6622386444843
 21
-35.20758480300083
 31
0.0
  0
SPLINE
  5
292
330
70
100
AcDbEntity
  8
0
 62
    18
420
        0
370
    25
100
AcDbSpline
210
0.0
220
0.0
230
1.0
 70
     8
 71
     3
 72
     8
 73
     4
 74
     0
 42
0.0000000001
 43
0.0000000001
 40
0.0
 40
0.0
 40
0.0
 40
0.0
 40
1.0
 40
1.0
 40
1.0
 40
1.0
 10
110.6635615758834
 20
-35.20822248701471
 30
0.0
 10
110.7605753320111
 20
-35.14724257084714
 30
0.0
 10
110.8194669162305
 20
-35.04070719249649
 30
0.0
 10
110.819504707789
 20
-34.92612003080006
 30
0.0
  0
SPLINE
  5
293
330
70
100
AcDbEntity
  8
0
 62
    18
420
        0
370
    25
100
AcDbSpline
210
0.0
220
0.0
230
1.0
 70
     8
 71
     3
 72
     8
 73
     4
 74
     0
 42
0.0000000001
 43
0.0000000001
 40
0.0
 40
0.0
 40
0.0
 40
0.0
 40
1.0
 40
1.0
 40
1.0
 40
1.0
 10
119.2115603355054
 20
-56.15388051370815
 30
0.0
 10
119.1417012725146
 20
-56.20823494811777
 30
0.0
 10
119.1131300569322
 20
-56.30037442052977
 30
0.0
 10
119.1399809377841
 20
-56.38471731246142
 30
0.0
  0
LINE
  5
294
330
70
100
AcDbEntity
  8
0
 62
    18
420
        0
370
    25
100
AcDbLine
 10
120.2722200225839
 20
-55.54157470960126
 30
0.0
 11
119.2115603354843
 21
-56.1538805137011
 31
0.0
  0
LWPOLYLINE
  5
295
330
70
100
AcDbEntity
  8
0
 62
    18
420
        0
370
    25
100
AcDbPolyline
 90
        6
 70
     0
 43
0.0
 10
120.4363424848843
 20
-55.63634372090095
 10
120.413307476084
 20
-55.58399725780079
 10
120.3772288956841
 20
-55.54625478340113
 10
120.333501540384
 20
-55.52889384520131
 10
120.2901385796844
 20
-55.5333394631012
 10
120.2722200225839
 20
-55.54157470960126
  0
SPLINE
  5
296
330
70
100
AcDbEntity
  8
0
 62
    18
420
        0
370
    25
100
AcDbSpline
210
0.0
220
0.0
230
1.0
 70
     8
 71
     3
 72
     8
 73
     4
 74
     0
 42
0.0000000001
 43
0.0000000001
 40
0.0
 40
0.0
 40
0.0
 40
0.0
 40
1.0
 40
1.0
 40
1.0
 40
1.0
 10
120.4363424849068
 20
-58.08596605110176
 30
0.0
 10
120.6908984107421
 20
-57.28926467529682
 30
0.0
 10
120.6908984107421
 20
-56.43304509670525
 30
0.0
 10
120.4363424849068
 20
-55.6363437209003
 30
0.0
  0
SPLINE
  5
297
330
70
100
AcDbEntity
  8
0
 62
    18
420
        0
370
    25
100
AcDbSpline
210
0.0
220
0.0
230
1.0
 70
     8
 71
     3
 72
     8
 73
     4
 74
     0
 42
0.0000000001
 43
0.0000000001
 40
0.0
 40
0.0
 40
0.0
 40
0.0
 40
1.0
 40
1.0
 40
1.0
 40
1.0
 10
120.2722200226044
 20
-58.26337684811299
 30
0.0
 10
120.3435480631332
 20
-58.22212069737222
 30
0.0
 10
120.4007531102123
 20
-58.16028398803858
 30
0.0
 10
120.4363424848837
 20
-58.08596605110498
 30
0.0
  0
LINE
  5
298
330
70
100
AcDbEntity
  8
0
 62
    18
420
        0
370
    25
100
AcDbLine
 10
120.2722200225839
 20
-58.26337684810081
 30
0.0
 11
119.2115603354843
 21
-58.87568265210118
 31
0.0
  0
LWPOLYLINE
  5
299
330
70
100
AcDbEntity
  8
0
 62
    18
420
        0
370
    25
100
AcDbPolyline
 90
        6
 70
     0
 43
0.0
 10
119.1399809377841
 20
-58.83433964260128
 10
119.1318764500842
 20
-58.86870965700084
 10
119.1393469789839
 20
-58.88993806860135
 10
119.1617831512844
 20
-58.89500786840114
 10
119.1947156450844
 20
-58.88453985640115
 10
119.2115603354843
 20
-58.87568265210118
  0
SPLINE
  5
29A
330
70
100
AcDbEntity
  8
0
 62
    18
420
        0
370
    25
100
AcDbSpline
210
0.0
220
0.0
230
1.0
 70
     8
 71
     3
 72
     8
 73
     4
 74
     0
 42
0.0000000001
 43
0.0000000001
 40
0.0
 40
0.0
 40
0.0
 40
0.0
 40
1.0
 40
1.0
 40
1.0
 40
1.0
 10
119.1399809378072
 20
-58.83433964260192
 30
0.0
 10
119.3945368636418
 20
-58.03763826679698
 30
0.0
 10
119.3945368636418
 20
-57.18141868820541
 30
0.0
 10
119.1399809378072
 20
-56.38471731240047
 30
0.0
  0
LINE
  5
29B
330
70
100
AcDbEntity
  8
0
 62
    18
420
        0
370
    25
100
AcDbLine
 10
119.1399809377841
 20
-56.38471731240111
 30
0.0
 11
93.402162981984
 21
-41.52659127070107
 31
0.0
  0
LINE
  5
29C
330
70
100
AcDbEntity
  8
0
 62
    18
420
        0
370
    25
100
AcDbLine
 10
93.402162981984
 20
-43.97621360090124
 30
0.0
 11
119.1399809377841
 21
-58.83433964260128
 31
0.0
  0
LINE
  5
29D
330
70
100
AcDbEntity
  8
0
 62
    18
420
        0
370
    25
100
AcDbLine
 10
93.402162981984
 20
-41.52659127070107
 30
0.0
 11
93.402162981984
 21
-43.97621360090124
 31
0.0
  0
SPLINE
  5
29E
330
70
100
AcDbEntity
  8
0
 62
    18
420
        0
370
    25
100
AcDbSpline
210
0.0
220
0.0
230
1.0
 70
     8
 71
     3
 72
     8
 73
     4
 74
     0
 42
0.0000000001
 43
0.0000000001
 40
0.0
 40
0.0
 40
0.0
 40
0.0
 40
1.0
 40
1.0
 40
1.0
 40
1.0
 10
93.52001435108549
 20
-41.32246671236053
 30
0.0
 10
93.44989684358068
 20
-41.36731716290245
 30
0.0
 10
93.40594585805513
 20
-41.44344250265246
 30
0.0
 10
93.40216298205588
 20
-41.52659127066256
 30
0.0
  0
LINE
  5
29F
330
70
100
AcDbEntity
  8
0
 62
    18
420
        0
370
    25
100
AcDbLine
 10
93.52001435108421
 20
-41.32246671240095
 30
0.0
 11
119.2115603354843
 21
-56.1538805137011
 31
0.0
  0
LINE
  5
2A0
330
70
100
AcDbEntity
  8
0
 62
    18
420
        0
370
    25
100
AcDbLine
 10
120.2722200225839
 20
-55.54157470960126
 30
0.0
 11
94.58067403818386
 21
-40.71016090830112
 31
0.0
  0
LINE
  5
2A1
330
70
100
AcDbEntity
  8
0
 62
    18
420
        0
370
    25
100
AcDbLine
 10
94.58067403818386
 20
-40.71016090830112
 30
0.0
 11
93.52001435108421
 21
-41.32246671240095
 31
0.0
  0
LWPOLYLINE
  5
2A2
330
70
100
AcDbEntity
  8
0
 62
    18
420
        0
370
    25
100
AcDbPolyline
 90
       11
 70
     0
 43
0.0
 10
93.07170534788443
 20
-41.31604723450083
 10
92.8926108762843
 20
-41.18217771460083
 10
92.48266384678426
 20
-40.7959869354008
 10
92.18241463708464
 20
-40.37752944690129
 10
91.9992550799842
 20
-39.93710955770122
 10
91.93769615038378
 20
-39.48557144860112
 10
91.99925453118458
 20
-39.03403295930074
 10
92.18241378648434
 20
-38.59361276910082
 10
92.482663370084
 20
-38.17515587660111
 10
92.89261153478429
 20
-37.78896524590115
 10
92.99044412488417
 20
-37.71383414700083
  0
LWPOLYLINE
  5
2A3
330
70
100
AcDbEntity
  8
0
 62
    18
420
        0
370
    25
100
AcDbPolyline
 90
       11
 70
     0
 43
0.0
 10
93.52001341808396
 20
-37.37649476060104
 10
93.0274474526843
 20
-37.70942850790082
 10
92.63116484448437
 20
-38.08274576460132
 10
92.34092358368403
 20
-38.48725409590106
 10
92.16386909078442
 20
-38.91299393990112
 10
92.10436262498447
 20
-39.34948119590136
 10
92.16386947498376
 20
-39.78596810330117
 10
92.34092322698407
 20
-40.2117074880013
 10
92.6311643162839
 20
-40.61621629840124
 10
93.02744764478395
 20
-40.98953339280128
 10
93.52001435108421
 20
-41.32246671240095
  0
SPLINE
  5
2A4
330
70
100
AcDbEntity
  8
0
 62
    18
420
        0
370
    25
100
AcDbSpline
210
0.0
220
0.0
230
1.0
 70
     8
 71
     3
 72
     8
 73
     4
 74
     0
 42
0.0000000001
 43
0.0000000001
 40
0.0
 40
0.0
 40
0.0
 40
0.0
 40
1.0
 40
1.0
 40
1.0
 40
1.0
 10
91.93769615037735
 20
-41.93519377878781
 30
0.0
 10
92.00286277802302
 20
-42.65752652806553
 30
0.0
 10
92.39261602786374
 20
-43.31115184617451
 30
0.0
 10
92.99712364581553
 20
-43.71187847353573
 30
0.0
  0
LWPOLYLINE
  5
2A5
330
70
100
AcDbEntity
  8
0
 62
    18
420
        0
370
    25
100
AcDbPolyline
 90
        9
 70
     0
 43
0.0
 10
94.58067403818386
 20
-40.71016090830112
 10
94.1661312460844
 20
-40.41856039370108
 10
93.85809793058445
 20
-40.08587570500099
 10
93.66841208758428
 20
-39.72489169440113
 10
93.60436314628383
 20
-39.34948087910097
 10
93.66841230708384
 20
-38.97406993700107
 10
93.85809782078462
 20
-38.61308624320097
 10
94.16613135588425
 20
-38.28040117440135
 10
94.5806735990846
 20
-37.98880084980134
  0
LINE
  5
2A6
330
70
100
AcDbEntity
  8
0
 62
    18
420
        0
370
    25
100
AcDbLine
 10
93.52001341808396
 20
-37.37649476060104
 30
0.0
 11
94.5806735990846
 21
-37.98880084980134
 31
0.0
  0
SPLINE
  5
2A7
330
70
100
AcDbEntity
  8
0
 62
    18
420
        0
370
    25
100
AcDbSpline
210
0.0
220
0.0
230
1.0
 70
     8
 71
     3
 72
     8
 73
     4
 74
     0
 42
0.0000000001
 43
0.0000000001
 40
0.0
 40
0.0
 40
0.0
 40
0.0
 40
1.0
 40
1.0
 40
1.0
 40
1.0
 10
94.6985247486557
 20
-38.19292528142813
 30
0.0
 10
94.69474106336873
 20
-38.10977683961611
 30
0.0
 10
94.65079037127031
 20
-38.03365191356306
 30
0.0
 10
94.58067359914107
 20
-37.98880084984883
 30
0.0
  0
LINE
  5
2A8
330
70
100
AcDbEntity
  8
0
 62
    18
420
        0
370
    25
100
AcDbLine
 10
93.77210431068418
 20
-39.43795085940124
 30
0.0
 11
93.77102956598461
 21
-39.48557141690118
 31
0.0
  0
LINE
  5
2A9
330
70
100
AcDbEntity
  8
0
 62
    18
420
        0
370
    25
100
AcDbLine
 10
94.69852474858447
 20
-38.19292528140118
 30
0.0
 11
94.69852474858447
 21
-40.64254761160135
 31
0.0
  0
LINE
  5
2AA
330
70
100
AcDbEntity
  8
0
 62
    18
420
        0
370
    25
100
AcDbLine
 10
94.5806735990846
 20
-37.98880084980134
 30
0.0
 11
158.2202838004839
 21
-1.250435878601203
 31
0.0
  0
SPLINE
  5
2AB
330
70
100
AcDbEntity
  8
0
 62
    18
420
        0
370
    25
100
AcDbSpline
210
0.0
220
0.0
230
1.0
 70
     8
 71
     3
 72
     8
 73
     4
 74
     0
 42
0.0000000001
 43
0.0000000001
 40
0.0
 40
0.0
 40
0.0
 40
0.0
 40
1.0
 40
1.0
 40
1.0
 40
1.0
 10
158.3381349500557
 20
-1.454560310227994
 30
0.0
 10
158.3343512647687
 20
-1.371411868415969
 30
0.0
 10
158.2904005726703
 20
-1.295286942362922
 30
0.0
 10
158.2202838005404
 20
-1.25043587864933
 30
0.0
  0
LINE
  5
2AC
330
70
100
AcDbEntity
  8
0
 62
    18
420
        0
370
    25
100
AcDbLine
 10
158.3381349500839
 20
-1.454560310201043
 30
0.0
 11
94.69852474858447
 21
-38.19292528140118
 31
0.0
  0
LINE
  5
2AD
330
70
100
AcDbEntity
  8
0
 62
    18
420
        0
370
    25
100
AcDbLine
 10
158.3381349500839
 20
-1.454560310201043
 30
0.0
 11
158.3381349500839
 21
-3.904182640401221
 31
0.0
  0
LINE
  5
2AE
330
70
100
AcDbEntity
  8
0
 62
    18
420
        0
370
    25
100
AcDbLine
 10
94.69852474858447
 20
-40.64254761160135
 30
0.0
 11
158.3381349500839
 21
-3.904182640401221
 31
0.0
  0
LWPOLYLINE
  5
2AF
330
70
100
AcDbEntity
  8
0
 62
    18
420
        0
370
    25
100
AcDbPolyline
 90
       23
 70
     0
 43
0.0
 10
107.4853726051842
 20
-32.03604579570126
 10
107.4447952876841
 20
-32.38536948930117
 10
107.3263507346844
 20
-32.75324272360135
 10
107.1396345981839
 20
-33.10986221050086
 10
106.899773535684
 20
-33.42633615230124
 10
106.6261996453843
 20
-33.67702826100094
 10
106.3410762426841
 20
-33.84162649780114
 10
106.0675023522843
 20
-33.90679607950127
 10
105.8276412898838
 20
-33.86725982570086
 10
105.6409251532839
 20
-33.72621820140093
 10
105.5224806002842
 20
-33.49509813710122
 10
105.4819032828842
 20
-33.1926240169011
 10
105.5224806002842
 20
-32.8433003233012
 10
105.6409251532839
 20
-32.47542810300101
 10
105.8276412898838
 20
-32.11880861600075
 10
106.0675023522843
 20
-31.80233366030113
 10
106.3410762426841
 20
-31.55164256560077
 10
106.6261996453843
 20
-31.38704432880121
 10
106.899773535684
 20
-31.3218737331011
 10
107.1396345981839
 20
-31.36141100080075
 10
107.3263507346844
 20
-31.50245262520079
 10
107.4447952876841
 20
-31.73357167550115
 10
107.4853726051842
 20
-32.03604579570126
  0
LWPOLYLINE
  5
2B0
330
70
100
AcDbEntity
  8
0
 62
    18
420
        0
370
    25
100
AcDbPolyline
 90
       23
 70
     0
 43
0.0
 10
147.5547583913843
 20
-8.904481750401266
 10
147.5141780007843
 20
-9.253807218200837
 10
147.395734819784
 20
-9.621679660501298
 10
147.2090172563842
 20
-9.978299971101096
 10
146.9691595414844
 20
-10.29477198030097
 10
146.6955843477842
 20
-10.54546484140114
 10
146.410460917584
 20
-10.71006309410136
 10
146.1368857239839
 20
-10.77523342830077
 10
145.8970244968844
 20
-10.73569726950134
 10
145.7103104456843
 20
-10.59465444120075
 10
145.5918637523842
 20
-10.36353561250088
 10
145.551286873984
 20
-10.06106123890088
 10
145.5918637523842
 20
-9.711737798700866
 10
145.7103104456843
 20
-9.343864342900943
 10
145.8970244968844
 20
-8.987246059801236
 10
146.1368857239839
 20
-8.670771009101278
 10
146.410460917584
 20
-8.420079161900993
 10
146.6955843477842
 20
-8.255480909200768
 10
146.9691595414844
 20
-8.190309561100834
 10
147.2090172563842
 20
-8.229848761400992
 10
147.395734819784
 20
-8.370889562100744
 10
147.5141780007843
 20
-8.602009404400817
 10
147.5547583913843
 20
-8.904481750401266
  0
LINE
  5
2B1
330
70
100
AcDbEntity
  8
0
 62
    18
420
        0
370
    25
100
AcDbLine
 10
157.1596236194839
 20
-0.6381297894008974
 30
0.0
 11
93.52001341808396
 21
-37.37649476060104
 31
0.0
  0
LINE
  5
2B2
330
70
100
AcDbEntity
  8
0
 62
    18
420
        0
370
    25
100
AcDbLine
 10
158.2202838004839
 20
-1.250435878601203
 30
0.0
 11
157.1596236194839
 21
-0.6381297894008974
 31
0.0
  0
SPLINE
  5
2B3
330
70
100
AcDbEntity
  8
0
 62
    18
420
        0
370
    25
100
AcDbSpline
210
0.0
220
0.0
230
1.0
 70
     8
 71
     3
 72
    11
 73
     7
 74
     0
 42
0.0000000001
 43
0.0000000001
 40
0.0
 40
0.0
 40
0.0
 40
0.0
 40
1.0
 40
1.0
 40
1.0
 40
2.0
 40
2.0
 40
2.0
 40
2.0
 10
107.2496702512146
 20
-32.03604582732676
 30
0.0
 10
107.2960441740716
 20
-31.74024199175455
 30
0.0
 10
107.0938412781822
 20
-31.46285211132682
 30
0.0
 10
106.79803744261
 20
-31.41647818847043
 30
0.0
 10
106.6675564139929
 20
-31.39602234433422
 30
0.0
 10
106.5340956972143
 20
-31.42390125698189
 30
0.0
 10
106.4227146916295
 20
-31.49488021149097
 30
0.0
  0
LWPOLYLINE
  5
2B4
330
70
100
AcDbEntity
  8
0
 62
    18
420
        0
370
    25
100
AcDbPolyline
 90
       11
 70
     0
 43
0.0
 10
105.4837477562839
 20
-33.12139492620125
 10
105.525163675284
 20
-33.34698882990104
 10
105.650710027184
 20
-33.55904421730098
 10
105.8462531295844
 20
-33.67196535420133
 10
106.092651782984
 20
-33.67469911290078
 10
106.3657867944843
 20
-33.56697694120076
 10
106.638921806084
 20
-33.3593441410009
 10
106.8853204593842
 20
-33.07212455270125
 10
107.080863561884
 20
-32.73343415530108
 10
107.2064099136839
 20
-32.37642603550131
 10
107.2496702511844
 20
-32.0360458273011
  0
SPLINE
  5
2B5
330
70
100
AcDbEntity
  8
0
 62
    18
420
        0
370
    25
100
AcDbSpline
210
0.0
220
0.0
230
1.0
 70
     8
 71
     3
 72
     8
 73
     4
 74
     0
 42
0.0000000001
 43
0.0000000001
 40
0.0
 40
0.0
 40
0.0
 40
0.0
 40
1.0
 40
1.0
 40
1.0
 40
1.0
 10
105.6473393356474
 20
-32.47188638028895
 30
0.0
 10
105.7722206569545
 20
-32.311658426617
 30
0.0
 10
105.873590114891
 20
-32.13442413023114
 30
0.0
 10
105.9483803353687
 20
-31.9455464860528
 30
0.0
  0
LWPOLYLINE
  5
2B6
330
70
100
AcDbEntity
  8
0
 62
    18
420
        0
370
    25
100
AcDbPolyline
 90
        6
 70
     0
 43
0.0
 10
188.554295050784
 20
-18.76230906240099
 10
188.5461923191841
 20
-18.7966780629013
 10
188.5536646041843
 20
-18.81790546070075
 10
188.5761007765842
 20
-18.82297526060128
 10
188.6090315141843
 20
-18.81250826240107
 10
188.6258762046842
 20
-18.8036510581011
  0
SPLINE
  5
2B7
330
70
100
AcDbEntity
  8
0
 62
    18
420
        0
370
    25
100
AcDbSpline
210
0.0
220
0.0
230
1.0
 70
     8
 71
     3
 72
     8
 73
     4
 74
     0
 42
0.0000000001
 43
0.0000000001
 40
0.0
 40
0.0
 40
0.0
 40
0.0
 40
1.0
 40
1.0
 40
1.0
 40
1.0
 10
188.5542950508071
 20
-18.76230906240163
 30
0.0
 10
188.8088509766425
 20
-17.96560768659668
 30
0.0
 10
188.8088509766425
 20
-17.10938810800512
 30
0.0
 10
188.5542950508071
 20
-16.31268673220017
 30
0.0
  0
SPLINE
  5
2B8
330
70
100
AcDbEntity
  8
0
 62
    18
420
        0
370
    25
100
AcDbSpline
210
0.0
220
0.0
230
1.0
 70
     8
 71
     3
 72
     8
 73
     4
 74
     0
 42
0.0000000001
 43
0.0000000001
 40
0.0
 40
0.0
 40
0.0
 40
0.0
 40
1.0
 40
1.0
 40
1.0
 40
1.0
 10
188.6258762046162
 20
-16.08184891957524
 30
0.0
 10
188.556016206229
 20
-16.13620315548681
 30
0.0
 10
188.527444247484
 20
-16.22834316864512
 30
0.0
 10
188.5542950507764
 20
-16.31268673211418
 30
0.0
  0
LINE
  5
2B9
330
70
100
AcDbEntity
  8
0
 62
    18
420
        0
370
    25
100
AcDbLine
 10
189.6865367697841
 20
-15.46954260870129
 30
0.0
 11
188.6258762046842
 21
-16.08184891960091
 31
0.0
  0
LWPOLYLINE
  5
2BA
330
70
100
AcDbEntity
  8
0
 62
    18
420
        0
370
    25
100
AcDbPolyline
 90
        6
 70
     0
 43
0.0
 10
189.8506583539842
 20
-15.56431212680076
 10
189.827621589084
 20
-15.51196667750102
 10
189.7915456428843
 20
-15.47422268240106
 10
189.7478182874841
 20
-15.45686174430135
 10
189.7044526926844
 20
-15.46130888280079
 10
189.6865367697841
 20
-15.46954260870129
  0
SPLINE
  5
2BB
330
70
100
AcDbEntity
  8
0
 62
    18
420
        0
370
    25
100
AcDbSpline
210
0.0
220
0.0
230
1.0
 70
     8
 71
     3
 72
     8
 73
     4
 74
     0
 42
0.0000000001
 43
0.0000000001
 40
0.0
 40
0.0
 40
0.0
 40
0.0
 40
1.0
 40
1.0
 40
1.0
 40
1.0
 10
189.8506583540067
 20
-18.01393445700158
 30
0.0
 10
190.105214279842
 20
-17.21723308119663
 30
0.0
 10
190.105214279842
 20
-16.36101350260507
 30
0.0
 10
189.8506583540067
 20
-15.56431212680012
 30
0.0
  0
SPLINE
  5
2BC
330
70
100
AcDbEntity
  8
0
 62
    18
420
        0
370
    25
100
AcDbSpline
210
0.0
220
0.0
230
1.0
 70
     8
 71
     3
 72
     8
 73
     4
 74
     0
 42
0.0000000001
 43
0.0000000001
 40
0.0
 40
0.0
 40
0.0
 40
0.0
 40
1.0
 40
1.0
 40
1.0
 40
1.0
 10
189.6865367697744
 20
-18.19134474710779
 30
0.0
 10
189.7578642719306
 20
-18.15008842118703
 30
0.0
 10
189.8150689475448
 20
-18.08825195924377
 30
0.0
 10
189.8506583539951
 20
-18.01393445699259
 30
0.0
  0
LINE
  5
2BD
330
70
100
AcDbEntity
  8
0
 62
    18
420
        0
370
    25
100
AcDbLine
 10
189.6865367697841
 20
-18.19134474710137
 30
0.0
 11
188.6258762046842
 21
-18.8036510581011
 31
0.0
  0
LINE
  5
2BE
330
70
100
AcDbEntity
  8
0
 62
    18
420
        0
370
    25
100
AcDbLine
 10
188.554295050784
 20
-16.31268673210135
 30
0.0
 11
162.816477094984
 21
-1.454560690401307
 31
0.0
  0
LINE
  5
2BF
330
70
100
AcDbEntity
  8
0
 62
    18
420
        0
370
    25
100
AcDbLine
 10
162.816477094984
 20
-3.904183020600843
 30
0.0
 11
188.554295050784
 21
-18.76230906240099
 31
0.0
  0
LINE
  5
2C0
330
70
100
AcDbEntity
  8
0
 62
    18
420
        0
370
    25
100
AcDbLine
 10
162.816477094984
 20
-1.454560690401307
 30
0.0
 11
162.816477094984
 21
-3.904183020600843
 31
0.0
  0
SPLINE
  5
2C1
330
70
100
AcDbEntity
  8
0
 62
    18
420
        0
370
    25
100
AcDbSpline
210
0.0
220
0.0
230
1.0
 70
     8
 71
     3
 72
     8
 73
     4
 74
     0
 42
0.0000000001
 43
0.0000000001
 40
0.0
 40
0.0
 40
0.0
 40
0.0
 40
1.0
 40
1.0
 40
1.0
 40
1.0
 10
162.934330220168
 20
-1.250435118289871
 30
0.0
 10
162.864212287569
 20
-1.295285878671043
 30
0.0
 10
162.8202607421816
 20
-1.371411431855279
 30
0.0
 10
162.8164770950199
 20
-1.454560690377564
 30
0.0
  0
LINE
  5
2C2
330
70
100
AcDbEntity
  8
0
 62
    18
420
        0
370
    25
100
AcDbLine
 10
162.9343302201841
 20
-1.25043511830078
 30
0.0
 11
188.6258762046842
 21
-16.08184891960091
 31
0.0
  0
LINE
  5
2C3
330
70
100
AcDbEntity
  8
0
 62
    18
420
        0
370
    25
100
AcDbLine
 10
163.9949907852839
 20
-0.6381288073010519
 30
0.0
 11
162.9343302201841
 21
-1.25043511830078
 31
0.0
  0
LINE
  5
2C4
330
70
100
AcDbEntity
  8
0
 62
    18
420
        0
370
    25
100
AcDbLine
 10
189.6865367697841
 20
-15.46954260870129
 30
0.0
 11
163.9949907852839
 21
-0.6381288073010519
 31
0.0
  0
SPLINE
  5
2C5
330
70
100
AcDbEntity
  8
0
 62
    18
420
        0
370
    25
100
AcDbSpline
210
0.0
220
0.0
230
1.0
 70
     8
 71
     3
 72
    11
 73
     7
 74
     0
 42
0.0000000001
 43
0.0000000001
 40
0.0
 40
0.0
 40
0.0
 40
0.0
 40
1.0
 40
1.0
 40
1.0
 40
2.0
 40
2.0
 40
2.0
 40
2.0
 10
147.319054116776
 20
-8.904482890950081
 30
0.0
 10
147.3654286530685
 20
-8.608679443434455
 30
0.0
 10
147.163226569049
 20
-8.331289380301527
 30
0.0
 10
146.8674231215333
 20
-8.284914844009097
 30
0.0
 10
146.7369411620574
 20
-8.264458556511469
 30
0.0
 10
146.6034793995814
 20
-8.292337793714469
 30
0.0
 10
146.4920978266186
 20
-8.363317696864571
 30
0.0
  0
LWPOLYLINE
  5
2C6
330
70
100
AcDbEntity
  8
0
 62
    18
420
        0
370
    25
100
AcDbPolyline
 90
       11
 70
     0
 43
0.0
 10
145.5531327742842
 20
-9.989831324500736
 10
145.5945490773842
 20
-10.21542500650121
 10
145.7200940023842
 20
-10.42748121750133
 10
145.915637818284
 20
-10.54040194260095
 10
146.1620353191845
 20
-10.54313636650102
 10
146.4351714831839
 20
-10.43541352960102
 10
146.708307647184
 20
-10.22778006410107
 10
146.9547051480838
 20
-9.940561141100872
 10
147.1502489639842
 20
-9.601870331801139
 10
147.2757938889842
 20
-9.244863035701026
 10
147.3190541167844
 20
-8.904482890901311
  0
SPLINE
  5
2C7
330
70
100
AcDbEntity
  8
0
 62
    18
420
        0
370
    25
100
AcDbSpline
210
0.0
220
0.0
230
1.0
 70
     8
 71
     3
 72
     8
 73
     4
 74
     0
 42
0.0000000001
 43
0.0000000001
 40
0.0
 40
0.0
 40
0.0
 40
0.0
 40
1.0
 40
1.0
 40
1.0
 40
1.0
 10
145.7167246280889
 20
-9.340322620090704
 30
0.0
 10
145.8416057454641
 20
-9.180094571865685
 30
0.0
 10
145.9429751524369
 20
-9.002860321300984
 30
0.0
 10
146.0177655180515
 20
-8.813982789217837
 30
0.0
  0
SPLINE
  5
2C8
330
70
100
AcDbEntity
  8
0
 62
    18
420
        0
370
    25
100
AcDbSpline
210
0.0
220
0.0
230
1.0
 70
     8
 71
     3
 72
     8
 73
     4
 74
     0
 42
0.0000000001
 43
0.0000000001
 40
0.0
 40
0.0
 40
0.0
 40
0.0
 40
1.0
 40
1.0
 40
1.0
 40
1.0
 10
162.9343302201706
 20
-1.25043511825522
 30
0.0
 10
161.4562909400377
 20
-0.4846102929208753
 30
0.0
 10
159.6983228336301
 20
-0.4846105764690716
 30
0.0
 10
158.220283800541
 20
-1.250435878597353
 30
0.0
  0
SPLINE
  5
2C9
330
70
100
AcDbEntity
  8
0
 62
    18
420
        0
370
    25
100
AcDbSpline
210
0.0
220
0.0
230
1.0
 70
     8
 71
     3
 72
     8
 73
     4
 74
     0
 42
0.0000000001
 43
0.0000000001
 40
0.0
 40
0.0
 40
0.0
 40
0.0
 40
1.0
 40
1.0
 40
1.0
 40
1.0
 10
162.8164770950282
 20
-1.454560690360238
 30
0.0
 10
161.4123410979993
 20
-0.7270249135826728
 30
0.0
 10
159.7422710706091
 20
-0.7270247718095372
 30
0.0
 10
158.3381349500589
 20
-1.454560310192701
 30
0.0
  0
SPLINE
  5
2CA
330
70
100
AcDbEntity
  8
0
 62
    18
420
        0
370
    25
100
AcDbSpline
210
0.0
220
0.0
230
1.0
 70
     8
 71
     3
 72
     8
 73
     4
 74
     0
 42
0.0000000001
 43
0.0000000001
 40
0.0
 40
0.0
 40
0.0
 40
0.0
 40
1.0
 40
1.0
 40
1.0
 40
1.0
 10
162.8893514107655
 20
-0.1608337924206417
 30
0.0
 10
161.4768597451997
 20
0.2673688009883695
 30
0.0
 10
159.9733058919055
 20
0.2955791109803983
 30
0.0
 10
158.5457457708827
 20
-0.0793372359019766
 30
0.0
  0
SPLINE
  5
2CB
330
70
100
AcDbEntity
  8
0
 62
    18
420
        0
370
    25
100
AcDbSpline
210
0.0
220
0.0
230
1.0
 70
     8
 71
     3
 72
     8
 73
     4
 74
     0
 42
0.0000000001
 43
0.0000000001
 40
0.0
 40
0.0
 40
0.0
 40
0.0
 40
1.0
 40
1.0
 40
1.0
 40
1.0
 10
162.8164770950282
 20
-3.904183020560416
 30
0.0
 10
161.4123410979993
 20
-3.176647243782209
 30
0.0
 10
159.7422710706091
 20
-3.176647102009715
 30
0.0
 10
158.3381349500589
 20
-3.904182640392879
 30
0.0
  0
SPLINE
  5
2CC
330
70
100
AcDbEntity
  8
0
 62
    18
420
        0
370
    25
100
AcDbSpline
210
0.0
220
0.0
230
1.0
 70
     8
 71
     3
 72
     8
 73
     4
 74
     0
 42
0.0000000001
 43
0.0000000001
 40
0.0
 40
0.0
 40
0.0
 40
0.0
 40
1.0
 40
1.0
 40
1.0
 40
1.0
 10
162.8500433280775
 20
-3.92526235401204
 30
0.0
 10
161.5088239575964
 20
-3.274112452303468
 30
0.0
 10
159.9534075141343
 20
-3.226546367679489
 30
0.0
 10
158.5749060667872
 20
-3.794524671764169
 30
0.0
  0
SPLINE
  5
2CD
330
70
100
AcDbEntity
  8
0
 62
    18
420
        0
370
    25
100
AcDbSpline
210
0.0
220
0.0
230
1.0
 70
     8
 71
     3
 72
     8
 73
     4
 74
     0
 42
0.0000000001
 43
0.0000000001
 40
0.0
 40
0.0
 40
0.0
 40
0.0
 40
1.0
 40
1.0
 40
1.0
 40
1.0
 10
139.0061438949553
 20
-5.397127643799597
 30
0.0
 10
139.1504252436839
 20
-5.471471517120064
 30
0.0
 10
139.3212928918552
 20
-5.473529106365199
 30
0.0
 10
139.4673226413354
 20
-5.402681161031256
 30
0.0
  0
SPLINE
  5
2CE
330
70
100
AcDbEntity
  8
0
 62
    18
420
        0
370
    25
100
AcDbSpline
210
0.0
220
0.0
230
1.0
 70
     8
 71
     3
 72
     8
 73
     4
 74
     0
 42
0.0000000001
 43
0.0000000001
 40
0.0
 40
0.0
 40
0.0
 40
0.0
 40
1.0
 40
1.0
 40
1.0
 40
1.0
 10
139.2418466329523
 20
-4.988879034142267
 30
0.0
 10
139.1016139481534
 20
-5.078581924149829
 30
0.0
 10
139.0137127132998
 20
-5.230831139450481
 30
0.0
 10
139.0061438948924
 20
-5.397127643772004
 30
0.0
  0
SPLINE
  5
2CF
330
70
100
AcDbEntity
  8
0
 62
    18
420
        0
370
    25
100
AcDbSpline
210
0.0
220
0.0
230
1.0
 70
     8
 71
     3
 72
     8
 73
     4
 74
     0
 42
0.0000000001
 43
0.0000000001
 40
0.0
 40
0.0
 40
0.0
 40
0.0
 40
1.0
 40
1.0
 40
1.0
 40
1.0
 10
139.4673226413149
 20
-5.40268116094591
 30
0.0
 10
139.4606341837759
 20
-5.237180322074485
 30
0.0
 10
139.3772895352821
 20
-5.084223060385843
 30
0.0
 10
139.2418466329947
 20
-4.988879034085155
 30
0.0
  0
LWPOLYLINE
  5
2D0
330
70
100
AcDbEntity
  8
0
 62
    18
420
        0
370
    25
100
AcDbPolyline
 90
       18
 70
     0
 43
0.0
 10
144.8983228035839
 20
-7.642880608000806
 10
144.902659607284
 20
-7.563413505301344
 10
144.9188864457843
 20
-7.479704766201025
 10
144.9464546280839
 20
-7.394600036401238
 10
144.9844251519844
 20
-7.310999417700831
 10
145.0315023585841
 20
-7.23175117290078
 10
145.0860812377842
 20
-7.159553313901336
 10
145.1463095781841
 20
-7.096863762501128
 10
145.2101324465842
 20
-7.045816529300767
 10
145.2753757680841
 20
-7.008152361500988
 10
145.339819808584
 20
-6.985152684301326
 10
145.4012659075839
 20
-6.977601076901273
 10
145.4576280704841
 20
-6.98575403560115
 10
145.5069828531842
 20
-7.009333278001142
 10
145.5476513241842
 20
-7.047536571200942
 10
145.578245792884
 20
-7.099064717300999
 10
145.5977243594839
 20
-7.162161164800815
 10
145.6054275055842
 20
-7.234677752500796
  0
LWPOLYLINE
  5
2D1
330
70
100
AcDbEntity
  8
0
 62
    18
420
        0
370
    25
100
AcDbPolyline
 90
        6
 70
     0
 43
0.0
 10
139.4704276237839
 20
-5.401033854001296
 10
140.3395350154844
 20
-6.473030488700918
 10
141.2816775176844
 20
-7.442879658200874
 10
142.3739546399839
 20
-8.263767777601005
 10
143.0416677887844
 20
-8.558349816501008
 10
143.2940945252843
 20
-8.586174576801381
  0
LWPOLYLINE
  5
2D2
330
70
100
AcDbEntity
  8
0
 62
    18
420
        0
370
    25
100
AcDbPolyline
 90
        3
 70
     0
 43
0.0
 10
139.4685501407844
 20
-5.396246223700955
 10
139.4698244243844
 20
-5.400137486101058
 10
139.4704276237839
 20
-5.401033854001296
  0
LWPOLYLINE
  5
2D3
330
70
100
AcDbEntity
  8
0
 62
    18
420
        0
370
    25
100
AcDbPolyline
 90
        6
 70
     0
 43
0.0
 10
147.2097861207843
 20
-6.325693934401302
 10
147.4545778294839
 20
-6.011223219201148
 10
148.0928885848839
 20
-4.962938267401127
 10
149.1218825983841
 20
-2.917267210201136
 10
149.999401524284
 20
-0.8938702496008927
 10
150.8010544764841
 20
1.14586927639915
  0
LINE
  5
2D4
330
70
100
AcDbEntity
  8
0
 62
    18
420
        0
370
    25
100
AcDbLine
 10
139.4704276237839
 20
-5.401033854001296
 30
0.0
 11
139.4673226412841
 21
-5.402681161001096
 31
0.0
  0
SPLINE
  5
2D5
330
70
100
AcDbEntity
  8
0
 62
    18
420
        0
370
    25
100
AcDbSpline
210
0.0
220
0.0
230
1.0
 70
     8
 71
     3
 72
     8
 73
     4
 74
     0
 42
0.0000000001
 43
0.0000000001
 40
0.0
 40
0.0
 40
0.0
 40
0.0
 40
1.0
 40
1.0
 40
1.0
 40
1.0
 10
139.472287161356
 20
-5.388354490431452
 30
0.0
 10
139.4636310226464
 20
-5.226049701935382
 30
0.0
 10
139.378013095721
 20
-5.077628499018657
 30
0.0
 10
139.241846632944
 20
-4.988879034112748
 30
0.0
  0
LWPOLYLINE
  5
2D6
330
70
100
AcDbEntity
  8
0
 62
    18
420
        0
370
    25
100
AcDbPolyline
 90
        3
 70
     0
 43
0.0
 10
139.4722871613842
 20
-5.388354490500756
 10
139.4731017808843
 20
-5.392247981200774
 10
139.4737384836839
 20
-5.393495252701114
  0
LINE
  5
2D7
330
70
100
AcDbEntity
  8
0
 62
    18
420
        0
370
    25
100
AcDbLine
 10
139.4737384836839
 20
-5.393495252701114
 30
0.0
 11
139.4685501407844
 21
-5.396246223700955
 31
0.0
  0
LWPOLYLINE
  5
2D8
330
70
100
AcDbEntity
  8
0
 62
    18
420
        0
370
    25
100
AcDbPolyline
 90
        6
 70
     0
 43
0.0
 10
145.1354489169839
 20
-2.118890350200978
 10
144.6640322181838
 20
-2.391035669501213
 10
142.7781629204843
 20
-3.479769249101233
 10
141.127766583684
 20
-4.43259136110112
 10
139.4772482240844
 20
-5.385490054301148
 10
139.4722871613842
 20
-5.388354490500756
  0
LWPOLYLINE
  5
2D9
330
70
100
AcDbEntity
  8
0
 62
    18
420
        0
370
    25
100
AcDbPolyline
 90
        4
 70
     0
 43
0.0
 10
139.2418466329844
 20
-4.988879034101199
 10
141.9271835303842
 20
-3.43970065840093
 10
143.413703535884
 20
-2.581912593500859
 10
144.9000243316839
 20
-1.72400952730122
  0
SPLINE
  5
2DA
330
70
100
AcDbEntity
  8
0
 62
    18
420
        0
370
    25
100
AcDbSpline
210
0.0
220
0.0
230
1.0
 70
     8
 71
     3
 72
     8
 73
     4
 74
     0
 42
0.0000000001
 43
0.0000000001
 40
0.0
 40
0.0
 40
0.0
 40
0.0
 40
1.0
 40
1.0
 40
1.0
 40
1.0
 10
145.1354489170262
 20
-2.11889035017916
 30
0.0
 10
145.1232334420446
 20
-1.957630019045328
 30
0.0
 10
145.0360760460165
 20
-1.811439746594525
 30
0.0
 10
144.9000243317032
 20
-1.724009527226141
 30
0.0
  0
SPLINE
  5
2DB
330
70
100
AcDbEntity
  8
0
 62
    18
420
        0
370
    25
100
AcDbSpline
210
0.0
220
0.0
230
1.0
 70
     8
 71
     3
 72
     8
 73
     4
 74
     0
 42
0.0000000001
 43
0.0000000001
 40
0.0
 40
0.0
 40
0.0
 40
0.0
 40
1.0
 40
1.0
 40
1.0
 40
1.0
 10
139.0061438949155
 20
-18.46178125442713
 30
0.0
 10
139.1484875832638
 20
-18.54172541824898
 30
0.0
 10
139.3211744069885
 20
-18.54602580647703
 30
0.0
 10
139.4673208577368
 20
-18.47326585955892
 30
0.0
  0
LINE
  5
2DC
330
70
100
AcDbEntity
  8
0
 62
    18
420
        0
370
    25
100
AcDbLine
 10
144.0517668294844
 20
-8.148779831401162
 30
0.0
 11
144.0989502263841
 21
-8.065850203700932
 31
0.0
  0
SPLINE
  5
2DD
330
70
100
AcDbEntity
  8
0
 62
    18
420
        0
370
    25
100
AcDbSpline
210
0.0
220
0.0
230
1.0
 70
     8
 71
     3
 72
     8
 73
     4
 74
     0
 42
0.0000000001
 43
0.0000000001
 40
0.0
 40
0.0
 40
0.0
 40
0.0
 40
1.0
 40
1.0
 40
1.0
 40
1.0
 10
139.4776626408614
 20
-18.4620636110473
 30
0.0
 10
140.6024605745502
 20
-16.62325733000459
 30
0.0
 10
141.714547609632
 20
-14.7767059136334
 30
0.0
 10
142.8138442064856
 20
-12.92254143253235
 30
0.0
  0
SPLINE
  5
2DE
330
70
100
AcDbEntity
  8
0
 62
    18
420
        0
370
    25
100
AcDbSpline
210
0.0
220
0.0
230
1.0
 70
     8
 71
     3
 72
     8
 73
     4
 74
     0
 42
0.0000000001
 43
0.0000000001
 40
0.0
 40
0.0
 40
0.0
 40
0.0
 40
1.0
 40
1.0
 40
1.0
 40
1.0
 10
139.4673208577772
 20
-18.47326585955764
 30
0.0
 10
139.4716389907657
 20
-18.47044154101131
 30
0.0
 10
139.4751917003067
 20
-18.46659323605994
 30
0.0
 10
139.4776626407305
 20
-18.4620636112212
 30
0.0
  0
SPLINE
  5
2DF
330
70
100
AcDbEntity
  8
0
 62
    18
420
        0
370
    25
100
AcDbSpline
210
0.0
220
0.0
230
1.0
 70
     8
 71
     3
 72
     8
 73
     4
 74
     0
 42
0.0000000001
 43
0.0000000001
 40
0.0
 40
0.0
 40
0.0
 40
0.0
 40
1.0
 40
1.0
 40
1.0
 40
1.0
 10
138.1855914561521
 20
-4.379115899742095
 30
0.0
 10
138.0453587713538
 20
-4.468818789749658
 30
0.0
 10
137.9574575364996
 20
-4.62106800505031
 30
0.0
 10
137.9498887180922
 20
-4.787364509371833
 30
0.0
  0
LINE
  5
2E0
330
70
100
AcDbEntity
  8
0
 62
    18
420
        0
370
    25
100
AcDbLine
 10
138.1855914561842
 20
-4.379115899701027
 30
0.0
 11
139.2418466329844
 21
-4.988879034101199
 31
0.0
  0
LINE
  5
2E1
330
70
100
AcDbEntity
  8
0
 62
    18
420
        0
370
    25
100
AcDbLine
 10
139.0061438948841
 20
-5.397127643800881
 30
0.0
 11
137.9498887180839
 21
-4.787364509401351
 31
0.0
  0
LWPOLYLINE
  5
2E2
330
70
100
AcDbEntity
  8
0
 62
    18
420
        0
370
    25
100
AcDbPolyline
 90
        3
 70
     0
 43
0.0
 10
145.1357591737844
 20
-2.126448482600924
 10
145.1355854826842
 20
-2.122215857500749
 10
145.1354489169839
 20
-2.118890350200978
  0
LWPOLYLINE
  5
2E3
330
70
100
AcDbEntity
  8
0
 62
    18
420
        0
370
    25
100
AcDbPolyline
 90
        4
 70
     0
 43
0.0
 10
145.1357591737844
 20
-2.126448482600924
 10
143.6625025564838
 20
-2.976808206701032
 10
142.1890479093838
 20
-3.827049555501284
 10
139.4737384836839
 20
-5.393495252701114
  0
LINE
  5
2E4
330
70
100
AcDbEntity
  8
0
 62
    18
420
        0
370
    25
100
AcDbLine
 10
137.9498887180839
 20
-4.787364509401351
 30
0.0
 11
137.9498887180839
 21
-11.67131845570097
 31
0.0
  0
LINE
  5
2E5
330
70
100
AcDbEntity
  8
0
 62
    18
420
        0
370
    25
100
AcDbLine
 10
137.9498887180839
 20
-15.73044325790093
 30
0.0
 11
137.9498887180839
 21
-17.8520181201014
 31
0.0
  0
LINE
  5
2E6
330
70
100
AcDbEntity
  8
0
 62
    18
420
        0
370
    25
100
AcDbLine
 10
137.9498887180839
 20
-17.8520181201014
 30
0.0
 11
139.0061438948841
 21
-18.46178125450093
 31
0.0
  0
LINE
  5
2E7
330
70
100
AcDbEntity
  8
0
 62
    18
420
        0
370
    25
100
AcDbLine
 10
149.4993018095842
 20
2.152150065399058
 30
0.0
 11
138.1855914561842
 21
-4.379115899701027
 31
0.0
  0
LINE
  5
2E8
330
70
100
AcDbEntity
  8
0
 62
    18
420
        0
370
    25
100
AcDbLine
 10
150.5555569863844
 20
1.542386930998887
 30
0.0
 11
149.4993018095842
 21
2.152150065399058
 31
0.0
  0
LWPOLYLINE
  5
2E9
330
70
100
AcDbEntity
  8
0
 62
    18
420
        0
370
    25
100
AcDbPolyline
 90
        4
 70
     0
 43
0.0
 10
144.9000243316839
 20
-1.72400952730122
 10
147.5841195982842
 20
-0.1741062630009389
 10
149.0698879301841
 20
0.6841116786986403
 10
150.5555569863844
 20
1.542386930998887
  0
LWPOLYLINE
  5
2EA
330
70
100
AcDbEntity
  8
0
 62
    18
420
        0
370
    25
100
AcDbPolyline
 90
        5
 70
     0
 43
0.0
 10
150.7911341893841
 20
1.14587728939901
 10
150.3198975750839
 20
0.8738591902990526
 10
148.4348804339841
 20
-0.2142530118010512
 10
146.7852779725843
 20
-1.16648854230117
 10
145.1354489169839
 20
-2.118890350200978
  0
SPLINE
  5
2EB
330
70
100
AcDbEntity
  8
0
 62
    18
420
        0
370
    25
100
AcDbSpline
210
0.0
220
0.0
230
1.0
 70
     8
 71
     3
 72
     8
 73
     4
 74
     0
 42
0.0000000001
 43
0.0000000001
 40
0.0
 40
0.0
 40
0.0
 40
0.0
 40
1.0
 40
1.0
 40
1.0
 40
1.0
 10
150.7911341893995
 20
1.145877289456121
 30
0.0
 10
150.7794651847693
 20
1.307781053414194
 30
0.0
 10
150.6921679542933
 20
1.454714598439187
 30
0.0
 10
150.5555569863863
 20
1.542386931021988
 30
0.0
  0
LINE
  5
2EC
330
70
100
AcDbEntity
  8
0
 62
    18
420
        0
370
    25
100
AcDbLine
 10
150.791348847484
 20
1.140020493098877
 30
0.0
 11
150.7911341893841
 21
1.14587728939901
 31
0.0
  0
LWPOLYLINE
  5
2ED
330
70
100
AcDbEntity
  8
0
 62
    18
420
        0
370
    25
100
AcDbPolyline
 90
        4
 70
     0
 43
0.0
 10
150.791348847484
 20
1.140020493098877
 10
149.3237040995844
 20
0.292142912398859
 10
147.8510109767844
 20
-0.5585380551009653
 10
145.1357591737844
 20
-2.126448482600924
  0
LINE
  5
2EE
330
70
100
AcDbEntity
  8
0
 62
    18
420
        0
370
    25
100
AcDbLine
 10
150.7915591426842
 20
-11.9306901848013
 30
0.0
 11
150.8010597722839
 21
-11.92471494690097
 31
0.0
  0
LWPOLYLINE
  5
2EF
330
70
100
AcDbEntity
  8
0
 62
    18
420
        0
370
    25
100
AcDbPolyline
 90
        4
 70
     0
 43
0.0
 10
147.6622912185844
 20
-10.12359254970123
 10
147.9191875652841
 20
-10.27194892020083
 10
148.6180288232843
 20
-10.67551496130118
 10
150.7915591426842
 20
-11.9306901848013
  0
LINE
  5
2F0
330
70
100
AcDbEntity
  8
0
 62
    18
420
        0
370
    25
100
AcDbLine
 10
146.4166159626841
 20
-6.727890253401126
 30
0.0
 11
146.5023637259839
 21
-6.780176574300934
 31
0.0
  0
SPLINE
  5
2F1
330
70
100
AcDbEntity
  8
0
 62
    18
420
        0
370
    25
100
AcDbSpline
210
0.0
220
0.0
230
1.0
 70
     8
 71
     3
 72
     8
 73
     4
 74
     0
 42
0.0000000001
 43
0.0000000001
 40
0.0
 40
0.0
 40
0.0
 40
0.0
 40
1.0
 40
1.0
 40
1.0
 40
1.0
 10
150.796091685075
 20
-11.93903854424172
 30
0.0
 10
150.7963671138328
 20
-11.93560377471047
 30
0.0
 10
150.7945897171766
 20
-11.93233003892622
 30
0.0
 10
150.7915591427413
 20
-11.93069018486996
 30
0.0
  0
LWPOLYLINE
  5
2F2
330
70
100
AcDbEntity
  8
0
 62
    18
420
        0
370
    25
100
AcDbPolyline
 90
        7
 70
     0
 43
0.0
 10
139.4772482240844
 20
-18.4732718764012
 10
139.9488188576843
 20
-18.20145167150137
 10
141.8350332875839
 20
-17.11402405950117
 10
145.6067531967839
 20
-14.93785512320123
 10
147.0430558908839
 20
-14.10828714270108
 10
150.7911341893841
 20
-11.94190453270104
 10
150.796091685084
 20
-11.93903854420129
  0
LWPOLYLINE
  5
2F3
330
70
100
AcDbEntity
  8
0
 62
    18
420
        0
370
    25
100
AcDbPolyline
 90
        3
 70
     0
 43
0.0
 10
139.4776626406843
 20
-18.46206361130077
 10
139.4776620369841
 20
-18.46207948600133
 10
139.4772482240844
 20
-18.4732718764012
  0
LWPOLYLINE
  5
2F4
330
70
100
AcDbEntity
  8
0
 62
    18
420
        0
370
    25
100
AcDbPolyline
 90
        3
 70
     0
 43
0.0
 10
145.2580295959843
 20
-7.034061844301249
 10
145.258051862984
 20
-6.8696991239011
 10
145.2577848643844
 20
-6.740396083001115
  0
SPLINE
  5
2F5
330
70
100
AcDbEntity
  8
0
 62
    18
420
        0
370
    25
100
AcDbSpline
210
0.0
220
0.0
230
1.0
 70
     8
 71
     3
 72
     8
 73
     4
 74
     0
 42
0.0000000001
 43
0.0000000001
 40
0.0
 40
0.0
 40
0.0
 40
0.0
 40
1.0
 40
1.0
 40
1.0
 40
1.0
 10
145.2580295959875
 20
-7.034061844293549
 30
0.0
 10
145.0715399469659
 20
-7.152747606483314
 30
0.0
 10
144.9450586474367
 20
-7.345863292626413
 30
0.0
 10
144.9107863346382
 20
-7.564243941755488
 30
0.0
  0
SPLINE
  5
2F6
330
70
100
AcDbEntity
  8
0
 62
    18
420
        0
370
    25
100
AcDbSpline
210
0.0
220
0.0
230
1.0
 70
     8
 71
     3
 72
     8
 73
     4
 74
     0
 42
0.0000000001
 43
0.0000000001
 40
0.0
 40
0.0
 40
0.0
 40
0.0
 40
1.0
 40
1.0
 40
1.0
 40
1.0
 10
145.2577848506225
 20
-6.740396075085757
 30
0.0
 10
144.7548585239523
 20
-7.064806626557231
 30
0.0
 10
144.3532955336343
 20
-7.52410712747039
 30
0.0
 10
144.0989502263418
 20
-8.06585020368168
 30
0.0
  0
LWPOLYLINE
  5
2F7
330
70
100
AcDbEntity
  8
0
 62
    18
420
        0
370
    25
100
AcDbPolyline
 90
        3
 70
     0
 43
0.0
 10
144.9107863346844
 20
-7.564243941700944
 10
144.7340470376844
 20
-7.73680984810112
 10
144.7042527279842
 20
-7.772107739800824
  0
SPLINE
  5
2F8
330
70
100
AcDbEntity
  8
0
 62
    18
420
        0
370
    25
100
AcDbSpline
210
0.0
220
0.0
230
1.0
 70
     8
 71
     3
 72
    11
 73
     7
 74
     0
 42
0.0000000001
 43
0.0000000001
 40
0.0
 40
0.0
 40
0.0
 40
0.0
 40
1.0
 40
1.0
 40
1.0
 40
2.0
 40
2.0
 40
2.0
 40
2.0
 10
145.6047798544205
 20
-7.163610010443137
 30
0.0
 10
145.5857948559685
 20
-7.04739934810235
 30
0.0
 10
145.4761971183667
 20
-6.968582374712748
 30
0.0
 10
145.3599864560259
 20
-6.987567373164686
 30
0.0
 10
145.3224631464561
 20
-6.993697447288477
 30
0.0
 10
145.2872616648322
 20
-7.009750062756744
 30
0.0
 10
145.2580295959529
 20
-7.034061844239005
 30
0.0
  0
LWPOLYLINE
  5
2F9
330
70
100
AcDbEntity
  8
0
 62
    18
420
        0
370
    25
100
AcDbPolyline
 90
        3
 70
     0
 43
0.0
 10
145.604779854484
 20
-7.16361001050089
 10
145.5615090899843
 20
-7.057870175900833
 10
145.5077648336842
 20
-7.009166103300854
  0
SPLINE
  5
2FA
330
70
100
AcDbEntity
  8
0
 62
    18
420
        0
370
    25
100
AcDbSpline
210
0.0
220
0.0
230
1.0
 70
     8
 71
     3
 72
     8
 73
     4
 74
     0
 42
0.0000000001
 43
0.0000000001
 40
0.0
 40
0.0
 40
0.0
 40
0.0
 40
1.0
 40
1.0
 40
1.0
 40
1.0
 10
145.1779905354792
 20
-7.092962073897596
 30
0.0
 10
145.1864674147472
 20
-7.102906167088689
 30
0.0
 10
145.1965660169761
 20
-7.111344007476488
 30
0.0
 10
145.2078586021241
 20
-7.117918198848188
 30
0.0
  0
SPLINE
  5
2FB
330
70
100
AcDbEntity
  8
0
 62
    18
420
        0
370
    25
100
AcDbSpline
210
0.0
220
0.0
230
1.0
 70
     8
 71
     3
 72
     8
 73
     4
 74
     0
 42
0.0000000001
 43
0.0000000001
 40
0.0
 40
0.0
 40
0.0
 40
0.0
 40
1.0
 40
1.0
 40
1.0
 40
1.0
 10
146.4166159627239
 20
-6.727890253371608
 30
0.0
 10
146.0667014390266
 20
-6.486122381149352
 30
0.0
 10
145.602400288646
 20
-6.491133005514593
 30
0.0
 10
145.2577848506796
 20
-6.74039607507934
 30
0.0
  0
LWPOLYLINE
  5
2FC
330
70
100
AcDbEntity
  8
0
 62
    18
420
        0
370
    25
100
AcDbPolyline
 90
        3
 70
     0
 43
0.0
 10
145.8311295043843
 20
-7.134404125801089
 10
145.691472409584
 20
-7.144230397201381
 10
145.604779854484
 20
-7.16361001050089
  0
SPLINE
  5
2FD
330
70
100
AcDbEntity
  8
0
 62
    18
420
        0
370
    25
100
AcDbSpline
210
0.0
220
0.0
230
1.0
 70
     8
 71
     3
 72
     8
 73
     4
 74
     0
 42
0.0000000001
 43
0.0000000001
 40
0.0
 40
0.0
 40
0.0
 40
0.0
 40
1.0
 40
1.0
 40
1.0
 40
1.0
 10
139.0061438948931
 20
-18.46178125451312
 30
0.0
 10
139.1511362629147
 20
-18.54501444091951
 30
0.0
 10
139.3283704313271
 20
-18.54933732800078
 30
0.0
 10
139.4772482240965
 20
-18.47327187642173
 30
0.0
  0
SPLINE
  5
2FE
330
70
100
AcDbEntity
  8
0
 62
    18
420
        0
370
    25
100
AcDbSpline
210
0.0
220
0.0
230
1.0
 70
     8
 71
     3
 72
     8
 73
     4
 74
     0
 42
0.0000000001
 43
0.0000000001
 40
0.0
 40
0.0
 40
0.0
 40
0.0
 40
1.0
 40
1.0
 40
1.0
 40
1.0
 10
150.7911341893828
 20
1.145877289397085
 30
0.0
 10
150.8466676365711
 20
1.169405329109254
 30
0.0
 10
150.8843382735937
 20
1.222062493548864
 30
0.0
 10
150.8886719573229
 20
1.282218553880811
 30
0.0
  0
LWPOLYLINE
  5
2FF
330
70
100
AcDbEntity
  8
0
 62
    18
420
        0
370
    25
100
AcDbPolyline
 90
        4
 70
     0
 43
0.0
 10
150.8857811390841
 20
1.274506190198644
 10
150.8881109597844
 20
1.261472821798627
 10
150.8618448571841
 20
1.199700392999133
 10
150.8010544764841
 20
1.14586927639915
  0
LINE
  5
300
330
70
100
AcDbEntity
  8
0
 62
    18
420
        0
370
    25
100
AcDbLine
 10
150.8010544764841
 20
1.14586927639915
 30
0.0
 11
150.791348847484
 21
1.140020493098877
 31
0.0
  0
LWPOLYLINE
  5
301
330
70
100
AcDbEntity
  8
0
 62
    18
420
        0
370
    25
100
AcDbPolyline
 90
        4
 70
     0
 43
0.0
 10
150.724021369784
 20
-12.07849815320117
 10
150.7370145078843
 20
-12.07368151260104
 10
150.7791492281843
 20
-12.01901878870092
 10
150.796091685084
 20
-11.93903854420129
  0
SPLINE
  5
302
330
70
100
AcDbEntity
  8
0
 62
    18
420
        0
370
    25
100
AcDbSpline
210
0.0
220
0.0
230
1.0
 70
     8
 71
     3
 72
     8
 73
     4
 74
     0
 42
0.0000000001
 43
0.0000000001
 40
0.0
 40
0.0
 40
0.0
 40
0.0
 40
1.0
 40
1.0
 40
1.0
 40
1.0
 10
137.9498887180909
 20
-17.85201812013156
 30
0.0
 10
137.9433071398912
 20
-17.91168239630295
 30
0.0
 10
137.969778466083
 20
-17.97018876073588
 30
0.0
 10
138.0189393049015
 20
-18.00463226446854
 30
0.0
  0
SPLINE
  5
303
330
70
100
AcDbEntity
  8
0
 62
    18
420
        0
370
    25
100
AcDbSpline
210
0.0
220
0.0
230
1.0
 70
     8
 71
     3
 72
     8
 73
     4
 74
     0
 42
0.0000000001
 43
0.0000000001
 40
0.0
 40
0.0
 40
0.0
 40
0.0
 40
1.0
 40
1.0
 40
1.0
 40
1.0
 10
149.6659539608437
 20
2.168652188865232
 30
0.0
 10
149.6114371104314
 20
2.193275349654813
 30
0.0
 10
149.5479308527432
 20
2.186986873338518
 30
0.0
 10
149.4993018095938
 20
2.152150065383657
 30
0.0
  0
LINE
  5
304
330
70
100
AcDbEntity
  8
0
 62
    18
420
        0
370
    25
100
AcDbLine
 10
114.5421619164844
 20
-63.17250542440123
 30
0.0
 11
114.547375832784
 21
-63.16961821800083
 31
0.0
  0
LINE
  5
305
330
70
100
AcDbEntity
  8
0
 62
    18
420
        0
370
    25
100
AcDbLine
 10
119.2562078970839
 20
-61.81116202150089
 30
0.0
 11
119.2614218133842
 21
-61.80827481520124
 31
0.0
  0
SPLINE
  5
306
330
70
100
AcDbEntity
  8
0
 62
    18
420
        0
370
    25
100
AcDbSpline
210
0.0
220
0.0
230
1.0
 70
     8
 71
     3
 72
     8
 73
     4
 74
     0
 42
0.0000000001
 43
0.0000000001
 40
0.0
 40
0.0
 40
0.0
 40
0.0
 40
1.0
 40
1.0
 40
1.0
 40
1.0
 10
99.39793751356477
 20
-28.53424482602768
 30
0.0
 10
99.39125133901971
 20
-28.36874346887583
 30
0.0
 10
99.30790678262445
 20
-28.21578520167303
 30
0.0
 10
99.17246282233376
 20
-28.120441938828
 30
0.0
  0
SPLINE
  5
307
330
70
100
AcDbEntity
  8
0
 62
    18
420
        0
370
    25
100
AcDbSpline
210
0.0
220
0.0
230
1.0
 70
     8
 71
     3
 72
     8
 73
     4
 74
     0
 42
0.0000000001
 43
0.0000000001
 40
0.0
 40
0.0
 40
0.0
 40
0.0
 40
1.0
 40
1.0
 40
1.0
 40
1.0
 10
98.93676052328203
 20
-28.52869029506426
 30
0.0
 10
99.08104120988888
 20
-28.60303400932743
 30
0.0
 10
99.25190811188867
 20
-28.60509197303155
 30
0.0
 10
99.39793751354295
 20
-28.53424482608158
 30
0.0
  0
SPLINE
  5
308
330
70
100
AcDbEntity
  8
0
 62
    18
420
        0
370
    25
100
AcDbSpline
210
0.0
220
0.0
230
1.0
 70
     8
 71
     3
 72
     8
 73
     4
 74
     0
 42
0.0000000001
 43
0.0000000001
 40
0.0
 40
0.0
 40
0.0
 40
0.0
 40
1.0
 40
1.0
 40
1.0
 40
1.0
 10
99.17246282230873
 20
-28.12044193884212
 30
0.0
 10
99.03222917096606
 20
-28.21014372628367
 30
0.0
 10
98.94432772471823
 20
-28.36239349679516
 30
0.0
 10
98.93676052327817
 20
-28.52869029502512
 30
0.0
  0
LWPOLYLINE
  5
309
330
70
100
AcDbEntity
  8
0
 62
    18
420
        0
370
    25
100
AcDbPolyline
 90
        4
 70
     0
 43
0.0
 10
99.17246282228434
 20
-28.12044193890115
 10
102.9227206836844
 20
-25.95677941860119
 10
106.6718488119841
 20
-23.79246484410087
 10
110.4861714196839
 20
-21.58917698750138
  0
SPLINE
  5
30A
330
70
100
AcDbEntity
  8
0
 62
    18
420
        0
370
    25
100
AcDbSpline
210
0.0
220
0.0
230
1.0
 70
     8
 71
     3
 72
     8
 73
     4
 74
     0
 42
0.0000000001
 43
0.0000000001
 40
0.0
 40
0.0
 40
0.0
 40
0.0
 40
1.0
 40
1.0
 40
1.0
 40
1.0
 10
110.7217503787284
 20
-21.98568561530533
 30
0.0
 10
110.7100819160695
 20
-21.8237815001627
 30
0.0
 10
110.622783725946
 20
-21.67684781091905
 30
0.0
 10
110.4861714195966
 20
-21.58917698752448
 30
0.0
  0
LWPOLYLINE
  5
30B
330
70
100
AcDbEntity
  8
0
 62
    18
420
        0
370
    25
100
AcDbPolyline
 90
        7
 70
     0
 43
0.0
 10
110.7217503787842
 20
-21.98568561530084
 10
110.2505144503845
 20
-22.2577030967013
 10
108.3654927543843
 20
-23.34581799200136
 10
104.5947397531842
 20
-25.52254587300096
 10
103.1581110795843
 20
-26.35192338840091
 10
99.40786265738388
 20
-28.51705397280078
 10
99.40290335068418
 20
-28.51991739520125
  0
SPLINE
  5
30C
330
70
100
AcDbEntity
  8
0
 62
    18
420
        0
370
    25
100
AcDbSpline
210
0.0
220
0.0
230
1.0
 70
     8
 71
     3
 72
     8
 73
     4
 74
     0
 42
0.0000000001
 43
0.0000000001
 40
0.0
 40
0.0
 40
0.0
 40
0.0
 40
1.0
 40
1.0
 40
1.0
 40
1.0
 10
99.40290335071882
 20
-28.51991739517494
 30
0.0
 10
99.39423897767966
 20
-28.35761504838927
 30
0.0
 10
99.30862304896985
 20
-28.20919730943968
 30
0.0
 10
99.17246282230744
 20
-28.12044193885623
 30
0.0
  0
SPLINE
  5
30D
330
70
100
AcDbEntity
  8
0
 62
    18
420
        0
370
    25
100
AcDbSpline
210
0.0
220
0.0
230
1.0
 70
     8
 71
     3
 72
     8
 73
     4
 74
     0
 42
0.0000000001
 43
0.0000000001
 40
0.0
 40
0.0
 40
0.0
 40
0.0
 40
1.0
 40
1.0
 40
1.0
 40
1.0
 10
99.40290335069573
 20
-28.51991739518841
 30
0.0
 10
99.40295661537817
 20
-28.52362171944849
 30
0.0
 10
99.40501511225269
 20
-28.52700562990122
 30
0.0
 10
99.40828014708886
 20
-28.52875617349382
 30
0.0
  0
LWPOLYLINE
  5
30E
330
70
100
AcDbEntity
  8
0
 62
    18
420
        0
370
    25
100
AcDbPolyline
 90
        3
 70
     0
 43
0.0
 10
99.40828014708436
 20
-28.52875617350088
 10
99.40826549448424
 20
-28.52876393530123
 10
99.39793751358402
 20
-28.53424482610083
  0
SPLINE
  5
30F
330
70
100
AcDbEntity
  8
0
 62
    18
420
        0
370
    25
100
AcDbSpline
210
0.0
220
0.0
230
1.0
 70
     8
 71
     3
 72
     8
 73
     4
 74
     0
 42
0.0000000001
 43
0.0000000001
 40
0.0
 40
0.0
 40
0.0
 40
0.0
 40
1.0
 40
1.0
 40
1.0
 40
1.0
 10
98.93676052331411
 20
-41.59334390573864
 30
0.0
 10
99.07910335964515
 20
-41.67329181385513
 30
0.0
 10
99.25179222238075
 20
-41.6775921538627
 30
0.0
 10
99.3979379251653
 20
-41.60482825742433
 30
0.0
  0
SPLINE
  5
310
330
70
100
AcDbEntity
  8
0
 62
    18
420
        0
370
    25
100
AcDbSpline
210
0.0
220
0.0
230
1.0
 70
     8
 71
     3
 72
     8
 73
     4
 74
     0
 42
0.0000000001
 43
0.0000000001
 40
0.0
 40
0.0
 40
0.0
 40
0.0
 40
1.0
 40
1.0
 40
1.0
 40
1.0
 10
99.39793792513322
 20
-41.60482825738776
 30
0.0
 10
99.40225608122094
 20
-41.60200372415075
 30
0.0
 10
99.40580890500617
 20
-41.59815537175151
 30
0.0
 10
99.40828014711646
 20
-41.59362575560458
 30
0.0
  0
LWPOLYLINE
  5
311
330
70
100
AcDbEntity
  8
0
 62
    18
420
        0
370
    25
100
AcDbPolyline
 90
        6
 70
     0
 43
0.0
 10
104.077794250484
 20
-31.22526296750135
 10
103.8765068837841
 20
-31.1090247921012
 10
103.2046086572841
 20
-30.72102128160077
 10
102.4769063843843
 20
-30.30079385550085
 10
101.7414554846838
 20
-29.87609275760104
 10
99.40828014708436
 20
-28.52875617350088
  0
SPLINE
  5
312
330
70
100
AcDbEntity
  8
0
 62
    18
420
        0
370
    25
100
AcDbSpline
210
0.0
220
0.0
230
1.0
 70
     8
 71
     3
 72
     8
 73
     4
 74
     0
 42
0.0000000001
 43
0.0000000001
 40
0.0
 40
0.0
 40
0.0
 40
0.0
 40
1.0
 40
1.0
 40
1.0
 40
1.0
 10
99.40828014718704
 20
-41.59362575551539
 30
0.0
 10
100.5330779086187
 20
-39.75481980150433
 30
0.0
 10
101.6451645786579
 20
-37.90826859497578
 30
0.0
 10
102.7444606152806
 20
-36.05410421054477
 30
0.0
  0
LWPOLYLINE
  5
313
330
70
100
AcDbEntity
  8
0
 62
    18
420
        0
370
    25
100
AcDbPolyline
 90
       11
 70
     0
 43
0.0
 10
104.8347884733844
 20
-30.77782256360122
 10
104.8548185024841
 20
-30.63123434170095
 10
104.9124489259843
 20
-30.47816136520116
 10
105.001185795384
 20
-30.33586321260091
 10
105.1110219025839
 20
-30.22038035300092
 10
105.2295754617841
 20
-30.14473424910098
 10
105.3434817410843
 20
-30.11745420860087
 10
105.439895373584
 20
-30.14161263700134
 10
105.5079496099843
 20
-30.21449022030093
 10
105.5399701567841
 20
-30.32786671050119
 10
105.5418951646844
 20
-30.36961844870074
  0
LINE
  5
314
330
70
100
AcDbEntity
  8
0
 62
    18
420
        0
370
    25
100
AcDbLine
 10
110.722175771084
 20
-21.9973832539013
 30
0.0
 11
110.7217503787842
 21
-21.98568561530084
 31
0.0
  0
SPLINE
  5
315
330
70
100
AcDbEntity
  8
0
 62
    18
420
        0
370
    25
100
AcDbSpline
210
0.0
220
0.0
230
1.0
 70
     8
 71
     3
 72
     8
 73
     4
 74
     0
 42
0.0000000001
 43
0.0000000001
 40
0.0
 40
0.0
 40
0.0
 40
0.0
 40
1.0
 40
1.0
 40
1.0
 40
1.0
 10
106.29788015432
 20
-29.9436346556251
 30
0.0
 10
107.8022290908847
 20
-27.31146430017443
 30
0.0
 10
109.2770865685986
 20
-24.66254810772855
 30
0.0
 10
110.7221757712926
 20
-21.99738325366965
 30
0.0
  0
SPLINE
  5
316
330
70
100
AcDbEntity
  8
0
 62
    18
420
        0
370
    25
100
AcDbSpline
210
0.0
220
0.0
230
1.0
 70
     8
 71
     3
 72
     8
 73
     4
 74
     0
 42
0.0000000001
 43
0.0000000001
 40
0.0
 40
0.0
 40
0.0
 40
0.0
 40
1.0
 40
1.0
 40
1.0
 40
1.0
 10
98.11620764550852
 20
-27.51067880444259
 30
0.0
 10
97.97597399416519
 20
-27.6003805918835
 30
0.0
 10
97.88807254791866
 20
-27.75263036239564
 30
0.0
 10
97.8805053464786
 20
-27.91892716062559
 30
0.0
  0
LINE
  5
317
330
70
100
AcDbEntity
  8
0
 62
    18
420
        0
370
    25
100
AcDbLine
 10
98.11620764548413
 20
-27.51067880450098
 30
0.0
 11
99.17246282228434
 21
-28.12044193890115
 31
0.0
  0
LINE
  5
318
330
70
100
AcDbEntity
  8
0
 62
    18
420
        0
370
    25
100
AcDbLine
 10
98.93676052328459
 20
-28.52869029500137
 30
0.0
 11
97.88050534648373
 21
-27.91892716070131
 31
0.0
  0
LINE
  5
319
330
70
100
AcDbEntity
  8
0
 62
    18
420
        0
370
    25
100
AcDbLine
 10
97.88050534648373
 20
-27.91892716070131
 30
0.0
 11
97.88050534648373
 21
-34.80288110690082
 31
0.0
  0
LINE
  5
31A
330
70
100
AcDbEntity
  8
0
 62
    18
420
        0
370
    25
100
AcDbLine
 10
97.88050534648373
 20
-38.86200590920088
 30
0.0
 11
97.88050534648373
 21
-40.98358077140136
 31
0.0
  0
LINE
  5
31B
330
70
100
AcDbEntity
  8
0
 62
    18
420
        0
370
    25
100
AcDbLine
 10
97.88050534648373
 20
-40.98358077140136
 30
0.0
 11
98.93676052328459
 21
-41.59334390580088
 31
0.0
  0
LINE
  5
31C
330
70
100
AcDbEntity
  8
0
 62
    18
420
        0
370
    25
100
AcDbLine
 10
109.4299162428843
 20
-20.97941385310121
 30
0.0
 11
98.11620764548413
 21
-27.51067880450098
 31
0.0
  0
LINE
  5
31D
330
70
100
AcDbEntity
  8
0
 62
    18
420
        0
370
    25
100
AcDbLine
 10
110.4861714196839
 20
-21.58917698750138
 30
0.0
 11
109.4299162428843
 21
-20.97941385310121
 31
0.0
  0
SPLINE
  5
31E
330
70
100
AcDbEntity
  8
0
 62
    18
420
        0
370
    25
100
AcDbSpline
210
0.0
220
0.0
230
1.0
 70
     8
 71
     3
 72
     8
 73
     4
 74
     0
 42
0.0000000001
 43
0.0000000001
 40
0.0
 40
0.0
 40
0.0
 40
0.0
 40
1.0
 40
1.0
 40
1.0
 40
1.0
 10
110.7316715438389
 20
-21.9856931214053
 30
0.0
 10
110.7276414805665
 20
-21.98879961273593
 30
0.0
 10
110.7243903388148
 20
-21.99280205455377
 30
0.0
 10
110.7221757710635
 20
-21.99738325396419
 30
0.0
  0
LINE
  5
31F
330
70
100
AcDbEntity
  8
0
 62
    18
420
        0
370
    25
100
AcDbLine
 10
110.722175771084
 20
-35.06225283610126
 30
0.0
 11
110.731675522584
 21
-35.05627810500135
 31
0.0
  0
LWPOLYLINE
  5
320
330
70
100
AcDbEntity
  8
0
 62
    18
420
        0
370
    25
100
AcDbPolyline
 90
        4
 70
     0
 43
0.0
 10
107.5929054323843
 20
-33.25515659490113
 10
107.8498016418843
 20
-33.4035090839012
 10
108.5486435583839
 20
-33.80707575880129
 10
110.722175771084
 20
-35.06225283610126
  0
LWPOLYLINE
  5
321
330
70
100
AcDbEntity
  8
0
 62
    18
420
        0
370
    25
100
AcDbPolyline
 90
        5
 70
     0
 43
0.0
 10
99.40786265738388
 20
-41.60483579490082
 10
99.87943611718424
 20
-41.33301418030113
 10
101.7656515897844
 20
-40.24558995840082
 10
103.4159710963842
 20
-39.29376963670121
 10
105.0660642282842
 20
-38.34152027670125
  0
LWPOLYLINE
  5
322
330
70
100
AcDbEntity
  8
0
 62
    18
420
        0
370
    25
100
AcDbPolyline
 90
        3
 70
     0
 43
0.0
 10
99.40828014708436
 20
-41.59362575570084
 10
99.40827954348428
 20
-41.59364163040076
 10
99.40786265738388
 20
-41.60483579490082
  0
SPLINE
  5
323
330
70
100
AcDbEntity
  8
0
 62
    18
420
        0
370
    25
100
AcDbSpline
210
0.0
220
0.0
230
1.0
 70
     8
 71
     3
 72
     8
 73
     4
 74
     0
 42
0.0000000001
 43
0.0000000001
 40
0.0
 40
0.0
 40
0.0
 40
0.0
 40
1.0
 40
1.0
 40
1.0
 40
1.0
 10
105.1086606980501
 20
-30.22458710403092
 30
0.0
 10
105.117271713929
 20
-30.2343560051827
 30
0.0
 10
105.1273254278534
 20
-30.2427512113815
 30
0.0
 10
105.1384735018348
 20
-30.24948184810373
 30
0.0
  0
SPLINE
  5
324
330
70
100
AcDbEntity
  8
0
 62
    18
420
        0
370
    25
100
AcDbSpline
210
0.0
220
0.0
230
1.0
 70
     8
 71
     3
 72
     8
 73
     4
 74
     0
 42
0.0000000001
 43
0.0000000001
 40
0.0
 40
0.0
 40
0.0
 40
0.0
 40
1.0
 40
1.0
 40
1.0
 40
1.0
 10
98.93676052327046
 20
-41.59334390573735
 30
0.0
 10
99.08175202602508
 20
-41.67657699599861
 30
0.0
 10
99.25898530722705
 20
-41.68090035832797
 30
0.0
 10
99.40786265732612
 20
-41.60483579487772
 30
0.0
  0
SPLINE
  5
325
330
70
100
AcDbEntity
  8
0
 62
    18
420
        0
370
    25
100
AcDbSpline
210
0.0
220
0.0
230
1.0
 70
     8
 71
     3
 72
     8
 73
     4
 74
     0
 42
0.0000000001
 43
0.0000000001
 40
0.0
 40
0.0
 40
0.0
 40
0.0
 40
1.0
 40
1.0
 40
1.0
 40
1.0
 10
110.7217503788008
 20
-21.98568561528223
 30
0.0
 10
110.7772799674618
 20
-21.96215275797794
 30
0.0
 10
110.8149486574848
 20
-21.90949831511294
 30
0.0
 10
110.8192881467409
 20
-21.8493443507985
 30
0.0
  0
LWPOLYLINE
  5
326
330
70
100
AcDbEntity
  8
0
 62
    18
420
        0
370
    25
100
AcDbPolyline
 90
        4
 70
     0
 43
0.0
 10
110.7316715438844
 20
-21.98569312140081
 10
110.7924597294841
 20
-21.93186327200113
 10
110.8187262710841
 20
-21.87009058980111
 10
110.8156634353842
 20
-21.85294643150082
  0
SPLINE
  5
327
330
70
100
AcDbEntity
  8
0
 62
    18
420
        0
370
    25
100
AcDbSpline
210
0.0
220
0.0
230
1.0
 70
     8
 71
     3
 72
     8
 73
     4
 74
     0
 42
0.0000000001
 43
0.0000000001
 40
0.0
 40
0.0
 40
0.0
 40
0.0
 40
1.0
 40
1.0
 40
1.0
 40
1.0
 10
97.88050534655239
 20
-40.98358077140007
 30
0.0
 10
97.87436287725638
 20
-41.04317440881437
 30
0.0
 10
97.90073734058049
 20
-41.10146809131676
 30
0.0
 10
97.94955461627377
 20
-41.13619567607663
 30
0.0
  0
SPLINE
  5
328
330
70
100
AcDbEntity
  8
0
 62
    18
420
        0
370
    25
100
AcDbSpline
210
0.0
220
0.0
230
1.0
 70
     8
 71
     3
 72
     8
 73
     4
 74
     0
 42
0.0000000001
 43
0.0000000001
 40
0.0
 40
0.0
 40
0.0
 40
0.0
 40
1.0
 40
1.0
 40
1.0
 40
1.0
 10
109.5965692722005
 20
-20.96291122276916
 30
0.0
 10
109.5420521923731
 20
-20.93828725390081
 30
0.0
 10
109.4785451786518
 20
-20.94457596511103
 30
0.0
 10
109.4299162428914
 20
-20.97941385314356
 30
0.0
  0
SPLINE
  5
329
330
70
100
AcDbEntity
  8
0
 62
    18
420
        0
370
    25
100
AcDbSpline
210
0.0
220
0.0
230
1.0
 70
     8
 71
     3
 72
     8
 73
     4
 74
     0
 42
0.0000000001
 43
0.0000000001
 40
0.0
 40
0.0
 40
0.0
 40
0.0
 40
1.0
 40
1.0
 40
1.0
 40
1.0
 10
110.7267061182417
 20
-35.0706024627253
 30
0.0
 10
110.7269835520735
 20
-35.06716751288818
 30
0.0
 10
110.7252067144386
 20
-35.06389272396286
 30
0.0
 10
110.7221757710565
 20
-35.06225283612116
 30
0.0
  0
LWPOLYLINE
  5
32A
330
70
100
AcDbEntity
  8
0
 62
    18
420
        0
370
    25
100
AcDbPolyline
 90
        6
 70
     0
 43
0.0
 10
105.0660642282842
 20
-38.34152027670125
 10
105.5374575487844
 20
-38.06936355240121
 10
107.4228246513841
 20
-36.98033999840103
 10
109.0723505021843
 20
-36.0270168863008
 10
110.7217503787842
 20
-35.07346743740089
 10
110.7267061182841
 20
-35.07060246270092
  0
LWPOLYLINE
  5
32B
330
70
100
AcDbEntity
  8
0
 62
    18
420
        0
370
    25
100
AcDbPolyline
 90
        4
 70
     0
 43
0.0
 10
110.7267061182841
 20
-35.07060246270092
 10
110.7097667345843
 20
-35.15058093310099
 10
110.667629819184
 20
-35.20524492420078
 10
110.6549126935841
 20
-35.20995930550099
  0
SPLINE
  5
32C
330
70
100
AcDbEntity
  8
0
 62
     8
420
  8421504
370
    25
100
AcDbSpline
210
0.0
220
0.0
230
1.0
 70
     8
 71
     3
 72
     8
 73
     4
 74
     0
 42
0.0000000001
 43
0.0000000001
 40
0.0
 40
0.0
 40
0.0
 40
0.0
 40
1.0
 40
1.0
 40
1.0
 40
1.0
 10
94.66400011380848
 20
-40.70191010003081
 30
0.0
 10
94.63674178173597
 20
-40.6895981494469
 30
0.0
 10
94.60498850078352
 20
-40.69274230607013
 30
0.0
 10
94.58067403818386
 20
-40.71016090828379
 30
0.0
  0
SPLINE
  5
32D
330
70
100
AcDbEntity
  8
0
 62
     8
420
  8421504
370
    25
100
AcDbSpline
210
0.0
220
0.0
230
1.0
 70
     8
 71
     3
 72
     8
 73
     4
 74
     0
 42
0.0000000001
 43
0.0000000001
 40
0.0
 40
0.0
 40
0.0
 40
0.0
 40
1.0
 40
1.0
 40
1.0
 40
1.0
 10
93.40216298205076
 20
-43.97621360086723
 30
0.0
 10
93.39886970546617
 20
-44.00604601042243
 30
0.0
 10
93.4121050837
 20
-44.03530043969819
 30
0.0
 10
93.43668651933786
 20
-44.05252168682235
 30
0.0
  0
LINE
  5
32E
330
70
100
AcDbEntity
  8
0
 62
     8
420
  8421504
370
    25
100
AcDbLine
 10
93.402162981984
 20
-41.52659127070107
 30
0.0
 11
93.07170534788443
 21
-41.31604723450083
 31
0.0
  0
SPLINE
  5
32F
330
70
100
AcDbEntity
  8
0
 62
     8
420
  8421504
370
    25
100
AcDbSpline
210
0.0
220
0.0
230
1.0
 70
     8
 71
     3
 72
     8
 73
     4
 74
     0
 42
0.0000000001
 43
0.0000000001
 40
0.0
 40
0.0
 40
0.0
 40
0.0
 40
1.0
 40
1.0
 40
1.0
 40
1.0
 10
93.520013418143
 20
-37.37649476065815
 30
0.0
 10
93.49570363189814
 20
-37.35908052446272
 30
0.0
 10
93.46395866999298
 20
-37.35593301244976
 30
0.0
 10
93.43670257135975
 20
-37.36823449271856
 30
0.0
  0
LINE
  5
330
330
70
100
AcDbEntity
  8
0
 62
     8
420
  8421504
370
    25
100
AcDbLine
 10
92.99712364578409
 20
-43.71187847350107
 30
0.0
 11
93.402162981984
 21
-43.97621360090124
 31
0.0
  0
SPLINE
  5
331
330
70
100
AcDbEntity
  8
0
 62
     8
420
  8421504
370
    25
100
AcDbSpline
210
0.0
220
0.0
230
1.0
 70
     8
 71
     3
 72
     8
 73
     4
 74
     0
 42
0.0000000001
 43
0.0000000001
 40
0.0
 40
0.0
 40
0.0
 40
0.0
 40
1.0
 40
1.0
 40
1.0
 40
1.0
 10
94.69852474858832
 20
-38.19292528145381
 30
0.0
 10
94.19708830497189
 20
-38.42215300726982
 30
0.0
 10
93.84762495947397
 20
-38.89180024934389
 30
0.0
 10
93.77210431060719
 20
-39.43795085939995
 30
0.0
  0
SPLINE
  5
332
330
70
100
AcDbEntity
  8
0
 62
     8
420
  8421504
370
    25
100
AcDbSpline
210
0.0
220
0.0
230
1.0
 70
     8
 71
     3
 72
     8
 73
     4
 74
     0
 42
0.0000000001
 43
0.0000000001
 40
0.0
 40
0.0
 40
0.0
 40
0.0
 40
1.0
 40
1.0
 40
1.0
 40
1.0
 10
94.67645384899833
 20
-40.70909931117422
 30
0.0
 10
94.69242956134916
 20
-40.69076804908021
 30
0.0
 10
94.70038070656871
 20
-40.66679248689669
 30
0.0
 10
94.69852474866852
 20
-40.64254761165782
 30
0.0
  0
SPLINE
  5
333
330
70
100
AcDbEntity
  8
0
 62
     8
420
  8421504
370
    25
100
AcDbSpline
210
0.0
220
0.0
230
1.0
 70
     8
 71
     3
 72
     8
 73
     4
 74
     0
 42
0.0000000001
 43
0.0000000001
 40
0.0
 40
0.0
 40
0.0
 40
0.0
 40
1.0
 40
1.0
 40
1.0
 40
1.0
 10
157.1596236195038
 20
-0.6381297894567252
 30
0.0
 10
157.1353090109844
 20
-0.6207111399896271
 30
0.0
 10
157.1035556153244
 20
-0.6175668844914881
 30
0.0
 10
157.0762970636907
 20
-0.6298787039968165
 30
0.0
  0
SPLINE
  5
334
330
70
100
AcDbEntity
  8
0
 62
     8
420
  8421504
370
    25
100
AcDbSpline
210
0.0
220
0.0
230
1.0
 70
     8
 71
     3
 72
     8
 73
     4
 74
     0
 42
0.0000000001
 43
0.0000000001
 40
0.0
 40
0.0
 40
0.0
 40
0.0
 40
1.0
 40
1.0
 40
1.0
 40
1.0
 10
158.3036103152117
 20
-3.980490092730513
 30
0.0
 10
158.3284093285138
 20
-3.963450304643414
 30
0.0
 10
158.3417072627265
 20
-3.934058785074444
 30
0.0
 10
158.3381349500724
 20
-3.904182640391596
 30
0.0
  0
SPLINE
  5
335
330
70
100
AcDbEntity
  8
0
 62
     8
420
  8421504
370
    25
100
AcDbSpline
210
0.0
220
0.0
230
1.0
 70
     8
 71
     3
 72
     8
 73
     4
 74
     0
 42
0.0000000001
 43
0.0000000001
 40
0.0
 40
0.0
 40
0.0
 40
0.0
 40
1.0
 40
1.0
 40
1.0
 40
1.0
 10
164.0783151048401
 20
-0.6298790128388637
 30
0.0
 10
164.0510574089377
 20
-0.6175675985010254
 30
0.0
 10
164.0193050770087
 20
-0.6207113410942558
 30
0.0
 10
163.994990785334
 20
-0.6381288073068272
 30
0.0
  0
SPLINE
  5
336
330
70
100
AcDbEntity
  8
0
 62
     8
420
  8421504
370
    25
100
AcDbSpline
210
0.0
220
0.0
230
1.0
 70
     8
 71
     3
 72
     8
 73
     4
 74
     0
 42
0.0000000001
 43
0.0000000001
 40
0.0
 40
0.0
 40
0.0
 40
0.0
 40
1.0
 40
1.0
 40
1.0
 40
1.0
 10
162.8164770950244
 20
-3.904183020614319
 30
0.0
 10
162.8126702473391
 20
-3.934094910462599
 30
0.0
 10
162.8260213902172
 20
-3.96360332364706
 30
0.0
 10
162.85100238843
 20
-3.980490092783132
 30
0.0
  0
LWPOLYLINE
  5
337
330
70
100
AcDbEntity
  8
0
 62
     8
420
  8421504
370
    25
100
AcDbPolyline
 90
        3
 70
     0
 43
0.0
 10
163.9949907852839
 20
-0.6381288073010519
 10
163.4182673592844
 20
-0.3537781280011776
 10
162.8893514107841
 20
-0.160833792400749
  0
SPLINE
  5
338
330
70
100
AcDbEntity
  8
0
 62
     8
420
  8421504
370
    25
100
AcDbSpline
210
0.0
220
0.0
230
1.0
 70
     8
 71
     3
 72
     8
 73
     4
 74
     0
 42
0.0000000001
 43
0.0000000001
 40
0.0
 40
0.0
 40
0.0
 40
0.0
 40
1.0
 40
1.0
 40
1.0
 40
1.0
 10
158.5457457708519
 20
-0.0793372359334199
 30
0.0
 10
158.0618494568818
 20
-0.2059805497572925
 30
0.0
 10
157.5960589694968
 20
-0.3937563930413778
 30
0.0
 10
157.1596236195045
 20
-0.6381297894798264
 30
0.0
  0
LWPOLYLINE
  5
339
330
70
100
AcDbEntity
  8
0
 62
     8
420
  8421504
370
    25
100
AcDbPolyline
 90
        4
 70
     0
 43
0.0
 10
139.4673226412841
 20
-5.402681161001096
 10
139.4673016501842
 20
-5.947248651301287
 10
139.4672303627843
 20
-8.125419990101384
 10
139.4671858560841
 20
-10.79540225790124
  0
LWPOLYLINE
  5
33A
330
70
100
AcDbEntity
  8
0
 62
     8
420
  8421504
370
    25
100
AcDbPolyline
 90
        3
 70
     0
 43
0.0
 10
139.4672055575838
 20
-14.8545151457008
 10
139.4673226412841
 20
-18.46754212460093
 10
139.4673208576842
 20
-18.47326585960128
  0
LINE
  5
33B
330
70
100
AcDbEntity
  8
0
 62
     8
420
  8421504
370
    25
100
AcDbLine
 10
139.0061438948841
 20
-18.46178125450093
 30
0.0
 11
139.0070233261841
 21
-15.12017215080132
 31
0.0
  0
LWPOLYLINE
  5
33C
330
70
100
AcDbEntity
  8
0
 62
     8
420
  8421504
370
    25
100
AcDbPolyline
 90
        3
 70
     0
 43
0.0
 10
139.0072898720844
 20
-11.06089399520129
 10
139.0072926160844
 20
-9.803756122600891
 10
139.0061438948841
 20
-5.397127643800881
  0
LINE
  5
33D
330
70
100
AcDbEntity
  8
0
 62
     8
420
  8421504
370
    25
100
AcDbLine
 10
144.1471773339844
 20
-8.093700161601336
 30
0.0
 11
144.0989502263841
 21
-8.065850203700932
 31
0.0
  0
LWPOLYLINE
  5
33E
330
70
100
AcDbEntity
  8
0
 62
     8
420
  8421504
370
    25
100
AcDbPolyline
 90
        4
 70
     0
 43
0.0
 10
150.8010597722839
 20
-11.92471494690097
 10
150.8014145905844
 20
-11.38034321210078
 10
150.8026814655842
 20
-9.202858523201246
 10
150.8028928582842
 20
-8.310562166601235
  0
LWPOLYLINE
  5
33F
330
70
100
AcDbEntity
  8
0
 62
     8
420
  8421504
370
    25
100
AcDbPolyline
 90
        4
 70
     0
 43
0.0
 10
150.8035903666842
 20
-4.25103502050118
 10
150.8033661048844
 20
-3.189171580601093
 10
150.8010597722839
 20
1.140146016698871
 10
150.8010544764841
 20
1.14586927639915
  0
LINE
  5
340
330
70
100
AcDbEntity
  8
0
 62
     8
420
  8421504
370
    25
100
AcDbLine
 10
146.3684883501843
 20
-6.811364607301287
 30
0.0
 11
146.4166159626841
 21
-6.727890253401126
 31
0.0
  0
LINE
  5
341
330
70
100
AcDbEntity
  8
0
 62
     8
420
  8421504
370
    25
100
AcDbLine
 10
145.6054275055842
 20
-7.234677752500796
 30
0.0
 11
145.2579768575843
 21
-7.034098762801183
 31
0.0
  0
SPLINE
  5
342
330
70
100
AcDbEntity
  8
0
 62
     8
420
  8421504
370
    25
100
AcDbSpline
210
0.0
220
0.0
230
1.0
 70
     8
 71
     3
 72
     8
 73
     4
 74
     0
 42
0.0000000001
 43
0.0000000001
 40
0.0
 40
0.0
 40
0.0
 40
0.0
 40
1.0
 40
1.0
 40
1.0
 40
1.0
 10
139.4084048318356
 20
-18.61445065605171
 30
0.0
 10
139.4542491984967
 20
-18.5824853322278
 30
0.0
 10
139.4802928204131
 20
-18.52907705816032
 30
0.0
 10
139.4772482240799
 20
-18.47327187636783
 30
0.0
  0
SPLINE
  5
343
330
70
100
AcDbEntity
  8
0
 62
     8
420
  8421504
370
    25
100
AcDbSpline
210
0.0
220
0.0
230
1.0
 70
     8
 71
     3
 72
     8
 73
     4
 74
     0
 42
0.0000000001
 43
0.0000000001
 40
0.0
 40
0.0
 40
0.0
 40
0.0
 40
1.0
 40
1.0
 40
1.0
 40
1.0
 10
139.0061438948912
 20
-18.46178125443098
 30
0.0
 10
138.9995623166914
 20
-18.52144553060302
 30
0.0
 10
139.0260336428832
 20
-18.57995189503595
 30
0.0
 10
139.0751944817018
 20
-18.61439539876861
 30
0.0
  0
SPLINE
  5
344
330
70
100
AcDbEntity
  8
0
 62
     8
420
  8421504
370
    25
100
AcDbSpline
210
0.0
220
0.0
230
1.0
 70
     8
 71
     3
 72
     8
 73
     4
 74
     0
 42
0.0000000001
 43
0.0000000001
 40
0.0
 40
0.0
 40
0.0
 40
0.0
 40
1.0
 40
1.0
 40
1.0
 40
1.0
 10
150.7222091376439
 20
1.55888905446506
 30
0.0
 10
150.6676922872316
 20
1.583512215255283
 30
0.0
 10
150.6041860295434
 20
1.577223738938346
 30
0.0
 10
150.555556986394
 20
1.542386930983486
 30
0.0
  0
LINE
  5
345
330
70
100
AcDbEntity
  8
0
 62
     8
420
  8421504
370
    25
100
AcDbLine
 10
145.8813406831844
 20
-9.095871370901084
 30
0.0
 11
145.8442616364839
 21
-9.074466092800873
 31
0.0
  0
SPLINE
  5
346
330
70
100
AcDbEntity
  8
0
 62
     8
420
  8421504
370
    25
100
AcDbSpline
210
0.0
220
0.0
230
1.0
 70
     8
 71
     3
 72
     8
 73
     4
 74
     0
 42
0.0000000001
 43
0.0000000001
 40
0.0
 40
0.0
 40
0.0
 40
0.0
 40
1.0
 40
1.0
 40
1.0
 40
1.0
 10
150.8010597722659
 20
-11.92471494691958
 30
0.0
 10
150.8508835137698
 20
-11.8994526829634
 30
0.0
 10
150.8841047534507
 20
-11.85022608207847
 30
0.0
 10
150.8888903746433
 20
-11.79456923140093
 30
0.0
  0
LINE
  5
347
330
70
100
AcDbEntity
  8
0
 62
     8
420
  8421504
370
    25
100
AcDbLine
 10
145.7167234892842
 20
-9.34032288660115
 30
0.0
 11
145.7127712892843
 21
-9.33804133010126
 31
0.0
  0
LINE
  5
348
330
70
100
AcDbEntity
  8
0
 62
     8
420
  8421504
370
    25
100
AcDbLine
 10
145.8323198921839
 20
-9.176597552800851
 30
0.0
 11
145.7986544109843
 21
-9.15716288420136
 31
0.0
  0
SPLINE
  5
349
330
70
100
AcDbEntity
  8
0
 62
     8
420
  8421504
370
    25
100
AcDbSpline
210
0.0
220
0.0
230
1.0
 70
     8
 71
     3
 72
     8
 73
     4
 74
     0
 42
0.0000000001
 43
0.0000000001
 40
0.0
 40
0.0
 40
0.0
 40
0.0
 40
1.0
 40
1.0
 40
1.0
 40
1.0
 10
150.7324057115727
 20
-12.0769977748388
 30
0.0
 10
150.7802415976164
 20
-12.04165094555326
 30
0.0
 10
150.8062475857341
 20
-11.98396658756264
 30
0.0
 10
150.801059772271
 20
-11.92471494686311
 30
0.0
  0
LWPOLYLINE
  5
34A
330
70
100
AcDbEntity
  8
0
 62
     8
420
  8421504
370
    25
100
AcDbPolyline
 90
        3
 70
     0
 43
0.0
 10
95.22885503118446
 20
-52.3116849153008
 10
95.33724179858433
 20
-52.21804203340132
 10
95.37530171988427
 20
-52.10758272710086
  0
LWPOLYLINE
  5
34B
330
70
100
AcDbEntity
  8
0
 62
     8
420
  8421504
370
    25
100
AcDbPolyline
 90
        7
 70
     0
 43
0.0
 10
94.37530144548409
 20
-52.10758298060086
 10
94.41336180578447
 20
-52.21804203340132
 10
94.52174857318434
 20
-52.3116849153008
 10
94.68395993928405
 20
-52.37425501080115
 10
94.87530136318396
 20
-52.39622678910091
 10
95.06664322608431
 20
-52.37425526420104
 10
95.22885503118446
 20
-52.3116849153008
  0
LWPOLYLINE
  5
34C
330
70
100
AcDbEntity
  8
0
 62
     8
420
  8421504
370
    25
100
AcDbPolyline
 90
        8
 70
     0
 43
0.0
 10
96.28951471828409
 20
-52.92419078330137
 10
96.26260219938455
 20
-52.75241488100131
 10
96.1859612285837
 20
-52.57571863360126
 10
96.0712603364842
 20
-52.42100156070099
 10
95.93596148928403
 20
-52.31181761530094
 10
95.80066220298462
 20
-52.26478858340128
 10
95.68596131088384
 20
-52.2870748251012
 10
95.68475310128464
 20
-52.28778064800074
  0
LWPOLYLINE
  5
34D
330
70
100
AcDbEntity
  8
0
 62
     8
420
  8421504
370
    25
100
AcDbPolyline
 90
        3
 70
     0
 43
0.0
 10
96.18605079068421
 20
-53.15304887090078
 10
96.26260219938455
 20
-53.06489212480115
 10
96.28951471828409
 20
-52.92419078330137
  0
LWPOLYLINE
  5
34E
330
70
100
AcDbEntity
  8
0
 62
     8
420
  8421504
370
    25
100
AcDbPolyline
 90
        7
 70
     0
 43
0.0
 10
163.582511213184
 20
-14.07677079740087
 10
163.5555986942845
 20
-13.90499489500134
 10
163.4789577234843
 20
-13.72829864770075
 10
163.3642568313841
 20
-13.57358157480113
 10
163.2289579841839
 20
-13.46439762930097
 10
163.093658697984
 20
-13.41736859740131
 10
162.9789780011838
 20
-13.43964419080128
  0
SPLINE
  5
34F
330
70
100
AcDbEntity
  8
0
 62
     8
420
  8421504
370
    25
100
AcDbSpline
210
0.0
220
0.0
230
1.0
 70
     8
 71
     3
 72
     8
 73
     4
 74
     0
 42
0.0000000001
 43
0.0000000001
 40
0.0
 40
0.0
 40
0.0
 40
0.0
 40
1.0
 40
1.0
 40
1.0
 40
1.0
 10
163.4789375281317
 20
-14.30569328111404
 30
0.0
 10
163.5540988419613
 20
-14.25521694178548
 30
0.0
 10
163.5942158666247
 20
-14.16654877361023
 30
0.0
 10
163.5825112131987
 20
-14.07677079737584
 30
0.0
  0
LWPOLYLINE
  5
350
330
70
100
AcDbEntity
  8
0
 62
     8
420
  8421504
370
    25
100
AcDbPolyline
 90
        7
 70
     0
 43
0.0
 10
164.643171778384
 20
-12.23965281430138
 10
164.4809573390842
 20
-12.30222468400074
 10
164.2896172322844
 20
-12.32419519510083
 10
164.0982758083839
 20
-12.30222341670097
 10
163.9360626861843
 20
-12.23965433500104
 10
163.8276776748843
 20
-12.14601043930114
 10
163.7896173145839
 20
-12.03555138650132
  0
LWPOLYLINE
  5
351
330
70
100
AcDbEntity
  8
0
 62
     8
420
  8421504
370
    25
100
AcDbPolyline
 90
        3
 70
     0
 43
0.0
 10
164.7896158328842
 20
-12.0355521469012
 10
164.7515576676842
 20
-12.14601043930114
 10
164.643171778384
 20
-12.23965281430138
  0
LWPOLYLINE
  5
352
330
70
100
AcDbEntity
  8
0
 62
     8
420
  8421504
370
    25
100
AcDbPolyline
 90
        3
 70
     0
 43
0.0
 10
99.94290013378446
 20
-55.03304522720112
 10
100.0512869010842
 20
-54.939402345301
 10
100.0893472613846
 20
-54.82894329250118
  0
LWPOLYLINE
  5
353
330
70
100
AcDbEntity
  8
0
 62
     8
420
  8421504
370
    25
100
AcDbPolyline
 90
        7
 70
     0
 43
0.0
 10
99.089346547984
 20
-54.82894329250118
 10
99.12740690828437
 20
-54.939402345301
 10
99.23579367568423
 20
-55.03304522720112
 10
99.39800548078439
 20
-55.09561557610136
 10
99.58934690468431
 20
-55.11758735450122
 10
99.78068832858422
 20
-55.09561557610136
 10
99.94290013378446
 20
-55.03304522720112
  0
LWPOLYLINE
  5
354
330
70
100
AcDbEntity
  8
0
 62
     8
420
  8421504
370
    25
100
AcDbPolyline
 90
        8
 70
     0
 43
0.0
 10
101.0035598208841
 20
-55.64555109520104
 10
100.9766473019839
 20
-55.47377519290098
 10
100.9000067701841
 20
-55.29707919900093
 10
100.785305878084
 20
-55.14236212610131
 10
100.6500065917839
 20
-55.03317792720126
 10
100.514707305584
 20
-54.98614889530095
 10
100.4000064134838
 20
-55.00843513700088
 10
100.3987982037845
 20
-55.00914096000116
  0
LWPOLYLINE
  5
355
330
70
100
AcDbEntity
  8
0
 62
     8
420
  8421504
370
    25
100
AcDbPolyline
 90
        3
 70
     0
 43
0.0
 10
100.9000963321839
 20
-55.87440943620098
 10
100.9766473019839
 20
-55.78625243670082
 10
101.0035598208841
 20
-55.64555109520104
  0
LWPOLYLINE
  5
356
330
70
100
AcDbEntity
  8
0
 62
     8
420
  8421504
370
    25
100
AcDbPolyline
 90
        7
 70
     0
 43
0.0
 10
168.296556315784
 20
-16.79813110930118
 10
168.2696437968845
 20
-16.62635520690101
 10
168.1930032650841
 20
-16.44965921310107
 10
168.0783023729839
 20
-16.2949421402008
 10
167.9430030867839
 20
-16.18575794130075
 10
167.8077038004839
 20
-16.13872890930098
 10
167.6930231037838
 20
-16.16100450270096
  0
SPLINE
  5
357
330
70
100
AcDbEntity
  8
0
 62
     8
420
  8421504
370
    25
100
AcDbSpline
210
0.0
220
0.0
230
1.0
 70
     8
 71
     3
 72
     8
 73
     4
 74
     0
 42
0.0000000001
 43
0.0000000001
 40
0.0
 40
0.0
 40
0.0
 40
0.0
 40
1.0
 40
1.0
 40
1.0
 40
1.0
 10
168.1929830696942
 20
-17.02705384641103
 30
0.0
 10
168.2681441945845
 20
-16.97657725940654
 30
0.0
 10
168.3082610188916
 20
-16.88790906005114
 30
0.0
 10
168.296556315732
 20
-16.7981311092261
 30
0.0
  0
LWPOLYLINE
  5
358
330
70
100
AcDbEntity
  8
0
 62
     8
420
  8421504
370
    25
100
AcDbPolyline
 90
        7
 70
     0
 43
0.0
 10
169.3572168808839
 20
-14.96101312620105
 10
169.1950024415841
 20
-15.02358499590106
 10
169.0036627737841
 20
-15.04555576040104
 10
168.8123213499843
 20
-15.02358398210128
 10
168.6501077886842
 20
-14.96101464690136
 10
168.5417227774843
 20
-14.86737075130092
 10
168.5036624170838
 20
-14.75691169840099
  0
LWPOLYLINE
  5
359
330
70
100
AcDbEntity
  8
0
 62
     8
420
  8421504
370
    25
100
AcDbPolyline
 90
        3
 70
     0
 43
0.0
 10
169.5036613743839
 20
-14.75691271220077
 10
169.4656027701841
 20
-14.86737075130092
 10
169.3572168808839
 20
-14.96101312620105
  0
LWPOLYLINE
  5
35A
330
70
100
AcDbEntity
  8
0
 62
     8
420
  8421504
370
    25
100
AcDbPolyline
 90
        3
 70
     0
 43
0.0
 10
104.6569452362843
 20
-57.7544055391008
 10
104.7653320036842
 20
-57.66076265720132
 10
104.8033923639839
 20
-57.55030360440085
  0
LWPOLYLINE
  5
35B
330
70
100
AcDbEntity
  8
0
 62
     8
420
  8421504
370
    25
100
AcDbPolyline
 90
        7
 70
     0
 43
0.0
 10
103.803391650584
 20
-57.55030360440085
 10
103.8414520108844
 20
-57.66076265720132
 10
103.9498387781841
 20
-57.7544055391008
 10
104.1120505833844
 20
-57.81697588810114
 10
104.3033920072843
 20
-57.8389476664009
 10
104.4947334311842
 20
-57.81697588810114
 10
104.6569452362843
 20
-57.7544055391008
  0
LWPOLYLINE
  5
35C
330
70
100
AcDbEntity
  8
0
 62
     8
420
  8421504
370
    25
100
AcDbPolyline
 90
        8
 70
     0
 43
0.0
 10
105.717604923384
 20
-58.36691140710136
 10
105.6906924044844
 20
-58.19513550480129
 10
105.614051872684
 20
-58.01843951090124
 10
105.4993509805839
 20
-57.86372243800098
 10
105.3640516943839
 20
-57.75453823910093
 10
105.2287524080839
 20
-57.70750920720127
 10
105.1140515159844
 20
-57.72979544890119
 10
105.1128433062844
 20
-57.73050127190084
  0
LWPOLYLINE
  5
35D
330
70
100
AcDbEntity
  8
0
 62
     8
420
  8421504
370
    25
100
AcDbPolyline
 90
        3
 70
     0
 43
0.0
 10
105.6141414347839
 20
-58.59576974820076
 10
105.6906924044844
 20
-58.50761274860114
 10
105.717604923384
 20
-58.36691140710136
  0
LWPOLYLINE
  5
35E
330
70
100
AcDbEntity
  8
0
 62
     8
420
  8421504
370
    25
100
AcDbPolyline
 90
        7
 70
     0
 43
0.0
 10
173.0106014182839
 20
-19.51949142120086
 10
172.9836888993844
 20
-19.34771551890079
 10
172.9070483676841
 20
-19.17101952500138
 10
172.7923474755839
 20
-19.01630245210112
 10
172.6570481892838
 20
-18.90711825320107
 10
172.5217489029844
 20
-18.86008922130076
 10
172.4070682062844
 20
-18.88236481460127
  0
SPLINE
  5
35F
330
70
100
AcDbEntity
  8
0
 62
     8
420
  8421504
370
    25
100
AcDbSpline
210
0.0
220
0.0
230
1.0
 70
     8
 71
     3
 72
     8
 73
     4
 74
     0
 42
0.0000000001
 43
0.0000000001
 40
0.0
 40
0.0
 40
0.0
 40
0.0
 40
1.0
 40
1.0
 40
1.0
 40
1.0
 10
172.9070281722756
 20
-19.74841415835691
 30
0.0
 10
172.9821892971865
 20
-19.69793757137038
 30
0.0
 10
173.0223061214999
 20
-19.60926937200087
 30
0.0
 10
173.0106014183128
 20
-19.51949142117262
 30
0.0
  0
LWPOLYLINE
  5
360
330
70
100
AcDbEntity
  8
0
 62
     8
420
  8421504
370
    25
100
AcDbPolyline
 90
        7
 70
     0
 43
0.0
 10
174.0712619834839
 20
-17.68237343820083
 10
173.9090475441841
 20
-17.74494530780138
 10
173.7177078763841
 20
-17.76691607230135
 10
173.5263664524842
 20
-17.74494429400095
 10
173.3641528911841
 20
-17.68237495880103
 10
173.2557678799842
 20
-17.58873106320124
 10
173.2177075196839
 20
-17.47827201040077
  0
LWPOLYLINE
  5
361
330
70
100
AcDbEntity
  8
0
 62
     8
420
  8421504
370
    25
100
AcDbPolyline
 90
        3
 70
     0
 43
0.0
 10
174.2177064769839
 20
-17.47827302410109
 10
174.1796478727841
 20
-17.58873106320124
 10
174.0712619834839
 20
-17.68237343820083
  0
LWPOLYLINE
  5
362
330
70
100
AcDbEntity
  8
0
 62
     8
420
  8421504
370
    25
100
AcDbPolyline
 90
        3
 70
     0
 43
0.0
 10
109.3709903387843
 20
-60.47576585100111
 10
109.4793771061841
 20
-60.3821229692011
 10
109.5174374664845
 20
-60.27166391630117
  0
LWPOLYLINE
  5
363
330
70
100
AcDbEntity
  8
0
 62
     8
420
  8421504
370
    25
100
AcDbPolyline
 90
        7
 70
     0
 43
0.0
 10
108.5174367530839
 20
-60.27166391630117
 10
108.5554971133843
 20
-60.3821229692011
 10
108.6638847587843
 20
-60.475766357901
 10
108.8260956858843
 20
-60.53833620000081
 10
109.0174371097842
 20
-60.56030797830121
 10
109.2087785336841
 20
-60.53833620000081
 10
109.3709903387843
 20
-60.47576585100111
  0
LWPOLYLINE
  5
364
330
70
100
AcDbEntity
  8
0
 62
     8
420
  8421504
370
    25
100
AcDbPolyline
 90
        8
 70
     0
 43
0.0
 10
110.4316500258839
 20
-61.08827171900103
 10
110.4047375069843
 20
-60.91649581670097
 10
110.328096975284
 20
-60.73979982280092
 10
110.2133960831839
 20
-60.5850827499013
 10
110.0780976749841
 20
-60.47589905790114
 10
109.9427975106839
 20
-60.42886951910094
 10
109.8280966185844
 20
-60.45115576090098
 10
109.8268884088844
 20
-60.45186158380115
  0
LWPOLYLINE
  5
365
330
70
100
AcDbEntity
  8
0
 62
     8
420
  8421504
370
    25
100
AcDbPolyline
 90
        3
 70
     0
 43
0.0
 10
110.3281865372844
 20
-61.31713006010108
 10
110.4047375069843
 20
-61.22897306060091
 10
110.4316500258839
 20
-61.08827171900103
  0
LWPOLYLINE
  5
366
330
70
100
AcDbEntity
  8
0
 62
     8
420
  8421504
370
    25
100
AcDbPolyline
 90
        7
 70
     0
 43
0.0
 10
177.7246465208839
 20
-22.24085173310117
 10
177.6977340019844
 20
-22.06907583080111
 10
177.621093470184
 20
-21.89237983690106
 10
177.5063925780838
 20
-21.7376627640008
 10
177.3710941698841
 20
-21.62847907200127
 10
177.2357940055838
 20
-21.58144953320108
 10
177.121114186884
 20
-21.60372563340084
  0
LWPOLYLINE
  5
367
330
70
100
AcDbEntity
  8
0
 62
     8
420
  8421504
370
    25
100
AcDbPolyline
 90
        4
 70
     0
 43
0.0
 10
177.6210723967843
 20
-22.46977396340097
 10
177.621093470184
 20
-22.46976179400093
 10
177.6977340019844
 20
-22.38155307460095
 10
177.7246465208839
 20
-22.24085173310117
  0
LWPOLYLINE
  5
368
330
70
100
AcDbEntity
  8
0
 62
     8
420
  8421504
370
    25
100
AcDbPolyline
 90
        7
 70
     0
 43
0.0
 10
178.7853070859844
 20
-20.40373375010115
 10
178.623092646684
 20
-20.46630561970105
 10
178.431752978884
 20
-20.48827638420103
 10
178.2404115549841
 20
-20.46630460590127
 10
178.0781988717843
 20
-20.40373577760124
 10
177.9698129824841
 20
-20.31009137510091
 10
177.9317526221844
 20
-20.19963232230109
  0
LWPOLYLINE
  5
369
330
70
100
AcDbEntity
  8
0
 62
     8
420
  8421504
370
    25
100
AcDbPolyline
 90
        3
 70
     0
 43
0.0
 10
178.9317515794844
 20
-20.19963333610087
 10
178.893692975284
 20
-20.31009137510091
 10
178.7853070859844
 20
-20.40373375010115
  0
LWPOLYLINE
  5
36A
330
70
100
AcDbEntity
  8
0
 62
     8
420
  8421504
370
    25
100
AcDbPolyline
 90
        7
 70
     0
 43
0.0
 10
114.0850363193838
 20
-63.19712666980132
 10
113.9228245142843
 20
-63.25969701880102
 10
113.7314830903844
 20
-63.28166879710078
 10
113.5401416664838
 20
-63.25969701880102
 10
113.377928983284
 20
-63.19712616290079
 10
113.2695430939838
 20
-63.10348378800131
 10
113.2314827336841
 20
-62.99302473510137
  0
LWPOLYLINE
  5
36B
330
70
100
AcDbEntity
  8
0
 62
     8
420
  8421504
370
    25
100
AcDbPolyline
 90
        3
 70
     0
 43
0.0
 10
114.2314834470841
 20
-62.99302473510137
 10
114.1934230867843
 20
-63.10348378800131
 10
114.0850363193838
 20
-63.19712666980132
  0
LWPOLYLINE
  5
36C
330
70
100
AcDbEntity
  8
0
 62
     8
420
  8421504
370
    25
100
AcDbPolyline
 90
        4
 70
     0
 43
0.0
 10
115.1456960064841
 20
-63.80963253780124
 10
115.1187834875839
 20
-63.95033387940112
 10
115.0421429558843
 20
-64.0385425988011
 10
115.0420709549843
 20
-64.03858417750107
  0
LWPOLYLINE
  5
36D
330
70
100
AcDbEntity
  8
0
 62
     8
420
  8421504
370
    25
100
AcDbPolyline
 90
        7
 70
     0
 43
0.0
 10
114.547375832784
 20
-63.16961821800083
 10
114.6568434912841
 20
-63.15023033790115
 10
114.7921418994845
 20
-63.19725886290092
 10
114.9274420637841
 20
-63.30644356870086
 10
115.0421429558843
 20
-63.46116064160113
 10
115.1187834875839
 20
-63.63785663550117
 10
115.1456960064841
 20
-63.80963253780124
  0
LWPOLYLINE
  5
36E
330
70
100
AcDbEntity
  8
0
 62
     8
420
  8421504
370
    25
100
AcDbPolyline
 90
        4
 70
     0
 43
0.0
 10
182.4386925014842
 20
-24.96221255190074
 10
182.411779982584
 20
-25.10291389340116
 10
182.3351394507842
 20
-25.19112261280114
 10
182.3351183773839
 20
-25.19113478220118
  0
LWPOLYLINE
  5
36F
330
70
100
AcDbEntity
  8
0
 62
     8
420
  8421504
370
    25
100
AcDbPolyline
 90
        7
 70
     0
 43
0.0
 10
181.8351584113843
 20
-24.32508543850137
 10
181.949839986184
 20
-24.30281035200128
 10
182.0851383943844
 20
-24.34983887700106
 10
182.220438558684
 20
-24.459023582801
 10
182.3351394507842
 20
-24.61374065570126
 10
182.411779982584
 20
-24.79043664960131
 10
182.4386925014842
 20
-24.96221255190074
  0
LWPOLYLINE
  5
370
330
70
100
AcDbEntity
  8
0
 62
     8
420
  8421504
370
    25
100
AcDbPolyline
 90
        3
 70
     0
 43
0.0
 10
183.499353066584
 20
-23.12509456890135
 10
183.6077389558842
 20
-23.03145219390112
 10
183.645797560084
 20
-22.92099415490107
  0
LWPOLYLINE
  5
371
330
70
100
AcDbEntity
  8
0
 62
     8
420
  8421504
370
    25
100
AcDbPolyline
 90
        7
 70
     0
 43
0.0
 10
182.645798602784
 20
-22.9209931411013
 10
182.6838589630843
 20
-23.03145219390112
 10
182.792243096284
 20
-23.12509558270113
 10
182.9544575356844
 20
-23.18766542470084
 10
183.1457989594843
 20
-23.20963720310134
 10
183.3371386272843
 20
-23.18766643850126
 10
183.499353066584
 20
-23.12509456890135
  0
LWPOLYLINE
  5
372
330
70
100
AcDbEntity
  8
0
 62
     8
420
  8421504
370
    25
100
AcDbPolyline
 90
        7
 70
     0
 43
0.0
 10
118.7990805438841
 20
-61.83578225320131
 10
118.636868738784
 20
-61.8983526021009
 10
118.4455273148841
 20
-61.92032438050077
 10
118.2541858909842
 20
-61.8983526021009
 10
118.0919749638842
 20
-61.8357827601012
 10
117.9835873184842
 20
-61.74213937130119
 10
117.9455269581844
 20
-61.63168031850136
  0
LWPOLYLINE
  5
373
330
70
100
AcDbEntity
  8
0
 62
     8
420
  8421504
370
    25
100
AcDbPolyline
 90
        3
 70
     0
 43
0.0
 10
118.9455276715844
 20
-61.63168031850136
 10
118.907467311284
 20
-61.74213937130119
 10
118.7990805438841
 20
-61.83578225320131
  0
LWPOLYLINE
  5
374
330
70
100
AcDbEntity
  8
0
 62
     8
420
  8421504
370
    25
100
AcDbPolyline
 90
        4
 70
     0
 43
0.0
 10
119.8597402309844
 20
-62.44828812120123
 10
119.8328277120842
 20
-62.588989462701
 10
119.7561871803839
 20
-62.67719818210099
 10
119.7561151794839
 20
-62.67723976080095
  0
LWPOLYLINE
  5
375
330
70
100
AcDbEntity
  8
0
 62
     8
420
  8421504
370
    25
100
AcDbPolyline
 90
        7
 70
     0
 43
0.0
 10
119.2614218133842
 20
-61.80827481520124
 10
119.3708877156843
 20
-61.78888592130114
 10
119.5061878800841
 20
-61.83591546010133
 10
119.6414862881843
 20
-61.94509915210085
 10
119.7561871803839
 20
-62.09981622500111
 10
119.8328277120842
 20
-62.27651221890116
 10
119.8597402309844
 20
-62.44828812120123
  0
LWPOLYLINE
  5
376
330
70
100
AcDbEntity
  8
0
 62
     8
420
  8421504
370
    25
100
AcDbPolyline
 90
        4
 70
     0
 43
0.0
 10
187.1527367259845
 20
-23.60086813530137
 10
187.1258242070843
 20
-23.74156947680114
 10
187.0491836752839
 20
-23.82977819620113
 10
187.0491643579841
 20
-23.82979137930084
  0
LWPOLYLINE
  5
377
330
70
100
AcDbEntity
  8
0
 62
     8
420
  8421504
370
    25
100
AcDbPolyline
 90
        7
 70
     0
 43
0.0
 10
186.5492043919839
 20
-22.96374203560104
 10
186.6638842106844
 20
-22.94146593530117
 10
186.799184374984
 20
-22.98849547410136
 10
186.9344827831844
 20
-23.09767916620099
 10
187.0491836752839
 20
-23.25239623910125
 10
187.1258242070843
 20
-23.4290922329012
 10
187.1527367259845
 20
-23.60086813530137
  0
LWPOLYLINE
  5
378
330
70
100
AcDbEntity
  8
0
 62
     8
420
  8421504
370
    25
100
AcDbPolyline
 90
        3
 70
     0
 43
0.0
 10
188.2133972910843
 20
-21.76375015220123
 10
188.3217831803839
 20
-21.67010777730111
 10
188.3598417845844
 20
-21.55964973820096
  0
LWPOLYLINE
  5
379
330
70
100
AcDbEntity
  8
0
 62
     8
420
  8421504
370
    25
100
AcDbPolyline
 90
        7
 70
     0
 43
0.0
 10
187.3598428272843
 20
-21.55964872440118
 10
187.397903187584
 20
-21.67010777730111
 10
187.5062890768842
 20
-21.76375217980079
 10
187.668501760084
 20
-21.82632100810083
 10
187.8598431839839
 20
-21.84829278640123
 10
188.0511828517839
 20
-21.82632202190124
 10
188.2133972910843
 20
-21.76375015220123
  0
LINE
  5
37A
330
70
100
AcDbEntity
  8
0
 62
     8
420
  8421504
370
    25
100
AcDbLine
 10
98.93676052328459
 20
-41.59334390580088
 30
0.0
 11
98.93763995458463
 21
-38.25173480210128
 31
0.0
  0
LWPOLYLINE
  5
37B
330
70
100
AcDbEntity
  8
0
 62
     8
420
  8421504
370
    25
100
AcDbPolyline
 90
        3
 70
     0
 43
0.0
 10
98.93790650048423
 20
-34.19245664640115
 10
98.93790924438418
 20
-32.93531877390085
 10
98.93676052328459
 20
-28.52869029500137
  0
LWPOLYLINE
  5
37C
330
70
100
AcDbEntity
  8
0
 62
     8
420
  8421504
370
    25
100
AcDbPolyline
 90
        4
 70
     0
 43
0.0
 10
99.39793751358402
 20
-28.53424482610083
 10
99.39791915658432
 20
-29.07881079570135
 10
99.39784567398456
 20
-31.25698340170112
 10
99.39780204548419
 20
-33.92696516260109
  0
LWPOLYLINE
  5
37D
330
70
100
AcDbEntity
  8
0
 62
     8
420
  8421504
370
    25
100
AcDbPolyline
 90
        3
 70
     0
 43
0.0
 10
99.39782306398456
 20
-37.98607729010087
 10
99.39793751358402
 20
-41.5991057896012
 10
99.39793792518392
 20
-41.60482825740124
  0
LWPOLYLINE
  5
37E
330
70
100
AcDbEntity
  8
0
 62
     8
420
  8421504
370
    25
100
AcDbPolyline
 90
        4
 70
     0
 43
0.0
 10
110.731675522584
 20
-35.05627810500135
 10
110.7320312188841
 20
-34.51190586340138
 10
110.7332967767844
 20
-32.33442193480099
 10
110.7335094866841
 20
-31.44212481790119
  0
LWPOLYLINE
  5
37F
330
70
100
AcDbEntity
  8
0
 62
     8
420
  8421504
370
    25
100
AcDbPolyline
 90
        4
 70
     0
 43
0.0
 10
110.734206995084
 20
-27.38259767180114
 10
110.7339809771843
 20
-26.32073524570083
 10
110.731675522584
 20
-21.99141714150097
 10
110.7316715438844
 20
-21.98569312140081
  0
LWPOLYLINE
  5
380
330
70
100
AcDbEntity
  8
0
 62
     8
420
  8421504
370
    25
100
AcDbPolyline
 90
        3
 70
     0
 43
0.0
 10
105.1694663350844
 20
-34.65417815480073
 10
105.1412206202841
 20
-36.25405158700117
 10
105.0660642282842
 20
-38.34152027670125
  0
LINE
  5
381
330
70
100
AcDbEntity
  8
0
 62
     8
420
  8421504
370
    25
100
AcDbLine
 10
105.5418951646844
 20
-30.36961844870074
 30
0.0
 11
105.1928903241842
 21
-30.16814224280107
 31
0.0
  0
SPLINE
  5
382
330
70
100
AcDbEntity
  8
0
 62
     8
420
  8421504
370
    25
100
AcDbSpline
210
0.0
220
0.0
230
1.0
 70
     8
 71
     3
 72
     8
 73
     4
 74
     0
 42
0.0000000001
 43
0.0000000001
 40
0.0
 40
0.0
 40
0.0
 40
0.0
 40
1.0
 40
1.0
 40
1.0
 40
1.0
 10
98.93676052331411
 20
-41.59334390577265
 30
0.0
 10
98.9306180540059
 20
-41.65293754318887
 30
0.0
 10
98.95699251733258
 20
-41.71123122569705
 30
0.0
 10
99.00580979303549
 20
-41.7459588104492
 30
0.0
  0
SPLINE
  5
383
330
70
100
AcDbEntity
  8
0
 62
     8
420
  8421504
370
    25
100
AcDbSpline
210
0.0
220
0.0
230
1.0
 70
     8
 71
     3
 72
     8
 73
     4
 74
     0
 42
0.0000000001
 43
0.0000000001
 40
0.0
 40
0.0
 40
0.0
 40
0.0
 40
1.0
 40
1.0
 40
1.0
 40
1.0
 10
99.33902102123374
 20
-41.74601356081316
 30
0.0
 10
99.38486566781358
 20
-41.71404910492827
 30
0.0
 10
99.41090891580103
 20
-41.66064061880621
 30
0.0
 10
99.40786265735949
 20
-41.60483579491494
 30
0.0
  0
SPLINE
  5
384
330
70
100
AcDbEntity
  8
0
 62
     8
420
  8421504
370
    25
100
AcDbSpline
210
0.0
220
0.0
230
1.0
 70
     8
 71
     3
 72
     8
 73
     4
 74
     0
 42
0.0000000001
 43
0.0000000001
 40
0.0
 40
0.0
 40
0.0
 40
0.0
 40
1.0
 40
1.0
 40
1.0
 40
1.0
 10
110.6528244490007
 20
-21.57267435716933
 30
0.0
 10
110.5983073691733
 20
-21.54805038830098
 30
0.0
 10
110.5348003554514
 20
-21.55433909951121
 30
0.0
 10
110.4861714196916
 20
-21.58917698754373
 30
0.0
  0
LINE
  5
385
330
70
100
AcDbEntity
  8
0
 62
     8
420
  8421504
370
    25
100
AcDbLine
 10
105.8125590016838
 20
-32.22639187810095
 30
0.0
 11
105.7754798452842
 21
-32.20498653670099
 31
0.0
  0
SPLINE
  5
386
330
70
100
AcDbEntity
  8
0
 62
     8
420
  8421504
370
    25
100
AcDbSpline
210
0.0
220
0.0
230
1.0
 70
     8
 71
     3
 72
     8
 73
     4
 74
     0
 42
0.0000000001
 43
0.0000000001
 40
0.0
 40
0.0
 40
0.0
 40
0.0
 40
1.0
 40
1.0
 40
1.0
 40
1.0
 10
110.7316755225436
 20
-35.05627810506937
 30
0.0
 10
110.7815406611094
 20
-35.03100114254109
 30
0.0
 10
110.8147701397779
 20
-34.9817153223833
 30
0.0
 10
110.8195046157558
 20
-34.9260103709327
 30
0.0
  0
SPLINE
  5
387
330
70
100
AcDbEntity
  8
0
 62
     8
420
  8421504
370
    25
100
AcDbSpline
210
0.0
220
0.0
230
1.0
 70
     8
 71
     3
 72
     8
 73
     4
 74
     0
 42
0.0000000001
 43
0.0000000001
 40
0.0
 40
0.0
 40
0.0
 40
0.0
 40
1.0
 40
1.0
 40
1.0
 40
1.0
 10
104.9971091304759
 20
-38.48119475574389
 30
0.0
 10
105.0426654031396
 20
-38.44966253498205
 30
0.0
 10
105.068732972829
 20
-38.39686043144413
 30
0.0
 10
105.0660642283324
 20
-38.34152027669162
 30
0.0
  0
LINE
  5
388
330
70
100
AcDbEntity
  8
0
 62
     8
420
  8421504
370
    25
100
AcDbLine
 10
105.6473393493842
 20
-32.47188598140113
 30
0.0
 11
105.6433871493843
 21
-32.46960442490124
 31
0.0
  0
LINE
  5
389
330
70
100
AcDbEntity
  8
0
 62
     8
420
  8421504
370
    25
100
AcDbLine
 10
105.763735636884
 20
-32.30690660670118
 30
0.0
 11
105.7299642671843
 21
-32.28741080990124
 31
0.0
  0
SPLINE
  5
38A
330
70
100
AcDbEntity
  8
0
 62
     8
420
  8421504
370
    25
100
AcDbSpline
210
0.0
220
0.0
230
1.0
 70
     8
 71
     3
 72
     8
 73
     4
 74
     0
 42
0.0000000001
 43
0.0000000001
 40
0.0
 40
0.0
 40
0.0
 40
0.0
 40
1.0
 40
1.0
 40
1.0
 40
1.0
 10
110.662945235366
 20
-35.20860716917226
 30
0.0
 10
110.7108298510338
 20
-35.17327298261296
 30
0.0
 10
110.7368692577254
 20
-35.11556103913891
 30
0.0
 10
110.7316755225911
 20
-35.05627810506103
 30
0.0
  0
INSERT
  5
38D
330
70
100
AcDbEntity
  8
CAPA_BASE
100
AcDbBlockReference
  2
Block_0
 10
0.0
 20
0.0
 30
0.0
  0
INSERT
  5
399
330
70
100
AcDbEntity
  8
CAPA_BASE
100
AcDbBlockReference
  2
Block_1
 10
0.0
 20
0.0
 30
0.0
  0
INSERT
  5
3A5
330
70
100
AcDbEntity
  8
CAPA_BASE
100
AcDbBlockReference
  2
Block_2
 10
0.0
 20
0.0
 30
0.0
  0
ENDSEC
  0
SECTION
  2
OBJECTS
  0
DICTIONARY
  5
C
330
0
100
AcDbDictionary
281
     1
  3
ACAD_COLOR
350
63
  3
ACAD_DETAILVIEWSTYLE
350
6A
  3
ACAD_GROUP
350
D
  3
ACAD_LAYOUT
350
62
  3
ACAD_MATERIAL
350
10
  3
ACAD_MLEADERSTYLE
350
66
  3
ACAD_MLINESTYLE
350
5F
  3
ACAD_PLOTSETTINGS
350
61
  3
ACAD_PLOTSTYLENAME
350
E
  3
ACAD_SCALELIST
350
42
  3
ACAD_SECTIONVIEWSTYLE
350
68
  3
ACAD_TABLESTYLE
350
64
  3
ACAD_VISUALSTYLE
350
29
  3
ACDB_RECOMPOSE_DATA
350
3B8
  3
AcDbVariableDictionary
350
3B0
  0
DICTIONARY
  5
63
102
{ACAD_REACTORS
330
C
102
}
330
C
100
AcDbDictionary
281
     1
  0
DICTIONARY
  5
6A
102
{ACAD_REACTORS
330
C
102
}
330
C
100
AcDbDictionary
281
     1
  3
Imperial24
350
6B
  0
DICTIONARY
  5
D
102
{ACAD_REACTORS
330
C
102
}
330
C
100
AcDbDictionary
281
     1
  0
DICTIONARY
  5
62
102
{ACAD_REACTORS
330
C
102
}
330
C
100
AcDbDictionary
281
     1
  3
Layout1
350
6F
  3
Layout2
350
77
  3
Model
350
73
  0
DICTIONARY
  5
10
102
{ACAD_REACTORS
330
C
102
}
330
C
100
AcDbDictionary
281
     1
  3
ByBlock
350
19
  3
ByLayer
350
11
  3
Global
350
21
  0
DICTIONARY
  5
66
102
{ACAD_REACTORS
330
C
102
}
330
C
100
AcDbDictionary
281
     1
  3
Standard
350
67
  0
DICTIONARY
  5
5F
102
{ACAD_REACTORS
330
C
102
}
330
C
100
AcDbDictionary
281
     1
  3
Standard
350
60
  0
DICTIONARY
  5
61
102
{ACAD_REACTORS
330
C
102
}
330
C
100
AcDbDictionary
281
     1
  0
ACDBDICTIONARYWDFLT
  5
E
102
{ACAD_REACTORS
330
C
102
}
330
C
100
AcDbDictionary
281
     1
  3
Normal
350
F
100
AcDbDictionaryWithDefault
340
F
  0
DICTIONARY
  5
42
102
{ACAD_REACTORS
330
C
102
}
330
C
100
AcDbDictionary
281
     1
  3
A0
350
43
  3
A1
350
44
  3
A2
350
45
  3
A3
350
46
  3
A4
350
47
  3
A5
350
48
  3
A6
350
49
  3
A7
350
4A
  3
A8
350
4B
  3
A9
350
4C
  3
B0
350
4D
  3
B1
350
4E
  3
B2
350
4F
  3
B3
350
50
  3
B4
350
51
  3
B5
350
52
  3
B6
350
53
  0
DICTIONARY
  5
68
102
{ACAD_REACTORS
330
C
102
}
330
C
100
AcDbDictionary
281
     1
  3
Imperial24
350
69
  0
DICTIONARY
  5
64
102
{ACAD_REACTORS
330
C
102
}
330
C
100
AcDbDictionary
281
     1
  3
Standard
350
65
  0
DICTIONARY
  5
29
102
{ACAD_REACTORS
330
C
102
}
330
C
100
AcDbDictionary
281
     1
  3
2dWireframe
350
2F
  3
Basic
350
2E
  3
Brighten
350
35
  3
ColorChange
350
39
  3
Conceptual
350
32
  3
Dim
350
34
  3
EdgeColorOff
350
41
  3
Facepattern
350
38
  3
Flat
350
2A
  3
FlatWithEdges
350
2B
  3
Gouraud
350
2C
  3
GouraudWithEdges
350
2D
  3
Hidden
350
31
  3
JitterOff
350
3F
  3
Linepattern
350
37
  3
OverhangOff
350
40
  3
Realistic
350
33
  3
Shaded
350
3E
  3
Shaded with edges
350
3D
  3
Shades of Gray
350
3A
  3
Sketchy
350
3B
  3
Thicken
350
36
  3
Wireframe
350
30
  3
X-Ray
350
3C
  0
XRECORD
  5
3B8
102
{ACAD_REACTORS
330
C
102
}
330
C
100
AcDbXrecord
280
     1
 90
        1
330
65
  0
DICTIONARY
  5
3B0
102
{ACAD_REACTORS
330
C
102
}
330
C
100
AcDbDictionary
281
     1
  3
CANNOSCALE
350
3B5
  3
CMLEADERSTYLE
350
3B2
  3
CTABLESTYLE
350
3B1
  3
CVIEWDETAILSTYLE
350
3B3
  3
CVIEWSECTIONSTYLE
350
3B4
  0
ACDBDETAILVIEWSTYLE
  5
6B
102
{ACAD_REACTORS
330
6A
102
}
330
6A
100
AcDbModelDocViewStyle
 70
     0
  3
Imperial24
290
     1
300
Imperial24
 90
        0
100
AcDbDetailViewStyle
 70
     0
 71
     0
 90
        3
 71
     1
340
55
 62
   256
 40
0.24
340
0
 62
   256
 40
0.24
300

 40
0.36
280
     3
 71
     2
340
5D
 90
       25
 62
   256
 71
     3
340
55
 62
   256
 40
0.24
 90
        1
 40
0.75
 90
        1
300
%<\AcVar ViewType \f "%tc1">% %<\AcVar ViewDetailId>%\PSCALE %<\AcVar ViewScale \f "%sn">%
 71
     4
340
5D
 90
       25
 62
   256
340
5D
 90
       25
 62
   256
280
     0
  0
LAYOUT
  5
6F
102
{ACAD_REACTORS
330
62
102
}
330
62
100
AcDbPlotSettings
  1

  2

  4

  6

 40
0.0
 41
0.0
 42
0.0
 43
0.0
 44
0.0
 45
0.0
 46
0.0
 47
0.0
 48
0.0
 49
0.0
140
0.0
141
0.0
142
1.0
143
1.0
 70
   688
 72
     0
 73
     0
 74
     5
  7

 75
    16
147
1.0
 76
     0
 77
     2
 78
   300
148
0.0
149
0.0
100
AcDbLayout
  1
Layout1
 70
     1
 71
     1
 10
0.0
 20
0.0
 11
12.0
 21
9.0
 12
0.0
 22
0.0
 32
0.0
 14
0.0
 24
0.0
 34
0.0
 15
0.0
 25
0.0
 35
0.0
146
0.0
 13
0.0
 23
0.0
 33
0.0
 16
1.0
 26
0.0
 36
0.0
 17
0.0
 27
1.0
 37
0.0
 76
     0
330
6C
  0
LAYOUT
  5
77
102
{ACAD_REACTORS
330
62
102
}
330
62
100
AcDbPlotSettings
  1

  2

  4

  6

 40
0.0
 41
0.0
 42
0.0
 43
0.0
 44
0.0
 45
0.0
 46
0.0
 47
0.0
 48
0.0
 49
0.0
140
0.0
141
0.0
142
1.0
143
1.0
 70
   688
 72
     0
 73
     0
 74
     5
  7

 75
    16
147
1.0
 76
     0
 77
     2
 78
   300
148
0.0
149
0.0
100
AcDbLayout
  1
Layout2
 70
     1
 71
     2
 10
0.0
 20
0.0
 11
12.0
 21
9.0
 12
0.0
 22
0.0
 32
0.0
 14
0.0
 24
0.0
 34
0.0
 15
0.0
 25
0.0
 35
0.0
146
0.0
 13
0.0
 23
0.0
 33
0.0
 16
1.0
 26
0.0
 36
0.0
 17
0.0
 27
1.0
 37
0.0
 76
     0
330
74
  0
LAYOUT
  5
73
102
{ACAD_REACTORS
330
62
102
}
330
62
100
AcDbPlotSettings
  1

  2

  4

  6

 40
0.0
 41
0.0
 42
0.0
 43
0.0
 44
0.0
 45
0.0
 46
0.0
 47
0.0
 48
0.0
 49
0.0
140
0.0
141
0.0
142
1.0
143
1.0
 70
  1712
 72
     0
 73
     0
 74
     0
  7

 75
     0
147
1.0
 76
     0
 77
     2
 78
   300
148
0.0
149
0.0
100
AcDbLayout
  1
Model
 70
     1
 71
     0
 10
0.0
 20
0.0
 11
12.0
 21
9.0
 12
0.0
 22
0.0
 32
0.0
 14
0.0
 24
0.0
 34
0.0
 15
0.0
 25
0.0
 35
0.0
146
0.0
 13
0.0
 23
0.0
 33
0.0
 16
1.0
 26
0.0
 36
0.0
 17
0.0
 27
1.0
 37
0.0
 76
     0
330
70
  0
MATERIAL
  5
19
102
{ACAD_XDICTIONARY
360
1A
102
}
102
{ACAD_REACTORS
330
10
102
}
330
10
100
AcDbMaterial
  1
ByBlock
 72
     0
 43
0.0208333333333333
 43
0.0
 43
0.0
 43
0.0
 43
0.0
 43
0.0208333333333333
 43
0.0
 43
0.0
 43
0.0
 43
0.0
 43
1.0
 43
0.0
 43
0.0
 43
0.0
 43
0.0
 43
1.0
 77
     0
 47
0.0208333333333333
 47
0.0
 47
0.0
 47
0.0
 47
0.0
 47
0.0208333333333333
 47
0.0
 47
0.0
 47
0.0
 47
0.0
 47
1.0
 47
0.0
 47
0.0
 47
0.0
 47
0.0
 47
1.0
171
     0
 49
0.0208333333333333
 49
0.0
 49
0.0
 49
0.0
 49
0.0
 49
0.0208333333333333
 49
0.0
 49
0.0
 49
0.0
 49
0.0
 49
1.0
 49
0.0
 49
0.0
 49
0.0
 49
0.0
 49
1.0
175
     0
142
0.0208333333333333
142
0.0
142
0.0
142
0.0
142
0.0
142
0.0208333333333333
142
0.0
142
0.0
142
0.0
142
0.0
142
1.0
142
0.0
142
0.0
142
0.0
142
0.0
142
1.0
179
     0
144
0.0208333333333333
144
0.0
144
0.0
144
0.0
144
0.0
144
0.0208333333333333
144
0.0
144
0.0
144
0.0
144
0.0
144
1.0
144
0.0
144
0.0
144
0.0
144
0.0
144
1.0
147
0.0208333333333333
147
0.0
147
0.0
147
0.0
147
0.0
147
0.0208333333333333
147
0.0
147
0.0
147
0.0
147
0.0
147
1.0
147
0.0
147
0.0
147
0.0
147
0.0
147
1.0
  0
MATERIAL
  5
11
102
{ACAD_XDICTIONARY
360
12
102
}
102
{ACAD_REACTORS
330
10
102
}
330
10
100
AcDbMaterial
  1
ByLayer
 72
     0
 43
0.0208333333333333
 43
0.0
 43
0.0
 43
0.0
 43
0.0
 43
0.0208333333333333
 43
0.0
 43
0.0
 43
0.0
 43
0.0
 43
1.0
 43
0.0
 43
0.0
 43
0.0
 43
0.0
 43
1.0
 77
     0
 47
0.0208333333333333
 47
0.0
 47
0.0
 47
0.0
 47
0.0
 47
0.0208333333333333
 47
0.0
 47
0.0
 47
0.0
 47
0.0
 47
1.0
 47
0.0
 47
0.0
 47
0.0
 47
0.0
 47
1.0
171
     0
 49
0.0208333333333333
 49
0.0
 49
0.0
 49
0.0
 49
0.0
 49
0.0208333333333333
 49
0.0
 49
0.0
 49
0.0
 49
0.0
 49
1.0
 49
0.0
 49
0.0
 49
0.0
 49
0.0
 49
1.0
175
     0
142
0.0208333333333333
142
0.0
142
0.0
142
0.0
142
0.0
142
0.0208333333333333
142
0.0
142
0.0
142
0.0
142
0.0
142
1.0
142
0.0
142
0.0
142
0.0
142
0.0
142
1.0
179
     0
144
0.0208333333333333
144
0.0
144
0.0
144
0.0
144
0.0
144
0.0208333333333333
144
0.0
144
0.0
144
0.0
144
0.0
144
1.0
144
0.0
144
0.0
144
0.0
144
0.0
144
1.0
147
0.0208333333333333
147
0.0
147
0.0
147
0.0
147
0.0
147
0.0208333333333333
147
0.0
147
0.0
147
0.0
147
0.0
147
1.0
147
0.0
147
0.0
147
0.0
147
0.0
147
1.0
  0
MATERIAL
  5
21
102
{ACAD_XDICTIONARY
360
22
102
}
102
{ACAD_REACTORS
330
10
102
}
330
10
100
AcDbMaterial
  1
Global
 72
     0
 43
0.0208333333333333
 43
0.0
 43
0.0
 43
0.0
 43
0.0
 43
0.0208333333333333
 43
0.0
 43
0.0
 43
0.0
 43
0.0
 43
1.0
 43
0.0
 43
0.0
 43
0.0
 43
0.0
 43
1.0
 77
     0
 47
0.0208333333333333
 47
0.0
 47
0.0
 47
0.0
 47
0.0
 47
0.0208333333333333
 47
0.0
 47
0.0
 47
0.0
 47
0.0
 47
1.0
 47
0.0
 47
0.0
 47
0.0
 47
0.0
 47
1.0
171
     0
 49
0.0208333333333333
 49
0.0
 49
0.0
 49
0.0
 49
0.0
 49
0.0208333333333333
 49
0.0
 49
0.0
 49
0.0
 49
0.0
 49
1.0
 49
0.0
 49
0.0
 49
0.0
 49
0.0
 49
1.0
175
     0
142
0.0208333333333333
142
0.0
142
0.0
142
0.0
142
0.0
142
0.0208333333333333
142
0.0
142
0.0
142
0.0
142
0.0
142
1.0
142
0.0
142
0.0
142
0.0
142
0.0
142
1.0
179
     0
144
0.0208333333333333
144
0.0
144
0.0
144
0.0
144
0.0
144
0.0208333333333333
144
0.0
144
0.0
144
0.0
144
0.0
144
1.0
144
0.0
144
0.0
144
0.0
144
0.0
144
1.0
147
0.0208333333333333
147
0.0
147
0.0
147
0.0
147
0.0
147
0.0208333333333333
147
0.0
147
0.0
147
0.0
147
0.0
147
1.0
147
0.0
147
0.0
147
0.0
147
0.0
147
1.0
  0
MLEADERSTYLE
  5
67
102
{ACAD_REACTORS
330
66
102
}
330
66
100
AcDbMLeaderStyle
179
     2
170
     2
171
     1
172
     0
 90
        2
 40
0.0
 41
0.0
173
     1
 91
-1056964608
340
5B
 92
       -2
290
     1
 42
0.09
291
     1
 43
0.36
  3
Standard
 44
0.18
300

342
55
174
     1
178
     6
175
     1
176
     0
 93
-1056964608
 45
0.18
292
     0
297
     0
 46
0.18
 94
-1056964608
 47
1.0
 49
1.0
140
1.0
293
     1
141
0.0
294
     1
177
     0
142
1.0
295
     1
296
     0
143
0.125
271
     0
272
     9
273
     9
298
     1
  0
MLINESTYLE
  5
60
102
{ACAD_REACTORS
330
5F
102
}
330
5F
100
AcDbMlineStyle
  2
STANDARD
 70
     0
  3

 62
   256
 51
90.0
 52
90.0
 71
     2
 49
0.5
 62
   256
  6
BYLAYER
 49
-0.5
 62
   256
  6
BYLAYER
  0
ACDBPLACEHOLDER
  5
F
102
{ACAD_REACTORS
330
E
102
}
330
E
  0
SCALE
  5
43
102
{ACAD_REACTORS
330
42
102
}
330
42
100
AcDbScale
 70
     0
300
1:1
140
1.0
141
1.0
290
     1
  0
SCALE
  5
44
102
{ACAD_REACTORS
330
42
102
}
330
42
100
AcDbScale
 70
     0
300
1/128" = 1'-0"
140
0.0078125
141
12.0
290
     0
  0
SCALE
  5
45
102
{ACAD_REACTORS
330
42
102
}
330
42
100
AcDbScale
 70
     0
300
1/64" = 1'-0"
140
0.015625
141
12.0
290
     0
  0
SCALE
  5
46
102
{ACAD_REACTORS
330
42
102
}
330
42
100
AcDbScale
 70
     0
300
1/32" = 1'-0"
140
0.03125
141
12.0
290
     0
  0
SCALE
  5
47
102
{ACAD_REACTORS
330
42
102
}
330
42
100
AcDbScale
 70
     0
300
1/16" = 1'-0"
140
0.0625
141
12.0
290
     0
  0
SCALE
  5
48
102
{ACAD_REACTORS
330
42
102
}
330
42
100
AcDbScale
 70
     0
300
3/32" = 1'-0"
140
0.09375
141
12.0
290
     0
  0
SCALE
  5
49
102
{ACAD_REACTORS
330
42
102
}
330
42
100
AcDbScale
 70
     0
300
1/8" = 1'-0"
140
0.125
141
12.0
290
     0
  0
SCALE
  5
4A
102
{ACAD_REACTORS
330
42
102
}
330
42
100
AcDbScale
 70
     0
300
3/16" = 1'-0"
140
0.1875
141
12.0
290
     0
  0
SCALE
  5
4B
102
{ACAD_REACTORS
330
42
102
}
330
42
100
AcDbScale
 70
     0
300
1/4" = 1'-0"
140
0.25
141
12.0
290
     0
  0
SCALE
  5
4C
102
{ACAD_REACTORS
330
42
102
}
330
42
100
AcDbScale
 70
     0
300
3/8" = 1'-0"
140
0.375
141
12.0
290
     0
  0
SCALE
  5
4D
102
{ACAD_REACTORS
330
42
102
}
330
42
100
AcDbScale
 70
     0
300
1/2" = 1'-0"
140
0.5
141
12.0
290
     0
  0
SCALE
  5
4E
102
{ACAD_REACTORS
330
42
102
}
330
42
100
AcDbScale
 70
     0
300
3/4" = 1'-0"
140
0.75
141
12.0
290
     0
  0
SCALE
  5
4F
102
{ACAD_REACTORS
330
42
102
}
330
42
100
AcDbScale
 70
     0
300
1" = 1'-0"
140
1.0
141
12.0
290
     0
  0
SCALE
  5
50
102
{ACAD_REACTORS
330
42
102
}
330
42
100
AcDbScale
 70
     0
300
1-1/2" = 1'-0"
140
1.5
141
12.0
290
     0
  0
SCALE
  5
51
102
{ACAD_REACTORS
330
42
102
}
330
42
100
AcDbScale
 70
     0
300
3" = 1'-0"
140
3.0
141
12.0
290
     0
  0
SCALE
  5
52
102
{ACAD_REACTORS
330
42
102
}
330
42
100
AcDbScale
 70
     0
300
6" = 1'-0"
140
6.0
141
12.0
290
     0
  0
SCALE
  5
53
102
{ACAD_REACTORS
330
42
102
}
330
42
100
AcDbScale
 70
     0
300
1'-0" = 1'-0"
140
12.0
141
12.0
290
     0
  0
ACDBSECTIONVIEWSTYLE
  5
69
102
{ACAD_REACTORS
330
68
102
}
330
68
100
AcDbModelDocViewStyle
 70
     0
  3
Imperial24
290
     1
300
Imperial24
 90
        0
100
AcDbSectionViewStyle
 70
     0
 71
     0
 90
       78
 71
     1
340
55
 62
   256
 40
0.24
340
0
340
0
 62
   256
 40
0.24
300
I, O, Q, S, X, Z
 40
0.48
 90
        3
 40
0.18
 90
        1
 71
     2
340
5D
 90
       25
 62
   256
340
5D
 90
       50
 62
   256
 40
0.24
 40
0.0
 40
0.24
 71
     3
340
55
 62
   256
 40
0.24
 90
        1
 40
0.75
 90
        1
300
%<\AcVar ViewType \f "%tc1">% %<\AcVar ViewSectionStartId>%-%<\AcVar ViewSectionEndId>%\PSCALE %<\AcVar ViewScale \f "%sn">%
 71
     4
 62
   256
 62
   257
300
ANSI31
 40
1.0
 90
        0
290
     0
290
     0
 90
        6
 40
0.0
 40
1.570796326794896
 40
0.2617993877991494
 40
1.308996938995747
 40
-0.2617993877991494
 40
1.832595714594046
  0
TABLESTYLE
  5
65
102
{ACAD_XDICTIONARY
360
3B6
102
}
102
{ACAD_REACTORS
330
64
102
}
330
64
100
AcDbTableStyle
280
     0
  3
Standard
 70
     0
 71
     0
 40
0.06
 41
0.06
280
     0
281
     0
  7
Standard
140
0.18
170
     2
 62
     0
 63
     7
283
     0
 90
      512
 91
        0
  1

274
    -2
284
     1
 64
     0
275
    -2
285
     1
 65
     0
276
    -2
286
     1
 66
     0
277
    -2
287
     1
 67
     0
278
    -2
288
     1
 68
     0
279
    -2
289
     1
 69
     0
  7
Standard
140
0.25
170
     5
 62
     0
 63
     7
283
     0
 90
      512
 91
        0
  1

274
    -2
284
     1
 64
     0
275
    -2
285
     1
 65
     0
276
    -2
286
     1
 66
     0
277
    -2
287
     1
 67
     0
278
    -2
288
     1
 68
     0
279
    -2
289
     1
 69
     0
  7
Standard
140
0.18
170
     5
 62
     0
 63
     7
283
     0
 90
      512
 91
        0
  1

274
    -2
284
     1
 64
     0
275
    -2
285
     1
 65
     0
276
    -2
286
     1
 66
     0
277
    -2
287
     1
 67
     0
278
    -2
288
     1
 68
     0
279
    -2
289
     1
 69
     0
  0
VISUALSTYLE
  5
2F
102
{ACAD_REACTORS
330
29
102
}
330
29
100
AcDbVisualStyle
  2
2dWireframe
 70
     4
177
     3
291
     0
 70
    58
 90
        0
176
     1
 90
        2
176
     1
 90
        0
176
     1
 90
        0
176
     1
 40
0.6
176
     1
 40
30.0
176
     1
 62
     7
420
 16777215
176
     1
 90
        1
176
     1
 90
        4
176
     1
 62
     7
176
     1
 62
   257
176
     1
 90
        1
176
     1
 90
        1
176
     1
 40
1.0
176
     1
 90
        0
176
     1
 62
   257
176
     1
 40
1.0
176
     1
 90
        1
176
     1
 90
        6
176
     1
 90
        2
176
     1
 62
     7
176
     1
 90
        5
176
     1
 90
        0
176
     1
 90
        0
176
     1
290
     0
176
     1
 90
        1
176
     1
 40
0.0
176
     1
 90
        0
176
     1
290
     1
176
     1
290
     1
176
     1
290
     0
176
     1
290
     0
176
     1
290
     0
176
     1
290
     0
176
     1
290
     0
176
     1
290
     0
176
     1
290
     0
176
     1
 90
       50
176
     1
 40
0.0
176
     1
 40
1.0
176
     1
 90
        0
176
     1
 62
    18
420
        0
176
     1
 90
       50
176
     1
 90
        3
176
     1
 62
     5
420
      255
176
     1
290
     0
176
     1
 90
       50
176
     1
 90
       50
176
     1
 90
       50
176
     1
290
     0
176
     1
 90
       50
176
     1
 62
   256
176
     0
 40
1.0
176
     0
 90
        2
176
     1
  1
strokes_ogs.tif
176
     1
290
     0
176
     1
 40
1.0
176
     1
 40
1.0
176
     1
  0
VISUALSTYLE
  5
2E
102
{ACAD_REACTORS
330
29
102
}
330
29
100
AcDbVisualStyle
  2
Basic
 70
     7
177
     3
291
     1
 70
    58
 90
        1
176
     1
 90
        0
176
     1
 90
        1
176
     1
 90
        0
176
     1
 40
0.6
176
     1
 40
30.0
176
     1
 62
     7
420
 16777215
176
     1
 90
        0
176
     1
 90
        4
176
     1
 62
     7
176
     1
 62
   257
176
     1
 90
        1
176
     1
 90
        1
176
     1
 40
1.0
176
     1
 90
        8
176
     1
 62
     7
176
     1
 40
1.0
176
     1
 90
        1
176
     1
 90
        6
176
     1
 90
        2
176
     1
 62
     7
176
     1
 90
        5
176
     1
 90
        0
176
     1
 90
        0
176
     1
290
     0
176
     1
 90
        1
176
     1
 40
0.0
176
     1
 90
        0
176
     1
290
     0
176
     1
290
     1
176
     1
290
     1
176
     1
290
     0
176
     1
290
     0
176
     1
290
     0
176
     1
290
     0
176
     1
290
     0
176
     1
290
     0
176
     1
 90
       50
176
     1
 40
0.0
176
     1
 40
1.0
176
     1
 90
        0
176
     1
 62
    18
420
        0
176
     1
 90
       50
176
     1
 90
        3
176
     1
 62
     5
420
      255
176
     1
290
     0
176
     1
 90
       50
176
     1
 90
       50
176
     1
 90
       50
176
     1
290
     0
176
     1
 90
       50
176
     1
 62
   256
176
     0
 40
1.0
176
     0
 90
        2
176
     1
  1
strokes_ogs.tif
176
     1
290
     0
176
     1
 40
1.0
176
     1
 40
1.0
176
     1
  0
VISUALSTYLE
  5
35
102
{ACAD_REACTORS
330
29
102
}
330
29
100
AcDbVisualStyle
  2
Brighten
 70
    12
177
     3
291
     1
 70
    58
 90
        2
176
     1
 90
        2
176
     1
 90
        0
176
     1
 90
        0
176
     1
 40
0.6
176
     1
 40
30.0
176
     1
 62
     7
420
 16777215
176
     1
 90
        1
176
     1
 90
        4
176
     1
 62
     7
176
     1
 62
   257
176
     1
 90
        1
176
     1
 90
        1
176
     1
 40
1.0
176
     1
 90
        8
176
     1
 62
     7
176
     1
 40
1.0
176
     1
 90
        1
176
     1
 90
        6
176
     1
 90
        2
176
     1
 62
     7
176
     1
 90
        5
176
     1
 90
        0
176
     1
 90
        0
176
     1
290
     0
176
     1
 90
        1
176
     1
 40
50.0
176
     1
 90
        0
176
     1
290
     0
176
     1
290
     1
176
     1
290
     1
176
     1
290
     0
176
     1
290
     0
176
     1
290
     0
176
     1
290
     0
176
     1
290
     0
176
     1
290
     0
176
     1
 90
       50
176
     1
 40
0.0
176
     1
 40
1.0
176
     1
 90
        0
176
     1
 62
    18
420
        0
176
     1
 90
       50
176
     1
 90
        3
176
     1
 62
     5
420
      255
176
     1
290
     0
176
     1
 90
       50
176
     1
 90
       50
176
     1
 90
       50
176
     1
290
     0
176
     1
 90
       50
176
     1
 62
   256
176
     0
 40
1.0
176
     0
 90
        2
176
     1
  1
strokes_ogs.tif
176
     1
290
     0
176
     1
 40
1.0
176
     1
 40
1.0
176
     1
  0
VISUALSTYLE
  5
39
102
{ACAD_REACTORS
330
29
102
}
330
29
100
AcDbVisualStyle
  2
ColorChange
 70
    16
177
     3
291
     1
 70
    58
 90
        2
176
     1
 90
        2
176
     1
 90
        3
176
     1
 90
        0
176
     1
 40
0.6
176
     1
 40
30.0
176
     1
 62
     8
420
  8421504
176
     1
 90
        1
176
     1
 90
        4
176
     1
 62
     7
176
     1
 62
   257
176
     1
 90
        1
176
     1
 90
        1
176
     1
 40
1.0
176
     1
 90
        8
176
     1
 62
     8
420
  8421504
176
     1
 40
1.0
176
     1
 90
        1
176
     1
 90
        6
176
     1
 90
        2
176
     1
 62
     7
176
     1
 90
        5
176
     1
 90
        0
176
     1
 90
        0
176
     1
290
     0
176
     1
 90
        1
176
     1
 40
0.0
176
     1
 90
        0
176
     1
290
     0
176
     1
290
     1
176
     1
290
     1
176
     1
290
     0
176
     1
290
     0
176
     1
290
     0
176
     1
290
     0
176
     1
290
     0
176
     1
290
     0
176
     1
 90
       50
176
     1
 40
0.0
176
     1
 40
1.0
176
     1
 90
        0
176
     1
 62
    18
420
        0
176
     1
 90
       50
176
     1
 90
        3
176
     1
 62
     5
420
      255
176
     1
290
     0
176
     1
 90
       50
176
     1
 90
       50
176
     1
 90
       50
176
     1
290
     0
176
     1
 90
       50
176
     1
 62
   256
176
     0
 40
1.0
176
     0
 90
        2
176
     1
  1
strokes_ogs.tif
176
     1
290
     0
176
     1
 40
1.0
176
     1
 40
1.0
176
     1
  0
VISUALSTYLE
  5
32
102
{ACAD_REACTORS
330
29
102
}
330
29
100
AcDbVisualStyle
  2
Conceptual
 70
     9
177
     3
291
     0
 70
    58
 90
        3
176
     1
 90
        2
176
     1
 90
        0
176
     1
 90
        0
176
     1
 40
0.6
176
     1
 40
30.0
176
     1
 62
     7
420
 16777215
176
     1
 90
        2
176
     1
 90
        2
176
     1
 62
     7
176
     1
 62
   257
176
     1
 90
        1
176
     1
 90
        1
176
     1
 40
179.0
176
     1
 90
        8
176
     1
 62
     7
176
     1
 40
1.0
176
     1
 90
        1
176
     1
 90
        6
176
     1
 90
        2
176
     1
 62
     7
176
     1
 90
        3
176
     1
 90
        0
176
     1
 90
        0
176
     1
290
     0
176
     1
 90
        1
176
     1
 40
0.0
176
     1
 90
        0
176
     1
290
     0
176
     1
290
     1
176
     1
290
     1
176
     1
290
     0
176
     1
290
     0
176
     1
290
     0
176
     1
290
     0
176
     1
290
     0
176
     1
290
     0
176
     1
 90
       50
176
     1
 40
0.0
176
     1
 40
1.0
176
     1
 90
        0
176
     1
 62
    18
420
        0
176
     1
 90
       50
176
     1
 90
        3
176
     1
 62
     5
420
      255
176
     1
290
     0
176
     1
 90
       50
176
     1
 90
       50
176
     1
 90
       50
176
     1
290
     0
176
     1
 90
       50
176
     1
 62
   256
176
     0
 40
1.0
176
     0
 90
        2
176
     1
  1
strokes_ogs.tif
176
     1
290
     0
176
     1
 40
1.0
176
     1
 40
1.0
176
     1
  0
VISUALSTYLE
  5
34
102
{ACAD_REACTORS
330
29
102
}
330
29
100
AcDbVisualStyle
  2
Dim
 70
    11
177
     3
291
     1
 70
    58
 90
        2
176
     1
 90
        2
176
     1
 90
        0
176
     1
 90
        0
176
     1
 40
0.6
176
     1
 40
30.0
176
     1
 62
     7
420
 16777215
176
     1
 90
        1
176
     1
 90
        4
176
     1
 62
     7
176
     1
 62
   257
176
     1
 90
        1
176
     1
 90
        1
176
     1
 40
1.0
176
     1
 90
        8
176
     1
 62
     7
176
     1
 40
1.0
176
     1
 90
        1
176
     1
 90
        6
176
     1
 90
        2
176
     1
 62
     7
176
     1
 90
        5
176
     1
 90
        0
176
     1
 90
        0
176
     1
290
     0
176
     1
 90
        1
176
     1
 40
-50.0
176
     1
 90
        0
176
     1
290
     0
176
     1
290
     1
176
     1
290
     1
176
     1
290
     0
176
     1
290
     0
176
     1
290
     0
176
     1
290
     0
176
     1
290
     0
176
     1
290
     0
176
     1
 90
       50
176
     1
 40
0.0
176
     1
 40
1.0
176
     1
 90
        0
176
     1
 62
    18
420
        0
176
     1
 90
       50
176
     1
 90
        3
176
     1
 62
     5
420
      255
176
     1
290
     0
176
     1
 90
       50
176
     1
 90
       50
176
     1
 90
       50
176
     1
290
     0
176
     1
 90
       50
176
     1
 62
   256
176
     0
 40
1.0
176
     0
 90
        2
176
     1
  1
strokes_ogs.tif
176
     1
290
     0
176
     1
 40
1.0
176
     1
 40
1.0
176
     1
  0
VISUALSTYLE
  5
41
102
{ACAD_REACTORS
330
29
102
}
330
29
100
AcDbVisualStyle
  2
EdgeColorOff
 70
    22
177
     3
291
     1
 70
    58
 90
        2
176
     0
 90
        2
176
     0
 90
        0
176
     0
 90
        0
176
     0
 40
0.6
176
     0
 40
30.0
176
     0
 62
     7
420
 16777215
176
     0
 90
        1
176
     0
 90
        4
176
     0
 62
     7
176
     0
 62
   257
176
     0
 90
        1
176
     0
 90
        1
176
     0
 40
1.0
176
     0
 90
        8
176
     2
 62
     7
176
     0
 40
1.0
176
     0
 90
        1
176
     0
 90
        6
176
     0
 90
        2
176
     0
 62
     7
176
     0
 90
        5
176
     0
 90
        0
176
     0
 90
        0
176
     0
290
     0
176
     0
 90
        1
176
     0
 40
0.0
176
     0
 90
        0
176
     0
290
     0
176
     0
290
     1
176
     0
290
     1
176
     0
290
     0
176
     0
290
     0
176
     0
290
     0
176
     0
290
     0
176
     0
290
     0
176
     0
290
     0
176
     0
 90
       50
176
     0
 40
0.0
176
     0
 40
1.0
176
     0
 90
        0
176
     0
 62
    18
420
        0
176
     0
 90
       50
176
     0
 90
        3
176
     0
 62
     5
420
      255
176
     0
290
     0
176
     0
 90
       50
176
     0
 90
       50
176
     0
 90
       50
176
     0
290
     0
176
     0
 90
       50
176
     0
 62
   256
176
     0
 40
1.0
176
     0
 90
        2
176
     0
  1
strokes_ogs.tif
176
     0
290
     0
176
     0
 40
1.0
176
     0
 40
1.0
176
     0
  0
VISUALSTYLE
  5
38
102
{ACAD_REACTORS
330
29
102
}
330
29
100
AcDbVisualStyle
  2
Facepattern
 70
    15
177
     3
291
     1
 70
    58
 90
        2
176
     1
 90
        2
176
     1
 90
        0
176
     1
 90
        0
176
     1
 40
0.6
176
     1
 40
30.0
176
     1
 62
     7
420
 16777215
176
     1
 90
        1
176
     1
 90
        4
176
     1
 62
     7
176
     1
 62
   257
176
     1
 90
        1
176
     1
 90
        1
176
     1
 40
1.0
176
     1
 90
        8
176
     1
 62
     7
176
     1
 40
1.0
176
     1
 90
        1
176
     1
 90
        6
176
     1
 90
        2
176
     1
 62
     7
176
     1
 90
        5
176
     1
 90
        0
176
     1
 90
        0
176
     1
290
     0
176
     1
 90
        1
176
     1
 40
0.0
176
     1
 90
        0
176
     1
290
     0
176
     1
290
     1
176
     1
290
     1
176
     1
290
     0
176
     1
290
     0
176
     1
290
     0
176
     1
290
     0
176
     1
290
     0
176
     1
290
     0
176
     1
 90
       50
176
     1
 40
0.0
176
     1
 40
1.0
176
     1
 90
        0
176
     1
 62
    18
420
        0
176
     1
 90
       50
176
     1
 90
        3
176
     1
 62
     5
420
      255
176
     1
290
     0
176
     1
 90
       50
176
     1
 90
       50
176
     1
 90
       50
176
     1
290
     0
176
     1
 90
       50
176
     1
 62
   256
176
     0
 40
1.0
176
     0
 90
        2
176
     1
  1
strokes_ogs.tif
176
     1
290
     0
176
     1
 40
1.0
176
     1
 40
1.0
176
     1
  0
VISUALSTYLE
  5
2A
102
{ACAD_REACTORS
330
29
102
}
330
29
100
AcDbVisualStyle
  2
Flat
 70
     0
177
     3
291
     1
 70
    58
 90
        2
176
     1
 90
        1
176
     1
 90
        1
176
     1
 90
        2
176
     1
 40
0.6
176
     1
 40
30.0
176
     1
 62
     7
420
 16777215
176
     1
 90
        0
176
     1
 90
        0
176
     1
 62
     7
176
     1
 62
   257
176
     1
 90
        1
176
     1
 90
        1
176
     1
 40
1.0
176
     1
 90
        8
176
     1
 62
     7
176
     1
 40
1.0
176
     1
 90
        1
176
     1
 90
        6
176
     1
 90
        2
176
     1
 62
     7
176
     1
 90
        5
176
     1
 90
        0
176
     1
 90
        0
176
     1
290
     0
176
     1
 90
       13
176
     1
 40
0.0
176
     1
 90
        0
176
     1
290
     0
176
     1
290
     1
176
     1
290
     1
176
     1
290
     0
176
     1
290
     0
176
     1
290
     0
176
     1
290
     0
176
     1
290
     0
176
     1
290
     0
176
     1
 90
       50
176
     1
 40
0.0
176
     1
 40
1.0
176
     1
 90
        0
176
     1
 62
    18
420
        0
176
     1
 90
       50
176
     1
 90
        3
176
     1
 62
     5
420
      255
176
     1
290
     0
176
     1
 90
       50
176
     1
 90
       50
176
     1
 90
       50
176
     1
290
     0
176
     1
 90
       50
176
     1
 62
   256
176
     0
 40
1.0
176
     0
 90
        2
176
     1
  1
strokes_ogs.tif
176
     1
290
     0
176
     1
 40
1.0
176
     1
 40
1.0
176
     1
  0
VISUALSTYLE
  5
2B
102
{ACAD_REACTORS
330
29
102
}
330
29
100
AcDbVisualStyle
  2
FlatWithEdges
 70
     1
177
     3
291
     1
 70
    58
 90
        2
176
     1
 90
        1
176
     1
 90
        1
176
     1
 90
        2
176
     1
 40
0.6
176
     1
 40
30.0
176
     1
 62
     7
420
 16777215
176
     1
 90
        1
176
     1
 90
        0
176
     1
 62
     7
176
     1
 62
   257
176
     1
 90
        1
176
     1
 90
        1
176
     1
 40
1.0
176
     1
 90
        0
176
     1
 62
   257
176
     1
 40
1.0
176
     1
 90
        1
176
     1
 90
        6
176
     1
 90
        2
176
     1
 62
     7
176
     1
 90
        5
176
     1
 90
        0
176
     1
 90
        0
176
     1
290
     0
176
     1
 90
       13
176
     1
 40
0.0
176
     1
 90
        0
176
     1
290
     0
176
     1
290
     1
176
     1
290
     1
176
     1
290
     0
176
     1
290
     0
176
     1
290
     0
176
     1
290
     0
176
     1
290
     0
176
     1
290
     0
176
     1
 90
       50
176
     1
 40
0.0
176
     1
 40
1.0
176
     1
 90
        0
176
     1
 62
    18
420
        0
176
     1
 90
       50
176
     1
 90
        3
176
     1
 62
     5
420
      255
176
     1
290
     0
176
     1
 90
       50
176
     1
 90
       50
176
     1
 90
       50
176
     1
290
     0
176
     1
 90
       50
176
     1
 62
   256
176
     0
 40
1.0
176
     0
 90
        2
176
     1
  1
strokes_ogs.tif
176
     1
290
     0
176
     1
 40
1.0
176
     1
 40
1.0
176
     1
  0
VISUALSTYLE
  5
2C
102
{ACAD_REACTORS
330
29
102
}
330
29
100
AcDbVisualStyle
  2
Gouraud
 70
     2
177
     3
291
     1
 70
    58
 90
        2
176
     1
 90
        2
176
     1
 90
        1
176
     1
 90
        2
176
     1
 40
0.6
176
     1
 40
30.0
176
     1
 62
     7
420
 16777215
176
     1
 90
        0
176
     1
 90
        0
176
     1
 62
     7
176
     1
 62
   257
176
     1
 90
        1
176
     1
 90
        1
176
     1
 40
1.0
176
     1
 90
        0
176
     1
 62
     7
176
     1
 40
1.0
176
     1
 90
        1
176
     1
 90
        6
176
     1
 90
        2
176
     1
 62
     7
176
     1
 90
        5
176
     1
 90
        0
176
     1
 90
        0
176
     1
290
     0
176
     1
 90
       13
176
     1
 40
0.0
176
     1
 90
        0
176
     1
290
     0
176
     1
290
     1
176
     1
290
     1
176
     1
290
     0
176
     1
290
     0
176
     1
290
     0
176
     1
290
     0
176
     1
290
     0
176
     1
290
     0
176
     1
 90
       50
176
     1
 40
0.0
176
     1
 40
1.0
176
     1
 90
        0
176
     1
 62
    18
420
        0
176
     1
 90
       50
176
     1
 90
        3
176
     1
 62
     5
420
      255
176
     1
290
     0
176
     1
 90
       50
176
     1
 90
       50
176
     1
 90
       50
176
     1
290
     0
176
     1
 90
       50
176
     1
 62
   256
176
     0
 40
1.0
176
     0
 90
        2
176
     1
  1
strokes_ogs.tif
176
     1
290
     0
176
     1
 40
1.0
176
     1
 40
1.0
176
     1
  0
VISUALSTYLE
  5
2D
102
{ACAD_REACTORS
330
29
102
}
330
29
100
AcDbVisualStyle
  2
GouraudWithEdges
 70
     3
177
     3
291
     1
 70
    58
 90
        2
176
     1
 90
        2
176
     1
 90
        1
176
     1
 90
        2
176
     1
 40
0.6
176
     1
 40
30.0
176
     1
 62
     7
420
 16777215
176
     1
 90
        1
176
     1
 90
        0
176
     1
 62
     7
176
     1
 62
   257
176
     1
 90
        1
176
     1
 90
        1
176
     1
 40
1.0
176
     1
 90
        0
176
     1
 62
   257
176
     1
 40
1.0
176
     1
 90
        1
176
     1
 90
        6
176
     1
 90
        2
176
     1
 62
     7
176
     1
 90
        5
176
     1
 90
        0
176
     1
 90
        0
176
     1
290
     0
176
     1
 90
       13
176
     1
 40
0.0
176
     1
 90
        0
176
     1
290
     0
176
     1
290
     1
176
     1
290
     1
176
     1
290
     0
176
     1
290
     0
176
     1
290
     0
176
     1
290
     0
176
     1
290
     0
176
     1
290
     0
176
     1
 90
       50
176
     1
 40
0.0
176
     1
 40
1.0
176
     1
 90
        0
176
     1
 62
    18
420
        0
176
     1
 90
       50
176
     1
 90
        3
176
     1
 62
     5
420
      255
176
     1
290
     0
176
     1
 90
       50
176
     1
 90
       50
176
     1
 90
       50
176
     1
290
     0
176
     1
 90
       50
176
     1
 62
   256
176
     0
 40
1.0
176
     0
 90
        2
176
     1
  1
strokes_ogs.tif
176
     1
290
     0
176
     1
 40
1.0
176
     1
 40
1.0
176
     1
  0
VISUALSTYLE
  5
31
102
{ACAD_REACTORS
330
29
102
}
330
29
100
AcDbVisualStyle
  2
Hidden
 70
     6
177
     3
291
     0
 70
    58
 90
        1
176
     1
 90
        2
176
     1
 90
        2
176
     1
 90
        0
176
     1
 40
0.6
176
     1
 40
30.0
176
     1
 62
     7
420
 16777215
176
     1
 90
        2
176
     1
 90
        2
176
     1
 62
     7
176
     1
 62
   257
176
     1
 90
        2
176
     1
 90
        1
176
     1
 40
40.0
176
     1
 90
        0
176
     1
 62
   257
176
     1
 40
1.0
176
     1
 90
        1
176
     1
 90
        6
176
     1
 90
        2
176
     1
 62
     7
176
     1
 90
        3
176
     1
 90
        0
176
     1
 90
        0
176
     1
290
     0
176
     1
 90
        1
176
     1
 40
0.0
176
     1
 90
        0
176
     1
290
     0
176
     1
290
     1
176
     1
290
     1
176
     1
290
     0
176
     1
290
     0
176
     1
290
     0
176
     1
290
     0
176
     1
290
     0
176
     1
290
     0
176
     1
 90
       50
176
     1
 40
0.0
176
     1
 40
1.0
176
     1
 90
        0
176
     1
 62
    18
420
        0
176
     1
 90
       50
176
     1
 90
        3
176
     1
 62
     5
420
      255
176
     1
290
     0
176
     1
 90
       50
176
     1
 90
       50
176
     1
 90
       50
176
     1
290
     0
176
     1
 90
       50
176
     1
 62
   256
176
     0
 40
1.0
176
     0
 90
        2
176
     1
  1
strokes_ogs.tif
176
     1
290
     0
176
     1
 40
1.0
176
     1
 40
1.0
176
     1
  0
VISUALSTYLE
  5
3F
102
{ACAD_REACTORS
330
29
102
}
330
29
100
AcDbVisualStyle
  2
JitterOff
 70
    20
177
     3
291
     1
 70
    58
 90
        2
176
     0
 90
        2
176
     0
 90
        0
176
     0
 90
        0
176
     0
 40
0.6
176
     0
 40
30.0
176
     0
 62
     7
420
 16777215
176
     0
 90
        1
176
     0
 90
        4
176
     0
 62
     7
176
     0
 62
   257
176
     0
 90
        1
176
     0
 90
        1
176
     0
 40
1.0
176
     0
 90
       10
176
     2
 62
     7
176
     0
 40
1.0
176
     0
 90
        1
176
     0
 90
        6
176
     0
 90
        2
176
     0
 62
     7
176
     0
 90
        5
176
     0
 90
        0
176
     0
 90
        0
176
     0
290
     0
176
     0
 90
        1
176
     0
 40
0.0
176
     0
 90
        0
176
     0
290
     0
176
     0
290
     1
176
     0
290
     1
176
     0
290
     0
176
     0
290
     0
176
     0
290
     0
176
     0
290
     0
176
     0
290
     0
176
     0
290
     0
176
     0
 90
       50
176
     0
 40
0.0
176
     0
 40
1.0
176
     0
 90
        0
176
     0
 62
    18
420
        0
176
     0
 90
       50
176
     0
 90
        3
176
     0
 62
     5
420
      255
176
     0
290
     0
176
     0
 90
       50
176
     0
 90
       50
176
     0
 90
       50
176
     0
290
     0
176
     0
 90
       50
176
     0
 62
   256
176
     0
 40
1.0
176
     0
 90
        2
176
     0
  1
strokes_ogs.tif
176
     0
290
     0
176
     0
 40
1.0
176
     0
 40
1.0
176
     0
  0
VISUALSTYLE
  5
37
102
{ACAD_REACTORS
330
29
102
}
330
29
100
AcDbVisualStyle
  2
Linepattern
 70
    14
177
     3
291
     1
 70
    58
 90
        2
176
     1
 90
        2
176
     1
 90
        0
176
     1
 90
        0
176
     1
 40
0.6
176
     1
 40
30.0
176
     1
 62
     7
420
 16777215
176
     1
 90
        1
176
     1
 90
        4
176
     1
 62
     7
176
     1
 62
   257
176
     1
 90
        7
176
     1
 90
        7
176
     1
 40
1.0
176
     1
 90
        8
176
     1
 62
     7
176
     1
 40
1.0
176
     1
 90
        1
176
     1
 90
        6
176
     1
 90
        2
176
     1
 62
     7
176
     1
 90
        5
176
     1
 90
        0
176
     1
 90
        0
176
     1
290
     0
176
     1
 90
        1
176
     1
 40
0.0
176
     1
 90
        0
176
     1
290
     0
176
     1
290
     1
176
     1
290
     1
176
     1
290
     0
176
     1
290
     0
176
     1
290
     0
176
     1
290
     0
176
     1
290
     0
176
     1
290
     0
176
     1
 90
       50
176
     1
 40
0.0
176
     1
 40
1.0
176
     1
 90
        0
176
     1
 62
    18
420
        0
176
     1
 90
       50
176
     1
 90
        3
176
     1
 62
     5
420
      255
176
     1
290
     0
176
     1
 90
       50
176
     1
 90
       50
176
     1
 90
       50
176
     1
290
     0
176
     1
 90
       50
176
     1
 62
   256
176
     0
 40
1.0
176
     0
 90
        2
176
     1
  1
strokes_ogs.tif
176
     1
290
     0
176
     1
 40
1.0
176
     1
 40
1.0
176
     1
  0
VISUALSTYLE
  5
40
102
{ACAD_REACTORS
330
29
102
}
330
29
100
AcDbVisualStyle
  2
OverhangOff
 70
    21
177
     3
291
     1
 70
    58
 90
        2
176
     0
 90
        2
176
     0
 90
        0
176
     0
 90
        0
176
     0
 40
0.6
176
     0
 40
30.0
176
     0
 62
     7
420
 16777215
176
     0
 90
        1
176
     0
 90
        4
176
     0
 62
     7
176
     0
 62
   257
176
     0
 90
        1
176
     0
 90
        1
176
     0
 40
1.0
176
     0
 90
        9
176
     2
 62
     7
176
     0
 40
1.0
176
     0
 90
        1
176
     0
 90
        6
176
     0
 90
        2
176
     0
 62
     7
176
     0
 90
        5
176
     0
 90
        0
176
     0
 90
        0
176
     0
290
     0
176
     0
 90
        1
176
     0
 40
0.0
176
     0
 90
        0
176
     0
290
     0
176
     0
290
     1
176
     0
290
     1
176
     0
290
     0
176
     0
290
     0
176
     0
290
     0
176
     0
290
     0
176
     0
290
     0
176
     0
290
     0
176
     0
 90
       50
176
     0
 40
0.0
176
     0
 40
1.0
176
     0
 90
        0
176
     0
 62
    18
420
        0
176
     0
 90
       50
176
     0
 90
        3
176
     0
 62
     5
420
      255
176
     0
290
     0
176
     0
 90
       50
176
     0
 90
       50
176
     0
 90
       50
176
     0
290
     0
176
     0
 90
       50
176
     0
 62
   256
176
     0
 40
1.0
176
     0
 90
        2
176
     0
  1
strokes_ogs.tif
176
     0
290
     0
176
     0
 40
1.0
176
     0
 40
1.0
176
     0
  0
VISUALSTYLE
  5
33
102
{ACAD_REACTORS
330
29
102
}
330
29
100
AcDbVisualStyle
  2
Realistic
 70
     8
177
     3
291
     0
 70
    58
 90
        2
176
     1
 90
        3
176
     1
 90
        0
176
     1
 90
        2
176
     1
 40
0.6
176
     1
 40
30.0
176
     1
 62
     7
420
 16777215
176
     1
 90
        0
176
     1
 90
        0
176
     1
 62
     7
176
     1
 62
   257
176
     1
 90
        1
176
     1
 90
        1
176
     1
 40
1.0
176
     1
 90
        8
176
     1
 62
   257
176
     1
 40
1.0
176
     1
 90
        1
176
     1
 90
        6
176
     1
 90
        2
176
     1
 62
     7
176
     1
 90
        3
176
     1
 90
        0
176
     1
 90
        0
176
     1
290
     0
176
     1
 90
       13
176
     1
 40
0.0
176
     1
 90
        0
176
     1
290
     0
176
     1
290
     1
176
     1
290
     1
176
     1
290
     0
176
     1
290
     0
176
     1
290
     0
176
     1
290
     0
176
     1
290
     0
176
     1
290
     0
176
     1
 90
       50
176
     1
 40
0.0
176
     1
 40
1.0
176
     1
 90
        0
176
     1
 62
    18
420
        0
176
     1
 90
       50
176
     1
 90
        3
176
     1
 62
     5
420
      255
176
     1
290
     0
176
     1
 90
       50
176
     1
 90
       50
176
     1
 90
       50
176
     1
290
     0
176
     1
 90
       50
176
     1
 62
   256
176
     0
 40
1.0
176
     0
 90
        2
176
     1
  1
strokes_ogs.tif
176
     1
290
     0
176
     1
 40
1.0
176
     1
 40
1.0
176
     1
  0
VISUALSTYLE
  5
3E
102
{ACAD_REACTORS
330
29
102
}
330
29
100
AcDbVisualStyle
  2
Shaded
 70
    27
177
     3
291
     0
 70
    58
 90
        2
176
     1
 90
        2
176
     1
 90
        1
176
     1
 90
        2
176
     1
 40
0.6
176
     1
 40
30.0
176
     1
 62
     7
420
 16777215
176
     1
 90
        0
176
     1
 90
        4
176
     1
 62
     7
176
     1
 62
   257
176
     1
 90
        1
176
     1
 90
        1
176
     1
 40
1.0
176
     1
 90
        8
176
     1
 62
   257
176
     1
 40
1.0
176
     1
 90
        1
176
     1
 90
        6
176
     1
 90
        2
176
     1
 62
     8
420
  7895160
176
     1
 90
        3
176
     1
 90
        0
176
     1
 90
        0
176
     1
290
     0
176
     1
 90
        5
176
     1
 40
0.0
176
     1
 90
        0
176
     1
290
     0
176
     1
290
     1
176
     1
290
     1
176
     1
290
     0
176
     1
290
     0
176
     1
290
     0
176
     1
290
     0
176
     1
290
     0
176
     1
290
     0
176
     1
 90
       50
176
     1
 40
0.0
176
     1
 40
1.0
176
     1
 90
        0
176
     1
 62
    18
420
        0
176
     1
 90
       50
176
     1
 90
        3
176
     1
 62
     5
420
      255
176
     1
290
     0
176
     1
 90
       50
176
     1
 90
       50
176
     1
 90
       50
176
     1
290
     0
176
     1
 90
       50
176
     1
 62
   256
176
     0
 40
1.0
176
     0
 90
        2
176
     1
  1
strokes_ogs.tif
176
     1
290
     0
176
     1
 40
1.0
176
     1
 40
1.0
176
     1
  0
VISUALSTYLE
  5
3D
102
{ACAD_REACTORS
330
29
102
}
330
29
100
AcDbVisualStyle
  2
Shaded with edges
 70
    26
177
     3
291
     0
 70
    58
 90
        2
176
     1
 90
        2
176
     1
 90
        1
176
     1
 90
        2
176
     1
 40
0.6
176
     1
 40
30.0
176
     1
 62
     7
420
 16777215
176
     1
 90
        1
176
     1
 90
        2
176
     1
 62
     7
176
     1
 62
   257
176
     1
 90
        2
176
     1
 90
        1
176
     1
 40
1.0
176
     1
 90
        8
176
     1
 62
   257
176
     1
 40
1.0
176
     1
 90
        1
176
     1
 90
        6
176
     1
 90
        2
176
     1
 62
     7
176
     1
 90
        3
176
     1
 90
        0
176
     1
 90
        0
176
     1
290
     0
176
     1
 90
        5
176
     1
 40
0.0
176
     1
 90
        0
176
     1
290
     0
176
     1
290
     1
176
     1
290
     1
176
     1
290
     0
176
     1
290
     0
176
     1
290
     0
176
     1
290
     0
176
     1
290
     0
176
     1
290
     0
176
     1
 90
       50
176
     1
 40
0.0
176
     1
 40
1.0
176
     1
 90
        0
176
     1
 62
    18
420
        0
176
     1
 90
       50
176
     1
 90
        3
176
     1
 62
     5
420
      255
176
     1
290
     0
176
     1
 90
       50
176
     1
 90
       50
176
     1
 90
       50
176
     1
290
     0
176
     1
 90
       50
176
     1
 62
   256
176
     0
 40
1.0
176
     0
 90
        2
176
     1
  1
strokes_ogs.tif
176
     1
290
     0
176
     1
 40
1.0
176
     1
 40
1.0
176
     1
  0
VISUALSTYLE
  5
3A
102
{ACAD_REACTORS
330
29
102
}
330
29
100
AcDbVisualStyle
  2
Shades of Gray
 70
    23
177
     3
291
     0
 70
    58
 90
        2
176
     1
 90
        2
176
     1
 90
        3
176
     1
 90
        0
176
     1
 40
0.6
176
     1
 40
30.0
176
     1
 62
     7
420
 16777215
176
     1
 90
        2
176
     1
 90
        2
176
     1
 62
     7
176
     1
 62
     7
176
     1
 90
        1
176
     1
 90
        1
176
     1
 40
40.0
176
     1
 90
        8
176
     1
 62
     7
176
     1
 40
1.0
176
     1
 90
        1
176
     1
 90
        6
176
     1
 90
        2
176
     1
 62
     7
176
     1
 90
        3
176
     1
 90
        0
176
     1
 90
        0
176
     1
290
     0
176
     1
 90
        1
176
     1
 40
0.0
176
     1
 90
        0
176
     1
290
     0
176
     1
290
     1
176
     1
290
     1
176
     1
290
     0
176
     1
290
     0
176
     1
290
     0
176
     1
290
     0
176
     1
290
     0
176
     1
290
     0
176
     1
 90
       50
176
     1
 40
0.0
176
     1
 40
1.0
176
     1
 90
        0
176
     1
 62
    18
420
        0
176
     1
 90
       50
176
     1
 90
        3
176
     1
 62
     5
420
      255
176
     1
290
     0
176
     1
 90
       50
176
     1
 90
       50
176
     1
 90
       50
176
     1
290
     0
176
     1
 90
       50
176
     1
 62
   256
176
     0
 40
1.0
176
     0
 90
        2
176
     1
  1
strokes_ogs.tif
176
     1
290
     0
176
     1
 40
1.0
176
     1
 40
1.0
176
     1
  0
VISUALSTYLE
  5
3B
102
{ACAD_REACTORS
330
29
102
}
330
29
100
AcDbVisualStyle
  2
Sketchy
 70
    24
177
     3
291
     0
 70
    58
 90
        1
176
     1
 90
        2
176
     1
 90
        2
176
     1
 90
        0
176
     1
 40
0.6
176
     1
 40
30.0
176
     1
 62
     7
420
 16777215
176
     1
 90
        2
176
     1
 90
        2
176
     1
 62
     7
176
     1
 62
     7
176
     1
 90
        1
176
     1
 90
        1
176
     1
 40
40.0
176
     1
 90
       11
176
     1
 62
     7
176
     1
 40
1.0
176
     1
 90
        1
176
     1
 90
        6
176
     1
 90
        2
176
     1
 62
     7
176
     1
 90
        6
176
     1
 90
        0
176
     1
 90
        0
176
     1
290
     0
176
     1
 90
        1
176
     1
 40
0.0
176
     1
 90
        0
176
     1
290
     0
176
     1
290
     1
176
     1
290
     1
176
     1
290
     0
176
     1
290
     0
176
     1
290
     0
176
     1
290
     0
176
     1
290
     0
176
     1
290
     0
176
     1
 90
       50
176
     1
 40
0.0
176
     1
 40
1.0
176
     1
 90
        0
176
     1
 62
    18
420
        0
176
     1
 90
       50
176
     1
 90
        3
176
     1
 62
     5
420
      255
176
     1
290
     0
176
     1
 90
       50
176
     1
 90
       50
176
     1
 90
       50
176
     1
290
     0
176
     1
 90
       50
176
     1
 62
   256
176
     0
 40
1.0
176
     0
 90
        2
176
     1
  1
strokes_ogs.tif
176
     1
290
     0
176
     1
 40
1.0
176
     1
 40
1.0
176
     1
  0
VISUALSTYLE
  5
36
102
{ACAD_REACTORS
330
29
102
}
330
29
100
AcDbVisualStyle
  2
Thicken
 70
    13
177
     3
291
     1
 70
    58
 90
        2
176
     1
 90
        2
176
     1
 90
        0
176
     1
 90
        0
176
     1
 40
0.6
176
     1
 40
30.0
176
     1
 62
     7
420
 16777215
176
     1
 90
        1
176
     1
 90
        4
176
     1
 62
     7
176
     1
 62
   257
176
     1
 90
        1
176
     1
 90
        1
176
     1
 40
1.0
176
     1
 90
       12
176
     1
 62
     7
176
     1
 40
1.0
176
     1
 90
        1
176
     1
 90
        6
176
     1
 90
        2
176
     1
 62
     7
176
     1
 90
        5
176
     1
 90
        0
176
     1
 90
        0
176
     1
290
     0
176
     1
 90
        1
176
     1
 40
0.0
176
     1
 90
        0
176
     1
290
     0
176
     1
290
     1
176
     1
290
     1
176
     1
290
     0
176
     1
290
     0
176
     1
290
     0
176
     1
290
     0
176
     1
290
     0
176
     1
290
     0
176
     1
 90
       50
176
     1
 40
0.0
176
     1
 40
1.0
176
     1
 90
        0
176
     1
 62
    18
420
        0
176
     1
 90
       50
176
     1
 90
        3
176
     1
 62
     5
420
      255
176
     1
290
     0
176
     1
 90
       50
176
     1
 90
       50
176
     1
 90
       50
176
     1
290
     0
176
     1
 90
       50
176
     1
 62
   256
176
     0
 40
1.0
176
     0
 90
        2
176
     1
  1
strokes_ogs.tif
176
     1
290
     0
176
     1
 40
1.0
176
     1
 40
1.0
176
     1
  0
VISUALSTYLE
  5
30
102
{ACAD_REACTORS
330
29
102
}
330
29
100
AcDbVisualStyle
  2
Wireframe
 70
     5
177
     3
291
     0
 70
    58
 90
        0
176
     1
 90
        2
176
     1
 90
        0
176
     1
 90
        0
176
     1
 40
0.6
176
     1
 40
30.0
176
     1
 62
     7
420
 16777215
176
     1
 90
        1
176
     1
 90
        4
176
     1
 62
     7
176
     1
 62
   257
176
     1
 90
        1
176
     1
 90
        1
176
     1
 40
1.0
176
     1
 90
        0
176
     1
 62
   257
176
     1
 40
1.0
176
     1
 90
        1
176
     1
 90
        6
176
     1
 90
        2
176
     1
 62
     7
176
     1
 90
        3
176
     1
 90
        0
176
     1
 90
        0
176
     1
290
     0
176
     1
 90
        1
176
     1
 40
0.0
176
     1
 90
        0
176
     1
290
     0
176
     1
290
     1
176
     1
290
     1
176
     1
290
     0
176
     1
290
     0
176
     1
290
     0
176
     1
290
     0
176
     1
290
     0
176
     1
290
     0
176
     1
 90
       50
176
     1
 40
0.0
176
     1
 40
1.0
176
     1
 90
        0
176
     1
 62
    18
420
        0
176
     1
 90
       50
176
     1
 90
        3
176
     1
 62
     5
420
      255
176
     1
290
     0
176
     1
 90
       50
176
     1
 90
       50
176
     1
 90
       50
176
     1
290
     0
176
     1
 90
       50
176
     1
 62
   256
176
     0
 40
1.0
176
     0
 90
        2
176
     1
  1
strokes_ogs.tif
176
     1
290
     0
176
     1
 40
1.0
176
     1
 40
1.0
176
     1
  0
VISUALSTYLE
  5
3C
102
{ACAD_REACTORS
330
29
102
}
330
29
100
AcDbVisualStyle
  2
X-Ray
 70
    25
177
     3
291
     0
 70
    58
 90
        2
176
     1
 90
        2
176
     1
 90
        1
176
     1
 90
        1
176
     1
 40
0.5
176
     1
 40
30.0
176
     1
 62
     7
420
 16777215
176
     1
 90
        1
176
     1
 90
        0
176
     1
 62
     7
176
     1
 62
   257
176
     1
 90
        1
176
     1
 90
        1
176
     1
 40
1.0
176
     1
 90
        8
176
     1
 62
     7
176
     1
 40
1.0
176
     1
 90
        1
176
     1
 90
        6
176
     1
 90
        2
176
     1
 62
     7
176
     1
 90
        3
176
     1
 90
        0
176
     1
 90
        0
176
     1
290
     0
176
     1
 90
       13
176
     1
 40
0.0
176
     1
 90
        0
176
     1
290
     0
176
     1
290
     1
176
     1
290
     1
176
     1
290
     0
176
     1
290
     0
176
     1
290
     0
176
     1
290
     0
176
     1
290
     0
176
     1
290
     0
176
     1
 90
       50
176
     1
 40
0.0
176
     1
 40
1.0
176
     1
 90
        0
176
     1
 62
    18
420
        0
176
     1
 90
       50
176
     1
 90
        3
176
     1
 62
     5
420
      255
176
     1
290
     0
176
     1
 90
       50
176
     1
 90
       50
176
     1
 90
       50
176
     1
290
     0
176
     1
 90
       50
176
     1
 62
   256
176
     0
 40
1.0
176
     0
 90
        2
176
     1
  1
strokes_ogs.tif
176
     1
290
     0
176
     1
 40
1.0
176
     1
 40
1.0
176
     1
  0
DICTIONARYVAR
  5
3B5
102
{ACAD_REACTORS
330
3B0
102
}
330
3B0
100
DictionaryVariables
280
     0
  1
1:1
  0
DICTIONARYVAR
  5
3B2
102
{ACAD_REACTORS
330
3B0
102
}
330
3B0
100
DictionaryVariables
280
     0
  1
STANDARD
  0
DICTIONARYVAR
  5
3B1
102
{ACAD_REACTORS
330
3B0
102
}
330
3B0
100
DictionaryVariables
280
     0
  1
STANDARD
  0
DICTIONARYVAR
  5
3B3
102
{ACAD_REACTORS
330
3B0
102
}
330
3B0
100
DictionaryVariables
280
     0
  1
Imperial24
  0
DICTIONARYVAR
  5
3B4
102
{ACAD_REACTORS
330
3B0
102
}
330
3B0
100
DictionaryVariables
280
     0
  1
Imperial24
  0
DICTIONARY
  5
1A
330
19
100
AcDbDictionary
280
     1
281
     1
  3
BUMPTILE
360
1C
  3
DIFFUSETILE
360
1B
  3
OPACITYTILE
360
1F
  3
REFLECTIONTILE
360
1E
  3
REFRACTIONTILE
360
20
  3
SPECULARTILE
360
1D
  0
DICTIONARY
  5
12
330
11
100
AcDbDictionary
280
     1
281
     1
  3
BUMPTILE
360
14
  3
DIFFUSETILE
360
13
  3
OPACITYTILE
360
17
  3
REFLECTIONTILE
360
16
  3
REFRACTIONTILE
360
18
  3
SPECULARTILE
360
15
  0
DICTIONARY
  5
22
330
21
100
AcDbDictionary
280
     1
281
     1
  3
BUMPTILE
360
24
  3
DIFFUSETILE
360
23
  3
OPACITYTILE
360
27
  3
REFLECTIONTILE
360
26
  3
REFRACTIONTILE
360
28
  3
SPECULARTILE
360
25
  0
DICTIONARY
  5
3B6
330
65
100
AcDbDictionary
280
     1
281
     1
  3
ACAD_ROUNDTRIP_2008_TABLESTYLE_CELLSTYLEMAP
360
3B7
  0
XRECORD
  5
1C
102
{ACAD_REACTORS
330
1A
102
}
330
1A
100
AcDbXrecord
280
     1
270
     1
271
     1
  0
XRECORD
  5
1B
102
{ACAD_REACTORS
330
1A
102
}
330
1A
100
AcDbXrecord
280
     1
270
     1
271
     1
  0
XRECORD
  5
1F
102
{ACAD_REACTORS
330
1A
102
}
330
1A
100
AcDbXrecord
280
     1
270
     1
271
     1
  0
XRECORD
  5
1E
102
{ACAD_REACTORS
330
1A
102
}
330
1A
100
AcDbXrecord
280
     1
270
     1
271
     1
  0
XRECORD
  5
20
102
{ACAD_REACTORS
330
1A
102
}
330
1A
100
AcDbXrecord
280
     1
270
     1
271
     1
  0
XRECORD
  5
1D
102
{ACAD_REACTORS
330
1A
102
}
330
1A
100
AcDbXrecord
280
     1
270
     1
271
     1
  0
XRECORD
  5
14
102
{ACAD_REACTORS
330
12
102
}
330
12
100
AcDbXrecord
280
     1
270
     1
271
     1
  0
XRECORD
  5
13
102
{ACAD_REACTORS
330
12
102
}
330
12
100
AcDbXrecord
280
     1
270
     1
271
     1
  0
XRECORD
  5
17
102
{ACAD_REACTORS
330
12
102
}
330
12
100
AcDbXrecord
280
     1
270
     1
271
     1
  0
XRECORD
  5
16
102
{ACAD_REACTORS
330
12
102
}
330
12
100
AcDbXrecord
280
     1
270
     1
271
     1
  0
XRECORD
  5
18
102
{ACAD_REACTORS
330
12
102
}
330
12
100
AcDbXrecord
280
     1
270
     1
271
     1
  0
XRECORD
  5
15
102
{ACAD_REACTORS
330
12
102
}
330
12
100
AcDbXrecord
280
     1
270
     1
271
     1
  0
XRECORD
  5
24
102
{ACAD_REACTORS
330
22
102
}
330
22
100
AcDbXrecord
280
     1
270
     1
271
     1
  0
XRECORD
  5
23
102
{ACAD_REACTORS
330
22
102
}
330
22
100
AcDbXrecord
280
     1
270
     1
271
     1
  0
XRECORD
  5
27
102
{ACAD_REACTORS
330
22
102
}
330
22
100
AcDbXrecord
280
     1
270
     1
271
     1
  0
XRECORD
  5
26
102
{ACAD_REACTORS
330
22
102
}
330
22
100
AcDbXrecord
280
     1
270
     1
271
     1
  0
XRECORD
  5
28
102
{ACAD_REACTORS
330
22
102
}
330
22
100
AcDbXrecord
280
     1
270
     1
271
     1
  0
XRECORD
  5
25
102
{ACAD_REACTORS
330
22
102
}
330
22
100
AcDbXrecord
280
     1
270
     1
271
     1
  0
CELLSTYLEMAP
  5
3B7
102
{ACAD_REACTORS
330
3B6
102
}
330
3B6
100
AcDbCellStyleMap
 90
        3
300
CELLSTYLE
  1
TABLEFORMAT_BEGIN
 90
        5
170
     1
 91
        0
 92
    32768
 62
   257
 93
        1
300
CONTENTFORMAT
  1
CONTENTFORMAT_BEGIN
 90
        0
 91
        0
 92
      512
 93
        0
300

 40
0.0
140
1.0
 94
        5
 62
     0
340
55
144
0.25
309
CONTENTFORMAT_END
171
     0
 94
        0
309
TABLEFORMAT_END
  1
CELLSTYLE_BEGIN
 90
        1
 91
        1
300
_TITLE
309
CELLSTYLE_END
300
CELLSTYLE
  1
TABLEFORMAT_BEGIN
 90
        5
170
     1
 91
        0
 92
        0
 62
   257
 93
        1
300
CONTENTFORMAT
  1
CONTENTFORMAT_BEGIN
 90
        0
 91
        0
 92
      512
 93
        0
300

 40
0.0
140
1.0
 94
        5
 62
     0
340
55
144
0.18
309
CONTENTFORMAT_END
171
     0
 94
        0
309
TABLEFORMAT_END
  1
CELLSTYLE_BEGIN
 90
        2
 91
        1
300
_HEADER
309
CELLSTYLE_END
300
CELLSTYLE
  1
TABLEFORMAT_BEGIN
 90
        5
170
     1
 91
        0
 92
        0
 62
   257
 93
        1
300
CONTENTFORMAT
  1
CONTENTFORMAT_BEGIN
 90
        0
 91
        0
 92
      512
 93
        0
300

 40
0.0
140
1.0
 94
        2
 62
     0
340
55
144
0.18
309
CONTENTFORMAT_END
171
     0
 94
        0
309
TABLEFORMAT_END
  1
CELLSTYLE_BEGIN
 90
        3
 91
        2
300
_DATA
309
CELLSTYLE_END
  0
ENDSEC
  0
EOF
