  0
SECTION
  2
HEADER
  9
$ACADVER
  1
AC1032
  9
$ACADMAINTVER
 90
      251
  9
$DWGCODEPAGE
  3
ANSI_1252
  9
$REQUIREDVERSIONS
160
                 0
  9
$INSBASE
 10
0.0
 20
0.0
 30
0.0
  9
$EXTMIN
 10
1.000000000000000E+20
 20
1.000000000000000E+20
 30
1.000000000000000E+20
  9
$EXTMAX
 10
-1.000000000000000E+20
 20
-1.000000000000000E+20
 30
-1.000000000000000E+20
  9
$LIMMIN
 10
0.0
 20
0.0
  9
$LIMMAX
 10
12.0
 20
9.0
  9
$ORTHOMODE
 70
     0
  9
$REGENMODE
 70
     1
  9
$FILLMODE
 70
     1
  9
$QTEXTMODE
 70
     0
  9
$MIRRTEXT
 70
     0
  9
$LTSCALE
 40
1.0
  9
$ATTMODE
 70
     1
  9
$TEXTSIZE
 40
0.2
  9
$TRACEWID
 40
0.05
  9
$TEXTSTYLE
  7
Standard
  9
$CLAYER
  8
0
  9
$CELTYPE
  6
ByLayer
  9
$CECOLOR
 62
   256
  9
$CELTSCALE
 40
1.0
  9
$DISPSILH
 70
     0
  9
$DIMSCALE
 40
1.0
  9
$DIMASZ
 40
0.18
  9
$DIMEXO
 40
0.0625
  9
$DIMDLI
 40
0.38
  9
$DIMRND
 40
0.0
  9
$DIMDLE
 40
0.0
  9
$DIMEXE
 40
0.18
  9
$DIMTP
 40
0.0
  9
$DIMTM
 40
0.0
  9
$DIMTXT
 40
0.18
  9
$DIMCEN
 40
0.09
  9
$DIMTSZ
 40
0.0
  9
$DIMTOL
 70
     0
  9
$DIMLIM
 70
     0
  9
$DIMTIH
 70
     1
  9
$DIMTOH
 70
     1
  9
$DIMSE1
 70
     0
  9
$DIMSE2
 70
     0
  9
$DIMTAD
 70
     0
  9
$DIMZIN
 70
     0
  9
$DIMBLK
  1

  9
$DIMASO
 70
     1
  9
$DIMSHO
 70
     1
  9
$DIMPOST
  1

  9
$DIMAPOST
  1

  9
$DIMALT
 70
     0
  9
$DIMALTD
 70
     2
  9
$DIMALTF
 40
25.4
  9
$DIMLFAC
 40
1.0
  9
$DIMTOFL
 70
     0
  9
$DIMTVP
 40
0.0
  9
$DIMTIX
 70
     0
  9
$DIMSOXD
 70
     0
  9
$DIMSAH
 70
     0
  9
$DIMBLK1
  1

  9
$DIMBLK2
  1

  9
$DIMSTYLE
  2
Standard
  9
$DIMCLRD
 70
     0
  9
$DIMCLRE
 70
     0
  9
$DIMCLRT
 70
     0
  9
$DIMTFAC
 40
1.0
  9
$DIMGAP
 40
0.09
  9
$DIMJUST
 70
     0
  9
$DIMSD1
 70
     0
  9
$DIMSD2
 70
     0
  9
$DIMTOLJ
 70
     1
  9
$DIMTZIN
 70
     0
  9
$DIMALTZ
 70
     0
  9
$DIMALTTZ
 70
     0
  9
$DIMUPT
 70
     0
  9
$DIMDEC
 70
     4
  9
$DIMTDEC
 70
     4
  9
$DIMALTU
 70
     2
  9
$DIMALTTD
 70
     2
  9
$DIMTXSTY
  7
Standard
  9
$DIMAUNIT
 70
     0
  9
$DIMADEC
 70
     0
  9
$DIMALTRND
 40
0.0
  9
$DIMAZIN
 70
     0
  9
$DIMDSEP
 70
    46
  9
$DIMATFIT
 70
     3
  9
$DIMFRAC
 70
     0
  9
$DIMLDRBLK
  1

  9
$DIMLUNIT
 70
     2
  9
$DIMLWD
 70
    -2
  9
$DIMLWE
 70
    -2
  9
$DIMTMOVE
 70
     0
  9
$DIMFXL
 40
1.0
  9
$DIMFXLON
 70
     0
  9
$DIMJOGANG
 40
0.7853981633974483
  9
$DIMTFILL
 70
     0
  9
$DIMTFILLCLR
 70
     0
  9
$DIMARCSYM
 70
     0
  9
$DIMLTYPE
  6

  9
$DIMLTEX1
  6

  9
$DIMLTEX2
  6

  9
$DIMTXTDIRECTION
 70
     0
  9
$LUNITS
 70
     2
  9
$LUPREC
 70
     4
  9
$SKETCHINC
 40
0.1
  9
$FILLETRAD
 40
0.0
  9
$AUNITS
 70
     0
  9
$AUPREC
 70
     0
  9
$MENU
  1
.
  9
$ELEVATION
 40
0.0
  9
$PELEVATION
 40
0.0
  9
$THICKNESS
 40
0.0
  9
$LIMCHECK
 70
     0
  9
$CHAMFERA
 40
0.0
  9
$CHAMFERB
 40
0.0
  9
$CHAMFERC
 40
0.0
  9
$CHAMFERD
 40
0.0
  9
$SKPOLY
 70
     0
  9
$TDCREATE
 40
2460035.539409723
  9
$TDUCREATE
 40
2460035.456076389
  9
$TDUPDATE
 40
2460035.539409723
  9
$TDUUPDATE
 40
2460035.456076389
  9
$TDINDWG
 40
0.0000000000
  9
$TDUSRTIMER
 40
0.0000000000
  9
$USRTIMER
 70
     1
  9
$ANGBASE
 50
0.0
  9
$ANGDIR
 70
     0
  9
$PDMODE
 70
     0
  9
$PDSIZE
 40
0.0
  9
$PLINEWID
 40
0.0
  9
$SPLFRAME
 70
     0
  9
$SPLINETYPE
 70
     6
  9
$SPLINESEGS
 70
     8
  9
$HANDSEED
  5
28B
  9
$SURFTAB1
 70
     6
  9
$SURFTAB2
 70
     6
  9
$SURFTYPE
 70
     6
  9
$SURFU
 70
     6
  9
$SURFV
 70
     6
  9
$UCSBASE
  2

  9
$UCSNAME
  2

  9
$UCSORG
 10
0.0
 20
0.0
 30
0.0
  9
$UCSXDIR
 10
1.0
 20
0.0
 30
0.0
  9
$UCSYDIR
 10
0.0
 20
1.0
 30
0.0
  9
$UCSORTHOREF
  2

  9
$UCSORTHOVIEW
 70
     0
  9
$UCSORGTOP
 10
0.0
 20
0.0
 30
0.0
  9
$UCSORGBOTTOM
 10
0.0
 20
0.0
 30
0.0
  9
$UCSORGLEFT
 10
0.0
 20
0.0
 30
0.0
  9
$UCSORGRIGHT
 10
0.0
 20
0.0
 30
0.0
  9
$UCSORGFRONT
 10
0.0
 20
0.0
 30
0.0
  9
$UCSORGBACK
 10
0.0
 20
0.0
 30
0.0
  9
$PUCSBASE
  2

  9
$PUCSNAME
  2

  9
$PUCSORG
 10
0.0
 20
0.0
 30
0.0
  9
$PUCSXDIR
 10
1.0
 20
0.0
 30
0.0
  9
$PUCSYDIR
 10
0.0
 20
1.0
 30
0.0
  9
$PUCSORTHOREF
  2

  9
$PUCSORTHOVIEW
 70
     0
  9
$PUCSORGTOP
 10
0.0
 20
0.0
 30
0.0
  9
$PUCSORGBOTTOM
 10
0.0
 20
0.0
 30
0.0
  9
$PUCSORGLEFT
 10
0.0
 20
0.0
 30
0.0
  9
$PUCSORGRIGHT
 10
0.0
 20
0.0
 30
0.0
  9
$PUCSORGFRONT
 10
0.0
 20
0.0
 30
0.0
  9
$PUCSORGBACK
 10
0.0
 20
0.0
 30
0.0
  9
$USERI1
 70
     0
  9
$USERI2
 70
     0
  9
$USERI3
 70
     0
  9
$USERI4
 70
     0
  9
$USERI5
 70
     0
  9
$USERR1
 40
0.0
  9
$USERR2
 40
0.0
  9
$USERR3
 40
0.0
  9
$USERR4
 40
0.0
  9
$USERR5
 40
0.0
  9
$WORLDVIEW
 70
     1
  9
$SHADEDGE
 70
     3
  9
$SHADEDIF
 70
    70
  9
$TILEMODE
 70
     1
  9
$MAXACTVP
 70
    64
  9
$PINSBASE
 10
0.0
 20
0.0
 30
0.0
  9
$PLIMCHECK
 70
     0
  9
$PEXTMIN
 10
1.000000000000000E+20
 20
1.000000000000000E+20
 30
1.000000000000000E+20
  9
$PEXTMAX
 10
-1.000000000000000E+20
 20
-1.000000000000000E+20
 30
-1.000000000000000E+20
  9
$PLIMMIN
 10
0.0
 20
0.0
  9
$PLIMMAX
 10
12.0
 20
9.0
  9
$UNITMODE
 70
     0
  9
$VISRETAIN
 70
     1
  9
$PLINEGEN
 70
     0
  9
$PSLTSCALE
 70
     1
  9
$TREEDEPTH
 70
  3020
  9
$CMLSTYLE
  2
Standard
  9
$CMLJUST
 70
     0
  9
$CMLSCALE
 40
1.0
  9
$PROXYGRAPHICS
 70
     1
  9
$MEASUREMENT
 70
     0
  9
$CELWEIGHT
370
    -1
  9
$ENDCAPS
280
     0
  9
$JOINSTYLE
280
     0
  9
$LWDISPLAY
290
     1
  9
$INSUNITS
 70
     4
  9
$HYPERLINKBASE
  1

  9
$STYLESHEET
  1

  9
$XEDIT
290
     1
  9
$CEPSNTYPE
380
     0
  9
$PSTYLEMODE
290
     1
  9
$FINGERPRINTGUID
  2
{9936988F-C057-6942-A1C5-447698F40B28}
  9
$VERSIONGUID
  2
{3F96FD87-44C7-1C49-B1D9-87A0B8034F3C}
  9
$EXTNAMES
290
     1
  9
$PSVPSCALE
 40
0.0
  9
$OLESTARTUP
290
     0
  9
$SORTENTS
280
   127
  9
$INDEXCTL
280
     0
  9
$HIDETEXT
280
     1
  9
$XCLIPFRAME
280
     2
  9
$HALOGAP
280
     0
  9
$OBSCOLOR
 70
   257
  9
$OBSLTYPE
280
     0
  9
$INTERSECTIONDISPLAY
280
     0
  9
$INTERSECTIONCOLOR
 70
   257
  9
$DIMASSOC
280
     2
  9
$PROJECTNAME
  1

  9
$CAMERADISPLAY
290
     0
  9
$LENSLENGTH
 40
50.0
  9
$CAMERAHEIGHT
 40
0.0
  9
$STEPSPERSEC
 40
2.0
  9
$STEPSIZE
 40
6.0
  9
$3DDWFPREC
 40
2.0
  9
$PSOLWIDTH
 40
0.25
  9
$PSOLHEIGHT
 40
4.0
  9
$LOFTANG1
 40
1.570796326794896
  9
$LOFTANG2
 40
1.570796326794896
  9
$LOFTMAG1
 40
0.0
  9
$LOFTMAG2
 40
0.0
  9
$LOFTPARAM
 70
     7
  9
$LOFTNORMALS
280
     1
  9
$LATITUDE
 40
37.795
  9
$LONGITUDE
 40
-122.394
  9
$NORTHDIRECTION
 40
0.0
  9
$TIMEZONE
 70
 -8000
  9
$LIGHTGLYPHDISPLAY
280
     1
  9
$TILEMODELIGHTSYNCH
280
     1
  9
$CMATERIAL
347
11
  9
$SOLIDHIST
280
     0
  9
$SHOWHIST
280
     1
  9
$DWFFRAME
280
     2
  9
$DGNFRAME
280
     0
  9
$REALWORLDSCALE
290
     1
  9
$INTERFERECOLOR
 62
     1
  9
$INTERFEREOBJVS
345
33
  9
$INTERFEREVPVS
346
30
  9
$CSHADOW
280
     0
  9
$SHADOWPLANELOCATION
 40
0.0
  0
ENDSEC
  0
SECTION
  2
CLASSES
  0
CLASS
  1
ACDBDICTIONARYWDFLT
  2
AcDbDictionaryWithDefault
  3
ObjectDBX Classes
 90
        0
 91
        1
280
     0
281
     0
  0
CLASS
  1
MATERIAL
  2
AcDbMaterial
  3
ObjectDBX Classes
 90
     1153
 91
        3
280
     0
281
     0
  0
CLASS
  1
VISUALSTYLE
  2
AcDbVisualStyle
  3
ObjectDBX Classes
 90
     4095
 91
       24
280
     0
281
     0
  0
CLASS
  1
SCALE
  2
AcDbScale
  3
ObjectDBX Classes
 90
     1153
 91
       17
280
     0
281
     0
  0
CLASS
  1
TABLESTYLE
  2
AcDbTableStyle
  3
ObjectDBX Classes
 90
     4095
 91
        1
280
     0
281
     0
  0
CLASS
  1
MLEADERSTYLE
  2
AcDbMLeaderStyle
  3
ACDB_MLEADERSTYLE_CLASS
 90
     4095
 91
        1
280
     0
281
     0
  0
CLASS
  1
ACDBSECTIONVIEWSTYLE
  2
AcDbSectionViewStyle
  3
ObjectDBX Classes
 90
     1025
 91
        1
280
     0
281
     0
  0
CLASS
  1
ACDBDETAILVIEWSTYLE
  2
AcDbDetailViewStyle
  3
ObjectDBX Classes
 90
     1025
 91
        1
280
     0
281
     0
  0
CLASS
  1
DICTIONARYVAR
  2
AcDbDictionaryVar
  3
ObjectDBX Classes
 90
        0
 91
        5
280
     0
281
     0
  0
CLASS
  1
CELLSTYLEMAP
  2
AcDbCellStyleMap
  3
ObjectDBX Classes
 90
     1152
 91
        1
280
     0
281
     0
  0
ENDSEC
  0
SECTION
  2
TABLES
  0
TABLE
  2
VPORT
  5
8
330
0
100
AcDbSymbolTable
 70
     1
  0
VPORT
  5
57
330
8
100
AcDbSymbolTableRecord
100
AcDbViewportTableRecord
  2
*Active
 70
     0
 10
0.0
 20
0.0
 11
1.0
 21
1.0
 12
0.0
 22
0.0
 13
0.0
 23
0.0
 14
1.0
 24
1.0
 15
0.0
 25
0.0
 16
0.0
 26
0.0
 36
1.0
 17
104.9999999737499
 27
31.49999999212523
 37
0.0
 40
302.9399999242649
 41
0.7070707070707066
 42
50.0
 43
0.0
 44
0.0
 50
0.0
 51
0.0
 71
     0
 72
   100
 73
     1
 74
     1
 75
     0
 76
     0
 77
     0
 78
     0
281
     0
 65
     1
110
0.0
120
0.0
130
0.0
111
1.0
121
0.0
131
0.0
112
0.0
122
1.0
132
0.0
 79
     0
146
0.0
 60
     3
 61
     5
292
     1
282
     1
141
0.0
142
0.0
 63
   250
421
  3355443
  0
ENDTAB
  0
TABLE
  2
LTYPE
  5
5
330
0
100
AcDbSymbolTable
 70
     1
  0
LTYPE
  5
5B
330
5
100
AcDbSymbolTableRecord
100
AcDbLinetypeTableRecord
  2
ByBlock
 70
     0
  3

 72
    65
 73
     0
 40
0.0
  0
LTYPE
  5
5C
330
5
100
AcDbSymbolTableRecord
100
AcDbLinetypeTableRecord
  2
ByLayer
 70
     0
  3

 72
    65
 73
     0
 40
0.0
  0
LTYPE
  5
5D
330
5
100
AcDbSymbolTableRecord
100
AcDbLinetypeTableRecord
  2
Continuous
 70
     0
  3
Solid line
 72
    65
 73
     0
 40
0.0
  0
ENDTAB
  0
TABLE
  2
LAYER
  5
2
330
0
100
AcDbSymbolTable
 70
     2
  0
LAYER
  5
54
330
2
100
AcDbSymbolTableRecord
100
AcDbLayerTableRecord
  2
0
 70
     0
 62
     7
  6
Continuous
370
     0
390
F
347
21
348
0
  0
LAYER
  5
25D
330
2
100
AcDbSymbolTableRecord
100
AcDbLayerTableRecord
  2
CAPA_BASE
 70
     0
 62
     7
  6
Continuous
370
     0
390
F
347
21
348
0
  0
ENDTAB
  0
TABLE
  2
STYLE
  5
3
330
0
100
AcDbSymbolTable
 70
     2
  0
STYLE
  5
55
330
3
100
AcDbSymbolTableRecord
100
AcDbTextStyleTableRecord
  2
Standard
 70
     0
 40
0.0
 41
1.0
 50
0.0
 71
     0
 42
0.2
  3
txt
  4

  0
STYLE
  5
5A
330
3
100
AcDbSymbolTableRecord
100
AcDbTextStyleTableRecord
  2
Annotative
 70
     0
 40
0.0
 41
1.0
 50
0.0
 71
     0
 42
0.2
  3
txt
  4

1001
AcadAnnotative
1000
AnnotativeData
1002
{
1070
     1
1070
     1
1002
}
  0
ENDTAB
  0
TABLE
  2
VIEW
  5
6
330
0
100
AcDbSymbolTable
 70
     0
  0
ENDTAB
  0
TABLE
  2
UCS
  5
7
330
0
100
AcDbSymbolTable
 70
     0
  0
ENDTAB
  0
TABLE
  2
APPID
  5
9
330
0
100
AcDbSymbolTable
 70
     2
  0
APPID
  5
56
330
9
100
AcDbSymbolTableRecord
100
AcDbRegAppTableRecord
  2
ACAD
 70
     0
  0
APPID
  5
5E
330
9
100
AcDbSymbolTableRecord
100
AcDbRegAppTableRecord
  2
AcadAnnotative
 70
     0
  0
ENDTAB
  0
TABLE
  2
DIMSTYLE
  5
A
330
0
100
AcDbSymbolTable
 70
     2
100
AcDbDimStyleTable
 71
     0
  0
DIMSTYLE
105
58
330
A
100
AcDbSymbolTableRecord
100
AcDbDimStyleTableRecord
  2
Standard
 70
     0
340
55
  0
DIMSTYLE
105
59
330
A
100
AcDbSymbolTableRecord
100
AcDbDimStyleTableRecord
  2
Annotative
 70
     0
340
55
1001
AcadAnnotative
1000
AnnotativeData
1002
{
1070
     1
1070
     1
1002
}
  0
ENDTAB
  0
TABLE
  2
BLOCK_RECORD
  5
1
330
0
100
AcDbSymbolTable
 70
     4
  0
BLOCK_RECORD
  5
70
330
1
100
AcDbSymbolTableRecord
100
AcDbBlockTableRecord
  2
*Model_Space
340
73
 70
     0
280
     1
281
     0
  0
BLOCK_RECORD
  5
6C
330
1
100
AcDbSymbolTableRecord
100
AcDbBlockTableRecord
  2
*Paper_Space
340
6F
 70
     0
280
     1
281
     0
  0
BLOCK_RECORD
  5
74
330
1
100
AcDbSymbolTableRecord
100
AcDbBlockTableRecord
  2
*Paper_Space0
340
77
 70
     0
280
     1
281
     0
  0
BLOCK_RECORD
  5
25E
330
1
100
AcDbSymbolTableRecord
100
AcDbBlockTableRecord
  2
Block_0
340
0
102
{BLKREFS
331
25F
102
}
 70
     0
280
     1
281
     0
  0
BLOCK_RECORD
  5
26A
330
1
100
AcDbSymbolTableRecord
100
AcDbBlockTableRecord
  2
Block_1
340
0
102
{BLKREFS
331
26B
102
}
 70
     0
280
     1
281
     0
  0
BLOCK_RECORD
  5
276
330
1
100
AcDbSymbolTableRecord
100
AcDbBlockTableRecord
  2
Block_2
340
0
102
{BLKREFS
331
277
102
}
 70
     0
280
     1
281
     0
  0
ENDTAB
  0
ENDSEC
  0
SECTION
  2
BLOCKS
  0
BLOCK
  5
71
330
70
100
AcDbEntity
  8
0
100
AcDbBlockBegin
  2
*Model_Space
 70
     0
 10
0.0
 20
0.0
 30
0.0
  3
*Model_Space
  1

  0
ENDBLK
  5
72
330
70
100
AcDbEntity
  8
0
100
AcDbBlockEnd
  0
BLOCK
  5
6D
330
6C
100
AcDbEntity
 67
     1
  8
0
100
AcDbBlockBegin
  2
*Paper_Space
 70
     0
 10
0.0
 20
0.0
 30
0.0
  3
*Paper_Space
  1

  0
ENDBLK
  5
6E
330
6C
100
AcDbEntity
 67
     1
  8
0
100
AcDbBlockEnd
  0
BLOCK
  5
75
330
74
100
AcDbEntity
 67
     1
  8
0
100
AcDbBlockBegin
  2
*Paper_Space0
 70
     0
 10
0.0
 20
0.0
 30
0.0
  3
*Paper_Space0
  1

  0
ENDBLK
  5
76
330
74
100
AcDbEntity
 67
     1
  8
0
100
AcDbBlockEnd
  0
BLOCK
  5
260
330
25E
100
AcDbEntity
  8
0
100
AcDbBlockBegin
  2
Block_0
 70
     0
 10
0.0
 20
0.0
 30
0.0
  3
Block_0
  1

  0
LWPOLYLINE
  5
262
330
25E
100
AcDbEntity
  8
CAPA_BASE
100
AcDbPolyline
 90
        4
 70
     1
 43
0.0
 10
119.9817915909012
 20
71.98551060612505
 10
117.4817915909015
 20
72.29551060612542
 10
117.4817915909015
 20
71.67551060612533
 10
117.4817915909015
 20
71.67551060612533
  0
HATCH
  5
263
330
25E
100
AcDbEntity
  8
CAPA_BASE
 62
    18
420
        0
440
 33554687
100
AcDbHatch
 10
0.0
 20
0.0
 30
0.0
210
0.0
220
0.0
230
1.0
  2
SOLID
 70
     1
 71
     1
 91
        1
 92
        1
 93
        3
 72
     1
 10
119.9817915909012
 20
71.98551060612505
 11
117.4817915909015
 21
72.29551060612542
 72
     1
 10
117.4817915909015
 20
72.29551060612542
 11
117.4817915909015
 21
71.67551060612533
 72
     1
 10
117.4817915909015
 20
71.67551060612533
 11
119.9817915909012
 21
71.98551060612505
 97
        1
330
262
 75
     2
 76
     1
 98
        1
 10
0.0
 20
0.0
450
        0
451
        0
460
0.0
461
0.0
452
        0
462
0.0
453
        0
470

  0
LWPOLYLINE
  5
264
330
25E
100
AcDbEntity
  8
CAPA_BASE
100
AcDbPolyline
 90
        4
 70
     1
 43
0.0
 10
19.69835227610122
 20
71.98551060612505
 10
22.19835227610131
 20
71.67551060612533
 10
22.19835227610131
 20
72.29551060612542
 10
22.19835227610131
 20
72.29551060612542
  0
HATCH
  5
265
330
25E
100
AcDbEntity
  8
CAPA_BASE
 62
    18
420
        0
440
 33554687
100
AcDbHatch
 10
0.0
 20
0.0
 30
0.0
210
0.0
220
0.0
230
1.0
  2
SOLID
 70
     1
 71
     1
 91
        1
 92
        1
 93
        3
 72
     1
 10
19.69835227610122
 20
71.98551060612505
 11
22.19835227610131
 21
71.67551060612533
 72
     1
 10
22.19835227610131
 20
71.67551060612533
 11
22.19835227610131
 21
72.29551060612542
 72
     1
 10
22.19835227610131
 20
72.29551060612542
 11
19.69835227610122
 21
71.98551060612505
 97
        1
330
264
 75
     2
 76
     1
 98
        1
 10
0.0
 20
0.0
450
        0
451
        0
460
0.0
461
0.0
452
        0
462
0.0
453
        0
470

  0
LINE
  5
266
330
25E
100
AcDbEntity
  8
CAPA_BASE
 62
    18
420
        0
370
    25
100
AcDbLine
 10
119.9817915909012
 20
81.24960343282527
 30
0.0
 11
119.9817915909012
 21
70.98551060612566
 31
0.0
  0
LINE
  5
267
330
25E
100
AcDbEntity
  8
CAPA_BASE
 62
    18
420
        0
370
    25
100
AcDbLine
 10
19.69835227610122
 20
81.24960343282527
 30
0.0
 11
19.69835227610122
 21
70.98551060612566
 31
0.0
  0
LINE
  5
268
330
25E
100
AcDbEntity
  8
CAPA_BASE
 62
    18
420
        0
370
    25
100
AcDbLine
 10
119.9817915909012
 20
71.98551060612505
 30
0.0
 11
19.69835227610122
 21
71.98551060612505
 31
0.0
  0
MTEXT
  5
269
330
25E
100
AcDbEntity
  8
CAPA_BASE
100
AcDbMText
 10
67.19424046849875
 20
72.77925701441152
 30
0.0
 40
0.2
 41
0.0
 46
0.0
 71
     7
 72
     1
  1
\C18;\c0;\FArial Bold|b1|i0|c1;\H2.997200;\W0.700000;401
 73
     1
 44
1.0
  0
ENDBLK
  5
261
330
25E
100
AcDbEntity
  8
0
100
AcDbBlockEnd
  0
BLOCK
  5
26C
330
26A
100
AcDbEntity
  8
0
100
AcDbBlockBegin
  2
Block_1
 70
     0
 10
0.0
 20
0.0
 30
0.0
  3
Block_1
  1

  0
LWPOLYLINE
  5
26E
330
26A
100
AcDbEntity
  8
CAPA_BASE
100
AcDbPolyline
 90
        4
 70
     1
 43
0.0
 10
151.7856466473009
 20
94.49960343282524
 10
151.4756466473011
 20
91.99960343282549
 10
152.0956466473012
 20
91.99960343282549
 10
152.0956466473012
 20
91.99960343282549
  0
HATCH
  5
26F
330
26A
100
AcDbEntity
  8
CAPA_BASE
 62
    18
420
        0
440
 33554687
100
AcDbHatch
 10
0.0
 20
0.0
 30
0.0
210
0.0
220
0.0
230
1.0
  2
SOLID
 70
     1
 71
     1
 91
        1
 92
        1
 93
        3
 72
     1
 10
151.7856466473009
 20
94.49960343282524
 11
151.4756466473011
 21
91.99960343282549
 72
     1
 10
151.4756466473011
 20
91.99960343282549
 11
152.0956466473012
 21
91.99960343282549
 72
     1
 10
152.0956466473012
 20
91.99960343282549
 11
151.7856466473009
 21
94.49960343282524
 97
        1
330
26E
 75
     2
 76
     1
 98
        1
 10
0.0
 20
0.0
450
        0
451
        0
460
0.0
461
0.0
452
        0
462
0.0
453
        0
470

  0
LWPOLYLINE
  5
270
330
26A
100
AcDbEntity
  8
CAPA_BASE
100
AcDbPolyline
 90
        4
 70
     1
 43
0.0
 10
151.7856466473009
 20
81.99960343282514
 10
152.0956466473012
 20
84.49960343282555
 10
151.4756466473011
 20
84.49960343282555
 10
151.4756466473011
 20
84.49960343282555
  0
HATCH
  5
271
330
26A
100
AcDbEntity
  8
CAPA_BASE
 62
    18
420
        0
440
 33554687
100
AcDbHatch
 10
0.0
 20
0.0
 30
0.0
210
0.0
220
0.0
230
1.0
  2
SOLID
 70
     1
 71
     1
 91
        1
 92
        1
 93
        3
 72
     1
 10
151.7856466473009
 20
81.99960343282514
 11
152.0956466473012
 21
84.49960343282555
 72
     1
 10
152.0956466473012
 20
84.49960343282555
 11
151.4756466473011
 21
84.49960343282555
 72
     1
 10
151.4756466473011
 20
84.49960343282555
 11
151.7856466473009
 21
81.99960343282514
 97
        1
330
270
 75
     2
 76
     1
 98
        1
 10
0.0
 20
0.0
450
        0
451
        0
460
0.0
461
0.0
452
        0
462
0.0
453
        0
470

  0
LINE
  5
272
330
26A
100
AcDbEntity
  8
CAPA_BASE
 62
    18
420
        0
370
    25
100
AcDbLine
 10
163.2856493029012
 20
94.49960343282524
 30
0.0
 11
150.7856466473015
 21
94.49960343282524
 31
0.0
  0
LINE
  5
273
330
26A
100
AcDbEntity
  8
CAPA_BASE
 62
    18
420
        0
370
    25
100
AcDbLine
 10
163.2856493029012
 20
81.99960343282514
 30
0.0
 11
150.7856466473015
 21
81.99960343282514
 31
0.0
  0
LINE
  5
274
330
26A
100
AcDbEntity
  8
CAPA_BASE
 62
    18
420
        0
370
    25
100
AcDbLine
 10
151.7856466473009
 20
94.49960343282524
 30
0.0
 11
151.7856466473009
 21
81.99960343282514
 31
0.0
  0
MTEXT
  5
275
330
26A
100
AcDbEntity
  8
CAPA_BASE
100
AcDbMText
 10
150.9918955716844
 20
86.4860215712598
 30
0.0
 40
0.2
 41
0.0
 46
0.0
 71
     7
 72
     1
  1
\C18;\c0;\FArial Bold|b1|i0|c1;\H2.997200;\W0.700000;50
 11
0.0000000000000003
 21
1.0
 31
0.0
 73
     1
 44
1.0
  0
ENDBLK
  5
26D
330
26A
100
AcDbEntity
  8
0
100
AcDbBlockEnd
  0
BLOCK
  5
278
330
276
100
AcDbEntity
  8
0
100
AcDbBlockBegin
  2
Block_2
 70
     0
 10
0.0
 20
0.0
 30
0.0
  3
Block_2
  1

  0
LWPOLYLINE
  5
27A
330
276
100
AcDbEntity
  8
CAPA_BASE
100
AcDbPolyline
 90
        4
 70
     1
 43
0.0
 10
132.495884417501
 20
41.0537372883253
 10
132.1858844175013
 20
38.55373728832553
 10
132.8058844175014
 20
38.55373728832553
 10
132.8058844175014
 20
38.55373728832553
  0
HATCH
  5
27B
330
276
100
AcDbEntity
  8
CAPA_BASE
 62
    18
420
        0
440
 33554687
100
AcDbHatch
 10
0.0
 20
0.0
 30
0.0
210
0.0
220
0.0
230
1.0
  2
SOLID
 70
     1
 71
     1
 91
        1
 92
        1
 93
        3
 72
     1
 10
132.495884417501
 20
41.0537372883253
 11
132.1858844175013
 21
38.55373728832553
 72
     1
 10
132.1858844175013
 20
38.55373728832553
 11
132.8058844175014
 21
38.55373728832553
 72
     1
 10
132.8058844175014
 20
38.55373728832553
 11
132.495884417501
 21
41.0537372883253
 97
        1
330
27A
 75
     2
 76
     1
 98
        1
 10
0.0
 20
0.0
450
        0
451
        0
460
0.0
461
0.0
452
        0
462
0.0
453
        0
470

  0
LWPOLYLINE
  5
27C
330
276
100
AcDbEntity
  8
CAPA_BASE
100
AcDbPolyline
 90
        4
 70
     1
 43
0.0
 10
132.495884417501
 20
15.03773626422554
 10
132.8058844175014
 20
17.53773626422531
 10
132.1858844175013
 20
17.53773626422531
 10
132.1858844175013
 20
17.53773626422531
  0
HATCH
  5
27D
330
276
100
AcDbEntity
  8
CAPA_BASE
 62
    18
420
        0
440
 33554687
100
AcDbHatch
 10
0.0
 20
0.0
 30
0.0
210
0.0
220
0.0
230
1.0
  2
SOLID
 70
     1
 71
     1
 91
        1
 92
        1
 93
        3
 72
     1
 10
132.495884417501
 20
15.03773626422554
 11
132.8058844175014
 21
17.53773626422531
 72
     1
 10
132.8058844175014
 20
17.53773626422531
 11
132.1858844175013
 21
17.53773626422531
 72
     1
 10
132.1858844175013
 20
17.53773626422531
 11
132.495884417501
 21
15.03773626422554
 97
        1
330
27C
 75
     2
 76
     1
 98
        1
 10
0.0
 20
0.0
450
        0
451
        0
460
0.0
461
0.0
452
        0
462
0.0
453
        0
470

  0
LINE
  5
27E
330
276
100
AcDbEntity
  8
CAPA_BASE
 62
    18
420
        0
370
    25
100
AcDbLine
 10
120.9817915909013
 20
41.0537372883253
 30
0.0
 11
133.495884417501
 21
41.0537372883253
 31
0.0
  0
LINE
  5
27F
330
276
100
AcDbEntity
  8
CAPA_BASE
 62
    18
420
        0
370
    25
100
AcDbLine
 10
120.7317915909011
 20
15.03773626422554
 30
0.0
 11
133.495884417501
 21
15.03773626422554
 31
0.0
  0
LINE
  5
280
330
276
100
AcDbEntity
  8
CAPA_BASE
 62
    18
420
        0
370
    25
100
AcDbLine
 10
132.495884417501
 20
41.0537372883253
 30
0.0
 11
132.495884417501
 21
15.03773626422554
 31
0.0
  0
MTEXT
  5
281
330
276
100
AcDbEntity
  8
CAPA_BASE
100
AcDbMText
 10
131.7021327431235
 20
25.39999999364936
 30
0.0
 40
0.2
 41
0.0
 46
0.0
 71
     7
 72
     1
  1
\C18;\c0;\FArial Bold|b1|i0|c1;\H2.997200;\W0.700000;104
 11
0.0000000000000003
 21
1.0
 31
0.0
 73
     1
 44
1.0
  0
ENDBLK
  5
279
330
276
100
AcDbEntity
  8
0
100
AcDbBlockEnd
  0
ENDSEC
  0
SECTION
  2
ENTITIES
  0
LINE
  5
78
330
70
100
AcDbEntity
  8
0
 62
    18
420
        0
370
    25
100
AcDbLine
 10
107.7316922490013
 20
94.24970277472535
 30
0.0
 11
112.3432402280012
 21
89.63815479572579
 31
0.0
  0
LINE
  5
79
330
70
100
AcDbEntity
  8
0
 62
    18
420
        0
370
    25
100
AcDbLine
 10
115.1183275184012
 20
89.63613936032583
 30
0.0
 11
119.731890932801
 21
94.24970277472535
 31
0.0
  0
LINE
  5
7A
330
70
100
AcDbEntity
  8
0
 62
    18
420
        0
370
    25
100
AcDbLine
 10
112.3267067525009
 20
86.84451859442495
 30
0.0
 11
107.7316922490013
 21
82.24950409092537
 31
0.0
  0
SPLINE
  5
7B
330
70
100
AcDbEntity
  8
0
 62
    18
420
        0
370
    25
100
AcDbSpline
210
0.0
220
0.0
230
1.0
 70
     8
 71
     3
 72
     8
 73
     4
 74
     0
 42
0.0000000001
 43
0.0000000001
 40
0.0
 40
0.0
 40
0.0
 40
0.0
 40
1.0
 40
1.0
 40
1.0
 40
1.0
 10
107.721171442443
 20
82.24425024087059
 30
0.0
 10
107.7252277477435
 20
82.24456823426487
 30
0.0
 10
107.7290010277779
 20
82.24645252397527
 30
0.0
 10
107.7316922489911
 20
82.24950409092922
 30
0.0
  0
LINE
  5
7C
330
70
100
AcDbEntity
  8
0
 62
    18
420
        0
370
    25
100
AcDbLine
 10
107.7316922490013
 20
94.24970277472535
 30
0.0
 11
107.7211693239012
 21
94.24969854072546
 31
0.0
  0
LINE
  5
7D
330
70
100
AcDbEntity
  8
0
 62
    18
420
        0
370
    25
100
AcDbLine
 10
115.130150322701
 20
86.85124470102534
 30
0.0
 11
119.731890932801
 21
82.24950409092537
 31
0.0
  0
SPLINE
  5
7E
330
70
100
AcDbEntity
  8
0
 62
    18
420
        0
370
    25
100
AcDbSpline
210
0.0
220
0.0
230
1.0
 70
     8
 71
     3
 72
     8
 73
     4
 74
     0
 42
0.0000000001
 43
0.0000000001
 40
0.0
 40
0.0
 40
0.0
 40
0.0
 40
1.0
 40
1.0
 40
1.0
 40
1.0
 10
119.7371447828564
 20
82.23898328436767
 30
0.0
 10
119.7368267894622
 20
82.24303958966814
 30
0.0
 10
119.7349424997511
 20
82.24681286970252
 30
0.0
 10
119.7318909327978
 20
82.2495040909151
 30
0.0
  0
LWPOLYLINE
  5
7F
330
70
100
AcDbEntity
  8
0
 62
    18
420
        0
370
    25
100
AcDbPolyline
 90
        7
 70
     0
 43
0.0
 10
107.7316964830009
 20
82.23898116582525
 10
108.2316964116013
 20
82.23878272432514
 10
110.2316961881015
 20
82.23807255182526
 10
114.2316962064009
 20
82.23748505882538
 10
115.7552972519013
 20
82.23768577612522
 10
119.7318867044009
 20
82.23898117122514
 10
119.7371447829014
 20
82.23898328432532
  0
LINE
  5
80
330
70
100
AcDbEntity
  8
0
 62
    18
420
        0
370
    25
100
AcDbLine
 10
107.7316922490013
 20
82.24950409092537
 30
0.0
 11
107.7316964830009
 21
82.23898116582525
 31
0.0
  0
SPLINE
  5
81
330
70
100
AcDbEntity
  8
0
 62
    18
420
        0
370
    25
100
AcDbSpline
210
0.0
220
0.0
230
1.0
 70
     8
 71
     3
 72
     8
 73
     4
 74
     0
 42
0.0000000001
 43
0.0000000001
 40
0.0
 40
0.0
 40
0.0
 40
0.0
 40
1.0
 40
1.0
 40
1.0
 40
1.0
 10
119.7424117393407
 20
94.25495662532879
 30
0.0
 10
119.738355667396
 20
94.25463779072256
 30
0.0
 10
119.7345826859949
 20
94.2527536499274
 30
0.0
 10
119.7318909327933
 20
94.24970277467144
 30
0.0
  0
LINE
  5
82
330
70
100
AcDbEntity
  8
0
 62
    18
420
        0
370
    25
100
AcDbLine
 10
119.731890932801
 20
82.24950409092537
 30
0.0
 11
119.7424138579011
 21
82.24950832492494
 31
0.0
  0
LINE
  5
83
330
70
100
AcDbEntity
  8
0
 62
    18
420
        0
370
    25
100
AcDbLine
 10
119.9817915909012
 20
94.2496034328254
 30
0.0
 11
119.9817915909012
 21
89.00034071062533
 31
0.0
  0
LINE
  5
84
330
70
100
AcDbEntity
  8
0
 62
    18
420
        0
370
    25
100
AcDbLine
 10
119.9817915909012
 20
87.74886615502524
 30
0.0
 11
119.9817915909012
 21
82.2496034328253
 31
0.0
  0
SPLINE
  5
85
330
70
100
AcDbEntity
  8
0
 62
    18
420
        0
370
    25
100
AcDbSpline
210
0.0
220
0.0
230
1.0
 70
     8
 71
     3
 72
     8
 73
     4
 74
     0
 42
0.0000000001
 43
0.0000000001
 40
0.0
 40
0.0
 40
0.0
 40
0.0
 40
1.0
 40
1.0
 40
1.0
 40
1.0
 10
119.7424138577522
 20
82.24950832493904
 30
0.0
 10
119.8222064480354
 20
82.24947833459028
 30
0.0
 10
119.9019990495714
 20
82.24951003723722
 30
0.0
 10
119.9817915908313
 20
82.24960343285225
 30
0.0
  0
SPLINE
  5
86
330
70
100
AcDbEntity
  8
0
 62
    18
420
        0
370
    25
100
AcDbSpline
210
0.0
220
0.0
230
1.0
 70
     8
 71
     3
 72
     8
 73
     4
 74
     0
 42
0.0000000001
 43
0.0000000001
 40
0.0
 40
0.0
 40
0.0
 40
0.0
 40
1.0
 40
1.0
 40
1.0
 40
1.0
 10
119.9817915909404
 20
94.24960343284947
 30
0.0
 10
119.9021654887678
 20
94.25594753451491
 30
0.0
 10
119.8222418418366
 20
94.25773484731362
 30
0.0
 10
119.7424117393921
 20
94.25495662541317
 30
0.0
  0
SPLINE
  5
87
330
70
100
AcDbEntity
  8
0
 62
    18
420
        0
370
    25
100
AcDbSpline
210
0.0
220
0.0
230
1.0
 70
     8
 71
     3
 72
     8
 73
     4
 74
     0
 42
0.0000000001
 43
0.0000000001
 40
0.0
 40
0.0
 40
0.0
 40
0.0
 40
1.0
 40
1.0
 40
1.0
 40
1.0
 10
119.9817915909327
 20
94.24960343282895
 30
0.0
 10
119.8989391523173
 20
94.26019213520758
 30
0.0
 10
119.8153388309706
 20
94.26374558533632
 30
0.0
 10
119.7318867035167
 20
94.26022569527999
 30
0.0
  0
LINE
  5
88
330
70
100
AcDbEntity
  8
0
 62
    18
420
        0
370
    25
100
AcDbLine
 10
119.731890932801
 20
94.24970277472535
 30
0.0
 11
119.7318867035012
 21
94.26022569522544
 31
0.0
  0
SPLINE
  5
89
330
70
100
AcDbEntity
  8
0
 62
    18
420
        0
370
    25
100
AcDbSpline
210
0.0
220
0.0
230
1.0
 70
     8
 71
     3
 72
     8
 73
     4
 74
     0
 42
0.0000000001
 43
0.0000000001
 40
0.0
 40
0.0
 40
0.0
 40
0.0
 40
1.0
 40
1.0
 40
1.0
 40
1.0
 10
107.4817915908697
 20
82.24960343559809
 30
0.0
 10
107.5614176928741
 20
82.24325933072703
 30
0.0
 10
107.6413413399465
 20
82.24147201718848
 30
0.0
 10
107.7211714424167
 20
82.24425024082696
 30
0.0
  0
LINE
  5
8A
330
70
100
AcDbEntity
  8
0
 62
    18
420
        0
370
    25
100
AcDbLine
 10
107.4817915909011
 20
82.2496034328253
 30
0.0
 11
107.4817915909011
 21
87.62460343282542
 31
0.0
  0
LINE
  5
8B
330
70
100
AcDbEntity
  8
0
 62
    18
420
        0
370
    25
100
AcDbLine
 10
107.4817915909011
 20
89.1246034328258
 30
0.0
 11
107.4817915909011
 21
94.2496034328254
 31
0.0
  0
SPLINE
  5
8C
330
70
100
AcDbEntity
  8
0
 62
    18
420
        0
370
    25
100
AcDbSpline
210
0.0
220
0.0
230
1.0
 70
     8
 71
     3
 72
     8
 73
     4
 74
     0
 42
0.0000000001
 43
0.0000000001
 40
0.0
 40
0.0
 40
0.0
 40
0.0
 40
1.0
 40
1.0
 40
1.0
 40
1.0
 10
107.7211693239057
 20
94.24969854067091
 30
0.0
 10
107.6413767336829
 20
94.24972853101937
 30
0.0
 10
107.5615841322091
 20
94.24969682837211
 30
0.0
 10
107.4817915910096
 20
94.2496034327574
 30
0.0
  0
SPLINE
  5
8D
330
70
100
AcDbEntity
  8
0
 62
    18
420
        0
370
    25
100
AcDbSpline
210
0.0
220
0.0
230
1.0
 70
     8
 71
     3
 72
     8
 73
     4
 74
     0
 42
0.0000000001
 43
0.0000000001
 40
0.0
 40
0.0
 40
0.0
 40
0.0
 40
1.0
 40
1.0
 40
1.0
 40
1.0
 10
107.4817915908844
 20
82.24960343285355
 30
0.0
 10
107.5646440306735
 20
82.239014725863
 30
0.0
 10
107.6482443538336
 20
82.23546127419387
 30
0.0
 10
107.7316964829708
 20
82.23898116582974
 30
0.0
  0
SPLINE
  5
8E
330
70
100
AcDbEntity
  8
0
 62
    18
420
        0
370
    25
100
AcDbSpline
210
0.0
220
0.0
230
1.0
 70
     8
 71
     3
 72
     8
 73
     4
 74
     0
 42
0.0000000001
 43
0.0000000001
 40
0.0
 40
0.0
 40
0.0
 40
0.0
 40
1.0
 40
1.0
 40
1.0
 40
1.0
 10
119.7317915908651
 20
81.99960343280718
 30
0.0
 10
119.7423802978563
 20
82.08245587259623
 30
0.0
 10
119.7459337495255
 20
82.166056195757
 30
0.0
 10
119.7424138578896
 20
82.24950832489478
 30
0.0
  0
SPLINE
  5
8F
330
70
100
AcDbEntity
  8
0
 62
    18
420
        0
370
    25
100
AcDbSpline
210
0.0
220
0.0
230
1.0
 70
     8
 71
     3
 72
     8
 73
     4
 74
     0
 42
0.0000000001
 43
0.0000000001
 40
0.0
 40
0.0
 40
0.0
 40
0.0
 40
1.0
 40
1.0
 40
1.0
 40
1.0
 10
119.731791590937
 20
81.99960343275712
 30
0.0
 10
119.7381356900527
 20
82.07922953506125
 30
0.0
 10
119.7399230026486
 20
82.15915318185706
 30
0.0
 10
119.737144782902
 20
82.23898328430415
 30
0.0
  0
LINE
  5
90
330
70
100
AcDbEntity
  8
0
 62
    18
420
        0
370
    25
100
AcDbLine
 10
119.7317915909011
 20
81.99960343282514
 30
0.0
 11
107.7317915909013
 21
81.99960343282514
 31
0.0
  0
SPLINE
  5
91
330
70
100
AcDbEntity
  8
0
 62
    18
420
        0
370
    25
100
AcDbSpline
210
0.0
220
0.0
230
1.0
 70
     8
 71
     3
 72
     8
 73
     4
 74
     0
 42
0.0000000001
 43
0.0000000001
 40
0.0
 40
0.0
 40
0.0
 40
0.0
 40
1.0
 40
1.0
 40
1.0
 40
1.0
 10
107.7316964830311
 20
82.23898116582461
 30
0.0
 10
107.7316664926823
 20
82.15918857551836
 30
0.0
 10
107.7316981953299
 20
82.07939597396313
 30
0.0
 10
107.7317915909449
 20
81.99960343267884
 30
0.0
  0
LWPOLYLINE
  5
92
330
70
100
AcDbEntity
  8
0
 62
    18
420
        0
370
    25
100
AcDbPolyline
 90
        6
 70
     0
 43
0.0
 10
113.7317915909008
 20
94.26173410652529
 10
113.2317915909011
 20
94.26172029122527
 10
111.2317916151015
 20
94.26141347952528
 10
109.481744015901
 20
94.26088908502521
 10
107.7316964783011
 20
94.26022569522544
 10
107.7264383988009
 20
94.26022358172517
  0
SPLINE
  5
93
330
70
100
AcDbEntity
  8
0
 62
    18
420
        0
370
    25
100
AcDbSpline
210
0.0
220
0.0
230
1.0
 70
     8
 71
     3
 72
     8
 73
     4
 74
     0
 42
0.0000000001
 43
0.0000000001
 40
0.0
 40
0.0
 40
0.0
 40
0.0
 40
1.0
 40
1.0
 40
1.0
 40
1.0
 10
107.7317915932589
 20
94.49960343278739
 30
0.0
 10
107.7254474888383
 20
94.41997733091511
 30
0.0
 10
107.7236601754172
 20
94.34005368401697
 30
0.0
 10
107.7264383988394
 20
94.26022358170655
 30
0.0
  0
LINE
  5
94
330
70
100
AcDbEntity
  8
0
 62
    18
420
        0
370
    25
100
AcDbLine
 10
107.7317915909013
 20
94.49960343282524
 30
0.0
 11
113.7317915909008
 21
94.49960343282524
 31
0.0
  0
LINE
  5
95
330
70
100
AcDbEntity
  8
0
 62
    18
420
        0
370
    25
100
AcDbLine
 10
113.7317915909008
 20
94.26173410652529
 30
0.0
 11
113.7317915909008
 21
94.49960343282524
 31
0.0
  0
SPLINE
  5
96
330
70
100
AcDbEntity
  8
0
 62
    18
420
        0
370
    25
100
AcDbSpline
210
0.0
220
0.0
230
1.0
 70
     8
 71
     3
 72
     8
 73
     4
 74
     0
 42
0.0000000001
 43
0.0000000001
 40
0.0
 40
0.0
 40
0.0
 40
0.0
 40
1.0
 40
1.0
 40
1.0
 40
1.0
 10
107.7317915908795
 20
94.49960343278901
 30
0.0
 10
107.7212028838825
 20
94.41675099300155
 30
0.0
 10
107.717649432214
 20
94.33315066984141
 30
0.0
 10
107.7211693238557
 20
94.24969854070493
 30
0.0
  0
SPLINE
  5
97
330
70
100
AcDbEntity
  8
0
 62
    18
420
        0
370
    25
100
AcDbSpline
210
0.0
220
0.0
230
1.0
 70
     8
 71
     3
 72
     8
 73
     4
 74
     0
 42
0.0000000001
 43
0.0000000001
 40
0.0
 40
0.0
 40
0.0
 40
0.0
 40
1.0
 40
1.0
 40
1.0
 40
1.0
 10
107.7264383988356
 20
94.26022358172644
 30
0.0
 10
107.7267572331771
 20
94.25616750968165
 30
0.0
 10
107.7286413738086
 20
94.25239452809638
 30
0.0
 10
107.7316922490116
 20
94.24970277471476
 30
0.0
  0
LINE
  5
98
330
70
100
AcDbEntity
  8
0
 62
    18
420
        0
370
    25
100
AcDbLine
 10
113.7317915909008
 20
94.24970277472535
 30
0.0
 11
113.7317915909008
 21
94.26173410652529
 31
0.0
  0
LINE
  5
99
330
70
100
AcDbEntity
  8
0
 62
    18
420
        0
370
    25
100
AcDbLine
 10
113.7317915909008
 20
94.24970277472535
 30
0.0
 11
107.7316922490013
 21
94.24970277472535
 31
0.0
  0
LWPOLYLINE
  5
9A
330
70
100
AcDbEntity
  8
0
 62
    18
420
        0
370
    25
100
AcDbPolyline
 90
        5
 70
     0
 43
0.0
 10
119.7318867035012
 20
94.26022569522544
 10
119.2318867749015
 20
94.26042416522532
 10
117.2318869997014
 20
94.26113633702522
 10
115.4818393703013
 20
94.26157184092531
 10
113.7317915909008
 20
94.26173410652529
  0
LINE
  5
9B
330
70
100
AcDbEntity
  8
0
 62
    18
420
        0
370
    25
100
AcDbLine
 10
119.731890932801
 20
94.24970277472535
 30
0.0
 11
113.7317915909008
 21
94.24970277472535
 31
0.0
  0
LINE
  5
9C
330
70
100
AcDbEntity
  8
0
 62
    18
420
        0
370
    25
100
AcDbLine
 10
113.7317915909008
 20
94.49960343282524
 30
0.0
 11
119.7317915909011
 21
94.49960343282524
 31
0.0
  0
SPLINE
  5
9D
330
70
100
AcDbEntity
  8
0
 62
    18
420
        0
370
    25
100
AcDbSpline
210
0.0
220
0.0
230
1.0
 70
     8
 71
     3
 72
     8
 73
     4
 74
     0
 42
0.0000000001
 43
0.0000000001
 40
0.0
 40
0.0
 40
0.0
 40
0.0
 40
1.0
 40
1.0
 40
1.0
 40
1.0
 10
119.7318867034473
 20
94.26022569530116
 30
0.0
 10
119.7319166952701
 20
94.34001828707049
 30
0.0
 10
119.7318849910651
 20
94.41981089009265
 30
0.0
 10
119.7317915908619
 20
94.49960343283391
 30
0.0
  0
SPLINE
  5
9E
330
70
100
AcDbEntity
  8
0
 62
    18
420
        0
370
    25
100
AcDbSpline
210
0.0
220
0.0
230
1.0
 70
     8
 71
     3
 72
     8
 73
     4
 74
     0
 42
0.0000000001
 43
0.0000000001
 40
0.0
 40
0.0
 40
0.0
 40
0.0
 40
1.0
 40
1.0
 40
1.0
 40
1.0
 10
119.9817915909012
 20
94.24960343290434
 30
0.0
 10
119.9817915908576
 20
94.3876746203311
 30
0.0
 10
119.8698627783278
 20
94.49960343282524
 30
0.0
 10
119.7317915909011
 20
94.49960343282524
 30
0.0
  0
SPLINE
  5
9F
330
70
100
AcDbEntity
  8
0
 62
    18
420
        0
370
    25
100
AcDbSpline
210
0.0
220
0.0
230
1.0
 70
     8
 71
     3
 72
     8
 73
     4
 74
     0
 42
0.0000000001
 43
0.0000000001
 40
0.0
 40
0.0
 40
0.0
 40
0.0
 40
1.0
 40
1.0
 40
1.0
 40
1.0
 10
107.7317915909013
 20
94.49960343282524
 30
0.0
 10
107.5937204034437
 20
94.49960343282524
 30
0.0
 10
107.4817915909011
 20
94.387674620283
 30
0.0
 10
107.4817915909011
 20
94.2496034328254
 30
0.0
  0
SPLINE
  5
A0
330
70
100
AcDbEntity
  8
0
 62
    18
420
        0
370
    25
100
AcDbSpline
210
0.0
220
0.0
230
1.0
 70
     8
 71
     3
 72
    11
 73
     7
 74
     0
 42
0.0000000001
 43
0.0000000001
 40
0.0
 40
0.0
 40
0.0
 40
0.0
 40
1.0
 40
1.0
 40
1.0
 40
2.0
 40
2.0
 40
2.0
 40
2.0
 10
107.4817915909011
 20
82.24960343329824
 30
0.0
 10
107.4817915906399
 20
82.11153224584066
 30
0.0
 10
107.5937204029708
 20
81.99960343308694
 30
0.0
 10
107.7317915904284
 20
81.99960343282514
 30
0.0
 10
107.7317915906645
 20
81.99960343282514
 30
0.0
 10
107.7317915906645
 20
81.99960343282514
 30
0.0
 10
107.7317915909013
 20
81.99960343282514
 30
0.0
  0
SPLINE
  5
A1
330
70
100
AcDbEntity
  8
0
 62
    18
420
        0
370
    25
100
AcDbSpline
210
0.0
220
0.0
230
1.0
 70
     8
 71
     3
 72
     8
 73
     4
 74
     0
 42
0.0000000001
 43
0.0000000001
 40
0.0
 40
0.0
 40
0.0
 40
0.0
 40
1.0
 40
1.0
 40
1.0
 40
1.0
 10
119.7317915909011
 20
81.99960343282514
 30
0.0
 10
119.8698627783586
 20
81.99960343282514
 30
0.0
 10
119.9817915909012
 20
82.11153224536772
 30
0.0
 10
119.9817915909012
 20
82.2496034328253
 30
0.0
  0
LINE
  5
A2
330
70
100
AcDbEntity
  8
0
 62
    18
420
        0
370
    25
100
AcDbLine
 10
27.33488820370105
 20
89.63613936032583
 30
0.0
 11
31.94845161810122
 21
94.24970277472535
 31
0.0
  0
SPLINE
  5
A3
330
70
100
AcDbEntity
  8
0
 62
    18
420
        0
370
    25
100
AcDbSpline
210
0.0
220
0.0
230
1.0
 70
     8
 71
     3
 72
     8
 73
     4
 74
     0
 42
0.0000000001
 43
0.0000000001
 40
0.0
 40
0.0
 40
0.0
 40
0.0
 40
1.0
 40
1.0
 40
1.0
 40
1.0
 10
31.95897242455752
 20
94.25495662475672
 30
0.0
 10
31.95491689747372
 20
94.25463582891962
 30
0.0
 10
31.95114461194931
 20
94.25275203584417
 30
0.0
 10
31.94845161800946
 20
94.24970277469808
 30
0.0
  0
LINE
  5
A4
330
70
100
AcDbEntity
  8
0
 62
    18
420
        0
370
    25
100
AcDbLine
 10
31.94845161810122
 20
82.24950409092537
 30
0.0
 11
31.95897454320133
 21
82.24950832492494
 31
0.0
  0
LINE
  5
A5
330
70
100
AcDbEntity
  8
0
 62
    18
420
        0
370
    25
100
AcDbLine
 10
27.34671100790114
 20
86.85124470102534
 30
0.0
 11
31.94845161810122
 21
82.24950409092537
 31
0.0
  0
SPLINE
  5
A6
330
70
100
AcDbEntity
  8
0
 62
    18
420
        0
370
    25
100
AcDbSpline
210
0.0
220
0.0
230
1.0
 70
     8
 71
     3
 72
     8
 73
     4
 74
     0
 42
0.0000000001
 43
0.0000000001
 40
0.0
 40
0.0
 40
0.0
 40
0.0
 40
1.0
 40
1.0
 40
1.0
 40
1.0
 10
19.93773212768259
 20
82.24425024020066
 30
0.0
 10
19.94178765483858
 20
82.24457103625015
 30
0.0
 10
19.94555994035528
 20
82.2464548295364
 30
0.0
 10
19.94825293423032
 20
82.24950409085733
 30
0.0
  0
LWPOLYLINE
  5
A7
330
70
100
AcDbEntity
  8
0
 62
    18
420
        0
370
    25
100
AcDbPolyline
 90
        7
 70
     0
 43
0.0
 10
19.93773000910134
 20
94.24969854072546
 10
19.93753156770134
 20
93.74969861212537
 10
19.93682139520112
 20
91.74969883552545
 10
19.93623390210113
 20
87.74969881732543
 10
19.93643461940131
 20
86.22609777172558
 10
19.93773001460134
 20
82.24950831932547
 10
19.93773212770119
 20
82.24425024022504
  0
LINE
  5
A8
330
70
100
AcDbEntity
  8
0
 62
    18
420
        0
370
    25
100
AcDbLine
 10
19.94825293420113
 20
94.24970277472535
 30
0.0
 11
19.93773000910134
 21
94.24969854072546
 31
0.0
  0
LINE
  5
A9
330
70
100
AcDbEntity
  8
0
 62
    18
420
        0
370
    25
100
AcDbLine
 10
24.55980091330113
 20
89.63815479572579
 30
0.0
 11
19.94825293420113
 21
94.24970277472535
 31
0.0
  0
LINE
  5
AA
330
70
100
AcDbEntity
  8
0
 62
    18
420
        0
370
    25
100
AcDbLine
 10
24.54326743780115
 20
86.84451859442495
 30
0.0
 11
19.94825293420113
 21
82.24950409092537
 31
0.0
  0
SPLINE
  5
AB
330
70
100
AcDbEntity
  8
0
 62
    18
420
        0
370
    25
100
AcDbSpline
210
0.0
220
0.0
230
1.0
 70
     8
 71
     3
 72
     8
 73
     4
 74
     0
 42
0.0000000001
 43
0.0000000001
 40
0.0
 40
0.0
 40
0.0
 40
0.0
 40
1.0
 40
1.0
 40
1.0
 40
1.0
 10
19.94299908414635
 20
94.26022358128335
 30
0.0
 10
19.94331707754064
 20
94.2561672759829
 30
0.0
 10
19.94520136725168
 20
94.2523939959485
 30
0.0
 10
19.94825293420498
 20
94.2497027747353
 30
0.0
  0
LWPOLYLINE
  5
AC
330
70
100
AcDbEntity
  8
0
 62
    18
420
        0
370
    25
100
AcDbPolyline
 90
        7
 70
     0
 43
0.0
 10
31.94844738410133
 20
94.26022569982547
 10
31.44844745540114
 20
94.26042414132524
 10
29.44844767890132
 20
94.26113431372536
 10
25.44844766070131
 20
94.26172180682534
 10
23.92484661510113
 20
94.26152108952518
 10
19.94825716260123
 20
94.26022569432515
 10
19.94299908420121
 20
94.26022358122528
  0
LINE
  5
AD
330
70
100
AcDbEntity
  8
0
 62
    18
420
        0
370
    25
100
AcDbLine
 10
31.94845161810122
 20
94.24970277472535
 30
0.0
 11
31.94844738410133
 21
94.26022569982547
 31
0.0
  0
SPLINE
  5
AE
330
70
100
AcDbEntity
  8
0
 62
    18
420
        0
370
    25
100
AcDbSpline
210
0.0
220
0.0
230
1.0
 70
     8
 71
     3
 72
     8
 73
     4
 74
     0
 42
0.0000000001
 43
0.0000000001
 40
0.0
 40
0.0
 40
0.0
 40
0.0
 40
1.0
 40
1.0
 40
1.0
 40
1.0
 10
31.95370546820477
 20
82.23898328388896
 30
0.0
 10
31.95338747485251
 20
82.24303958935884
 30
0.0
 10
31.95150318509623
 20
82.24681286956649
 30
0.0
 10
31.94845161802935
 20
82.24950409090098
 30
0.0
  0
LWPOLYLINE
  5
AF
330
70
100
AcDbEntity
  8
0
 62
    18
420
        0
370
    25
100
AcDbPolyline
 90
        6
 70
     0
 43
0.0
 10
25.94835227610128
 20
82.23747275912577
 10
26.4483522761013
 20
82.23748657432535
 10
28.44835225200108
 20
82.23779338602531
 10
30.19839985120122
 20
82.23831778062518
 10
31.94844738870135
 20
82.23898117032549
 10
31.95370546820124
 20
82.23898328392555
  0
LWPOLYLINE
  5
B0
330
70
100
AcDbEntity
  8
0
 62
    18
420
        0
370
    25
100
AcDbPolyline
 90
        5
 70
     0
 43
0.0
 10
19.94825716360131
 20
82.23898117032549
 10
20.4482570921013
 20
82.23878270042572
 10
22.44825686730104
 20
82.23807052852572
 10
24.19830449670115
 20
82.23763502462498
 10
25.94835227610128
 20
82.23747275912577
  0
LINE
  5
B1
330
70
100
AcDbEntity
  8
0
 62
    18
420
        0
370
    25
100
AcDbLine
 10
19.94825293420113
 20
82.24950409092537
 30
0.0
 11
19.94825716360131
 21
82.23898117032549
 31
0.0
  0
SPLINE
  5
B2
330
70
100
AcDbEntity
  8
0
 62
    18
420
        0
370
    25
100
AcDbSpline
210
0.0
220
0.0
230
1.0
 70
     8
 71
     3
 72
     8
 73
     4
 74
     0
 42
0.0000000001
 43
0.0000000001
 40
0.0
 40
0.0
 40
0.0
 40
0.0
 40
1.0
 40
1.0
 40
1.0
 40
1.0
 10
19.69835227616956
 20
82.2496034328221
 30
0.0
 10
19.78120471478494
 20
82.2390147304428
 30
0.0
 10
19.86480503613196
 20
82.23546128031376
 30
0.0
 10
19.94825716358559
 20
82.23898117037041
 30
0.0
  0
SPLINE
  5
B3
330
70
100
AcDbEntity
  8
0
 62
    18
420
        0
370
    25
100
AcDbSpline
210
0.0
220
0.0
230
1.0
 70
     8
 71
     3
 72
     8
 73
     4
 74
     0
 42
0.0000000001
 43
0.0000000001
 40
0.0
 40
0.0
 40
0.0
 40
0.0
 40
1.0
 40
1.0
 40
1.0
 40
1.0
 10
19.69835227616186
 20
82.24960343279771
 30
0.0
 10
19.7779783783335
 20
82.24325933113259
 30
0.0
 10
19.85790202526372
 20
82.24147201833327
 30
0.0
 10
19.93773212770633
 20
82.24425024023402
 30
0.0
  0
LINE
  5
B4
330
70
100
AcDbEntity
  8
0
 62
    18
420
        0
370
    25
100
AcDbLine
 10
19.69835227610122
 20
82.2496034328253
 30
0.0
 11
19.69835227610122
 21
94.2496034328254
 31
0.0
  0
SPLINE
  5
B5
330
70
100
AcDbEntity
  8
0
 62
    18
420
        0
370
    25
100
AcDbSpline
210
0.0
220
0.0
230
1.0
 70
     8
 71
     3
 72
     8
 73
     4
 74
     0
 42
0.0000000001
 43
0.0000000001
 40
0.0
 40
0.0
 40
0.0
 40
0.0
 40
1.0
 40
1.0
 40
1.0
 40
1.0
 10
19.93773000924989
 20
94.24969854073637
 30
0.0
 10
19.85793741896674
 20
94.24972853108483
 30
0.0
 10
19.7781448174314
 20
94.24969682843757
 30
0.0
 10
19.69835227617084
 20
94.24960343282284
 30
0.0
  0
SPLINE
  5
B6
330
70
100
AcDbEntity
  8
0
 62
    18
420
        0
370
    25
100
AcDbSpline
210
0.0
220
0.0
230
1.0
 70
     8
 71
     3
 72
     8
 73
     4
 74
     0
 42
0.0000000001
 43
0.0000000001
 40
0.0
 40
0.0
 40
0.0
 40
0.0
 40
1.0
 40
1.0
 40
1.0
 40
1.0
 10
32.19835227613343
 20
94.24960342996151
 30
0.0
 10
32.11872617412864
 20
94.25594753483192
 30
0.0
 10
32.03880252705595
 20
94.2577348483708
 30
0.0
 10
31.95897242458511
 20
94.25495662473201
 30
0.0
  0
LINE
  5
B7
330
70
100
AcDbEntity
  8
0
 62
    18
420
        0
370
    25
100
AcDbLine
 10
32.19835227610134
 20
94.2496034328254
 30
0.0
 11
32.19835227610134
 21
89.1246034328258
 31
0.0
  0
LINE
  5
B8
330
70
100
AcDbEntity
  8
0
 62
    18
420
        0
370
    25
100
AcDbLine
 10
32.19835227610134
 20
87.62460343282542
 30
0.0
 11
32.19835227610134
 21
82.2496034328253
 31
0.0
  0
SPLINE
  5
B9
330
70
100
AcDbEntity
  8
0
 62
    18
420
        0
370
    25
100
AcDbSpline
210
0.0
220
0.0
230
1.0
 70
     8
 71
     3
 72
     8
 73
     4
 74
     0
 42
0.0000000001
 43
0.0000000001
 40
0.0
 40
0.0
 40
0.0
 40
0.0
 40
1.0
 40
1.0
 40
1.0
 40
1.0
 10
31.95897454309706
 20
82.24950832484216
 30
0.0
 10
32.03876713331925
 20
82.24947833449403
 30
0.0
 10
32.11855973479363
 20
82.24951003714096
 30
0.0
 10
32.1983522759929
 20
82.24960343275537
 30
0.0
  0
LINE
  5
BA
330
70
100
AcDbEntity
  8
0
 62
    18
420
        0
370
    25
100
AcDbLine
 10
19.94835227610107
 20
94.49960343282524
 30
0.0
 11
31.94835227610117
 21
94.49960343282524
 31
0.0
  0
SPLINE
  5
BB
330
70
100
AcDbEntity
  8
0
 62
    18
420
        0
370
    25
100
AcDbSpline
210
0.0
220
0.0
230
1.0
 70
     8
 71
     3
 72
     8
 73
     4
 74
     0
 42
0.0000000001
 43
0.0000000001
 40
0.0
 40
0.0
 40
0.0
 40
0.0
 40
1.0
 40
1.0
 40
1.0
 40
1.0
 10
31.94844738405994
 20
94.26022569982386
 30
0.0
 10
31.94847737440839
 20
94.3400182900422
 30
0.0
 10
31.94844567176114
 20
94.41981089151273
 30
0.0
 10
31.94835227614641
 20
94.49960343270815
 30
0.0
  0
SPLINE
  5
BC
330
70
100
AcDbEntity
  8
0
 62
    18
420
        0
370
    25
100
AcDbSpline
210
0.0
220
0.0
230
1.0
 70
     8
 71
     3
 72
     8
 73
     4
 74
     0
 42
0.0000000001
 43
0.0000000001
 40
0.0
 40
0.0
 40
0.0
 40
0.0
 40
1.0
 40
1.0
 40
1.0
 40
1.0
 10
19.94835227616556
 20
94.49960343279318
 30
0.0
 10
19.9420081770499
 20
94.41997733048967
 30
0.0
 10
19.940220864454
 20
94.34005368369325
 30
0.0
 10
19.94299908420057
 20
94.26022358124646
 30
0.0
  0
SPLINE
  5
BD
330
70
100
AcDbEntity
  8
0
 62
    18
420
        0
370
    25
100
AcDbSpline
210
0.0
220
0.0
230
1.0
 70
     8
 71
     3
 72
     8
 73
     4
 74
     0
 42
0.0000000001
 43
0.0000000001
 40
0.0
 40
0.0
 40
0.0
 40
0.0
 40
1.0
 40
1.0
 40
1.0
 40
1.0
 10
32.19835227611802
 20
94.24960343279717
 30
0.0
 10
32.1154998363293
 20
94.26019213978804
 30
0.0
 10
32.03189951316884
 20
94.26374559145685
 30
0.0
 10
31.94844738403139
 20
94.26022569982098
 30
0.0
  0
SPLINE
  5
BE
330
70
100
AcDbEntity
  8
0
 62
    18
420
        0
370
    25
100
AcDbSpline
210
0.0
220
0.0
230
1.0
 70
     8
 71
     3
 72
     8
 73
     4
 74
     0
 42
0.0000000001
 43
0.0000000001
 40
0.0
 40
0.0
 40
0.0
 40
0.0
 40
1.0
 40
1.0
 40
1.0
 40
1.0
 10
19.94835227613444
 20
94.49960343284386
 30
0.0
 10
19.93776356914357
 20
94.41675099305482
 30
0.0
 10
19.93421011747444
 20
94.33315066989372
 30
0.0
 10
19.93773000911064
 20
94.24969854075595
 30
0.0
  0
SPLINE
  5
BF
330
70
100
AcDbEntity
  8
0
 62
    18
420
        0
370
    25
100
AcDbSpline
210
0.0
220
0.0
230
1.0
 70
     8
 71
     3
 72
     8
 73
     4
 74
     0
 42
0.0000000001
 43
0.0000000001
 40
0.0
 40
0.0
 40
0.0
 40
0.0
 40
1.0
 40
1.0
 40
1.0
 40
1.0
 10
31.94835227609829
 20
81.99960343282
 30
0.0
 10
31.95400146590366
 20
82.07926344248086
 30
0.0
 10
31.95578795745655
 20
82.15915037262314
 30
0.0
 10
31.95370546818038
 20
82.23898328390117
 30
0.0
  0
LINE
  5
C0
330
70
100
AcDbEntity
  8
0
 62
    18
420
        0
370
    25
100
AcDbLine
 10
31.94835227610117
 20
81.99960343282514
 30
0.0
 11
25.94835227610128
 21
81.99960343282514
 31
0.0
  0
SPLINE
  5
C1
330
70
100
AcDbEntity
  8
0
 62
    18
420
        0
370
    25
100
AcDbSpline
210
0.0
220
0.0
230
1.0
 70
     8
 71
     3
 72
     8
 73
     4
 74
     0
 42
0.0000000001
 43
0.0000000001
 40
0.0
 40
0.0
 40
0.0
 40
0.0
 40
1.0
 40
1.0
 40
1.0
 40
1.0
 10
31.94835227612299
 20
81.99960343276162
 30
0.0
 10
31.95894098311963
 20
82.08245587254873
 30
0.0
 10
31.96249443478877
 20
82.16605619570952
 30
0.0
 10
31.95897454314679
 20
82.24950832484536
 30
0.0
  0
LINE
  5
C2
330
70
100
AcDbEntity
  8
0
 62
    18
420
        0
370
    25
100
AcDbLine
 10
25.94835227610128
 20
81.99960343282514
 30
0.0
 11
19.94835227610107
 21
81.99960343282514
 31
0.0
  0
SPLINE
  5
C3
330
70
100
AcDbEntity
  8
0
 62
    18
420
        0
370
    25
100
AcDbSpline
210
0.0
220
0.0
230
1.0
 70
     8
 71
     3
 72
     8
 73
     4
 74
     0
 42
0.0000000001
 43
0.0000000001
 40
0.0
 40
0.0
 40
0.0
 40
0.0
 40
1.0
 40
1.0
 40
1.0
 40
1.0
 10
19.94825716359971
 20
82.23898117038517
 30
0.0
 10
19.94822717177728
 20
82.15918857856706
 30
0.0
 10
19.94825887598194
 20
82.0793959754955
 30
0.0
 10
19.94835227618545
 20
81.99960343270578
 30
0.0
  0
SPLINE
  5
C4
330
70
100
AcDbEntity
  8
0
 62
    18
420
        0
370
    25
100
AcDbSpline
210
0.0
220
0.0
230
1.0
 70
     8
 71
     3
 72
    11
 73
     7
 74
     0
 42
0.0000000001
 43
0.0000000001
 40
0.0
 40
0.0
 40
0.0
 40
0.0
 40
1.0
 40
1.0
 40
1.0
 40
2.0
 40
2.0
 40
2.0
 40
2.0
 10
19.69835227610122
 20
82.24960343290424
 30
0.0
 10
19.69835227605759
 20
82.11153224544665
 30
0.0
 10
19.81028108856456
 20
81.99960343286878
 30
0.0
 10
19.94835227602214
 20
81.99960343282514
 30
0.0
 10
19.9483522760616
 20
81.99960343282514
 30
0.0
 10
19.9483522760616
 20
81.99960343282514
 30
0.0
 10
19.94835227610107
 20
81.99960343282514
 30
0.0
  0
SPLINE
  5
C5
330
70
100
AcDbEntity
  8
0
 62
    18
420
        0
370
    25
100
AcDbSpline
210
0.0
220
0.0
230
1.0
 70
     8
 71
     3
 72
     8
 73
     4
 74
     0
 42
0.0000000001
 43
0.0000000001
 40
0.0
 40
0.0
 40
0.0
 40
0.0
 40
1.0
 40
1.0
 40
1.0
 40
1.0
 10
19.94835227610107
 20
94.49960343282524
 30
0.0
 10
19.81028108864349
 20
94.49960343282524
 30
0.0
 10
19.69835227610122
 20
94.387674620283
 30
0.0
 10
19.69835227610122
 20
94.2496034328254
 30
0.0
  0
SPLINE
  5
C6
330
70
100
AcDbEntity
  8
0
 62
    18
420
        0
370
    25
100
AcDbSpline
210
0.0
220
0.0
230
1.0
 70
     8
 71
     3
 72
     8
 73
     4
 74
     0
 42
0.0000000001
 43
0.0000000001
 40
0.0
 40
0.0
 40
0.0
 40
0.0
 40
1.0
 40
1.0
 40
1.0
 40
1.0
 10
31.94835227610117
 20
81.99960343282514
 30
0.0
 10
32.08642346355875
 20
81.99960343282514
 30
0.0
 10
32.19835227610134
 20
82.11153224536772
 30
0.0
 10
32.19835227610134
 20
82.2496034328253
 30
0.0
  0
SPLINE
  5
C7
330
70
100
AcDbEntity
  8
0
 62
    18
420
        0
370
    25
100
AcDbSpline
210
0.0
220
0.0
230
1.0
 70
     8
 71
     3
 72
     8
 73
     4
 74
     0
 42
0.0000000001
 43
0.0000000001
 40
0.0
 40
0.0
 40
0.0
 40
0.0
 40
1.0
 40
1.0
 40
1.0
 40
1.0
 10
32.19835227610134
 20
94.24960343329834
 30
0.0
 10
32.19835227583985
 20
94.38767462057143
 30
0.0
 10
32.08642346337426
 20
94.49960343282524
 30
0.0
 10
31.94835227610117
 20
94.49960343282524
 30
0.0
  0
LINE
  5
C8
330
70
100
AcDbEntity
  8
0
 62
    18
420
        0
370
    25
100
AcDbLine
 10
119.9085682862013
 20
89.07282673752535
 30
0.0
 11
119.9817915909012
 21
88.99960343282538
 31
0.0
  0
LINE
  5
C9
330
70
100
AcDbEntity
  8
0
 62
    18
420
        0
370
    25
100
AcDbLine
 10
119.9817915909012
 20
88.99960343282538
 30
0.0
 11
119.9817915909012
 21
87.74960343282518
 31
0.0
  0
LINE
  5
CA
330
70
100
AcDbEntity
  8
0
 62
    18
420
        0
370
    25
100
AcDbLine
 10
119.9817915909012
 20
87.74960343282518
 30
0.0
 11
119.9085682862013
 21
87.67638012812522
 31
0.0
  0
SPLINE
  5
CB
330
70
100
AcDbEntity
  8
0
 62
    18
420
        0
370
    25
100
AcDbSpline
210
0.0
220
0.0
230
1.0
 70
     8
 71
     3
 72
     8
 73
     4
 74
     0
 42
0.0000000001
 43
0.0000000001
 40
0.0
 40
0.0
 40
0.0
 40
0.0
 40
1.0
 40
1.0
 40
1.0
 40
1.0
 10
119.9085682861974
 20
87.676380128122
 30
0.0
 10
119.8616841915858
 20
87.72326422273359
 30
0.0
 10
119.798095713361
 20
87.74960343282518
 30
0.0
 10
119.7317915909011
 20
87.74960343282518
 30
0.0
  0
LINE
  5
CC
330
70
100
AcDbEntity
  8
0
 62
    18
420
        0
370
    25
100
AcDbLine
 10
119.7317915909011
 20
87.74960343282518
 30
0.0
 11
119.7317915909011
 21
88.99960343282538
 31
0.0
  0
SPLINE
  5
CD
330
70
100
AcDbEntity
  8
0
 62
    18
420
        0
370
    25
100
AcDbSpline
210
0.0
220
0.0
230
1.0
 70
     8
 71
     3
 72
     8
 73
     4
 74
     0
 42
0.0000000001
 43
0.0000000001
 40
0.0
 40
0.0
 40
0.0
 40
0.0
 40
1.0
 40
1.0
 40
1.0
 40
1.0
 10
119.7317915909011
 20
88.99960343282538
 30
0.0
 10
119.798095713361
 20
88.99960343282538
 30
0.0
 10
119.8616841915858
 20
89.02594264291698
 30
0.0
 10
119.9085682861974
 20
89.07282673752856
 30
0.0
  0
LINE
  5
CE
330
70
100
AcDbEntity
  8
0
 62
    18
420
        0
370
    25
100
AcDbLine
 10
20.10679159090134
 20
89.1246034328258
 30
0.0
 11
119.8567915909008
 21
89.1246034328258
 31
0.0
  0
LINE
  5
CF
330
70
100
AcDbEntity
  8
0
 62
    18
420
        0
370
    25
100
AcDbLine
 10
119.8567915909008
 20
89.1246034328258
 30
0.0
 11
119.9085682862013
 21
89.07282673752535
 31
0.0
  0
LINE
  5
D0
330
70
100
AcDbEntity
  8
0
 62
    18
420
        0
370
    25
100
AcDbLine
 10
119.7317915909011
 20
88.99960343282538
 30
0.0
 11
20.23179159090111
 21
88.99960343282538
 31
0.0
  0
SPLINE
  5
D1
330
70
100
AcDbEntity
  8
0
 62
    18
420
        0
370
    25
100
AcDbSpline
210
0.0
220
0.0
230
1.0
 70
     8
 71
     3
 72
     8
 73
     4
 74
     0
 42
0.0000000001
 43
0.0000000001
 40
0.0
 40
0.0
 40
0.0
 40
0.0
 40
1.0
 40
1.0
 40
1.0
 40
1.0
 10
20.05501489560475
 20
89.07282673752856
 30
0.0
 10
20.10189899021665
 20
89.02594264291698
 30
0.0
 10
20.16548746844121
 20
88.99960343282538
 30
0.0
 10
20.23179159090111
 20
88.99960343282538
 30
0.0
  0
LINE
  5
D2
330
70
100
AcDbEntity
  8
0
 62
    18
420
        0
370
    25
100
AcDbLine
 10
20.05501489560122
 20
89.07282673752535
 30
0.0
 11
20.10679159090134
 21
89.1246034328258
 31
0.0
  0
LINE
  5
D3
330
70
100
AcDbEntity
  8
0
 62
    18
420
        0
370
    25
100
AcDbLine
 10
20.23179159090111
 20
88.99960343282538
 30
0.0
 11
20.23179159090111
 21
87.74960343282518
 31
0.0
  0
SPLINE
  5
D4
330
70
100
AcDbEntity
  8
0
 62
    18
420
        0
370
    25
100
AcDbSpline
210
0.0
220
0.0
230
1.0
 70
     8
 71
     3
 72
     8
 73
     4
 74
     0
 42
0.0000000001
 43
0.0000000001
 40
0.0
 40
0.0
 40
0.0
 40
0.0
 40
1.0
 40
1.0
 40
1.0
 40
1.0
 10
20.23179159090111
 20
87.74960343282518
 30
0.0
 10
20.16548746844121
 20
87.74960343282518
 30
0.0
 10
20.10189899021665
 20
87.72326422273359
 30
0.0
 10
20.05501489560475
 20
87.676380128122
 30
0.0
  0
LINE
  5
D5
330
70
100
AcDbEntity
  8
0
 62
    18
420
        0
370
    25
100
AcDbLine
 10
20.05501489560122
 20
87.67638012812522
 30
0.0
 11
19.98179159090126
 21
87.74960343282518
 31
0.0
  0
LINE
  5
D6
330
70
100
AcDbEntity
  8
0
 62
    18
420
        0
370
    25
100
AcDbLine
 10
19.98179159090126
 20
87.74960343282518
 30
0.0
 11
19.98179159090126
 21
88.99960343282538
 31
0.0
  0
LINE
  5
D7
330
70
100
AcDbEntity
  8
0
 62
    18
420
        0
370
    25
100
AcDbLine
 10
19.98179159090126
 20
88.99960343282538
 30
0.0
 11
20.05501489560122
 21
89.07282673752535
 31
0.0
  0
LINE
  5
D8
330
70
100
AcDbEntity
  8
0
 62
    18
420
        0
370
    25
100
AcDbLine
 10
119.8567915909008
 20
87.62460343282542
 30
0.0
 11
119.9085682862013
 21
87.67638012812522
 31
0.0
  0
LINE
  5
D9
330
70
100
AcDbEntity
  8
0
 62
    18
420
        0
370
    25
100
AcDbLine
 10
119.8567915909008
 20
87.62460343282542
 30
0.0
 11
20.10679159090134
 21
87.62460343282542
 31
0.0
  0
LINE
  5
DA
330
70
100
AcDbEntity
  8
0
 62
    18
420
        0
370
    25
100
AcDbLine
 10
20.05501489560122
 20
87.67638012812522
 30
0.0
 11
20.10679159090134
 21
87.62460343282542
 31
0.0
  0
LINE
  5
DB
330
70
100
AcDbEntity
  8
0
 62
    18
420
        0
370
    25
100
AcDbLine
 10
20.23179159090111
 20
87.74960343282518
 30
0.0
 11
119.7317915909011
 21
87.74960343282518
 31
0.0
  0
SPLINE
  5
DC
330
70
100
AcDbEntity
  8
0
 62
    18
420
        0
370
    25
100
AcDbSpline
210
0.0
220
0.0
230
1.0
 70
     8
 71
     3
 72
    11
 73
     7
 74
     0
 42
0.0000000001
 43
0.0000000001
 40
0.0
 40
0.0
 40
0.0
 40
0.0
 40
1.0
 40
1.0
 40
1.0
 40
2.0
 40
2.0
 40
2.0
 40
2.0
 10
24.14954111643651
 20
87.62460343282477
 30
0.0
 10
24.4947190850811
 20
86.63114746151682
 30
0.0
 10
25.57989630479344
 20
86.10561430451616
 30
0.0
 10
26.5733522761017
 20
86.45079227316074
 30
0.0
 10
27.1235466628341
 20
86.64195824956738
 30
0.0
 10
27.55599745935943
 20
87.07440904609271
 30
0.0
 10
27.74716343576573
 20
87.62460343282477
 30
0.0
  0
LINE
  5
DD
330
70
100
AcDbEntity
  8
0
 62
    18
420
        0
370
    25
100
AcDbLine
 10
24.32775158870124
 20
89.24960343282554
 30
0.0
 11
27.56895296360111
 21
89.24960343282554
 31
0.0
  0
SPLINE
  5
DE
330
70
100
AcDbEntity
  8
0
 62
    18
420
        0
370
    25
100
AcDbSpline
210
0.0
220
0.0
230
1.0
 70
     8
 71
     3
 72
    11
 73
     7
 74
     0
 42
0.0000000001
 43
0.0000000001
 40
0.0
 40
0.0
 40
0.0
 40
0.0
 40
1.0
 40
1.0
 40
1.0
 40
2.0
 40
2.0
 40
2.0
 40
2.0
 10
27.56895296354239
 20
89.24960343282554
 30
0.0
 10
27.01666821371144
 20
90.14463647806442
 30
0.0
 10
25.84338532134013
 20
90.42248887009726
 30
0.0
 10
24.94835227610093
 20
89.87020412026664
 30
0.0
 10
24.69598598041154
 20
89.71448019786787
 30
0.0
 10
24.48347551105829
 20
89.50196972851495
 30
0.0
 10
24.32775158866017
 20
89.24960343282554
 30
0.0
  0
SPLINE
  5
DF
330
70
100
AcDbEntity
  8
0
 62
    18
420
        0
370
    25
100
AcDbSpline
210
0.0
220
0.0
230
1.0
 70
     8
 71
     3
 72
    11
 73
     7
 74
     0
 42
0.0000000001
 43
0.0000000001
 40
0.0
 40
0.0
 40
0.0
 40
0.0
 40
1.0
 40
1.0
 40
1.0
 40
2.0
 40
2.0
 40
2.0
 40
2.0
 10
27.68040308366995
 20
89.24960343282554
 30
0.0
 10
27.12811833383932
 20
90.2061886797777
 30
0.0
 10
25.9049375230537
 20
90.53393899022514
 30
0.0
 10
24.94835227610125
 20
89.98165424039418
 30
0.0
 10
24.64431385641479
 20
89.80611757694447
 30
0.0
 10
24.39183813198232
 20
89.55364185251168
 30
0.0
 10
24.21630146853229
 20
89.24960343282554
 30
0.0
  0
LINE
  5
E0
330
70
100
AcDbEntity
  8
0
 62
    18
420
        0
370
    25
100
AcDbLine
 10
24.32775158870124
 20
89.24960343282554
 30
0.0
 11
24.21630146860128
 21
89.24960343282554
 31
0.0
  0
LINE
  5
E1
330
70
100
AcDbEntity
  8
0
 62
    18
420
        0
370
    25
100
AcDbLine
 10
27.68040308370107
 20
89.24960343282554
 30
0.0
 11
27.56895296360111
 21
89.24960343282554
 31
0.0
  0
SPLINE
  5
E2
330
70
100
AcDbEntity
  8
0
 62
    18
420
        0
370
    25
100
AcDbSpline
210
0.0
220
0.0
230
1.0
 70
     8
 71
     3
 72
    11
 73
     7
 74
     0
 42
0.0000000001
 43
0.0000000001
 40
0.0
 40
0.0
 40
0.0
 40
0.0
 40
1.0
 40
1.0
 40
1.0
 40
2.0
 40
2.0
 40
2.0
 40
2.0
 10
24.04851675690241
 20
87.62460343282349
 30
0.0
 10
24.39369472554732
 20
86.57535324838356
 30
0.0
 10
25.52410209166242
 20
86.00458994498142
 30
0.0
 10
26.57335227610267
 20
86.34976791362602
 30
0.0
 10
27.17659257062833
 20
86.54821940075196
 30
0.0
 10
27.64973630817419
 20
87.02136313829782
 30
0.0
 10
27.84818779530015
 20
87.62460343282349
 30
0.0
  0
LWPOLYLINE
  5
E3
330
70
100
AcDbEntity
  8
0
 62
    18
420
        0
370
    25
100
AcDbPolyline
 90
        3
 70
     0
 43
0.0
 10
27.68040308370107
 20
89.24960343282554
 10
27.7420977592012
 20
89.13418081322534
 10
27.74678909740109
 20
89.1246034328258
  0
LWPOLYLINE
  5
E4
330
70
100
AcDbEntity
  8
0
 62
    18
420
        0
370
    25
100
AcDbPolyline
 90
        3
 70
     0
 43
0.0
 10
24.14991545490126
 20
89.1246034328258
 10
24.15460679310115
 20
89.13418081322534
 10
24.21630146860128
 20
89.24960343282554
  0
SPLINE
  5
E5
330
70
100
AcDbEntity
  8
0
 62
    18
420
        0
370
    25
100
AcDbSpline
210
0.0
220
0.0
230
1.0
 70
     8
 71
     3
 72
    11
 73
     7
 74
     0
 42
0.0000000001
 43
0.0000000001
 40
0.0
 40
0.0
 40
0.0
 40
0.0
 40
1.0
 40
1.0
 40
1.0
 40
2.0
 40
2.0
 40
2.0
 40
2.0
 10
111.9329804312367
 20
87.62460343282477
 30
0.0
 10
112.2781583998813
 20
86.63114746151682
 30
0.0
 10
113.3633356195937
 20
86.10561430451616
 30
0.0
 10
114.3567915909016
 20
86.45079227316074
 30
0.0
 10
114.9069859776343
 20
86.64195824956738
 30
0.0
 10
115.3394367741596
 20
87.07440904609271
 30
0.0
 10
115.5306027505656
 20
87.62460343282477
 30
0.0
  0
LINE
  5
E6
330
70
100
AcDbEntity
  8
0
 62
    18
420
        0
370
    25
100
AcDbLine
 10
112.1111909035015
 20
89.24960343282554
 30
0.0
 11
115.3523922783009
 21
89.24960343282554
 31
0.0
  0
SPLINE
  5
E7
330
70
100
AcDbEntity
  8
0
 62
    18
420
        0
370
    25
100
AcDbSpline
210
0.0
220
0.0
230
1.0
 70
     8
 71
     3
 72
    11
 73
     7
 74
     0
 42
0.0000000001
 43
0.0000000001
 40
0.0
 40
0.0
 40
0.0
 40
0.0
 40
1.0
 40
1.0
 40
1.0
 40
2.0
 40
2.0
 40
2.0
 40
2.0
 10
115.352392278342
 20
89.24960343282554
 30
0.0
 10
114.800107528511
 20
90.14463647806442
 30
0.0
 10
113.6268246361397
 20
90.42248887009726
 30
0.0
 10
112.7317915909008
 20
89.87020412026664
 30
0.0
 10
112.4794252952114
 20
89.71448019786787
 30
0.0
 10
112.2669148258585
 20
89.50196972851495
 30
0.0
 10
112.1111909034604
 20
89.24960343282554
 30
0.0
  0
SPLINE
  5
E8
330
70
100
AcDbEntity
  8
0
 62
    18
420
        0
370
    25
100
AcDbSpline
210
0.0
220
0.0
230
1.0
 70
     8
 71
     3
 72
    11
 73
     7
 74
     0
 42
0.0000000001
 43
0.0000000001
 40
0.0
 40
0.0
 40
0.0
 40
0.0
 40
1.0
 40
1.0
 40
1.0
 40
2.0
 40
2.0
 40
2.0
 40
2.0
 10
115.4638423984702
 20
89.24960343282554
 30
0.0
 10
114.9115576486392
 20
90.2061886797777
 30
0.0
 10
113.6883768378536
 20
90.53393899022514
 30
0.0
 10
112.7317915909014
 20
89.98165424039418
 30
0.0
 10
112.4277531712147
 20
89.80611757694447
 30
0.0
 10
112.1752774467819
 20
89.55364185251168
 30
0.0
 10
111.9997407833322
 20
89.24960343282554
 30
0.0
  0
LINE
  5
E9
330
70
100
AcDbEntity
  8
0
 62
    18
420
        0
370
    25
100
AcDbLine
 10
112.1111909035015
 20
89.24960343282554
 30
0.0
 11
111.9997407833014
 21
89.24960343282554
 31
0.0
  0
LINE
  5
EA
330
70
100
AcDbEntity
  8
0
 62
    18
420
        0
370
    25
100
AcDbLine
 10
115.463842398501
 20
89.24960343282554
 30
0.0
 11
115.3523922783009
 21
89.24960343282554
 31
0.0
  0
SPLINE
  5
EB
330
70
100
AcDbEntity
  8
0
 62
    18
420
        0
370
    25
100
AcDbSpline
210
0.0
220
0.0
230
1.0
 70
     8
 71
     3
 72
    11
 73
     7
 74
     0
 42
0.0000000001
 43
0.0000000001
 40
0.0
 40
0.0
 40
0.0
 40
0.0
 40
1.0
 40
1.0
 40
1.0
 40
2.0
 40
2.0
 40
2.0
 40
2.0
 10
111.831956071702
 20
87.62460343282349
 30
0.0
 10
112.1771340403472
 20
86.57535324838356
 30
0.0
 10
113.3075414064623
 20
86.00458994498142
 30
0.0
 10
114.3567915909029
 20
86.34976791362602
 30
0.0
 10
114.9600318854285
 20
86.54821940075196
 30
0.0
 10
115.4331756229744
 20
87.02136313829782
 30
0.0
 10
115.6316271100997
 20
87.62460343282349
 30
0.0
  0
LWPOLYLINE
  5
EC
330
70
100
AcDbEntity
  8
0
 62
    18
420
        0
370
    25
100
AcDbPolyline
 90
        3
 70
     0
 43
0.0
 10
115.463842398501
 20
89.24960343282554
 10
115.5255370740011
 20
89.13418081322534
 10
115.5302284121012
 20
89.1246034328258
  0
LWPOLYLINE
  5
ED
330
70
100
AcDbEntity
  8
0
 62
    18
420
        0
370
    25
100
AcDbPolyline
 90
        3
 70
     0
 43
0.0
 10
111.9333547697011
 20
89.1246034328258
 10
111.9380461078013
 20
89.13418081322534
 10
111.9997407833014
 20
89.24960343282554
  0
LWPOLYLINE
  5
EE
330
70
100
AcDbEntity
  8
0
 62
     8
420
  8421504
370
    25
100
AcDbPolyline
 90
        4
 70
     0
 43
0.0
 10
107.7211693239012
 20
94.24969854072546
 10
107.7209708824011
 20
93.74969861212537
 10
107.7202607099012
 20
91.74969883552545
 10
107.7198751536013
 20
89.1246034328258
  0
LWPOLYLINE
  5
EF
330
70
100
AcDbEntity
  8
0
 62
     8
420
  8421504
370
    25
100
AcDbPolyline
 90
        4
 70
     0
 43
0.0
 10
107.7196896968011
 20
87.62460343282542
 10
107.7198739342012
 20
86.22609777172558
 10
107.7211693294012
 20
82.24950831932547
 10
107.7211714424013
 20
82.24425024082567
  0
LWPOLYLINE
  5
F0
330
70
100
AcDbEntity
  8
0
 62
     8
420
  8421504
370
    25
100
AcDbPolyline
 90
        4
 70
     0
 43
0.0
 10
119.7424138579011
 20
82.24950832492494
 10
119.7426122994012
 20
82.74950825352535
 10
119.7433224719011
 20
84.74950803002549
 10
119.7437447465011
 20
87.62460343282542
  0
LWPOLYLINE
  5
F1
330
70
100
AcDbEntity
  8
0
 62
     8
420
  8421504
370
    25
100
AcDbPolyline
 90
        4
 70
     0
 43
0.0
 10
119.7438605503011
 20
89.1246034328258
 10
119.7437092476012
 20
90.27310909382535
 10
119.7424138524011
 20
94.24969854632525
 10
119.7424117393009
 20
94.25495662532526
  0
LWPOLYLINE
  5
F2
330
70
100
AcDbEntity
  8
0
 62
     8
420
  8421504
370
    25
100
AcDbPolyline
 90
        4
 70
     0
 43
0.0
 10
31.95897454320133
 20
82.24950832492494
 10
31.95917298460133
 20
82.74950825352535
 10
31.95988315710123
 20
84.74950803002549
 10
31.96030543180131
 20
87.62460343282542
  0
LWPOLYLINE
  5
F3
330
70
100
AcDbEntity
  8
0
 62
     8
420
  8421504
370
    25
100
AcDbPolyline
 90
        4
 70
     0
 43
0.0
 10
31.96042123560135
 20
89.1246034328258
 10
31.96026993290136
 20
90.27310909382535
 10
31.95897453770133
 20
94.24969854632525
 10
31.95897242460115
 20
94.25495662472526
  0
LWPOLYLINE
  5
F4
330
70
100
AcDbEntity
  8
0
 62
    18
420
        0
370
    25
100
AcDbPolyline
 90
        5
 70
     0
 43
0.0
 10
165.786961751201
 20
87.16518770432521
 10
165.7870306239009
 20
87.66094224452526
 10
165.7870649349011
 20
88.25089538962499
 10
165.7870304300013
 20
88.84183895642555
 10
165.7869881549013
 20
89.14479952452547
  0
LWPOLYLINE
  5
F5
330
70
100
AcDbEntity
  8
0
 62
    18
420
        0
370
    25
100
AcDbPolyline
 90
        5
 70
     0
 43
0.0
 10
165.7869643965013
 20
87.16520431912488
 10
165.7870332601014
 20
87.66095109352484
 10
165.7870675665012
 20
88.25089535262526
 10
165.7870330662011
 20
88.84183003992502
 10
165.7869643965013
 20
89.3340025464254
  0
LWPOLYLINE
  5
F6
330
70
100
AcDbEntity
  8
0
 62
    18
420
        0
370
    25
100
AcDbPolyline
 90
        5
 70
     0
 43
0.0
 10
165.7869562551013
 20
89.32193238882501
 10
165.7870132273014
 20
89.54343471682506
 10
165.787078112701
 20
89.72708953302497
 10
165.787127620901
 20
89.86258771762564
 10
165.787135601601
 20
89.93888194732527
  0
LWPOLYLINE
  5
F7
330
70
100
AcDbEntity
  8
0
 62
    18
420
        0
370
    25
100
AcDbPolyline
 90
        3
 70
     0
 43
0.0
 10
165.7871359208013
 20
89.93828534472539
 10
165.7519295248011
 20
91.81593584822548
 10
165.6565303074009
 20
94.2616310166252
  0
LWPOLYLINE
  5
F8
330
70
100
AcDbEntity
  8
0
 62
    18
420
        0
370
    25
100
AcDbPolyline
 90
        3
 70
     0
 43
0.0
 10
165.7868288720013
 20
87.09272413172525
 10
165.7869006597012
 20
87.10701224042493
 10
165.7869562490013
 20
87.17728301272527
  0
LINE
  5
F9
330
70
100
AcDbEntity
  8
0
 62
    18
420
        0
370
    25
100
AcDbLine
 10
171.7038204422012
 20
90.24960343282527
 30
0.0
 11
165.8016503271012
 21
90.24960343282527
 31
0.0
  0
LINE
  5
FA
330
70
100
AcDbEntity
  8
0
 62
    18
420
        0
370
    25
100
AcDbLine
 10
171.0247957511015
 20
86.24960343282545
 30
0.0
 11
171.7038204422012
 21
86.24960343282545
 31
0.0
  0
LINE
  5
FB
330
70
100
AcDbEntity
  8
0
 62
    18
420
        0
370
    25
100
AcDbLine
 10
165.8016503271012
 20
86.24960343282545
 30
0.0
 11
169.026804049001
 21
86.24960343282545
 31
0.0
  0
SPLINE
  5
FC
330
70
100
AcDbEntity
  8
0
 62
    18
420
        0
370
    25
100
AcDbSpline
210
0.0
220
0.0
230
1.0
 70
     8
 71
     3
 72
     8
 73
     4
 74
     0
 42
0.0000000001
 43
0.0000000001
 40
0.0
 40
0.0
 40
0.0
 40
0.0
 40
1.0
 40
1.0
 40
1.0
 40
1.0
 10
171.7038204422012
 20
86.24960343282545
 30
0.0
 10
171.761570777479
 20
86.24960343282545
 30
0.0
 10
171.8118034904193
 20
86.2891647851174
 30
0.0
 10
171.8253387252506
 20
86.34530655782553
 30
0.0
  0
SPLINE
  5
FD
330
70
100
AcDbEntity
  8
0
 62
    18
420
        0
370
    25
100
AcDbSpline
210
0.0
220
0.0
230
1.0
 70
     8
 71
     3
 72
     8
 73
     4
 74
     0
 42
0.0000000001
 43
0.0000000001
 40
0.0
 40
0.0
 40
0.0
 40
0.0
 40
1.0
 40
1.0
 40
1.0
 40
1.0
 10
171.8253387253007
 20
86.34530655782233
 30
0.0
 10
171.9266861550246
 20
86.76567786539274
 30
0.0
 10
171.9943134539446
 20
87.19346896718731
 30
0.0
 10
172.0275762001105
 20
87.62460343282093
 30
0.0
  0
SPLINE
  5
FE
330
70
100
AcDbEntity
  8
0
 62
    18
420
        0
370
    25
100
AcDbSpline
210
0.0
220
0.0
230
1.0
 70
     8
 71
     3
 72
     8
 73
     4
 74
     0
 42
0.0000000001
 43
0.0000000001
 40
0.0
 40
0.0
 40
0.0
 40
0.0
 40
1.0
 40
1.0
 40
1.0
 40
1.0
 10
171.8253387252506
 20
90.15390030782551
 30
0.0
 10
171.8118034904193
 20
90.21004208053332
 30
0.0
 10
171.761570777479
 20
90.24960343282527
 30
0.0
 10
171.7038204422012
 20
90.24960343282527
 30
0.0
  0
SPLINE
  5
FF
330
70
100
AcDbEntity
  8
0
 62
    18
420
        0
370
    25
100
AcDbSpline
210
0.0
220
0.0
230
1.0
 70
     8
 71
     3
 72
     8
 73
     4
 74
     0
 42
0.0000000001
 43
0.0000000001
 40
0.0
 40
0.0
 40
0.0
 40
0.0
 40
1.0
 40
1.0
 40
1.0
 40
1.0
 10
171.9898770385364
 20
89.2496034328249
 30
0.0
 10
171.9521383577998
 20
89.55389897139163
 30
0.0
 10
171.8972043770937
 20
89.85581422813375
 30
0.0
 10
171.8253387253007
 20
90.15390030782809
 30
0.0
  0
LINE
  5
100
330
70
100
AcDbEntity
  8
0
 62
    18
420
        0
370
    25
100
AcDbLine
 10
164.285646647301
 20
94.2496034328254
 30
0.0
 11
164.285646647301
 21
94.49960343282524
 31
0.0
  0
LINE
  5
101
330
70
100
AcDbEntity
  8
0
 62
    18
420
        0
370
    25
100
AcDbLine
 10
164.285646647301
 20
81.99960343282514
 30
0.0
 11
164.285646647301
 21
82.2496034328253
 31
0.0
  0
LINE
  5
102
330
70
100
AcDbEntity
  8
0
 62
    18
420
        0
370
    25
100
AcDbLine
 10
165.4059771476012
 20
82.2496034328253
 30
0.0
 11
165.6557513626013
 21
82.23898117032549
 31
0.0
  0
LWPOLYLINE
  5
103
330
70
100
AcDbEntity
  8
0
 62
    18
420
        0
370
    25
100
AcDbPolyline
 90
        7
 70
     0
 43
0.0
 10
165.4059771476012
 20
82.2496034328253
 10
165.4136805892013
 20
82.24943823892546
 10
165.4504940072013
 20
82.248648884425
 10
165.5294108040013
 20
82.24695719852517
 10
165.5944036761009
 20
82.24556445132494
 10
165.6381592372009
 20
82.24462703762563
 10
165.6557494500012
 20
82.24425024022504
  0
SPLINE
  5
104
330
70
100
AcDbEntity
  8
0
 62
    18
420
        0
370
    25
100
AcDbSpline
210
0.0
220
0.0
230
1.0
 70
     8
 71
     3
 72
     8
 73
     4
 74
     0
 42
0.0000000001
 43
0.0000000001
 40
0.0
 40
0.0
 40
0.0
 40
0.0
 40
1.0
 40
1.0
 40
1.0
 40
1.0
 10
165.655749450057
 20
82.24425024027189
 30
0.0
 10
165.6560540717736
 20
82.2459848140776
 30
0.0
 10
165.6562042946122
 20
82.24774298179402
 30
0.0
 10
165.6561983539659
 20
82.24950409092922
 30
0.0
  0
LINE
  5
105
330
70
100
AcDbEntity
  8
0
 62
    18
420
        0
370
    25
100
AcDbLine
 10
165.6561983539011
 20
82.24950409092537
 30
0.0
 11
165.6557513626013
 21
82.23898117032549
 31
0.0
  0
LWPOLYLINE
  5
106
330
70
100
AcDbEntity
  8
0
 62
    18
420
        0
370
    25
100
AcDbPolyline
 90
        4
 70
     0
 43
0.0
 10
165.4059771476012
 20
82.2496034328253
 10
165.4071854150014
 20
86.22614431772539
 10
165.4071955493011
 20
90.20268498512546
 10
165.4059771475011
 20
94.2496034328254
  0
LINE
  5
107
330
70
100
AcDbEntity
  8
0
 62
    18
420
        0
370
    25
100
AcDbLine
 10
165.4059771475011
 20
94.2496034328254
 30
0.0
 11
165.655751362401
 21
94.24969854072546
 31
0.0
  0
LWPOLYLINE
  5
108
330
70
100
AcDbEntity
  8
0
 62
    18
420
        0
370
    25
100
AcDbPolyline
 90
        7
 70
     0
 43
0.0
 10
165.655751362401
 20
94.24969854072546
 10
165.655930249801
 20
93.74969861212537
 10
165.656562456601
 20
91.74969883552545
 10
165.6570748838013
 20
87.74969881732543
 10
165.6569011880014
 20
86.22609777172558
 10
165.6557513627014
 20
82.24950831932547
 10
165.6557494500012
 20
82.24425024022504
  0
SPLINE
  5
109
330
70
100
AcDbEntity
  8
0
 62
    18
420
        0
370
    25
100
AcDbSpline
210
0.0
220
0.0
230
1.0
 70
     8
 71
     3
 72
     8
 73
     4
 74
     0
 42
0.0000000001
 43
0.0000000001
 40
0.0
 40
0.0
 40
0.0
 40
0.0
 40
1.0
 40
1.0
 40
1.0
 40
1.0
 10
165.6557513623241
 20
94.24969854070333
 30
0.0
 10
165.6557612042746
 20
94.38767025207239
 30
0.0
 10
165.5439488452485
 20
94.49954110930923
 30
0.0
 10
165.4059771476044
 20
94.49960343278997
 30
0.0
  0
LINE
  5
10A
330
70
100
AcDbEntity
  8
0
 62
    18
420
        0
370
    25
100
AcDbLine
 10
165.4059771475011
 20
94.2496034328254
 30
0.0
 11
165.4059771476012
 21
94.49960343282524
 31
0.0
  0
LINE
  5
10B
330
70
100
AcDbEntity
  8
0
 62
    18
420
        0
370
    25
100
AcDbLine
 10
164.2856493029012
 20
94.49960343282524
 30
0.0
 11
165.4059771476012
 21
94.49960343282524
 31
0.0
  0
LINE
  5
10C
330
70
100
AcDbEntity
  8
0
 62
    18
420
        0
370
    25
100
AcDbLine
 10
165.4059771475011
 20
94.2496034328254
 30
0.0
 11
164.2856493029012
 21
94.2496034328254
 31
0.0
  0
LINE
  5
10D
330
70
100
AcDbEntity
  8
0
 62
    18
420
        0
370
    25
100
AcDbLine
 10
164.2856493029012
 20
94.2496034328254
 30
0.0
 11
164.2856493029012
 21
94.49960343282524
 31
0.0
  0
LINE
  5
10E
330
70
100
AcDbEntity
  8
0
 62
    18
420
        0
370
    25
100
AcDbLine
 10
164.2856493029012
 20
82.2496034328253
 30
0.0
 11
165.4059771476012
 21
82.2496034328253
 31
0.0
  0
LINE
  5
10F
330
70
100
AcDbEntity
  8
0
 62
    18
420
        0
370
    25
100
AcDbLine
 10
165.4059771476012
 20
81.99960343282514
 30
0.0
 11
165.4059771476012
 21
82.2496034328253
 31
0.0
  0
LINE
  5
110
330
70
100
AcDbEntity
  8
0
 62
    18
420
        0
370
    25
100
AcDbLine
 10
165.4059771476012
 20
81.99960343282514
 30
0.0
 11
164.2856493029012
 21
81.99960343282514
 31
0.0
  0
LINE
  5
111
330
70
100
AcDbEntity
  8
0
 62
    18
420
        0
370
    25
100
AcDbLine
 10
164.2856493029012
 20
81.99960343282514
 30
0.0
 11
164.2856493029012
 21
82.2496034328253
 31
0.0
  0
SPLINE
  5
112
330
70
100
AcDbEntity
  8
0
 62
    18
420
        0
370
    25
100
AcDbSpline
210
0.0
220
0.0
230
1.0
 70
     8
 71
     3
 72
     8
 73
     4
 74
     0
 42
0.0000000001
 43
0.0000000001
 40
0.0
 40
0.0
 40
0.0
 40
0.0
 40
1.0
 40
1.0
 40
1.0
 40
1.0
 10
165.4059771476487
 20
81.99960343280203
 30
0.0
 10
165.5399168574617
 20
81.99960343738185
 30
0.0
 10
165.6500603967959
 20
82.10516241691198
 30
0.0
 10
165.6557513626789
 20
82.23898117035115
 30
0.0
  0
LINE
  5
113
330
70
100
AcDbEntity
  8
0
 62
    18
420
        0
370
    25
100
AcDbLine
 10
164.2856493029012
 20
94.2496034328254
 30
0.0
 11
164.2856493029012
 21
82.2496034328253
 31
0.0
  0
LINE
  5
114
330
70
100
AcDbEntity
  8
0
 62
    18
420
        0
370
    25
100
AcDbLine
 10
165.6561983539011
 20
94.24970277472535
 30
0.0
 11
165.655751362401
 21
94.24969854072546
 31
0.0
  0
SPLINE
  5
115
330
70
100
AcDbEntity
  8
0
 62
    18
420
        0
370
    25
100
AcDbSpline
210
0.0
220
0.0
230
1.0
 70
     8
 71
     3
 72
     8
 73
     4
 74
     0
 42
0.0000000001
 43
0.0000000001
 40
0.0
 40
0.0
 40
0.0
 40
0.0
 40
1.0
 40
1.0
 40
1.0
 40
1.0
 10
165.7857969997882
 20
89.33399953971569
 30
0.0
 10
165.7751451375848
 20
90.97326368112254
 30
0.0
 10
165.7319370688171
 20
92.61215459696009
 30
0.0
 10
165.6561983539203
 20
94.24970277473562
 30
0.0
  0
SPLINE
  5
116
330
70
100
AcDbEntity
  8
0
 62
    18
420
        0
370
    25
100
AcDbSpline
210
0.0
220
0.0
230
1.0
 70
     8
 71
     3
 72
     8
 73
     4
 74
     0
 42
0.0000000001
 43
0.0000000001
 40
0.0
 40
0.0
 40
0.0
 40
0.0
 40
1.0
 40
1.0
 40
1.0
 40
1.0
 10
165.6561983539357
 20
82.2495040909998
 30
0.0
 10
165.7319371056853
 20
83.88705226814133
 30
0.0
 10
165.7751451721942
 20
85.52594318549681
 30
0.0
 10
165.7857969929682
 20
87.16520732824163
 30
0.0
  0
LWPOLYLINE
  5
117
330
70
100
AcDbEntity
  8
0
 62
    18
420
        0
370
    25
100
AcDbPolyline
 90
        5
 70
     0
 43
0.0
 10
165.6557494500012
 20
94.26022358122528
 10
165.6559131237013
 20
94.25637888992538
 10
165.6560108475013
 20
94.2540880373253
 10
165.6561026990011
 20
94.25193815922527
 10
165.6561983539011
 20
94.24970277472535
  0
LINE
  5
118
330
70
100
AcDbEntity
  8
0
 62
    18
420
        0
370
    25
100
AcDbLine
 10
165.7867802931015
 20
87.06210343282519
 30
0.0
 11
165.7867386128013
 21
87.11297020252553
 31
0.0
  0
LWPOLYLINE
  5
119
330
70
100
AcDbEntity
  8
0
 62
    18
420
        0
370
    25
100
AcDbPolyline
 90
        6
 70
     0
 43
0.0
 10
165.7871018010012
 20
86.68710343282526
 10
165.7870840537009
 20
86.70824262252523
 10
165.7870299223012
 20
86.76927690292528
 10
165.786948869001
 20
86.86332513082525
 10
165.786851045601
 20
86.97978413212529
 10
165.7867802931015
 20
87.06210343282519
  0
LWPOLYLINE
  5
11A
330
70
100
AcDbEntity
  8
0
 62
    18
420
        0
370
    25
100
AcDbPolyline
 90
        3
 70
     0
 43
0.0
 10
165.7871018010012
 20
86.68710343282526
 10
165.7368007530014
 20
84.19468281592527
 10
165.6570853634011
 20
82.23747275912577
  0
LINE
  5
11B
330
70
100
AcDbEntity
  8
0
 62
    18
420
        0
370
    25
100
AcDbLine
 10
165.6570853633825
 20
82.23747275913346
 30
0.0
 11
165.6562020727113
 21
82.23848374358144
 31
0.0
  0
SPLINE
  5
11C
330
70
100
AcDbEntity
  8
0
 62
    18
420
        0
370
    25
100
AcDbSpline
210
0.0
220
0.0
230
1.0
 70
     8
 71
     3
 72
     8
 73
     4
 74
     0
 42
0.0000000001
 43
0.0000000001
 40
0.0
 40
0.0
 40
0.0
 40
0.0
 40
1.0
 40
1.0
 40
1.0
 40
1.0
 10
165.6557494500211
 20
94.26022358121855
 30
0.0
 10
165.6500602913956
 20
94.39404273250342
 30
0.0
 10
165.5399171781585
 20
94.49960304420974
 30
0.0
 10
165.4059771476359
 20
94.49960343276398
 30
0.0
  0
SPLINE
  5
11D
330
70
100
AcDbEntity
  8
0
 62
    18
420
        0
370
    25
100
AcDbSpline
210
0.0
220
0.0
230
1.0
 70
     8
 71
     3
 72
     8
 73
     4
 74
     0
 42
0.0000000001
 43
0.0000000001
 40
0.0
 40
0.0
 40
0.0
 40
0.0
 40
1.0
 40
1.0
 40
1.0
 40
1.0
 10
165.407379843301
 20
81.99960343282514
 30
0.0
 10
165.5407353198714
 20
81.99960343282514
 30
0.0
 10
165.6506145963006
 20
82.10427436462275
 30
0.0
 10
165.6570853633767
 20
82.23747275915078
 30
0.0
  0
LINE
  5
11E
330
70
100
AcDbEntity
  8
0
 62
    18
420
        0
370
    25
100
AcDbLine
 10
190.176647671401
 20
87.62460343282542
 30
0.0
 11
167.9266476714013
 21
87.62460343282542
 31
0.0
  0
LINE
  5
11F
330
70
100
AcDbEntity
  8
0
 62
    18
420
        0
370
    25
100
AcDbLine
 10
167.8748709761009
 20
87.67638012812522
 30
0.0
 11
167.9266476714013
 21
87.62460343282542
 31
0.0
  0
SPLINE
  5
120
330
70
100
AcDbEntity
  8
0
 62
    18
420
        0
370
    25
100
AcDbSpline
210
0.0
220
0.0
230
1.0
 70
     8
 71
     3
 72
     8
 73
     4
 74
     0
 42
0.0000000001
 43
0.0000000001
 40
0.0
 40
0.0
 40
0.0
 40
0.0
 40
1.0
 40
1.0
 40
1.0
 40
1.0
 10
168.0516476714011
 20
87.74960343282582
 30
0.0
 10
167.9853435489412
 20
87.74960343282582
 30
0.0
 10
167.9217550707163
 20
87.72326422273359
 30
0.0
 10
167.8748709761047
 20
87.676380128122
 30
0.0
  0
LINE
  5
121
330
70
100
AcDbEntity
  8
0
 62
    18
420
        0
370
    25
100
AcDbLine
 10
168.0516476714011
 20
87.74960343282518
 30
0.0
 11
190.0516476714012
 21
87.74960343282518
 31
0.0
  0
SPLINE
  5
122
330
70
100
AcDbEntity
  8
0
 62
    18
420
        0
370
    25
100
AcDbSpline
210
0.0
220
0.0
230
1.0
 70
     8
 71
     3
 72
     8
 73
     4
 74
     0
 42
0.0000000001
 43
0.0000000001
 40
0.0
 40
0.0
 40
0.0
 40
0.0
 40
1.0
 40
1.0
 40
1.0
 40
1.0
 10
190.2284243666976
 20
87.676380128122
 30
0.0
 10
190.1815402720854
 20
87.72326422273359
 30
0.0
 10
190.1179517938611
 20
87.74960343282518
 30
0.0
 10
190.0516476714012
 20
87.74960343282518
 30
0.0
  0
LINE
  5
123
330
70
100
AcDbEntity
  8
0
 62
    18
420
        0
370
    25
100
AcDbLine
 10
190.2284243667014
 20
87.67638012812522
 30
0.0
 11
190.176647671401
 21
87.62460343282542
 31
0.0
  0
SPLINE
  5
124
330
70
100
AcDbEntity
  8
0
 62
    18
420
        0
370
    25
100
AcDbSpline
210
0.0
220
0.0
230
1.0
 70
     8
 71
     3
 72
     8
 73
     4
 74
     0
 42
0.0000000001
 43
0.0000000001
 40
0.0
 40
0.0
 40
0.0
 40
0.0
 40
1.0
 40
1.0
 40
1.0
 40
1.0
 10
167.8748709761047
 20
89.07282673752856
 30
0.0
 10
167.9217550707163
 20
89.02594264291698
 30
0.0
 10
167.9853435489412
 20
88.99960343282538
 30
0.0
 10
168.0516476714011
 20
88.99960343282538
 30
0.0
  0
LINE
  5
125
330
70
100
AcDbEntity
  8
0
 62
    18
420
        0
370
    25
100
AcDbLine
 10
167.8748709761009
 20
89.07282673752535
 30
0.0
 11
167.9266476714013
 21
89.1246034328258
 31
0.0
  0
LINE
  5
126
330
70
100
AcDbEntity
  8
0
 62
    18
420
        0
370
    25
100
AcDbLine
 10
167.9266476714013
 20
89.1246034328258
 30
0.0
 11
190.176647671401
 21
89.1246034328258
 31
0.0
  0
LINE
  5
127
330
70
100
AcDbEntity
  8
0
 62
    18
420
        0
370
    25
100
AcDbLine
 10
190.2284243667014
 20
89.07282673752535
 30
0.0
 11
190.176647671401
 21
89.1246034328258
 31
0.0
  0
SPLINE
  5
128
330
70
100
AcDbEntity
  8
0
 62
    18
420
        0
370
    25
100
AcDbSpline
210
0.0
220
0.0
230
1.0
 70
     8
 71
     3
 72
     8
 73
     4
 74
     0
 42
0.0000000001
 43
0.0000000001
 40
0.0
 40
0.0
 40
0.0
 40
0.0
 40
1.0
 40
1.0
 40
1.0
 40
1.0
 10
190.0516476714012
 20
88.99960343282604
 30
0.0
 10
190.1179517938611
 20
88.99960343282604
 30
0.0
 10
190.181540272086
 20
89.02594264291698
 30
0.0
 10
190.2284243666976
 20
89.07282673752856
 30
0.0
  0
LINE
  5
129
330
70
100
AcDbEntity
  8
0
 62
    18
420
        0
370
    25
100
AcDbLine
 10
190.0516476714012
 20
88.99960343282538
 30
0.0
 11
168.0516476714011
 21
88.99960343282538
 31
0.0
  0
LINE
  5
12A
330
70
100
AcDbEntity
  8
0
 62
    18
420
        0
370
    25
100
AcDbLine
 10
168.0516476714011
 20
88.99960343282538
 30
0.0
 11
168.0516476714011
 21
87.74960343282518
 31
0.0
  0
LINE
  5
12B
330
70
100
AcDbEntity
  8
0
 62
    18
420
        0
370
    25
100
AcDbLine
 10
167.8748709761009
 20
87.67638012812522
 30
0.0
 11
167.8016476714009
 21
87.74960343282518
 31
0.0
  0
LINE
  5
12C
330
70
100
AcDbEntity
  8
0
 62
    18
420
        0
370
    25
100
AcDbLine
 10
167.8016476714009
 20
87.74960343282518
 30
0.0
 11
167.8016476714009
 21
88.99960343282538
 31
0.0
  0
LINE
  5
12D
330
70
100
AcDbEntity
  8
0
 62
    18
420
        0
370
    25
100
AcDbLine
 10
167.8016476714009
 20
88.99960343282538
 30
0.0
 11
167.8748709761009
 21
89.07282673752535
 31
0.0
  0
LINE
  5
12E
330
70
100
AcDbEntity
  8
0
 62
    18
420
        0
370
    25
100
AcDbLine
 10
190.0516476714012
 20
87.74960343282518
 30
0.0
 11
190.0516476714012
 21
88.99960343282538
 31
0.0
  0
LINE
  5
12F
330
70
100
AcDbEntity
  8
0
 62
    18
420
        0
370
    25
100
AcDbLine
 10
190.2284243667014
 20
89.07282673752535
 30
0.0
 11
190.3016476714014
 21
88.99960343282538
 31
0.0
  0
LINE
  5
130
330
70
100
AcDbEntity
  8
0
 62
    18
420
        0
370
    25
100
AcDbLine
 10
190.3016476714014
 20
88.99960343282538
 30
0.0
 11
190.3016476714014
 21
87.74960343282518
 31
0.0
  0
LINE
  5
131
330
70
100
AcDbEntity
  8
0
 62
    18
420
        0
370
    25
100
AcDbLine
 10
190.3016476714014
 20
87.74960343282518
 30
0.0
 11
190.2284243667014
 21
87.67638012812522
 31
0.0
  0
LINE
  5
132
330
70
100
AcDbEntity
  8
0
 62
    18
420
        0
370
    25
100
AcDbLine
 10
167.8016503271013
 20
89.24960343282554
 30
0.0
 11
171.7038204422012
 21
89.24960343282554
 31
0.0
  0
LINE
  5
133
330
70
100
AcDbEntity
  8
0
 62
    18
420
        0
370
    25
100
AcDbLine
 10
167.8016503271013
 20
88.99960608842564
 30
0.0
 11
167.8016503271013
 21
89.24960343282554
 31
0.0
  0
LINE
  5
134
330
70
100
AcDbEntity
  8
0
 62
    18
420
        0
370
    25
100
AcDbLine
 10
165.8016503271012
 20
88.24960343282489
 30
0.0
 11
167.8016503271013
 21
88.24960343282489
 31
0.0
  0
LINE
  5
135
330
70
100
AcDbEntity
  8
0
 62
    18
420
        0
370
    25
100
AcDbLine
 10
165.8016503271012
 20
90.24960343282527
 30
0.0
 11
165.8016503271012
 21
88.24960343282489
 31
0.0
  0
LINE
  5
136
330
70
100
AcDbEntity
  8
0
 62
    18
420
        0
370
    25
100
AcDbLine
 10
167.8016503271013
 20
87.62460343282542
 30
0.0
 11
167.8016503271013
 21
87.74960077712547
 31
0.0
  0
LINE
  5
137
330
70
100
AcDbEntity
  8
0
 62
    18
420
        0
370
    25
100
AcDbLine
 10
167.9266476714013
 20
87.62460343282542
 30
0.0
 11
167.8016503271013
 21
87.62460343282542
 31
0.0
  0
SPLINE
  5
138
330
70
100
AcDbEntity
  8
0
 62
    18
420
        0
370
    25
100
AcDbSpline
210
0.0
220
0.0
230
1.0
 70
     8
 71
     3
 72
     8
 73
     4
 74
     0
 42
0.0000000001
 43
0.0000000001
 40
0.0
 40
0.0
 40
0.0
 40
0.0
 40
1.0
 40
1.0
 40
1.0
 40
1.0
 10
171.0247957511079
 20
86.25261262589496
 30
0.0
 10
170.8647392842459
 20
86.30637387183043
 30
0.0
 10
170.7012212574043
 20
86.34921909996041
 30
0.0
 10
170.5353670650144
 20
86.38085343282027
 30
0.0
  0
SPLINE
  5
139
330
70
100
AcDbEntity
  8
0
 62
    18
420
        0
370
    25
100
AcDbSpline
210
0.0
220
0.0
230
1.0
 70
     8
 71
     3
 72
     8
 73
     4
 74
     0
 42
0.0000000001
 43
0.0000000001
 40
0.0
 40
0.0
 40
0.0
 40
0.0
 40
1.0
 40
1.0
 40
1.0
 40
1.0
 10
170.5353670650253
 20
86.3808534327901
 30
0.0
 10
170.2032352242788
 20
86.47391294042598
 30
0.0
 10
169.8519171759234
 20
86.47391294042598
 30
0.0
 10
169.519785335177
 20
86.3808534327901
 30
0.0
  0
SPLINE
  5
13A
330
70
100
AcDbEntity
  8
0
 62
    18
420
        0
370
    25
100
AcDbSpline
210
0.0
220
0.0
230
1.0
 70
     8
 71
     3
 72
     8
 73
     4
 74
     0
 42
0.0000000001
 43
0.0000000001
 40
0.0
 40
0.0
 40
0.0
 40
0.0
 40
1.0
 40
1.0
 40
1.0
 40
1.0
 10
169.5197853352065
 20
86.3808534328286
 30
0.0
 10
169.3527083848298
 20
86.34895784261642
 30
0.0
 10
169.1879996062618
 20
86.30571185070989
 30
0.0
 10
169.0268040490594
 20
86.25141610170073
 30
0.0
  0
LINE
  5
13B
330
70
100
AcDbEntity
  8
0
 62
    18
420
        0
370
    25
100
AcDbLine
 10
165.8016503271012
 20
88.24960343282489
 30
0.0
 11
165.8016503271012
 21
86.24960343282545
 31
0.0
  0
LINE
  5
13C
330
70
100
AcDbEntity
  8
0
 62
    18
420
        0
370
    25
100
AcDbLine
 10
171.8253387253013
 20
89.24960343282554
 30
0.0
 11
171.7038204422012
 21
89.24960343282554
 31
0.0
  0
LINE
  5
13D
330
70
100
AcDbEntity
  8
0
 62
    18
420
        0
370
    25
100
AcDbLine
 10
171.8253387253013
 20
89.24960343282554
 30
0.0
 11
171.9898770385011
 21
89.24960343282554
 31
0.0
  0
LINE
  5
13E
330
70
100
AcDbEntity
  8
0
 62
    18
420
        0
370
    25
100
AcDbLine
 10
165.8016476714008
 20
88.24960343282489
 30
0.0
 11
165.8016476714008
 21
87.09960343282499
 31
0.0
  0
LINE
  5
13F
330
70
100
AcDbEntity
  8
0
 62
    18
420
        0
370
    25
100
AcDbLine
 10
165.8016476714008
 20
89.20737491072531
 30
0.0
 11
165.8016476714008
 21
88.24960343282489
 31
0.0
  0
LWPOLYLINE
  5
140
330
70
100
AcDbEntity
  8
0
 62
     8
420
  8421504
370
    25
100
AcDbPolyline
 90
        5
 70
     0
 43
0.0
 10
165.6570120858011
 20
94.26164980952529
 10
165.6570748838013
 20
94.26172180682534
 10
165.6569011880014
 20
94.26152108952518
 10
165.6557513627014
 20
94.26022569432515
 10
165.6557494500012
 20
94.26022358122528
  0
LINE
  5
141
330
70
100
AcDbEntity
  8
0
 62
     8
420
  8421504
370
    25
100
AcDbLine
 10
171.7038204422012
 20
89.24960343282554
 30
0.0
 11
171.7038204422012
 21
90.24960343282527
 31
0.0
  0
LINE
  5
142
330
70
100
AcDbEntity
  8
0
 62
     8
420
  8421504
370
    25
100
AcDbLine
 10
171.7038204422012
 20
86.24960343282545
 30
0.0
 11
171.7038204422012
 21
87.62460343282542
 31
0.0
  0
LINE
  5
143
330
70
100
AcDbEntity
  8
0
 62
     8
420
  8421504
370
    25
100
AcDbLine
 10
171.8253387253013
 20
87.62460343282542
 30
0.0
 11
171.8253387253013
 21
86.34530655782553
 31
0.0
  0
LINE
  5
144
330
70
100
AcDbEntity
  8
0
 62
     8
420
  8421504
370
    25
100
AcDbLine
 10
171.8253387253013
 20
90.15390030782519
 30
0.0
 11
171.8253387253013
 21
89.24960343282554
 31
0.0
  0
LWPOLYLINE
  5
145
330
70
100
AcDbEntity
  8
0
 62
    18
420
        0
370
    25
100
AcDbPolyline
 90
        3
 70
     0
 43
0.0
 10
115.1413268529015
 20
39.55237051722502
 10
115.1984641885011
 20
39.55236433012523
 10
115.2109868693014
 20
39.55236958992499
  0
LWPOLYLINE
  5
146
330
70
100
AcDbEntity
  8
0
 62
    18
420
        0
370
    25
100
AcDbPolyline
 90
        3
 70
     0
 43
0.0
 10
115.2152581944011
 20
39.55237059122575
 10
117.1819922462013
 20
39.5841387221252
 10
119.7438178235008
 20
39.68289702092513
  0
LWPOLYLINE
  5
147
330
70
100
AcDbEntity
  8
0
 62
    18
420
        0
370
    25
100
AcDbPolyline
 90
        3
 70
     0
 43
0.0
 10
107.7197653581013
 20
39.68289701582491
 10
110.2815766132012
 20
39.58413912492546
 10
112.2482996949009
 20
39.55237056482497
  0
LWPOLYLINE
  5
148
330
70
100
AcDbEntity
  8
0
 62
    18
420
        0
370
    25
100
AcDbPolyline
 90
        3
 70
     0
 43
0.0
 10
112.2514317797009
 20
39.55236865212548
 10
112.2649617416013
 20
39.55236366352506
 10
112.3245019300013
 20
39.55237033322552
  0
SPLINE
  5
149
330
70
100
AcDbEntity
  8
0
 62
    18
420
        0
370
    25
100
AcDbSpline
210
0.0
220
0.0
230
1.0
 70
     8
 71
     3
 72
     8
 73
     4
 74
     0
 42
0.0000000001
 43
0.0000000001
 40
0.0
 40
0.0
 40
0.0
 40
0.0
 40
1.0
 40
1.0
 40
1.0
 40
1.0
 10
119.7437218555402
 20
39.68229041000459
 30
0.0
 10
119.8770058264618
 20
39.68865811690513
 30
0.0
 10
119.981795629805
 20
39.79857715834123
 30
0.0
 10
119.9817915907864
 20
39.9320131526582
 30
0.0
  0
LINE
  5
14A
330
70
100
AcDbEntity
  8
0
 62
    18
420
        0
370
    25
100
AcDbLine
 10
114.8221113431014
 20
39.55240704982512
 30
0.0
 11
114.8974295599009
 21
39.55240704982512
 31
0.0
  0
LINE
  5
14B
330
70
100
AcDbEntity
  8
0
 62
    18
420
        0
370
    25
100
AcDbLine
 10
112.566012332401
 20
39.55240704982512
 30
0.0
 11
112.6414718387009
 21
39.55240704982512
 31
0.0
  0
SPLINE
  5
14C
330
70
100
AcDbEntity
  8
0
 62
    18
420
        0
370
    25
100
AcDbSpline
210
0.0
220
0.0
230
1.0
 70
     8
 71
     3
 72
     8
 73
     4
 74
     0
 42
0.0000000001
 43
0.0000000001
 40
0.0
 40
0.0
 40
0.0
 40
0.0
 40
1.0
 40
1.0
 40
1.0
 40
1.0
 10
107.4817915910153
 20
39.9320131526582
 30
0.0
 10
107.4817875530016
 20
39.7986103353193
 30
0.0
 10
107.586526998088
 20
39.68870636673846
 30
0.0
 10
107.7197756374557
 20
39.68229451856482
 30
0.0
  0
LWPOLYLINE
  5
14D
330
70
100
AcDbEntity
  8
0
 62
    18
420
        0
370
    25
100
AcDbPolyline
 90
        3
 70
     0
 43
0.0
 10
112.8442915909009
 20
39.55243067362488
 10
113.0651868800011
 20
39.55236429262498
 10
113.3689160260011
 20
39.55232719332506
  0
LWPOLYLINE
  5
14E
330
70
100
AcDbEntity
  8
0
 62
    18
420
        0
370
    25
100
AcDbPolyline
 90
        3
 70
     0
 43
0.0
 10
114.0942915909011
 20
39.55232739632527
 10
114.394272727501
 20
39.55236391722527
 10
114.6192915909008
 20
39.5524311918251
  0
LWPOLYLINE
  5
14F
330
70
100
AcDbEntity
  8
0
 62
    18
420
        0
370
    25
100
AcDbPolyline
 90
        5
 70
     0
 43
0.0
 10
24.72346241810106
 20
39.55252940652549
 10
25.28587113960121
 20
39.55236126152492
 10
25.9499704361011
 20
39.55228041152523
 10
26.61495698710111
 20
39.55236163692527
 10
27.17324213420129
 20
39.55252940652485
  0
LWPOLYLINE
  5
150
330
70
100
AcDbEntity
  8
0
 62
    18
420
        0
370
    25
100
AcDbPolyline
 90
        3
 70
     0
 43
0.0
 10
19.93632604350128
 20
39.68289436532553
 10
22.49815162090124
 20
39.58413606652559
 10
24.4648856727011
 20
39.5523679355254
  0
LWPOLYLINE
  5
151
330
70
100
AcDbEntity
  8
0
 62
    18
420
        0
370
    25
100
AcDbPolyline
 90
        5
 70
     0
 43
0.0
 10
24.46801778070135
 20
39.55236602212517
 10
24.48154589150123
 20
39.552361031925
 10
24.55633777480111
 20
39.5523694061257
 10
24.68379639910113
 20
39.5523906860254
 10
24.86011309600122
 20
39.55241720292529
  0
LWPOLYLINE
  5
152
330
70
100
AcDbEntity
  8
0
 62
    18
420
        0
370
    25
100
AcDbPolyline
 90
        5
 70
     0
 43
0.0
 10
27.03660558400108
 20
39.55241719462491
 10
27.21330178270131
 20
39.55239117422554
 10
27.34086539260133
 20
39.55236968722518
 10
27.41504838560118
 20
39.55236165042533
 10
27.42757287100131
 20
39.55236690862534
  0
LWPOLYLINE
  5
153
330
70
100
AcDbEntity
  8
0
 62
    18
420
        0
370
    25
100
AcDbPolyline
 90
        3
 70
     0
 43
0.0
 10
27.43184417210118
 20
39.55236790922537
 10
29.39856725380121
 20
39.58413646922511
 10
31.96037850890117
 20
39.6828943602253
  0
SPLINE
  5
154
330
70
100
AcDbEntity
  8
0
 62
    18
420
        0
370
    25
100
AcDbSpline
210
0.0
220
0.0
230
1.0
 70
     8
 71
     3
 72
     8
 73
     4
 74
     0
 42
0.0000000001
 43
0.0000000001
 40
0.0
 40
0.0
 40
0.0
 40
0.0
 40
1.0
 40
1.0
 40
1.0
 40
1.0
 10
31.96028254074003
 20
39.68228775440369
 30
0.0
 10
32.09356651166159
 20
39.68865546130552
 30
0.0
 10
32.19835631500483
 20
39.79857450274034
 30
0.0
 10
32.1983522759868
 20
39.93201049705795
 30
0.0
  0
SPLINE
  5
155
330
70
100
AcDbEntity
  8
0
 62
    18
420
        0
370
    25
100
AcDbSpline
210
0.0
220
0.0
230
1.0
 70
     8
 71
     3
 72
     8
 73
     4
 74
     0
 42
0.0000000001
 43
0.0000000001
 40
0.0
 40
0.0
 40
0.0
 40
0.0
 40
1.0
 40
1.0
 40
1.0
 40
1.0
 10
19.69835227621576
 20
39.93201049705795
 30
0.0
 10
19.69834823820167
 20
39.79860767971906
 30
0.0
 10
19.8030876832881
 20
39.68870371113757
 30
0.0
 10
19.93633632265552
 20
39.68229186296458
 30
0.0
  0
LINE
  5
156
330
70
100
AcDbEntity
  8
0
 62
    18
420
        0
370
    25
100
AcDbLine
 10
26.31085227610117
 20
39.5377336085251
 30
0.0
 11
26.31085227610117
 21
39.55232449182537
 31
0.0
  0
LINE
  5
157
330
70
100
AcDbEntity
  8
0
 62
    18
420
        0
370
    25
100
AcDbLine
 10
25.58585227610107
 20
39.55232474072566
 30
0.0
 11
25.58585227610107
 21
39.5377336085251
 31
0.0
  0
LINE
  5
158
330
70
100
AcDbEntity
  8
0
 62
    18
420
        0
370
    25
100
AcDbLine
 10
114.0942915909011
 20
39.53773626422544
 30
0.0
 11
114.0942915909011
 21
39.55273787852531
 31
0.0
  0
LINE
  5
159
330
70
100
AcDbEntity
  8
0
 62
    18
420
        0
370
    25
100
AcDbLine
 10
113.3692915909013
 20
39.55256689902521
 30
0.0
 11
113.3692915909013
 21
39.53773626422544
 31
0.0
  0
LWPOLYLINE
  5
15A
330
70
100
AcDbEntity
  8
0
 62
    18
420
        0
370
    25
100
AcDbPolyline
 90
        5
 70
     0
 43
0.0
 10
107.7316922490013
 20
39.68318823732544
 10
107.7316772625015
 20
39.68318887322545
 10
107.726423287701
 20
39.68341192162557
 10
107.7237963044009
 20
39.68352354292497
 10
107.7211693239012
 20
39.68363522892559
  0
LINE
  5
15B
330
70
100
AcDbEntity
  8
0
 62
    18
420
        0
370
    25
100
AcDbLine
 10
107.7211693239012
 20
39.68363522892559
 30
0.0
 11
107.7317915909013
 21
39.93340944372543
 31
0.0
  0
LWPOLYLINE
  5
15C
330
70
100
AcDbEntity
  8
0
 62
    18
420
        0
370
    25
100
AcDbPolyline
 90
        7
 70
     0
 43
0.0
 10
107.7264383988009
 20
39.68363714132541
 10
107.726815196301
 20
39.70122735432536
 10
107.727752610101
 20
39.74498291552535
 10
107.729145357701
 20
39.80997578762568
 10
107.7308370441014
 20
39.88889258452512
 10
107.7316263989009
 20
39.9257060041255
 10
107.7317915932011
 20
39.93340944372543
  0
SPLINE
  5
15D
330
70
100
AcDbEntity
  8
0
 62
    18
420
        0
370
    25
100
AcDbSpline
210
0.0
220
0.0
230
1.0
 70
     8
 71
     3
 72
     8
 73
     4
 74
     0
 42
0.0000000001
 43
0.0000000001
 40
0.0
 40
0.0
 40
0.0
 40
0.0
 40
1.0
 40
1.0
 40
1.0
 40
1.0
 10
107.7264383988035
 20
39.68363714126252
 30
0.0
 10
107.7281728269993
 20
39.68333140442063
 30
0.0
 10
107.729931094165
 20
39.68318117306285
 30
0.0
 10
107.7316922489795
 20
39.68318823732865
 30
0.0
  0
LWPOLYLINE
  5
15E
330
70
100
AcDbEntity
  8
0
 62
    18
420
        0
370
    25
100
AcDbPolyline
 90
        6
 70
     0
 43
0.0
 10
113.7317915909008
 20
39.68230122792549
 10
113.2317915909011
 20
39.68231313192523
 10
111.2317916151015
 20
39.68257925692542
 10
109.481744015901
 20
39.68304067332512
 10
107.7316964783011
 20
39.68363522862527
 10
107.7264383988009
 20
39.68363714132541
  0
LWPOLYLINE
  5
15F
330
70
100
AcDbEntity
  8
0
 62
    18
420
        0
370
    25
100
AcDbPolyline
 90
        4
 70
     0
 43
0.0
 10
107.7317915909013
 20
39.93340944372543
 10
110.5790708950012
 20
39.9324599036257
 10
112.1554312269009
 20
39.93212767802563
 10
113.7317915909008
 20
39.93200674792554
  0
LINE
  5
160
330
70
100
AcDbEntity
  8
0
 62
    18
420
        0
370
    25
100
AcDbLine
 10
113.7317915909008
 20
39.68230122792549
 30
0.0
 11
113.7317915909008
 21
39.93200674792554
 31
0.0
  0
LINE
  5
161
330
70
100
AcDbEntity
  8
0
 62
    18
420
        0
370
    25
100
AcDbLine
 10
119.7317915909011
 20
41.0537372883253
 30
0.0
 11
119.9817915909012
 21
41.0537372883253
 31
0.0
  0
LINE
  5
162
330
70
100
AcDbEntity
  8
0
 62
    18
420
        0
370
    25
100
AcDbLine
 10
119.9817915909012
 20
41.0537372883253
 30
0.0
 11
119.9817915909012
 21
39.93340944362533
 31
0.0
  0
LINE
  5
163
330
70
100
AcDbEntity
  8
0
 62
    18
420
        0
370
    25
100
AcDbLine
 10
119.7317915909011
 20
39.93340944372543
 30
0.0
 11
119.9817915909012
 21
39.93340944362533
 31
0.0
  0
LINE
  5
164
330
70
100
AcDbEntity
  8
0
 62
    18
420
        0
370
    25
100
AcDbLine
 10
119.7317915909011
 20
39.93340944372543
 30
0.0
 11
119.7317915909011
 21
41.0537372883253
 31
0.0
  0
LWPOLYLINE
  5
165
330
70
100
AcDbEntity
  8
0
 62
    18
420
        0
370
    25
100
AcDbPolyline
 90
        4
 70
     0
 43
0.0
 10
113.7317915909008
 20
39.93200674792554
 10
116.5790806153013
 20
39.9323815903252
 10
118.1554361207014
 20
39.93284285832494
 10
119.7317915909011
 20
39.93340944372543
  0
LINE
  5
166
330
70
100
AcDbEntity
  8
0
 62
    18
420
        0
370
    25
100
AcDbLine
 10
107.7317915909013
 20
41.0537372883253
 30
0.0
 11
107.7317915909013
 21
39.93340944372543
 31
0.0
  0
LINE
  5
167
330
70
100
AcDbEntity
  8
0
 62
    18
420
        0
370
    25
100
AcDbLine
 10
119.7317915909011
 20
41.0537372883253
 30
0.0
 11
107.7317915909013
 21
41.0537372883253
 31
0.0
  0
LINE
  5
168
330
70
100
AcDbEntity
  8
0
 62
    18
420
        0
370
    25
100
AcDbLine
 10
107.4817915909011
 20
39.93340944382489
 30
0.0
 11
107.7317915909013
 21
39.93340944372543
 31
0.0
  0
LINE
  5
169
330
70
100
AcDbEntity
  8
0
 62
    18
420
        0
370
    25
100
AcDbLine
 10
107.4817915909011
 20
39.93340944382489
 30
0.0
 11
107.4817915909011
 21
41.0537372883253
 31
0.0
  0
LINE
  5
16A
330
70
100
AcDbEntity
  8
0
 62
    18
420
        0
370
    25
100
AcDbLine
 10
107.4817915909011
 20
41.0537372883253
 30
0.0
 11
107.7317915909013
 21
41.0537372883253
 31
0.0
  0
LWPOLYLINE
  5
16B
330
70
100
AcDbEntity
  8
0
 62
    18
420
        0
370
    25
100
AcDbPolyline
 90
        5
 70
     0
 43
0.0
 10
119.7318867035012
 20
39.68363522862527
 10
119.2318867749015
 20
39.68345613482543
 10
117.2318869997014
 20
39.68282213302501
 10
115.4818393703013
 20
39.6824415120254
 10
113.7317915909008
 20
39.68230122792549
  0
LINE
  5
16C
330
70
100
AcDbEntity
  8
0
 62
    18
420
        0
370
    25
100
AcDbLine
 10
119.7318867035012
 20
39.68363522862527
 30
0.0
 11
119.7317915909011
 21
39.93340944372543
 31
0.0
  0
SPLINE
  5
16D
330
70
100
AcDbEntity
  8
0
 62
    18
420
        0
370
    25
100
AcDbSpline
210
0.0
220
0.0
230
1.0
 70
     8
 71
     3
 72
     8
 73
     4
 74
     0
 42
0.0000000001
 43
0.0000000001
 40
0.0
 40
0.0
 40
0.0
 40
0.0
 40
1.0
 40
1.0
 40
1.0
 40
1.0
 10
119.7318867034435
 20
39.68363522860988
 30
0.0
 10
119.8698584130809
 20
39.68362538928963
 30
0.0
 10
119.9817292674882
 20
39.79543774770806
 30
0.0
 10
119.9817915908582
 20
39.93340944362083
 30
0.0
  0
SPLINE
  5
16E
330
70
100
AcDbEntity
  8
0
 62
    18
420
        0
370
    25
100
AcDbSpline
210
0.0
220
0.0
230
1.0
 70
     8
 71
     3
 72
     8
 73
     4
 74
     0
 42
0.0000000001
 43
0.0000000001
 40
0.0
 40
0.0
 40
0.0
 40
0.0
 40
1.0
 40
1.0
 40
1.0
 40
1.0
 10
107.4817915908774
 20
39.9334094437787
 30
0.0
 10
107.4817915954559
 20
39.79946973573743
 30
0.0
 10
107.5873505722883
 20
39.68932619719953
 30
0.0
 10
107.7211693238538
 20
39.68363522894099
 30
0.0
  0
SPLINE
  5
16F
330
70
100
AcDbEntity
  8
0
 62
    18
420
        0
370
    25
100
AcDbSpline
210
0.0
220
0.0
230
1.0
 70
     8
 71
     3
 72
     8
 73
     4
 74
     0
 42
0.0000000001
 43
0.0000000001
 40
0.0
 40
0.0
 40
0.0
 40
0.0
 40
1.0
 40
1.0
 40
1.0
 40
1.0
 10
114.8685889436693
 20
39.55240794951541
 30
0.0
 10
116.4903766910665
 20
39.56490165660174
 30
0.0
 10
118.1117755907765
 20
39.60850310584666
 30
0.0
 10
119.7318909327978
 20
39.68318823737614
 30
0.0
  0
LWPOLYLINE
  5
170
330
70
100
AcDbEntity
  8
0
 62
    18
420
        0
370
    25
100
AcDbPolyline
 90
        7
 70
     0
 43
0.0
 10
119.7424117393009
 20
39.68363714132541
 10
119.7404895516012
 20
39.68355536232519
 10
119.7385670486013
 20
39.68347346762535
 10
119.7362761961014
 20
39.68337574382536
 10
119.7341263180013
 20
39.68328389232559
 10
119.732981177001
 20
39.68323490982532
 10
119.731890932801
 20
39.68318823732544
  0
SPLINE
  5
171
330
70
100
AcDbEntity
  8
0
 62
    18
420
        0
370
    25
100
AcDbSpline
210
0.0
220
0.0
230
1.0
 70
     8
 71
     3
 72
     8
 73
     4
 74
     0
 42
0.0000000001
 43
0.0000000001
 40
0.0
 40
0.0
 40
0.0
 40
0.0
 40
1.0
 40
1.0
 40
1.0
 40
1.0
 10
114.9624627494777
 20
39.55240249343531
 30
0.0
 10
115.0763581360111
 20
39.55230898868459
 30
0.0
 10
115.1902535979423
 20
39.55237757055627
 30
0.0
 10
115.304148789276
 20
39.55260823884244
 30
0.0
  0
SPLINE
  5
172
330
70
100
AcDbEntity
  8
0
 62
    18
420
        0
370
    25
100
AcDbSpline
210
0.0
220
0.0
230
1.0
 70
     8
 71
     3
 72
     8
 73
     4
 74
     0
 42
0.0000000001
 43
0.0000000001
 40
0.0
 40
0.0
 40
0.0
 40
0.0
 40
1.0
 40
1.0
 40
1.0
 40
1.0
 10
114.8685889440575
 20
39.55240794950642
 30
0.0
 10
115.013775584467
 20
39.5523968364662
 30
0.0
 10
115.1589622203473
 20
39.55246359958954
 30
0.0
 10
115.3041487891355
 20
39.55260823884693
 30
0.0
  0
LWPOLYLINE
  5
173
330
70
100
AcDbEntity
  8
0
 62
    18
420
        0
370
    25
100
AcDbPolyline
 90
        3
 70
     0
 43
0.0
 10
112.1580337041009
 20
39.55260823882575
 10
112.3285977691013
 20
39.55236447972517
 10
112.5001245545014
 20
39.55240117852532
  0
SPLINE
  5
174
330
70
100
AcDbEntity
  8
0
 62
    18
420
        0
370
    25
100
AcDbSpline
210
0.0
220
0.0
230
1.0
 70
     8
 71
     3
 72
     8
 73
     4
 74
     0
 42
0.0000000001
 43
0.0000000001
 40
0.0
 40
0.0
 40
0.0
 40
0.0
 40
1.0
 40
1.0
 40
1.0
 40
1.0
 10
107.731692248932
 20
39.68318823741143
 30
0.0
 10
109.3518448365973
 20
39.6095282183148
 30
0.0
 10
110.9732243920074
 20
39.56592728926127
 30
0.0
 10
112.5949942379431
 20
39.55240794954941
 30
0.0
  0
SPLINE
  5
175
330
70
100
AcDbEntity
  8
0
 62
    18
420
        0
370
    25
100
AcDbSpline
210
0.0
220
0.0
230
1.0
 70
     8
 71
     3
 72
     8
 73
     4
 74
     0
 42
0.0000000001
 43
0.0000000001
 40
0.0
 40
0.0
 40
0.0
 40
0.0
 40
1.0
 40
1.0
 40
1.0
 40
1.0
 10
112.1580337041927
 20
39.5526082388803
 30
0.0
 10
112.3036871690565
 20
39.55246313654015
 30
0.0
 10
112.4493407014862
 20
39.55239637341746
 30
0.0
 10
112.5949942381664
 20
39.55240794953979
 30
0.0
  0
LINE
  5
176
330
70
100
AcDbEntity
  8
0
 62
    18
420
        0
370
    25
100
AcDbLine
 10
113.7317915909008
 20
39.68171732782548
 30
0.0
 11
113.7317915909008
 21
39.68230122792549
 31
0.0
  0
LWPOLYLINE
  5
177
330
70
100
AcDbEntity
  8
0
 62
    18
420
        0
370
    25
100
AcDbPolyline
 90
        5
 70
     0
 43
0.0
 10
113.7317915909008
 20
39.68171732782548
 10
112.1692915909012
 20
39.68184245582572
 10
110.6067916255014
 20
39.68218611162575
 10
109.1692419265013
 20
39.68264427782496
 10
107.7316922490013
 20
39.68318823732544
  0
LINE
  5
178
330
70
100
AcDbEntity
  8
0
 62
    18
420
        0
370
    25
100
AcDbLine
 10
119.731890932801
 20
39.68318823732544
 30
0.0
 11
119.7318867035012
 21
39.68363522862527
 31
0.0
  0
LWPOLYLINE
  5
179
330
70
100
AcDbEntity
  8
0
 62
    18
420
        0
370
    25
100
AcDbPolyline
 90
        5
 70
     0
 43
0.0
 10
119.731890932801
 20
39.68318823732544
 10
118.1693910406011
 20
39.6826003705256
 10
116.606891113501
 20
39.68211880682564
 10
115.1693413768011
 20
39.68182370962527
 10
113.7317915909008
 20
39.68171732782548
  0
SPLINE
  5
17A
330
70
100
AcDbEntity
  8
0
 62
    18
420
        0
370
    25
100
AcDbSpline
210
0.0
220
0.0
230
1.0
 70
     8
 71
     3
 72
     8
 73
     4
 74
     0
 42
0.0000000001
 43
0.0000000001
 40
0.0
 40
0.0
 40
0.0
 40
0.0
 40
1.0
 40
1.0
 40
1.0
 40
1.0
 10
119.742411739394
 20
39.68363714130552
 30
0.0
 10
119.8762308906789
 20
39.68932629993105
 30
0.0
 10
119.9817912023858
 20
39.79946941316752
 30
0.0
 10
119.9817915909397
 20
39.93340944369014
 30
0.0
  0
LWPOLYLINE
  5
17B
330
70
100
AcDbEntity
  8
0
 62
    18
420
        0
370
    25
100
AcDbPolyline
 90
        5
 70
     0
 43
0.0
 10
114.103688062301
 20
39.55256461202523
 10
114.4101581521014
 20
39.55249002332564
 10
114.7453568532013
 20
39.55241263182517
 10
114.8108809387014
 20
39.55240719172531
 10
114.8499235337009
 20
39.55240787612557
  0
SPLINE
  5
17C
330
70
100
AcDbEntity
  8
0
 62
    18
420
        0
370
    25
100
AcDbSpline
210
0.0
220
0.0
230
1.0
 70
     8
 71
     3
 72
     8
 73
     4
 74
     0
 42
0.0000000001
 43
0.0000000001
 40
0.0
 40
0.0
 40
0.0
 40
0.0
 40
1.0
 40
1.0
 40
1.0
 40
1.0
 10
114.1036880622696
 20
39.55256461205155
 30
0.0
 10
113.8557755801081
 20
39.55684779468688
 30
0.0
 10
113.6078076016942
 20
39.55684779468688
 30
0.0
 10
113.3598951195327
 20
39.55256461205155
 30
0.0
  0
LWPOLYLINE
  5
17D
330
70
100
AcDbEntity
  8
0
 62
    18
420
        0
370
    25
100
AcDbPolyline
 90
        5
 70
     0
 43
0.0
 10
112.6136596481015
 20
39.55240787612557
 10
112.652702243101
 20
39.55240719172531
 10
112.7182263286011
 20
39.55241263182517
 10
113.0534250297009
 20
39.55249002332564
 10
113.3598951195013
 20
39.55256461202523
  0
LWPOLYLINE
  5
17E
330
70
100
AcDbEntity
  8
0
 62
    18
420
        0
370
    25
100
AcDbPolyline
 90
        4
 70
     0
 43
0.0
 10
19.94835227610107
 20
39.93340678802508
 10
23.92489316110127
 20
39.93219852072559
 10
27.90143382840121
 20
39.93218838632517
 10
31.94835227610117
 20
39.93340678812518
  0
LINE
  5
17F
330
70
100
AcDbEntity
  8
0
 62
    18
420
        0
370
    25
100
AcDbLine
 10
31.94835227610117
 20
39.93340678812518
 30
0.0
 11
31.94844738410133
 21
39.68363257332534
 31
0.0
  0
LWPOLYLINE
  5
180
330
70
100
AcDbEntity
  8
0
 62
    18
420
        0
370
    25
100
AcDbPolyline
 90
        7
 70
     0
 43
0.0
 10
31.94844738410133
 20
39.68363257332534
 10
31.44844745540114
 20
39.68345368582532
 10
29.44844767890132
 20
39.68282147902525
 10
25.44844766070131
 20
39.68230905182499
 10
23.92484661510113
 20
39.68248274762557
 10
19.94825716260123
 20
39.68363257292556
 10
19.94299908420121
 20
39.68363448562506
  0
LWPOLYLINE
  5
181
330
70
100
AcDbEntity
  8
0
 62
    18
420
        0
370
    25
100
AcDbPolyline
 90
        7
 70
     0
 43
0.0
 10
19.94835227610107
 20
39.93340678802508
 10
19.94818708460118
 20
39.92570334812548
 10
19.94739772970125
 20
39.88888992842499
 10
19.94570604320111
 20
39.80997313162566
 10
19.94431329560111
 20
39.74498025952533
 10
19.94337588170127
 20
39.70122469842543
 10
19.94299908420121
 20
39.68363448562506
  0
LINE
  5
182
330
70
100
AcDbEntity
  8
0
 62
    18
420
        0
370
    25
100
AcDbLine
 10
19.94835227610107
 20
39.93340678802508
 30
0.0
 11
19.93773000910134
 21
39.68363257332534
 31
0.0
  0
SPLINE
  5
183
330
70
100
AcDbEntity
  8
0
 62
    18
420
        0
370
    25
100
AcDbSpline
210
0.0
220
0.0
230
1.0
 70
     8
 71
     3
 72
     8
 73
     4
 74
     0
 42
0.0000000001
 43
0.0000000001
 40
0.0
 40
0.0
 40
0.0
 40
0.0
 40
1.0
 40
1.0
 40
1.0
 40
1.0
 10
19.94299908415726
 20
39.68363448559939
 30
0.0
 10
19.94473344478092
 20
39.68332823193758
 30
0.0
 10
19.94649175831735
 20
39.68317799662309
 30
0.0
 10
19.94825293421589
 20
39.68318558169054
 30
0.0
  0
LINE
  5
184
330
70
100
AcDbEntity
  8
0
 62
    18
420
        0
370
    25
100
AcDbLine
 10
19.94825293420113
 20
39.68318558172519
 30
0.0
 11
19.93773000910134
 21
39.68363257332534
 31
0.0
  0
LINE
  5
185
330
70
100
AcDbEntity
  8
0
 62
    18
420
        0
370
    25
100
AcDbLine
 10
31.94835227610117
 20
41.05373463272505
 30
0.0
 11
19.94835227610107
 21
41.05373463272505
 31
0.0
  0
LINE
  5
186
330
70
100
AcDbEntity
  8
0
 62
    18
420
        0
370
    25
100
AcDbLine
 10
31.94835227610117
 20
39.93340678812518
 30
0.0
 11
31.94835227610117
 21
41.05373463272505
 31
0.0
  0
LINE
  5
187
330
70
100
AcDbEntity
  8
0
 62
    18
420
        0
370
    25
100
AcDbLine
 10
19.94835227610107
 20
41.05373463272505
 30
0.0
 11
19.94835227610107
 21
39.93340678802508
 31
0.0
  0
LINE
  5
188
330
70
100
AcDbEntity
  8
0
 62
    18
420
        0
370
    25
100
AcDbLine
 10
19.69835227610122
 20
41.05373463272505
 30
0.0
 11
19.94835227610107
 21
41.05373463272505
 31
0.0
  0
LINE
  5
189
330
70
100
AcDbEntity
  8
0
 62
    18
420
        0
370
    25
100
AcDbLine
 10
19.69835227610122
 20
39.93340678812518
 30
0.0
 11
19.94835227610107
 21
39.93340678802508
 31
0.0
  0
LINE
  5
18A
330
70
100
AcDbEntity
  8
0
 62
    18
420
        0
370
    25
100
AcDbLine
 10
19.69835227610122
 20
39.93340678812518
 30
0.0
 11
19.69835227610122
 21
41.05373463272505
 31
0.0
  0
LINE
  5
18B
330
70
100
AcDbEntity
  8
0
 62
    18
420
        0
370
    25
100
AcDbLine
 10
31.94835227610117
 20
41.05373463272505
 30
0.0
 11
32.19835227610134
 21
41.05373463272505
 31
0.0
  0
LINE
  5
18C
330
70
100
AcDbEntity
  8
0
 62
    18
420
        0
370
    25
100
AcDbLine
 10
32.19835227610134
 20
41.05373463272505
 30
0.0
 11
32.19835227610134
 21
39.93340678802508
 31
0.0
  0
LINE
  5
18D
330
70
100
AcDbEntity
  8
0
 62
    18
420
        0
370
    25
100
AcDbLine
 10
31.94835227610117
 20
39.93340678812518
 30
0.0
 11
32.19835227610134
 21
39.93340678802508
 31
0.0
  0
SPLINE
  5
18E
330
70
100
AcDbEntity
  8
0
 62
    18
420
        0
370
    25
100
AcDbSpline
210
0.0
220
0.0
230
1.0
 70
     8
 71
     3
 72
     8
 73
     4
 74
     0
 42
0.0000000001
 43
0.0000000001
 40
0.0
 40
0.0
 40
0.0
 40
0.0
 40
1.0
 40
1.0
 40
1.0
 40
1.0
 10
31.94844738407919
 20
39.68363257330288
 30
0.0
 10
32.08641909544826
 20
39.68362273135167
 30
0.0
 10
32.1982899526851
 20
39.79543509037844
 30
0.0
 10
32.19835227616584
 20
39.93340678802187
 30
0.0
  0
SPLINE
  5
18F
330
70
100
AcDbEntity
  8
0
 62
    18
420
        0
370
    25
100
AcDbSpline
210
0.0
220
0.0
230
1.0
 70
     8
 71
     3
 72
     8
 73
     4
 74
     0
 42
0.0000000001
 43
0.0000000001
 40
0.0
 40
0.0
 40
0.0
 40
0.0
 40
1.0
 40
1.0
 40
1.0
 40
1.0
 10
19.69835227617726
 20
39.93340678817909
 30
0.0
 10
19.69835228075611
 20
39.79946708013719
 30
0.0
 10
19.80391125758822
 20
39.68932354159928
 30
0.0
 10
19.93773000915363
 20
39.68363257334138
 30
0.0
  0
SPLINE
  5
190
330
70
100
AcDbEntity
  8
0
 62
    18
420
        0
370
    25
100
AcDbSpline
210
0.0
220
0.0
230
1.0
 70
     8
 71
     3
 72
     8
 73
     4
 74
     0
 42
0.0000000001
 43
0.0000000001
 40
0.0
 40
0.0
 40
0.0
 40
0.0
 40
1.0
 40
1.0
 40
1.0
 40
1.0
 10
19.94825293423835
 20
39.68318558176947
 30
0.0
 10
21.58452228690922
 20
39.60750458860228
 30
0.0
 10
23.22213241617831
 20
39.5643029144656
 30
0.0
 10
24.86011611110565
 20
39.55360607528007
 30
0.0
  0
LINE
  5
191
330
70
100
AcDbEntity
  8
0
 62
    18
420
        0
370
    25
100
AcDbLine
 10
31.94845161810122
 20
39.68318558172519
 30
0.0
 11
31.94844738410133
 21
39.68363257332534
 31
0.0
  0
SPLINE
  5
192
330
70
100
AcDbEntity
  8
0
 62
    18
420
        0
370
    25
100
AcDbSpline
210
0.0
220
0.0
230
1.0
 70
     8
 71
     3
 72
     8
 73
     4
 74
     0
 42
0.0000000001
 43
0.0000000001
 40
0.0
 40
0.0
 40
0.0
 40
0.0
 40
1.0
 40
1.0
 40
1.0
 40
1.0
 10
27.03660256590088
 20
39.55360614559746
 30
0.0
 10
28.67458155102871
 20
39.56430315036508
 30
0.0
 10
30.31218696924891
 20
39.60750480098027
 30
0.0
 10
31.94845161809512
 20
39.68318558168541
 30
0.0
  0
LINE
  5
193
330
70
100
AcDbEntity
  8
0
 62
    18
420
        0
370
    25
100
AcDbLine
 10
25.06085227610129
 20
39.55260593872549
 30
0.0
 11
25.06085227610129
 21
39.55288385532541
 31
0.0
  0
LINE
  5
194
330
70
100
AcDbEntity
  8
0
 62
    18
420
        0
370
    25
100
AcDbLine
 10
25.06085629540119
 20
39.55260558322486
 30
0.0
 11
25.06085227610129
 21
39.55260593872549
 31
0.0
  0
LINE
  5
195
330
70
100
AcDbEntity
  8
0
 62
    18
420
        0
370
    25
100
AcDbLine
 10
25.06085629540119
 20
39.55260558322486
 30
0.0
 11
24.86011611400132
 21
39.5536060817253
 31
0.0
  0
LWPOLYLINE
  5
196
330
70
100
AcDbEntity
  8
0
 62
    18
420
        0
370
    25
100
AcDbPolyline
 90
        4
 70
     0
 43
0.0
 10
31.95897242460115
 20
39.68363448562506
 10
31.95512773330125
 20
39.6834708120251
 10
31.95068700250136
 20
39.68328123662523
 10
31.94845161810122
 20
39.68318558172519
  0
LINE
  5
197
330
70
100
AcDbEntity
  8
0
 62
    18
420
        0
370
    25
100
AcDbLine
 10
26.83584825690116
 20
39.55260558322486
 30
0.0
 11
27.03660256890114
 21
39.55360615212546
 31
0.0
  0
LINE
  5
198
330
70
100
AcDbEntity
  8
0
 62
    18
420
        0
370
    25
100
AcDbLine
 10
26.83585227610127
 20
39.55260593872549
 30
0.0
 11
26.83584825690116
 21
39.55260558322486
 31
0.0
  0
LINE
  5
199
330
70
100
AcDbEntity
  8
0
 62
    18
420
        0
370
    25
100
AcDbLine
 10
26.83585227610127
 20
39.55260593872549
 30
0.0
 11
26.83585227610127
 21
39.5529134179253
 31
0.0
  0
SPLINE
  5
19A
330
70
100
AcDbEntity
  8
0
 62
    18
420
        0
370
    25
100
AcDbSpline
210
0.0
220
0.0
230
1.0
 70
     8
 71
     3
 72
     8
 73
     4
 74
     0
 42
0.0000000001
 43
0.0000000001
 40
0.0
 40
0.0
 40
0.0
 40
0.0
 40
1.0
 40
1.0
 40
1.0
 40
1.0
 10
31.95897242459377
 20
39.68363448560581
 30
0.0
 10
32.09279157587865
 20
39.68932364423134
 30
0.0
 10
32.19835188758498
 20
39.79946675746717
 30
0.0
 10
32.19835227613952
 20
39.93340678798914
 30
0.0
  0
LINE
  5
19B
330
70
100
AcDbEntity
  8
0
 62
    18
420
        0
370
    25
100
AcDbLine
 10
26.7860023355012
 20
39.55260319742506
 30
0.0
 11
26.57335227610106
 21
39.55271344402543
 31
0.0
  0
SPLINE
  5
19C
330
70
100
AcDbEntity
  8
0
 62
    18
420
        0
370
    25
100
AcDbSpline
210
0.0
220
0.0
230
1.0
 70
     8
 71
     3
 72
     8
 73
     4
 74
     0
 42
0.0000000001
 43
0.0000000001
 40
0.0
 40
0.0
 40
0.0
 40
0.0
 40
1.0
 40
1.0
 40
1.0
 40
1.0
 10
26.78600233550473
 20
39.55260319745008
 30
0.0
 10
26.80261763946838
 20
39.55258777850279
 30
0.0
 10
26.81923295452058
 20
39.55258857376233
 30
0.0
 10
26.83584825693196
 20
39.55260558322871
 30
0.0
  0
SPLINE
  5
19D
330
70
100
AcDbEntity
  8
0
 62
    18
420
        0
370
    25
100
AcDbSpline
210
0.0
220
0.0
230
1.0
 70
     8
 71
     3
 72
     8
 73
     4
 74
     0
 42
0.0000000001
 43
0.0000000001
 40
0.0
 40
0.0
 40
0.0
 40
0.0
 40
1.0
 40
1.0
 40
1.0
 40
1.0
 10
26.57335227614245
 20
39.55271344399078
 30
0.0
 10
26.49001896209779
 20
39.55285860250717
 30
0.0
 10
26.40668543055501
 20
39.55282200195693
 30
0.0
 10
26.32335227616924
 20
39.5526036426012
 30
0.0
  0
SPLINE
  5
19E
330
70
100
AcDbEntity
  8
0
 62
    18
420
        0
370
    25
100
AcDbSpline
210
0.0
220
0.0
230
1.0
 70
     8
 71
     3
 72
     8
 73
     4
 74
     0
 42
0.0000000001
 43
0.0000000001
 40
0.0
 40
0.0
 40
0.0
 40
0.0
 40
1.0
 40
1.0
 40
1.0
 40
1.0
 10
25.57335227604584
 20
39.55260364261146
 30
0.0
 10
25.49001905549544
 20
39.55277426612645
 30
0.0
 10
25.40668561442068
 20
39.55281086663691
 30
0.0
 10
25.32335227614321
 20
39.55271344400104
 30
0.0
  0
SPLINE
  5
19F
330
70
100
AcDbEntity
  8
0
 62
    18
420
        0
370
    25
100
AcDbSpline
210
0.0
220
0.0
230
1.0
 70
     8
 71
     3
 72
     8
 73
     4
 74
     0
 42
0.0000000001
 43
0.0000000001
 40
0.0
 40
0.0
 40
0.0
 40
0.0
 40
1.0
 40
1.0
 40
1.0
 40
1.0
 10
25.06085629535082
 20
39.55260558317738
 30
0.0
 10
25.07747159387703
 20
39.55258241209693
 30
0.0
 10
25.09408691607423
 20
39.55258161683609
 30
0.0
 10
25.11070221674212
 20
39.5526031973981
 30
0.0
  0
LINE
  5
1A0
330
70
100
AcDbEntity
  8
0
 62
    18
420
        0
370
    25
100
AcDbLine
 10
25.32335227610118
 20
39.55271344402543
 30
0.0
 11
25.11070221680115
 21
39.55260319742506
 31
0.0
  0
SPLINE
  5
1A1
330
70
100
AcDbEntity
  8
0
 62
    18
420
        0
370
    25
100
AcDbSpline
210
0.0
220
0.0
230
1.0
 70
     8
 71
     3
 72
     8
 73
     4
 74
     0
 42
0.0000000001
 43
0.0000000001
 40
0.0
 40
0.0
 40
0.0
 40
0.0
 40
1.0
 40
1.0
 40
1.0
 40
1.0
 10
119.9085682861981
 20
37.4645129595222
 30
0.0
 10
119.8616841915858
 20
37.51139705413378
 30
0.0
 10
119.798095713361
 20
37.53773626422538
 30
0.0
 10
119.7317915909011
 20
37.53773626422538
 30
0.0
  0
LINE
  5
1A2
330
70
100
AcDbEntity
  8
0
 62
    18
420
        0
370
    25
100
AcDbLine
 10
119.8567915909008
 20
37.41273626422497
 30
0.0
 11
119.9085682862013
 21
37.46451295952541
 31
0.0
  0
LINE
  5
1A3
330
70
100
AcDbEntity
  8
0
 62
    18
420
        0
370
    25
100
AcDbLine
 10
119.8567915909008
 20
37.41273626422497
 30
0.0
 11
115.463842398501
 21
37.41273626422497
 31
0.0
  0
LINE
  5
1A4
330
70
100
AcDbEntity
  8
0
 62
    18
420
        0
370
    25
100
AcDbLine
 10
111.9997407833014
 20
37.41273626422497
 30
0.0
 11
27.68040308370107
 21
37.41273626422497
 31
0.0
  0
LINE
  5
1A5
330
70
100
AcDbEntity
  8
0
 62
    18
420
        0
370
    25
100
AcDbLine
 10
24.21630146860128
 20
37.41273626422497
 30
0.0
 11
20.10679159090134
 21
37.41273626422497
 31
0.0
  0
LINE
  5
1A6
330
70
100
AcDbEntity
  8
0
 62
    18
420
        0
370
    25
100
AcDbLine
 10
20.05501489560122
 20
37.46451295952541
 30
0.0
 11
20.10679159090134
 21
37.41273626422497
 31
0.0
  0
SPLINE
  5
1A7
330
70
100
AcDbEntity
  8
0
 62
    18
420
        0
370
    25
100
AcDbSpline
210
0.0
220
0.0
230
1.0
 70
     8
 71
     3
 72
     8
 73
     4
 74
     0
 42
0.0000000001
 43
0.0000000001
 40
0.0
 40
0.0
 40
0.0
 40
0.0
 40
1.0
 40
1.0
 40
1.0
 40
1.0
 10
20.23179159090111
 20
37.53773626422538
 30
0.0
 10
20.16548746844121
 20
37.53773626422538
 30
0.0
 10
20.10189899021665
 20
37.51139705413378
 30
0.0
 10
20.05501489560443
 20
37.4645129595222
 30
0.0
  0
LINE
  5
1A8
330
70
100
AcDbEntity
  8
0
 62
    18
420
        0
370
    25
100
AcDbLine
 10
20.23179159090111
 20
37.53773626422538
 30
0.0
 11
24.09430265440122
 21
37.53773626422538
 31
0.0
  0
LINE
  5
1A9
330
70
100
AcDbEntity
  8
0
 62
    18
420
        0
370
    25
100
AcDbLine
 10
27.80240189790113
 20
37.53773626422538
 30
0.0
 11
111.877741969101
 21
37.53773626422538
 31
0.0
  0
LINE
  5
1AA
330
70
100
AcDbEntity
  8
0
 62
    18
420
        0
370
    25
100
AcDbLine
 10
115.5858412127013
 20
37.53773626422538
 30
0.0
 11
119.7317915909011
 21
37.53773626422538
 31
0.0
  0
SPLINE
  5
1AB
330
70
100
AcDbEntity
  8
0
 62
    18
420
        0
370
    25
100
AcDbSpline
210
0.0
220
0.0
230
1.0
 70
     8
 71
     3
 72
     8
 73
     4
 74
     0
 42
0.0000000001
 43
0.0000000001
 40
0.0
 40
0.0
 40
0.0
 40
0.0
 40
1.0
 40
1.0
 40
1.0
 40
1.0
 10
20.05501489560475
 20
37.4645129595222
 30
0.0
 10
20.00813080099254
 20
37.41762886490998
 30
0.0
 10
19.98179159090126
 20
37.3540403866851
 30
0.0
 10
19.98179159090126
 20
37.2877362642252
 30
0.0
  0
LINE
  5
1AC
330
70
100
AcDbEntity
  8
0
 62
    18
420
        0
370
    25
100
AcDbLine
 10
20.10679159090134
 20
37.41273626422497
 30
0.0
 11
20.10679159090134
 21
15.1627362642253
 31
0.0
  0
LINE
  5
1AD
330
70
100
AcDbEntity
  8
0
 62
    18
420
        0
370
    25
100
AcDbLine
 10
20.05501489560122
 20
15.1109595689255
 30
0.0
 11
20.10679159090134
 21
15.1627362642253
 31
0.0
  0
SPLINE
  5
1AE
330
70
100
AcDbEntity
  8
0
 62
    18
420
        0
370
    25
100
AcDbSpline
210
0.0
220
0.0
230
1.0
 70
     8
 71
     3
 72
     8
 73
     4
 74
     0
 42
0.0000000001
 43
0.0000000001
 40
0.0
 40
0.0
 40
0.0
 40
0.0
 40
1.0
 40
1.0
 40
1.0
 40
1.0
 10
19.98179159090094
 20
15.28773626422507
 30
0.0
 10
19.98179159090094
 20
15.22143214176517
 30
0.0
 10
20.00813080099254
 20
15.15784366354093
 30
0.0
 10
20.05501489560443
 20
15.11095956892871
 30
0.0
  0
LINE
  5
1AF
330
70
100
AcDbEntity
  8
0
 62
    18
420
        0
370
    25
100
AcDbLine
 10
19.98179159090126
 20
15.28773626422507
 30
0.0
 11
19.98179159090126
 21
37.2877362642252
 31
0.0
  0
SPLINE
  5
1B0
330
70
100
AcDbEntity
  8
0
 62
    18
420
        0
370
    25
100
AcDbSpline
210
0.0
220
0.0
230
1.0
 70
     8
 71
     3
 72
     8
 73
     4
 74
     0
 42
0.0000000001
 43
0.0000000001
 40
0.0
 40
0.0
 40
0.0
 40
0.0
 40
1.0
 40
1.0
 40
1.0
 40
1.0
 10
119.9085682861981
 20
15.11095956892871
 30
0.0
 10
119.9554523808096
 20
15.15784366354093
 30
0.0
 10
119.9817915909012
 20
15.22143214176517
 30
0.0
 10
119.9817915909012
 20
15.28773626422507
 30
0.0
  0
LINE
  5
1B1
330
70
100
AcDbEntity
  8
0
 62
    18
420
        0
370
    25
100
AcDbLine
 10
119.8567915909008
 20
15.1627362642253
 30
0.0
 11
119.9085682862013
 21
15.1109595689255
 31
0.0
  0
LINE
  5
1B2
330
70
100
AcDbEntity
  8
0
 62
    18
420
        0
370
    25
100
AcDbLine
 10
119.8567915909008
 20
15.1627362642253
 30
0.0
 11
119.8567915909008
 21
37.41273626422497
 31
0.0
  0
SPLINE
  5
1B3
330
70
100
AcDbEntity
  8
0
 62
    18
420
        0
370
    25
100
AcDbSpline
210
0.0
220
0.0
230
1.0
 70
     8
 71
     3
 72
     8
 73
     4
 74
     0
 42
0.0000000001
 43
0.0000000001
 40
0.0
 40
0.0
 40
0.0
 40
0.0
 40
1.0
 40
1.0
 40
1.0
 40
1.0
 10
119.9817915909012
 20
37.2877362642252
 30
0.0
 10
119.9817915909012
 20
37.3540403866851
 30
0.0
 10
119.9554523808096
 20
37.41762886490998
 30
0.0
 10
119.9085682861974
 20
37.4645129595222
 30
0.0
  0
LINE
  5
1B4
330
70
100
AcDbEntity
  8
0
 62
    18
420
        0
370
    25
100
AcDbLine
 10
119.9817915909012
 20
37.2877362642252
 30
0.0
 11
119.9817915909012
 21
15.28773626422507
 31
0.0
  0
LINE
  5
1B5
330
70
100
AcDbEntity
  8
0
 62
    18
420
        0
370
    25
100
AcDbLine
 10
20.10679159090134
 20
15.1627362642253
 30
0.0
 11
119.8567915909008
 21
15.1627362642253
 31
0.0
  0
SPLINE
  5
1B6
330
70
100
AcDbEntity
  8
0
 62
    18
420
        0
370
    25
100
AcDbSpline
210
0.0
220
0.0
230
1.0
 70
     8
 71
     3
 72
     8
 73
     4
 74
     0
 42
0.0000000001
 43
0.0000000001
 40
0.0
 40
0.0
 40
0.0
 40
0.0
 40
1.0
 40
1.0
 40
1.0
 40
1.0
 10
119.7317915909011
 20
15.03773626422554
 30
0.0
 10
119.798095713361
 20
15.03773626422554
 30
0.0
 10
119.8616841915858
 20
15.06407547431649
 30
0.0
 10
119.9085682861981
 20
15.11095956892871
 30
0.0
  0
LINE
  5
1B7
330
70
100
AcDbEntity
  8
0
 62
    18
420
        0
370
    25
100
AcDbLine
 10
119.7317915909011
 20
15.03773626422554
 30
0.0
 11
20.23179159090111
 21
15.03773626422554
 31
0.0
  0
SPLINE
  5
1B8
330
70
100
AcDbEntity
  8
0
 62
    18
420
        0
370
    25
100
AcDbSpline
210
0.0
220
0.0
230
1.0
 70
     8
 71
     3
 72
     8
 73
     4
 74
     0
 42
0.0000000001
 43
0.0000000001
 40
0.0
 40
0.0
 40
0.0
 40
0.0
 40
1.0
 40
1.0
 40
1.0
 40
1.0
 10
20.05501489560443
 20
15.11095956892871
 30
0.0
 10
20.10189899021665
 20
15.06407547431649
 30
0.0
 10
20.16548746844121
 20
15.0377362642249
 30
0.0
 10
20.23179159090111
 20
15.0377362642249
 30
0.0
  0
LINE
  5
1B9
330
70
100
AcDbEntity
  8
0
 62
    18
420
        0
370
    25
100
AcDbLine
 10
27.94835227610136
 20
37.53773360852502
 30
0.0
 11
27.94835227610136
 21
39.5377336085251
 31
0.0
  0
LINE
  5
1BA
330
70
100
AcDbEntity
  8
0
 62
    18
420
        0
370
    25
100
AcDbLine
 10
27.68040308370107
 20
37.53773360852502
 30
0.0
 11
27.80240082370111
 21
37.53773360852502
 31
0.0
  0
LINE
  5
1BB
330
70
100
AcDbEntity
  8
0
 62
    18
420
        0
370
    25
100
AcDbLine
 10
27.68040308370107
 20
33.63556349342502
 30
0.0
 11
27.68040308370107
 21
37.53773360852502
 31
0.0
  0
LINE
  5
1BC
330
70
100
AcDbEntity
  8
0
 62
    18
420
        0
370
    25
100
AcDbLine
 10
24.21630146860128
 20
33.63556349342502
 30
0.0
 11
27.68040308370107
 21
33.63556349342502
 31
0.0
  0
LINE
  5
1BD
330
70
100
AcDbEntity
  8
0
 62
    18
420
        0
370
    25
100
AcDbLine
 10
24.21630146860128
 20
37.53773360852502
 30
0.0
 11
24.21630146860128
 21
33.63556349342502
 31
0.0
  0
LINE
  5
1BE
330
70
100
AcDbEntity
  8
0
 62
    18
420
        0
370
    25
100
AcDbLine
 10
24.09430372860124
 20
37.53773360852502
 30
0.0
 11
24.21630146860128
 21
37.53773360852502
 31
0.0
  0
LINE
  5
1BF
330
70
100
AcDbEntity
  8
0
 62
    18
420
        0
370
    25
100
AcDbLine
 10
23.94835227610121
 20
39.5377336085251
 30
0.0
 11
23.94835227610121
 21
37.53773360852502
 31
0.0
  0
LINE
  5
1C0
330
70
100
AcDbEntity
  8
0
 62
    18
420
        0
370
    25
100
AcDbLine
 10
27.94835227610136
 20
39.5377336085251
 30
0.0
 11
24.89753423710105
 21
39.5377336085251
 31
0.0
  0
SPLINE
  5
1C1
330
70
100
AcDbEntity
  8
0
 62
    18
420
        0
370
    25
100
AcDbSpline
210
0.0
220
0.0
230
1.0
 70
     8
 71
     3
 72
     8
 73
     4
 74
     0
 42
0.0000000001
 43
0.0000000001
 40
0.0
 40
0.0
 40
0.0
 40
0.0
 40
1.0
 40
1.0
 40
1.0
 40
1.0
 10
27.56895296354304
 20
33.51404521034486
 30
0.0
 10
27.63027233088326
 20
33.52289645564145
 30
0.0
 10
27.67687502022942
 20
33.57370913119787
 30
0.0
 10
27.68040308367059
 20
33.63556349339422
 30
0.0
  0
LINE
  5
1C2
330
70
100
AcDbEntity
  8
0
 62
    18
420
        0
370
    25
100
AcDbLine
 10
27.56895296360111
 20
33.51404521032561
 30
0.0
 11
24.32775158870124
 21
33.51404521032561
 31
0.0
  0
SPLINE
  5
1C3
330
70
100
AcDbEntity
  8
0
 62
    18
420
        0
370
    25
100
AcDbSpline
210
0.0
220
0.0
230
1.0
 70
     8
 71
     3
 72
     8
 73
     4
 74
     0
 42
0.0000000001
 43
0.0000000001
 40
0.0
 40
0.0
 40
0.0
 40
0.0
 40
1.0
 40
1.0
 40
1.0
 40
1.0
 10
24.216301468617
 20
33.63556349337369
 30
0.0
 10
24.21945386127799
 20
33.57355116505463
 30
0.0
 10
24.26624243415619
 20
33.52253581364945
 30
0.0
 10
24.32775158874488
 20
33.51404521032433
 30
0.0
  0
SPLINE
  5
1C4
330
70
100
AcDbEntity
  8
0
 62
    18
420
        0
370
    25
100
AcDbSpline
210
0.0
220
0.0
230
1.0
 70
     8
 71
     3
 72
     8
 73
     4
 74
     0
 42
0.0000000001
 43
0.0000000001
 40
0.0
 40
0.0
 40
0.0
 40
0.0
 40
1.0
 40
1.0
 40
1.0
 40
1.0
 10
24.32775158866594
 20
33.51404521032368
 30
0.0
 10
25.39701508326464
 20
33.29466079267929
 30
0.0
 10
26.49968946893793
 20
33.29466079267929
 30
0.0
 10
27.56895296353662
 20
33.51404521032368
 30
0.0
  0
LINE
  5
1C5
330
70
100
AcDbEntity
  8
0
 62
    18
420
        0
370
    25
100
AcDbLine
 10
115.7317915909009
 20
37.53773626422538
 30
0.0
 11
115.7317915909009
 21
39.53773626422544
 31
0.0
  0
LINE
  5
1C6
330
70
100
AcDbEntity
  8
0
 62
    18
420
        0
370
    25
100
AcDbLine
 10
115.463842398501
 20
37.53773626422538
 30
0.0
 11
115.5858412127013
 21
37.53773626422538
 31
0.0
  0
LINE
  5
1C7
330
70
100
AcDbEntity
  8
0
 62
    18
420
        0
370
    25
100
AcDbLine
 10
115.463842398501
 20
33.63556614902527
 30
0.0
 11
115.463842398501
 21
37.53773626422538
 31
0.0
  0
LINE
  5
1C8
330
70
100
AcDbEntity
  8
0
 62
    18
420
        0
370
    25
100
AcDbLine
 10
111.9997407833014
 20
33.63556614902527
 30
0.0
 11
115.463842398501
 21
33.63556614902527
 31
0.0
  0
LINE
  5
1C9
330
70
100
AcDbEntity
  8
0
 62
    18
420
        0
370
    25
100
AcDbLine
 10
111.9997407833014
 20
37.53773626422538
 30
0.0
 11
111.9997407833014
 21
33.63556614902527
 31
0.0
  0
LINE
  5
1CA
330
70
100
AcDbEntity
  8
0
 62
    18
420
        0
370
    25
100
AcDbLine
 10
111.877741969101
 20
37.53773626422538
 30
0.0
 11
111.9997407833014
 21
37.53773626422538
 31
0.0
  0
LINE
  5
1CB
330
70
100
AcDbEntity
  8
0
 62
    18
420
        0
370
    25
100
AcDbLine
 10
111.7317915909014
 20
39.53773626422544
 30
0.0
 11
111.7317915909014
 21
37.53773626422538
 31
0.0
  0
LINE
  5
1CC
330
70
100
AcDbEntity
  8
0
 62
    18
420
        0
370
    25
100
AcDbLine
 10
115.7317915909009
 20
39.53773626422544
 30
0.0
 11
112.5515440512009
 21
39.53773626422544
 31
0.0
  0
SPLINE
  5
1CD
330
70
100
AcDbEntity
  8
0
 62
    18
420
        0
370
    25
100
AcDbSpline
210
0.0
220
0.0
230
1.0
 70
     8
 71
     3
 72
     8
 73
     4
 74
     0
 42
0.0000000001
 43
0.0000000001
 40
0.0
 40
0.0
 40
0.0
 40
0.0
 40
1.0
 40
1.0
 40
1.0
 40
1.0
 10
115.3523922783433
 20
33.51404786604457
 30
0.0
 10
115.4137116456832
 20
33.52289911134116
 30
0.0
 10
115.4603143350293
 20
33.57371178689823
 30
0.0
 10
115.4638423984708
 20
33.63556614909394
 30
0.0
  0
LINE
  5
1CE
330
70
100
AcDbEntity
  8
0
 62
    18
420
        0
370
    25
100
AcDbLine
 10
115.3523922783009
 20
33.51404786602532
 30
0.0
 11
112.1111909035015
 21
33.51404786602532
 31
0.0
  0
SPLINE
  5
1CF
330
70
100
AcDbEntity
  8
0
 62
    18
420
        0
370
    25
100
AcDbSpline
210
0.0
220
0.0
230
1.0
 70
     8
 71
     3
 72
     8
 73
     4
 74
     0
 42
0.0000000001
 43
0.0000000001
 40
0.0
 40
0.0
 40
0.0
 40
0.0
 40
1.0
 40
1.0
 40
1.0
 40
1.0
 10
111.9997407833168
 20
33.63556614907404
 30
0.0
 10
112.0028931759778
 20
33.57355382075497
 30
0.0
 10
112.049681748856
 20
33.52253846934916
 30
0.0
 10
112.1111909034443
 20
33.51404786602468
 30
0.0
  0
SPLINE
  5
1D0
330
70
100
AcDbEntity
  8
0
 62
    18
420
        0
370
    25
100
AcDbSpline
210
0.0
220
0.0
230
1.0
 70
     8
 71
     3
 72
     8
 73
     4
 74
     0
 42
0.0000000001
 43
0.0000000001
 40
0.0
 40
0.0
 40
0.0
 40
0.0
 40
1.0
 40
1.0
 40
1.0
 40
1.0
 10
112.1111909034655
 20
33.51404786602404
 30
0.0
 10
113.1804543980642
 20
33.294663448379
 30
0.0
 10
114.2831287837381
 20
33.294663448379
 30
0.0
 10
115.3523922783368
 20
33.51404786602404
 30
0.0
  0
LWPOLYLINE
  5
1D1
330
70
100
AcDbEntity
  8
0
 62
     8
420
  8421504
370
    25
100
AcDbPolyline
 90
        5
 70
     0
 43
0.0
 10
119.7438379666012
 20
39.6823745063257
 10
119.743909964901
 20
39.68231170752534
 10
119.7437092476012
 20
39.68248540332528
 10
119.7424138524011
 20
39.68363522862527
 10
119.7424117393009
 20
39.68363714132541
  0
LINE
  5
1D2
330
70
100
AcDbEntity
  8
0
 62
     8
420
  8421504
370
    25
100
AcDbLine
 10
107.7197452151646
 20
39.6823745062872
 30
0.0
 11
107.7206992418328
 21
39.68320979705982
 31
0.0
  0
LINE
  5
1D3
330
70
100
AcDbEntity
  8
0
 62
     8
420
  8421504
370
    25
100
AcDbLine
 10
19.93630590039902
 20
39.68237185067733
 30
0.0
 11
19.93725992706722
 21
39.68320714144995
 31
0.0
  0
LWPOLYLINE
  5
1D4
330
70
100
AcDbEntity
  8
0
 62
     8
420
  8421504
370
    25
100
AcDbPolyline
 90
        5
 70
     0
 43
0.0
 10
31.96039865190108
 20
39.68237185062535
 10
31.96047065020122
 20
39.68230905182499
 10
31.96026993290136
 20
39.68248274762557
 10
31.95897453770133
 20
39.68363257292556
 10
31.95897242460115
 20
39.68363448562506
  0
SPLINE
  5
1D5
330
70
100
AcDbEntity
  8
0
 62
    18
420
        0
370
    25
100
AcDbSpline
210
0.0
220
0.0
230
1.0
 70
     8
 71
     3
 72
     8
 73
     4
 74
     0
 42
0.0000000001
 43
0.0000000001
 40
0.0
 40
0.0
 40
0.0
 40
0.0
 40
1.0
 40
1.0
 40
1.0
 40
1.0
 10
184.265533055743
 20
-55.00608943053785
 30
0.0
 10
184.3415994335832
 20
-55.04641902545177
 30
0.0
 10
184.4330653939436
 20
-55.04477038590103
 30
0.0
 10
184.5076289824805
 20
-55.00172574247018
 30
0.0
  0
SPLINE
  5
1D6
330
70
100
AcDbEntity
  8
0
 62
    18
420
        0
370
    25
100
AcDbSpline
210
0.0
220
0.0
230
1.0
 70
     8
 71
     3
 72
     8
 73
     4
 74
     0
 42
0.0000000001
 43
0.0000000001
 40
0.0
 40
0.0
 40
0.0
 40
0.0
 40
1.0
 40
1.0
 40
1.0
 40
1.0
 10
175.7723679250218
 20
-39.87176289767911
 30
0.0
 10
175.6950374324566
 20
-39.91640484080713
 30
0.0
 10
175.6473872177505
 20
-39.99890155525088
 30
0.0
 10
175.6473577801876
 20
-40.08819269310969
 30
0.0
  0
LINE
  5
1D7
330
70
100
AcDbEntity
  8
0
 62
    18
420
        0
370
    25
100
AcDbLine
 10
184.2637718512013
 20
-55.00410008487477
 30
0.0
 11
184.2664103748014
 21
-55.00551529427438
 31
0.0
  0
LINE
  5
1D8
330
70
100
AcDbEntity
  8
0
 62
    18
420
        0
370
    25
100
AcDbLine
 10
180.4194859804011
 20
-52.78623729757462
 30
0.0
 11
184.2607653611009
 21
-55.00299665757442
 31
0.0
  0
LWPOLYLINE
  5
1D9
330
70
100
AcDbEntity
  8
0
 62
    18
420
        0
370
    25
100
AcDbPolyline
 90
        3
 70
     0
 43
0.0
 10
175.6473765895011
 20
-40.08818672607482
 10
175.646694704701
 20
-42.38170136787497
 10
175.6472624691009
 20
-46.18656786307466
  0
LINE
  5
1DA
330
70
100
AcDbEntity
  8
0
 62
    18
420
        0
370
    25
100
AcDbLine
 10
184.5076289824009
 20
-55.00172574247468
 30
0.0
 11
185.2998203985011
 21
-54.54440337237496
 31
0.0
  0
LINE
  5
1DB
330
70
100
AcDbEntity
  8
0
 62
    18
420
        0
370
    25
100
AcDbLine
 10
176.5645593411015
 20
-39.41444052757491
 30
0.0
 11
175.7723679250013
 21
-39.87176289767461
 31
0.0
  0
SPLINE
  5
1DC
330
70
100
AcDbEntity
  8
0
 62
    18
420
        0
370
    25
100
AcDbSpline
210
0.0
220
0.0
230
1.0
 70
     8
 71
     3
 72
     8
 73
     4
 74
     0
 42
0.0000000001
 43
0.0000000001
 40
0.0
 40
0.0
 40
0.0
 40
0.0
 40
1.0
 40
1.0
 40
1.0
 40
1.0
 10
113.7001008319217
 20
-4.038208011579609
 30
0.0
 10
113.6227703393566
 20
-4.082849954706987
 30
0.0
 10
113.5751201246504
 20
-4.165346669151383
 30
0.0
 10
113.5750906870875
 20
-4.254637807009556
 30
0.0
  0
LWPOLYLINE
  5
1DD
330
70
100
AcDbEntity
  8
0
 62
    18
420
        0
370
    25
100
AcDbPolyline
 90
        3
 70
     0
 43
0.0
 10
113.575109496401
 20
-4.254631793774914
 10
113.5744276115015
 20
-6.54814648177483
 10
113.5749953756011
 20
-10.35301080877485
  0
LINE
  5
1DE
330
70
100
AcDbEntity
  8
0
 62
    18
420
        0
370
    25
100
AcDbLine
 10
114.4922922479013
 20
-3.580885641474766
 30
0.0
 11
113.7001008319012
 21
-4.038208011574475
 31
0.0
  0
LINE
  5
1DF
330
70
100
AcDbEntity
  8
0
 62
    18
420
        0
370
    25
100
AcDbLine
 10
182.7618656948013
 20
-51.43400340067469
 30
0.0
 11
182.7618656948013
 21
-50.29374775247477
 31
0.0
  0
LINE
  5
1E0
330
70
100
AcDbEntity
  8
0
 62
    18
420
        0
370
    25
100
AcDbLine
 10
96.34839178060078
 20
-18.65793341927455
 30
0.0
 11
96.34839178060078
 21
-19.79818906747446
 31
0.0
  0
LINE
  5
1E1
330
70
100
AcDbEntity
  8
0
 62
    18
420
        0
370
    25
100
AcDbLine
 10
116.7880294395009
 20
-10.03260710597461
 30
0.0
 11
112.6145649274014
 21
-12.44189688557457
 31
0.0
  0
SPLINE
  5
1E2
330
70
100
AcDbEntity
  8
0
 62
    18
420
        0
370
    25
100
AcDbSpline
210
0.0
220
0.0
230
1.0
 70
     8
 71
     3
 72
     8
 73
     4
 74
     0
 42
0.0000000001
 43
0.0000000001
 40
0.0
 40
0.0
 40
0.0
 40
0.0
 40
1.0
 40
1.0
 40
1.0
 40
1.0
 10
112.7542776638022
 20
-12.38031162823238
 30
0.0
 10
112.5848626749817
 20
-12.42439081537336
 30
0.0
 10
112.440576615099
 20
-12.53531122788198
 30
0.0
 10
112.3544248828828
 20
-12.68769985020059
 30
0.0
  0
LINE
  5
1E3
330
70
100
AcDbEntity
  8
0
 62
    18
420
        0
370
    25
100
AcDbLine
 10
178.8602965327011
 20
-45.86616199197464
 30
0.0
 11
174.6868320206009
 21
-48.27545177167471
 31
0.0
  0
SPLINE
  5
1E4
330
70
100
AcDbEntity
  8
0
 62
    18
420
        0
370
    25
100
AcDbSpline
210
0.0
220
0.0
230
1.0
 70
     8
 71
     3
 72
     8
 73
     4
 74
     0
 42
0.0000000001
 43
0.0000000001
 40
0.0
 40
0.0
 40
0.0
 40
0.0
 40
1.0
 40
1.0
 40
1.0
 40
1.0
 10
174.8265447570036
 20
-48.21386651423305
 30
0.0
 10
174.6571297681831
 20
-48.25794570137404
 30
0.0
 10
174.5128437082998
 20
-48.36886611388266
 30
0.0
 10
174.4266919760836
 20
-48.52125473620127
 30
0.0
  0
SPLINE
  5
1E5
330
70
100
AcDbEntity
  8
0
 62
    18
420
        0
370
    25
100
AcDbSpline
210
0.0
220
0.0
230
1.0
 70
     8
 71
     3
 72
     8
 73
     4
 74
     0
 42
0.0000000001
 43
0.0000000001
 40
0.0
 40
0.0
 40
0.0
 40
0.0
 40
1.0
 40
1.0
 40
1.0
 40
1.0
 10
184.5594158360673
 20
-45.08877479827115
 30
0.0
 10
184.5537402688552
 20
-44.96405226890458
 30
0.0
 10
184.487814236199
 20
-44.84986503112578
 30
0.0
 10
184.382639140785
 20
-44.78258858131348
 30
0.0
  0
SPLINE
  5
1E6
330
70
100
AcDbEntity
  8
0
 62
    18
420
        0
370
    25
100
AcDbSpline
210
0.0
220
0.0
230
1.0
 70
     8
 71
     3
 72
     8
 73
     4
 74
     0
 42
0.0000000001
 43
0.0000000001
 40
0.0
 40
0.0
 40
0.0
 40
0.0
 40
1.0
 40
1.0
 40
1.0
 40
1.0
 10
184.2060893543714
 20
-45.08004794645976
 30
0.0
 10
184.3160954592141
 20
-45.13775909813111
 30
0.0
 10
184.446694776286
 20
-45.14098478583284
 30
0.0
 10
184.5594158361135
 20
-45.08877479827115
 30
0.0
  0
SPLINE
  5
1E7
330
70
100
AcDbEntity
  8
0
 62
    18
420
        0
370
    25
100
AcDbSpline
210
0.0
220
0.0
230
1.0
 70
     8
 71
     3
 72
     8
 73
     4
 74
     0
 42
0.0000000001
 43
0.0000000001
 40
0.0
 40
0.0
 40
0.0
 40
0.0
 40
1.0
 40
1.0
 40
1.0
 40
1.0
 10
184.3826391407947
 20
-44.78258858128973
 30
0.0
 10
184.2802394769553
 20
-44.84841589365029
 30
0.0
 10
184.214825282958
 20
-44.95862879737611
 30
0.0
 10
184.2060893543355
 20
-45.08004794643539
 30
0.0
  0
LWPOLYLINE
  5
1E8
330
70
100
AcDbEntity
  8
0
 62
    18
420
        0
370
    25
100
AcDbPolyline
 90
        4
 70
     0
 43
0.0
 10
184.5594158361013
 20
-45.08877479827435
 10
184.5585614620014
 20
-48.33627594057496
 10
184.5585542960013
 20
-51.58328782247497
 10
184.5594158362014
 20
-54.88726454077466
  0
SPLINE
  5
1E9
330
70
100
AcDbEntity
  8
0
 62
    18
420
        0
370
    25
100
AcDbSpline
210
0.0
220
0.0
230
1.0
 70
     8
 71
     3
 72
     8
 73
     4
 74
     0
 42
0.0000000001
 43
0.0000000001
 40
0.0
 40
0.0
 40
0.0
 40
0.0
 40
1.0
 40
1.0
 40
1.0
 40
1.0
 10
184.2135331767799
 20
-54.89158608635585
 30
0.0
 10
184.3230706954798
 20
-54.94471282500981
 30
0.0
 10
184.4512398617325
 20
-54.94311144698155
 30
0.0
 10
184.5594158361103
 20
-54.88726454079968
 30
0.0
  0
LWPOLYLINE
  5
1EA
330
70
100
AcDbEntity
  8
0
 62
    18
420
        0
370
    25
100
AcDbPolyline
 90
        7
 70
     0
 43
0.0
 10
184.2135331768011
 20
-54.89158608637445
 10
184.2135470036014
 20
-54.48346976587458
 10
184.2136021336009
 20
-52.85093628927456
 10
184.2136552132013
 20
-49.58522201877454
 10
184.213636106201
 20
-48.34098674707441
 10
184.2135331727013
 20
-45.09294101807476
 10
184.2135330310013
 20
-45.08864593857475
  0
SPLINE
  5
1EB
330
70
100
AcDbEntity
  8
0
 62
    18
420
        0
370
    25
100
AcDbSpline
210
0.0
220
0.0
230
1.0
 70
     8
 71
     3
 72
     8
 73
     4
 74
     0
 42
0.0000000001
 43
0.0000000001
 40
0.0
 40
0.0
 40
0.0
 40
0.0
 40
1.0
 40
1.0
 40
1.0
 40
1.0
 10
184.213533030984
 20
-45.08864593864276
 30
0.0
 10
184.3222027914033
 20
-45.14387329023961
 30
0.0
 10
184.4507049555999
 20
-45.14392116408479
 30
0.0
 10
184.5594158360609
 20
-45.08877479826153
 30
0.0
  0
SPLINE
  5
1EC
330
70
100
AcDbEntity
  8
0
 62
    18
420
        0
370
    25
100
AcDbSpline
210
0.0
220
0.0
230
1.0
 70
     8
 71
     3
 72
     8
 73
     4
 74
     0
 42
0.0000000001
 43
0.0000000001
 40
0.0
 40
0.0
 40
0.0
 40
0.0
 40
1.0
 40
1.0
 40
1.0
 40
1.0
 10
184.2135330309827
 20
-45.08864593864597
 30
0.0
 10
184.211103588501
 20
-45.08730572662483
 30
0.0
 10
184.208141460922
 20
-45.08737392680622
 30
0.0
 10
184.2057762743313
 20
-45.08882453061985
 30
0.0
  0
LWPOLYLINE
  5
1ED
330
70
100
AcDbEntity
  8
0
 62
    18
420
        0
370
    25
100
AcDbPolyline
 90
        5
 70
     0
 43
0.0
 10
184.2057762743011
 20
-45.08882453057493
 10
184.2057767197012
 20
-45.08881203147441
 10
184.2059329452012
 20
-45.08443003707494
 10
184.2060111268013
 20
-45.0822390037745
 10
184.2060893543015
 20
-45.08004794647452
  0
LWPOLYLINE
  5
1EE
330
70
100
AcDbEntity
  8
0
 62
    18
420
        0
370
    25
100
AcDbPolyline
 90
        4
 70
     0
 43
0.0
 10
180.857115918701
 20
-47.02257645427476
 10
181.908959588401
 20
-46.41516582337492
 10
183.0909795011013
 20
-45.73258453627491
 10
184.2057762743011
 20
-45.08882453057493
  0
LWPOLYLINE
  5
1EF
330
70
100
AcDbEntity
  8
0
 62
    18
420
        0
370
    25
100
AcDbPolyline
 90
        5
 70
     0
 43
0.0
 10
184.2057762743011
 20
-54.88747650667495
 10
184.2057873210012
 20
-54.88748235977487
 10
184.2096601613013
 20
-54.88953427767491
 10
184.2115966471009
 20
-54.89056019567491
 10
184.2135331768011
 20
-54.89158608637445
  0
LWPOLYLINE
  5
1F0
330
70
100
AcDbEntity
  8
0
 62
    18
420
        0
370
    25
100
AcDbPolyline
 90
        3
 70
     0
 43
0.0
 10
182.2854217997012
 20
-51.70905547757439
 10
182.4558946541013
 20
-51.99484612527453
 10
184.2057762743011
 20
-54.88747650667495
  0
LWPOLYLINE
  5
1F1
330
70
100
AcDbEntity
  8
0
 62
    18
420
        0
370
    25
100
AcDbPolyline
 90
        5
 70
     0
 43
0.0
 10
184.2060893543008
 20
-45.08004794647452
 10
183.8524093758009
 20
-44.87585699567462
 10
182.4377476654009
 20
-44.05912626027442
 10
181.2000079796013
 20
-43.34454948427478
 10
179.962438131501
 20
-42.63009765077495
  0
SPLINE
  5
1F2
330
70
100
AcDbEntity
  8
0
 62
    18
420
        0
370
    25
100
AcDbSpline
210
0.0
220
0.0
230
1.0
 70
     8
 71
     3
 72
     8
 73
     4
 74
     0
 42
0.0000000001
 43
0.0000000001
 40
0.0
 40
0.0
 40
0.0
 40
0.0
 40
1.0
 40
1.0
 40
1.0
 40
1.0
 10
180.1390065979976
 20
-42.33393683188604
 30
0.0
 10
180.0369678558887
 20
-42.39950963676668
 30
0.0
 10
179.9715998260443
 20
-42.50915236985787
 30
0.0
 10
179.9624381314522
 20
-42.63009765080447
 30
0.0
  0
LWPOLYLINE
  5
1F3
330
70
100
AcDbEntity
  8
0
 62
    18
420
        0
370
    25
100
AcDbPolyline
 90
        4
 70
     0
 43
0.0
 10
180.1390065980008
 20
-42.3339368318745
 10
182.1526090288014
 20
-43.49605874777452
 10
183.2675868619014
 20
-44.13934516727497
 10
184.3826391408011
 20
-44.78258858127498
  0
SPLINE
  5
1F4
330
70
100
AcDbEntity
  8
0
 62
    18
420
        0
370
    25
100
AcDbSpline
210
0.0
220
0.0
230
1.0
 70
     8
 71
     3
 72
     8
 73
     4
 74
     0
 42
0.0000000001
 43
0.0000000001
 40
0.0
 40
0.0
 40
0.0
 40
0.0
 40
1.0
 40
1.0
 40
1.0
 40
1.0
 10
185.3516072522432
 20
-44.63145242810919
 30
0.0
 10
185.3459316850119
 20
-44.50672989874713
 30
0.0
 10
185.2800056523537
 20
-44.39254266097666
 30
0.0
 10
185.1748305569462
 20
-44.32526621115987
 30
0.0
  0
LINE
  5
1F5
330
70
100
AcDbEntity
  8
0
 62
    18
420
        0
370
    25
100
AcDbLine
 10
185.3516072522009
 20
-44.63145242807454
 30
0.0
 11
184.5594158361013
 21
-45.08877479827435
 31
0.0
  0
LINE
  5
1F6
330
70
100
AcDbEntity
  8
0
 62
    18
420
        0
370
    25
100
AcDbLine
 10
184.3826391408011
 20
-44.78258858127498
 30
0.0
 11
185.1748305569013
 21
-44.32526621117463
 31
0.0
  0
SPLINE
  5
1F7
330
70
100
AcDbEntity
  8
0
 62
    18
420
        0
370
    25
100
AcDbSpline
210
0.0
220
0.0
230
1.0
 70
     8
 71
     3
 72
     8
 73
     4
 74
     0
 42
0.0000000001
 43
0.0000000001
 40
0.0
 40
0.0
 40
0.0
 40
0.0
 40
1.0
 40
1.0
 40
1.0
 40
1.0
 10
175.720354409607
 20
-40.19029475636076
 30
0.0
 10
176.7574864773202
 20
-42.09543938033648
 30
0.0
 10
177.8121099444262
 20
-43.99100977235637
 30
0.0
 10
178.8840911356977
 20
-45.87676566581177
 30
0.0
  0
LWPOLYLINE
  5
1F8
330
70
100
AcDbEntity
  8
0
 62
    18
420
        0
370
    25
100
AcDbPolyline
 90
        3
 70
     0
 43
0.0
 10
179.9620252518011
 20
-42.64016007457477
 10
179.9622563634012
 20
-42.63452516997438
 10
179.962438131501
 20
-42.63009765077495
  0
LWPOLYLINE
  5
1F9
330
70
100
AcDbEntity
  8
0
 62
    18
420
        0
370
    25
100
AcDbPolyline
 90
        5
 70
     0
 43
0.0
 10
184.2057762743011
 20
-45.08882453057493
 10
183.100506320301
 20
-44.45124570687489
 10
181.9953115094009
 20
-43.81362347547478
 10
180.978601677001
 20
-43.22693030227447
 10
179.9620252518011
 20
-42.64016007457477
  0
LINE
  5
1FA
330
70
100
AcDbEntity
  8
0
 62
    18
420
        0
370
    25
100
AcDbLine
 10
185.3516072522009
 20
-54.42994217067495
 30
0.0
 11
185.3516072522009
 21
-44.63145242807454
 31
0.0
  0
LINE
  5
1FB
330
70
100
AcDbEntity
  8
0
 62
    18
420
        0
370
    25
100
AcDbLine
 10
184.5594158362014
 20
-54.88726454077466
 30
0.0
 11
185.3516072522009
 21
-54.42994217067495
 31
0.0
  0
LINE
  5
1FC
330
70
100
AcDbEntity
  8
0
 62
    18
420
        0
370
    25
100
AcDbLine
 10
185.1748305569013
 20
-44.32526621117463
 30
0.0
 11
176.6895491827013
 21
-39.42681754017458
 31
0.0
  0
LWPOLYLINE
  5
1FD
330
70
100
AcDbEntity
  8
0
 62
    18
420
        0
370
    25
100
AcDbPolyline
 90
        4
 70
     0
 43
0.0
 10
175.897357766501
 20
-39.8841399103744
 10
177.9100168442015
 20
-41.04679847667461
 10
179.0244370056012
 20
-41.69041077357487
 10
180.1390065980008
 20
-42.3339368318745
  0
LINE
  5
1FE
330
70
100
AcDbEntity
  8
0
 62
    18
420
        0
370
    25
100
AcDbLine
 10
176.6895491827013
 20
-39.42681754017458
 30
0.0
 11
175.897357766501
 21
-39.8841399103744
 31
0.0
  0
LWPOLYLINE
  5
1FF
330
70
100
AcDbEntity
  8
0
 62
    18
420
        0
370
    25
100
AcDbPolyline
 90
        6
 70
     0
 43
0.0
 10
179.962438131501
 20
-42.63009765077495
 10
179.6088931583011
 20
-42.42600204427478
 10
178.194867791801
 20
-41.60973583327492
 10
176.9577235377014
 20
-40.89559914277496
 10
175.7206734706011
 20
-40.18152162477444
 10
175.7169567994015
 20
-40.1793762004745
  0
SPLINE
  5
200
330
70
100
AcDbEntity
  8
0
 62
    18
420
        0
370
    25
100
AcDbSpline
210
0.0
220
0.0
230
1.0
 70
     8
 71
     3
 72
     8
 73
     4
 74
     0
 42
0.0000000001
 43
0.0000000001
 40
0.0
 40
0.0
 40
0.0
 40
0.0
 40
1.0
 40
1.0
 40
1.0
 40
1.0
 10
175.8973577682201
 20
-39.88413991131641
 30
0.0
 10
175.792040000169
 20
-39.94660190134341
 30
0.0
 10
175.7244843321011
 20
-40.05716053570364
 30
0.0
 10
175.7169567993803
 20
-40.17937620047964
 30
0.0
  0
SPLINE
  5
201
330
70
100
AcDbEntity
  8
0
 62
    18
420
        0
370
    25
100
AcDbSpline
210
0.0
220
0.0
230
1.0
 70
     8
 71
     3
 72
     8
 73
     4
 74
     0
 42
0.0000000001
 43
0.0000000001
 40
0.0
 40
0.0
 40
0.0
 40
0.0
 40
1.0
 40
1.0
 40
1.0
 40
1.0
 10
175.7169567994028
 20
-40.17937620041098
 30
0.0
 10
175.7171648601634
 20
-40.18324142954372
 30
0.0
 10
175.7183325568887
 20
-40.18699393834232
 30
0.0
 10
175.7203544094742
 20
-40.19029475606749
 30
0.0
  0
LWPOLYLINE
  5
202
330
70
100
AcDbEntity
  8
0
 62
    18
420
        0
370
    25
100
AcDbPolyline
 90
        5
 70
     0
 43
0.0
 10
179.9620252518011
 20
-42.64016007457477
 10
178.8572593850011
 20
-42.00229015947484
 10
177.7526480652013
 20
-41.36433105457472
 10
176.7364708972014
 20
-40.77733041157484
 10
175.720354409401
 20
-40.19029475607456
  0
LWPOLYLINE
  5
203
330
70
100
AcDbEntity
  8
0
 62
    18
420
        0
370
    25
100
AcDbPolyline
 90
        5
 70
     0
 43
0.0
 10
175.720354409401
 20
-40.19029475607456
 10
175.7203442620011
 20
-40.19028838397486
 10
175.716786859801
 20
-40.18805436747494
 10
175.7150082303011
 20
-40.1869373208748
 10
175.7132296485013
 20
-40.18582024887493
  0
SPLINE
  5
204
330
70
100
AcDbEntity
  8
0
 62
    18
420
        0
370
    25
100
AcDbSpline
210
0.0
220
0.0
230
1.0
 70
     8
 71
     3
 72
     8
 73
     4
 74
     0
 42
0.0000000001
 43
0.0000000001
 40
0.0
 40
0.0
 40
0.0
 40
0.0
 40
1.0
 40
1.0
 40
1.0
 40
1.0
 10
184.2098087303627
 20
-54.89802857312135
 30
0.0
 10
184.2093029236542
 20
-54.89424562668984
 30
0.0
 10
184.2079222377123
 20
-54.89063266978045
 30
0.0
 10
184.2057762743608
 20
-54.88747650669419
 30
0.0
  0
SPLINE
  5
205
330
70
100
AcDbEntity
  8
0
 62
    18
420
        0
370
    25
100
AcDbSpline
210
0.0
220
0.0
230
1.0
 70
     8
 71
     3
 72
     8
 73
     4
 74
     0
 42
0.0000000001
 43
0.0000000001
 40
0.0
 40
0.0
 40
0.0
 40
0.0
 40
1.0
 40
1.0
 40
1.0
 40
1.0
 10
175.8973577665998
 20
-39.884139910393
 30
0.0
 10
175.7889174854734
 20
-39.94709518539782
 30
0.0
 10
175.7196441760264
 20
-40.06059439271576
 30
0.0
 10
175.7132296485481
 20
-40.18582024890766
 30
0.0
  0
SPLINE
  5
206
330
70
100
AcDbEntity
  8
0
 62
    18
420
        0
370
    25
100
AcDbSpline
210
0.0
220
0.0
230
1.0
 70
     8
 71
     3
 72
     8
 73
     4
 74
     0
 42
0.0000000001
 43
0.0000000001
 40
0.0
 40
0.0
 40
0.0
 40
0.0
 40
1.0
 40
1.0
 40
1.0
 40
1.0
 10
184.2135331768396
 20
-54.89158608633531
 30
0.0
 10
184.2079970104531
 20
-54.93648915376387
 30
0.0
 10
184.2280790551765
 20
-54.98070966595674
 30
0.0
 10
184.2655330557148
 20
-55.00608943046469
 30
0.0
  0
LWPOLYLINE
  5
207
330
70
100
AcDbEntity
  8
0
 62
    18
420
        0
370
    25
100
AcDbPolyline
 90
        4
 70
     0
 43
0.0
 10
184.2645876454014
 20
-55.00239556727476
 10
184.2522574553013
 20
-54.99793732507438
 10
184.2219804531012
 20
-54.95770408907493
 10
184.2098087303011
 20
-54.89802857307449
  0
SPLINE
  5
208
330
70
100
AcDbEntity
  8
0
 62
    18
420
        0
370
    25
100
AcDbSpline
210
0.0
220
0.0
230
1.0
 70
     8
 71
     3
 72
     8
 73
     4
 74
     0
 42
0.0000000001
 43
0.0000000001
 40
0.0
 40
0.0
 40
0.0
 40
0.0
 40
1.0
 40
1.0
 40
1.0
 40
1.0
 10
185.2998203985165
 20
-54.54440337232298
 30
0.0
 10
185.3372931160689
 20
-54.51907404740463
 30
0.0
 10
185.3573198335299
 20
-54.47481026266889
 30
0.0
 10
185.3516072522343
 20
-54.42994217070575
 30
0.0
  0
SPLINE
  5
209
330
70
100
AcDbEntity
  8
0
 62
    18
420
        0
370
    25
100
AcDbSpline
210
0.0
220
0.0
230
1.0
 70
     8
 71
     3
 72
     8
 73
     4
 74
     0
 42
0.0000000001
 43
0.0000000001
 40
0.0
 40
0.0
 40
0.0
 40
0.0
 40
1.0
 40
1.0
 40
1.0
 40
1.0
 10
176.6895491827135
 20
-39.42681754019512
 30
0.0
 10
176.6530773689279
 20
-39.40068935841285
 30
0.0
 10
176.6054472244982
 20
-39.39597282392167
 30
0.0
 10
176.5645593411342
 20
-39.41444052757106
 30
0.0
  0
SPLINE
  5
20A
330
70
100
AcDbEntity
  8
0
 62
    18
420
        0
370
    25
100
AcDbSpline
210
0.0
220
0.0
230
1.0
 70
     8
 71
     3
 72
     8
 73
     4
 74
     0
 42
0.0000000001
 43
0.0000000001
 40
0.0
 40
0.0
 40
0.0
 40
0.0
 40
1.0
 40
1.0
 40
1.0
 40
1.0
 10
122.1338222580269
 20
-9.246493054557381
 30
0.0
 10
122.2438283630364
 20
-9.304204208191682
 30
0.0
 10
122.3744276810966
 20
-9.307429898018728
 30
0.0
 10
122.4871487428665
 20
-9.255219912128657
 30
0.0
  0
SPLINE
  5
20B
330
70
100
AcDbEntity
  8
0
 62
    18
420
        0
370
    25
100
AcDbSpline
210
0.0
220
0.0
230
1.0
 70
     8
 71
     3
 72
     8
 73
     4
 74
     0
 42
0.0000000001
 43
0.0000000001
 40
0.0
 40
0.0
 40
0.0
 40
0.0
 40
1.0
 40
1.0
 40
1.0
 40
1.0
 10
122.3103720477376
 20
-8.949033695198581
 30
0.0
 10
122.2079723836146
 20
-9.014861005080888
 30
0.0
 10
122.1425581883833
 20
-9.125073906790493
 30
0.0
 10
122.133822258111
 20
-9.246493054625402
 30
0.0
  0
SPLINE
  5
20C
330
70
100
AcDbEntity
  8
0
 62
    18
420
        0
370
    25
100
AcDbSpline
210
0.0
220
0.0
230
1.0
 70
     8
 71
     3
 72
     8
 73
     4
 74
     0
 42
0.0000000001
 43
0.0000000001
 40
0.0
 40
0.0
 40
0.0
 40
0.0
 40
1.0
 40
1.0
 40
1.0
 40
1.0
 10
122.4871487428909
 20
-9.255219912178068
 30
0.0
 10
122.4814731757718
 20
-9.130497382791615
 30
0.0
 10
122.4155471431259
 20
-9.016310144969812
 30
0.0
 10
122.3103720476779
 20
-8.949033695180613
 30
0.0
  0
LINE
  5
20D
330
70
100
AcDbEntity
  8
0
 62
    18
420
        0
370
    25
100
AcDbLine
 10
122.133509181201
 20
-9.255269644474788
 30
0.0
 11
122.1338222581014
 21
-9.246493054574708
 31
0.0
  0
SPLINE
  5
20E
330
70
100
AcDbEntity
  8
0
 62
    18
420
        0
370
    25
100
AcDbSpline
210
0.0
220
0.0
230
1.0
 70
     8
 71
     3
 72
     8
 73
     4
 74
     0
 42
0.0000000001
 43
0.0000000001
 40
0.0
 40
0.0
 40
0.0
 40
0.0
 40
1.0
 40
1.0
 40
1.0
 40
1.0
 10
122.1412659378031
 20
-9.255091053015558
 30
0.0
 10
122.2499356985541
 20
-9.310318402596182
 30
0.0
 10
122.3784378615142
 20
-9.310366277110656
 30
0.0
 10
122.4871487428787
 20
-9.255219914436207
 30
0.0
  0
SPLINE
  5
20F
330
70
100
AcDbEntity
  8
0
 62
    18
420
        0
370
    25
100
AcDbSpline
210
0.0
220
0.0
230
1.0
 70
     8
 71
     3
 72
     8
 73
     4
 74
     0
 42
0.0000000001
 43
0.0000000001
 40
0.0
 40
0.0
 40
0.0
 40
0.0
 40
1.0
 40
1.0
 40
1.0
 40
1.0
 10
122.1412659378493
 20
-9.255091052980906
 30
0.0
 10
122.1388399933307
 20
-9.253736658836031
 30
0.0
 10
122.135870221003
 20
-9.253805034842955
 30
0.0
 10
122.1335091811978
 20
-9.255269644465164
 30
0.0
  0
LWPOLYLINE
  5
210
330
70
100
AcDbEntity
  8
0
 62
    18
420
        0
370
    25
100
AcDbPolyline
 90
        4
 70
     0
 43
0.0
 10
113.8250906734009
 20
-4.050585024274894
 10
116.636075324801
 20
-5.674318361674406
 10
119.4479070302014
 20
-7.297562527374753
 10
122.310372047701
 20
-8.949033695174838
  0
LWPOLYLINE
  5
211
330
70
100
AcDbEntity
  8
0
 62
    18
420
        0
370
    25
100
AcDbPolyline
 90
        7
 70
     0
 43
0.0
 10
122.1338222581014
 20
-9.246493054574708
 10
121.7801424254012
 20
-9.042302042774897
 10
120.3654819833014
 20
-8.225572206774929
 10
117.5366925050011
 20
-6.592485438474805
 10
116.459466695301
 20
-5.970638302574649
 10
113.6484063767009
 20
-4.347966739074719
 10
113.6446897063014
 20
-4.345821314774787
  0
SPLINE
  5
212
330
70
100
AcDbEntity
  8
0
 62
    18
420
        0
370
    25
100
AcDbSpline
210
0.0
220
0.0
230
1.0
 70
     8
 71
     3
 72
     8
 73
     4
 74
     0
 42
0.0000000001
 43
0.0000000001
 40
0.0
 40
0.0
 40
0.0
 40
0.0
 40
1.0
 40
1.0
 40
1.0
 40
1.0
 10
113.8250906733868
 20
-4.050585024227409
 30
0.0
 10
113.7197729146493
 20
-4.113047024093575
 30
0.0
 10
113.6522172504514
 20
-4.223605653699467
 30
0.0
 10
113.6446897062783
 20
-4.345821314772862
 30
0.0
  0
LWPOLYLINE
  5
213
330
70
100
AcDbEntity
  8
0
 62
    18
420
        0
370
    25
100
AcDbPolyline
 90
        5
 70
     0
 43
0.0
 10
118.784848821401
 20
-11.18902155867491
 10
118.9414276289013
 20
-11.09860129827488
 10
119.6487813710012
 20
-10.69012422187501
 10
120.3836275609011
 20
-10.26577196017437
 10
122.133509181201
 20
-9.255269644474788
  0
SPLINE
  5
214
330
70
100
AcDbEntity
  8
0
 62
    18
420
        0
370
    25
100
AcDbSpline
210
0.0
220
0.0
230
1.0
 70
     8
 71
     3
 72
     8
 73
     4
 74
     0
 42
0.0000000001
 43
0.0000000001
 40
0.0
 40
0.0
 40
0.0
 40
0.0
 40
1.0
 40
1.0
 40
1.0
 40
1.0
 10
113.6480873162099
 20
-4.356739869923078
 30
0.0
 10
114.682259385744
 20
-6.263398141697656
 30
0.0
 10
115.7365064221117
 20
-8.159099159381256
 30
0.0
 10
116.8106526263729
 20
-10.04352680898837
 30
0.0
  0
SPLINE
  5
215
330
70
100
AcDbEntity
  8
0
 62
    18
420
        0
370
    25
100
AcDbSpline
210
0.0
220
0.0
230
1.0
 70
     8
 71
     3
 72
     8
 73
     4
 74
     0
 42
0.0000000001
 43
0.0000000001
 40
0.0
 40
0.0
 40
0.0
 40
0.0
 40
1.0
 40
1.0
 40
1.0
 40
1.0
 10
113.6446897062693
 20
-4.345821314801097
 30
0.0
 10
113.6449034012527
 20
-4.349685529614282
 30
0.0
 10
113.6460706785989
 20
-4.353436690620313
 30
0.0
 10
113.6480873162753
 20
-4.356739870020617
 30
0.0
  0
SPLINE
  5
216
330
70
100
AcDbEntity
  8
0
 62
    18
420
        0
370
    25
100
AcDbSpline
210
0.0
220
0.0
230
1.0
 70
     8
 71
     3
 72
     8
 73
     4
 74
     0
 42
0.0000000001
 43
0.0000000001
 40
0.0
 40
0.0
 40
0.0
 40
0.0
 40
1.0
 40
1.0
 40
1.0
 40
1.0
 10
123.2793401590431
 20
-8.797897542009057
 30
0.0
 10
123.2736645918124
 20
-8.673175012646987
 30
0.0
 10
123.2077385591536
 20
-8.558987774876522
 30
0.0
 10
123.1025634637461
 20
-8.49171132506037
 30
0.0
  0
LINE
  5
217
330
70
100
AcDbEntity
  8
0
 62
    18
420
        0
370
    25
100
AcDbLine
 10
123.2793401590013
 20
-8.797897541974405
 30
0.0
 11
122.4871487429011
 21
-9.25521991217486
 31
0.0
  0
LINE
  5
218
330
70
100
AcDbEntity
  8
0
 62
    18
420
        0
370
    25
100
AcDbLine
 10
122.310372047701
 20
-8.949033695174838
 30
0.0
 11
123.1025634637012
 21
-8.491711325074488
 31
0.0
  0
LINE
  5
219
330
70
100
AcDbEntity
  8
0
 62
    18
420
        0
370
    25
100
AcDbLine
 10
123.2793401590013
 20
-15.95520980607457
 30
0.0
 11
123.2793401590013
 21
-8.797897541974405
 31
0.0
  0
LINE
  5
21A
330
70
100
AcDbEntity
  8
0
 62
    18
420
        0
370
    25
100
AcDbLine
 10
123.1025634637012
 20
-8.491711325074488
 30
0.0
 11
114.6172820895011
 21
-3.593262654074439
 31
0.0
  0
LINE
  5
21B
330
70
100
AcDbEntity
  8
0
 62
    18
420
        0
370
    25
100
AcDbLine
 10
114.6172820895011
 20
-3.593262654074439
 30
0.0
 11
113.8250906734009
 21
-4.050585024274894
 31
0.0
  0
LINE
  5
21C
330
70
100
AcDbEntity
  8
0
 62
    18
420
        0
370
    25
100
AcDbLine
 10
113.648087316301
 20
-4.35673987007452
 30
0.0
 11
113.6409625553011
 21
-4.352265362774791
 31
0.0
  0
SPLINE
  5
21D
330
70
100
AcDbEntity
  8
0
 62
    18
420
        0
370
    25
100
AcDbSpline
210
0.0
220
0.0
230
1.0
 70
     8
 71
     3
 72
     8
 73
     4
 74
     0
 42
0.0000000001
 43
0.0000000001
 40
0.0
 40
0.0
 40
0.0
 40
0.0
 40
1.0
 40
1.0
 40
1.0
 40
1.0
 10
113.8250906733624
 20
-4.050585024286445
 30
0.0
 10
113.7166503922463
 20
-4.113540299296388
 30
0.0
 10
113.6473770828069
 20
-4.227039506608563
 30
0.0
 10
113.6409625553242
 20
-4.3522653627934
 30
0.0
  0
SPLINE
  5
21E
330
70
100
AcDbEntity
  8
0
 62
    18
420
        0
370
    25
100
AcDbSpline
210
0.0
220
0.0
230
1.0
 70
     8
 71
     3
 72
     8
 73
     4
 74
     0
 42
0.0000000001
 43
0.0000000001
 40
0.0
 40
0.0
 40
0.0
 40
0.0
 40
1.0
 40
1.0
 40
1.0
 40
1.0
 10
114.6172820895139
 20
-3.593262654094973
 30
0.0
 10
114.5808102757284
 20
-3.567134472312708
 30
0.0
 10
114.533180131298
 20
-3.562417937821528
 30
0.0
 10
114.492292247934
 20
-3.580885641471558
 30
0.0
  0
SPLINE
  5
21F
330
70
100
AcDbEntity
  8
0
 62
    18
420
        0
370
    25
100
AcDbSpline
210
0.0
220
0.0
230
1.0
 70
     8
 71
     3
 72
     8
 73
     4
 74
     0
 42
0.0000000001
 43
0.0000000001
 40
0.0
 40
0.0
 40
0.0
 40
0.0
 40
1.0
 40
1.0
 40
1.0
 40
1.0
 10
166.9555165086827
 20
-59.41855891056201
 30
0.0
 10
167.0070968305635
 20
-59.45551793081007
 30
0.0
 10
167.0744620158043
 20
-59.46219394723112
 30
0.0
 10
167.132293203979
 20
-59.43607781318982
 30
0.0
  0
LINE
  5
220
330
70
100
AcDbEntity
  8
0
 62
    18
420
        0
370
    25
100
AcDbLine
 10
167.1322932040008
 20
-59.43607781317441
 30
0.0
 11
167.1322932040008
 21
-60.45675382797487
 31
0.0
  0
LWPOLYLINE
  5
221
330
70
100
AcDbEntity
  8
0
 62
    18
420
        0
370
    25
100
AcDbPolyline
 90
        5
 70
     0
 43
0.0
 10
167.1322932040008
 20
-60.45675382797487
 10
167.0944090669014
 20
-60.47862451227449
 10
167.0511873668014
 20
-60.50357775647446
 10
167.0042890892011
 20
-60.53065462157467
 10
166.9555165087013
 20
-60.55881455867465
  0
LWPOLYLINE
  5
222
330
70
100
AcDbEntity
  8
0
 62
    18
420
        0
370
    25
100
AcDbPolyline
 90
        5
 70
     0
 43
0.0
 10
166.9555165087013
 20
-60.55881455867465
 10
166.9067439282015
 20
-60.53065462157467
 10
166.8598456506012
 20
-60.50357775647446
 10
166.8166239504011
 20
-60.47862451227449
 10
166.7787398134011
 20
-60.45675382797487
  0
LINE
  5
223
330
70
100
AcDbEntity
  8
0
 62
    18
420
        0
370
    25
100
AcDbLine
 10
166.7787398134011
 20
-60.45675382797487
 30
0.0
 11
166.7787398134011
 21
-59.43607781317441
 31
0.0
  0
SPLINE
  5
224
330
70
100
AcDbEntity
  8
0
 62
    18
420
        0
370
    25
100
AcDbSpline
210
0.0
220
0.0
230
1.0
 70
     8
 71
     3
 72
     8
 73
     4
 74
     0
 42
0.0000000001
 43
0.0000000001
 40
0.0
 40
0.0
 40
0.0
 40
0.0
 40
1.0
 40
1.0
 40
1.0
 40
1.0
 10
166.7787398134235
 20
-59.43607781318982
 30
0.0
 10
166.8365710015983
 20
-59.46219394723176
 30
0.0
 10
166.903936186839
 20
-59.45551793081007
 30
0.0
 10
166.9555165087199
 20
-59.41855891056201
 30
0.0
  0
LINE
  5
225
330
70
100
AcDbEntity
  8
0
 62
    18
420
        0
370
    25
100
AcDbLine
 10
96.42161508530074
 20
-18.61565563447486
 30
0.0
 11
166.9555165087013
 21
-59.33401021167466
 31
0.0
  0
LINE
  5
226
330
70
100
AcDbEntity
  8
0
 62
    18
420
        0
370
    25
100
AcDbLine
 10
166.9555165087013
 20
-59.33401021167466
 30
0.0
 11
166.9555165087013
 21
-59.41855891047474
 31
0.0
  0
LINE
  5
227
330
70
100
AcDbEntity
  8
0
 62
    18
420
        0
370
    25
100
AcDbLine
 10
166.7787398134011
 20
-59.43607781317441
 30
0.0
 11
96.42161508530074
 21
-18.81977424997449
 31
0.0
  0
SPLINE
  5
228
330
70
100
AcDbEntity
  8
0
 62
    18
420
        0
370
    25
100
AcDbSpline
210
0.0
220
0.0
230
1.0
 70
     8
 71
     3
 72
     8
 73
     4
 74
     0
 42
0.0000000001
 43
0.0000000001
 40
0.0
 40
0.0
 40
0.0
 40
0.0
 40
1.0
 40
1.0
 40
1.0
 40
1.0
 10
96.34839178065341
 20
-18.65793341936503
 30
0.0
 10
96.3421759118724
 20
-18.72108083306925
 30
0.0
 10
96.37008008302954
 20
-18.78275565445179
 30
0.0
 10
96.42161508535657
 20
-18.81977425001428
 30
0.0
  0
LINE
  5
229
330
70
100
AcDbEntity
  8
0
 62
    18
420
        0
370
    25
100
AcDbLine
 10
96.34839178060078
 20
-18.65793341927455
 30
0.0
 11
96.42161508530074
 21
-18.61565563447486
 31
0.0
  0
LINE
  5
22A
330
70
100
AcDbEntity
  8
0
 62
    18
420
        0
370
    25
100
AcDbLine
 10
166.9555165087013
 20
-59.33401021167466
 30
0.0
 11
182.6886423901013
 21
-50.25146996767444
 31
0.0
  0
LINE
  5
22B
330
70
100
AcDbEntity
  8
0
 62
    18
420
        0
370
    25
100
AcDbLine
 10
182.6886423901013
 20
-50.25146996767444
 30
0.0
 11
182.7618656948013
 21
-50.29374775247477
 31
0.0
  0
SPLINE
  5
22C
330
70
100
AcDbEntity
  8
0
 62
    18
420
        0
370
    25
100
AcDbSpline
210
0.0
220
0.0
230
1.0
 70
     8
 71
     3
 72
     8
 73
     4
 74
     0
 42
0.0000000001
 43
0.0000000001
 40
0.0
 40
0.0
 40
0.0
 40
0.0
 40
1.0
 40
1.0
 40
1.0
 40
1.0
 10
182.6886423900461
 20
-50.4555885831144
 30
0.0
 10
182.7401773923732
 20
-50.4185699875519
 30
0.0
 10
182.7680815635297
 20
-50.35689516616937
 30
0.0
 10
182.7618656947493
 20
-50.29374775246514
 30
0.0
  0
LINE
  5
22D
330
70
100
AcDbEntity
  8
0
 62
    18
420
        0
370
    25
100
AcDbLine
 10
182.6886423901013
 20
-50.45558858307461
 30
0.0
 11
167.1322932040008
 21
-59.43607781317441
 31
0.0
  0
LINE
  5
22E
330
70
100
AcDbEntity
  8
0
 62
    18
420
        0
370
    25
100
AcDbLine
 10
112.1547409667014
 20
-9.533115390474629
 30
0.0
 11
96.42161508530074
 21
-18.61565563447486
 31
0.0
  0
LINE
  5
22F
330
70
100
AcDbEntity
  8
0
 62
    18
420
        0
370
    25
100
AcDbLine
 10
182.6886423901013
 20
-50.25146996767444
 30
0.0
 11
179.493955512301
 21
-48.40721648917451
 31
0.0
  0
LINE
  5
230
330
70
100
AcDbEntity
  8
0
 62
    18
420
        0
370
    25
100
AcDbLine
 10
176.9762698082014
 20
-46.95378746927477
 30
0.0
 11
117.421690297001
 21
-12.57366051897453
 31
0.0
  0
LINE
  5
231
330
70
100
AcDbEntity
  8
0
 62
    18
420
        0
370
    25
100
AcDbLine
 10
114.9040045929013
 20
-11.1202314991749
 30
0.0
 11
112.1547409667014
 21
-9.533115390474629
 31
0.0
  0
LINE
  5
232
330
70
100
AcDbEntity
  8
0
 62
    18
420
        0
370
    25
100
AcDbLine
 10
182.6886423901013
 20
-51.47626459797453
 30
0.0
 11
182.6886423901013
 21
-50.45558858307461
 31
0.0
  0
LINE
  5
233
330
70
100
AcDbEntity
  8
0
 62
    18
420
        0
370
    25
100
AcDbLine
 10
167.1322932040008
 20
-60.45675382797487
 30
0.0
 11
182.6886423901013
 21
-51.47626459797453
 31
0.0
  0
LINE
  5
234
330
70
100
AcDbEntity
  8
0
 62
    18
420
        0
370
    25
100
AcDbLine
 10
96.42161508530074
 20
-19.84045026487441
 30
0.0
 11
166.7787398134011
 21
-60.45675382797487
 31
0.0
  0
LINE
  5
235
330
70
100
AcDbEntity
  8
0
 62
    18
420
        0
370
    25
100
AcDbLine
 10
96.42161508530074
 20
-18.81977424997449
 30
0.0
 11
96.42161508530074
 21
-19.84045026487441
 31
0.0
  0
LINE
  5
236
330
70
100
AcDbEntity
  8
0
 62
    18
420
        0
370
    25
100
AcDbLine
 10
182.6886423901013
 20
-51.47628118547438
 30
0.0
 11
166.9555165087013
 21
-60.55882142947461
 31
0.0
  0
LINE
  5
237
330
70
100
AcDbEntity
  8
0
 62
    18
420
        0
370
    25
100
AcDbLine
 10
166.9555165087013
 20
-60.55882142947461
 30
0.0
 11
166.9555165087013
 21
-60.55881455867465
 31
0.0
  0
LINE
  5
238
330
70
100
AcDbEntity
  8
0
 62
    18
420
        0
370
    25
100
AcDbLine
 10
182.7618656948013
 20
-51.43400340067469
 30
0.0
 11
182.6886423901013
 21
-51.47626459797453
 31
0.0
  0
LINE
  5
239
330
70
100
AcDbEntity
  8
0
 62
    18
420
        0
370
    25
100
AcDbLine
 10
182.6886423901013
 20
-51.47628118547438
 30
0.0
 11
182.7618656948013
 21
-51.43400340067469
 31
0.0
  0
LINE
  5
23A
330
70
100
AcDbEntity
  8
0
 62
    18
420
        0
370
    25
100
AcDbLine
 10
166.9555165087013
 20
-60.55882142947461
 30
0.0
 11
96.42161508530074
 21
-19.84046685237491
 31
0.0
  0
LINE
  5
23B
330
70
100
AcDbEntity
  8
0
 62
    18
420
        0
370
    25
100
AcDbLine
 10
96.34839178060078
 20
-19.79818906747446
 30
0.0
 11
96.42161508530074
 21
-19.84046685237491
 31
0.0
  0
LWPOLYLINE
  5
23C
330
70
100
AcDbEntity
  8
0
 62
    18
420
        0
370
    25
100
AcDbPolyline
 90
        5
 70
     0
 43
0.0
 10
96.42161508530074
 20
-19.84045026487441
 10
96.3905243775013
 20
-19.82250261867477
 10
96.36742189750126
 20
-19.80916772867492
 10
96.35319546050125
 20
-19.80095804717455
 10
96.34839178060078
 20
-19.79818906747446
  0
SPLINE
  5
23D
330
70
100
AcDbEntity
  8
0
 62
    18
420
        0
370
    25
100
AcDbSpline
210
0.0
220
0.0
230
1.0
 70
     8
 71
     3
 72
     8
 73
     4
 74
     0
 42
0.0000000001
 43
0.0000000001
 40
0.0
 40
0.0
 40
0.0
 40
0.0
 40
1.0
 40
1.0
 40
1.0
 40
1.0
 10
117.6847390997152
 20
-12.72551536050881
 30
0.0
 10
117.6596845073202
 20
-12.6396659137428
 30
0.0
 10
117.6309040489983
 20
-12.55494800615339
 30
0.0
 10
117.5984794812032
 20
-12.47160229532487
 30
0.0
  0
LINE
  5
23E
330
70
100
AcDbEntity
  8
0
 62
    18
420
        0
370
    25
100
AcDbLine
 10
114.8392285314013
 20
-14.06448396317468
 30
0.0
 11
117.5984794812013
 21
-12.47160229527481
 31
0.0
  0
LINE
  5
23F
330
70
100
AcDbEntity
  8
0
 62
    18
420
        0
370
    25
100
AcDbLine
 10
112.6145649274014
 20
-12.44189688557457
 30
0.0
 11
112.738673421401
 21
-12.38616768697454
 31
0.0
  0
LWPOLYLINE
  5
240
330
70
100
AcDbEntity
  8
0
 62
    18
420
        0
370
    25
100
AcDbPolyline
 90
       12
 70
     0
 43
0.0
 10
119.2021617345014
 20
-12.58111294247442
 10
119.1667044479014
 20
-12.19724903847463
 10
119.0621105644012
 20
-11.7916955617746
 10
118.8936248582011
 20
-11.38478865707497
 10
118.6696959060012
 20
-10.99693233567439
 10
118.4015524405011
 20
-10.64757533317464
 10
118.1026402949013
 20
-10.35423586837438
 10
117.7879481722012
 20
-10.13162320687467
 10
117.4732560495011
 20
-9.990900077274581
 10
117.1743439038011
 20
-9.939122924674377
 10
116.9062004384011
 20
-9.978888071874676
 10
116.7880294395009
 20
-10.03260710597461
  0
SPLINE
  5
241
330
70
100
AcDbEntity
  8
0
 62
    18
420
        0
370
    25
100
AcDbSpline
210
0.0
220
0.0
230
1.0
 70
     8
 71
     3
 72
     8
 73
     4
 74
     0
 42
0.0000000001
 43
0.0000000001
 40
0.0
 40
0.0
 40
0.0
 40
0.0
 40
1.0
 40
1.0
 40
1.0
 40
1.0
 10
114.6744949937678
 20
-14.06859382814664
 30
0.0
 10
114.727437520037
 20
-14.09100172173488
 30
0.0
 10
114.7874692642669
 20
-14.08950401601948
 30
0.0
 10
114.8392285314565
 20
-14.06448396320677
 30
0.0
  0
LWPOLYLINE
  5
242
330
70
100
AcDbEntity
  8
0
 62
    18
420
        0
370
    25
100
AcDbPolyline
 90
       10
 70
     0
 43
0.0
 10
114.6744949937011
 20
-14.06859382807477
 10
114.4867095307009
 20
-13.68419952957498
 10
114.2501045881011
 20
-13.32728853997472
 10
113.9767355880008
 20
-13.01604607817452
 10
113.6805311436013
 20
-12.7663304743746
 10
113.3765833725013
 20
-12.59086516107467
 10
113.080378928101
 20
-12.4985903928744
 10
112.8070099280014
 20
-12.49420772537436
 10
112.5704049854009
 20
-12.57794046297471
 10
112.3826195224014
 20
-12.74552228087494
  0
LWPOLYLINE
  5
243
330
70
100
AcDbEntity
  8
0
 62
    18
420
        0
370
    25
100
AcDbPolyline
 90
        5
 70
     0
 43
0.0
 10
112.3826195224014
 20
-12.74552228087494
 10
112.3606479156008
 20
-12.71648921817478
 10
112.3574873203013
 20
-12.69063226137474
 10
112.3709228222011
 20
-12.66500977707481
 10
112.3897387886011
 20
-12.65042363377497
  0
SPLINE
  5
244
330
70
100
AcDbEntity
  8
0
 62
    18
420
        0
370
    25
100
AcDbSpline
210
0.0
220
0.0
230
1.0
 70
     8
 71
     3
 72
     8
 73
     4
 74
     0
 42
0.0000000001
 43
0.0000000001
 40
0.0
 40
0.0
 40
0.0
 40
0.0
 40
1.0
 40
1.0
 40
1.0
 40
1.0
 10
112.382619522327
 20
-12.74552228083516
 30
0.0
 10
113.0628916673384
 20
-13.31780159083326
 30
0.0
 10
113.8387220719976
 20
-13.76567895010539
 30
0.0
 10
114.6744949936883
 20
-14.06859382808183
 30
0.0
  0
SPLINE
  5
245
330
70
100
AcDbEntity
  8
0
 62
    18
420
        0
370
    25
100
AcDbSpline
210
0.0
220
0.0
230
1.0
 70
     8
 71
     3
 72
     8
 73
     4
 74
     0
 42
0.0000000001
 43
0.0000000001
 40
0.0
 40
0.0
 40
0.0
 40
0.0
 40
1.0
 40
1.0
 40
1.0
 40
1.0
 10
118.8921152513268
 20
-13.42251877671795
 30
0.0
 10
119.1180519563517
 20
-13.20380053605909
 30
0.0
 10
119.2321579899483
 20
-12.89413896082124
 30
0.0
 10
119.202161734529
 20
-12.58111294251741
 30
0.0
  0
SPLINE
  5
246
330
70
100
AcDbEntity
  8
0
 62
    18
420
        0
370
    25
100
AcDbSpline
210
0.0
220
0.0
230
1.0
 70
     8
 71
     3
 72
     8
 73
     4
 74
     0
 42
0.0000000001
 43
0.0000000001
 40
0.0
 40
0.0
 40
0.0
 40
0.0
 40
1.0
 40
1.0
 40
1.0
 40
1.0
 10
179.7570069523412
 20
-48.55907285315258
 30
0.0
 10
179.7319521835636
 20
-48.47322251466234
 30
0.0
 10
179.7031714712579
 20
-48.38850373571751
 30
0.0
 10
179.6707465743071
 20
-48.30515718140833
 30
0.0
  0
LINE
  5
247
330
70
100
AcDbEntity
  8
0
 62
    18
420
        0
370
    25
100
AcDbLine
 10
176.9114956246009
 20
-49.89803884927482
 30
0.0
 11
179.6707465744014
 21
-48.30515718137496
 31
0.0
  0
LINE
  5
248
330
70
100
AcDbEntity
  8
0
 62
    18
420
        0
370
    25
100
AcDbLine
 10
174.6868320206009
 20
-48.27545177167471
 30
0.0
 11
174.8109405146012
 21
-48.21972257307468
 31
0.0
  0
LWPOLYLINE
  5
249
330
70
100
AcDbEntity
  8
0
 62
    18
420
        0
370
    25
100
AcDbPolyline
 90
       12
 70
     0
 43
0.0
 10
181.2744288277009
 20
-48.41466782857456
 10
181.238971541101
 20
-48.03080392457477
 10
181.1343776576014
 20
-47.62525044777463
 10
180.9658919513012
 20
-47.21834354307436
 10
180.7419629991013
 20
-46.83048722177453
 10
180.4738195337013
 20
-46.48113021917468
 10
180.1749073881014
 20
-46.18779075437442
 10
179.8602152653012
 20
-45.9651780929748
 10
179.5455231426011
 20
-45.82445496337472
 10
179.2466109970013
 20
-45.77267781077451
 10
178.9784675315012
 20
-45.81244295797481
 10
178.8602965327011
 20
-45.86616199197464
  0
SPLINE
  5
24A
330
70
100
AcDbEntity
  8
0
 62
    18
420
        0
370
    25
100
AcDbSpline
210
0.0
220
0.0
230
1.0
 70
     8
 71
     3
 72
     8
 73
     4
 74
     0
 42
0.0000000001
 43
0.0000000001
 40
0.0
 40
0.0
 40
0.0
 40
0.0
 40
1.0
 40
1.0
 40
1.0
 40
1.0
 10
176.7467620868679
 20
-49.90214871424679
 30
0.0
 10
176.7997046131371
 20
-49.92455660783502
 30
0.0
 10
176.8597363573663
 20
-49.92305890211962
 30
0.0
 10
176.9114956245566
 20
-49.89803884930691
 30
0.0
  0
LWPOLYLINE
  5
24B
330
70
100
AcDbEntity
  8
0
 62
    18
420
        0
370
    25
100
AcDbPolyline
 90
       10
 70
     0
 43
0.0
 10
176.7467620869013
 20
-49.90214871417491
 10
176.5589766239011
 20
-49.51775441567448
 10
176.3223716812012
 20
-49.16084342607486
 10
176.0490026811009
 20
-48.84960096427466
 10
175.7527982367013
 20
-48.59988536047474
 10
175.4488504657014
 20
-48.42442004717481
 10
175.1526460213012
 20
-48.33214527897455
 10
174.8792770212009
 20
-48.3277626114745
 10
174.6426720786011
 20
-48.41149534897475
 10
174.4548866155009
 20
-48.57907716697444
  0
LWPOLYLINE
  5
24C
330
70
100
AcDbEntity
  8
0
 62
    18
420
        0
370
    25
100
AcDbPolyline
 90
        5
 70
     0
 43
0.0
 10
174.4548866155009
 20
-48.57907716697444
 10
174.432915008801
 20
-48.55004410427492
 10
174.4297544134013
 20
-48.52418714747488
 10
174.4431899154013
 20
-48.49856466317495
 10
174.4620058818012
 20
-48.48397851987447
  0
SPLINE
  5
24D
330
70
100
AcDbEntity
  8
0
 62
    18
420
        0
370
    25
100
AcDbSpline
210
0.0
220
0.0
230
1.0
 70
     8
 71
     3
 72
     8
 73
     4
 74
     0
 42
0.0000000001
 43
0.0000000001
 40
0.0
 40
0.0
 40
0.0
 40
0.0
 40
1.0
 40
1.0
 40
1.0
 40
1.0
 10
174.4548866155265
 20
-48.5790771669353
 30
0.0
 10
175.1351587605386
 20
-49.15135647693404
 30
0.0
 10
175.9109891651972
 20
-49.59923383620553
 30
0.0
 10
176.7467620868878
 20
-49.90214871418261
 30
0.0
  0
SPLINE
  5
24E
330
70
100
AcDbEntity
  8
0
 62
    18
420
        0
370
    25
100
AcDbSpline
210
0.0
220
0.0
230
1.0
 70
     8
 71
     3
 72
     8
 73
     4
 74
     0
 42
0.0000000001
 43
0.0000000001
 40
0.0
 40
0.0
 40
0.0
 40
0.0
 40
1.0
 40
1.0
 40
1.0
 40
1.0
 10
180.9643808419797
 20
-49.25607496345222
 30
0.0
 10
181.1903185777709
 20
-49.03735677360885
 30
0.0
 10
181.3044252300885
 20
-48.72769454126157
 30
0.0
 10
181.2744288277202
 20
-48.41466782855467
 30
0.0
  0
LWPOLYLINE
  5
24F
330
70
100
AcDbEntity
  8
0
 62
     8
420
  8421504
370
    25
100
AcDbPolyline
 90
        5
 70
     0
 43
0.0
 10
175.7132296485013
 20
-40.18582024887493
 10
175.7129628366014
 20
-40.59408261447479
 10
175.712013631201
 20
-42.22713222987451
 10
175.7112358701012
 20
-45.49326485017441
 10
175.7113912871014
 20
-46.22358864177493
  0
LWPOLYLINE
  5
250
330
70
100
AcDbEntity
  8
0
 62
     8
420
  8421504
370
    25
100
AcDbPolyline
 90
        4
 70
     0
 43
0.0
 10
180.4836286888013
 20
-52.74920850017493
 10
181.3934029379008
 20
-53.27415187347441
 10
184.2060893549015
 20
-54.89588471027474
 10
184.2098087303011
 20
-54.89802857307449
  0
SPLINE
  5
251
330
70
100
AcDbEntity
  8
0
 62
     8
420
  8421504
370
    25
100
AcDbSpline
210
0.0
220
0.0
230
1.0
 70
     8
 71
     3
 72
     8
 73
     4
 74
     0
 42
0.0000000001
 43
0.0000000001
 40
0.0
 40
0.0
 40
0.0
 40
0.0
 40
1.0
 40
1.0
 40
1.0
 40
1.0
 10
184.507628982485
 20
-55.0017257424535
 30
0.0
 10
184.5451017000251
 20
-54.97639641752552
 30
0.0
 10
184.5651284174829
 20
-54.93213263279749
 30
0.0
 10
184.559415836202
 20
-54.88726454083626
 30
0.0
  0
SPLINE
  5
252
330
70
100
AcDbEntity
  8
0
 62
     8
420
  8421504
370
    25
100
AcDbSpline
210
0.0
220
0.0
230
1.0
 70
     8
 71
     3
 72
     8
 73
     4
 74
     0
 42
0.0000000001
 43
0.0000000001
 40
0.0
 40
0.0
 40
0.0
 40
0.0
 40
1.0
 40
1.0
 40
1.0
 40
1.0
 10
175.6473577802537
 20
-40.08819269312382
 30
0.0
 10
175.6509284509508
 20
-40.12994613792261
 30
0.0
 10
175.6758484571465
 20
-40.16687964773786
 30
0.0
 10
175.7132296485462
 20
-40.18582024887236
 30
0.0
  0
SPLINE
  5
253
330
70
100
AcDbEntity
  8
0
 62
     8
420
  8421504
370
    25
100
AcDbSpline
210
0.0
220
0.0
230
1.0
 70
     8
 71
     3
 72
     8
 73
     4
 74
     0
 42
0.0000000001
 43
0.0000000001
 40
0.0
 40
0.0
 40
0.0
 40
0.0
 40
1.0
 40
1.0
 40
1.0
 40
1.0
 10
175.8973577665857
 20
-39.88413991035707
 30
0.0
 10
175.8608859528476
 20
-39.85801172852604
 30
0.0
 10
175.8132558084172
 20
-39.85329519401625
 30
0.0
 10
175.7723679250764
 20
-39.87176289769259
 30
0.0
  0
LWPOLYLINE
  5
254
330
70
100
AcDbEntity
  8
0
 62
     8
420
  8421504
370
    25
100
AcDbPolyline
 90
        5
 70
     0
 43
0.0
 10
122.141362982201
 20
-15.29826956527459
 10
122.1413881201012
 20
-13.7516671326744
 10
122.1413690130009
 20
-12.50743186097492
 10
122.1412660795011
 20
-9.259386131974627
 10
122.1412659378012
 20
-9.255091053074593
  0
LWPOLYLINE
  5
255
330
70
100
AcDbEntity
  8
0
 62
     8
420
  8421504
370
    25
100
AcDbPolyline
 90
        3
 70
     0
 43
0.0
 10
122.4871487429011
 20
-9.25521991217486
 10
122.4862943689013
 20
-12.50272105447481
 10
122.4862877597009
 20
-15.49739040087449
  0
LWPOLYLINE
  5
256
330
70
100
AcDbEntity
  8
0
 62
     8
420
  8421504
370
    25
100
AcDbPolyline
 90
        5
 70
     0
 43
0.0
 10
113.6409625553011
 20
-4.352265362774791
 10
113.6406957435013
 20
-4.760527728474752
 10
113.6397465380015
 20
-6.393577343774372
 10
113.638968776901
 20
-9.659709964074913
 10
113.6391241935009
 20
-10.39003158727491
  0
SPLINE
  5
257
330
70
100
AcDbEntity
  8
0
 62
     8
420
  8421504
370
    25
100
AcDbSpline
210
0.0
220
0.0
230
1.0
 70
     8
 71
     3
 72
     8
 73
     4
 74
     0
 42
0.0000000001
 43
0.0000000001
 40
0.0
 40
0.0
 40
0.0
 40
0.0
 40
1.0
 40
1.0
 40
1.0
 40
1.0
 10
113.5750906870542
 20
-4.254637807023674
 30
0.0
 10
113.5786613577512
 20
-4.296391251822464
 30
0.0
 10
113.6035813639469
 20
-4.333324761637715
 30
0.0
 10
113.6409625553467
 20
-4.352265362772224
 30
0.0
  0
SPLINE
  5
258
330
70
100
AcDbEntity
  8
0
 62
     8
420
  8421504
370
    25
100
AcDbSpline
210
0.0
220
0.0
230
1.0
 70
     8
 71
     3
 72
     8
 73
     4
 74
     0
 42
0.0000000001
 43
0.0000000001
 40
0.0
 40
0.0
 40
0.0
 40
0.0
 40
1.0
 40
1.0
 40
1.0
 40
1.0
 10
113.8250906733804
 20
-4.050585024228692
 30
0.0
 10
113.7886188596513
 20
-4.024456842388032
 30
0.0
 10
113.7409887152209
 20
-4.019740307875035
 30
0.0
 10
113.7001008318845
 20
-4.038208011557149
 30
0.0
  0
LINE
  5
259
330
70
100
AcDbEntity
  8
0
 62
     8
420
  8421504
370
    25
100
AcDbLine
 10
118.3183807032012
 20
-13.0913088720748
 30
0.0
 11
119.2021617345014
 21
-12.58111294247442
 31
0.0
  0
LWPOLYLINE
  5
25A
330
70
100
AcDbEntity
  8
0
 62
     8
420
  8421504
370
    25
100
AcDbPolyline
 90
        9
 70
     0
 43
0.0
 10
112.738673421401
 20
-12.38616768697454
 10
112.8373606106011
 20
-12.36095123147497
 10
113.1307941347013
 20
-12.36017183997453
 10
113.4503034864011
 20
-12.45717610347473
 10
113.7786638337014
 20
-12.6467344971746
 10
114.0981731853011
 20
-12.91862787877497
 10
114.3916067095014
 20
-13.25819840587478
 10
114.6431453289011
 20
-13.6471397433749
 10
114.8392285314013
 20
-14.06448396317468
  0
LINE
  5
25B
330
70
100
AcDbEntity
  8
0
 62
     8
420
  8421504
370
    25
100
AcDbLine
 10
180.3906459185012
 20
-48.92486484217467
 30
0.0
 11
181.2744288277009
 21
-48.41466782857456
 31
0.0
  0
LWPOLYLINE
  5
25C
330
70
100
AcDbEntity
  8
0
 62
     8
420
  8421504
370
    25
100
AcDbPolyline
 90
        9
 70
     0
 43
0.0
 10
174.8109405146012
 20
-48.21972257307468
 10
174.9096277038012
 20
-48.19450611757447
 10
175.2030612279008
 20
-48.19372672607467
 10
175.5225705795012
 20
-48.29073098957487
 10
175.8509309268015
 20
-48.48028938317464
 10
176.1704402785013
 20
-48.75218276487448
 10
176.4638738026009
 20
-49.09175329197492
 10
176.7154124220012
 20
-49.4806946294744
 10
176.9114956246009
 20
-49.89803884927482
  0
INSERT
  5
25F
330
70
100
AcDbEntity
  8
CAPA_BASE
100
AcDbBlockReference
  2
Block_0
 10
0.0
 20
0.0
 30
0.0
  0
INSERT
  5
26B
330
70
100
AcDbEntity
  8
CAPA_BASE
100
AcDbBlockReference
  2
Block_1
 10
0.0
 20
0.0
 30
0.0
  0
INSERT
  5
277
330
70
100
AcDbEntity
  8
CAPA_BASE
100
AcDbBlockReference
  2
Block_2
 10
0.0
 20
0.0
 30
0.0
  0
ENDSEC
  0
SECTION
  2
OBJECTS
  0
DICTIONARY
  5
C
330
0
100
AcDbDictionary
281
     1
  3
ACAD_COLOR
350
63
  3
ACAD_DETAILVIEWSTYLE
350
6A
  3
ACAD_GROUP
350
D
  3
ACAD_LAYOUT
350
62
  3
ACAD_MATERIAL
350
10
  3
ACAD_MLEADERSTYLE
350
66
  3
ACAD_MLINESTYLE
350
5F
  3
ACAD_PLOTSETTINGS
350
61
  3
ACAD_PLOTSTYLENAME
350
E
  3
ACAD_SCALELIST
350
42
  3
ACAD_SECTIONVIEWSTYLE
350
68
  3
ACAD_TABLESTYLE
350
64
  3
ACAD_VISUALSTYLE
350
29
  3
ACDB_RECOMPOSE_DATA
350
28A
  3
AcDbVariableDictionary
350
282
  0
DICTIONARY
  5
63
102
{ACAD_REACTORS
330
C
102
}
330
C
100
AcDbDictionary
281
     1
  0
DICTIONARY
  5
6A
102
{ACAD_REACTORS
330
C
102
}
330
C
100
AcDbDictionary
281
     1
  3
Imperial24
350
6B
  0
DICTIONARY
  5
D
102
{ACAD_REACTORS
330
C
102
}
330
C
100
AcDbDictionary
281
     1
  0
DICTIONARY
  5
62
102
{ACAD_REACTORS
330
C
102
}
330
C
100
AcDbDictionary
281
     1
  3
Layout1
350
6F
  3
Layout2
350
77
  3
Model
350
73
  0
DICTIONARY
  5
10
102
{ACAD_REACTORS
330
C
102
}
330
C
100
AcDbDictionary
281
     1
  3
ByBlock
350
19
  3
ByLayer
350
11
  3
Global
350
21
  0
DICTIONARY
  5
66
102
{ACAD_REACTORS
330
C
102
}
330
C
100
AcDbDictionary
281
     1
  3
Standard
350
67
  0
DICTIONARY
  5
5F
102
{ACAD_REACTORS
330
C
102
}
330
C
100
AcDbDictionary
281
     1
  3
Standard
350
60
  0
DICTIONARY
  5
61
102
{ACAD_REACTORS
330
C
102
}
330
C
100
AcDbDictionary
281
     1
  0
ACDBDICTIONARYWDFLT
  5
E
102
{ACAD_REACTORS
330
C
102
}
330
C
100
AcDbDictionary
281
     1
  3
Normal
350
F
100
AcDbDictionaryWithDefault
340
F
  0
DICTIONARY
  5
42
102
{ACAD_REACTORS
330
C
102
}
330
C
100
AcDbDictionary
281
     1
  3
A0
350
43
  3
A1
350
44
  3
A2
350
45
  3
A3
350
46
  3
A4
350
47
  3
A5
350
48
  3
A6
350
49
  3
A7
350
4A
  3
A8
350
4B
  3
A9
350
4C
  3
B0
350
4D
  3
B1
350
4E
  3
B2
350
4F
  3
B3
350
50
  3
B4
350
51
  3
B5
350
52
  3
B6
350
53
  0
DICTIONARY
  5
68
102
{ACAD_REACTORS
330
C
102
}
330
C
100
AcDbDictionary
281
     1
  3
Imperial24
350
69
  0
DICTIONARY
  5
64
102
{ACAD_REACTORS
330
C
102
}
330
C
100
AcDbDictionary
281
     1
  3
Standard
350
65
  0
DICTIONARY
  5
29
102
{ACAD_REACTORS
330
C
102
}
330
C
100
AcDbDictionary
281
     1
  3
2dWireframe
350
2F
  3
Basic
350
2E
  3
Brighten
350
35
  3
ColorChange
350
39
  3
Conceptual
350
32
  3
Dim
350
34
  3
EdgeColorOff
350
41
  3
Facepattern
350
38
  3
Flat
350
2A
  3
FlatWithEdges
350
2B
  3
Gouraud
350
2C
  3
GouraudWithEdges
350
2D
  3
Hidden
350
31
  3
JitterOff
350
3F
  3
Linepattern
350
37
  3
OverhangOff
350
40
  3
Realistic
350
33
  3
Shaded
350
3E
  3
Shaded with edges
350
3D
  3
Shades of Gray
350
3A
  3
Sketchy
350
3B
  3
Thicken
350
36
  3
Wireframe
350
30
  3
X-Ray
350
3C
  0
XRECORD
  5
28A
102
{ACAD_REACTORS
330
C
102
}
330
C
100
AcDbXrecord
280
     1
 90
        1
330
65
  0
DICTIONARY
  5
282
102
{ACAD_REACTORS
330
C
102
}
330
C
100
AcDbDictionary
281
     1
  3
CANNOSCALE
350
287
  3
CMLEADERSTYLE
350
284
  3
CTABLESTYLE
350
283
  3
CVIEWDETAILSTYLE
350
285
  3
CVIEWSECTIONSTYLE
350
286
  0
ACDBDETAILVIEWSTYLE
  5
6B
102
{ACAD_REACTORS
330
6A
102
}
330
6A
100
AcDbModelDocViewStyle
 70
     0
  3
Imperial24
290
     1
300
Imperial24
 90
        0
100
AcDbDetailViewStyle
 70
     0
 71
     0
 90
        3
 71
     1
340
55
 62
   256
 40
0.24
340
0
 62
   256
 40
0.24
300

 40
0.36
280
     3
 71
     2
340
5D
 90
       25
 62
   256
 71
     3
340
55
 62
   256
 40
0.24
 90
        1
 40
0.75
 90
        1
300
%<\AcVar ViewType \f "%tc1">% %<\AcVar ViewDetailId>%\PSCALE %<\AcVar ViewScale \f "%sn">%
 71
     4
340
5D
 90
       25
 62
   256
340
5D
 90
       25
 62
   256
280
     0
  0
LAYOUT
  5
6F
102
{ACAD_REACTORS
330
62
102
}
330
62
100
AcDbPlotSettings
  1

  2

  4

  6

 40
0.0
 41
0.0
 42
0.0
 43
0.0
 44
0.0
 45
0.0
 46
0.0
 47
0.0
 48
0.0
 49
0.0
140
0.0
141
0.0
142
1.0
143
1.0
 70
   688
 72
     0
 73
     0
 74
     5
  7

 75
    16
147
1.0
 76
     0
 77
     2
 78
   300
148
0.0
149
0.0
100
AcDbLayout
  1
Layout1
 70
     1
 71
     1
 10
0.0
 20
0.0
 11
12.0
 21
9.0
 12
0.0
 22
0.0
 32
0.0
 14
0.0
 24
0.0
 34
0.0
 15
0.0
 25
0.0
 35
0.0
146
0.0
 13
0.0
 23
0.0
 33
0.0
 16
1.0
 26
0.0
 36
0.0
 17
0.0
 27
1.0
 37
0.0
 76
     0
330
6C
  0
LAYOUT
  5
77
102
{ACAD_REACTORS
330
62
102
}
330
62
100
AcDbPlotSettings
  1

  2

  4

  6

 40
0.0
 41
0.0
 42
0.0
 43
0.0
 44
0.0
 45
0.0
 46
0.0
 47
0.0
 48
0.0
 49
0.0
140
0.0
141
0.0
142
1.0
143
1.0
 70
   688
 72
     0
 73
     0
 74
     5
  7

 75
    16
147
1.0
 76
     0
 77
     2
 78
   300
148
0.0
149
0.0
100
AcDbLayout
  1
Layout2
 70
     1
 71
     2
 10
0.0
 20
0.0
 11
12.0
 21
9.0
 12
0.0
 22
0.0
 32
0.0
 14
0.0
 24
0.0
 34
0.0
 15
0.0
 25
0.0
 35
0.0
146
0.0
 13
0.0
 23
0.0
 33
0.0
 16
1.0
 26
0.0
 36
0.0
 17
0.0
 27
1.0
 37
0.0
 76
     0
330
74
  0
LAYOUT
  5
73
102
{ACAD_REACTORS
330
62
102
}
330
62
100
AcDbPlotSettings
  1

  2

  4

  6

 40
0.0
 41
0.0
 42
0.0
 43
0.0
 44
0.0
 45
0.0
 46
0.0
 47
0.0
 48
0.0
 49
0.0
140
0.0
141
0.0
142
1.0
143
1.0
 70
  1712
 72
     0
 73
     0
 74
     0
  7

 75
     0
147
1.0
 76
     0
 77
     2
 78
   300
148
0.0
149
0.0
100
AcDbLayout
  1
Model
 70
     1
 71
     0
 10
0.0
 20
0.0
 11
12.0
 21
9.0
 12
0.0
 22
0.0
 32
0.0
 14
0.0
 24
0.0
 34
0.0
 15
0.0
 25
0.0
 35
0.0
146
0.0
 13
0.0
 23
0.0
 33
0.0
 16
1.0
 26
0.0
 36
0.0
 17
0.0
 27
1.0
 37
0.0
 76
     0
330
70
  0
MATERIAL
  5
19
102
{ACAD_XDICTIONARY
360
1A
102
}
102
{ACAD_REACTORS
330
10
102
}
330
10
100
AcDbMaterial
  1
ByBlock
 72
     0
 43
0.0208333333333333
 43
0.0
 43
0.0
 43
0.0
 43
0.0
 43
0.0208333333333333
 43
0.0
 43
0.0
 43
0.0
 43
0.0
 43
1.0
 43
0.0
 43
0.0
 43
0.0
 43
0.0
 43
1.0
 77
     0
 47
0.0208333333333333
 47
0.0
 47
0.0
 47
0.0
 47
0.0
 47
0.0208333333333333
 47
0.0
 47
0.0
 47
0.0
 47
0.0
 47
1.0
 47
0.0
 47
0.0
 47
0.0
 47
0.0
 47
1.0
171
     0
 49
0.0208333333333333
 49
0.0
 49
0.0
 49
0.0
 49
0.0
 49
0.0208333333333333
 49
0.0
 49
0.0
 49
0.0
 49
0.0
 49
1.0
 49
0.0
 49
0.0
 49
0.0
 49
0.0
 49
1.0
175
     0
142
0.0208333333333333
142
0.0
142
0.0
142
0.0
142
0.0
142
0.0208333333333333
142
0.0
142
0.0
142
0.0
142
0.0
142
1.0
142
0.0
142
0.0
142
0.0
142
0.0
142
1.0
179
     0
144
0.0208333333333333
144
0.0
144
0.0
144
0.0
144
0.0
144
0.0208333333333333
144
0.0
144
0.0
144
0.0
144
0.0
144
1.0
144
0.0
144
0.0
144
0.0
144
0.0
144
1.0
147
0.0208333333333333
147
0.0
147
0.0
147
0.0
147
0.0
147
0.0208333333333333
147
0.0
147
0.0
147
0.0
147
0.0
147
1.0
147
0.0
147
0.0
147
0.0
147
0.0
147
1.0
  0
MATERIAL
  5
11
102
{ACAD_XDICTIONARY
360
12
102
}
102
{ACAD_REACTORS
330
10
102
}
330
10
100
AcDbMaterial
  1
ByLayer
 72
     0
 43
0.0208333333333333
 43
0.0
 43
0.0
 43
0.0
 43
0.0
 43
0.0208333333333333
 43
0.0
 43
0.0
 43
0.0
 43
0.0
 43
1.0
 43
0.0
 43
0.0
 43
0.0
 43
0.0
 43
1.0
 77
     0
 47
0.0208333333333333
 47
0.0
 47
0.0
 47
0.0
 47
0.0
 47
0.0208333333333333
 47
0.0
 47
0.0
 47
0.0
 47
0.0
 47
1.0
 47
0.0
 47
0.0
 47
0.0
 47
0.0
 47
1.0
171
     0
 49
0.0208333333333333
 49
0.0
 49
0.0
 49
0.0
 49
0.0
 49
0.0208333333333333
 49
0.0
 49
0.0
 49
0.0
 49
0.0
 49
1.0
 49
0.0
 49
0.0
 49
0.0
 49
0.0
 49
1.0
175
     0
142
0.0208333333333333
142
0.0
142
0.0
142
0.0
142
0.0
142
0.0208333333333333
142
0.0
142
0.0
142
0.0
142
0.0
142
1.0
142
0.0
142
0.0
142
0.0
142
0.0
142
1.0
179
     0
144
0.0208333333333333
144
0.0
144
0.0
144
0.0
144
0.0
144
0.0208333333333333
144
0.0
144
0.0
144
0.0
144
0.0
144
1.0
144
0.0
144
0.0
144
0.0
144
0.0
144
1.0
147
0.0208333333333333
147
0.0
147
0.0
147
0.0
147
0.0
147
0.0208333333333333
147
0.0
147
0.0
147
0.0
147
0.0
147
1.0
147
0.0
147
0.0
147
0.0
147
0.0
147
1.0
  0
MATERIAL
  5
21
102
{ACAD_XDICTIONARY
360
22
102
}
102
{ACAD_REACTORS
330
10
102
}
330
10
100
AcDbMaterial
  1
Global
 72
     0
 43
0.0208333333333333
 43
0.0
 43
0.0
 43
0.0
 43
0.0
 43
0.0208333333333333
 43
0.0
 43
0.0
 43
0.0
 43
0.0
 43
1.0
 43
0.0
 43
0.0
 43
0.0
 43
0.0
 43
1.0
 77
     0
 47
0.0208333333333333
 47
0.0
 47
0.0
 47
0.0
 47
0.0
 47
0.0208333333333333
 47
0.0
 47
0.0
 47
0.0
 47
0.0
 47
1.0
 47
0.0
 47
0.0
 47
0.0
 47
0.0
 47
1.0
171
     0
 49
0.0208333333333333
 49
0.0
 49
0.0
 49
0.0
 49
0.0
 49
0.0208333333333333
 49
0.0
 49
0.0
 49
0.0
 49
0.0
 49
1.0
 49
0.0
 49
0.0
 49
0.0
 49
0.0
 49
1.0
175
     0
142
0.0208333333333333
142
0.0
142
0.0
142
0.0
142
0.0
142
0.0208333333333333
142
0.0
142
0.0
142
0.0
142
0.0
142
1.0
142
0.0
142
0.0
142
0.0
142
0.0
142
1.0
179
     0
144
0.0208333333333333
144
0.0
144
0.0
144
0.0
144
0.0
144
0.0208333333333333
144
0.0
144
0.0
144
0.0
144
0.0
144
1.0
144
0.0
144
0.0
144
0.0
144
0.0
144
1.0
147
0.0208333333333333
147
0.0
147
0.0
147
0.0
147
0.0
147
0.0208333333333333
147
0.0
147
0.0
147
0.0
147
0.0
147
1.0
147
0.0
147
0.0
147
0.0
147
0.0
147
1.0
  0
MLEADERSTYLE
  5
67
102
{ACAD_REACTORS
330
66
102
}
330
66
100
AcDbMLeaderStyle
179
     2
170
     2
171
     1
172
     0
 90
        2
 40
0.0
 41
0.0
173
     1
 91
-1056964608
340
5B
 92
       -2
290
     1
 42
0.09
291
     1
 43
0.36
  3
Standard
 44
0.18
300

342
55
174
     1
178
     6
175
     1
176
     0
 93
-1056964608
 45
0.18
292
     0
297
     0
 46
0.18
 94
-1056964608
 47
1.0
 49
1.0
140
1.0
293
     1
141
0.0
294
     1
177
     0
142
1.0
295
     1
296
     0
143
0.125
271
     0
272
     9
273
     9
298
     1
  0
MLINESTYLE
  5
60
102
{ACAD_REACTORS
330
5F
102
}
330
5F
100
AcDbMlineStyle
  2
STANDARD
 70
     0
  3

 62
   256
 51
90.0
 52
90.0
 71
     2
 49
0.5
 62
   256
  6
BYLAYER
 49
-0.5
 62
   256
  6
BYLAYER
  0
ACDBPLACEHOLDER
  5
F
102
{ACAD_REACTORS
330
E
102
}
330
E
  0
SCALE
  5
43
102
{ACAD_REACTORS
330
42
102
}
330
42
100
AcDbScale
 70
     0
300
1:1
140
1.0
141
1.0
290
     1
  0
SCALE
  5
44
102
{ACAD_REACTORS
330
42
102
}
330
42
100
AcDbScale
 70
     0
300
1/128" = 1'-0"
140
0.0078125
141
12.0
290
     0
  0
SCALE
  5
45
102
{ACAD_REACTORS
330
42
102
}
330
42
100
AcDbScale
 70
     0
300
1/64" = 1'-0"
140
0.015625
141
12.0
290
     0
  0
SCALE
  5
46
102
{ACAD_REACTORS
330
42
102
}
330
42
100
AcDbScale
 70
     0
300
1/32" = 1'-0"
140
0.03125
141
12.0
290
     0
  0
SCALE
  5
47
102
{ACAD_REACTORS
330
42
102
}
330
42
100
AcDbScale
 70
     0
300
1/16" = 1'-0"
140
0.0625
141
12.0
290
     0
  0
SCALE
  5
48
102
{ACAD_REACTORS
330
42
102
}
330
42
100
AcDbScale
 70
     0
300
3/32" = 1'-0"
140
0.09375
141
12.0
290
     0
  0
SCALE
  5
49
102
{ACAD_REACTORS
330
42
102
}
330
42
100
AcDbScale
 70
     0
300
1/8" = 1'-0"
140
0.125
141
12.0
290
     0
  0
SCALE
  5
4A
102
{ACAD_REACTORS
330
42
102
}
330
42
100
AcDbScale
 70
     0
300
3/16" = 1'-0"
140
0.1875
141
12.0
290
     0
  0
SCALE
  5
4B
102
{ACAD_REACTORS
330
42
102
}
330
42
100
AcDbScale
 70
     0
300
1/4" = 1'-0"
140
0.25
141
12.0
290
     0
  0
SCALE
  5
4C
102
{ACAD_REACTORS
330
42
102
}
330
42
100
AcDbScale
 70
     0
300
3/8" = 1'-0"
140
0.375
141
12.0
290
     0
  0
SCALE
  5
4D
102
{ACAD_REACTORS
330
42
102
}
330
42
100
AcDbScale
 70
     0
300
1/2" = 1'-0"
140
0.5
141
12.0
290
     0
  0
SCALE
  5
4E
102
{ACAD_REACTORS
330
42
102
}
330
42
100
AcDbScale
 70
     0
300
3/4" = 1'-0"
140
0.75
141
12.0
290
     0
  0
SCALE
  5
4F
102
{ACAD_REACTORS
330
42
102
}
330
42
100
AcDbScale
 70
     0
300
1" = 1'-0"
140
1.0
141
12.0
290
     0
  0
SCALE
  5
50
102
{ACAD_REACTORS
330
42
102
}
330
42
100
AcDbScale
 70
     0
300
1-1/2" = 1'-0"
140
1.5
141
12.0
290
     0
  0
SCALE
  5
51
102
{ACAD_REACTORS
330
42
102
}
330
42
100
AcDbScale
 70
     0
300
3" = 1'-0"
140
3.0
141
12.0
290
     0
  0
SCALE
  5
52
102
{ACAD_REACTORS
330
42
102
}
330
42
100
AcDbScale
 70
     0
300
6" = 1'-0"
140
6.0
141
12.0
290
     0
  0
SCALE
  5
53
102
{ACAD_REACTORS
330
42
102
}
330
42
100
AcDbScale
 70
     0
300
1'-0" = 1'-0"
140
12.0
141
12.0
290
     0
  0
ACDBSECTIONVIEWSTYLE
  5
69
102
{ACAD_REACTORS
330
68
102
}
330
68
100
AcDbModelDocViewStyle
 70
     0
  3
Imperial24
290
     1
300
Imperial24
 90
        0
100
AcDbSectionViewStyle
 70
     0
 71
     0
 90
       78
 71
     1
340
55
 62
   256
 40
0.24
340
0
340
0
 62
   256
 40
0.24
300
I, O, Q, S, X, Z
 40
0.48
 90
        3
 40
0.18
 90
        1
 71
     2
340
5D
 90
       25
 62
   256
340
5D
 90
       50
 62
   256
 40
0.24
 40
0.0
 40
0.24
 71
     3
340
55
 62
   256
 40
0.24
 90
        1
 40
0.75
 90
        1
300
%<\AcVar ViewType \f "%tc1">% %<\AcVar ViewSectionStartId>%-%<\AcVar ViewSectionEndId>%\PSCALE %<\AcVar ViewScale \f "%sn">%
 71
     4
 62
   256
 62
   257
300
ANSI31
 40
1.0
 90
        0
290
     0
290
     0
 90
        6
 40
0.0
 40
1.570796326794896
 40
0.2617993877991494
 40
1.308996938995747
 40
-0.2617993877991494
 40
1.832595714594046
  0
TABLESTYLE
  5
65
102
{ACAD_XDICTIONARY
360
288
102
}
102
{ACAD_REACTORS
330
64
102
}
330
64
100
AcDbTableStyle
280
     0
  3
Standard
 70
     0
 71
     0
 40
0.06
 41
0.06
280
     0
281
     0
  7
Standard
140
0.18
170
     2
 62
     0
 63
     7
283
     0
 90
      512
 91
        0
  1

274
    -2
284
     1
 64
     0
275
    -2
285
     1
 65
     0
276
    -2
286
     1
 66
     0
277
    -2
287
     1
 67
     0
278
    -2
288
     1
 68
     0
279
    -2
289
     1
 69
     0
  7
Standard
140
0.25
170
     5
 62
     0
 63
     7
283
     0
 90
      512
 91
        0
  1

274
    -2
284
     1
 64
     0
275
    -2
285
     1
 65
     0
276
    -2
286
     1
 66
     0
277
    -2
287
     1
 67
     0
278
    -2
288
     1
 68
     0
279
    -2
289
     1
 69
     0
  7
Standard
140
0.18
170
     5
 62
     0
 63
     7
283
     0
 90
      512
 91
        0
  1

274
    -2
284
     1
 64
     0
275
    -2
285
     1
 65
     0
276
    -2
286
     1
 66
     0
277
    -2
287
     1
 67
     0
278
    -2
288
     1
 68
     0
279
    -2
289
     1
 69
     0
  0
VISUALSTYLE
  5
2F
102
{ACAD_REACTORS
330
29
102
}
330
29
100
AcDbVisualStyle
  2
2dWireframe
 70
     4
177
     3
291
     0
 70
    58
 90
        0
176
     1
 90
        2
176
     1
 90
        0
176
     1
 90
        0
176
     1
 40
0.6
176
     1
 40
30.0
176
     1
 62
     7
420
 16777215
176
     1
 90
        1
176
     1
 90
        4
176
     1
 62
     7
176
     1
 62
   257
176
     1
 90
        1
176
     1
 90
        1
176
     1
 40
1.0
176
     1
 90
        0
176
     1
 62
   257
176
     1
 40
1.0
176
     1
 90
        1
176
     1
 90
        6
176
     1
 90
        2
176
     1
 62
     7
176
     1
 90
        5
176
     1
 90
        0
176
     1
 90
        0
176
     1
290
     0
176
     1
 90
        1
176
     1
 40
0.0
176
     1
 90
        0
176
     1
290
     1
176
     1
290
     1
176
     1
290
     0
176
     1
290
     0
176
     1
290
     0
176
     1
290
     0
176
     1
290
     0
176
     1
290
     0
176
     1
290
     0
176
     1
 90
       50
176
     1
 40
0.0
176
     1
 40
1.0
176
     1
 90
        0
176
     1
 62
    18
420
        0
176
     1
 90
       50
176
     1
 90
        3
176
     1
 62
     5
420
      255
176
     1
290
     0
176
     1
 90
       50
176
     1
 90
       50
176
     1
 90
       50
176
     1
290
     0
176
     1
 90
       50
176
     1
 62
   256
176
     0
 40
1.0
176
     0
 90
        2
176
     1
  1
strokes_ogs.tif
176
     1
290
     0
176
     1
 40
1.0
176
     1
 40
1.0
176
     1
  0
VISUALSTYLE
  5
2E
102
{ACAD_REACTORS
330
29
102
}
330
29
100
AcDbVisualStyle
  2
Basic
 70
     7
177
     3
291
     1
 70
    58
 90
        1
176
     1
 90
        0
176
     1
 90
        1
176
     1
 90
        0
176
     1
 40
0.6
176
     1
 40
30.0
176
     1
 62
     7
420
 16777215
176
     1
 90
        0
176
     1
 90
        4
176
     1
 62
     7
176
     1
 62
   257
176
     1
 90
        1
176
     1
 90
        1
176
     1
 40
1.0
176
     1
 90
        8
176
     1
 62
     7
176
     1
 40
1.0
176
     1
 90
        1
176
     1
 90
        6
176
     1
 90
        2
176
     1
 62
     7
176
     1
 90
        5
176
     1
 90
        0
176
     1
 90
        0
176
     1
290
     0
176
     1
 90
        1
176
     1
 40
0.0
176
     1
 90
        0
176
     1
290
     0
176
     1
290
     1
176
     1
290
     1
176
     1
290
     0
176
     1
290
     0
176
     1
290
     0
176
     1
290
     0
176
     1
290
     0
176
     1
290
     0
176
     1
 90
       50
176
     1
 40
0.0
176
     1
 40
1.0
176
     1
 90
        0
176
     1
 62
    18
420
        0
176
     1
 90
       50
176
     1
 90
        3
176
     1
 62
     5
420
      255
176
     1
290
     0
176
     1
 90
       50
176
     1
 90
       50
176
     1
 90
       50
176
     1
290
     0
176
     1
 90
       50
176
     1
 62
   256
176
     0
 40
1.0
176
     0
 90
        2
176
     1
  1
strokes_ogs.tif
176
     1
290
     0
176
     1
 40
1.0
176
     1
 40
1.0
176
     1
  0
VISUALSTYLE
  5
35
102
{ACAD_REACTORS
330
29
102
}
330
29
100
AcDbVisualStyle
  2
Brighten
 70
    12
177
     3
291
     1
 70
    58
 90
        2
176
     1
 90
        2
176
     1
 90
        0
176
     1
 90
        0
176
     1
 40
0.6
176
     1
 40
30.0
176
     1
 62
     7
420
 16777215
176
     1
 90
        1
176
     1
 90
        4
176
     1
 62
     7
176
     1
 62
   257
176
     1
 90
        1
176
     1
 90
        1
176
     1
 40
1.0
176
     1
 90
        8
176
     1
 62
     7
176
     1
 40
1.0
176
     1
 90
        1
176
     1
 90
        6
176
     1
 90
        2
176
     1
 62
     7
176
     1
 90
        5
176
     1
 90
        0
176
     1
 90
        0
176
     1
290
     0
176
     1
 90
        1
176
     1
 40
50.0
176
     1
 90
        0
176
     1
290
     0
176
     1
290
     1
176
     1
290
     1
176
     1
290
     0
176
     1
290
     0
176
     1
290
     0
176
     1
290
     0
176
     1
290
     0
176
     1
290
     0
176
     1
 90
       50
176
     1
 40
0.0
176
     1
 40
1.0
176
     1
 90
        0
176
     1
 62
    18
420
        0
176
     1
 90
       50
176
     1
 90
        3
176
     1
 62
     5
420
      255
176
     1
290
     0
176
     1
 90
       50
176
     1
 90
       50
176
     1
 90
       50
176
     1
290
     0
176
     1
 90
       50
176
     1
 62
   256
176
     0
 40
1.0
176
     0
 90
        2
176
     1
  1
strokes_ogs.tif
176
     1
290
     0
176
     1
 40
1.0
176
     1
 40
1.0
176
     1
  0
VISUALSTYLE
  5
39
102
{ACAD_REACTORS
330
29
102
}
330
29
100
AcDbVisualStyle
  2
ColorChange
 70
    16
177
     3
291
     1
 70
    58
 90
        2
176
     1
 90
        2
176
     1
 90
        3
176
     1
 90
        0
176
     1
 40
0.6
176
     1
 40
30.0
176
     1
 62
     8
420
  8421504
176
     1
 90
        1
176
     1
 90
        4
176
     1
 62
     7
176
     1
 62
   257
176
     1
 90
        1
176
     1
 90
        1
176
     1
 40
1.0
176
     1
 90
        8
176
     1
 62
     8
420
  8421504
176
     1
 40
1.0
176
     1
 90
        1
176
     1
 90
        6
176
     1
 90
        2
176
     1
 62
     7
176
     1
 90
        5
176
     1
 90
        0
176
     1
 90
        0
176
     1
290
     0
176
     1
 90
        1
176
     1
 40
0.0
176
     1
 90
        0
176
     1
290
     0
176
     1
290
     1
176
     1
290
     1
176
     1
290
     0
176
     1
290
     0
176
     1
290
     0
176
     1
290
     0
176
     1
290
     0
176
     1
290
     0
176
     1
 90
       50
176
     1
 40
0.0
176
     1
 40
1.0
176
     1
 90
        0
176
     1
 62
    18
420
        0
176
     1
 90
       50
176
     1
 90
        3
176
     1
 62
     5
420
      255
176
     1
290
     0
176
     1
 90
       50
176
     1
 90
       50
176
     1
 90
       50
176
     1
290
     0
176
     1
 90
       50
176
     1
 62
   256
176
     0
 40
1.0
176
     0
 90
        2
176
     1
  1
strokes_ogs.tif
176
     1
290
     0
176
     1
 40
1.0
176
     1
 40
1.0
176
     1
  0
VISUALSTYLE
  5
32
102
{ACAD_REACTORS
330
29
102
}
330
29
100
AcDbVisualStyle
  2
Conceptual
 70
     9
177
     3
291
     0
 70
    58
 90
        3
176
     1
 90
        2
176
     1
 90
        0
176
     1
 90
        0
176
     1
 40
0.6
176
     1
 40
30.0
176
     1
 62
     7
420
 16777215
176
     1
 90
        2
176
     1
 90
        2
176
     1
 62
     7
176
     1
 62
   257
176
     1
 90
        1
176
     1
 90
        1
176
     1
 40
179.0
176
     1
 90
        8
176
     1
 62
     7
176
     1
 40
1.0
176
     1
 90
        1
176
     1
 90
        6
176
     1
 90
        2
176
     1
 62
     7
176
     1
 90
        3
176
     1
 90
        0
176
     1
 90
        0
176
     1
290
     0
176
     1
 90
        1
176
     1
 40
0.0
176
     1
 90
        0
176
     1
290
     0
176
     1
290
     1
176
     1
290
     1
176
     1
290
     0
176
     1
290
     0
176
     1
290
     0
176
     1
290
     0
176
     1
290
     0
176
     1
290
     0
176
     1
 90
       50
176
     1
 40
0.0
176
     1
 40
1.0
176
     1
 90
        0
176
     1
 62
    18
420
        0
176
     1
 90
       50
176
     1
 90
        3
176
     1
 62
     5
420
      255
176
     1
290
     0
176
     1
 90
       50
176
     1
 90
       50
176
     1
 90
       50
176
     1
290
     0
176
     1
 90
       50
176
     1
 62
   256
176
     0
 40
1.0
176
     0
 90
        2
176
     1
  1
strokes_ogs.tif
176
     1
290
     0
176
     1
 40
1.0
176
     1
 40
1.0
176
     1
  0
VISUALSTYLE
  5
34
102
{ACAD_REACTORS
330
29
102
}
330
29
100
AcDbVisualStyle
  2
Dim
 70
    11
177
     3
291
     1
 70
    58
 90
        2
176
     1
 90
        2
176
     1
 90
        0
176
     1
 90
        0
176
     1
 40
0.6
176
     1
 40
30.0
176
     1
 62
     7
420
 16777215
176
     1
 90
        1
176
     1
 90
        4
176
     1
 62
     7
176
     1
 62
   257
176
     1
 90
        1
176
     1
 90
        1
176
     1
 40
1.0
176
     1
 90
        8
176
     1
 62
     7
176
     1
 40
1.0
176
     1
 90
        1
176
     1
 90
        6
176
     1
 90
        2
176
     1
 62
     7
176
     1
 90
        5
176
     1
 90
        0
176
     1
 90
        0
176
     1
290
     0
176
     1
 90
        1
176
     1
 40
-50.0
176
     1
 90
        0
176
     1
290
     0
176
     1
290
     1
176
     1
290
     1
176
     1
290
     0
176
     1
290
     0
176
     1
290
     0
176
     1
290
     0
176
     1
290
     0
176
     1
290
     0
176
     1
 90
       50
176
     1
 40
0.0
176
     1
 40
1.0
176
     1
 90
        0
176
     1
 62
    18
420
        0
176
     1
 90
       50
176
     1
 90
        3
176
     1
 62
     5
420
      255
176
     1
290
     0
176
     1
 90
       50
176
     1
 90
       50
176
     1
 90
       50
176
     1
290
     0
176
     1
 90
       50
176
     1
 62
   256
176
     0
 40
1.0
176
     0
 90
        2
176
     1
  1
strokes_ogs.tif
176
     1
290
     0
176
     1
 40
1.0
176
     1
 40
1.0
176
     1
  0
VISUALSTYLE
  5
41
102
{ACAD_REACTORS
330
29
102
}
330
29
100
AcDbVisualStyle
  2
EdgeColorOff
 70
    22
177
     3
291
     1
 70
    58
 90
        2
176
     0
 90
        2
176
     0
 90
        0
176
     0
 90
        0
176
     0
 40
0.6
176
     0
 40
30.0
176
     0
 62
     7
420
 16777215
176
     0
 90
        1
176
     0
 90
        4
176
     0
 62
     7
176
     0
 62
   257
176
     0
 90
        1
176
     0
 90
        1
176
     0
 40
1.0
176
     0
 90
        8
176
     2
 62
     7
176
     0
 40
1.0
176
     0
 90
        1
176
     0
 90
        6
176
     0
 90
        2
176
     0
 62
     7
176
     0
 90
        5
176
     0
 90
        0
176
     0
 90
        0
176
     0
290
     0
176
     0
 90
        1
176
     0
 40
0.0
176
     0
 90
        0
176
     0
290
     0
176
     0
290
     1
176
     0
290
     1
176
     0
290
     0
176
     0
290
     0
176
     0
290
     0
176
     0
290
     0
176
     0
290
     0
176
     0
290
     0
176
     0
 90
       50
176
     0
 40
0.0
176
     0
 40
1.0
176
     0
 90
        0
176
     0
 62
    18
420
        0
176
     0
 90
       50
176
     0
 90
        3
176
     0
 62
     5
420
      255
176
     0
290
     0
176
     0
 90
       50
176
     0
 90
       50
176
     0
 90
       50
176
     0
290
     0
176
     0
 90
       50
176
     0
 62
   256
176
     0
 40
1.0
176
     0
 90
        2
176
     0
  1
strokes_ogs.tif
176
     0
290
     0
176
     0
 40
1.0
176
     0
 40
1.0
176
     0
  0
VISUALSTYLE
  5
38
102
{ACAD_REACTORS
330
29
102
}
330
29
100
AcDbVisualStyle
  2
Facepattern
 70
    15
177
     3
291
     1
 70
    58
 90
        2
176
     1
 90
        2
176
     1
 90
        0
176
     1
 90
        0
176
     1
 40
0.6
176
     1
 40
30.0
176
     1
 62
     7
420
 16777215
176
     1
 90
        1
176
     1
 90
        4
176
     1
 62
     7
176
     1
 62
   257
176
     1
 90
        1
176
     1
 90
        1
176
     1
 40
1.0
176
     1
 90
        8
176
     1
 62
     7
176
     1
 40
1.0
176
     1
 90
        1
176
     1
 90
        6
176
     1
 90
        2
176
     1
 62
     7
176
     1
 90
        5
176
     1
 90
        0
176
     1
 90
        0
176
     1
290
     0
176
     1
 90
        1
176
     1
 40
0.0
176
     1
 90
        0
176
     1
290
     0
176
     1
290
     1
176
     1
290
     1
176
     1
290
     0
176
     1
290
     0
176
     1
290
     0
176
     1
290
     0
176
     1
290
     0
176
     1
290
     0
176
     1
 90
       50
176
     1
 40
0.0
176
     1
 40
1.0
176
     1
 90
        0
176
     1
 62
    18
420
        0
176
     1
 90
       50
176
     1
 90
        3
176
     1
 62
     5
420
      255
176
     1
290
     0
176
     1
 90
       50
176
     1
 90
       50
176
     1
 90
       50
176
     1
290
     0
176
     1
 90
       50
176
     1
 62
   256
176
     0
 40
1.0
176
     0
 90
        2
176
     1
  1
strokes_ogs.tif
176
     1
290
     0
176
     1
 40
1.0
176
     1
 40
1.0
176
     1
  0
VISUALSTYLE
  5
2A
102
{ACAD_REACTORS
330
29
102
}
330
29
100
AcDbVisualStyle
  2
Flat
 70
     0
177
     3
291
     1
 70
    58
 90
        2
176
     1
 90
        1
176
     1
 90
        1
176
     1
 90
        2
176
     1
 40
0.6
176
     1
 40
30.0
176
     1
 62
     7
420
 16777215
176
     1
 90
        0
176
     1
 90
        0
176
     1
 62
     7
176
     1
 62
   257
176
     1
 90
        1
176
     1
 90
        1
176
     1
 40
1.0
176
     1
 90
        8
176
     1
 62
     7
176
     1
 40
1.0
176
     1
 90
        1
176
     1
 90
        6
176
     1
 90
        2
176
     1
 62
     7
176
     1
 90
        5
176
     1
 90
        0
176
     1
 90
        0
176
     1
290
     0
176
     1
 90
       13
176
     1
 40
0.0
176
     1
 90
        0
176
     1
290
     0
176
     1
290
     1
176
     1
290
     1
176
     1
290
     0
176
     1
290
     0
176
     1
290
     0
176
     1
290
     0
176
     1
290
     0
176
     1
290
     0
176
     1
 90
       50
176
     1
 40
0.0
176
     1
 40
1.0
176
     1
 90
        0
176
     1
 62
    18
420
        0
176
     1
 90
       50
176
     1
 90
        3
176
     1
 62
     5
420
      255
176
     1
290
     0
176
     1
 90
       50
176
     1
 90
       50
176
     1
 90
       50
176
     1
290
     0
176
     1
 90
       50
176
     1
 62
   256
176
     0
 40
1.0
176
     0
 90
        2
176
     1
  1
strokes_ogs.tif
176
     1
290
     0
176
     1
 40
1.0
176
     1
 40
1.0
176
     1
  0
VISUALSTYLE
  5
2B
102
{ACAD_REACTORS
330
29
102
}
330
29
100
AcDbVisualStyle
  2
FlatWithEdges
 70
     1
177
     3
291
     1
 70
    58
 90
        2
176
     1
 90
        1
176
     1
 90
        1
176
     1
 90
        2
176
     1
 40
0.6
176
     1
 40
30.0
176
     1
 62
     7
420
 16777215
176
     1
 90
        1
176
     1
 90
        0
176
     1
 62
     7
176
     1
 62
   257
176
     1
 90
        1
176
     1
 90
        1
176
     1
 40
1.0
176
     1
 90
        0
176
     1
 62
   257
176
     1
 40
1.0
176
     1
 90
        1
176
     1
 90
        6
176
     1
 90
        2
176
     1
 62
     7
176
     1
 90
        5
176
     1
 90
        0
176
     1
 90
        0
176
     1
290
     0
176
     1
 90
       13
176
     1
 40
0.0
176
     1
 90
        0
176
     1
290
     0
176
     1
290
     1
176
     1
290
     1
176
     1
290
     0
176
     1
290
     0
176
     1
290
     0
176
     1
290
     0
176
     1
290
     0
176
     1
290
     0
176
     1
 90
       50
176
     1
 40
0.0
176
     1
 40
1.0
176
     1
 90
        0
176
     1
 62
    18
420
        0
176
     1
 90
       50
176
     1
 90
        3
176
     1
 62
     5
420
      255
176
     1
290
     0
176
     1
 90
       50
176
     1
 90
       50
176
     1
 90
       50
176
     1
290
     0
176
     1
 90
       50
176
     1
 62
   256
176
     0
 40
1.0
176
     0
 90
        2
176
     1
  1
strokes_ogs.tif
176
     1
290
     0
176
     1
 40
1.0
176
     1
 40
1.0
176
     1
  0
VISUALSTYLE
  5
2C
102
{ACAD_REACTORS
330
29
102
}
330
29
100
AcDbVisualStyle
  2
Gouraud
 70
     2
177
     3
291
     1
 70
    58
 90
        2
176
     1
 90
        2
176
     1
 90
        1
176
     1
 90
        2
176
     1
 40
0.6
176
     1
 40
30.0
176
     1
 62
     7
420
 16777215
176
     1
 90
        0
176
     1
 90
        0
176
     1
 62
     7
176
     1
 62
   257
176
     1
 90
        1
176
     1
 90
        1
176
     1
 40
1.0
176
     1
 90
        0
176
     1
 62
     7
176
     1
 40
1.0
176
     1
 90
        1
176
     1
 90
        6
176
     1
 90
        2
176
     1
 62
     7
176
     1
 90
        5
176
     1
 90
        0
176
     1
 90
        0
176
     1
290
     0
176
     1
 90
       13
176
     1
 40
0.0
176
     1
 90
        0
176
     1
290
     0
176
     1
290
     1
176
     1
290
     1
176
     1
290
     0
176
     1
290
     0
176
     1
290
     0
176
     1
290
     0
176
     1
290
     0
176
     1
290
     0
176
     1
 90
       50
176
     1
 40
0.0
176
     1
 40
1.0
176
     1
 90
        0
176
     1
 62
    18
420
        0
176
     1
 90
       50
176
     1
 90
        3
176
     1
 62
     5
420
      255
176
     1
290
     0
176
     1
 90
       50
176
     1
 90
       50
176
     1
 90
       50
176
     1
290
     0
176
     1
 90
       50
176
     1
 62
   256
176
     0
 40
1.0
176
     0
 90
        2
176
     1
  1
strokes_ogs.tif
176
     1
290
     0
176
     1
 40
1.0
176
     1
 40
1.0
176
     1
  0
VISUALSTYLE
  5
2D
102
{ACAD_REACTORS
330
29
102
}
330
29
100
AcDbVisualStyle
  2
GouraudWithEdges
 70
     3
177
     3
291
     1
 70
    58
 90
        2
176
     1
 90
        2
176
     1
 90
        1
176
     1
 90
        2
176
     1
 40
0.6
176
     1
 40
30.0
176
     1
 62
     7
420
 16777215
176
     1
 90
        1
176
     1
 90
        0
176
     1
 62
     7
176
     1
 62
   257
176
     1
 90
        1
176
     1
 90
        1
176
     1
 40
1.0
176
     1
 90
        0
176
     1
 62
   257
176
     1
 40
1.0
176
     1
 90
        1
176
     1
 90
        6
176
     1
 90
        2
176
     1
 62
     7
176
     1
 90
        5
176
     1
 90
        0
176
     1
 90
        0
176
     1
290
     0
176
     1
 90
       13
176
     1
 40
0.0
176
     1
 90
        0
176
     1
290
     0
176
     1
290
     1
176
     1
290
     1
176
     1
290
     0
176
     1
290
     0
176
     1
290
     0
176
     1
290
     0
176
     1
290
     0
176
     1
290
     0
176
     1
 90
       50
176
     1
 40
0.0
176
     1
 40
1.0
176
     1
 90
        0
176
     1
 62
    18
420
        0
176
     1
 90
       50
176
     1
 90
        3
176
     1
 62
     5
420
      255
176
     1
290
     0
176
     1
 90
       50
176
     1
 90
       50
176
     1
 90
       50
176
     1
290
     0
176
     1
 90
       50
176
     1
 62
   256
176
     0
 40
1.0
176
     0
 90
        2
176
     1
  1
strokes_ogs.tif
176
     1
290
     0
176
     1
 40
1.0
176
     1
 40
1.0
176
     1
  0
VISUALSTYLE
  5
31
102
{ACAD_REACTORS
330
29
102
}
330
29
100
AcDbVisualStyle
  2
Hidden
 70
     6
177
     3
291
     0
 70
    58
 90
        1
176
     1
 90
        2
176
     1
 90
        2
176
     1
 90
        0
176
     1
 40
0.6
176
     1
 40
30.0
176
     1
 62
     7
420
 16777215
176
     1
 90
        2
176
     1
 90
        2
176
     1
 62
     7
176
     1
 62
   257
176
     1
 90
        2
176
     1
 90
        1
176
     1
 40
40.0
176
     1
 90
        0
176
     1
 62
   257
176
     1
 40
1.0
176
     1
 90
        1
176
     1
 90
        6
176
     1
 90
        2
176
     1
 62
     7
176
     1
 90
        3
176
     1
 90
        0
176
     1
 90
        0
176
     1
290
     0
176
     1
 90
        1
176
     1
 40
0.0
176
     1
 90
        0
176
     1
290
     0
176
     1
290
     1
176
     1
290
     1
176
     1
290
     0
176
     1
290
     0
176
     1
290
     0
176
     1
290
     0
176
     1
290
     0
176
     1
290
     0
176
     1
 90
       50
176
     1
 40
0.0
176
     1
 40
1.0
176
     1
 90
        0
176
     1
 62
    18
420
        0
176
     1
 90
       50
176
     1
 90
        3
176
     1
 62
     5
420
      255
176
     1
290
     0
176
     1
 90
       50
176
     1
 90
       50
176
     1
 90
       50
176
     1
290
     0
176
     1
 90
       50
176
     1
 62
   256
176
     0
 40
1.0
176
     0
 90
        2
176
     1
  1
strokes_ogs.tif
176
     1
290
     0
176
     1
 40
1.0
176
     1
 40
1.0
176
     1
  0
VISUALSTYLE
  5
3F
102
{ACAD_REACTORS
330
29
102
}
330
29
100
AcDbVisualStyle
  2
JitterOff
 70
    20
177
     3
291
     1
 70
    58
 90
        2
176
     0
 90
        2
176
     0
 90
        0
176
     0
 90
        0
176
     0
 40
0.6
176
     0
 40
30.0
176
     0
 62
     7
420
 16777215
176
     0
 90
        1
176
     0
 90
        4
176
     0
 62
     7
176
     0
 62
   257
176
     0
 90
        1
176
     0
 90
        1
176
     0
 40
1.0
176
     0
 90
       10
176
     2
 62
     7
176
     0
 40
1.0
176
     0
 90
        1
176
     0
 90
        6
176
     0
 90
        2
176
     0
 62
     7
176
     0
 90
        5
176
     0
 90
        0
176
     0
 90
        0
176
     0
290
     0
176
     0
 90
        1
176
     0
 40
0.0
176
     0
 90
        0
176
     0
290
     0
176
     0
290
     1
176
     0
290
     1
176
     0
290
     0
176
     0
290
     0
176
     0
290
     0
176
     0
290
     0
176
     0
290
     0
176
     0
290
     0
176
     0
 90
       50
176
     0
 40
0.0
176
     0
 40
1.0
176
     0
 90
        0
176
     0
 62
    18
420
        0
176
     0
 90
       50
176
     0
 90
        3
176
     0
 62
     5
420
      255
176
     0
290
     0
176
     0
 90
       50
176
     0
 90
       50
176
     0
 90
       50
176
     0
290
     0
176
     0
 90
       50
176
     0
 62
   256
176
     0
 40
1.0
176
     0
 90
        2
176
     0
  1
strokes_ogs.tif
176
     0
290
     0
176
     0
 40
1.0
176
     0
 40
1.0
176
     0
  0
VISUALSTYLE
  5
37
102
{ACAD_REACTORS
330
29
102
}
330
29
100
AcDbVisualStyle
  2
Linepattern
 70
    14
177
     3
291
     1
 70
    58
 90
        2
176
     1
 90
        2
176
     1
 90
        0
176
     1
 90
        0
176
     1
 40
0.6
176
     1
 40
30.0
176
     1
 62
     7
420
 16777215
176
     1
 90
        1
176
     1
 90
        4
176
     1
 62
     7
176
     1
 62
   257
176
     1
 90
        7
176
     1
 90
        7
176
     1
 40
1.0
176
     1
 90
        8
176
     1
 62
     7
176
     1
 40
1.0
176
     1
 90
        1
176
     1
 90
        6
176
     1
 90
        2
176
     1
 62
     7
176
     1
 90
        5
176
     1
 90
        0
176
     1
 90
        0
176
     1
290
     0
176
     1
 90
        1
176
     1
 40
0.0
176
     1
 90
        0
176
     1
290
     0
176
     1
290
     1
176
     1
290
     1
176
     1
290
     0
176
     1
290
     0
176
     1
290
     0
176
     1
290
     0
176
     1
290
     0
176
     1
290
     0
176
     1
 90
       50
176
     1
 40
0.0
176
     1
 40
1.0
176
     1
 90
        0
176
     1
 62
    18
420
        0
176
     1
 90
       50
176
     1
 90
        3
176
     1
 62
     5
420
      255
176
     1
290
     0
176
     1
 90
       50
176
     1
 90
       50
176
     1
 90
       50
176
     1
290
     0
176
     1
 90
       50
176
     1
 62
   256
176
     0
 40
1.0
176
     0
 90
        2
176
     1
  1
strokes_ogs.tif
176
     1
290
     0
176
     1
 40
1.0
176
     1
 40
1.0
176
     1
  0
VISUALSTYLE
  5
40
102
{ACAD_REACTORS
330
29
102
}
330
29
100
AcDbVisualStyle
  2
OverhangOff
 70
    21
177
     3
291
     1
 70
    58
 90
        2
176
     0
 90
        2
176
     0
 90
        0
176
     0
 90
        0
176
     0
 40
0.6
176
     0
 40
30.0
176
     0
 62
     7
420
 16777215
176
     0
 90
        1
176
     0
 90
        4
176
     0
 62
     7
176
     0
 62
   257
176
     0
 90
        1
176
     0
 90
        1
176
     0
 40
1.0
176
     0
 90
        9
176
     2
 62
     7
176
     0
 40
1.0
176
     0
 90
        1
176
     0
 90
        6
176
     0
 90
        2
176
     0
 62
     7
176
     0
 90
        5
176
     0
 90
        0
176
     0
 90
        0
176
     0
290
     0
176
     0
 90
        1
176
     0
 40
0.0
176
     0
 90
        0
176
     0
290
     0
176
     0
290
     1
176
     0
290
     1
176
     0
290
     0
176
     0
290
     0
176
     0
290
     0
176
     0
290
     0
176
     0
290
     0
176
     0
290
     0
176
     0
 90
       50
176
     0
 40
0.0
176
     0
 40
1.0
176
     0
 90
        0
176
     0
 62
    18
420
        0
176
     0
 90
       50
176
     0
 90
        3
176
     0
 62
     5
420
      255
176
     0
290
     0
176
     0
 90
       50
176
     0
 90
       50
176
     0
 90
       50
176
     0
290
     0
176
     0
 90
       50
176
     0
 62
   256
176
     0
 40
1.0
176
     0
 90
        2
176
     0
  1
strokes_ogs.tif
176
     0
290
     0
176
     0
 40
1.0
176
     0
 40
1.0
176
     0
  0
VISUALSTYLE
  5
33
102
{ACAD_REACTORS
330
29
102
}
330
29
100
AcDbVisualStyle
  2
Realistic
 70
     8
177
     3
291
     0
 70
    58
 90
        2
176
     1
 90
        3
176
     1
 90
        0
176
     1
 90
        2
176
     1
 40
0.6
176
     1
 40
30.0
176
     1
 62
     7
420
 16777215
176
     1
 90
        0
176
     1
 90
        0
176
     1
 62
     7
176
     1
 62
   257
176
     1
 90
        1
176
     1
 90
        1
176
     1
 40
1.0
176
     1
 90
        8
176
     1
 62
   257
176
     1
 40
1.0
176
     1
 90
        1
176
     1
 90
        6
176
     1
 90
        2
176
     1
 62
     7
176
     1
 90
        3
176
     1
 90
        0
176
     1
 90
        0
176
     1
290
     0
176
     1
 90
       13
176
     1
 40
0.0
176
     1
 90
        0
176
     1
290
     0
176
     1
290
     1
176
     1
290
     1
176
     1
290
     0
176
     1
290
     0
176
     1
290
     0
176
     1
290
     0
176
     1
290
     0
176
     1
290
     0
176
     1
 90
       50
176
     1
 40
0.0
176
     1
 40
1.0
176
     1
 90
        0
176
     1
 62
    18
420
        0
176
     1
 90
       50
176
     1
 90
        3
176
     1
 62
     5
420
      255
176
     1
290
     0
176
     1
 90
       50
176
     1
 90
       50
176
     1
 90
       50
176
     1
290
     0
176
     1
 90
       50
176
     1
 62
   256
176
     0
 40
1.0
176
     0
 90
        2
176
     1
  1
strokes_ogs.tif
176
     1
290
     0
176
     1
 40
1.0
176
     1
 40
1.0
176
     1
  0
VISUALSTYLE
  5
3E
102
{ACAD_REACTORS
330
29
102
}
330
29
100
AcDbVisualStyle
  2
Shaded
 70
    27
177
     3
291
     0
 70
    58
 90
        2
176
     1
 90
        2
176
     1
 90
        1
176
     1
 90
        2
176
     1
 40
0.6
176
     1
 40
30.0
176
     1
 62
     7
420
 16777215
176
     1
 90
        0
176
     1
 90
        4
176
     1
 62
     7
176
     1
 62
   257
176
     1
 90
        1
176
     1
 90
        1
176
     1
 40
1.0
176
     1
 90
        8
176
     1
 62
   257
176
     1
 40
1.0
176
     1
 90
        1
176
     1
 90
        6
176
     1
 90
        2
176
     1
 62
     8
420
  7895160
176
     1
 90
        3
176
     1
 90
        0
176
     1
 90
        0
176
     1
290
     0
176
     1
 90
        5
176
     1
 40
0.0
176
     1
 90
        0
176
     1
290
     0
176
     1
290
     1
176
     1
290
     1
176
     1
290
     0
176
     1
290
     0
176
     1
290
     0
176
     1
290
     0
176
     1
290
     0
176
     1
290
     0
176
     1
 90
       50
176
     1
 40
0.0
176
     1
 40
1.0
176
     1
 90
        0
176
     1
 62
    18
420
        0
176
     1
 90
       50
176
     1
 90
        3
176
     1
 62
     5
420
      255
176
     1
290
     0
176
     1
 90
       50
176
     1
 90
       50
176
     1
 90
       50
176
     1
290
     0
176
     1
 90
       50
176
     1
 62
   256
176
     0
 40
1.0
176
     0
 90
        2
176
     1
  1
strokes_ogs.tif
176
     1
290
     0
176
     1
 40
1.0
176
     1
 40
1.0
176
     1
  0
VISUALSTYLE
  5
3D
102
{ACAD_REACTORS
330
29
102
}
330
29
100
AcDbVisualStyle
  2
Shaded with edges
 70
    26
177
     3
291
     0
 70
    58
 90
        2
176
     1
 90
        2
176
     1
 90
        1
176
     1
 90
        2
176
     1
 40
0.6
176
     1
 40
30.0
176
     1
 62
     7
420
 16777215
176
     1
 90
        1
176
     1
 90
        2
176
     1
 62
     7
176
     1
 62
   257
176
     1
 90
        2
176
     1
 90
        1
176
     1
 40
1.0
176
     1
 90
        8
176
     1
 62
   257
176
     1
 40
1.0
176
     1
 90
        1
176
     1
 90
        6
176
     1
 90
        2
176
     1
 62
     7
176
     1
 90
        3
176
     1
 90
        0
176
     1
 90
        0
176
     1
290
     0
176
     1
 90
        5
176
     1
 40
0.0
176
     1
 90
        0
176
     1
290
     0
176
     1
290
     1
176
     1
290
     1
176
     1
290
     0
176
     1
290
     0
176
     1
290
     0
176
     1
290
     0
176
     1
290
     0
176
     1
290
     0
176
     1
 90
       50
176
     1
 40
0.0
176
     1
 40
1.0
176
     1
 90
        0
176
     1
 62
    18
420
        0
176
     1
 90
       50
176
     1
 90
        3
176
     1
 62
     5
420
      255
176
     1
290
     0
176
     1
 90
       50
176
     1
 90
       50
176
     1
 90
       50
176
     1
290
     0
176
     1
 90
       50
176
     1
 62
   256
176
     0
 40
1.0
176
     0
 90
        2
176
     1
  1
strokes_ogs.tif
176
     1
290
     0
176
     1
 40
1.0
176
     1
 40
1.0
176
     1
  0
VISUALSTYLE
  5
3A
102
{ACAD_REACTORS
330
29
102
}
330
29
100
AcDbVisualStyle
  2
Shades of Gray
 70
    23
177
     3
291
     0
 70
    58
 90
        2
176
     1
 90
        2
176
     1
 90
        3
176
     1
 90
        0
176
     1
 40
0.6
176
     1
 40
30.0
176
     1
 62
     7
420
 16777215
176
     1
 90
        2
176
     1
 90
        2
176
     1
 62
     7
176
     1
 62
     7
176
     1
 90
        1
176
     1
 90
        1
176
     1
 40
40.0
176
     1
 90
        8
176
     1
 62
     7
176
     1
 40
1.0
176
     1
 90
        1
176
     1
 90
        6
176
     1
 90
        2
176
     1
 62
     7
176
     1
 90
        3
176
     1
 90
        0
176
     1
 90
        0
176
     1
290
     0
176
     1
 90
        1
176
     1
 40
0.0
176
     1
 90
        0
176
     1
290
     0
176
     1
290
     1
176
     1
290
     1
176
     1
290
     0
176
     1
290
     0
176
     1
290
     0
176
     1
290
     0
176
     1
290
     0
176
     1
290
     0
176
     1
 90
       50
176
     1
 40
0.0
176
     1
 40
1.0
176
     1
 90
        0
176
     1
 62
    18
420
        0
176
     1
 90
       50
176
     1
 90
        3
176
     1
 62
     5
420
      255
176
     1
290
     0
176
     1
 90
       50
176
     1
 90
       50
176
     1
 90
       50
176
     1
290
     0
176
     1
 90
       50
176
     1
 62
   256
176
     0
 40
1.0
176
     0
 90
        2
176
     1
  1
strokes_ogs.tif
176
     1
290
     0
176
     1
 40
1.0
176
     1
 40
1.0
176
     1
  0
VISUALSTYLE
  5
3B
102
{ACAD_REACTORS
330
29
102
}
330
29
100
AcDbVisualStyle
  2
Sketchy
 70
    24
177
     3
291
     0
 70
    58
 90
        1
176
     1
 90
        2
176
     1
 90
        2
176
     1
 90
        0
176
     1
 40
0.6
176
     1
 40
30.0
176
     1
 62
     7
420
 16777215
176
     1
 90
        2
176
     1
 90
        2
176
     1
 62
     7
176
     1
 62
     7
176
     1
 90
        1
176
     1
 90
        1
176
     1
 40
40.0
176
     1
 90
       11
176
     1
 62
     7
176
     1
 40
1.0
176
     1
 90
        1
176
     1
 90
        6
176
     1
 90
        2
176
     1
 62
     7
176
     1
 90
        6
176
     1
 90
        0
176
     1
 90
        0
176
     1
290
     0
176
     1
 90
        1
176
     1
 40
0.0
176
     1
 90
        0
176
     1
290
     0
176
     1
290
     1
176
     1
290
     1
176
     1
290
     0
176
     1
290
     0
176
     1
290
     0
176
     1
290
     0
176
     1
290
     0
176
     1
290
     0
176
     1
 90
       50
176
     1
 40
0.0
176
     1
 40
1.0
176
     1
 90
        0
176
     1
 62
    18
420
        0
176
     1
 90
       50
176
     1
 90
        3
176
     1
 62
     5
420
      255
176
     1
290
     0
176
     1
 90
       50
176
     1
 90
       50
176
     1
 90
       50
176
     1
290
     0
176
     1
 90
       50
176
     1
 62
   256
176
     0
 40
1.0
176
     0
 90
        2
176
     1
  1
strokes_ogs.tif
176
     1
290
     0
176
     1
 40
1.0
176
     1
 40
1.0
176
     1
  0
VISUALSTYLE
  5
36
102
{ACAD_REACTORS
330
29
102
}
330
29
100
AcDbVisualStyle
  2
Thicken
 70
    13
177
     3
291
     1
 70
    58
 90
        2
176
     1
 90
        2
176
     1
 90
        0
176
     1
 90
        0
176
     1
 40
0.6
176
     1
 40
30.0
176
     1
 62
     7
420
 16777215
176
     1
 90
        1
176
     1
 90
        4
176
     1
 62
     7
176
     1
 62
   257
176
     1
 90
        1
176
     1
 90
        1
176
     1
 40
1.0
176
     1
 90
       12
176
     1
 62
     7
176
     1
 40
1.0
176
     1
 90
        1
176
     1
 90
        6
176
     1
 90
        2
176
     1
 62
     7
176
     1
 90
        5
176
     1
 90
        0
176
     1
 90
        0
176
     1
290
     0
176
     1
 90
        1
176
     1
 40
0.0
176
     1
 90
        0
176
     1
290
     0
176
     1
290
     1
176
     1
290
     1
176
     1
290
     0
176
     1
290
     0
176
     1
290
     0
176
     1
290
     0
176
     1
290
     0
176
     1
290
     0
176
     1
 90
       50
176
     1
 40
0.0
176
     1
 40
1.0
176
     1
 90
        0
176
     1
 62
    18
420
        0
176
     1
 90
       50
176
     1
 90
        3
176
     1
 62
     5
420
      255
176
     1
290
     0
176
     1
 90
       50
176
     1
 90
       50
176
     1
 90
       50
176
     1
290
     0
176
     1
 90
       50
176
     1
 62
   256
176
     0
 40
1.0
176
     0
 90
        2
176
     1
  1
strokes_ogs.tif
176
     1
290
     0
176
     1
 40
1.0
176
     1
 40
1.0
176
     1
  0
VISUALSTYLE
  5
30
102
{ACAD_REACTORS
330
29
102
}
330
29
100
AcDbVisualStyle
  2
Wireframe
 70
     5
177
     3
291
     0
 70
    58
 90
        0
176
     1
 90
        2
176
     1
 90
        0
176
     1
 90
        0
176
     1
 40
0.6
176
     1
 40
30.0
176
     1
 62
     7
420
 16777215
176
     1
 90
        1
176
     1
 90
        4
176
     1
 62
     7
176
     1
 62
   257
176
     1
 90
        1
176
     1
 90
        1
176
     1
 40
1.0
176
     1
 90
        0
176
     1
 62
   257
176
     1
 40
1.0
176
     1
 90
        1
176
     1
 90
        6
176
     1
 90
        2
176
     1
 62
     7
176
     1
 90
        3
176
     1
 90
        0
176
     1
 90
        0
176
     1
290
     0
176
     1
 90
        1
176
     1
 40
0.0
176
     1
 90
        0
176
     1
290
     0
176
     1
290
     1
176
     1
290
     1
176
     1
290
     0
176
     1
290
     0
176
     1
290
     0
176
     1
290
     0
176
     1
290
     0
176
     1
290
     0
176
     1
 90
       50
176
     1
 40
0.0
176
     1
 40
1.0
176
     1
 90
        0
176
     1
 62
    18
420
        0
176
     1
 90
       50
176
     1
 90
        3
176
     1
 62
     5
420
      255
176
     1
290
     0
176
     1
 90
       50
176
     1
 90
       50
176
     1
 90
       50
176
     1
290
     0
176
     1
 90
       50
176
     1
 62
   256
176
     0
 40
1.0
176
     0
 90
        2
176
     1
  1
strokes_ogs.tif
176
     1
290
     0
176
     1
 40
1.0
176
     1
 40
1.0
176
     1
  0
VISUALSTYLE
  5
3C
102
{ACAD_REACTORS
330
29
102
}
330
29
100
AcDbVisualStyle
  2
X-Ray
 70
    25
177
     3
291
     0
 70
    58
 90
        2
176
     1
 90
        2
176
     1
 90
        1
176
     1
 90
        1
176
     1
 40
0.5
176
     1
 40
30.0
176
     1
 62
     7
420
 16777215
176
     1
 90
        1
176
     1
 90
        0
176
     1
 62
     7
176
     1
 62
   257
176
     1
 90
        1
176
     1
 90
        1
176
     1
 40
1.0
176
     1
 90
        8
176
     1
 62
     7
176
     1
 40
1.0
176
     1
 90
        1
176
     1
 90
        6
176
     1
 90
        2
176
     1
 62
     7
176
     1
 90
        3
176
     1
 90
        0
176
     1
 90
        0
176
     1
290
     0
176
     1
 90
       13
176
     1
 40
0.0
176
     1
 90
        0
176
     1
290
     0
176
     1
290
     1
176
     1
290
     1
176
     1
290
     0
176
     1
290
     0
176
     1
290
     0
176
     1
290
     0
176
     1
290
     0
176
     1
290
     0
176
     1
 90
       50
176
     1
 40
0.0
176
     1
 40
1.0
176
     1
 90
        0
176
     1
 62
    18
420
        0
176
     1
 90
       50
176
     1
 90
        3
176
     1
 62
     5
420
      255
176
     1
290
     0
176
     1
 90
       50
176
     1
 90
       50
176
     1
 90
       50
176
     1
290
     0
176
     1
 90
       50
176
     1
 62
   256
176
     0
 40
1.0
176
     0
 90
        2
176
     1
  1
strokes_ogs.tif
176
     1
290
     0
176
     1
 40
1.0
176
     1
 40
1.0
176
     1
  0
DICTIONARYVAR
  5
287
102
{ACAD_REACTORS
330
282
102
}
330
282
100
DictionaryVariables
280
     0
  1
1:1
  0
DICTIONARYVAR
  5
284
102
{ACAD_REACTORS
330
282
102
}
330
282
100
DictionaryVariables
280
     0
  1
STANDARD
  0
DICTIONARYVAR
  5
283
102
{ACAD_REACTORS
330
282
102
}
330
282
100
DictionaryVariables
280
     0
  1
STANDARD
  0
DICTIONARYVAR
  5
285
102
{ACAD_REACTORS
330
282
102
}
330
282
100
DictionaryVariables
280
     0
  1
Imperial24
  0
DICTIONARYVAR
  5
286
102
{ACAD_REACTORS
330
282
102
}
330
282
100
DictionaryVariables
280
     0
  1
Imperial24
  0
DICTIONARY
  5
1A
330
19
100
AcDbDictionary
280
     1
281
     1
  3
BUMPTILE
360
1C
  3
DIFFUSETILE
360
1B
  3
OPACITYTILE
360
1F
  3
REFLECTIONTILE
360
1E
  3
REFRACTIONTILE
360
20
  3
SPECULARTILE
360
1D
  0
DICTIONARY
  5
12
330
11
100
AcDbDictionary
280
     1
281
     1
  3
BUMPTILE
360
14
  3
DIFFUSETILE
360
13
  3
OPACITYTILE
360
17
  3
REFLECTIONTILE
360
16
  3
REFRACTIONTILE
360
18
  3
SPECULARTILE
360
15
  0
DICTIONARY
  5
22
330
21
100
AcDbDictionary
280
     1
281
     1
  3
BUMPTILE
360
24
  3
DIFFUSETILE
360
23
  3
OPACITYTILE
360
27
  3
REFLECTIONTILE
360
26
  3
REFRACTIONTILE
360
28
  3
SPECULARTILE
360
25
  0
DICTIONARY
  5
288
330
65
100
AcDbDictionary
280
     1
281
     1
  3
ACAD_ROUNDTRIP_2008_TABLESTYLE_CELLSTYLEMAP
360
289
  0
XRECORD
  5
1C
102
{ACAD_REACTORS
330
1A
102
}
330
1A
100
AcDbXrecord
280
     1
270
     1
271
     1
  0
XRECORD
  5
1B
102
{ACAD_REACTORS
330
1A
102
}
330
1A
100
AcDbXrecord
280
     1
270
     1
271
     1
  0
XRECORD
  5
1F
102
{ACAD_REACTORS
330
1A
102
}
330
1A
100
AcDbXrecord
280
     1
270
     1
271
     1
  0
XRECORD
  5
1E
102
{ACAD_REACTORS
330
1A
102
}
330
1A
100
AcDbXrecord
280
     1
270
     1
271
     1
  0
XRECORD
  5
20
102
{ACAD_REACTORS
330
1A
102
}
330
1A
100
AcDbXrecord
280
     1
270
     1
271
     1
  0
XRECORD
  5
1D
102
{ACAD_REACTORS
330
1A
102
}
330
1A
100
AcDbXrecord
280
     1
270
     1
271
     1
  0
XRECORD
  5
14
102
{ACAD_REACTORS
330
12
102
}
330
12
100
AcDbXrecord
280
     1
270
     1
271
     1
  0
XRECORD
  5
13
102
{ACAD_REACTORS
330
12
102
}
330
12
100
AcDbXrecord
280
     1
270
     1
271
     1
  0
XRECORD
  5
17
102
{ACAD_REACTORS
330
12
102
}
330
12
100
AcDbXrecord
280
     1
270
     1
271
     1
  0
XRECORD
  5
16
102
{ACAD_REACTORS
330
12
102
}
330
12
100
AcDbXrecord
280
     1
270
     1
271
     1
  0
XRECORD
  5
18
102
{ACAD_REACTORS
330
12
102
}
330
12
100
AcDbXrecord
280
     1
270
     1
271
     1
  0
XRECORD
  5
15
102
{ACAD_REACTORS
330
12
102
}
330
12
100
AcDbXrecord
280
     1
270
     1
271
     1
  0
XRECORD
  5
24
102
{ACAD_REACTORS
330
22
102
}
330
22
100
AcDbXrecord
280
     1
270
     1
271
     1
  0
XRECORD
  5
23
102
{ACAD_REACTORS
330
22
102
}
330
22
100
AcDbXrecord
280
     1
270
     1
271
     1
  0
XRECORD
  5
27
102
{ACAD_REACTORS
330
22
102
}
330
22
100
AcDbXrecord
280
     1
270
     1
271
     1
  0
XRECORD
  5
26
102
{ACAD_REACTORS
330
22
102
}
330
22
100
AcDbXrecord
280
     1
270
     1
271
     1
  0
XRECORD
  5
28
102
{ACAD_REACTORS
330
22
102
}
330
22
100
AcDbXrecord
280
     1
270
     1
271
     1
  0
XRECORD
  5
25
102
{ACAD_REACTORS
330
22
102
}
330
22
100
AcDbXrecord
280
     1
270
     1
271
     1
  0
CELLSTYLEMAP
  5
289
102
{ACAD_REACTORS
330
288
102
}
330
288
100
AcDbCellStyleMap
 90
        3
300
CELLSTYLE
  1
TABLEFORMAT_BEGIN
 90
        5
170
     1
 91
        0
 92
    32768
 62
   257
 93
        1
300
CONTENTFORMAT
  1
CONTENTFORMAT_BEGIN
 90
        0
 91
        0
 92
      512
 93
        0
300

 40
0.0
140
1.0
 94
        5
 62
     0
340
55
144
0.25
309
CONTENTFORMAT_END
171
     0
 94
        0
309
TABLEFORMAT_END
  1
CELLSTYLE_BEGIN
 90
        1
 91
        1
300
_TITLE
309
CELLSTYLE_END
300
CELLSTYLE
  1
TABLEFORMAT_BEGIN
 90
        5
170
     1
 91
        0
 92
        0
 62
   257
 93
        1
300
CONTENTFORMAT
  1
CONTENTFORMAT_BEGIN
 90
        0
 91
        0
 92
      512
 93
        0
300

 40
0.0
140
1.0
 94
        5
 62
     0
340
55
144
0.18
309
CONTENTFORMAT_END
171
     0
 94
        0
309
TABLEFORMAT_END
  1
CELLSTYLE_BEGIN
 90
        2
 91
        1
300
_HEADER
309
CELLSTYLE_END
300
CELLSTYLE
  1
TABLEFORMAT_BEGIN
 90
        5
170
     1
 91
        0
 92
        0
 62
   257
 93
        1
300
CONTENTFORMAT
  1
CONTENTFORMAT_BEGIN
 90
        0
 91
        0
 92
      512
 93
        0
300

 40
0.0
140
1.0
 94
        2
 62
     0
340
55
144
0.18
309
CONTENTFORMAT_END
171
     0
 94
        0
309
TABLEFORMAT_END
  1
CELLSTYLE_BEGIN
 90
        3
 91
        2
300
_DATA
309
CELLSTYLE_END
  0
ENDSEC
  0
EOF
