  0
SECTION
  2
HEADER
  9
$ACADVER
  1
AC1032
  9
$ACADMAINTVER
 90
      251
  9
$DWGCODEPAGE
  3
ANSI_1252
  9
$REQUIREDVERSIONS
160
                 0
  9
$INSBASE
 10
0.0
 20
0.0
 30
0.0
  9
$EXTMIN
 10
1.000000000000000E+20
 20
1.000000000000000E+20
 30
1.000000000000000E+20
  9
$EXTMAX
 10
-1.000000000000000E+20
 20
-1.000000000000000E+20
 30
-1.000000000000000E+20
  9
$LIMMIN
 10
0.0
 20
0.0
  9
$LIMMAX
 10
12.0
 20
9.0
  9
$ORTHOMODE
 70
     0
  9
$REGENMODE
 70
     1
  9
$FILLMODE
 70
     1
  9
$QTEXTMODE
 70
     0
  9
$MIRRTEXT
 70
     0
  9
$LTSCALE
 40
1.0
  9
$ATTMODE
 70
     1
  9
$TEXTSIZE
 40
0.2
  9
$TRACEWID
 40
0.05
  9
$TEXTSTYLE
  7
Standard
  9
$CLAYER
  8
0
  9
$CELTYPE
  6
ByLayer
  9
$CECOLOR
 62
   256
  9
$CELTSCALE
 40
1.0
  9
$DISPSILH
 70
     0
  9
$DIMSCALE
 40
1.0
  9
$DIMASZ
 40
0.18
  9
$DIMEXO
 40
0.0625
  9
$DIMDLI
 40
0.38
  9
$DIMRND
 40
0.0
  9
$DIMDLE
 40
0.0
  9
$DIMEXE
 40
0.18
  9
$DIMTP
 40
0.0
  9
$DIMTM
 40
0.0
  9
$DIMTXT
 40
0.18
  9
$DIMCEN
 40
0.09
  9
$DIMTSZ
 40
0.0
  9
$DIMTOL
 70
     0
  9
$DIMLIM
 70
     0
  9
$DIMTIH
 70
     1
  9
$DIMTOH
 70
     1
  9
$DIMSE1
 70
     0
  9
$DIMSE2
 70
     0
  9
$DIMTAD
 70
     0
  9
$DIMZIN
 70
     0
  9
$DIMBLK
  1

  9
$DIMASO
 70
     1
  9
$DIMSHO
 70
     1
  9
$DIMPOST
  1

  9
$DIMAPOST
  1

  9
$DIMALT
 70
     0
  9
$DIMALTD
 70
     2
  9
$DIMALTF
 40
25.4
  9
$DIMLFAC
 40
1.0
  9
$DIMTOFL
 70
     0
  9
$DIMTVP
 40
0.0
  9
$DIMTIX
 70
     0
  9
$DIMSOXD
 70
     0
  9
$DIMSAH
 70
     0
  9
$DIMBLK1
  1

  9
$DIMBLK2
  1

  9
$DIMSTYLE
  2
Standard
  9
$DIMCLRD
 70
     0
  9
$DIMCLRE
 70
     0
  9
$DIMCLRT
 70
     0
  9
$DIMTFAC
 40
1.0
  9
$DIMGAP
 40
0.09
  9
$DIMJUST
 70
     0
  9
$DIMSD1
 70
     0
  9
$DIMSD2
 70
     0
  9
$DIMTOLJ
 70
     1
  9
$DIMTZIN
 70
     0
  9
$DIMALTZ
 70
     0
  9
$DIMALTTZ
 70
     0
  9
$DIMUPT
 70
     0
  9
$DIMDEC
 70
     4
  9
$DIMTDEC
 70
     4
  9
$DIMALTU
 70
     2
  9
$DIMALTTD
 70
     2
  9
$DIMTXSTY
  7
Standard
  9
$DIMAUNIT
 70
     0
  9
$DIMADEC
 70
     0
  9
$DIMALTRND
 40
0.0
  9
$DIMAZIN
 70
     0
  9
$DIMDSEP
 70
    46
  9
$DIMATFIT
 70
     3
  9
$DIMFRAC
 70
     0
  9
$DIMLDRBLK
  1

  9
$DIMLUNIT
 70
     2
  9
$DIMLWD
 70
    -2
  9
$DIMLWE
 70
    -2
  9
$DIMTMOVE
 70
     0
  9
$DIMFXL
 40
1.0
  9
$DIMFXLON
 70
     0
  9
$DIMJOGANG
 40
0.7853981633974483
  9
$DIMTFILL
 70
     0
  9
$DIMTFILLCLR
 70
     0
  9
$DIMARCSYM
 70
     0
  9
$DIMLTYPE
  6

  9
$DIMLTEX1
  6

  9
$DIMLTEX2
  6

  9
$DIMTXTDIRECTION
 70
     0
  9
$LUNITS
 70
     2
  9
$LUPREC
 70
     4
  9
$SKETCHINC
 40
0.1
  9
$FILLETRAD
 40
0.0
  9
$AUNITS
 70
     0
  9
$AUPREC
 70
     0
  9
$MENU
  1
.
  9
$ELEVATION
 40
0.0
  9
$PELEVATION
 40
0.0
  9
$THICKNESS
 40
0.0
  9
$LIMCHECK
 70
     0
  9
$CHAMFERA
 40
0.0
  9
$CHAMFERB
 40
0.0
  9
$CHAMFERC
 40
0.0
  9
$CHAMFERD
 40
0.0
  9
$SKPOLY
 70
     0
  9
$TDCREATE
 40
2460047.485868056
  9
$TDUCREATE
 40
2460047.402534723
  9
$TDUPDATE
 40
2460047.485868056
  9
$TDUUPDATE
 40
2460047.402534723
  9
$TDINDWG
 40
0.0000000000
  9
$TDUSRTIMER
 40
0.0000000000
  9
$USRTIMER
 70
     1
  9
$ANGBASE
 50
0.0
  9
$ANGDIR
 70
     0
  9
$PDMODE
 70
     0
  9
$PDSIZE
 40
0.0
  9
$PLINEWID
 40
0.0
  9
$SPLFRAME
 70
     0
  9
$SPLINETYPE
 70
     6
  9
$SPLINESEGS
 70
     8
  9
$HANDSEED
  5
28F
  9
$SURFTAB1
 70
     6
  9
$SURFTAB2
 70
     6
  9
$SURFTYPE
 70
     6
  9
$SURFU
 70
     6
  9
$SURFV
 70
     6
  9
$UCSBASE
  2

  9
$UCSNAME
  2

  9
$UCSORG
 10
0.0
 20
0.0
 30
0.0
  9
$UCSXDIR
 10
1.0
 20
0.0
 30
0.0
  9
$UCSYDIR
 10
0.0
 20
1.0
 30
0.0
  9
$UCSORTHOREF
  2

  9
$UCSORTHOVIEW
 70
     0
  9
$UCSORGTOP
 10
0.0
 20
0.0
 30
0.0
  9
$UCSORGBOTTOM
 10
0.0
 20
0.0
 30
0.0
  9
$UCSORGLEFT
 10
0.0
 20
0.0
 30
0.0
  9
$UCSORGRIGHT
 10
0.0
 20
0.0
 30
0.0
  9
$UCSORGFRONT
 10
0.0
 20
0.0
 30
0.0
  9
$UCSORGBACK
 10
0.0
 20
0.0
 30
0.0
  9
$PUCSBASE
  2

  9
$PUCSNAME
  2

  9
$PUCSORG
 10
0.0
 20
0.0
 30
0.0
  9
$PUCSXDIR
 10
1.0
 20
0.0
 30
0.0
  9
$PUCSYDIR
 10
0.0
 20
1.0
 30
0.0
  9
$PUCSORTHOREF
  2

  9
$PUCSORTHOVIEW
 70
     0
  9
$PUCSORGTOP
 10
0.0
 20
0.0
 30
0.0
  9
$PUCSORGBOTTOM
 10
0.0
 20
0.0
 30
0.0
  9
$PUCSORGLEFT
 10
0.0
 20
0.0
 30
0.0
  9
$PUCSORGRIGHT
 10
0.0
 20
0.0
 30
0.0
  9
$PUCSORGFRONT
 10
0.0
 20
0.0
 30
0.0
  9
$PUCSORGBACK
 10
0.0
 20
0.0
 30
0.0
  9
$USERI1
 70
     0
  9
$USERI2
 70
     0
  9
$USERI3
 70
     0
  9
$USERI4
 70
     0
  9
$USERI5
 70
     0
  9
$USERR1
 40
0.0
  9
$USERR2
 40
0.0
  9
$USERR3
 40
0.0
  9
$USERR4
 40
0.0
  9
$USERR5
 40
0.0
  9
$WORLDVIEW
 70
     1
  9
$SHADEDGE
 70
     3
  9
$SHADEDIF
 70
    70
  9
$TILEMODE
 70
     1
  9
$MAXACTVP
 70
    64
  9
$PINSBASE
 10
0.0
 20
0.0
 30
0.0
  9
$PLIMCHECK
 70
     0
  9
$PEXTMIN
 10
1.000000000000000E+20
 20
1.000000000000000E+20
 30
1.000000000000000E+20
  9
$PEXTMAX
 10
-1.000000000000000E+20
 20
-1.000000000000000E+20
 30
-1.000000000000000E+20
  9
$PLIMMIN
 10
0.0
 20
0.0
  9
$PLIMMAX
 10
12.0
 20
9.0
  9
$UNITMODE
 70
     0
  9
$VISRETAIN
 70
     1
  9
$PLINEGEN
 70
     0
  9
$PSLTSCALE
 70
     1
  9
$TREEDEPTH
 70
  3020
  9
$CMLSTYLE
  2
Standard
  9
$CMLJUST
 70
     0
  9
$CMLSCALE
 40
1.0
  9
$PROXYGRAPHICS
 70
     1
  9
$MEASUREMENT
 70
     0
  9
$CELWEIGHT
370
    -1
  9
$ENDCAPS
280
     0
  9
$JOINSTYLE
280
     0
  9
$LWDISPLAY
290
     1
  9
$INSUNITS
 70
     4
  9
$HYPERLINKBASE
  1

  9
$STYLESHEET
  1

  9
$XEDIT
290
     1
  9
$CEPSNTYPE
380
     0
  9
$PSTYLEMODE
290
     1
  9
$FINGERPRINTGUID
  2
{FF72B8E6-E41B-274A-9E88-D6792CB7708D}
  9
$VERSIONGUID
  2
{6B0C6FD8-03FF-8B44-8C1E-6446C9C64FEF}
  9
$EXTNAMES
290
     1
  9
$PSVPSCALE
 40
0.0
  9
$OLESTARTUP
290
     0
  9
$SORTENTS
280
   127
  9
$INDEXCTL
280
     0
  9
$HIDETEXT
280
     1
  9
$XCLIPFRAME
280
     2
  9
$HALOGAP
280
     0
  9
$OBSCOLOR
 70
   257
  9
$OBSLTYPE
280
     0
  9
$INTERSECTIONDISPLAY
280
     0
  9
$INTERSECTIONCOLOR
 70
   257
  9
$DIMASSOC
280
     2
  9
$PROJECTNAME
  1

  9
$CAMERADISPLAY
290
     0
  9
$LENSLENGTH
 40
50.0
  9
$CAMERAHEIGHT
 40
0.0
  9
$STEPSPERSEC
 40
2.0
  9
$STEPSIZE
 40
6.0
  9
$3DDWFPREC
 40
2.0
  9
$PSOLWIDTH
 40
0.25
  9
$PSOLHEIGHT
 40
4.0
  9
$LOFTANG1
 40
1.570796326794896
  9
$LOFTANG2
 40
1.570796326794896
  9
$LOFTMAG1
 40
0.0
  9
$LOFTMAG2
 40
0.0
  9
$LOFTPARAM
 70
     7
  9
$LOFTNORMALS
280
     1
  9
$LATITUDE
 40
37.795
  9
$LONGITUDE
 40
-122.394
  9
$NORTHDIRECTION
 40
0.0
  9
$TIMEZONE
 70
 -8000
  9
$LIGHTGLYPHDISPLAY
280
     1
  9
$TILEMODELIGHTSYNCH
280
     1
  9
$CMATERIAL
347
11
  9
$SOLIDHIST
280
     0
  9
$SHOWHIST
280
     1
  9
$DWFFRAME
280
     2
  9
$DGNFRAME
280
     0
  9
$REALWORLDSCALE
290
     1
  9
$INTERFERECOLOR
 62
     1
  9
$INTERFEREOBJVS
345
33
  9
$INTERFEREVPVS
346
30
  9
$CSHADOW
280
     0
  9
$SHADOWPLANELOCATION
 40
0.0
  0
ENDSEC
  0
SECTION
  2
CLASSES
  0
CLASS
  1
ACDBDICTIONARYWDFLT
  2
AcDbDictionaryWithDefault
  3
ObjectDBX Classes
 90
        0
 91
        1
280
     0
281
     0
  0
CLASS
  1
MATERIAL
  2
AcDbMaterial
  3
ObjectDBX Classes
 90
     1153
 91
        3
280
     0
281
     0
  0
CLASS
  1
VISUALSTYLE
  2
AcDbVisualStyle
  3
ObjectDBX Classes
 90
     4095
 91
       24
280
     0
281
     0
  0
CLASS
  1
SCALE
  2
AcDbScale
  3
ObjectDBX Classes
 90
     1153
 91
       17
280
     0
281
     0
  0
CLASS
  1
TABLESTYLE
  2
AcDbTableStyle
  3
ObjectDBX Classes
 90
     4095
 91
        1
280
     0
281
     0
  0
CLASS
  1
MLEADERSTYLE
  2
AcDbMLeaderStyle
  3
ACDB_MLEADERSTYLE_CLASS
 90
     4095
 91
        1
280
     0
281
     0
  0
CLASS
  1
ACDBSECTIONVIEWSTYLE
  2
AcDbSectionViewStyle
  3
ObjectDBX Classes
 90
     1025
 91
        1
280
     0
281
     0
  0
CLASS
  1
ACDBDETAILVIEWSTYLE
  2
AcDbDetailViewStyle
  3
ObjectDBX Classes
 90
     1025
 91
        1
280
     0
281
     0
  0
CLASS
  1
DICTIONARYVAR
  2
AcDbDictionaryVar
  3
ObjectDBX Classes
 90
        0
 91
        5
280
     0
281
     0
  0
CLASS
  1
CELLSTYLEMAP
  2
AcDbCellStyleMap
  3
ObjectDBX Classes
 90
     1152
 91
        1
280
     0
281
     0
  0
ENDSEC
  0
SECTION
  2
TABLES
  0
TABLE
  2
VPORT
  5
8
330
0
100
AcDbSymbolTable
 70
     1
  0
VPORT
  5
57
330
8
100
AcDbSymbolTableRecord
100
AcDbViewportTableRecord
  2
*Active
 70
     0
 10
0.0
 20
0.0
 11
1.0
 21
1.0
 12
0.0
 22
0.0
 13
0.0
 23
0.0
 14
1.0
 24
1.0
 15
0.0
 25
0.0
 16
0.0
 26
0.0
 36
1.0
 17
104.9999999737499
 27
51.49999998712516
 37
0.0
 40
302.9399999242649
 41
0.7070707070707066
 42
50.0
 43
0.0
 44
0.0
 50
0.0
 51
0.0
 71
     0
 72
   100
 73
     1
 74
     1
 75
     0
 76
     0
 77
     0
 78
     0
281
     0
 65
     1
110
0.0
120
0.0
130
0.0
111
1.0
121
0.0
131
0.0
112
0.0
122
1.0
132
0.0
 79
     0
146
0.0
 60
     3
 61
     5
292
     1
282
     1
141
0.0
142
0.0
 63
   250
421
  3355443
  0
ENDTAB
  0
TABLE
  2
LTYPE
  5
5
330
0
100
AcDbSymbolTable
 70
     1
  0
LTYPE
  5
5B
330
5
100
AcDbSymbolTableRecord
100
AcDbLinetypeTableRecord
  2
ByBlock
 70
     0
  3

 72
    65
 73
     0
 40
0.0
  0
LTYPE
  5
5C
330
5
100
AcDbSymbolTableRecord
100
AcDbLinetypeTableRecord
  2
ByLayer
 70
     0
  3

 72
    65
 73
     0
 40
0.0
  0
LTYPE
  5
5D
330
5
100
AcDbSymbolTableRecord
100
AcDbLinetypeTableRecord
  2
Continuous
 70
     0
  3
Solid line
 72
    65
 73
     0
 40
0.0
  0
ENDTAB
  0
TABLE
  2
LAYER
  5
2
330
0
100
AcDbSymbolTable
 70
     2
  0
LAYER
  5
54
330
2
100
AcDbSymbolTableRecord
100
AcDbLayerTableRecord
  2
0
 70
     0
 62
     7
  6
Continuous
370
     0
390
F
347
21
348
0
  0
LAYER
  5
261
330
2
100
AcDbSymbolTableRecord
100
AcDbLayerTableRecord
  2
CAPA_BASE
 70
     0
 62
     7
  6
Continuous
370
     0
390
F
347
21
348
0
  0
ENDTAB
  0
TABLE
  2
STYLE
  5
3
330
0
100
AcDbSymbolTable
 70
     2
  0
STYLE
  5
55
330
3
100
AcDbSymbolTableRecord
100
AcDbTextStyleTableRecord
  2
Standard
 70
     0
 40
0.0
 41
1.0
 50
0.0
 71
     0
 42
0.2
  3
txt
  4

  0
STYLE
  5
5A
330
3
100
AcDbSymbolTableRecord
100
AcDbTextStyleTableRecord
  2
Annotative
 70
     0
 40
0.0
 41
1.0
 50
0.0
 71
     0
 42
0.2
  3
txt
  4

1001
AcadAnnotative
1000
AnnotativeData
1002
{
1070
     1
1070
     1
1002
}
  0
ENDTAB
  0
TABLE
  2
VIEW
  5
6
330
0
100
AcDbSymbolTable
 70
     0
  0
ENDTAB
  0
TABLE
  2
UCS
  5
7
330
0
100
AcDbSymbolTable
 70
     0
  0
ENDTAB
  0
TABLE
  2
APPID
  5
9
330
0
100
AcDbSymbolTable
 70
     2
  0
APPID
  5
56
330
9
100
AcDbSymbolTableRecord
100
AcDbRegAppTableRecord
  2
ACAD
 70
     0
  0
APPID
  5
5E
330
9
100
AcDbSymbolTableRecord
100
AcDbRegAppTableRecord
  2
AcadAnnotative
 70
     0
  0
ENDTAB
  0
TABLE
  2
DIMSTYLE
  5
A
330
0
100
AcDbSymbolTable
 70
     2
100
AcDbDimStyleTable
 71
     0
  0
DIMSTYLE
105
58
330
A
100
AcDbSymbolTableRecord
100
AcDbDimStyleTableRecord
  2
Standard
 70
     0
340
55
  0
DIMSTYLE
105
59
330
A
100
AcDbSymbolTableRecord
100
AcDbDimStyleTableRecord
  2
Annotative
 70
     0
340
55
1001
AcadAnnotative
1000
AnnotativeData
1002
{
1070
     1
1070
     1
1002
}
  0
ENDTAB
  0
TABLE
  2
BLOCK_RECORD
  5
1
330
0
100
AcDbSymbolTable
 70
     4
  0
BLOCK_RECORD
  5
70
330
1
100
AcDbSymbolTableRecord
100
AcDbBlockTableRecord
  2
*Model_Space
340
73
 70
     0
280
     1
281
     0
  0
BLOCK_RECORD
  5
6C
330
1
100
AcDbSymbolTableRecord
100
AcDbBlockTableRecord
  2
*Paper_Space
340
6F
 70
     0
280
     1
281
     0
  0
BLOCK_RECORD
  5
74
330
1
100
AcDbSymbolTableRecord
100
AcDbBlockTableRecord
  2
*Paper_Space0
340
77
 70
     0
280
     1
281
     0
  0
BLOCK_RECORD
  5
262
330
1
100
AcDbSymbolTableRecord
100
AcDbBlockTableRecord
  2
Block_0
340
0
102
{BLKREFS
331
263
102
}
 70
     0
280
     1
281
     0
  0
BLOCK_RECORD
  5
26E
330
1
100
AcDbSymbolTableRecord
100
AcDbBlockTableRecord
  2
Block_1
340
0
102
{BLKREFS
331
26F
102
}
 70
     0
280
     1
281
     0
  0
BLOCK_RECORD
  5
27A
330
1
100
AcDbSymbolTableRecord
100
AcDbBlockTableRecord
  2
Block_2
340
0
102
{BLKREFS
331
27B
102
}
 70
     0
280
     1
281
     0
  0
ENDTAB
  0
ENDSEC
  0
SECTION
  2
BLOCKS
  0
BLOCK
  5
71
330
70
100
AcDbEntity
  8
0
100
AcDbBlockBegin
  2
*Model_Space
 70
     0
 10
0.0
 20
0.0
 30
0.0
  3
*Model_Space
  1

  0
ENDBLK
  5
72
330
70
100
AcDbEntity
  8
0
100
AcDbBlockEnd
  0
BLOCK
  5
6D
330
6C
100
AcDbEntity
 67
     1
  8
0
100
AcDbBlockBegin
  2
*Paper_Space
 70
     0
 10
0.0
 20
0.0
 30
0.0
  3
*Paper_Space
  1

  0
ENDBLK
  5
6E
330
6C
100
AcDbEntity
 67
     1
  8
0
100
AcDbBlockEnd
  0
BLOCK
  5
75
330
74
100
AcDbEntity
 67
     1
  8
0
100
AcDbBlockBegin
  2
*Paper_Space0
 70
     0
 10
0.0
 20
0.0
 30
0.0
  3
*Paper_Space0
  1

  0
ENDBLK
  5
76
330
74
100
AcDbEntity
 67
     1
  8
0
100
AcDbBlockEnd
  0
BLOCK
  5
264
330
262
100
AcDbEntity
  8
0
100
AcDbBlockBegin
  2
Block_0
 70
     0
 10
0.0
 20
0.0
 30
0.0
  3
Block_0
  1

  0
LWPOLYLINE
  5
266
330
262
100
AcDbEntity
  8
CAPA_BASE
100
AcDbPolyline
 90
        4
 70
     1
 43
0.0
 10
133.3753293473682
 20
114.7775688832339
 10
130.8753293473684
 20
115.0875688832339
 10
130.8753293473684
 20
114.4675688832338
 10
130.8753293473684
 20
114.4675688832338
  0
HATCH
  5
267
330
262
100
AcDbEntity
  8
CAPA_BASE
 62
    18
420
        0
440
 33554687
100
AcDbHatch
 10
0.0
 20
0.0
 30
0.0
210
0.0
220
0.0
230
1.0
  2
SOLID
 70
     1
 71
     1
 91
        1
 92
        1
 93
        3
 72
     1
 10
133.3753293473682
 20
114.7775688832339
 11
130.8753293473684
 21
115.0875688832339
 72
     1
 10
130.8753293473684
 20
115.0875688832339
 11
130.8753293473684
 21
114.4675688832338
 72
     1
 10
130.8753293473684
 20
114.4675688832338
 11
133.3753293473682
 21
114.7775688832339
 97
        1
330
266
 75
     2
 76
     1
 98
        1
 10
0.0
 20
0.0
450
        0
451
        0
460
0.0
461
0.0
452
        0
462
0.0
453
        0
470

  0
LWPOLYLINE
  5
268
330
262
100
AcDbEntity
  8
CAPA_BASE
100
AcDbPolyline
 90
        4
 70
     1
 43
0.0
 10
13.8753293473682
 20
114.7775688832339
 10
16.37532934736829
 20
114.4675688832338
 10
16.37532934736829
 20
115.0875688832339
 10
16.37532934736829
 20
115.0875688832339
  0
HATCH
  5
269
330
262
100
AcDbEntity
  8
CAPA_BASE
 62
    18
420
        0
440
 33554687
100
AcDbHatch
 10
0.0
 20
0.0
 30
0.0
210
0.0
220
0.0
230
1.0
  2
SOLID
 70
     1
 71
     1
 91
        1
 92
        1
 93
        3
 72
     1
 10
13.8753293473682
 20
114.7775688832339
 11
16.37532934736829
 21
114.4675688832338
 72
     1
 10
16.37532934736829
 20
114.4675688832338
 11
16.37532934736829
 21
115.0875688832339
 72
     1
 10
16.37532934736829
 20
115.0875688832339
 11
13.8753293473682
 21
114.7775688832339
 97
        1
330
268
 75
     2
 76
     1
 98
        1
 10
0.0
 20
0.0
450
        0
451
        0
460
0.0
461
0.0
452
        0
462
0.0
453
        0
470

  0
LINE
  5
26A
330
262
100
AcDbEntity
  8
CAPA_BASE
 62
    18
420
        0
370
    25
100
AcDbLine
 10
133.3753293473682
 20
122.0888431445338
 30
0.0
 11
133.3753293473682
 21
113.7775688832338
 31
0.0
  0
LINE
  5
26B
330
262
100
AcDbEntity
  8
CAPA_BASE
 62
    18
420
        0
370
    25
100
AcDbLine
 10
13.8753293473682
 20
121.9888431445339
 30
0.0
 11
13.8753293473682
 21
113.7775688832338
 31
0.0
  0
LINE
  5
26C
330
262
100
AcDbEntity
  8
CAPA_BASE
 62
    18
420
        0
370
    25
100
AcDbLine
 10
133.3753293473682
 20
114.7775688832339
 30
0.0
 11
13.8753293473682
 21
114.7775688832339
 31
0.0
  0
MTEXT
  5
26D
330
262
100
AcDbEntity
  8
CAPA_BASE
100
AcDbMText
 10
70.97949606922345
 20
115.5713155669459
 30
0.0
 40
0.2
 41
0.0
 46
0.0
 71
     7
 72
     1
  1
\C18;\c0;\FArial Bold|b1|i0|c1;\H2.997200;\W0.700000;598
 73
     1
 44
1.0
  0
ENDBLK
  5
265
330
262
100
AcDbEntity
  8
0
100
AcDbBlockEnd
  0
BLOCK
  5
270
330
26E
100
AcDbEntity
  8
0
100
AcDbBlockBegin
  2
Block_1
 70
     0
 10
0.0
 20
0.0
 30
0.0
  3
Block_1
  1

  0
LWPOLYLINE
  5
272
330
26E
100
AcDbEntity
  8
CAPA_BASE
100
AcDbPolyline
 90
        4
 70
     1
 43
0.0
 10
162.9168670328681
 20
132.8888431445339
 10
162.6068670328684
 20
130.3888431445338
 10
163.2268670328684
 20
130.3888431445338
 10
163.2268670328684
 20
130.3888431445338
  0
HATCH
  5
273
330
26E
100
AcDbEntity
  8
CAPA_BASE
 62
    18
420
        0
440
 33554687
100
AcDbHatch
 10
0.0
 20
0.0
 30
0.0
210
0.0
220
0.0
230
1.0
  2
SOLID
 70
     1
 71
     1
 91
        1
 92
        1
 93
        3
 72
     1
 10
162.9168670328681
 20
132.8888431445339
 11
162.6068670328684
 21
130.3888431445338
 72
     1
 10
162.6068670328684
 20
130.3888431445338
 11
163.2268670328684
 21
130.3888431445338
 72
     1
 10
163.2268670328684
 20
130.3888431445338
 11
162.9168670328681
 21
132.8888431445339
 97
        1
330
272
 75
     2
 76
     1
 98
        1
 10
0.0
 20
0.0
450
        0
451
        0
460
0.0
461
0.0
452
        0
462
0.0
453
        0
470

  0
LWPOLYLINE
  5
274
330
26E
100
AcDbEntity
  8
CAPA_BASE
100
AcDbPolyline
 90
        4
 70
     1
 43
0.0
 10
162.9168670328681
 20
122.8888431445339
 10
163.2268670328684
 20
125.388843144534
 10
162.6068670328684
 20
125.388843144534
 10
162.6068670328684
 20
125.388843144534
  0
HATCH
  5
275
330
26E
100
AcDbEntity
  8
CAPA_BASE
 62
    18
420
        0
440
 33554687
100
AcDbHatch
 10
0.0
 20
0.0
 30
0.0
210
0.0
220
0.0
230
1.0
  2
SOLID
 70
     1
 71
     1
 91
        1
 92
        1
 93
        3
 72
     1
 10
162.9168670328681
 20
122.8888431445339
 11
163.2268670328684
 21
125.388843144534
 72
     1
 10
163.2268670328684
 20
125.388843144534
 11
162.6068670328684
 21
125.388843144534
 72
     1
 10
162.6068670328684
 20
125.388843144534
 11
162.9168670328681
 21
122.8888431445339
 97
        1
330
274
 75
     2
 76
     1
 98
        1
 10
0.0
 20
0.0
450
        0
451
        0
460
0.0
461
0.0
452
        0
462
0.0
453
        0
470

  0
LINE
  5
276
330
26E
100
AcDbEntity
  8
CAPA_BASE
 62
    18
420
        0
370
    25
100
AcDbLine
 10
169.9168670328683
 20
132.8888431445339
 30
0.0
 11
161.916867032868
 21
132.8888431445339
 31
0.0
  0
LINE
  5
277
330
26E
100
AcDbEntity
  8
CAPA_BASE
 62
    18
420
        0
370
    25
100
AcDbLine
 10
169.9168670328683
 20
122.8888431445339
 30
0.0
 11
161.916867032868
 21
122.8888431445339
 31
0.0
  0
LINE
  5
278
330
26E
100
AcDbEntity
  8
CAPA_BASE
 62
    18
420
        0
370
    25
100
AcDbLine
 10
162.9168670328681
 20
132.8888431445339
 30
0.0
 11
162.9168670328681
 21
122.8888431445339
 31
0.0
  0
MTEXT
  5
279
330
26E
100
AcDbEntity
  8
CAPA_BASE
100
AcDbMText
 10
162.1231171732489
 20
126.1249457149959
 30
0.0
 40
0.2
 41
0.0
 46
0.0
 71
     7
 72
     1
  1
\C18;\c0;\FArial Bold|b1|i0|c1;\H2.997200;\W0.700000;50
 11
0.0000000000000003
 21
1.0
 31
0.0
 73
     1
 44
1.0
  0
ENDBLK
  5
271
330
26E
100
AcDbEntity
  8
0
100
AcDbBlockEnd
  0
BLOCK
  5
27C
330
27A
100
AcDbEntity
  8
0
100
AcDbBlockBegin
  2
Block_2
 70
     0
 10
0.0
 20
0.0
 30
0.0
  3
Block_2
  1

  0
LWPOLYLINE
  5
27E
330
27A
100
AcDbEntity
  8
CAPA_BASE
100
AcDbPolyline
 90
        4
 70
     1
 43
0.0
 10
141.8753293473682
 20
78.04137689763405
 10
141.5653293473685
 20
75.54137689763428
 10
142.1853293473679
 20
75.54137689763428
 10
142.1853293473679
 20
75.54137689763428
  0
HATCH
  5
27F
330
27A
100
AcDbEntity
  8
CAPA_BASE
 62
    18
420
        0
440
 33554687
100
AcDbHatch
 10
0.0
 20
0.0
 30
0.0
210
0.0
220
0.0
230
1.0
  2
SOLID
 70
     1
 71
     1
 91
        1
 92
        1
 93
        3
 72
     1
 10
141.8753293473682
 20
78.04137689763405
 11
141.5653293473685
 21
75.54137689763428
 72
     1
 10
141.5653293473685
 20
75.54137689763428
 11
142.1853293473679
 21
75.54137689763428
 72
     1
 10
142.1853293473679
 20
75.54137689763428
 11
141.8753293473682
 21
78.04137689763405
 97
        1
330
27E
 75
     2
 76
     1
 98
        1
 10
0.0
 20
0.0
450
        0
451
        0
460
0.0
461
0.0
452
        0
462
0.0
453
        0
470

  0
LWPOLYLINE
  5
280
330
27A
100
AcDbEntity
  8
CAPA_BASE
100
AcDbPolyline
 90
        4
 70
     1
 43
0.0
 10
141.8753293473682
 20
57.22857607833358
 10
142.1853293473679
 20
59.72857607833399
 10
141.5653293473685
 20
59.72857607833399
 10
141.5653293473685
 20
59.72857607833399
  0
HATCH
  5
281
330
27A
100
AcDbEntity
  8
CAPA_BASE
 62
    18
420
        0
440
 33554687
100
AcDbHatch
 10
0.0
 20
0.0
 30
0.0
210
0.0
220
0.0
230
1.0
  2
SOLID
 70
     1
 71
     1
 91
        1
 92
        1
 93
        3
 72
     1
 10
141.8753293473682
 20
57.22857607833358
 11
142.1853293473679
 21
59.72857607833399
 72
     1
 10
142.1853293473679
 20
59.72857607833399
 11
141.5653293473685
 21
59.72857607833399
 72
     1
 10
141.5653293473685
 20
59.72857607833399
 11
141.8753293473682
 21
57.22857607833358
 97
        1
330
280
 75
     2
 76
     1
 98
        1
 10
0.0
 20
0.0
450
        0
451
        0
460
0.0
461
0.0
452
        0
462
0.0
453
        0
470

  0
LINE
  5
282
330
27A
100
AcDbEntity
  8
CAPA_BASE
 62
    18
420
        0
370
    25
100
AcDbLine
 10
134.3753293473683
 20
78.04137689763405
 30
0.0
 11
142.8753293473683
 21
78.04137689763405
 31
0.0
  0
LINE
  5
283
330
27A
100
AcDbEntity
  8
CAPA_BASE
 62
    18
420
        0
370
    25
100
AcDbLine
 10
134.675329347368
 20
57.22857607833358
 30
0.0
 11
142.8753293473683
 21
57.22857607833358
 31
0.0
  0
LINE
  5
284
330
27A
100
AcDbEntity
  8
CAPA_BASE
 62
    18
420
        0
370
    25
100
AcDbLine
 10
141.8753293473682
 20
78.04137689763405
 30
0.0
 11
141.8753293473682
 21
57.22857607833358
 31
0.0
  0
MTEXT
  5
285
330
27A
100
AcDbEntity
  8
CAPA_BASE
100
AcDbMText
 10
141.0815801479713
 20
64.98897025284934
 30
0.0
 40
0.2
 41
0.0
 46
0.0
 71
     7
 72
     1
  1
\C18;\c0;\FArial Bold|b1|i0|c1;\H2.997200;\W0.700000;104
 11
0.0000000000000003
 21
1.0
 31
0.0
 73
     1
 44
1.0
  0
ENDBLK
  5
27D
330
27A
100
AcDbEntity
  8
0
100
AcDbBlockEnd
  0
ENDSEC
  0
SECTION
  2
ENTITIES
  0
LINE
  5
78
330
70
100
AcDbEntity
  8
0
 62
    18
420
        0
370
    25
100
AcDbLine
 10
123.5752498738685
 20
132.6889226180339
 30
0.0
 11
127.264488257068
 21
128.9996842348341
 31
0.0
  0
LINE
  5
79
330
70
100
AcDbEntity
  8
0
 62
    18
420
        0
370
    25
100
AcDbLine
 10
129.484558089368
 20
128.998071886534
 30
0.0
 11
133.1754088208683
 21
132.6889226180339
 31
0.0
  0
LINE
  5
7A
330
70
100
AcDbEntity
  8
0
 62
    18
420
        0
370
    25
100
AcDbLine
 10
127.2512614766683
 20
126.764775273834
 30
0.0
 11
123.5752498738685
 21
123.0887636710338
 31
0.0
  0
SPLINE
  5
7B
330
70
100
AcDbEntity
  8
0
 62
    18
420
        0
370
    25
100
AcDbSpline
210
0.0
220
0.0
230
1.0
 70
     8
 71
     3
 72
     8
 73
     4
 74
     0
 42
0.0000000001
 43
0.0000000001
 40
0.0
 40
0.0
 40
0.0
 40
0.0
 40
1.0
 40
1.0
 40
1.0
 40
1.0
 10
123.5668332286235
 20
123.0845605909086
 30
0.0
 10
123.5700776502904
 20
123.0848172275784
 30
0.0
 10
123.5730954787096
 20
123.0863242620385
 30
0.0
 10
123.5752498738614
 20
123.0887636709555
 30
0.0
  0
LINE
  5
7C
330
70
100
AcDbEntity
  8
0
 62
    18
420
        0
370
    25
100
AcDbLine
 10
123.5752498738685
 20
132.6889226180339
 30
0.0
 11
123.566831533768
 21
132.6889192308339
 31
0.0
  0
SPLINE
  5
7D
330
70
100
AcDbEntity
  8
0
 62
    18
420
        0
370
    25
100
AcDbSpline
210
0.0
220
0.0
230
1.0
 70
     8
 71
     3
 72
     8
 73
     4
 74
     0
 42
0.0000000001
 43
0.0000000001
 40
0.0
 40
0.0
 40
0.0
 40
0.0
 40
1.0
 40
1.0
 40
1.0
 40
1.0
 10
133.1838254661409
 20
132.6931256985557
 30
0.0
 10
133.1805806085851
 20
132.6928706308706
 30
0.0
 10
133.1775622234637
 20
132.6913633182346
 30
0.0
 10
133.1754088209023
 20
132.6889226180298
 30
0.0
  0
LINE
  5
7E
330
70
100
AcDbEntity
  8
0
 62
    18
420
        0
370
    25
100
AcDbLine
 10
133.1754088208683
 20
123.0887636710338
 30
0.0
 11
133.1838271609681
 21
123.0887670581341
 31
0.0
  0
LINE
  5
7F
330
70
100
AcDbEntity
  8
0
 62
    18
420
        0
370
    25
100
AcDbLine
 10
129.4940163327684
 20
126.7701561590339
 30
0.0
 11
133.1754088208683
 21
123.0887636710338
 31
0.0
  0
SPLINE
  5
80
330
70
100
AcDbEntity
  8
0
 62
    18
420
        0
370
    25
100
AcDbSpline
210
0.0
220
0.0
230
1.0
 70
     8
 71
     3
 72
     8
 73
     4
 74
     0
 42
0.0000000001
 43
0.0000000001
 40
0.0
 40
0.0
 40
0.0
 40
0.0
 40
1.0
 40
1.0
 40
1.0
 40
1.0
 10
133.1796119009126
 20
123.080347025768
 30
0.0
 10
133.1793575061972
 20
123.0835920700081
 30
0.0
 10
133.1778500744285
 20
123.0866106940353
 30
0.0
 10
133.1754088208657
 20
123.0887636710062
 30
0.0
  0
LWPOLYLINE
  5
81
330
70
100
AcDbEntity
  8
0
 62
    18
420
        0
370
    25
100
AcDbPolyline
 90
        7
 70
     0
 43
0.0
 10
123.5752532609684
 20
123.080345330934
 10
123.9752532039682
 20
123.080186577734
 10
125.5752530251684
 20
123.079618439734
 10
128.7752530397685
 20
123.0791484453339
 10
129.994133876168
 20
123.0793090191341
 10
133.1754054381685
 20
123.0803453353338
 10
133.1796119008683
 20
123.080347025734
  0
LINE
  5
82
330
70
100
AcDbEntity
  8
0
 62
    18
420
        0
370
    25
100
AcDbLine
 10
123.5752498738685
 20
123.0887636710338
 30
0.0
 11
123.5752532609684
 21
123.080345330934
 31
0.0
  0
SPLINE
  5
83
330
70
100
AcDbEntity
  8
0
 62
    18
420
        0
370
    25
100
AcDbSpline
210
0.0
220
0.0
230
1.0
 70
     8
 71
     3
 72
     8
 73
     4
 74
     0
 42
0.0000000001
 43
0.0000000001
 40
0.0
 40
0.0
 40
0.0
 40
0.0
 40
1.0
 40
1.0
 40
1.0
 40
1.0
 10
133.3753293473734
 20
132.6888431444964
 30
0.0
 10
133.3090473964816
 20
132.6973141063995
 30
0.0
 10
133.2421671394035
 20
132.7001568665023
 30
0.0
 10
133.1754054374408
 20
132.6973409544572
 30
0.0
  0
SPLINE
  5
84
330
70
100
AcDbEntity
  8
0
 62
    18
420
        0
370
    25
100
AcDbSpline
210
0.0
220
0.0
230
1.0
 70
     8
 71
     3
 72
     8
 73
     4
 74
     0
 42
0.0000000001
 43
0.0000000001
 40
0.0
 40
0.0
 40
0.0
 40
0.0
 40
1.0
 40
1.0
 40
1.0
 40
1.0
 10
133.3753293473785
 20
132.6888431445361
 30
0.0
 10
133.3116284656411
 20
132.6939184258681
 30
0.0
 10
133.2476895480975
 20
132.6953482761071
 30
0.0
 10
133.1838254661434
 20
132.6931256985871
 30
0.0
  0
LINE
  5
85
330
70
100
AcDbEntity
  8
0
 62
    18
420
        0
370
    25
100
AcDbLine
 10
133.1754088208683
 20
132.6889226180339
 30
0.0
 11
133.1754054373683
 21
132.6973409544341
 31
0.0
  0
LINE
  5
86
330
70
100
AcDbEntity
  8
0
 62
    18
420
        0
370
    25
100
AcDbLine
 10
133.3753293473682
 20
132.6888431445339
 30
0.0
 11
133.3753293473682
 21
128.4888431445341
 31
0.0
  0
LINE
  5
87
330
70
100
AcDbEntity
  8
0
 62
    18
420
        0
370
    25
100
AcDbLine
 10
133.3753293473682
 20
127.288843144534
 30
0.0
 11
133.3753293473682
 21
123.0888431445339
 31
0.0
  0
SPLINE
  5
88
330
70
100
AcDbEntity
  8
0
 62
    18
420
        0
370
    25
100
AcDbSpline
210
0.0
220
0.0
230
1.0
 70
     8
 71
     3
 72
     8
 73
     4
 74
     0
 42
0.0000000001
 43
0.0000000001
 40
0.0
 40
0.0
 40
0.0
 40
0.0
 40
1.0
 40
1.0
 40
1.0
 40
1.0
 10
133.1838271608655
 20
123.0887670582194
 30
0.0
 10
133.2476612330696
 20
123.0887430659407
 30
0.0
 10
133.3114953142763
 20
123.0887684280585
 30
0.0
 10
133.375329347263
 20
123.0888431445502
 30
0.0
  0
SPLINE
  5
89
330
70
100
AcDbEntity
  8
0
 62
    18
420
        0
370
    25
100
AcDbSpline
210
0.0
220
0.0
230
1.0
 70
     8
 71
     3
 72
     8
 73
     4
 74
     0
 42
0.0000000001
 43
0.0000000001
 40
0.0
 40
0.0
 40
0.0
 40
0.0
 40
1.0
 40
1.0
 40
1.0
 40
1.0
 10
123.3753293473538
 20
123.0888431445416
 30
0.0
 10
123.441611299185
 20
123.080372178949
 30
0.0
 10
123.5084915577134
 20
123.0775294176135
 30
0.0
 10
123.5752532610236
 20
123.0803453309224
 30
0.0
  0
SPLINE
  5
8A
330
70
100
AcDbEntity
  8
0
 62
    18
420
        0
370
    25
100
AcDbSpline
210
0.0
220
0.0
230
1.0
 70
     8
 71
     3
 72
     8
 73
     4
 74
     0
 42
0.0000000001
 43
0.0000000001
 40
0.0
 40
0.0
 40
0.0
 40
0.0
 40
1.0
 40
1.0
 40
1.0
 40
1.0
 10
123.3753293473441
 20
123.0888431467282
 30
0.0
 10
123.4390302289474
 20
123.0837678628317
 30
0.0
 10
123.5029691466046
 20
123.0823380120007
 30
0.0
 10
123.5668332285805
 20
123.0845605909115
 30
0.0
  0
LINE
  5
8B
330
70
100
AcDbEntity
  8
0
 62
    18
420
        0
370
    25
100
AcDbLine
 10
123.3753293473685
 20
123.0888431445339
 30
0.0
 11
123.3753293473685
 21
127.288843144534
 31
0.0
  0
LINE
  5
8C
330
70
100
AcDbEntity
  8
0
 62
    18
420
        0
370
    25
100
AcDbLine
 10
123.3753293473685
 20
128.4888431445341
 30
0.0
 11
123.3753293473685
 21
132.6888431445339
 31
0.0
  0
SPLINE
  5
8D
330
70
100
AcDbEntity
  8
0
 62
    18
420
        0
370
    25
100
AcDbSpline
210
0.0
220
0.0
230
1.0
 70
     8
 71
     3
 72
     8
 73
     4
 74
     0
 42
0.0000000001
 43
0.0000000001
 40
0.0
 40
0.0
 40
0.0
 40
0.0
 40
1.0
 40
1.0
 40
1.0
 40
1.0
 10
123.5668315337712
 20
132.6889192308304
 30
0.0
 10
123.5029974615663
 20
132.6889432231092
 30
0.0
 10
123.4391633803598
 20
132.6889178609913
 30
0.0
 10
123.375329347373
 20
132.6888431444996
 30
0.0
  0
SPLINE
  5
8E
330
70
100
AcDbEntity
  8
0
 62
    18
420
        0
370
    25
100
AcDbSpline
210
0.0
220
0.0
230
1.0
 70
     8
 71
     3
 72
     8
 73
     4
 74
     0
 42
0.0000000001
 43
0.0000000001
 40
0.0
 40
0.0
 40
0.0
 40
0.0
 40
1.0
 40
1.0
 40
1.0
 40
1.0
 10
133.1753293473599
 20
122.8888431445194
 30
0.0
 10
133.1838003129522
 20
122.9551250963507
 30
0.0
 10
133.1866430742876
 20
123.0220053548794
 30
0.0
 10
133.183827160979
 20
123.0887670581896
 30
0.0
  0
SPLINE
  5
8F
330
70
100
AcDbEntity
  8
0
 62
    18
420
        0
370
    25
100
AcDbSpline
210
0.0
220
0.0
230
1.0
 70
     8
 71
     3
 72
     8
 73
     4
 74
     0
 42
0.0000000001
 43
0.0000000001
 40
0.0
 40
0.0
 40
0.0
 40
0.0
 40
1.0
 40
1.0
 40
1.0
 40
1.0
 10
133.1753293473021
 20
122.8888431444806
 30
0.0
 10
133.1804046265944
 20
122.952544026323
 30
0.0
 10
133.1818344766714
 20
123.0164829437597
 30
0.0
 10
133.1796119008741
 20
123.0803470257166
 30
0.0
  0
LINE
  5
90
330
70
100
AcDbEntity
  8
0
 62
    18
420
        0
370
    25
100
AcDbLine
 10
133.1753293473682
 20
122.8888431445339
 30
0.0
 11
123.5753293473685
 21
122.8888431445339
 31
0.0
  0
SPLINE
  5
91
330
70
100
AcDbEntity
  8
0
 62
    18
420
        0
370
    25
100
AcDbSpline
210
0.0
220
0.0
230
1.0
 70
     8
 71
     3
 72
     8
 73
     4
 74
     0
 42
0.0000000001
 43
0.0000000001
 40
0.0
 40
0.0
 40
0.0
 40
0.0
 40
1.0
 40
1.0
 40
1.0
 40
1.0
 10
123.5752532609986
 20
123.080345330915
 30
0.0
 10
123.5752292687198
 20
123.0165112586675
 30
0.0
 10
123.5752546308373
 20
122.9526771774212
 30
0.0
 10
123.5753293473294
 20
122.8888431443921
 30
0.0
  0
LWPOLYLINE
  5
92
330
70
100
AcDbEntity
  8
0
 62
    18
420
        0
370
    25
100
AcDbPolyline
 90
        6
 70
     0
 43
0.0
 10
128.3753293473681
 20
132.698547683434
 10
127.975329347368
 20
132.698536631234
 10
126.3753293666683
 20
132.6982911819341
 10
124.9752912872681
 20
132.6978716662341
 10
123.5752532572684
 20
132.6973409544341
 10
123.5710467936682
 20
132.6973392636338
  0
SPLINE
  5
93
330
70
100
AcDbEntity
  8
0
 62
    18
420
        0
370
    25
100
AcDbSpline
210
0.0
220
0.0
230
1.0
 70
     8
 71
     3
 72
     8
 73
     4
 74
     0
 42
0.0000000001
 43
0.0000000001
 40
0.0
 40
0.0
 40
0.0
 40
0.0
 40
1.0
 40
1.0
 40
1.0
 40
1.0
 10
123.5753293492545
 20
132.8888431444839
 30
0.0
 10
123.570254065718
 20
132.8251422629848
 30
0.0
 10
123.5688242149814
 20
132.7612033454653
 30
0.0
 10
123.5710467937189
 20
132.6973392636158
 30
0.0
  0
LINE
  5
94
330
70
100
AcDbEntity
  8
0
 62
    18
420
        0
370
    25
100
AcDbLine
 10
123.5753293473685
 20
132.8888431445339
 30
0.0
 11
128.3753293473681
 21
132.8888431445339
 31
0.0
  0
LINE
  5
95
330
70
100
AcDbEntity
  8
0
 62
    18
420
        0
370
    25
100
AcDbLine
 10
128.3753293473681
 20
132.698547683434
 30
0.0
 11
128.3753293473681
 21
132.8888431445339
 31
0.0
  0
SPLINE
  5
96
330
70
100
AcDbEntity
  8
0
 62
    18
420
        0
370
    25
100
AcDbSpline
210
0.0
220
0.0
230
1.0
 70
     8
 71
     3
 72
     8
 73
     4
 74
     0
 42
0.0000000001
 43
0.0000000001
 40
0.0
 40
0.0
 40
0.0
 40
0.0
 40
1.0
 40
1.0
 40
1.0
 40
1.0
 10
123.5753293473698
 20
132.888843144505
 30
0.0
 10
123.5668583817724
 20
132.8225611926751
 30
0.0
 10
123.5640156204369
 20
132.755680934147
 30
0.0
 10
123.5668315337506
 20
132.6889192308378
 30
0.0
  0
SPLINE
  5
97
330
70
100
AcDbEntity
  8
0
 62
    18
420
        0
370
    25
100
AcDbSpline
210
0.0
220
0.0
230
1.0
 70
     8
 71
     3
 72
     8
 73
     4
 74
     0
 42
0.0000000001
 43
0.0000000001
 40
0.0
 40
0.0
 40
0.0
 40
0.0
 40
1.0
 40
1.0
 40
1.0
 40
1.0
 10
123.5710467936541
 20
132.697339263654
 30
0.0
 10
123.5713018611274
 20
132.6940944060184
 30
0.0
 10
123.5728091736325
 20
132.69107602075
 30
0.0
 10
123.5752498737947
 20
132.6889226180449
 30
0.0
  0
LINE
  5
98
330
70
100
AcDbEntity
  8
0
 62
    18
420
        0
370
    25
100
AcDbLine
 10
128.3753293473681
 20
132.6889226180339
 30
0.0
 11
128.3753293473681
 21
132.698547683434
 31
0.0
  0
LINE
  5
99
330
70
100
AcDbEntity
  8
0
 62
    18
420
        0
370
    25
100
AcDbLine
 10
128.3753293473681
 20
132.6889226180339
 30
0.0
 11
123.5752498738685
 21
132.6889226180339
 31
0.0
  0
LWPOLYLINE
  5
9A
330
70
100
AcDbEntity
  8
0
 62
    18
420
        0
370
    25
100
AcDbPolyline
 90
        5
 70
     0
 43
0.0
 10
133.1754054373683
 20
132.6973409544341
 10
132.775405494568
 20
132.697499730434
 10
131.1754056743682
 20
132.6980694679339
 10
129.7753675708683
 20
132.698417871034
 10
128.3753293473681
 20
132.698547683434
  0
LINE
  5
9B
330
70
100
AcDbEntity
  8
0
 62
    18
420
        0
370
    25
100
AcDbLine
 10
133.1754088208683
 20
132.6889226180339
 30
0.0
 11
128.3753293473681
 21
132.6889226180339
 31
0.0
  0
LINE
  5
9C
330
70
100
AcDbEntity
  8
0
 62
    18
420
        0
370
    25
100
AcDbLine
 10
128.3753293473681
 20
132.8888431445339
 30
0.0
 11
133.1753293473682
 21
132.8888431445339
 31
0.0
  0
SPLINE
  5
9D
330
70
100
AcDbEntity
  8
0
 62
    18
420
        0
370
    25
100
AcDbSpline
210
0.0
220
0.0
230
1.0
 70
     8
 71
     3
 72
     8
 73
     4
 74
     0
 42
0.0000000001
 43
0.0000000001
 40
0.0
 40
0.0
 40
0.0
 40
0.0
 40
1.0
 40
1.0
 40
1.0
 40
1.0
 10
133.1754054373683
 20
132.6973409544437
 30
0.0
 10
133.1754294308265
 20
132.7611750279015
 30
0.0
 10
133.1754040674627
 20
132.8250091103616
 30
0.0
 10
133.1753293472996
 20
132.8888431445971
 30
0.0
  0
SPLINE
  5
9E
330
70
100
AcDbEntity
  8
0
 62
    18
420
        0
370
    25
100
AcDbSpline
210
0.0
220
0.0
230
1.0
 70
     8
 71
     3
 72
     8
 73
     4
 74
     0
 42
0.0000000001
 43
0.0000000001
 40
0.0
 40
0.0
 40
0.0
 40
0.0
 40
1.0
 40
1.0
 40
1.0
 40
1.0
 10
133.3753293473682
 20
132.6888431446128
 30
0.0
 10
133.3753293473246
 20
132.7993000945482
 30
0.0
 10
133.2857862973036
 20
132.8888431445339
 30
0.0
 10
133.1753293473682
 20
132.8888431445339
 30
0.0
  0
SPLINE
  5
9F
330
70
100
AcDbEntity
  8
0
 62
    18
420
        0
370
    25
100
AcDbSpline
210
0.0
220
0.0
230
1.0
 70
     8
 71
     3
 72
     8
 73
     4
 74
     0
 42
0.0000000001
 43
0.0000000001
 40
0.0
 40
0.0
 40
0.0
 40
0.0
 40
1.0
 40
1.0
 40
1.0
 40
1.0
 10
133.1753293473682
 20
122.8888431445339
 30
0.0
 10
133.2857862973344
 20
122.8888431445339
 30
0.0
 10
133.3753293473682
 20
122.9783861945677
 30
0.0
 10
133.3753293473682
 20
123.0888431445339
 30
0.0
  0
SPLINE
  5
A0
330
70
100
AcDbEntity
  8
0
 62
    18
420
        0
370
    25
100
AcDbSpline
210
0.0
220
0.0
230
1.0
 70
     8
 71
     3
 72
    11
 73
     7
 74
     0
 42
0.0000000001
 43
0.0000000001
 40
0.0
 40
0.0
 40
0.0
 40
0.0
 40
1.0
 40
1.0
 40
1.0
 40
2.0
 40
2.0
 40
2.0
 40
2.0
 10
123.3753293473685
 20
123.0888431450071
 30
0.0
 10
123.3753293471067
 20
122.978386195041
 30
0.0
 10
123.4648723969294
 20
122.8888431447954
 30
0.0
 10
123.5753293468949
 20
122.8888431445339
 30
0.0
 10
123.5753293471317
 20
122.8888431445339
 30
0.0
 10
123.5753293471317
 20
122.8888431445339
 30
0.0
 10
123.5753293473685
 20
122.8888431445339
 30
0.0
  0
SPLINE
  5
A1
330
70
100
AcDbEntity
  8
0
 62
    18
420
        0
370
    25
100
AcDbSpline
210
0.0
220
0.0
230
1.0
 70
     8
 71
     3
 72
     8
 73
     4
 74
     0
 42
0.0000000001
 43
0.0000000001
 40
0.0
 40
0.0
 40
0.0
 40
0.0
 40
1.0
 40
1.0
 40
1.0
 40
1.0
 10
123.5753293473685
 20
132.8888431445339
 30
0.0
 10
123.4648723974023
 20
132.8888431445339
 30
0.0
 10
123.3753293473685
 20
132.7993000945001
 30
0.0
 10
123.3753293473685
 20
132.6888431445339
 30
0.0
  0
LINE
  5
A2
330
70
100
AcDbEntity
  8
0
 62
    18
420
        0
370
    25
100
AcDbLine
 10
19.98455808936837
 20
128.8980718865341
 30
0.0
 11
23.67540882086829
 21
132.588922618034
 31
0.0
  0
SPLINE
  5
A3
330
70
100
AcDbEntity
  8
0
 62
    18
420
        0
370
    25
100
AcDbSpline
210
0.0
220
0.0
230
1.0
 70
     8
 71
     3
 72
     8
 73
     4
 74
     0
 42
0.0000000001
 43
0.0000000001
 40
0.0
 40
0.0
 40
0.0
 40
0.0
 40
1.0
 40
1.0
 40
1.0
 40
1.0
 10
23.68382546611329
 20
132.593125698059
 30
0.0
 10
23.68058104444605
 20
132.5928690613893
 30
0.0
 10
23.67756321602678
 20
132.5913620269292
 30
0.0
 10
23.67540882087503
 20
132.5889226180121
 30
0.0
  0
LINE
  5
A4
330
70
100
AcDbEntity
  8
0
 62
    18
420
        0
370
    25
100
AcDbLine
 10
23.67540882086829
 20
122.9887636710338
 30
0.0
 11
23.68382716096815
 21
122.9887670581341
 31
0.0
  0
LINE
  5
A5
330
70
100
AcDbEntity
  8
0
 62
    18
420
        0
370
    25
100
AcDbLine
 10
19.9940163327681
 20
126.6701561590339
 30
0.0
 11
23.67540882086829
 21
122.9887636710338
 31
0.0
  0
LINE
  5
A6
330
70
100
AcDbEntity
  8
0
 62
    18
420
        0
370
    25
100
AcDbLine
 10
17.76448825706832
 20
128.8996842348341
 30
0.0
 11
14.07524987386815
 21
132.588922618034
 31
0.0
  0
SPLINE
  5
A7
330
70
100
AcDbEntity
  8
0
 62
    18
420
        0
370
    25
100
AcDbSpline
210
0.0
220
0.0
230
1.0
 70
     8
 71
     3
 72
     8
 73
     4
 74
     0
 42
0.0000000001
 43
0.0000000001
 40
0.0
 40
0.0
 40
0.0
 40
0.0
 40
1.0
 40
1.0
 40
1.0
 40
1.0
 10
14.0710467937436
 20
132.5973392632793
 30
0.0
 10
14.07130343041302
 20
132.5940948416121
 30
0.0
 10
14.07281046487344
 20
132.5910770131928
 30
0.0
 10
14.07524987379018
 20
132.5889226180407
 30
0.0
  0
LWPOLYLINE
  5
A8
330
70
100
AcDbEntity
  8
0
 62
    18
420
        0
370
    25
100
AcDbPolyline
 90
        7
 70
     0
 43
0.0
 10
23.67540543366825
 20
132.5973409581342
 10
23.27540549076822
 20
132.5974997113341
 10
21.6754056695683
 20
132.598067849234
 10
18.47540565496825
 20
132.5985378437339
 10
17.25652481846828
 20
132.5983772698339
 10
14.07525325656827
 20
132.597340953734
 10
14.0710467937683
 20
132.597339263234
  0
LINE
  5
A9
330
70
100
AcDbEntity
  8
0
 62
    18
420
        0
370
    25
100
AcDbLine
 10
23.67540882086829
 20
132.588922618034
 30
0.0
 11
23.67540543366825
 21
132.5973409581342
 31
0.0
  0
SPLINE
  5
AA
330
70
100
AcDbEntity
  8
0
 62
    18
420
        0
370
    25
100
AcDbSpline
210
0.0
220
0.0
230
1.0
 70
     8
 71
     3
 72
     8
 73
     4
 74
     0
 42
0.0000000001
 43
0.0000000001
 40
0.0
 40
0.0
 40
0.0
 40
0.0
 40
1.0
 40
1.0
 40
1.0
 40
1.0
 10
14.06683322859364
 20
122.9845605904136
 30
0.0
 10
14.0700776503183
 20
122.9848172272534
 30
0.0
 10
14.07309547873147
 20
122.9863242618825
 30
0.0
 10
14.07524987383189
 20
122.9887636709395
 30
0.0
  0
LINE
  5
AB
330
70
100
AcDbEntity
  8
0
 62
    18
420
        0
370
    25
100
AcDbLine
 10
14.07524987386815
 20
132.588922618034
 30
0.0
 11
14.06683153376829
 21
132.5889192308339
 31
0.0
  0
LINE
  5
AC
330
70
100
AcDbEntity
  8
0
 62
    18
420
        0
370
    25
100
AcDbLine
 10
17.75126147666827
 20
126.6647752738339
 30
0.0
 11
14.07524987386815
 21
122.9887636710338
 31
0.0
  0
SPLINE
  5
AD
330
70
100
AcDbEntity
  8
0
 62
    18
420
        0
370
    25
100
AcDbSpline
210
0.0
220
0.0
230
1.0
 70
     8
 71
     3
 72
     8
 73
     4
 74
     0
 42
0.0000000001
 43
0.0000000001
 40
0.0
 40
0.0
 40
0.0
 40
0.0
 40
1.0
 40
1.0
 40
1.0
 40
1.0
 10
23.67961190105733
 20
122.9803470253486
 30
0.0
 10
23.67935526442064
 20
122.9835914471509
 30
0.0
 10
23.67784822992428
 20
122.9866092757085
 30
0.0
 10
23.67540882091674
 20
122.9887636709578
 30
0.0
  0
LWPOLYLINE
  5
AE
330
70
100
AcDbEntity
  8
0
 62
    18
420
        0
370
    25
100
AcDbPolyline
 90
        6
 70
     0
 43
0.0
 10
18.87532934736838
 20
122.9791386055339
 10
19.27532934736839
 20
122.979149657734
 10
20.87532932796829
 20
122.9793951071341
 10
22.27536740736825
 20
122.9798146227339
 10
23.67540543736829
 20
122.9803453345339
 10
23.67961190096814
 20
122.9803470253339
  0
LWPOLYLINE
  5
AF
330
70
100
AcDbEntity
  8
0
 62
    18
420
        0
370
    25
100
AcDbPolyline
 90
        5
 70
     0
 43
0.0
 10
14.07525325726837
 20
122.9803453345339
 10
14.47525320006829
 20
122.9801865586338
 10
16.07525302026813
 20
122.9796168211339
 10
17.47529112376838
 20
122.9792684180341
 10
18.87532934736838
 20
122.9791386055339
  0
LINE
  5
B0
330
70
100
AcDbEntity
  8
0
 62
    18
420
        0
370
    25
100
AcDbLine
 10
14.07524987386815
 20
122.9887636710338
 30
0.0
 11
14.07525325726837
 21
122.9803453345339
 31
0.0
  0
SPLINE
  5
B1
330
70
100
AcDbEntity
  8
0
 62
    18
420
        0
370
    25
100
AcDbSpline
210
0.0
220
0.0
230
1.0
 70
     8
 71
     3
 72
     8
 73
     4
 74
     0
 42
0.0000000001
 43
0.0000000001
 40
0.0
 40
0.0
 40
0.0
 40
0.0
 40
1.0
 40
1.0
 40
1.0
 40
1.0
 10
13.87532934736211
 20
122.9888431444655
 30
0.0
 10
13.94161129825422
 20
122.9803721825624
 30
0.0
 10
14.00849155533138
 20
122.9775294224596
 30
0.0
 10
14.07525325729403
 20
122.9803453345044
 30
0.0
  0
SPLINE
  5
B2
330
70
100
AcDbEntity
  8
0
 62
    18
420
        0
370
    25
100
AcDbSpline
210
0.0
220
0.0
230
1.0
 70
     8
 71
     3
 72
     8
 73
     4
 74
     0
 42
0.0000000001
 43
0.0000000001
 40
0.0
 40
0.0
 40
0.0
 40
0.0
 40
1.0
 40
1.0
 40
1.0
 40
1.0
 10
13.87532934735633
 20
122.9888431445451
 30
0.0
 10
13.93903022909377
 20
122.9837678632129
 30
0.0
 10
14.00296914663827
 20
122.9823380129739
 30
0.0
 10
14.06683322859267
 20
122.9845605904941
 30
0.0
  0
LINE
  5
B3
330
70
100
AcDbEntity
  8
0
 62
    18
420
        0
370
    25
100
AcDbLine
 10
13.8753293473682
 20
122.9888431445339
 30
0.0
 11
13.8753293473682
 21
127.388253322234
 31
0.0
  0
LINE
  5
B4
330
70
100
AcDbEntity
  8
0
 62
    18
420
        0
370
    25
100
AcDbLine
 10
13.8753293473682
 20
128.389432966734
 30
0.0
 11
13.8753293473682
 21
132.5888431445339
 31
0.0
  0
SPLINE
  5
B5
330
70
100
AcDbEntity
  8
0
 62
    18
420
        0
370
    25
100
AcDbSpline
210
0.0
220
0.0
230
1.0
 70
     8
 71
     3
 72
     8
 73
     4
 74
     0
 42
0.0000000001
 43
0.0000000001
 40
0.0
 40
0.0
 40
0.0
 40
0.0
 40
1.0
 40
1.0
 40
1.0
 40
1.0
 10
14.06683153375706
 20
132.588919230891
 30
0.0
 10
14.00299746157181
 20
132.5889432231701
 30
0.0
 10
13.93916338038511
 20
132.5889178610522
 30
0.0
 10
13.87532934741825
 20
132.5888431445605
 30
0.0
  0
SPLINE
  5
B6
330
70
100
AcDbEntity
  8
0
 62
    18
420
        0
370
    25
100
AcDbSpline
210
0.0
220
0.0
230
1.0
 70
     8
 71
     3
 72
     8
 73
     4
 74
     0
 42
0.0000000001
 43
0.0000000001
 40
0.0
 40
0.0
 40
0.0
 40
0.0
 40
1.0
 40
1.0
 40
1.0
 40
1.0
 10
23.8753293473923
 20
132.5888431422411
 30
0.0
 10
23.8116284657893
 20
132.5939184261372
 30
0.0
 10
23.74768954813186
 20
132.5953482769682
 30
0.0
 10
23.68382546615628
 20
132.5931256980574
 30
0.0
  0
LINE
  5
B7
330
70
100
AcDbEntity
  8
0
 62
    18
420
        0
370
    25
100
AcDbLine
 10
23.87532934736824
 20
132.5888431445339
 30
0.0
 11
23.87532934736824
 21
128.4888431445341
 31
0.0
  0
LINE
  5
B8
330
70
100
AcDbEntity
  8
0
 62
    18
420
        0
370
    25
100
AcDbLine
 10
23.87532934736824
 20
127.288843144534
 30
0.0
 11
23.87532934736824
 21
122.9888431445339
 31
0.0
  0
SPLINE
  5
B9
330
70
100
AcDbEntity
  8
0
 62
    18
420
        0
370
    25
100
AcDbSpline
210
0.0
220
0.0
230
1.0
 70
     8
 71
     3
 72
     8
 73
     4
 74
     0
 42
0.0000000001
 43
0.0000000001
 40
0.0
 40
0.0
 40
0.0
 40
0.0
 40
1.0
 40
1.0
 40
1.0
 40
1.0
 10
23.68382716086515
 20
122.9887670582172
 30
0.0
 10
23.74766123306998
 20
122.9887430659384
 30
0.0
 10
23.81149531427657
 20
122.9887684280563
 30
0.0
 10
23.87532934726332
 20
122.988843144548
 30
0.0
  0
LINE
  5
BA
330
70
100
AcDbEntity
  8
0
 62
    18
420
        0
370
    25
100
AcDbLine
 10
14.07532934736821
 20
132.7888431445339
 30
0.0
 11
23.67532934736823
 21
132.7888431445339
 31
0.0
  0
SPLINE
  5
BB
330
70
100
AcDbEntity
  8
0
 62
    18
420
        0
370
    25
100
AcDbSpline
210
0.0
220
0.0
230
1.0
 70
     8
 71
     3
 72
     8
 73
     4
 74
     0
 42
0.0000000001
 43
0.0000000001
 40
0.0
 40
0.0
 40
0.0
 40
0.0
 40
1.0
 40
1.0
 40
1.0
 40
1.0
 10
23.67540543366184
 20
132.5973409580478
 30
0.0
 10
23.67542942594091
 20
132.6611750302296
 30
0.0
 10
23.67540406382305
 20
132.7250091114127
 30
0.0
 10
23.67532934733101
 20
132.788843144376
 30
0.0
  0
SPLINE
  5
BC
330
70
100
AcDbEntity
  8
0
 62
    18
420
        0
370
    25
100
AcDbSpline
210
0.0
220
0.0
230
1.0
 70
     8
 71
     3
 72
     8
 73
     4
 74
     0
 42
0.0000000001
 43
0.0000000001
 40
0.0
 40
0.0
 40
0.0
 40
0.0
 40
1.0
 40
1.0
 40
1.0
 40
1.0
 10
14.07532934731655
 20
132.7888431444858
 30
0.0
 10
14.07025406802428
 20
132.7251422626438
 30
0.0
 10
14.06882421794762
 20
132.6612033452074
 30
0.0
 10
14.07104679374488
 20
132.5973392632507
 30
0.0
  0
SPLINE
  5
BD
330
70
100
AcDbEntity
  8
0
 62
    18
420
        0
370
    25
100
AcDbSpline
210
0.0
220
0.0
230
1.0
 70
     8
 71
     3
 72
     8
 73
     4
 74
     0
 42
0.0000000001
 43
0.0000000001
 40
0.0
 40
0.0
 40
0.0
 40
0.0
 40
1.0
 40
1.0
 40
1.0
 40
1.0
 10
23.87532934738299
 20
132.5888431445265
 30
0.0
 10
23.80904739555176
 20
132.5973141101192
 30
0.0
 10
23.74216713702307
 20
132.6001568714546
 30
0.0
 10
23.67540543371285
 20
132.5973409581457
 30
0.0
  0
SPLINE
  5
BE
330
70
100
AcDbEntity
  8
0
 62
    18
420
        0
370
    25
100
AcDbSpline
210
0.0
220
0.0
230
1.0
 70
     8
 71
     3
 72
     8
 73
     4
 74
     0
 42
0.0000000001
 43
0.0000000001
 40
0.0
 40
0.0
 40
0.0
 40
0.0
 40
1.0
 40
1.0
 40
1.0
 40
1.0
 10
14.07532934737366
 20
132.788843144549
 30
0.0
 10
14.06685838178072
 20
132.7225611927174
 30
0.0
 10
14.0640156204456
 20
132.6556809341887
 30
0.0
 10
14.0668315337545
 20
132.5889192308782
 30
0.0
  0
SPLINE
  5
BF
330
70
100
AcDbEntity
  8
0
 62
    18
420
        0
370
    25
100
AcDbSpline
210
0.0
220
0.0
230
1.0
 70
     8
 71
     3
 72
     8
 73
     4
 74
     0
 42
0.0000000001
 43
0.0000000001
 40
0.0
 40
0.0
 40
0.0
 40
0.0
 40
1.0
 40
1.0
 40
1.0
 40
1.0
 10
23.6753293454672
 20
122.7888431444854
 30
0.0
 10
23.68040462900366
 20
122.8525440259838
 30
0.0
 10
23.68183447974031
 20
122.9164829435027
 30
0.0
 10
23.67961190100247
 20
122.9803470253515
 30
0.0
  0
LINE
  5
C0
330
70
100
AcDbEntity
  8
0
 62
    18
420
        0
370
    25
100
AcDbLine
 10
23.67532934736823
 20
122.7888431445339
 30
0.0
 11
18.87532934736838
 21
122.7888431445339
 31
0.0
  0
LINE
  5
C1
330
70
100
AcDbEntity
  8
0
 62
    18
420
        0
370
    25
100
AcDbLine
 10
18.87532934736838
 20
122.9791386055339
 30
0.0
 11
18.87532934736838
 21
122.7888431445339
 31
0.0
  0
SPLINE
  5
C2
330
70
100
AcDbEntity
  8
0
 62
    18
420
        0
370
    25
100
AcDbSpline
210
0.0
220
0.0
230
1.0
 70
     8
 71
     3
 72
     8
 73
     4
 74
     0
 42
0.0000000001
 43
0.0000000001
 40
0.0
 40
0.0
 40
0.0
 40
0.0
 40
1.0
 40
1.0
 40
1.0
 40
1.0
 10
23.67532934736823
 20
122.7888431445627
 30
0.0
 10
23.68380031296567
 20
122.8551250963927
 30
0.0
 10
23.68664307430078
 20
122.9220053549211
 30
0.0
 10
23.68382716098739
 20
122.9887670582303
 30
0.0
  0
LINE
  5
C3
330
70
100
AcDbEntity
  8
0
 62
    18
420
        0
370
    25
100
AcDbLine
 10
18.87532934736838
 20
122.7888431445339
 30
0.0
 11
14.07532934736821
 21
122.7888431445339
 31
0.0
  0
SPLINE
  5
C4
330
70
100
AcDbEntity
  8
0
 62
    18
420
        0
370
    25
100
AcDbSpline
210
0.0
220
0.0
230
1.0
 70
     8
 71
     3
 72
     8
 73
     4
 74
     0
 42
0.0000000001
 43
0.0000000001
 40
0.0
 40
0.0
 40
0.0
 40
0.0
 40
1.0
 40
1.0
 40
1.0
 40
1.0
 10
14.07525325731745
 20
122.9803453345102
 30
0.0
 10
14.07522926385925
 20
122.9165112610717
 30
0.0
 10
14.07525462722298
 20
122.8526771786308
 30
0.0
 10
14.07532934738586
 20
122.7888431444142
 30
0.0
  0
SPLINE
  5
C5
330
70
100
AcDbEntity
  8
0
 62
    18
420
        0
370
    25
100
AcDbSpline
210
0.0
220
0.0
230
1.0
 70
     8
 71
     3
 72
    11
 73
     7
 74
     0
 42
0.0000000001
 43
0.0000000001
 40
0.0
 40
0.0
 40
0.0
 40
0.0
 40
1.0
 40
1.0
 40
1.0
 40
2.0
 40
2.0
 40
2.0
 40
2.0
 10
13.8753293473682
 20
122.9888431446128
 30
0.0
 10
13.87532934732457
 20
122.8783861946466
 30
0.0
 10
13.96487239732309
 20
122.7888431445775
 30
0.0
 10
14.07532934728928
 20
122.7888431445339
 30
0.0
 10
14.07532934732875
 20
122.7888431445339
 30
0.0
 10
14.07532934732875
 20
122.7888431445339
 30
0.0
 10
14.07532934736821
 20
122.7888431445339
 30
0.0
  0
SPLINE
  5
C6
330
70
100
AcDbEntity
  8
0
 62
    18
420
        0
370
    25
100
AcDbSpline
210
0.0
220
0.0
230
1.0
 70
     8
 71
     3
 72
     8
 73
     4
 74
     0
 42
0.0000000001
 43
0.0000000001
 40
0.0
 40
0.0
 40
0.0
 40
0.0
 40
1.0
 40
1.0
 40
1.0
 40
1.0
 10
14.07532934736821
 20
132.7888431445339
 30
0.0
 10
13.96487239740202
 20
132.7888431445339
 30
0.0
 10
13.8753293473682
 20
132.6993000945001
 30
0.0
 10
13.8753293473682
 20
132.5888431445339
 30
0.0
  0
SPLINE
  5
C7
330
70
100
AcDbEntity
  8
0
 62
    18
420
        0
370
    25
100
AcDbSpline
210
0.0
220
0.0
230
1.0
 70
     8
 71
     3
 72
     8
 73
     4
 74
     0
 42
0.0000000001
 43
0.0000000001
 40
0.0
 40
0.0
 40
0.0
 40
0.0
 40
1.0
 40
1.0
 40
1.0
 40
1.0
 10
23.67532934736823
 20
122.7888431445339
 30
0.0
 10
23.78578629733442
 20
122.7888431445339
 30
0.0
 10
23.87532934736824
 20
122.8783861945677
 30
0.0
 10
23.87532934736824
 20
122.9888431445339
 30
0.0
  0
SPLINE
  5
C8
330
70
100
AcDbEntity
  8
0
 62
    18
420
        0
370
    25
100
AcDbSpline
210
0.0
220
0.0
230
1.0
 70
     8
 71
     3
 72
     8
 73
     4
 74
     0
 42
0.0000000001
 43
0.0000000001
 40
0.0
 40
0.0
 40
0.0
 40
0.0
 40
1.0
 40
1.0
 40
1.0
 40
1.0
 10
23.87532934736824
 20
132.5888431450072
 30
0.0
 10
23.87532934710707
 20
132.6993000947885
 30
0.0
 10
23.78578629714961
 20
132.7888431445339
 30
0.0
 10
23.67532934736823
 20
132.7888431445339
 30
0.0
  0
SPLINE
  5
C9
330
70
100
AcDbEntity
  8
0
 62
    18
420
        0
370
    25
100
AcDbSpline
210
0.0
220
0.0
230
1.0
 70
     8
 71
     3
 72
     8
 73
     4
 74
     0
 42
0.0000000001
 43
0.0000000001
 40
0.0
 40
0.0
 40
0.0
 40
0.0
 40
1.0
 40
1.0
 40
1.0
 40
1.0
 10
133.8167507036056
 20
127.3302645007711
 30
0.0
 10
133.7792434279156
 20
127.3677717764608
 30
0.0
 10
133.7283726453362
 20
127.3888431445337
 30
0.0
 10
133.6753293473679
 20
127.3888431445337
 30
0.0
  0
LINE
  5
CA
330
70
100
AcDbEntity
  8
0
 62
    18
420
        0
370
    25
100
AcDbLine
 10
133.7753293473682
 20
127.288843144534
 30
0.0
 11
133.8167507035684
 21
127.3302645007339
 31
0.0
  0
LINE
  5
CB
330
70
100
AcDbEntity
  8
0
 62
    18
420
        0
370
    25
100
AcDbLine
 10
133.7753293473682
 20
127.288843144534
 30
0.0
 11
13.97532934736821
 21
127.288843144534
 31
0.0
  0
LINE
  5
CC
330
70
100
AcDbEntity
  8
0
 62
    18
420
        0
370
    25
100
AcDbLine
 10
13.93390799106824
 20
127.3302645007339
 30
0.0
 11
13.97532934736821
 21
127.288843144534
 31
0.0
  0
SPLINE
  5
CD
330
70
100
AcDbEntity
  8
0
 62
    18
420
        0
370
    25
100
AcDbSpline
210
0.0
220
0.0
230
1.0
 70
     8
 71
     3
 72
     8
 73
     4
 74
     0
 42
0.0000000001
 43
0.0000000001
 40
0.0
 40
0.0
 40
0.0
 40
0.0
 40
1.0
 40
1.0
 40
1.0
 40
1.0
 10
14.07532934736821
 20
127.388843144534
 30
0.0
 10
14.02228604940023
 20
127.388843144534
 30
0.0
 10
13.97141526682051
 20
127.3677717764608
 30
0.0
 10
13.9339079911308
 20
127.3302645007711
 30
0.0
  0
LINE
  5
CE
330
70
100
AcDbEntity
  8
0
 62
    18
420
        0
370
    25
100
AcDbLine
 10
14.07532934736821
 20
127.388843144534
 30
0.0
 11
133.6753293473679
 21
127.388843144534
 31
0.0
  0
SPLINE
  5
CF
330
70
100
AcDbEntity
  8
0
 62
    18
420
        0
370
    25
100
AcDbSpline
210
0.0
220
0.0
230
1.0
 70
     8
 71
     3
 72
     8
 73
     4
 74
     0
 42
0.0000000001
 43
0.0000000001
 40
0.0
 40
0.0
 40
0.0
 40
0.0
 40
1.0
 40
1.0
 40
1.0
 40
1.0
 10
13.9339079911308
 20
128.4474217882967
 30
0.0
 10
13.97141526682051
 20
128.4099145126069
 30
0.0
 10
14.02228604940023
 20
128.3888431445338
 30
0.0
 10
14.07532934736821
 20
128.3888431445338
 30
0.0
  0
LINE
  5
D0
330
70
100
AcDbEntity
  8
0
 62
    18
420
        0
370
    25
100
AcDbLine
 10
14.07532934736821
 20
128.3888431445341
 30
0.0
 11
14.07532934736821
 21
127.388843144534
 31
0.0
  0
LINE
  5
D1
330
70
100
AcDbEntity
  8
0
 62
    18
420
        0
370
    25
100
AcDbLine
 10
13.93390799106824
 20
127.3302645007339
 30
0.0
 11
13.8753293473682
 21
127.388843144534
 31
0.0
  0
LINE
  5
D2
330
70
100
AcDbEntity
  8
0
 62
    18
420
        0
370
    25
100
AcDbLine
 10
13.8753293473682
 20
127.388843144534
 30
0.0
 11
13.8753293473682
 21
128.3888431445341
 31
0.0
  0
LINE
  5
D3
330
70
100
AcDbEntity
  8
0
 62
    18
420
        0
370
    25
100
AcDbLine
 10
13.8753293473682
 20
128.3888431445341
 30
0.0
 11
13.93390799106824
 21
128.4474217882341
 31
0.0
  0
LINE
  5
D4
330
70
100
AcDbEntity
  8
0
 62
    18
420
        0
370
    25
100
AcDbLine
 10
133.8167507035684
 20
128.4474217882341
 30
0.0
 11
133.8753293473679
 21
128.3888431445341
 31
0.0
  0
LINE
  5
D5
330
70
100
AcDbEntity
  8
0
 62
    18
420
        0
370
    25
100
AcDbLine
 10
133.8753293473679
 20
128.3888431445341
 30
0.0
 11
133.8753293473679
 21
127.388843144534
 31
0.0
  0
LINE
  5
D6
330
70
100
AcDbEntity
  8
0
 62
    18
420
        0
370
    25
100
AcDbLine
 10
133.8753293473679
 20
127.388843144534
 30
0.0
 11
133.8167507035684
 21
127.3302645007339
 31
0.0
  0
LINE
  5
D7
330
70
100
AcDbEntity
  8
0
 62
    18
420
        0
370
    25
100
AcDbLine
 10
133.6753293473679
 20
127.388843144534
 30
0.0
 11
133.6753293473679
 21
128.3888431445341
 31
0.0
  0
SPLINE
  5
D8
330
70
100
AcDbEntity
  8
0
 62
    18
420
        0
370
    25
100
AcDbSpline
210
0.0
220
0.0
230
1.0
 70
     8
 71
     3
 72
     8
 73
     4
 74
     0
 42
0.0000000001
 43
0.0000000001
 40
0.0
 40
0.0
 40
0.0
 40
0.0
 40
1.0
 40
1.0
 40
1.0
 40
1.0
 10
133.6753293473679
 20
128.3888431445338
 30
0.0
 10
133.7283726453362
 20
128.3888431445338
 30
0.0
 10
133.7792434279162
 20
128.4099145126069
 30
0.0
 10
133.8167507036056
 20
128.4474217882967
 30
0.0
  0
LINE
  5
D9
330
70
100
AcDbEntity
  8
0
 62
    18
420
        0
370
    25
100
AcDbLine
 10
133.6753293473679
 20
128.3888431445341
 30
0.0
 11
14.07532934736821
 21
128.3888431445341
 31
0.0
  0
LINE
  5
DA
330
70
100
AcDbEntity
  8
0
 62
    18
420
        0
370
    25
100
AcDbLine
 10
13.97532934736821
 20
128.4888431445341
 30
0.0
 11
133.7753293473682
 21
128.4888431445341
 31
0.0
  0
LINE
  5
DB
330
70
100
AcDbEntity
  8
0
 62
    18
420
        0
370
    25
100
AcDbLine
 10
133.7753293473682
 20
128.4888431445341
 30
0.0
 11
133.8167507035684
 21
128.4474217882341
 31
0.0
  0
LINE
  5
DC
330
70
100
AcDbEntity
  8
0
 62
    18
420
        0
370
    25
100
AcDbLine
 10
13.93390799106824
 20
128.4474217882341
 30
0.0
 11
13.97532934736821
 21
128.4888431445341
 31
0.0
  0
LINE
  5
DD
330
70
100
AcDbEntity
  8
0
 62
    18
420
        0
370
    25
100
AcDbLine
 10
127.0788487973683
 20
128.6888431445341
 30
0.0
 11
129.6718098972683
 21
128.6888431445341
 31
0.0
  0
SPLINE
  5
DE
330
70
100
AcDbEntity
  8
0
 62
    18
420
        0
370
    25
100
AcDbSpline
210
0.0
220
0.0
230
1.0
 70
     8
 71
     3
 72
    11
 73
     7
 74
     0
 42
0.0000000001
 43
0.0000000001
 40
0.0
 40
0.0
 40
0.0
 40
0.0
 40
1.0
 40
1.0
 40
1.0
 40
2.0
 40
2.0
 40
2.0
 40
2.0
 10
129.6718098973209
 20
128.6888431445341
 30
0.0
 10
129.2299820974562
 20
129.4048695807254
 30
0.0
 10
128.291355783559
 20
129.6271514943514
 30
0.0
 10
127.575329347368
 20
129.1853236944866
 30
0.0
 10
127.3734363108165
 20
129.0607445565683
 30
0.0
 10
127.2034279353338
 20
128.8907361810856
 30
0.0
 10
127.0788487974152
 20
128.6888431445341
 30
0.0
  0
SPLINE
  5
DF
330
70
100
AcDbEntity
  8
0
 62
    18
420
        0
370
    25
100
AcDbSpline
210
0.0
220
0.0
230
1.0
 70
     8
 71
     3
 72
    11
 73
     7
 74
     0
 42
0.0000000001
 43
0.0000000001
 40
0.0
 40
0.0
 40
0.0
 40
0.0
 40
1.0
 40
1.0
 40
1.0
 40
2.0
 40
2.0
 40
2.0
 40
2.0
 10
129.7609699934236
 20
128.6888431445341
 30
0.0
 10
129.3191421935589
 20
129.454111342096
 30
0.0
 10
128.3405975449302
 20
129.7163115904538
 30
0.0
 10
127.575329347368
 20
129.274483790589
 30
0.0
 10
127.3320986116194
 20
129.134054459829
 30
0.0
 10
127.1301180320727
 20
128.932073880283
 30
0.0
 10
126.9896887013131
 20
128.6888431445341
 30
0.0
  0
LINE
  5
E0
330
70
100
AcDbEntity
  8
0
 62
    18
420
        0
370
    25
100
AcDbLine
 10
127.0788487973683
 20
128.6888431445341
 30
0.0
 11
126.9896887012682
 21
128.6888431445341
 31
0.0
  0
LINE
  5
E1
330
70
100
AcDbEntity
  8
0
 62
    18
420
        0
370
    25
100
AcDbLine
 10
129.7609699933684
 20
128.6888431445341
 30
0.0
 11
129.6718098972683
 21
128.6888431445341
 31
0.0
  0
SPLINE
  5
E2
330
70
100
AcDbEntity
  8
0
 62
    18
420
        0
370
    25
100
AcDbSpline
210
0.0
220
0.0
230
1.0
 70
     8
 71
     3
 72
    11
 73
     7
 74
     0
 42
0.0000000001
 43
0.0000000001
 40
0.0
 40
0.0
 40
0.0
 40
0.0
 40
1.0
 40
1.0
 40
1.0
 40
2.0
 40
2.0
 40
2.0
 40
2.0
 10
126.8920896499488
 20
127.288843144535
 30
0.0
 10
127.2234604998468
 20
126.4696724793067
 30
0.0
 10
128.1561586821384
 20
126.0742325972166
 30
0.0
 10
128.9753293473674
 20
126.4056034471145
 30
0.0
 10
129.3772504362429
 20
126.5681885328186
 30
0.0
 10
129.6959839590835
 20
126.8869220556595
 30
0.0
 10
129.8585690447879
 20
127.288843144535
 30
0.0
  0
SPLINE
  5
E3
330
70
100
AcDbEntity
  8
0
 62
    18
420
        0
370
    25
100
AcDbSpline
210
0.0
220
0.0
230
1.0
 70
     8
 71
     3
 72
     8
 73
     4
 74
     0
 42
0.0000000001
 43
0.0000000001
 40
0.0
 40
0.0
 40
0.0
 40
0.0
 40
1.0
 40
1.0
 40
1.0
 40
1.0
 10
129.8585690447879
 20
128.4888431445328
 30
0.0
 10
129.8307174001841
 20
128.5576942527238
 30
0.0
 10
129.7981055195615
 20
128.6245225264966
 30
0.0
 10
129.7609699934236
 20
128.6888431445341
 30
0.0
  0
SPLINE
  5
E4
330
70
100
AcDbEntity
  8
0
 62
    18
420
        0
370
    25
100
AcDbSpline
210
0.0
220
0.0
230
1.0
 70
     8
 71
     3
 72
     8
 73
     4
 74
     0
 42
0.0000000001
 43
0.0000000001
 40
0.0
 40
0.0
 40
0.0
 40
0.0
 40
1.0
 40
1.0
 40
1.0
 40
1.0
 10
126.9896887013131
 20
128.6888431445341
 30
0.0
 10
126.9525531751745
 20
128.6245225264966
 30
0.0
 10
126.9199412945526
 20
128.5576942527238
 30
0.0
 10
126.8920896499488
 20
128.4888431445328
 30
0.0
  0
SPLINE
  5
E5
330
70
100
AcDbEntity
  8
0
 62
    18
420
        0
370
    25
100
AcDbSpline
210
0.0
220
0.0
230
1.0
 70
     8
 71
     3
 72
    11
 73
     7
 74
     0
 42
0.0000000001
 43
0.0000000001
 40
0.0
 40
0.0
 40
0.0
 40
0.0
 40
1.0
 40
1.0
 40
1.0
 40
2.0
 40
2.0
 40
2.0
 40
2.0
 10
17.43628041963669
 20
127.2888431445334
 30
0.0
 10
17.71242279455217
 20
126.494078367487
 30
0.0
 10
18.58056457032204
 20
126.0736518418866
 30
0.0
 10
19.37532934736872
 20
126.3497942168024
 30
0.0
 10
19.8154848567545
 20
126.5027269979274
 30
0.0
 10
20.16144549397471
 20
126.8486876351476
 30
0.0
 10
20.31437827510007
 20
127.2888431445334
 30
0.0
  0
SPLINE
  5
E6
330
70
100
AcDbEntity
  8
0
 62
    18
420
        0
370
    25
100
AcDbSpline
210
0.0
220
0.0
230
1.0
 70
     8
 71
     3
 72
    11
 73
     7
 74
     0
 42
0.0000000001
 43
0.0000000001
 40
0.0
 40
0.0
 40
0.0
 40
0.0
 40
1.0
 40
1.0
 40
1.0
 40
2.0
 40
2.0
 40
2.0
 40
2.0
 10
20.17180989732095
 20
128.5888431445341
 30
0.0
 10
19.7299820974565
 20
129.3048695807254
 30
0.0
 10
18.79135578355932
 20
129.5271514943514
 30
0.0
 10
18.07532934736803
 20
129.0853236944869
 30
0.0
 10
17.87343631081652
 20
128.9607445565683
 30
0.0
 10
17.70342793533411
 20
128.7907361810856
 30
0.0
 10
17.57884879741549
 20
128.5888431445341
 30
0.0
  0
LINE
  5
E7
330
70
100
AcDbEntity
  8
0
 62
    18
420
        0
370
    25
100
AcDbLine
 10
17.57884879736832
 20
128.5888431445341
 30
0.0
 11
20.17180989726833
 21
128.5888431445341
 31
0.0
  0
SPLINE
  5
E8
330
70
100
AcDbEntity
  8
0
 62
    18
420
        0
370
    25
100
AcDbSpline
210
0.0
220
0.0
230
1.0
 70
     8
 71
     3
 72
    11
 73
     7
 74
     0
 42
0.0000000001
 43
0.0000000001
 40
0.0
 40
0.0
 40
0.0
 40
0.0
 40
1.0
 40
1.0
 40
1.0
 40
2.0
 40
2.0
 40
2.0
 40
2.0
 10
20.26096999342332
 20
128.5888431445341
 30
0.0
 10
19.81914219355855
 20
129.354111342096
 30
0.0
 10
18.84059754493025
 20
129.6163115904537
 30
0.0
 10
18.07532934736835
 20
129.174483790589
 30
0.0
 10
17.83209861161938
 20
129.0340544598294
 30
0.0
 10
17.63011803207308
 20
128.8320738802831
 30
0.0
 10
17.48968870131312
 20
128.5888431445341
 30
0.0
  0
LINE
  5
E9
330
70
100
AcDbEntity
  8
0
 62
    18
420
        0
370
    25
100
AcDbLine
 10
17.57884879736832
 20
128.5888431445341
 30
0.0
 11
17.4896887012682
 21
128.5888431445341
 31
0.0
  0
LINE
  5
EA
330
70
100
AcDbEntity
  8
0
 62
    18
420
        0
370
    25
100
AcDbLine
 10
20.26096999336813
 20
128.5888431445341
 30
0.0
 11
20.17180989726833
 21
128.5888431445341
 31
0.0
  0
SPLINE
  5
EB
330
70
100
AcDbEntity
  8
0
 62
    18
420
        0
370
    25
100
AcDbSpline
210
0.0
220
0.0
230
1.0
 70
     8
 71
     3
 72
    11
 73
     7
 74
     0
 42
0.0000000001
 43
0.0000000001
 40
0.0
 40
0.0
 40
0.0
 40
0.0
 40
1.0
 40
1.0
 40
1.0
 40
2.0
 40
2.0
 40
2.0
 40
2.0
 10
17.35546093200916
 20
127.2888431445327
 30
0.0
 10
17.63160330692528
 20
126.4494429969803
 30
0.0
 10
18.53592919981696
 20
125.9928323542587
 30
0.0
 10
19.37532934736936
 20
126.2689747291748
 30
0.0
 10
19.85792158298982
 20
126.4277359188757
 30
0.0
 10
20.23643657302677
 20
126.8062509089123
 30
0.0
 10
20.39519776272728
 20
127.2888431445327
 30
0.0
  0
LWPOLYLINE
  5
EC
330
70
100
AcDbEntity
  8
0
 62
    18
420
        0
370
    25
100
AcDbPolyline
 90
        3
 70
     0
 43
0.0
 10
20.26096999336813
 20
128.5888431445341
 10
20.3103257337681
 20
128.4965050488341
 10
20.31407880436812
 20
128.4888431445341
  0
LWPOLYLINE
  5
ED
330
70
100
AcDbEntity
  8
0
 62
    18
420
        0
370
    25
100
AcDbPolyline
 90
        3
 70
     0
 43
0.0
 10
17.43657989036831
 20
128.4888431445341
 10
17.44033296086823
 20
128.4965050488341
 10
17.4896887012682
 20
128.5888431445341
  0
LWPOLYLINE
  5
EE
330
70
100
AcDbEntity
  8
0
 62
     8
420
  8421504
370
    25
100
AcDbPolyline
 90
        4
 70
     0
 43
0.0
 10
123.566831533768
 20
132.6889192308339
 10
123.566672780568
 20
132.2889192879339
 10
123.5661046425684
 20
130.688919466734
 10
123.5657815101684
 20
128.4888431445341
  0
LWPOLYLINE
  5
EF
330
70
100
AcDbEntity
  8
0
 62
     8
420
  8421504
370
    25
100
AcDbPolyline
 90
        4
 70
     0
 43
0.0
 10
123.5656610059684
 20
127.288843144534
 10
123.5657952219684
 20
126.2700386157341
 10
123.566831538068
 20
123.0887670537339
 10
123.5668332285683
 20
123.084560590934
  0
LWPOLYLINE
  5
F0
330
70
100
AcDbEntity
  8
0
 62
     8
420
  8421504
370
    25
100
AcDbPolyline
 90
        4
 70
     0
 43
0.0
 10
133.1838271609681
 20
123.0887670581341
 10
133.1839859141681
 20
123.4887670011339
 10
133.1845540520683
 20
125.0887668223341
 10
133.1848771844683
 20
127.288843144534
  0
LWPOLYLINE
  5
F1
330
70
100
AcDbEntity
  8
0
 62
     8
420
  8421504
370
    25
100
AcDbPolyline
 90
        4
 70
     0
 43
0.0
 10
133.1849976887683
 20
128.4888431445341
 10
133.1848634726682
 20
129.507647673334
 10
133.183827156568
 20
132.6889192353338
 10
133.1838254660684
 20
132.6931256985339
  0
LWPOLYLINE
  5
F2
330
70
100
AcDbEntity
  8
0
 62
     8
420
  8421504
370
    25
100
AcDbPolyline
 90
        4
 70
     0
 43
0.0
 10
23.68382716096815
 20
122.9887670581341
 10
23.6839859141681
 20
123.3887670011339
 10
23.6845540520683
 20
124.9887668223338
 10
23.6848918718684
 20
127.288843144534
  0
LWPOLYLINE
  5
F3
330
70
100
AcDbEntity
  8
0
 62
     8
420
  8421504
370
    25
100
AcDbPolyline
 90
        4
 70
     0
 43
0.0
 10
23.68498451486833
 20
128.4888431445341
 10
23.68486347266823
 20
129.4076476733341
 10
23.68382715656834
 20
132.5889192353338
 10
23.68382546606837
 20
132.5931256981341
  0
LWPOLYLINE
  5
F4
330
70
100
AcDbEntity
  8
0
 62
     8
420
  8421504
370
    25
100
AcDbPolyline
 90
        4
 70
     0
 43
0.0
 10
14.06683153376829
 20
132.5889192308339
 10
14.06667278056834
 20
132.1889192879339
 10
14.06610464256836
 20
130.588919466734
 10
14.0657961974684
 20
128.4888431445341
  0
LWPOLYLINE
  5
F5
330
70
100
AcDbEntity
  8
0
 62
     8
420
  8421504
370
    25
100
AcDbPolyline
 90
        4
 70
     0
 43
0.0
 10
14.06564783206811
 20
127.288843144534
 10
14.0657952219681
 20
126.1700386157341
 10
14.06683153806832
 20
122.9887670537339
 10
14.06683322856829
 20
122.9845605904341
  0
LINE
  5
F6
330
70
100
AcDbEntity
  8
0
 62
     8
420
  8421504
370
    25
100
AcDbLine
 10
18.87532934736838
 20
126.203186602434
 30
0.0
 11
18.87532934736838
 21
122.9791386055339
 31
0.0
  0
SPLINE
  5
F7
330
70
100
AcDbEntity
  8
0
 62
     8
420
  8421504
370
    25
100
AcDbSpline
210
0.0
220
0.0
230
1.0
 70
     8
 71
     3
 72
    11
 73
     7
 74
     0
 42
0.0000000001
 43
0.0000000001
 40
0.0
 40
0.0
 40
0.0
 40
0.0
 40
1.0
 40
1.0
 40
1.0
 40
2.0
 40
2.0
 40
2.0
 40
2.0
 10
126.9750215896214
 20
127.288843144534
 30
0.0
 10
127.30639243952
 20
126.5154745248605
 30
0.0
 10
128.2019607276949
 20
126.1571645368885
 30
0.0
 10
128.9753293473681
 20
126.4885353867871
 30
0.0
 10
129.3349725703639
 20
126.6426343215416
 30
0.0
 10
129.6215381703605
 20
126.9291999215382
 30
0.0
 10
129.7756371051153
 20
127.288843144534
 30
0.0
  0
LWPOLYLINE
  5
F8
330
70
100
AcDbEntity
  8
0
 62
    18
420
        0
370
    25
100
AcDbPolyline
 90
        5
 70
     0
 43
0.0
 10
172.1307199269683
 20
126.9213238536339
 10
172.1307750178685
 20
127.317921273134
 10
172.1308024630682
 20
127.7898766803339
 10
172.1307748627679
 20
128.2626244302339
 10
172.1307199269683
 20
128.6563624354339
  0
LWPOLYLINE
  5
F9
330
70
100
AcDbEntity
  8
0
 62
    18
420
        0
370
    25
100
AcDbPolyline
 90
        5
 70
     0
 43
0.0
 10
172.1307134139682
 20
128.646706309334
 10
172.1307589916679
 20
128.8239081717339
 10
172.130810899968
 20
128.9708320246339
 10
172.1308505065683
 20
129.0792305724339
 10
172.1308568910682
 20
129.1402659561341
  0
LWPOLYLINE
  5
FA
330
70
100
AcDbEntity
  8
0
 62
    18
420
        0
370
    25
100
AcDbPolyline
 90
        3
 70
     0
 43
0.0
 10
172.1308571464683
 20
129.1397886740339
 10
172.102692029668
 20
130.6419090768341
 10
172.0263726556685
 20
132.598465211534
  0
LWPOLYLINE
  5
FB
330
70
100
AcDbEntity
  8
0
 62
    18
420
        0
370
    25
100
AcDbPolyline
 90
        3
 70
     0
 43
0.0
 10
172.1306115073685
 20
126.8633397036341
 10
172.1306689375684
 20
126.8747701905339
 10
172.1307134090682
 20
126.9309868084338
  0
SPLINE
  5
FC
330
70
100
AcDbEntity
  8
0
 62
    18
420
        0
370
    25
100
AcDbSpline
210
0.0
220
0.0
230
1.0
 70
     8
 71
     3
 72
     8
 73
     4
 74
     0
 42
0.0000000001
 43
0.0000000001
 40
0.0
 40
0.0
 40
0.0
 40
0.0
 40
1.0
 40
1.0
 40
1.0
 40
1.0
 10
172.0268253548255
 20
132.5983873562465
 30
0.0
 10
172.0217311893037
 20
132.7050145329832
 30
0.0
 10
171.9337959561551
 20
132.7888463756573
 30
0.0
 10
171.8270471607018
 20
132.7888431444425
 30
0.0
  0
LINE
  5
FD
330
70
100
AcDbEntity
  8
0
 62
    18
420
        0
370
    25
100
AcDbLine
 10
176.8514039442683
 20
129.4888431445341
 30
0.0
 11
172.1296678521681
 21
129.4888431445341
 31
0.0
  0
SPLINE
  5
FE
330
70
100
AcDbEntity
  8
0
 62
    18
420
        0
370
    25
100
AcDbSpline
210
0.0
220
0.0
230
1.0
 70
     8
 71
     3
 72
     8
 73
     4
 74
     0
 42
0.0000000001
 43
0.0000000001
 40
0.0
 40
0.0
 40
0.0
 40
0.0
 40
1.0
 40
1.0
 40
1.0
 40
1.0
 10
176.9486185707078
 20
129.412280644534
 30
0.0
 10
176.9377903828428
 20
129.4571940627002
 30
0.0
 10
176.8976042124904
 20
129.4888431445341
 30
0.0
 10
176.8514039442683
 20
129.4888431445341
 30
0.0
  0
SPLINE
  5
FF
330
70
100
AcDbEntity
  8
0
 62
    18
420
        0
370
    25
100
AcDbSpline
210
0.0
220
0.0
230
1.0
 70
     8
 71
     3
 72
     8
 73
     4
 74
     0
 42
0.0000000001
 43
0.0000000001
 40
0.0
 40
0.0
 40
0.0
 40
0.0
 40
1.0
 40
1.0
 40
1.0
 40
1.0
 10
177.080249221316
 20
128.6888431445335
 30
0.0
 10
177.0500582767273
 20
128.9322795753867
 30
0.0
 10
177.0061110921623
 20
129.1738117807806
 30
0.0
 10
176.9486185707277
 20
129.4122806445362
 30
0.0
  0
LINE
  5
100
330
70
100
AcDbEntity
  8
0
 62
    18
420
        0
370
    25
100
AcDbLine
 10
176.3081841913685
 20
126.188843144534
 30
0.0
 11
176.8514039442683
 21
126.188843144534
 31
0.0
  0
LINE
  5
101
330
70
100
AcDbEntity
  8
0
 62
    18
420
        0
370
    25
100
AcDbLine
 10
172.1296678521681
 20
126.188843144534
 30
0.0
 11
174.7097908297682
 21
126.188843144534
 31
0.0
  0
LINE
  5
102
330
70
100
AcDbEntity
  8
0
 62
    18
420
        0
370
    25
100
AcDbLine
 10
176.8514039442683
 20
129.3888431445341
 30
0.0
 11
172.1296678521681
 21
129.3888431445341
 31
0.0
  0
SPLINE
  5
103
330
70
100
AcDbEntity
  8
0
 62
    18
420
        0
370
    25
100
AcDbSpline
210
0.0
220
0.0
230
1.0
 70
     8
 71
     3
 72
     8
 73
     4
 74
     0
 42
0.0000000001
 43
0.0000000001
 40
0.0
 40
0.0
 40
0.0
 40
0.0
 40
1.0
 40
1.0
 40
1.0
 40
1.0
 10
176.8514039442683
 20
126.188843144534
 30
0.0
 10
176.8976042124904
 20
126.188843144534
 30
0.0
 10
176.9377903828428
 20
126.2204922263675
 30
0.0
 10
176.9486185707078
 20
126.2654056445338
 30
0.0
  0
SPLINE
  5
104
330
70
100
AcDbEntity
  8
0
 62
    18
420
        0
370
    25
100
AcDbSpline
210
0.0
220
0.0
230
1.0
 70
     8
 71
     3
 72
     8
 73
     4
 74
     0
 42
0.0000000001
 43
0.0000000001
 40
0.0
 40
0.0
 40
0.0
 40
0.0
 40
1.0
 40
1.0
 40
1.0
 40
1.0
 10
176.9486185707277
 20
126.2654056445316
 30
0.0
 10
177.0296965145071
 20
126.6017026905878
 30
0.0
 10
177.0837983536428
 20
126.9439355720233
 30
0.0
 10
177.1104085505757
 20
127.2888431445305
 30
0.0
  0
SPLINE
  5
105
330
70
100
AcDbEntity
  8
0
 62
    18
420
        0
370
    25
100
AcDbSpline
210
0.0
220
0.0
230
1.0
 70
     8
 71
     3
 72
     8
 73
     4
 74
     0
 42
0.0000000001
 43
0.0000000001
 40
0.0
 40
0.0
 40
0.0
 40
0.0
 40
1.0
 40
1.0
 40
1.0
 40
1.0
 10
176.9486185707078
 20
129.312280644534
 30
0.0
 10
176.9377903828428
 20
129.3571940627002
 30
0.0
 10
176.8976042124904
 20
129.3888431445341
 30
0.0
 10
176.8514039442683
 20
129.3888431445341
 30
0.0
  0
SPLINE
  5
106
330
70
100
AcDbEntity
  8
0
 62
    18
420
        0
370
    25
100
AcDbSpline
210
0.0
220
0.0
230
1.0
 70
     8
 71
     3
 72
     8
 73
     4
 74
     0
 42
0.0000000001
 43
0.0000000001
 40
0.0
 40
0.0
 40
0.0
 40
0.0
 40
1.0
 40
1.0
 40
1.0
 40
1.0
 10
177.0802492213167
 20
128.5888431445338
 30
0.0
 10
177.0500582767273
 20
128.832279575387
 30
0.0
 10
177.0061110921623
 20
129.0738117807806
 30
0.0
 10
176.9486185707277
 20
129.3122806445362
 30
0.0
  0
LINE
  5
107
330
70
100
AcDbEntity
  8
0
 62
    18
420
        0
370
    25
100
AcDbLine
 10
170.9168670328683
 20
132.6888431445339
 30
0.0
 11
170.9168670328683
 21
123.0888431445339
 31
0.0
  0
SPLINE
  5
108
330
70
100
AcDbEntity
  8
0
 62
    18
420
        0
370
    25
100
AcDbSpline
210
0.0
220
0.0
230
1.0
 70
     8
 71
     3
 72
     8
 73
     4
 74
     0
 42
0.0000000001
 43
0.0000000001
 40
0.0
 40
0.0
 40
0.0
 40
0.0
 40
1.0
 40
1.0
 40
1.0
 40
1.0
 10
172.0129486804468
 20
132.6889192308567
 30
0.0
 10
172.0129565540067
 20
132.7992965999582
 30
0.0
 10
171.9235066667763
 20
132.88879328575
 30
0.0
 10
171.8131293086549
 20
132.8888431445259
 30
0.0
  0
LINE
  5
109
330
70
100
AcDbEntity
  8
0
 62
    18
420
        0
370
    25
100
AcDbLine
 10
170.9168670328683
 20
122.8888431445339
 30
0.0
 11
170.9168670328683
 21
123.0888431445339
 31
0.0
  0
LINE
  5
10A
330
70
100
AcDbEntity
  8
0
 62
    18
420
        0
370
    25
100
AcDbLine
 10
170.9296678521681
 20
122.8888431445339
 30
0.0
 11
170.9168670328683
 21
122.8888431445339
 31
0.0
  0
LINE
  5
10B
330
70
100
AcDbEntity
  8
0
 62
    18
420
        0
370
    25
100
AcDbLine
 10
170.9168670328683
 20
132.8888431445339
 30
0.0
 11
171.8131293085683
 21
132.8888431445339
 31
0.0
  0
LINE
  5
10C
330
70
100
AcDbEntity
  8
0
 62
    18
420
        0
370
    25
100
AcDbLine
 10
170.9168670328683
 20
132.6888431445339
 30
0.0
 11
170.9168670328683
 21
132.8888431445339
 31
0.0
  0
LINE
  5
10D
330
70
100
AcDbEntity
  8
0
 62
    18
420
        0
370
    25
100
AcDbLine
 10
172.0133062736682
 20
132.6889226180339
 30
0.0
 11
172.0129486803685
 21
132.6889192308339
 31
0.0
  0
LINE
  5
10E
330
70
100
AcDbEntity
  8
0
 62
    18
420
        0
370
    25
100
AcDbLine
 10
172.0129471504649
 20
132.6973392636447
 30
0.0
 11
172.0136645149486
 21
132.6981405894964
 31
0.0
  0
SPLINE
  5
10F
330
70
100
AcDbEntity
  8
0
 62
    18
420
        0
370
    25
100
AcDbSpline
210
0.0
220
0.0
230
1.0
 70
     8
 71
     3
 72
     8
 73
     4
 74
     0
 42
0.0000000001
 43
0.0000000001
 40
0.0
 40
0.0
 40
0.0
 40
0.0
 40
1.0
 40
1.0
 40
1.0
 40
1.0
 10
172.0129471505548
 20
132.697339263646
 30
0.0
 10
172.0083958234584
 20
132.8043945845248
 30
0.0
 10
171.9202813329286
 20
132.8888428336708
 30
0.0
 10
171.8131293086517
 20
132.8888431445118
 30
0.0
  0
LINE
  5
110
330
70
100
AcDbEntity
  8
0
 62
    18
420
        0
370
    25
100
AcDbLine
 10
171.8131293085683
 20
132.8888431445339
 30
0.0
 11
171.814251465168
 21
132.8888431445339
 31
0.0
  0
LWPOLYLINE
  5
111
330
70
100
AcDbEntity
  8
0
 62
    18
420
        0
370
    25
100
AcDbPolyline
 90
        7
 70
     0
 43
0.0
 10
172.0129471504681
 20
132.6973392636338
 10
172.013012573668
 20
132.6958015130338
 10
172.0130780894684
 20
132.694263510334
 10
172.0131562684683
 20
132.6924308282338
 10
172.0132297496685
 20
132.690710925634
 10
172.013268935768
 20
132.6897948131339
 10
172.0133062736682
 20
132.6889226180339
  0
LWPOLYLINE
  5
112
330
70
100
AcDbEntity
  8
0
 62
    18
420
        0
370
    25
100
AcDbPolyline
 90
        3
 70
     0
 43
0.0
 10
172.0144830012681
 20
132.6889226180339
 10
172.0142215283684
 20
132.6943126601339
 10
172.0140158812683
 20
132.698547683434
  0
LINE
  5
113
330
70
100
AcDbEntity
  8
0
 62
    18
420
        0
370
    25
100
AcDbLine
 10
172.0144830012681
 20
132.6889226180339
 30
0.0
 11
172.0133062736682
 21
132.6889226180339
 31
0.0
  0
LINE
  5
114
330
70
100
AcDbEntity
  8
0
 62
    18
420
        0
370
    25
100
AcDbLine
 10
171.8259301279681
 20
122.9888431445339
 30
0.0
 11
172.0257494999679
 21
122.9803453345339
 31
0.0
  0
LWPOLYLINE
  5
115
330
70
100
AcDbEntity
  8
0
 62
    18
420
        0
370
    25
100
AcDbPolyline
 90
        7
 70
     0
 43
0.0
 10
171.8259301279681
 20
122.9888431445339
 10
171.832092881168
 20
122.9887109894341
 10
171.861543615568
 20
122.988079505834
 10
171.9246770530684
 20
122.9867261570338
 10
171.9766713506679
 20
122.9856119593339
 10
172.0116757995682
 20
122.9848620283339
 10
172.025747969868
 20
122.9845605904341
  0
SPLINE
  5
116
330
70
100
AcDbEntity
  8
0
 62
    18
420
        0
370
    25
100
AcDbSpline
210
0.0
220
0.0
230
1.0
 70
     8
 71
     3
 72
     8
 73
     4
 74
     0
 42
0.0000000001
 43
0.0000000001
 40
0.0
 40
0.0
 40
0.0
 40
0.0
 40
1.0
 40
1.0
 40
1.0
 40
1.0
 10
172.0257479697935
 20
122.984560590471
 30
0.0
 10
172.0259916671665
 20
122.9859482495157
 30
0.0
 10
172.0261118454379
 20
122.9873547836884
 30
0.0
 10
172.0261070929205
 20
122.9887636709969
 30
0.0
  0
LINE
  5
117
330
70
100
AcDbEntity
  8
0
 62
    18
420
        0
370
    25
100
AcDbLine
 10
172.026107092968
 20
122.9887636710338
 30
0.0
 11
172.0257494999679
 21
122.9803453345339
 31
0.0
  0
LWPOLYLINE
  5
118
330
70
100
AcDbEntity
  8
0
 62
    18
420
        0
370
    25
100
AcDbPolyline
 90
        4
 70
     0
 43
0.0
 10
171.8259301279681
 20
122.9888431445339
 10
171.8268967417683
 20
126.1700758524339
 10
171.826904849268
 20
129.3513083863341
 10
171.825930127868
 20
132.5888431445339
  0
LINE
  5
119
330
70
100
AcDbEntity
  8
0
 62
    18
420
        0
370
    25
100
AcDbLine
 10
171.825930127868
 20
132.5888431445339
 30
0.0
 11
172.0257494996682
 21
132.5889192308339
 31
0.0
  0
LWPOLYLINE
  5
11A
330
70
100
AcDbEntity
  8
0
 62
    18
420
        0
370
    25
100
AcDbPolyline
 90
        7
 70
     0
 43
0.0
 10
172.0257494996682
 20
132.5889192308339
 10
172.0258926096683
 20
132.1889192879339
 10
172.0263983751681
 20
130.588919466734
 10
172.0268083168683
 20
127.3889194521339
 10
172.0266693601684
 20
126.1700386157341
 10
172.0257494999679
 20
122.9887670537339
 10
172.025747969868
 20
122.9845605904341
  0
LINE
  5
11B
330
70
100
AcDbEntity
  8
0
 62
    18
420
        0
370
    25
100
AcDbLine
 10
170.9296678521681
 20
122.9888431445339
 30
0.0
 11
171.8259301279681
 21
122.9888431445339
 31
0.0
  0
LINE
  5
11C
330
70
100
AcDbEntity
  8
0
 62
    18
420
        0
370
    25
100
AcDbLine
 10
171.825930127868
 20
122.7888431445339
 30
0.0
 11
171.8259301279681
 21
122.9888431445339
 31
0.0
  0
LINE
  5
11D
330
70
100
AcDbEntity
  8
0
 62
    18
420
        0
370
    25
100
AcDbLine
 10
171.825930127868
 20
122.7888431445339
 30
0.0
 11
170.9296678521681
 21
122.7888431445339
 31
0.0
  0
LINE
  5
11E
330
70
100
AcDbEntity
  8
0
 62
    18
420
        0
370
    25
100
AcDbLine
 10
170.9296678521681
 20
122.7888431445339
 30
0.0
 11
170.9296678521681
 21
122.9888431445339
 31
0.0
  0
LINE
  5
11F
330
70
100
AcDbEntity
  8
0
 62
    18
420
        0
370
    25
100
AcDbLine
 10
170.9296678521681
 20
132.7888431445339
 30
0.0
 11
171.8259301279681
 21
132.7888431445339
 31
0.0
  0
LINE
  5
120
330
70
100
AcDbEntity
  8
0
 62
    18
420
        0
370
    25
100
AcDbLine
 10
171.825930127868
 20
132.5888431445339
 30
0.0
 11
171.8259301279681
 21
132.7888431445339
 31
0.0
  0
LINE
  5
121
330
70
100
AcDbEntity
  8
0
 62
    18
420
        0
370
    25
100
AcDbLine
 10
171.825930127868
 20
132.5888431445339
 30
0.0
 11
170.9296678521681
 21
132.5888431445339
 31
0.0
  0
LINE
  5
122
330
70
100
AcDbEntity
  8
0
 62
    18
420
        0
370
    25
100
AcDbLine
 10
170.9296678521681
 20
132.5888431445339
 30
0.0
 11
170.9296678521681
 21
132.7888431445339
 31
0.0
  0
LINE
  5
123
330
70
100
AcDbEntity
  8
0
 62
    18
420
        0
370
    25
100
AcDbLine
 10
170.9296678521681
 20
132.5888431445339
 30
0.0
 11
170.9296678521681
 21
122.9888431445339
 31
0.0
  0
SPLINE
  5
124
330
70
100
AcDbEntity
  8
0
 62
    18
420
        0
370
    25
100
AcDbSpline
210
0.0
220
0.0
230
1.0
 70
     8
 71
     3
 72
     8
 73
     4
 74
     0
 42
0.0000000001
 43
0.0000000001
 40
0.0
 40
0.0
 40
0.0
 40
0.0
 40
1.0
 40
1.0
 40
1.0
 40
1.0
 10
172.0257494997465
 20
132.5889192308564
 30
0.0
 10
172.0257573733071
 20
132.6992965999518
 30
0.0
 10
171.9363074860863
 20
132.7887932857413
 30
0.0
 10
171.8259301279707
 20
132.7888431445259
 30
0.0
  0
SPLINE
  5
125
330
70
100
AcDbEntity
  8
0
 62
    18
420
        0
370
    25
100
AcDbSpline
210
0.0
220
0.0
230
1.0
 70
     8
 71
     3
 72
     8
 73
     4
 74
     0
 42
0.0000000001
 43
0.0000000001
 40
0.0
 40
0.0
 40
0.0
 40
0.0
 40
1.0
 40
1.0
 40
1.0
 40
1.0
 10
171.8259301279059
 20
122.7888431445156
 30
0.0
 10
171.9330818957566
 20
122.788843148179
 30
0.0
 10
172.0211967272243
 20
122.873290331803
 30
0.0
 10
172.0257494999301
 20
122.9803453345547
 30
0.0
  0
LINE
  5
126
330
70
100
AcDbEntity
  8
0
 62
    18
420
        0
370
    25
100
AcDbLine
 10
172.026107092968
 20
132.588922618034
 30
0.0
 11
172.0257494996682
 21
132.5889192308339
 31
0.0
  0
SPLINE
  5
127
330
70
100
AcDbEntity
  8
0
 62
    18
420
        0
370
    25
100
AcDbSpline
210
0.0
220
0.0
230
1.0
 70
     8
 71
     3
 72
     8
 73
     4
 74
     0
 42
0.0000000001
 43
0.0000000001
 40
0.0
 40
0.0
 40
0.0
 40
0.0
 40
1.0
 40
1.0
 40
1.0
 40
1.0
 10
172.1284709398441
 20
128.9202110674746
 30
0.0
 10
172.1165632863915
 20
130.1436337903812
 30
0.0
 10
172.0824363762945
 20
131.3667393409597
 30
0.0
 10
172.0261070929936
 20
132.5889226181232
 30
0.0
  0
SPLINE
  5
128
330
70
100
AcDbEntity
  8
0
 62
    18
420
        0
370
    25
100
AcDbSpline
210
0.0
220
0.0
230
1.0
 70
     8
 71
     3
 72
     8
 73
     4
 74
     0
 42
0.0000000001
 43
0.0000000001
 40
0.0
 40
0.0
 40
0.0
 40
0.0
 40
1.0
 40
1.0
 40
1.0
 40
1.0
 10
172.0261070929532
 20
122.9887636709443
 30
0.0
 10
172.0824363888198
 20
124.2109469477131
 30
0.0
 10
172.1165633050482
 20
125.4340524983635
 30
0.0
 10
172.1284709581845
 20
126.6574752214578
 30
0.0
  0
LWPOLYLINE
  5
129
330
70
100
AcDbEntity
  8
0
 62
    18
420
        0
370
    25
100
AcDbPolyline
 90
        4
 70
     0
 43
0.0
 10
172.025747969868
 20
132.597339263234
 10
172.0258789087681
 20
132.5942635102339
 10
172.0260305689683
 20
132.5907109256339
 10
172.026107092968
 20
132.588922618034
  0
LWPOLYLINE
  5
12A
330
70
100
AcDbEntity
  8
0
 62
    18
420
        0
370
    25
100
AcDbPolyline
 90
        3
 70
     0
 43
0.0
 10
172.1238259002681
 20
126.191796888334
 10
172.0905890122685
 20
124.5449066509338
 10
172.026816700568
 20
122.9791386055339
  0
LINE
  5
12B
330
70
100
AcDbEntity
  8
0
 62
    18
420
        0
370
    25
100
AcDbLine
 10
172.0268167005616
 20
122.9791386056026
 30
0.0
 11
172.0261100680246
 21
122.9799473931609
 31
0.0
  0
SPLINE
  5
12C
330
70
100
AcDbEntity
  8
0
 62
    18
420
        0
370
    25
100
AcDbSpline
210
0.0
220
0.0
230
1.0
 70
     8
 71
     3
 72
     8
 73
     4
 74
     0
 42
0.0000000001
 43
0.0000000001
 40
0.0
 40
0.0
 40
0.0
 40
0.0
 40
1.0
 40
1.0
 40
1.0
 40
1.0
 10
172.0257479698641
 20
132.5973392632684
 30
0.0
 10
172.0211966429634
 20
132.7043945842967
 30
0.0
 10
171.933082152374
 20
132.7888428336619
 30
0.0
 10
171.8259301279559
 20
132.788843144505
 30
0.0
  0
SPLINE
  5
12D
330
70
100
AcDbEntity
  8
0
 62
    18
420
        0
370
    25
100
AcDbSpline
210
0.0
220
0.0
230
1.0
 70
     8
 71
     3
 72
     8
 73
     4
 74
     0
 42
0.0000000001
 43
0.0000000001
 40
0.0
 40
0.0
 40
0.0
 40
0.0
 40
1.0
 40
1.0
 40
1.0
 40
1.0
 10
171.8270522844684
 20
122.7888431445339
 30
0.0
 10
171.9337366657242
 20
122.7888431445339
 30
0.0
 10
172.0216400868676
 20
122.8725798899724
 30
0.0
 10
172.0268167005289
 20
122.9791386055943
 30
0.0
  0
LINE
  5
12E
330
70
100
AcDbEntity
  8
0
 62
    18
420
        0
370
    25
100
AcDbLine
 10
191.5296678521682
 20
127.388843144534
 30
0.0
 11
191.5296678521682
 21
128.3888431445341
 31
0.0
  0
LINE
  5
12F
330
70
100
AcDbEntity
  8
0
 62
    18
420
        0
370
    25
100
AcDbLine
 10
173.9296678521682
 20
127.388843144534
 30
0.0
 11
191.5296678521682
 21
127.388843144534
 31
0.0
  0
LINE
  5
130
330
70
100
AcDbEntity
  8
0
 62
    18
420
        0
370
    25
100
AcDbLine
 10
173.9296678521682
 20
128.3888431445341
 30
0.0
 11
173.9296678521682
 21
127.388843144534
 31
0.0
  0
LINE
  5
131
330
70
100
AcDbEntity
  8
0
 62
    18
420
        0
370
    25
100
AcDbLine
 10
191.5296678521682
 20
128.3888431445341
 30
0.0
 11
173.9296678521682
 21
128.3888431445341
 31
0.0
  0
LINE
  5
132
330
70
100
AcDbEntity
  8
0
 62
    18
420
        0
370
    25
100
AcDbLine
 10
173.8296678521685
 20
128.4888431445341
 30
0.0
 11
191.6296678521685
 21
128.4888431445341
 31
0.0
  0
LINE
  5
133
330
70
100
AcDbEntity
  8
0
 62
    18
420
        0
370
    25
100
AcDbLine
 10
191.6710892083681
 20
128.4474217882341
 30
0.0
 11
191.6296678521685
 21
128.4888431445341
 31
0.0
  0
SPLINE
  5
134
330
70
100
AcDbEntity
  8
0
 62
    18
420
        0
370
    25
100
AcDbSpline
210
0.0
220
0.0
230
1.0
 70
     8
 71
     3
 72
     8
 73
     4
 74
     0
 42
0.0000000001
 43
0.0000000001
 40
0.0
 40
0.0
 40
0.0
 40
0.0
 40
1.0
 40
1.0
 40
1.0
 40
1.0
 10
191.5296678521682
 20
128.3888431445338
 30
0.0
 10
191.5827111501365
 20
128.3888431445338
 30
0.0
 10
191.6335819327159
 20
128.4099145126069
 30
0.0
 10
191.6710892084059
 20
128.4474217882964
 30
0.0
  0
SPLINE
  5
135
330
70
100
AcDbEntity
  8
0
 62
    18
420
        0
370
    25
100
AcDbSpline
210
0.0
220
0.0
230
1.0
 70
     8
 71
     3
 72
     8
 73
     4
 74
     0
 42
0.0000000001
 43
0.0000000001
 40
0.0
 40
0.0
 40
0.0
 40
0.0
 40
1.0
 40
1.0
 40
1.0
 40
1.0
 10
173.7882464959311
 20
128.4474217882967
 30
0.0
 10
173.8257537716205
 20
128.4099145126069
 30
0.0
 10
173.8766245542005
 20
128.3888431445341
 30
0.0
 10
173.9296678521682
 20
128.3888431445341
 30
0.0
  0
LINE
  5
136
330
70
100
AcDbEntity
  8
0
 62
    18
420
        0
370
    25
100
AcDbLine
 10
173.7882464959684
 20
128.4474217882341
 30
0.0
 11
173.8296678521685
 21
128.4888431445341
 31
0.0
  0
SPLINE
  5
137
330
70
100
AcDbEntity
  8
0
 62
    18
420
        0
370
    25
100
AcDbSpline
210
0.0
220
0.0
230
1.0
 70
     8
 71
     3
 72
     8
 73
     4
 74
     0
 42
0.0000000001
 43
0.0000000001
 40
0.0
 40
0.0
 40
0.0
 40
0.0
 40
1.0
 40
1.0
 40
1.0
 40
1.0
 10
173.9296678521682
 20
127.3888431445337
 30
0.0
 10
173.8766245542005
 20
127.3888431445337
 30
0.0
 10
173.8257537716205
 20
127.3677717764608
 30
0.0
 10
173.7882464959311
 20
127.3302645007711
 30
0.0
  0
LINE
  5
138
330
70
100
AcDbEntity
  8
0
 62
    18
420
        0
370
    25
100
AcDbLine
 10
173.7882464959684
 20
127.3302645007339
 30
0.0
 11
173.7296678521682
 21
127.388843144534
 31
0.0
  0
LINE
  5
139
330
70
100
AcDbEntity
  8
0
 62
    18
420
        0
370
    25
100
AcDbLine
 10
173.7296678521682
 20
127.388843144534
 30
0.0
 11
173.7296678521682
 21
128.3888431445341
 31
0.0
  0
LINE
  5
13A
330
70
100
AcDbEntity
  8
0
 62
    18
420
        0
370
    25
100
AcDbLine
 10
173.7296678521682
 20
128.3888431445341
 30
0.0
 11
173.7882464959684
 21
128.4474217882341
 31
0.0
  0
SPLINE
  5
13B
330
70
100
AcDbEntity
  8
0
 62
    18
420
        0
370
    25
100
AcDbSpline
210
0.0
220
0.0
230
1.0
 70
     8
 71
     3
 72
     8
 73
     4
 74
     0
 42
0.0000000001
 43
0.0000000001
 40
0.0
 40
0.0
 40
0.0
 40
0.0
 40
1.0
 40
1.0
 40
1.0
 40
1.0
 10
191.6710892084052
 20
127.3302645007714
 30
0.0
 10
191.6335819327159
 20
127.3677717764608
 30
0.0
 10
191.5827111501358
 20
127.388843144534
 30
0.0
 10
191.5296678521682
 20
127.388843144534
 30
0.0
  0
LINE
  5
13C
330
70
100
AcDbEntity
  8
0
 62
    18
420
        0
370
    25
100
AcDbLine
 10
191.6710892083681
 20
127.3302645007339
 30
0.0
 11
191.6296678521685
 21
127.288843144534
 31
0.0
  0
LINE
  5
13D
330
70
100
AcDbEntity
  8
0
 62
    18
420
        0
370
    25
100
AcDbLine
 10
191.6296678521685
 20
127.288843144534
 30
0.0
 11
173.8296678521685
 21
127.288843144534
 31
0.0
  0
LINE
  5
13E
330
70
100
AcDbEntity
  8
0
 62
    18
420
        0
370
    25
100
AcDbLine
 10
173.7882464959684
 20
127.3302645007339
 30
0.0
 11
173.8296678521685
 21
127.288843144534
 31
0.0
  0
LINE
  5
13F
330
70
100
AcDbEntity
  8
0
 62
    18
420
        0
370
    25
100
AcDbLine
 10
191.6710892083681
 20
128.4474217882341
 30
0.0
 11
191.7296678521682
 21
128.3888431445341
 31
0.0
  0
LINE
  5
140
330
70
100
AcDbEntity
  8
0
 62
    18
420
        0
370
    25
100
AcDbLine
 10
191.7296678521682
 20
128.3888431445341
 30
0.0
 11
191.7296678521682
 21
127.388843144534
 31
0.0
  0
LINE
  5
141
330
70
100
AcDbEntity
  8
0
 62
    18
420
        0
370
    25
100
AcDbLine
 10
191.7296678521682
 20
127.388843144534
 30
0.0
 11
191.6710892083681
 21
127.3302645007339
 31
0.0
  0
LINE
  5
142
330
70
100
AcDbEntity
  8
0
 62
    18
420
        0
370
    25
100
AcDbLine
 10
177.0670586279685
 20
128.6888431445341
 30
0.0
 11
177.080249221368
 21
128.6888431445341
 31
0.0
  0
LINE
  5
143
330
70
100
AcDbEntity
  8
0
 62
    18
420
        0
370
    25
100
AcDbLine
 10
173.7296678521682
 20
127.288843144534
 30
0.0
 11
173.7296678521682
 21
127.388843144534
 31
0.0
  0
LINE
  5
144
330
70
100
AcDbEntity
  8
0
 62
    18
420
        0
370
    25
100
AcDbLine
 10
173.8296678521685
 20
127.288843144534
 30
0.0
 11
173.7296678521682
 21
127.288843144534
 31
0.0
  0
LINE
  5
145
330
70
100
AcDbEntity
  8
0
 62
    18
420
        0
370
    25
100
AcDbLine
 10
172.1296678521681
 20
127.788843144534
 30
0.0
 11
172.1296678521681
 21
126.8710596021339
 31
0.0
  0
LINE
  5
146
330
70
100
AcDbEntity
  8
0
 62
    18
420
        0
370
    25
100
AcDbLine
 10
172.1296678521681
 20
127.788843144534
 30
0.0
 11
173.7296678521682
 21
127.788843144534
 31
0.0
  0
SPLINE
  5
147
330
70
100
AcDbEntity
  8
0
 62
    18
420
        0
370
    25
100
AcDbSpline
210
0.0
220
0.0
230
1.0
 70
     8
 71
     3
 72
     8
 73
     4
 74
     0
 42
0.0000000001
 43
0.0000000001
 40
0.0
 40
0.0
 40
0.0
 40
0.0
 40
1.0
 40
1.0
 40
1.0
 40
1.0
 10
176.3081841913845
 20
126.1912504990067
 30
0.0
 10
176.1801390178939
 20
126.2342594957563
 30
0.0
 10
176.0493245964192
 20
126.2685356782605
 30
0.0
 10
175.9166412425051
 20
126.2938431445481
 30
0.0
  0
SPLINE
  5
148
330
70
100
AcDbEntity
  8
0
 62
    18
420
        0
370
    25
100
AcDbSpline
210
0.0
220
0.0
230
1.0
 70
     8
 71
     3
 72
     8
 73
     4
 74
     0
 42
0.0000000001
 43
0.0000000001
 40
0.0
 40
0.0
 40
0.0
 40
0.0
 40
1.0
 40
1.0
 40
1.0
 40
1.0
 10
175.9166412425077
 20
126.2938431445452
 30
0.0
 10
175.6509357699108
 20
126.3682907506539
 30
0.0
 10
175.3698813312258
 20
126.3682907506539
 30
0.0
 10
175.1041758586289
 20
126.2938431445452
 30
0.0
  0
SPLINE
  5
149
330
70
100
AcDbEntity
  8
0
 62
    18
420
        0
370
    25
100
AcDbSpline
210
0.0
220
0.0
230
1.0
 70
     8
 71
     3
 72
     8
 73
     4
 74
     0
 42
0.0000000001
 43
0.0000000001
 40
0.0
 40
0.0
 40
0.0
 40
0.0
 40
1.0
 40
1.0
 40
1.0
 40
1.0
 10
175.1041758586912
 20
126.2938431445241
 30
0.0
 10
174.9705142983892
 20
126.2683266723549
 30
0.0
 10
174.8387472755349
 20
126.233729878829
 30
0.0
 10
174.7097908297727
 20
126.1902932796221
 30
0.0
  0
LINE
  5
14A
330
70
100
AcDbEntity
  8
0
 62
    18
420
        0
370
    25
100
AcDbLine
 10
173.7296678521682
 20
128.5888431445341
 30
0.0
 11
176.8514039442683
 21
128.5888431445341
 31
0.0
  0
LINE
  5
14B
330
70
100
AcDbEntity
  8
0
 62
    18
420
        0
370
    25
100
AcDbLine
 10
172.1296678521681
 20
128.7088431445341
 30
0.0
 11
172.1296678521681
 21
127.788843144534
 31
0.0
  0
LINE
  5
14C
330
70
100
AcDbEntity
  8
0
 62
    18
420
        0
370
    25
100
AcDbLine
 10
173.7296678521682
 20
128.3888431445341
 30
0.0
 11
173.7296678521682
 21
128.5888431445341
 31
0.0
  0
LINE
  5
14D
330
70
100
AcDbEntity
  8
0
 62
    18
420
        0
370
    25
100
AcDbLine
 10
176.9486185707681
 20
128.5888431445341
 30
0.0
 11
176.8514039442683
 21
128.5888431445341
 31
0.0
  0
LINE
  5
14E
330
70
100
AcDbEntity
  8
0
 62
    18
420
        0
370
    25
100
AcDbLine
 10
176.9486185707681
 20
128.5888431445341
 30
0.0
 11
177.080249221368
 21
128.5888431445341
 31
0.0
  0
LINE
  5
14F
330
70
100
AcDbEntity
  8
0
 62
     8
420
  8421504
370
    25
100
AcDbLine
 10
172.0129486803685
 20
132.6889192308339
 30
0.0
 11
172.0002171462682
 21
132.6889143830338
 31
0.0
  0
LINE
  5
150
330
70
100
AcDbEntity
  8
0
 62
     8
420
  8421504
370
    25
100
AcDbLine
 10
170.9296678521681
 20
132.6888431445339
 30
0.0
 11
170.9168670328683
 21
132.6888431445339
 31
0.0
  0
LINE
  5
151
330
70
100
AcDbEntity
  8
0
 62
     8
420
  8421504
370
    25
100
AcDbLine
 10
170.9168670328683
 20
123.0888431445339
 30
0.0
 11
170.9296678521681
 21
123.0888431445339
 31
0.0
  0
LINE
  5
152
330
70
100
AcDbEntity
  8
0
 62
     8
420
  8421504
370
    25
100
AcDbLine
 10
171.8131293085683
 20
132.7888431445339
 30
0.0
 11
171.8131293085683
 21
132.8888431445339
 31
0.0
  0
LWPOLYLINE
  5
153
330
70
100
AcDbEntity
  8
0
 62
     8
420
  8421504
370
    25
100
AcDbPolyline
 90
        5
 70
     0
 43
0.0
 10
172.026758078468
 20
132.5984802459341
 10
172.0268083168683
 20
132.5985378437339
 10
172.0266693601684
 20
132.5983772698339
 10
172.0257494999679
 20
132.597340953734
 10
172.025747969868
 20
132.597339263234
  0
LINE
  5
154
330
70
100
AcDbEntity
  8
0
 62
     8
420
  8421504
370
    25
100
AcDbLine
 10
176.8514039442683
 20
129.3888431445341
 30
0.0
 11
176.8514039442683
 21
129.4888431445341
 31
0.0
  0
LINE
  5
155
330
70
100
AcDbEntity
  8
0
 62
     8
420
  8421504
370
    25
100
AcDbLine
 10
176.9486185707681
 20
129.412280644534
 30
0.0
 11
176.9486185707681
 21
129.312280644534
 31
0.0
  0
LINE
  5
156
330
70
100
AcDbEntity
  8
0
 62
     8
420
  8421504
370
    25
100
AcDbLine
 10
176.8514039442683
 20
126.188843144534
 30
0.0
 11
176.8514039442683
 21
127.288843144534
 31
0.0
  0
LINE
  5
157
330
70
100
AcDbEntity
  8
0
 62
     8
420
  8421504
370
    25
100
AcDbLine
 10
176.8514039442683
 20
128.5888431445341
 30
0.0
 11
176.8514039442683
 21
129.3888431445341
 31
0.0
  0
LINE
  5
158
330
70
100
AcDbEntity
  8
0
 62
     8
420
  8421504
370
    25
100
AcDbLine
 10
176.9486185707681
 20
127.288843144534
 30
0.0
 11
176.9486185707681
 21
126.2654056445341
 31
0.0
  0
LINE
  5
159
330
70
100
AcDbEntity
  8
0
 62
     8
420
  8421504
370
    25
100
AcDbLine
 10
176.9486185707681
 20
129.312280644534
 30
0.0
 11
176.9486185707681
 21
128.5888431445341
 31
0.0
  0
LWPOLYLINE
  5
15A
330
70
100
AcDbEntity
  8
0
 62
    18
420
        0
370
    25
100
AcDbPolyline
 90
        3
 70
     0
 43
0.0
 10
129.504033197868
 20
76.84028336423423
 10
129.5486674253684
 20
76.84027853113419
 10
129.5586855700685
 20
76.84028273893382
  0
LWPOLYLINE
  5
15B
330
70
100
AcDbEntity
  8
0
 62
    18
420
        0
370
    25
100
AcDbPolyline
 90
        3
 70
     0
 43
0.0
 10
129.5621026300685
 20
76.84028353993401
 10
131.1354898715681
 20
76.86569804473364
 10
133.1849503334679
 20
76.9447046837338
  0
LWPOLYLINE
  5
15C
330
70
100
AcDbEntity
  8
0
 62
    18
420
        0
370
    25
100
AcDbPolyline
 90
        3
 70
     0
 43
0.0
 10
123.5657083610679
 20
76.944704679634
 10
125.6151573652684
 20
76.86569836693394
 10
127.1885358305685
 20
76.84028351883366
  0
LWPOLYLINE
  5
15D
330
70
100
AcDbEntity
  8
0
 62
    18
420
        0
370
    25
100
AcDbPolyline
 90
        3
 70
     0
 43
0.0
 10
127.1910414983679
 20
76.84028198863427
 10
127.2018654678684
 20
76.84027799783416
 10
127.2488647515682
 20
76.84028326263403
  0
SPLINE
  5
15E
330
70
100
AcDbEntity
  8
0
 62
    18
420
        0
370
    25
100
AcDbSpline
210
0.0
220
0.0
230
1.0
 70
     8
 71
     3
 72
     8
 73
     4
 74
     0
 42
0.0000000001
 43
0.0000000001
 40
0.0
 40
0.0
 40
0.0
 40
0.0
 40
1.0
 40
1.0
 40
1.0
 40
1.0
 10
133.1848735590792
 20
76.94421939497735
 30
0.0
 10
133.2915007358162
 20
76.94931356049778
 30
0.0
 10
133.375332578491
 20
77.03724879364641
 30
0.0
 10
133.3753293472764
 20
77.14399758909973
 30
0.0
  0
LINE
  5
15F
330
70
100
AcDbEntity
  8
0
 62
    18
420
        0
370
    25
100
AcDbLine
 10
129.247585149068
 20
76.84031270683402
 30
0.0
 11
129.3078397225681
 21
76.84031270683402
 31
0.0
  0
LINE
  5
160
330
70
100
AcDbEntity
  8
0
 62
    18
420
        0
370
    25
100
AcDbLine
 10
127.4427059405681
 20
76.84031270683402
 30
0.0
 11
127.503073545668
 21
76.84031270683402
 31
0.0
  0
SPLINE
  5
161
330
70
100
AcDbEntity
  8
0
 62
    18
420
        0
370
    25
100
AcDbSpline
210
0.0
220
0.0
230
1.0
 70
     8
 71
     3
 72
     8
 73
     4
 74
     0
 42
0.0000000001
 43
0.0000000001
 40
0.0
 40
0.0
 40
0.0
 40
0.0
 40
1.0
 40
1.0
 40
1.0
 40
1.0
 10
123.3753293474596
 20
77.14399758909973
 30
0.0
 10
123.3753261170485
 20
77.03727533522862
 30
0.0
 10
123.4591176731178
 20
76.94935216036407
 30
0.0
 10
123.5657165846118
 20
76.94422268182528
 30
0.0
  0
LWPOLYLINE
  5
162
330
70
100
AcDbEntity
  8
0
 62
    18
420
        0
370
    25
100
AcDbPolyline
 90
        3
 70
     0
 43
0.0
 10
127.6486719226683
 20
76.8403366115337
 10
127.8420455785682
 20
76.84027850103401
 10
128.085028895468
 20
76.84024882163399
  0
LWPOLYLINE
  5
163
330
70
100
AcDbEntity
  8
0
 62
    18
420
        0
370
    25
100
AcDbPolyline
 90
        3
 70
     0
 43
0.0
 10
128.6653293473684
 20
76.84024898403389
 10
128.9053142565681
 20
76.84027820073362
 10
129.1012526806681
 20
76.84033678103401
  0
LWPOLYLINE
  5
164
330
70
100
AcDbEntity
  8
0
 62
    18
420
        0
370
    25
100
AcDbPolyline
 90
        3
 70
     0
 43
0.0
 10
14.06570836126817
 20
76.93190386443408
 10
16.11516882316831
 20
76.85289722533444
 10
17.62086735186819
 20
76.82857607833426
  0
LWPOLYLINE
  5
165
330
70
100
AcDbEntity
  8
0
 62
    18
420
        0
370
    25
100
AcDbPolyline
 90
        3
 70
     0
 43
0.0
 10
20.12981158936812
 20
76.82857607833426
 10
21.63550132946832
 20
76.8528975476342
 10
23.68495033356838
 20
76.93190386033426
  0
SPLINE
  5
166
330
70
100
AcDbEntity
  8
0
 62
    18
420
        0
370
    25
100
AcDbSpline
210
0.0
220
0.0
230
1.0
 70
     8
 71
     3
 72
     8
 73
     4
 74
     0
 42
0.0000000001
 43
0.0000000001
 40
0.0
 40
0.0
 40
0.0
 40
0.0
 40
1.0
 40
1.0
 40
1.0
 40
1.0
 10
23.6848735590795
 20
76.93141857567697
 30
0.0
 10
23.7915007358165
 20
76.93651274119805
 30
0.0
 10
23.87533257849135
 20
77.02444797434603
 30
0.0
 10
23.87532934727679
 20
77.13119676979999
 30
0.0
  0
SPLINE
  5
167
330
70
100
AcDbEntity
  8
0
 62
    18
420
        0
370
    25
100
AcDbSpline
210
0.0
220
0.0
230
1.0
 70
     8
 71
     3
 72
     8
 73
     4
 74
     0
 42
0.0000000001
 43
0.0000000001
 40
0.0
 40
0.0
 40
0.0
 40
0.0
 40
1.0
 40
1.0
 40
1.0
 40
1.0
 10
13.87532934745964
 20
77.13119676979999
 30
0.0
 10
13.8753261170485
 20
77.02447451592887
 30
0.0
 10
13.95911767311777
 20
76.93655134106433
 30
0.0
 10
14.06571658461184
 20
76.9314218625249
 30
0.0
  0
LINE
  5
168
330
70
100
AcDbEntity
  8
0
 62
    18
420
        0
370
    25
100
AcDbLine
 10
128.6653293473684
 20
76.82857607833426
 30
0.0
 11
128.6653293473684
 21
76.84057736973386
 31
0.0
  0
LINE
  5
169
330
70
100
AcDbEntity
  8
0
 62
    18
420
        0
370
    25
100
AcDbLine
 10
128.0853293473684
 20
76.8404405861343
 30
0.0
 11
128.0853293473684
 21
76.82857607833426
 31
0.0
  0
LWPOLYLINE
  5
16A
330
70
100
AcDbEntity
  8
0
 62
    18
420
        0
370
    25
100
AcDbPolyline
 90
        6
 70
     0
 43
0.0
 10
128.3753293473681
 20
76.94422804923411
 10
127.975329347368
 20
76.94423757253362
 10
126.3753293666683
 20
76.94445047243393
 10
124.9752912872681
 20
76.94481960563402
 10
123.5752532572684
 20
76.9452952499337
 10
123.5710467936682
 20
76.94529678003426
  0
LWPOLYLINE
  5
16B
330
70
100
AcDbEntity
  8
0
 62
    18
420
        0
370
    25
100
AcDbPolyline
 90
        7
 70
     0
 43
0.0
 10
123.5710467936682
 20
76.94529678003426
 10
123.5713482316681
 20
76.95936895043423
 10
123.5720981627682
 20
76.99437339933442
 10
123.5732123607681
 20
77.04636769703405
 10
123.5745657098683
 20
77.10950113453384
 10
123.575197193668
 20
77.13895187033401
 10
123.5753293491685
 20
77.14511462193414
  0
LWPOLYLINE
  5
16C
330
70
100
AcDbEntity
  8
0
 62
    18
420
        0
370
    25
100
AcDbPolyline
 90
        4
 70
     0
 43
0.0
 10
123.5753293473685
 20
77.14511462193414
 10
125.8531527906685
 20
77.14435498983394
 10
127.1142410561679
 20
77.14408920943384
 10
128.3753293473681
 20
77.14399246533439
  0
LINE
  5
16D
330
70
100
AcDbEntity
  8
0
 62
    18
420
        0
370
    25
100
AcDbLine
 10
128.3753293473681
 20
76.94422804923411
 30
0.0
 11
128.3753293473681
 21
77.14399246533439
 31
0.0
  0
LWPOLYLINE
  5
16E
330
70
100
AcDbEntity
  8
0
 62
    18
420
        0
370
    25
100
AcDbPolyline
 90
        5
 70
     0
 43
0.0
 10
123.5752498738685
 20
76.94493765683351
 10
123.5752378845683
 20
76.94493816553401
 10
123.571034704768
 20
76.94511660423358
 10
123.5689331181681
 20
76.94520590133419
 10
123.566831533768
 20
76.94529525013392
  0
LINE
  5
16F
330
70
100
AcDbEntity
  8
0
 62
    18
420
        0
370
    25
100
AcDbLine
 10
123.566831533768
 20
76.94529525013392
 30
0.0
 11
123.5753293473685
 21
77.14511462193414
 31
0.0
  0
SPLINE
  5
170
330
70
100
AcDbEntity
  8
0
 62
    18
420
        0
370
    25
100
AcDbSpline
210
0.0
220
0.0
230
1.0
 70
     8
 71
     3
 72
     8
 73
     4
 74
     0
 42
0.0000000001
 43
0.0000000001
 40
0.0
 40
0.0
 40
0.0
 40
0.0
 40
1.0
 40
1.0
 40
1.0
 40
1.0
 10
123.571046793631
 20
76.94529678001886
 30
0.0
 10
123.572434336188
 20
76.94505219054561
 30
0.0
 10
123.5738409499206
 20
76.94493200545938
 30
0.0
 10
123.5752498737715
 20
76.94493765687203
 30
0.0
  0
LINE
  5
171
330
70
100
AcDbEntity
  8
0
 62
    18
420
        0
370
    25
100
AcDbLine
 10
133.1753293473682
 20
78.04137689763405
 30
0.0
 11
123.5753293473685
 21
78.04137689763405
 31
0.0
  0
LINE
  5
172
330
70
100
AcDbEntity
  8
0
 62
    18
420
        0
370
    25
100
AcDbLine
 10
133.1753293473682
 20
77.14511462193414
 30
0.0
 11
133.1753293473682
 21
78.04137689763405
 31
0.0
  0
LWPOLYLINE
  5
173
330
70
100
AcDbEntity
  8
0
 62
    18
420
        0
370
    25
100
AcDbPolyline
 90
        4
 70
     0
 43
0.0
 10
128.3753293473681
 20
77.14399246533439
 10
130.6531605668681
 20
77.14429233923397
 10
131.9142449711682
 20
77.14466135363441
 10
133.1753293473682
 20
77.14511462193414
  0
LINE
  5
174
330
70
100
AcDbEntity
  8
0
 62
    18
420
        0
370
    25
100
AcDbLine
 10
123.5753293473685
 20
78.04137689763405
 30
0.0
 11
123.5753293473685
 21
77.14511462193414
 31
0.0
  0
LINE
  5
175
330
70
100
AcDbEntity
  8
0
 62
    18
420
        0
370
    25
100
AcDbLine
 10
133.3753293473682
 20
78.04137689763405
 30
0.0
 11
133.3753293473682
 21
77.14511462193414
 31
0.0
  0
LINE
  5
176
330
70
100
AcDbEntity
  8
0
 62
    18
420
        0
370
    25
100
AcDbLine
 10
133.1753293473682
 20
77.14511462193414
 30
0.0
 11
133.3753293473682
 21
77.14511462193414
 31
0.0
  0
LINE
  5
177
330
70
100
AcDbEntity
  8
0
 62
    18
420
        0
370
    25
100
AcDbLine
 10
133.1753293473682
 20
78.04137689763405
 30
0.0
 11
133.3753293473682
 21
78.04137689763405
 31
0.0
  0
LINE
  5
178
330
70
100
AcDbEntity
  8
0
 62
    18
420
        0
370
    25
100
AcDbLine
 10
123.3753293473685
 20
77.1451146220336
 30
0.0
 11
123.5753293473685
 21
77.14511462193414
 31
0.0
  0
LINE
  5
179
330
70
100
AcDbEntity
  8
0
 62
    18
420
        0
370
    25
100
AcDbLine
 10
123.3753293473685
 20
77.1451146220336
 30
0.0
 11
123.3753293473685
 21
78.04137689763405
 31
0.0
  0
LINE
  5
17A
330
70
100
AcDbEntity
  8
0
 62
    18
420
        0
370
    25
100
AcDbLine
 10
123.3753293473685
 20
78.04137689763405
 30
0.0
 11
123.5753293473685
 21
78.04137689763405
 31
0.0
  0
SPLINE
  5
17B
330
70
100
AcDbEntity
  8
0
 62
    18
420
        0
370
    25
100
AcDbSpline
210
0.0
220
0.0
230
1.0
 70
     8
 71
     3
 72
     8
 73
     4
 74
     0
 42
0.0000000001
 43
0.0000000001
 40
0.0
 40
0.0
 40
0.0
 40
0.0
 40
1.0
 40
1.0
 40
1.0
 40
1.0
 10
133.1754054374023
 20
76.94529524988173
 30
0.0
 10
133.285782805112
 20
76.94528737842592
 30
0.0
 10
133.3752794886375
 20
77.03473726516027
 30
0.0
 10
133.3753293473336
 20
77.14511462188986
 30
0.0
  0
LINE
  5
17C
330
70
100
AcDbEntity
  8
0
 62
    18
420
        0
370
    25
100
AcDbLine
 10
133.1754054373683
 20
76.9452952499337
 30
0.0
 11
133.1753293473682
 21
77.14511462193414
 31
0.0
  0
LWPOLYLINE
  5
17D
330
70
100
AcDbEntity
  8
0
 62
    18
420
        0
370
    25
100
AcDbPolyline
 90
        5
 70
     0
 43
0.0
 10
133.1754054373683
 20
76.9452952499337
 10
132.775405494568
 20
76.94515197483351
 10
131.1754056743682
 20
76.94464477343387
 10
129.7753675708683
 20
76.94434027663429
 10
128.3753293473681
 20
76.94422804923411
  0
SPLINE
  5
17E
330
70
100
AcDbEntity
  8
0
 62
    18
420
        0
370
    25
100
AcDbSpline
210
0.0
220
0.0
230
1.0
 70
     8
 71
     3
 72
     8
 73
     4
 74
     0
 42
0.0000000001
 43
0.0000000001
 40
0.0
 40
0.0
 40
0.0
 40
0.0
 40
1.0
 40
1.0
 40
1.0
 40
1.0
 10
123.3753293473493
 20
77.14511462199702
 30
0.0
 10
123.3753293510121
 20
77.03796285556376
 30
0.0
 10
123.459776532478
 20
76.9498480247333
 30
0.0
 10
123.5668315337301
 20
76.94529525012686
 30
0.0
  0
SPLINE
  5
17F
330
70
100
AcDbEntity
  8
0
 62
    18
420
        0
370
    25
100
AcDbSpline
210
0.0
220
0.0
230
1.0
 70
     8
 71
     3
 72
     8
 73
     4
 74
     0
 42
0.0000000001
 43
0.0000000001
 40
0.0
 40
0.0
 40
0.0
 40
0.0
 40
1.0
 40
1.0
 40
1.0
 40
1.0
 10
129.2847672295883
 20
76.84031342656111
 30
0.0
 10
130.582197427483
 20
76.85030839223069
 30
0.0
 10
131.879316547228
 20
76.88518955162535
 30
0.0
 10
133.1754088208221
 20
76.94493765684764
 30
0.0
  0
LWPOLYLINE
  5
180
330
70
100
AcDbEntity
  8
0
 62
    18
420
        0
370
    25
100
AcDbPolyline
 90
        7
 70
     0
 43
0.0
 10
133.1838254660684
 20
76.94529678003426
 10
133.1822877158681
 20
76.94523135683434
 10
133.180749713468
 20
76.94516584113415
 10
133.1789170314685
 20
76.94508766203409
 10
133.1771971290679
 20
76.94501418083389
 10
133.1762810162679
 20
76.94497499483393
 10
133.1754088208683
 20
76.94493765683415
  0
SPLINE
  5
181
330
70
100
AcDbEntity
  8
0
 62
    18
420
        0
370
    25
100
AcDbSpline
210
0.0
220
0.0
230
1.0
 70
     8
 71
     3
 72
     8
 73
     4
 74
     0
 42
0.0000000001
 43
0.0000000001
 40
0.0
 40
0.0
 40
0.0
 40
0.0
 40
1.0
 40
1.0
 40
1.0
 40
1.0
 10
129.3617689500647
 20
76.8403085677302
 30
0.0
 10
129.4522510344864
 20
76.84023421551531
 30
0.0
 10
129.5427331789692
 20
76.84028924566968
 30
0.0
 10
129.6332151060135
 20
76.84047365802453
 30
0.0
  0
SPLINE
  5
182
330
70
100
AcDbEntity
  8
0
 62
    18
420
        0
370
    25
100
AcDbSpline
210
0.0
220
0.0
230
1.0
 70
     8
 71
     3
 72
     8
 73
     4
 74
     0
 42
0.0000000001
 43
0.0000000001
 40
0.0
 40
0.0
 40
0.0
 40
0.0
 40
1.0
 40
1.0
 40
1.0
 40
1.0
 10
129.2847672295325
 20
76.84031342653288
 30
0.0
 10
129.4009165418894
 20
76.8403045361007
 30
0.0
 10
129.5170658507286
 20
76.84035794659962
 30
0.0
 10
129.6332151057889
 20
76.84047365800528
 30
0.0
  0
LWPOLYLINE
  5
183
330
70
100
AcDbEntity
  8
0
 62
    18
420
        0
370
    25
100
AcDbPolyline
 90
        3
 70
     0
 43
0.0
 10
127.1163230379683
 20
76.84047365803415
 10
127.2532721629685
 20
76.84027693143367
 10
127.3880510132683
 20
76.84030842663407
  0
SPLINE
  5
184
330
70
100
AcDbEntity
  8
0
 62
    18
420
        0
370
    25
100
AcDbSpline
210
0.0
220
0.0
230
1.0
 70
     8
 71
     3
 72
     8
 73
     4
 74
     0
 42
0.0000000001
 43
0.0000000001
 40
0.0
 40
0.0
 40
0.0
 40
0.0
 40
1.0
 40
1.0
 40
1.0
 40
1.0
 10
123.5752498737459
 20
76.94493765691565
 30
0.0
 10
124.8713719439034
 20
76.88600964163604
 30
0.0
 10
126.1684755882566
 20
76.85112889839219
 30
0.0
 10
127.4658914650304
 20
76.84031342662399
 30
0.0
  0
SPLINE
  5
185
330
70
100
AcDbEntity
  8
0
 62
    18
420
        0
370
    25
100
AcDbSpline
210
0.0
220
0.0
230
1.0
 70
     8
 71
     3
 72
     8
 73
     4
 74
     0
 42
0.0000000001
 43
0.0000000001
 40
0.0
 40
0.0
 40
0.0
 40
0.0
 40
1.0
 40
1.0
 40
1.0
 40
1.0
 10
127.116323038096
 20
76.8404736580566
 30
0.0
 10
127.2328458099167
 20
76.84035757618527
 30
0.0
 10
127.3493686357904
 20
76.84030416568635
 30
0.0
 10
127.465891465065
 20
76.8403134265842
 30
0.0
  0
LINE
  5
186
330
70
100
AcDbEntity
  8
0
 62
    18
420
        0
370
    25
100
AcDbLine
 10
128.3753293473681
 20
76.94376092923431
 30
0.0
 11
128.3753293473681
 21
76.94422804923411
 31
0.0
  0
LWPOLYLINE
  5
187
330
70
100
AcDbEntity
  8
0
 62
    18
420
        0
370
    25
100
AcDbPolyline
 90
        5
 70
     0
 43
0.0
 10
128.3753293473681
 20
76.94376092923431
 10
127.1253293473685
 20
76.94386103163425
 10
125.8753293749684
 20
76.94413595623412
 10
124.7252896158684
 20
76.94450248923441
 10
123.5752498738685
 20
76.94493765683351
  0
LINE
  5
188
330
70
100
AcDbEntity
  8
0
 62
    18
420
        0
370
    25
100
AcDbLine
 10
133.1754088208683
 20
76.94493765683351
 30
0.0
 11
133.1754054373683
 21
76.9452952499337
 31
0.0
  0
LWPOLYLINE
  5
189
330
70
100
AcDbEntity
  8
0
 62
    18
420
        0
370
    25
100
AcDbPolyline
 90
        5
 70
     0
 43
0.0
 10
133.1754088208683
 20
76.94493765683351
 10
131.9254089070682
 20
76.94446736333358
 10
130.6754089654683
 20
76.94408211243369
 10
129.525369176068
 20
76.94384603463359
 10
128.3753293473681
 20
76.94376092923431
  0
SPLINE
  5
18A
330
70
100
AcDbEntity
  8
0
 62
    18
420
        0
370
    25
100
AcDbSpline
210
0.0
220
0.0
230
1.0
 70
     8
 71
     3
 72
     8
 73
     4
 74
     0
 42
0.0000000001
 43
0.0000000001
 40
0.0
 40
0.0
 40
0.0
 40
0.0
 40
1.0
 40
1.0
 40
1.0
 40
1.0
 10
133.183825466103
 20
76.94529678003812
 30
0.0
 10
133.290880787131
 20
76.9498481069388
 30
0.0
 10
133.3753290364958
 20
77.0379625975276
 30
0.0
 10
133.3753293473393
 20
77.14511462194568
 30
0.0
  0
LWPOLYLINE
  5
18B
330
70
100
AcDbEntity
  8
0
 62
    18
420
        0
370
    25
100
AcDbPolyline
 90
        5
 70
     0
 43
0.0
 10
128.672846524468
 20
76.84043875663366
 10
128.918022596368
 20
76.8403790856342
 10
129.186181557168
 20
76.84031717243432
 10
129.238600825568
 20
76.84031282033391
 10
129.2698349015679
 20
76.8403133679342
  0
SPLINE
  5
18C
330
70
100
AcDbEntity
  8
0
 62
    18
420
        0
370
    25
100
AcDbSpline
210
0.0
220
0.0
230
1.0
 70
     8
 71
     3
 72
     8
 73
     4
 74
     0
 42
0.0000000001
 43
0.0000000001
 40
0.0
 40
0.0
 40
0.0
 40
0.0
 40
1.0
 40
1.0
 40
1.0
 40
1.0
 10
128.672846524468
 20
76.84043875657462
 30
0.0
 10
128.4745165387353
 20
76.8438653026839
 30
0.0
 10
128.2761421560014
 20
76.8438653026839
 30
0.0
 10
128.0778121702687
 20
76.84043875657462
 30
0.0
  0
LWPOLYLINE
  5
18D
330
70
100
AcDbEntity
  8
0
 62
    18
420
        0
370
    25
100
AcDbPolyline
 90
        5
 70
     0
 43
0.0
 10
127.4808237930681
 20
76.8403133679342
 10
127.512057869068
 20
76.84031282033391
 10
127.564477137468
 20
76.84031717243432
 10
127.8326360983681
 20
76.8403790856342
 10
128.0778121702681
 20
76.84043875663366
  0
LINE
  5
18E
330
70
100
AcDbEntity
  8
0
 62
    18
420
        0
370
    25
100
AcDbLine
 10
14.07532934736821
 20
77.1323138026344
 30
0.0
 11
14.06683153376829
 21
76.93249443083354
 31
0.0
  0
LWPOLYLINE
  5
18F
330
70
100
AcDbEntity
  8
0
 62
    18
420
        0
370
    25
100
AcDbPolyline
 90
        7
 70
     0
 43
0.0
 10
14.07532934736821
 20
77.1323138026344
 10
14.07519719406838
 20
77.12615105073396
 10
14.07456571016827
 20
77.09670031493378
 10
14.07321236096836
 20
77.03356687743401
 10
14.07209816286833
 20
76.98157257983382
 10
14.07134823176822
 20
76.94656813093363
 10
14.0710467937683
 20
76.93249596073389
  0
SPLINE
  5
190
330
70
100
AcDbEntity
  8
0
 62
    18
420
        0
370
    25
100
AcDbSpline
210
0.0
220
0.0
230
1.0
 70
     8
 71
     3
 72
     8
 73
     4
 74
     0
 42
0.0000000001
 43
0.0000000001
 40
0.0
 40
0.0
 40
0.0
 40
0.0
 40
1.0
 40
1.0
 40
1.0
 40
1.0
 10
14.07104679375547
 20
76.93249596065945
 30
0.0
 10
14.0724344526391
 20
76.93225226328711
 30
0.0
 10
14.07384098665304
 20
76.93213208501636
 30
0.0
 10
14.07524987380237
 20
76.93213683753185
 30
0.0
  0
LINE
  5
191
330
70
100
AcDbEntity
  8
0
 62
    18
420
        0
370
    25
100
AcDbLine
 10
14.07524987386815
 20
76.93213683753443
 30
0.0
 11
14.06683153376829
 21
76.93249443083354
 31
0.0
  0
LWPOLYLINE
  5
192
330
70
100
AcDbEntity
  8
0
 62
    18
420
        0
370
    25
100
AcDbPolyline
 90
        4
 70
     0
 43
0.0
 10
14.07532934736821
 20
77.1323138026344
 10
17.25656205526826
 20
77.13134718873409
 10
20.43779458916809
 20
77.13133908123443
 10
23.67532934736823
 20
77.13231380273386
  0
LINE
  5
193
330
70
100
AcDbEntity
  8
0
 62
    18
420
        0
370
    25
100
AcDbLine
 10
23.67532934736823
 20
77.13231380273386
 30
0.0
 11
23.67540543366825
 21
76.93249443083354
 31
0.0
  0
LWPOLYLINE
  5
194
330
70
100
AcDbEntity
  8
0
 62
    18
420
        0
370
    25
100
AcDbPolyline
 90
        7
 70
     0
 43
0.0
 10
23.67540543366825
 20
76.93249443083354
 10
23.27540549076822
 20
76.93235132083415
 10
21.6754056695683
 20
76.93184555543377
 10
18.47540565496825
 20
76.93143561363415
 10
17.25652481846828
 20
76.93157457033404
 10
14.07525325656827
 20
76.93249443053386
 10
14.0710467937683
 20
76.93249596073389
  0
LINE
  5
195
330
70
100
AcDbEntity
  8
0
 62
    18
420
        0
370
    25
100
AcDbLine
 10
23.67532934736823
 20
78.02857607833431
 30
0.0
 11
14.07532934736821
 21
78.02857607833431
 31
0.0
  0
LINE
  5
196
330
70
100
AcDbEntity
  8
0
 62
    18
420
        0
370
    25
100
AcDbLine
 10
23.67532934736823
 20
77.13231380273386
 30
0.0
 11
23.67532934736823
 21
78.02857607833431
 31
0.0
  0
LINE
  5
197
330
70
100
AcDbEntity
  8
0
 62
    18
420
        0
370
    25
100
AcDbLine
 10
14.07532934736821
 20
78.02857607833431
 30
0.0
 11
14.07532934736821
 21
77.1323138026344
 31
0.0
  0
LINE
  5
198
330
70
100
AcDbEntity
  8
0
 62
    18
420
        0
370
    25
100
AcDbLine
 10
13.8753293473682
 20
78.02857607833431
 30
0.0
 11
14.07532934736821
 21
78.02857607833431
 31
0.0
  0
LINE
  5
199
330
70
100
AcDbEntity
  8
0
 62
    18
420
        0
370
    25
100
AcDbLine
 10
13.8753293473682
 20
77.13231380273386
 30
0.0
 11
14.07532934736821
 21
77.1323138026344
 31
0.0
  0
LINE
  5
19A
330
70
100
AcDbEntity
  8
0
 62
    18
420
        0
370
    25
100
AcDbLine
 10
13.8753293473682
 20
77.13231380273386
 30
0.0
 11
13.8753293473682
 21
78.02857607833431
 31
0.0
  0
LINE
  5
19B
330
70
100
AcDbEntity
  8
0
 62
    18
420
        0
370
    25
100
AcDbLine
 10
23.87532934736824
 20
78.02857607833431
 30
0.0
 11
23.87532934736824
 21
77.1323138026344
 31
0.0
  0
LINE
  5
19C
330
70
100
AcDbEntity
  8
0
 62
    18
420
        0
370
    25
100
AcDbLine
 10
23.67532934736823
 20
77.13231380273386
 30
0.0
 11
23.87532934736824
 21
77.1323138026344
 31
0.0
  0
LINE
  5
19D
330
70
100
AcDbEntity
  8
0
 62
    18
420
        0
370
    25
100
AcDbLine
 10
23.67532934736823
 20
78.02857607833431
 30
0.0
 11
23.87532934736824
 21
78.02857607833431
 31
0.0
  0
SPLINE
  5
19E
330
70
100
AcDbEntity
  8
0
 62
    18
420
        0
370
    25
100
AcDbSpline
210
0.0
220
0.0
230
1.0
 70
     8
 71
     3
 72
     8
 73
     4
 74
     0
 42
0.0000000001
 43
0.0000000001
 40
0.0
 40
0.0
 40
0.0
 40
0.0
 40
1.0
 40
1.0
 40
1.0
 40
1.0
 10
13.87532934734927
 20
77.13231380269728
 30
0.0
 10
13.87532935101209
 20
77.02516203626402
 30
0.0
 10
13.95977653247772
 20
76.93704720543293
 30
0.0
 10
14.06683153373011
 20
76.93249443082712
 30
0.0
  0
SPLINE
  5
19F
330
70
100
AcDbEntity
  8
0
 62
    18
420
        0
370
    25
100
AcDbSpline
210
0.0
220
0.0
230
1.0
 70
     8
 71
     3
 72
     8
 73
     4
 74
     0
 42
0.0000000001
 43
0.0000000001
 40
0.0
 40
0.0
 40
0.0
 40
0.0
 40
1.0
 40
1.0
 40
1.0
 40
1.0
 10
23.67540543369071
 20
76.93249443085536
 30
0.0
 10
23.78578280278583
 20
76.93248655729542
 30
0.0
 10
23.87527948857531
 20
77.02193644451618
 30
0.0
 10
23.8753293473599
 20
77.13231380263119
 30
0.0
  0
SPLINE
  5
1A0
330
70
100
AcDbEntity
  8
0
 62
    18
420
        0
370
    25
100
AcDbSpline
210
0.0
220
0.0
230
1.0
 70
     8
 71
     3
 72
     8
 73
     4
 74
     0
 42
0.0000000001
 43
0.0000000001
 40
0.0
 40
0.0
 40
0.0
 40
0.0
 40
1.0
 40
1.0
 40
1.0
 40
1.0
 10
14.07524987378248
 20
76.93213683758063
 30
0.0
 10
15.29743315094503
 20
76.87580755427982
 30
0.0
 10
16.52053870152252
 20
76.84168064418344
 30
0.0
 10
17.74396142442818
 20
76.82977299073076
 30
0.0
  0
LINE
  5
1A1
330
70
100
AcDbEntity
  8
0
 62
    18
420
        0
370
    25
100
AcDbLine
 10
23.67540882086829
 20
76.93213683753443
 30
0.0
 11
23.67540543366825
 21
76.93249443083354
 31
0.0
  0
SPLINE
  5
1A2
330
70
100
AcDbEntity
  8
0
 62
    18
420
        0
370
    25
100
AcDbSpline
210
0.0
220
0.0
230
1.0
 70
     8
 71
     3
 72
     8
 73
     4
 74
     0
 42
0.0000000001
 43
0.0000000001
 40
0.0
 40
0.0
 40
0.0
 40
0.0
 40
1.0
 40
1.0
 40
1.0
 40
1.0
 10
20.00669727030826
 20
76.82977299073333
 30
0.0
 10
21.23011999321393
 20
76.84168064418601
 30
0.0
 10
22.45322554379109
 20
76.87580755428367
 30
0.0
 10
23.67540882095363
 20
76.93213683758384
 30
0.0
  0
LWPOLYLINE
  5
1A3
330
70
100
AcDbEntity
  8
0
 62
    18
420
        0
370
    25
100
AcDbPolyline
 90
        4
 70
     0
 43
0.0
 10
23.68382546606837
 20
76.93249596073389
 10
23.68074971306822
 20
76.93236502173431
 10
23.67719712846829
 20
76.93221336153351
 10
23.67540882086829
 20
76.93213683753443
  0
SPLINE
  5
1A4
330
70
100
AcDbEntity
  8
0
 62
    18
420
        0
370
    25
100
AcDbSpline
210
0.0
220
0.0
230
1.0
 70
     8
 71
     3
 72
     8
 73
     4
 74
     0
 42
0.0000000001
 43
0.0000000001
 40
0.0
 40
0.0
 40
0.0
 40
0.0
 40
1.0
 40
1.0
 40
1.0
 40
1.0
 10
23.68382546610238
 20
76.93249596063892
 30
0.0
 10
23.79088078713008
 20
76.93704728753832
 30
0.0
 10
23.87532903649521
 20
77.02516177812775
 30
0.0
 10
23.87532934733904
 20
77.13231380254519
 30
0.0
  0
SPLINE
  5
1A5
330
70
100
AcDbEntity
  8
0
 62
    18
420
        0
370
    25
100
AcDbSpline
210
0.0
220
0.0
230
1.0
 70
     8
 71
     3
 72
     8
 73
     4
 74
     0
 42
0.0000000001
 43
0.0000000001
 40
0.0
 40
0.0
 40
0.0
 40
0.0
 40
1.0
 40
1.0
 40
1.0
 40
1.0
 10
133.8167507036056
 20
75.1699974345713
 30
0.0
 10
133.7792434279162
 20
75.20750471026068
 30
0.0
 10
133.7283726453362
 20
75.22857607833421
 30
0.0
 10
133.6753293473679
 20
75.22857607833421
 30
0.0
  0
LINE
  5
1A6
330
70
100
AcDbEntity
  8
0
 62
    18
420
        0
370
    25
100
AcDbLine
 10
133.7753293473682
 20
75.12857607833389
 30
0.0
 11
133.8167507035684
 21
75.16999743463355
 31
0.0
  0
LINE
  5
1A7
330
70
100
AcDbEntity
  8
0
 62
    18
420
        0
370
    25
100
AcDbLine
 10
133.7753293473682
 20
75.12857607833389
 30
0.0
 11
129.7609699933684
 21
75.12857607833389
 31
0.0
  0
LINE
  5
1A8
330
70
100
AcDbEntity
  8
0
 62
    18
420
        0
370
    25
100
AcDbLine
 10
126.9896887012682
 20
75.12857607833389
 30
0.0
 11
20.26096999336813
 21
75.12857607833389
 31
0.0
  0
LINE
  5
1A9
330
70
100
AcDbEntity
  8
0
 62
    18
420
        0
370
    25
100
AcDbLine
 10
17.4896887012682
 20
75.12857607833389
 30
0.0
 11
13.97532934736821
 21
75.12857607833389
 31
0.0
  0
LINE
  5
1AA
330
70
100
AcDbEntity
  8
0
 62
    18
420
        0
370
    25
100
AcDbLine
 10
13.93390799106824
 20
75.16999743463355
 30
0.0
 11
13.97532934736821
 21
75.12857607833389
 31
0.0
  0
SPLINE
  5
1AB
330
70
100
AcDbEntity
  8
0
 62
    18
420
        0
370
    25
100
AcDbSpline
210
0.0
220
0.0
230
1.0
 70
     8
 71
     3
 72
     8
 73
     4
 74
     0
 42
0.0000000001
 43
0.0000000001
 40
0.0
 40
0.0
 40
0.0
 40
0.0
 40
1.0
 40
1.0
 40
1.0
 40
1.0
 10
14.07532934736821
 20
75.22857607833421
 30
0.0
 10
14.02228604940023
 20
75.22857607833421
 30
0.0
 10
13.97141526682051
 20
75.20750471026068
 30
0.0
 10
13.9339079911308
 20
75.1699974345713
 30
0.0
  0
LINE
  5
1AC
330
70
100
AcDbEntity
  8
0
 62
    18
420
        0
370
    25
100
AcDbLine
 10
14.07532934736821
 20
75.22857607833421
 30
0.0
 11
17.39208964996809
 21
75.22857607833421
 31
0.0
  0
LINE
  5
1AD
330
70
100
AcDbEntity
  8
0
 62
    18
420
        0
370
    25
100
AcDbLine
 10
20.35856904476835
 20
75.22857607833421
 30
0.0
 11
126.8554609319684
 21
75.22857607833421
 31
0.0
  0
LINE
  5
1AE
330
70
100
AcDbEntity
  8
0
 62
    18
420
        0
370
    25
100
AcDbLine
 10
129.8951977626682
 20
75.22857607833421
 30
0.0
 11
133.6753293473679
 21
75.22857607833421
 31
0.0
  0
LINE
  5
1AF
330
70
100
AcDbEntity
  8
0
 62
    18
420
        0
370
    25
100
AcDbLine
 10
13.97532934736821
 20
75.12857607833389
 30
0.0
 11
13.97532934736821
 21
57.3285760783339
 31
0.0
  0
LINE
  5
1B0
330
70
100
AcDbEntity
  8
0
 62
    18
420
        0
370
    25
100
AcDbLine
 10
13.93390799106824
 20
57.28715472213436
 30
0.0
 11
13.97532934736821
 21
57.3285760783339
 31
0.0
  0
SPLINE
  5
1B1
330
70
100
AcDbEntity
  8
0
 62
    18
420
        0
370
    25
100
AcDbSpline
210
0.0
220
0.0
230
1.0
 70
     8
 71
     3
 72
     8
 73
     4
 74
     0
 42
0.0000000001
 43
0.0000000001
 40
0.0
 40
0.0
 40
0.0
 40
0.0
 40
1.0
 40
1.0
 40
1.0
 40
1.0
 10
13.8753293473682
 20
57.42857607833423
 30
0.0
 10
13.8753293473682
 20
57.37553278036592
 30
0.0
 10
13.89640071544141
 20
57.32466199778589
 30
0.0
 10
13.9339079911308
 20
57.2871547220965
 30
0.0
  0
LINE
  5
1B2
330
70
100
AcDbEntity
  8
0
 62
    18
420
        0
370
    25
100
AcDbLine
 10
13.8753293473682
 20
57.42857607833423
 30
0.0
 11
13.8753293473682
 21
75.02857607833357
 31
0.0
  0
SPLINE
  5
1B3
330
70
100
AcDbEntity
  8
0
 62
    18
420
        0
370
    25
100
AcDbSpline
210
0.0
220
0.0
230
1.0
 70
     8
 71
     3
 72
     8
 73
     4
 74
     0
 42
0.0000000001
 43
0.0000000001
 40
0.0
 40
0.0
 40
0.0
 40
0.0
 40
1.0
 40
1.0
 40
1.0
 40
1.0
 10
13.9339079911308
 20
75.1699974345713
 30
0.0
 10
13.89640071544141
 20
75.13249015888191
 30
0.0
 10
13.8753293473682
 20
75.08161937630188
 30
0.0
 10
13.8753293473682
 20
75.02857607833357
 30
0.0
  0
LINE
  5
1B4
330
70
100
AcDbEntity
  8
0
 62
    18
420
        0
370
    25
100
AcDbLine
 10
133.7753293473682
 20
57.3285760783339
 30
0.0
 11
133.7753293473682
 21
75.12857607833389
 31
0.0
  0
SPLINE
  5
1B5
330
70
100
AcDbEntity
  8
0
 62
    18
420
        0
370
    25
100
AcDbSpline
210
0.0
220
0.0
230
1.0
 70
     8
 71
     3
 72
     8
 73
     4
 74
     0
 42
0.0000000001
 43
0.0000000001
 40
0.0
 40
0.0
 40
0.0
 40
0.0
 40
1.0
 40
1.0
 40
1.0
 40
1.0
 10
133.8753293473686
 20
75.02857607833357
 30
0.0
 10
133.8753293473686
 20
75.08161937630188
 30
0.0
 10
133.854257979295
 20
75.13249015888191
 30
0.0
 10
133.8167507036056
 20
75.1699974345713
 30
0.0
  0
LINE
  5
1B6
330
70
100
AcDbEntity
  8
0
 62
    18
420
        0
370
    25
100
AcDbLine
 10
133.8753293473679
 20
75.02857607833357
 30
0.0
 11
133.8753293473679
 21
57.42857607833423
 31
0.0
  0
SPLINE
  5
1B7
330
70
100
AcDbEntity
  8
0
 62
    18
420
        0
370
    25
100
AcDbSpline
210
0.0
220
0.0
230
1.0
 70
     8
 71
     3
 72
     8
 73
     4
 74
     0
 42
0.0000000001
 43
0.0000000001
 40
0.0
 40
0.0
 40
0.0
 40
0.0
 40
1.0
 40
1.0
 40
1.0
 40
1.0
 10
133.8167507036056
 20
57.2871547220965
 30
0.0
 10
133.8542579792957
 20
57.32466199778589
 30
0.0
 10
133.8753293473686
 20
57.37553278036592
 30
0.0
 10
133.8753293473686
 20
57.42857607833423
 30
0.0
  0
LINE
  5
1B8
330
70
100
AcDbEntity
  8
0
 62
    18
420
        0
370
    25
100
AcDbLine
 10
133.7753293473682
 20
57.3285760783339
 30
0.0
 11
133.8167507035684
 21
57.28715472213436
 31
0.0
  0
LINE
  5
1B9
330
70
100
AcDbEntity
  8
0
 62
    18
420
        0
370
    25
100
AcDbLine
 10
13.97532934736821
 20
57.3285760783339
 30
0.0
 11
133.7753293473682
 21
57.3285760783339
 31
0.0
  0
SPLINE
  5
1BA
330
70
100
AcDbEntity
  8
0
 62
    18
420
        0
370
    25
100
AcDbSpline
210
0.0
220
0.0
230
1.0
 70
     8
 71
     3
 72
     8
 73
     4
 74
     0
 42
0.0000000001
 43
0.0000000001
 40
0.0
 40
0.0
 40
0.0
 40
0.0
 40
1.0
 40
1.0
 40
1.0
 40
1.0
 10
133.6753293473679
 20
57.22857607833358
 30
0.0
 10
133.7283726453362
 20
57.22857607833358
 30
0.0
 10
133.7792434279162
 20
57.24964744640711
 30
0.0
 10
133.8167507036056
 20
57.2871547220965
 30
0.0
  0
LINE
  5
1BB
330
70
100
AcDbEntity
  8
0
 62
    18
420
        0
370
    25
100
AcDbLine
 10
133.6753293473679
 20
57.22857607833358
 30
0.0
 11
14.07532934736821
 21
57.22857607833358
 31
0.0
  0
SPLINE
  5
1BC
330
70
100
AcDbEntity
  8
0
 62
    18
420
        0
370
    25
100
AcDbSpline
210
0.0
220
0.0
230
1.0
 70
     8
 71
     3
 72
     8
 73
     4
 74
     0
 42
0.0000000001
 43
0.0000000001
 40
0.0
 40
0.0
 40
0.0
 40
0.0
 40
1.0
 40
1.0
 40
1.0
 40
1.0
 10
13.93390799113112
 20
57.28715472209714
 30
0.0
 10
13.97141526682051
 20
57.24964744640711
 30
0.0
 10
14.02228604940023
 20
57.22857607833422
 30
0.0
 10
14.07532934736821
 20
57.22857607833422
 30
0.0
  0
LINE
  5
1BD
330
70
100
AcDbEntity
  8
0
 62
    18
420
        0
370
    25
100
AcDbLine
 10
129.9753293473681
 20
75.22857607833421
 30
0.0
 11
129.9753293473681
 21
76.82857607833426
 31
0.0
  0
LINE
  5
1BE
330
70
100
AcDbEntity
  8
0
 62
    18
420
        0
370
    25
100
AcDbLine
 10
129.7609699933684
 20
75.22857607833421
 30
0.0
 11
129.8951977626682
 21
75.22857607833421
 31
0.0
  0
LINE
  5
1BF
330
70
100
AcDbEntity
  8
0
 62
    18
420
        0
370
    25
100
AcDbLine
 10
129.7609699933684
 20
72.10683998623406
 30
0.0
 11
129.7609699933684
 21
75.22857607833421
 31
0.0
  0
LINE
  5
1C0
330
70
100
AcDbEntity
  8
0
 62
    18
420
        0
370
    25
100
AcDbLine
 10
126.9896887012682
 20
72.10683998623406
 30
0.0
 11
129.7609699933684
 21
72.10683998623406
 31
0.0
  0
LINE
  5
1C1
330
70
100
AcDbEntity
  8
0
 62
    18
420
        0
370
    25
100
AcDbLine
 10
126.9896887012682
 20
75.22857607833421
 30
0.0
 11
126.9896887012682
 21
72.10683998623406
 31
0.0
  0
LINE
  5
1C2
330
70
100
AcDbEntity
  8
0
 62
    18
420
        0
370
    25
100
AcDbLine
 10
126.8554609319684
 20
75.22857607833421
 30
0.0
 11
126.9896887012682
 21
75.22857607833421
 31
0.0
  0
LINE
  5
1C3
330
70
100
AcDbEntity
  8
0
 62
    18
420
        0
370
    25
100
AcDbLine
 10
126.775329347368
 20
76.82857607833426
 30
0.0
 11
126.775329347368
 21
75.22857607833421
 31
0.0
  0
LINE
  5
1C4
330
70
100
AcDbEntity
  8
0
 62
    18
420
        0
370
    25
100
AcDbLine
 10
129.9753293473681
 20
76.82857607833426
 30
0.0
 11
127.4311313155683
 21
76.82857607833426
 31
0.0
  0
SPLINE
  5
1C5
330
70
100
AcDbEntity
  8
0
 62
    18
420
        0
370
    25
100
AcDbSpline
210
0.0
220
0.0
230
1.0
 70
     8
 71
     3
 72
     8
 73
     4
 74
     0
 42
0.0000000001
 43
0.0000000001
 40
0.0
 40
0.0
 40
0.0
 40
0.0
 40
1.0
 40
1.0
 40
1.0
 40
1.0
 10
129.6718098973415
 20
72.00962535976955
 30
0.0
 10
129.7208653912136
 20
72.01670635600682
 30
0.0
 10
129.7581475426906
 20
72.05735649645221
 30
0.0
 10
129.7609699934435
 20
72.10683998620904
 30
0.0
  0
LINE
  5
1C6
330
70
100
AcDbEntity
  8
0
 62
    18
420
        0
370
    25
100
AcDbLine
 10
129.6718098972683
 20
72.00962535983371
 30
0.0
 11
127.0788487973683
 21
72.00962535983371
 31
0.0
  0
SPLINE
  5
1C7
330
70
100
AcDbEntity
  8
0
 62
    18
420
        0
370
    25
100
AcDbSpline
210
0.0
220
0.0
230
1.0
 70
     8
 71
     3
 72
     8
 73
     4
 74
     0
 42
0.0000000001
 43
0.0000000001
 40
0.0
 40
0.0
 40
0.0
 40
0.0
 40
1.0
 40
1.0
 40
1.0
 40
1.0
 10
126.9896887013009
 20
72.10683998621289
 30
0.0
 10
126.99221061543
 20
72.05723012355777
 30
0.0
 10
127.0296414737321
 20
72.01641784243324
 30
0.0
 10
127.078848797403
 20
72.00962535977339
 30
0.0
  0
SPLINE
  5
1C8
330
70
100
AcDbEntity
  8
0
 62
    18
420
        0
370
    25
100
AcDbSpline
210
0.0
220
0.0
230
1.0
 70
     8
 71
     3
 72
     8
 73
     4
 74
     0
 42
0.0000000001
 43
0.0000000001
 40
0.0
 40
0.0
 40
0.0
 40
0.0
 40
1.0
 40
1.0
 40
1.0
 40
1.0
 10
127.0788487974197
 20
72.00962535977275
 30
0.0
 10
127.9342595930989
 20
71.83411782565737
 30
0.0
 10
128.8163991016379
 20
71.83411782565737
 30
0.0
 10
129.6718098973165
 20
72.00962535977275
 30
0.0
  0
LINE
  5
1C9
330
70
100
AcDbEntity
  8
0
 62
    18
420
        0
370
    25
100
AcDbLine
 10
20.47532934736812
 20
75.22857607833421
 30
0.0
 11
20.47532934736812
 21
76.82857607833426
 31
0.0
  0
LINE
  5
1CA
330
70
100
AcDbEntity
  8
0
 62
    18
420
        0
370
    25
100
AcDbLine
 10
20.26096999336813
 20
75.22857607833421
 30
0.0
 11
20.35856904476835
 21
75.22857607833421
 31
0.0
  0
LINE
  5
1CB
330
70
100
AcDbEntity
  8
0
 62
    18
420
        0
370
    25
100
AcDbLine
 10
20.26096999336813
 20
72.10683998623406
 30
0.0
 11
20.26096999336813
 21
75.22857607833421
 31
0.0
  0
LINE
  5
1CC
330
70
100
AcDbEntity
  8
0
 62
    18
420
        0
370
    25
100
AcDbLine
 10
17.4896887012682
 20
72.10683998623406
 30
0.0
 11
20.26096999336813
 21
72.10683998623406
 31
0.0
  0
LINE
  5
1CD
330
70
100
AcDbEntity
  8
0
 62
    18
420
        0
370
    25
100
AcDbLine
 10
17.4896887012682
 20
75.22857607833421
 30
0.0
 11
17.4896887012682
 21
72.10683998623406
 31
0.0
  0
LINE
  5
1CE
330
70
100
AcDbEntity
  8
0
 62
    18
420
        0
370
    25
100
AcDbLine
 10
17.39208964996809
 20
75.22857607833421
 30
0.0
 11
17.4896887012682
 21
75.22857607833421
 31
0.0
  0
LINE
  5
1CF
330
70
100
AcDbEntity
  8
0
 62
    18
420
        0
370
    25
100
AcDbLine
 10
17.27532934736832
 20
76.82857607833426
 30
0.0
 11
17.27532934736832
 21
75.22857607833421
 31
0.0
  0
LINE
  5
1D0
330
70
100
AcDbEntity
  8
0
 62
    18
420
        0
370
    25
100
AcDbLine
 10
20.47532934736812
 20
76.82857607833426
 30
0.0
 11
18.03467593256826
 21
76.82857607833426
 31
0.0
  0
SPLINE
  5
1D1
330
70
100
AcDbEntity
  8
0
 62
    18
420
        0
370
    25
100
AcDbSpline
210
0.0
220
0.0
230
1.0
 70
     8
 71
     3
 72
     8
 73
     4
 74
     0
 42
0.0000000001
 43
0.0000000001
 40
0.0
 40
0.0
 40
0.0
 40
0.0
 40
1.0
 40
1.0
 40
1.0
 40
1.0
 10
20.17180989734149
 20
72.00962535976955
 30
0.0
 10
20.22086539121398
 20
72.01670635600682
 30
0.0
 10
20.2581475426906
 20
72.05735649645221
 30
0.0
 10
20.26096999344385
 20
72.10683998620904
 30
0.0
  0
LINE
  5
1D2
330
70
100
AcDbEntity
  8
0
 62
    18
420
        0
370
    25
100
AcDbLine
 10
20.17180989726833
 20
72.00962535983371
 30
0.0
 11
17.57884879736832
 21
72.00962535983371
 31
0.0
  0
SPLINE
  5
1D3
330
70
100
AcDbEntity
  8
0
 62
    18
420
        0
370
    25
100
AcDbSpline
210
0.0
220
0.0
230
1.0
 70
     8
 71
     3
 72
     8
 73
     4
 74
     0
 42
0.0000000001
 43
0.0000000001
 40
0.0
 40
0.0
 40
0.0
 40
0.0
 40
1.0
 40
1.0
 40
1.0
 40
1.0
 10
17.48968870130093
 20
72.10683998621289
 30
0.0
 10
17.49221061542966
 20
72.05723012355777
 30
0.0
 10
17.52964147373216
 20
72.01641784243324
 30
0.0
 10
17.5788487974033
 20
72.00962535977339
 30
0.0
  0
SPLINE
  5
1D4
330
70
100
AcDbEntity
  8
0
 62
    18
420
        0
370
    25
100
AcDbSpline
210
0.0
220
0.0
230
1.0
 70
     8
 71
     3
 72
     8
 73
     4
 74
     0
 42
0.0000000001
 43
0.0000000001
 40
0.0
 40
0.0
 40
0.0
 40
0.0
 40
1.0
 40
1.0
 40
1.0
 40
1.0
 10
17.57884879741998
 20
72.00962535977275
 30
0.0
 10
18.43425959309887
 20
71.83411782565737
 30
0.0
 10
19.31639910163757
 20
71.83411782565737
 30
0.0
 10
20.17180989731646
 20
72.00962535977275
 30
0.0
  0
LWPOLYLINE
  5
1D5
330
70
100
AcDbEntity
  8
0
 62
     8
420
  8421504
370
    25
100
AcDbPolyline
 90
        5
 70
     0
 43
0.0
 10
133.1849664479682
 20
76.94428667203424
 10
133.1850240465679
 20
76.94423643293389
 10
133.1848634726682
 20
76.94437538963441
 10
133.183827156568
 20
76.9452952498336
 10
133.1838254660684
 20
76.94529678003426
  0
LINE
  5
1D6
330
70
100
AcDbEntity
  8
0
 62
     8
420
  8421504
370
    25
100
AcDbLine
 10
123.5656922467563
 20
76.94428667207145
 30
0.0
 11
123.566455468091
 21
76.9449549046898
 31
0.0
  0
LINE
  5
1D7
330
70
100
AcDbEntity
  8
0
 62
     8
420
  8421504
370
    25
100
AcDbLine
 10
14.0656922467236
 20
76.93148585273515
 30
0.0
 11
14.06645546805765
 21
76.9321540853535
 31
0.0
  0
LWPOLYLINE
  5
1D8
330
70
100
AcDbEntity
  8
0
 62
     8
420
  8421504
370
    25
100
AcDbPolyline
 90
        5
 70
     0
 43
0.0
 10
23.68496644796824
 20
76.93148585273387
 10
23.68502404656825
 20
76.93143561363415
 10
23.68486347266823
 20
76.93157457033404
 10
23.68382715656834
 20
76.93249443053386
 10
23.68382546606837
 20
76.93249596073389
  0
SPLINE
  5
1D9
330
70
100
AcDbEntity
  8
0
 62
    18
420
        0
370
    25
100
AcDbSpline
210
0.0
220
0.0
230
1.0
 70
     8
 71
     3
 72
     8
 73
     4
 74
     0
 42
0.0000000001
 43
0.0000000001
 40
0.0
 40
0.0
 40
0.0
 40
0.0
 40
1.0
 40
1.0
 40
1.0
 40
1.0
 10
193.2940486476421
 20
-19.1653170574967
 30
0.0
 10
193.354901749914
 20
-19.1975807334277
 30
0.0
 10
193.4280745182022
 20
-19.19626182178737
 30
0.0
 10
193.4877253890317
 20
-19.16182610704257
 30
0.0
  0
SPLINE
  5
1DA
330
70
100
AcDbEntity
  8
0
 62
    18
420
        0
370
    25
100
AcDbSpline
210
0.0
220
0.0
230
1.0
 70
     8
 71
     3
 72
     8
 73
     4
 74
     0
 42
0.0000000001
 43
0.0000000001
 40
0.0
 40
0.0
 40
0.0
 40
0.0
 40
1.0
 40
1.0
 40
1.0
 40
1.0
 10
186.4995165431042
 20
-7.057855831189813
 30
0.0
 10
186.4376521490522
 20
-7.093569385692102
 30
0.0
 10
186.3995319772876
 20
-7.159566757247233
 30
0.0
 10
186.3995084272371
 20
-7.2309996675339
 30
0.0
  0
LINE
  5
1DB
330
70
100
AcDbEntity
  8
0
 62
    18
420
        0
370
    25
100
AcDbLine
 10
193.292639684068
 20
-19.16372558096611
 30
0.0
 11
193.2947505029685
 21
-19.16485774846616
 31
0.0
  0
LINE
  5
1DC
330
70
100
AcDbEntity
  8
0
 62
    18
420
        0
370
    25
100
AcDbLine
 10
190.6415596520684
 20
-17.63432221846624
 30
0.0
 11
193.290234491968
 21
-19.16284283916573
 31
0.0
  0
LWPOLYLINE
  5
1DD
330
70
100
AcDbEntity
  8
0
 62
    18
420
        0
370
    25
100
AcDbPolyline
 90
        3
 70
     0
 43
0.0
 10
186.3995234746682
 20
-7.230994893966189
 10
186.3989779667685
 20
-9.065806607266292
 10
186.399444363868
 20
-12.19136091926581
  0
LINE
  5
1DE
330
70
100
AcDbEntity
  8
0
 62
    18
420
        0
370
    25
100
AcDbLine
 10
193.4877253890683
 20
-19.1618261069662
 30
0.0
 11
194.121478521868
 21
-18.79596821096601
 31
0.0
  0
LINE
  5
1DF
330
70
100
AcDbEntity
  8
0
 62
    18
420
        0
370
    25
100
AcDbLine
 10
187.1332696759681
 20
-6.69199793506577
 30
0.0
 11
186.4995165430682
 21
-7.057855831166071
 31
0.0
  0
SPLINE
  5
1E0
330
70
100
AcDbEntity
  8
0
 62
    18
420
        0
370
    25
100
AcDbSpline
210
0.0
220
0.0
230
1.0
 70
     8
 71
     3
 72
     8
 73
     4
 74
     0
 42
0.0000000001
 43
0.0000000001
 40
0.0
 40
0.0
 40
0.0
 40
0.0
 40
1.0
 40
1.0
 40
1.0
 40
1.0
 10
109.0622724570043
 20
37.55360886350981
 30
0.0
 10
109.0004080629523
 20
37.51789530900817
 30
0.0
 10
108.9622878911877
 20
37.45189793745304
 30
0.0
 10
108.9622643411372
 20
37.38046502716637
 30
0.0
  0
LWPOLYLINE
  5
1E1
330
70
100
AcDbEntity
  8
0
 62
    18
420
        0
370
    25
100
AcDbPolyline
 90
        3
 70
     0
 43
0.0
 10
108.9622793886684
 20
37.38046983783391
 10
108.961733880768
 20
35.54565808743398
 10
108.9621865326684
 20
32.51221648423384
  0
LINE
  5
1E2
330
70
100
AcDbEntity
  8
0
 62
    18
420
        0
370
    25
100
AcDbLine
 10
109.6960255898681
 20
37.91946675963386
 30
0.0
 11
109.0622724570684
 21
37.5536088635342
 31
0.0
  0
LINE
  5
1E3
330
70
100
AcDbEntity
  8
0
 62
    18
420
        0
370
    25
100
AcDbLine
 10
192.4446681494684
 20
-16.59340434276609
 30
0.0
 11
192.4446681494684
 21
-15.68119982416573
 31
0.0
  0
LINE
  5
1E4
330
70
100
AcDbEntity
  8
0
 62
    18
420
        0
370
    25
100
AcDbLine
 10
95.02961777066829
 20
25.95561387883416
 30
0.0
 11
95.02961777066829
 21
25.0434093602338
 31
0.0
  0
LINE
  5
1E5
330
70
100
AcDbEntity
  8
0
 62
    18
420
        0
370
    25
100
AcDbLine
 10
188.969859429268
 20
-11.8533751066659
 30
0.0
 11
185.631087819568
 21
-13.78080693036614
 31
0.0
  0
SPLINE
  5
1E6
330
70
100
AcDbEntity
  8
0
 62
    18
420
        0
370
    25
100
AcDbSpline
210
0.0
220
0.0
230
1.0
 70
     8
 71
     3
 72
     8
 73
     4
 74
     0
 42
0.0000000001
 43
0.0000000001
 40
0.0
 40
0.0
 40
0.0
 40
0.0
 40
1.0
 40
1.0
 40
1.0
 40
1.0
 10
185.7428580086705
 20
-13.73153872447352
 30
0.0
 10
185.6073260176139
 20
-13.76680207418644
 30
0.0
 10
185.4918971697072
 20
-13.85553840419321
 30
0.0
 10
185.4229757839345
 20
-13.97744930204835
 30
0.0
  0
LINE
  5
1E7
330
70
100
AcDbEntity
  8
0
 62
    18
420
        0
370
    25
100
AcDbLine
 10
111.541666889368
 20
32.76331493443385
 30
0.0
 11
108.2028952795685
 21
30.83588311073425
 31
0.0
  0
SPLINE
  5
1E8
330
70
100
AcDbEntity
  8
0
 62
    18
420
        0
370
    25
100
AcDbSpline
210
0.0
220
0.0
230
1.0
 70
     8
 71
     3
 72
     8
 73
     4
 74
     0
 42
0.0000000001
 43
0.0000000001
 40
0.0
 40
0.0
 40
0.0
 40
0.0
 40
1.0
 40
1.0
 40
1.0
 40
1.0
 10
108.3146654687698
 20
30.88515131662751
 30
0.0
 10
108.1791334777132
 20
30.8498879669146
 30
0.0
 10
108.0637046298071
 20
30.76115163690783
 30
0.0
 10
107.9947832440338
 20
30.63924073905268
 30
0.0
  0
SPLINE
  5
1E9
330
70
100
AcDbEntity
  8
0
 62
    18
420
        0
370
    25
100
AcDbSpline
210
0.0
220
0.0
230
1.0
 70
     8
 71
     3
 72
     8
 73
     4
 74
     0
 42
0.0000000001
 43
0.0000000001
 40
0.0
 40
0.0
 40
0.0
 40
0.0
 40
1.0
 40
1.0
 40
1.0
 40
1.0
 10
193.5291548719813
 20
-11.23146535166293
 30
0.0
 10
193.5246144182114
 20
-11.13168732816994
 30
0.0
 10
193.4718735920862
 20
-11.04033753794715
 30
0.0
 10
193.3877335157551
 20
-10.98651637809769
 30
0.0
  0
SPLINE
  5
1EA
330
70
100
AcDbEntity
  8
0
 62
    18
420
        0
370
    25
100
AcDbSpline
210
0.0
220
0.0
230
1.0
 70
     8
 71
     3
 72
     8
 73
     4
 74
     0
 42
0.0000000001
 43
0.0000000001
 40
0.0
 40
0.0
 40
0.0
 40
0.0
 40
1.0
 40
1.0
 40
1.0
 40
1.0
 10
193.2464936865444
 20
-11.22448387023397
 30
0.0
 10
193.3344985704184
 20
-11.27065279157092
 30
0.0
 10
193.4389780240758
 20
-11.27323334173193
 30
0.0
 10
193.5291548719383
 20
-11.23146535168283
 30
0.0
  0
SPLINE
  5
1EB
330
70
100
AcDbEntity
  8
0
 62
    18
420
        0
370
    25
100
AcDbSpline
210
0.0
220
0.0
230
1.0
 70
     8
 71
     3
 72
     8
 73
     4
 74
     0
 42
0.0000000001
 43
0.0000000001
 40
0.0
 40
0.0
 40
0.0
 40
0.0
 40
1.0
 40
1.0
 40
1.0
 40
1.0
 10
193.387733515723
 20
-10.98651637803802
 30
0.0
 10
193.305813784651
 20
-11.03917822792658
 30
0.0
 10
193.2534824294538
 20
-11.12734855090711
 30
0.0
 10
193.2464936865553
 20
-11.2244838701544
 30
0.0
  0
LWPOLYLINE
  5
1EC
330
70
100
AcDbEntity
  8
0
 62
    18
420
        0
370
    25
100
AcDbPolyline
 90
        4
 70
     0
 43
0.0
 10
193.5291548719684
 20
-11.23146535166614
 10
193.5284713727685
 20
-13.82946626546607
 10
193.5284656398684
 20
-16.42707577106616
 10
193.5291548719684
 20
-19.07025714566599
  0
SPLINE
  5
1ED
330
70
100
AcDbEntity
  8
0
 62
    18
420
        0
370
    25
100
AcDbSpline
210
0.0
220
0.0
230
1.0
 70
     8
 71
     3
 72
     8
 73
     4
 74
     0
 42
0.0000000001
 43
0.0000000001
 40
0.0
 40
0.0
 40
0.0
 40
0.0
 40
1.0
 40
1.0
 40
1.0
 40
1.0
 10
193.2524487445314
 20
-19.07371438213108
 30
0.0
 10
193.3400787594907
 20
-19.11621577305399
 30
0.0
 10
193.4426140924929
 20
-19.11493467063164
 30
0.0
 10
193.5291548719954
 20
-19.07025714568589
 30
0.0
  0
LWPOLYLINE
  5
1EE
330
70
100
AcDbEntity
  8
0
 62
    18
420
        0
370
    25
100
AcDbPolyline
 90
        7
 70
     0
 43
0.0
 10
193.2524487445679
 20
-19.07371438216573
 10
193.2524598059681
 20
-18.74722132576609
 10
193.2525039099681
 20
-17.44119454446617
 10
193.2525463736686
 20
-14.82862312806629
 10
193.2525310879682
 20
-13.83323491066615
 10
193.2524487412683
 20
-11.23479832756627
 10
193.2524486278679
 20
-11.23136226396613
  0
SPLINE
  5
1EF
330
70
100
AcDbEntity
  8
0
 62
    18
420
        0
370
    25
100
AcDbSpline
210
0.0
220
0.0
230
1.0
 70
     8
 71
     3
 72
     8
 73
     4
 74
     0
 42
0.0000000001
 43
0.0000000001
 40
0.0
 40
0.0
 40
0.0
 40
0.0
 40
1.0
 40
1.0
 40
1.0
 40
1.0
 10
193.2524486279148
 20
-11.23136226389939
 30
0.0
 10
193.3393844362499
 20
-11.27554414517738
 30
0.0
 10
193.4421861676071
 20
-11.27558244425301
 30
0.0
 10
193.5291548719755
 20
-11.23146535159491
 30
0.0
  0
SPLINE
  5
1F0
330
70
100
AcDbEntity
  8
0
 62
    18
420
        0
370
    25
100
AcDbSpline
210
0.0
220
0.0
230
1.0
 70
     8
 71
     3
 72
     8
 73
     4
 74
     0
 42
0.0000000001
 43
0.0000000001
 40
0.0
 40
0.0
 40
0.0
 40
0.0
 40
1.0
 40
1.0
 40
1.0
 40
1.0
 10
193.2524486278339
 20
-11.23136226390388
 30
0.0
 10
193.2505050738483
 20
-11.23029009428671
 30
0.0
 10
193.2481353717851
 20
-11.23034465443182
 30
0.0
 10
193.2462432225121
 20
-11.23150513748273
 30
0.0
  0
LWPOLYLINE
  5
1F1
330
70
100
AcDbEntity
  8
0
 62
    18
420
        0
370
    25
100
AcDbPolyline
 90
        5
 70
     0
 43
0.0
 10
193.2462432225679
 20
-11.23150513756615
 10
193.2462435788681
 20
-11.23149513826584
 10
193.2463685591685
 20
-11.22798954276629
 10
193.2464311044682
 20
-11.22623671606626
 10
193.2464936865681
 20
-11.22448387016595
  0
LWPOLYLINE
  5
1F2
330
70
100
AcDbEntity
  8
0
 62
    18
420
        0
370
    25
100
AcDbPolyline
 90
        4
 70
     0
 43
0.0
 10
190.5673149380685
 20
-12.77850667646634
 10
191.4087898738681
 20
-12.29257817176584
 10
192.3544058039681
 20
-11.74651314206581
 10
193.2462432225679
 20
-11.23150513756615
  0
LWPOLYLINE
  5
1F3
330
70
100
AcDbEntity
  8
0
 62
    18
420
        0
370
    25
100
AcDbPolyline
 90
        5
 70
     0
 43
0.0
 10
193.2462432225679
 20
-19.07042671836607
 10
193.2462520598681
 20
-19.07043140086578
 10
193.2493503320684
 20
-19.07207293526615
 10
193.2508995207684
 20
-19.0728936696659
 10
193.2524487445679
 20
-19.07371438216573
  0
LINE
  5
1F4
330
70
100
AcDbEntity
  8
0
 62
    18
420
        0
370
    25
100
AcDbLine
 10
191.9281625958683
 20
-16.89158214866589
 30
0.0
 11
193.2462432225679
 21
-19.07042671836607
 31
0.0
  0
LWPOLYLINE
  5
1F5
330
70
100
AcDbEntity
  8
0
 62
    18
420
        0
370
    25
100
AcDbPolyline
 90
        5
 70
     0
 43
0.0
 10
193.2464936865681
 20
-11.22448387016595
 10
192.9635497037684
 20
-11.06113110956608
 10
191.8318203353684
 20
-10.40774652126593
 10
190.841628586768
 20
-9.836085100466096
 10
189.8515727082683
 20
-9.264523633666232
  0
SPLINE
  5
1F6
330
70
100
AcDbEntity
  8
0
 62
    18
420
        0
370
    25
100
AcDbSpline
210
0.0
220
0.0
230
1.0
 70
     8
 71
     3
 72
     8
 73
     4
 74
     0
 42
0.0000000001
 43
0.0000000001
 40
0.0
 40
0.0
 40
0.0
 40
0.0
 40
1.0
 40
1.0
 40
1.0
 40
1.0
 10
189.9928274814452
 20
-9.027594978594898
 30
0.0
 10
189.9111964877579
 20
-9.080053222499655
 30
0.0
 10
189.858902063883
 20
-9.167767408972482
 30
0.0
 10
189.8515727082093
 20
-9.26452363372976
 30
0.0
  0
LWPOLYLINE
  5
1F7
330
70
100
AcDbEntity
  8
0
 62
    18
420
        0
370
    25
100
AcDbPolyline
 90
        4
 70
     0
 43
0.0
 10
189.9928274814683
 20
-9.027594978566021
 10
191.6037094260681
 20
-9.957292511265888
 10
192.495691692568
 20
-10.47192164686612
 10
193.3877335156685
 20
-10.98651637806625
  0
SPLINE
  5
1F8
330
70
100
AcDbEntity
  8
0
 62
    18
420
        0
370
    25
100
AcDbSpline
210
0.0
220
0.0
230
1.0
 70
     8
 71
     3
 72
     8
 73
     4
 74
     0
 42
0.0000000001
 43
0.0000000001
 40
0.0
 40
0.0
 40
0.0
 40
0.0
 40
1.0
 40
1.0
 40
1.0
 40
1.0
 10
194.1629080048419
 20
-10.86560745551386
 30
0.0
 10
194.1583675510573
 20
-10.76582943202408
 30
0.0
 10
194.1056267249302
 20
-10.67447964180771
 30
0.0
 10
194.0214866486042
 20
-10.6206584819544
 30
0.0
  0
LINE
  5
1F9
330
70
100
AcDbEntity
  8
0
 62
    18
420
        0
370
    25
100
AcDbLine
 10
194.1629080048683
 20
-10.86560745556584
 30
0.0
 11
193.5291548719684
 21
-11.23146535166614
 31
0.0
  0
LINE
  5
1FA
330
70
100
AcDbEntity
  8
0
 62
    18
420
        0
370
    25
100
AcDbLine
 10
193.3877335156685
 20
-10.98651637806625
 30
0.0
 11
194.0214866485683
 21
-10.62065848196595
 31
0.0
  0
SPLINE
  5
1FB
330
70
100
AcDbEntity
  8
0
 62
    18
420
        0
370
    25
100
AcDbSpline
210
0.0
220
0.0
230
1.0
 70
     8
 71
     3
 72
     8
 73
     4
 74
     0
 42
0.0000000001
 43
0.0000000001
 40
0.0
 40
0.0
 40
0.0
 40
0.0
 40
1.0
 40
1.0
 40
1.0
 40
1.0
 10
186.4579057305932
 20
-7.312681317831478
 30
0.0
 10
187.2876113820786
 20
-8.836797018636326
 30
0.0
 10
188.1313101558404
 20
-10.35325333239303
 30
0.0
 10
188.9888951116506
 20
-11.86185804573471
 30
0.0
  0
LWPOLYLINE
  5
1FC
330
70
100
AcDbEntity
  8
0
 62
    18
420
        0
370
    25
100
AcDbPolyline
 90
        3
 70
     0
 43
0.0
 10
189.8512424044683
 20
-9.272573572765766
 10
189.8514272937685
 20
-9.268065649066205
 10
189.8515727082683
 20
-9.264523633666232
  0
LWPOLYLINE
  5
1FD
330
70
100
AcDbEntity
  8
0
 62
    18
420
        0
370
    25
100
AcDbPolyline
 90
        5
 70
     0
 43
0.0
 10
193.2462432225679
 20
-11.23150513756615
 10
192.3620272593685
 20
-10.72144207856608
 10
191.4778714105684
 20
-10.21134429346614
 10
190.6645035446682
 20
-9.741989754865718
 10
189.8512424044683
 20
-9.272573572765766
  0
LINE
  5
1FE
330
70
100
AcDbEntity
  8
0
 62
    18
420
        0
370
    25
100
AcDbLine
 10
194.1629080048683
 20
-18.7043992496658
 30
0.0
 11
194.1629080048683
 21
-10.86560745556584
 31
0.0
  0
LINE
  5
1FF
330
70
100
AcDbEntity
  8
0
 62
    18
420
        0
370
    25
100
AcDbLine
 10
193.5291548719684
 20
-19.07025714566599
 30
0.0
 11
194.1629080048683
 21
-18.7043992496658
 31
0.0
  0
LINE
  5
200
330
70
100
AcDbEntity
  8
0
 62
    18
420
        0
370
    25
100
AcDbLine
 10
194.0214866485683
 20
-10.62065848196595
 30
0.0
 11
187.2332615492684
 21
-6.70189954516617
 31
0.0
  0
LWPOLYLINE
  5
201
330
70
100
AcDbEntity
  8
0
 62
    18
420
        0
370
    25
100
AcDbPolyline
 90
        4
 70
     0
 43
0.0
 10
186.599508416368
 20
-7.067757441365935
 10
188.2096356784681
 20
-7.997884294365937
 10
189.1011718075681
 20
-8.512774131965846
 10
189.9928274814683
 20
-9.027594978566021
  0
LINE
  5
202
330
70
100
AcDbEntity
  8
0
 62
    18
420
        0
370
    25
100
AcDbLine
 10
187.2332615492684
 20
-6.70189954516617
 30
0.0
 11
186.599508416368
 21
-7.067757441365935
 31
0.0
  0
LWPOLYLINE
  5
203
330
70
100
AcDbEntity
  8
0
 62
    18
420
        0
370
    25
100
AcDbPolyline
 90
        6
 70
     0
 43
0.0
 10
189.8515727082683
 20
-9.264523633666232
 10
189.5687367297685
 20
-9.1012471484661
 10
188.4375164364683
 20
-8.448234179666204
 10
187.4478010332682
 20
-7.876924827265734
 10
186.4581609795679
 20
-7.305662812866079
 10
186.455187642568
 20
-7.303946473466047
  0
SPLINE
  5
204
330
70
100
AcDbEntity
  8
0
 62
    18
420
        0
370
    25
100
AcDbSpline
210
0.0
220
0.0
230
1.0
 70
     8
 71
     3
 72
     8
 73
     4
 74
     0
 42
0.0000000001
 43
0.0000000001
 40
0.0
 40
0.0
 40
0.0
 40
0.0
 40
1.0
 40
1.0
 40
1.0
 40
1.0
 10
186.5995084176437
 20
-7.067757442119289
 30
0.0
 10
186.5152542032022
 20
-7.117727034140757
 30
0.0
 10
186.4612096687481
 20
-7.206173941629078
 30
0.0
 10
186.4551876425712
 20
-7.303946473449363
 30
0.0
  0
SPLINE
  5
205
330
70
100
AcDbEntity
  8
0
 62
    18
420
        0
370
    25
100
AcDbSpline
210
0.0
220
0.0
230
1.0
 70
     8
 71
     3
 72
     8
 73
     4
 74
     0
 42
0.0000000001
 43
0.0000000001
 40
0.0
 40
0.0
 40
0.0
 40
0.0
 40
1.0
 40
1.0
 40
1.0
 40
1.0
 10
186.4551876425456
 20
-7.303946473456422
 30
0.0
 10
186.4553540911544
 20
-7.307038656762613
 30
0.0
 10
186.4562882485346
 20
-7.310040663801371
 30
0.0
 10
186.4579057306028
 20
-7.312681317980993
 30
0.0
  0
LWPOLYLINE
  5
206
330
70
100
AcDbEntity
  8
0
 62
    18
420
        0
370
    25
100
AcDbPolyline
 90
        5
 70
     0
 43
0.0
 10
189.8512424044683
 20
-9.272573572765766
 10
188.9674297110682
 20
-8.762277640665796
 10
188.0837406552683
 20
-8.25191035666613
 10
187.270798920868
 20
-7.782309842265849
 10
186.4579057306683
 20
-7.312681317966235
  0
LWPOLYLINE
  5
207
330
70
100
AcDbEntity
  8
0
 62
    18
420
        0
370
    25
100
AcDbPolyline
 90
        5
 70
     0
 43
0.0
 10
186.4579057306683
 20
-7.312681317966235
 10
186.4578976126685
 20
-7.312676220165966
 10
186.4550516909685
 20
-7.310889006966033
 10
186.4536287873683
 20
-7.309995369766006
 10
186.4522059218684
 20
-7.309101712165724
  0
SPLINE
  5
208
330
70
100
AcDbEntity
  8
0
 62
    18
420
        0
370
    25
100
AcDbSpline
210
0.0
220
0.0
230
1.0
 70
     8
 71
     3
 72
     8
 73
     4
 74
     0
 42
0.0000000001
 43
0.0000000001
 40
0.0
 40
0.0
 40
0.0
 40
0.0
 40
1.0
 40
1.0
 40
1.0
 40
1.0
 10
193.2494691873175
 20
-19.07886837152358
 30
0.0
 10
193.2490645419509
 20
-19.07584201437799
 30
0.0
 10
193.2479599931975
 20
-19.07295164885023
 30
0.0
 10
193.2462432225166
 20
-19.07042671838147
 30
0.0
  0
SPLINE
  5
209
330
70
100
AcDbEntity
  8
0
 62
    18
420
        0
370
    25
100
AcDbSpline
210
0.0
220
0.0
230
1.0
 70
     8
 71
     3
 72
     8
 73
     4
 74
     0
 42
0.0000000001
 43
0.0000000001
 40
0.0
 40
0.0
 40
0.0
 40
0.0
 40
1.0
 40
1.0
 40
1.0
 40
1.0
 10
186.5995084163269
 20
-7.067757441320375
 30
0.0
 10
186.5127561914254
 20
-7.11812166132435
 30
0.0
 10
186.4573375438687
 20
-7.208921027179095
 30
0.0
 10
186.4522059218857
 20
-7.309101712132355
 30
0.0
  0
SPLINE
  5
20A
330
70
100
AcDbEntity
  8
0
 62
    18
420
        0
370
    25
100
AcDbSpline
210
0.0
220
0.0
230
1.0
 70
     8
 71
     3
 72
     8
 73
     4
 74
     0
 42
0.0000000001
 43
0.0000000001
 40
0.0
 40
0.0
 40
0.0
 40
0.0
 40
1.0
 40
1.0
 40
1.0
 40
1.0
 10
193.2524487445391
 20
-19.07371438219461
 30
0.0
 10
193.2480198114296
 20
-19.10963683613758
 30
0.0
 10
193.2640854472088
 20
-19.14501324589175
 30
0.0
 10
193.2940486476389
 20
-19.16531705749798
 30
0.0
  0
LWPOLYLINE
  5
20B
330
70
100
AcDbEntity
  8
0
 62
    18
420
        0
370
    25
100
AcDbPolyline
 90
        4
 70
     0
 43
0.0
 10
193.2932923193686
 20
-19.16236196686633
 10
193.2834281672682
 20
-19.15879537316622
 10
193.259206565568
 20
-19.12660878436628
 10
193.2494691873682
 20
-19.07886837156593
  0
SPLINE
  5
20C
330
70
100
AcDbEntity
  8
0
 62
    18
420
        0
370
    25
100
AcDbSpline
210
0.0
220
0.0
230
1.0
 70
     8
 71
     3
 72
     8
 73
     4
 74
     0
 42
0.0000000001
 43
0.0000000001
 40
0.0
 40
0.0
 40
0.0
 40
0.0
 40
1.0
 40
1.0
 40
1.0
 40
1.0
 10
194.1214785218853
 20
-18.79596821088965
 30
0.0
 10
194.1514566959018
 20
-18.77570475093417
 30
0.0
 10
194.1674780698635
 20
-18.74029372316214
 30
0.0
 10
194.1629080048586
 20
-18.70439924959585
 30
0.0
  0
SPLINE
  5
20D
330
70
100
AcDbEntity
  8
0
 62
    18
420
        0
370
    25
100
AcDbSpline
210
0.0
220
0.0
230
1.0
 70
     8
 71
     3
 72
     8
 73
     4
 74
     0
 42
0.0000000001
 43
0.0000000001
 40
0.0
 40
0.0
 40
0.0
 40
0.0
 40
1.0
 40
1.0
 40
1.0
 40
1.0
 10
187.2332615492383
 20
-6.701899545242532
 30
0.0
 10
187.2040840982101
 20
-6.680996999816592
 30
0.0
 10
187.1659799826654
 20
-6.677223772223134
 30
0.0
 10
187.1332696759745
 20
-6.691997935143415
 30
0.0
  0
SPLINE
  5
20E
330
70
100
AcDbEntity
  8
0
 62
    18
420
        0
370
    25
100
AcDbSpline
210
0.0
220
0.0
230
1.0
 70
     8
 71
     3
 72
     8
 73
     4
 74
     0
 42
0.0000000001
 43
0.0000000001
 40
0.0
 40
0.0
 40
0.0
 40
0.0
 40
1.0
 40
1.0
 40
1.0
 40
1.0
 10
115.8092495979887
 20
33.38698082920781
 30
0.0
 10
115.8972544819968
 20
33.34081190629998
 30
0.0
 10
116.0017339364448
 20
33.33823135443912
 30
0.0
 10
116.0919107858608
 20
33.37999934315092
 30
0.0
  0
SPLINE
  5
20F
330
70
100
AcDbEntity
  8
0
 62
    18
420
        0
370
    25
100
AcDbSpline
210
0.0
220
0.0
230
1.0
 70
     8
 71
     3
 72
     8
 73
     4
 74
     0
 42
0.0000000001
 43
0.0000000001
 40
0.0
 40
0.0
 40
0.0
 40
0.0
 40
1.0
 40
1.0
 40
1.0
 40
1.0
 10
115.9504894296975
 20
33.62494831667445
 30
0.0
 10
115.868569698399
 20
33.57228646876937
 30
0.0
 10
115.8162383422142
 20
33.48411614740143
 30
0.0
 10
115.8092495979964
 20
33.38698082913337
 30
0.0
  0
SPLINE
  5
210
330
70
100
AcDbEntity
  8
0
 62
    18
420
        0
370
    25
100
AcDbSpline
210
0.0
220
0.0
230
1.0
 70
     8
 71
     3
 72
     8
 73
     4
 74
     0
 42
0.0000000001
 43
0.0000000001
 40
0.0
 40
0.0
 40
0.0
 40
0.0
 40
1.0
 40
1.0
 40
1.0
 40
1.0
 10
116.0919107858801
 20
33.37999934309124
 30
0.0
 10
116.0873703321846
 20
33.47977736660027
 30
0.0
 10
116.0346295060678
 20
33.57112715685772
 30
0.0
 10
115.9504894297097
 20
33.62494831668921
 30
0.0
  0
SPLINE
  5
211
330
70
100
AcDbEntity
  8
0
 62
    18
420
        0
370
    25
100
AcDbSpline
210
0.0
220
0.0
230
1.0
 70
     8
 71
     3
 72
     8
 73
     4
 74
     0
 42
0.0000000001
 43
0.0000000001
 40
0.0
 40
0.0
 40
0.0
 40
0.0
 40
1.0
 40
1.0
 40
1.0
 40
1.0
 10
115.8152045417898
 20
33.38010243042099
 30
0.0
 10
115.90214035039
 20
33.33592055075623
 30
0.0
 10
116.0049420807583
 20
33.33588225114479
 30
0.0
 10
116.0919107858499
 20
33.37999934128422
 30
0.0
  0
LINE
  5
212
330
70
100
AcDbEntity
  8
0
 62
    18
420
        0
370
    25
100
AcDbLine
 10
115.808999136468
 20
33.37995955723423
 30
0.0
 11
115.8092495979681
 21
33.38698082913402
 31
0.0
  0
SPLINE
  5
213
330
70
100
AcDbEntity
  8
0
 62
    18
420
        0
370
    25
100
AcDbSpline
210
0.0
220
0.0
230
1.0
 70
     8
 71
     3
 72
     8
 73
     4
 74
     0
 42
0.0000000001
 43
0.0000000001
 40
0.0
 40
0.0
 40
0.0
 40
0.0
 40
1.0
 40
1.0
 40
1.0
 40
1.0
 10
115.8152045417866
 20
33.38010243036901
 30
0.0
 10
115.8132637861716
 20
33.38118594568466
 30
0.0
 10
115.8108879683097
 20
33.38113124487912
 30
0.0
 10
115.8089991364655
 20
33.37995955718161
 30
0.0
  0
LWPOLYLINE
  5
214
330
70
100
AcDbEntity
  8
0
 62
    18
420
        0
370
    25
100
AcDbPolyline
 90
        4
 70
     0
 43
0.0
 10
109.1622643302681
 20
37.5437072534338
 10
111.411052051368
 20
36.24472058353396
 10
113.6605174157683
 20
34.94612525093389
 10
115.950489429668
 20
33.62494831673413
  0
LWPOLYLINE
  5
215
330
70
100
AcDbEntity
  8
0
 62
    18
420
        0
370
    25
100
AcDbPolyline
 90
        7
 70
     0
 43
0.0
 10
115.8092495979681
 20
33.38698082913402
 10
115.5263057318684
 20
33.55033363863393
 10
114.3945773781685
 20
34.20371750743416
 10
112.1315457954684
 20
35.51018692203371
 10
111.2697651477683
 20
36.00766463073419
 10
109.0209168929681
 20
37.30580188153388
 10
109.0179435565682
 20
37.30751822093391
  0
SPLINE
  5
216
330
70
100
AcDbEntity
  8
0
 62
    18
420
        0
370
    25
100
AcDbSpline
210
0.0
220
0.0
230
1.0
 70
     8
 71
     3
 72
     8
 73
     4
 74
     0
 42
0.0000000001
 43
0.0000000001
 40
0.0
 40
0.0
 40
0.0
 40
0.0
 40
1.0
 40
1.0
 40
1.0
 40
1.0
 10
109.1622643302366
 20
37.54370725339209
 30
0.0
 10
109.0780101232465
 20
37.4937376534989
 30
0.0
 10
109.023965591888
 20
37.40529074981393
 30
0.0
 10
109.0179435565502
 20
37.30751822095509
 30
0.0
  0
LWPOLYLINE
  5
217
330
70
100
AcDbEntity
  8
0
 62
    18
420
        0
370
    25
100
AcDbPolyline
 90
        5
 70
     0
 43
0.0
 10
113.1391217993682
 20
31.83818471873389
 10
113.2553338946685
 20
31.90529423423407
 10
113.8212168883685
 20
32.23207589533369
 10
114.409093840268
 20
32.57155770473386
 10
115.808999136468
 20
33.37995955723423
  0
SPLINE
  5
218
330
70
100
AcDbEntity
  8
0
 62
    18
420
        0
370
    25
100
AcDbSpline
210
0.0
220
0.0
230
1.0
 70
     8
 71
     3
 72
     8
 73
     4
 74
     0
 42
0.0000000001
 43
0.0000000001
 40
0.0
 40
0.0
 40
0.0
 40
0.0
 40
1.0
 40
1.0
 40
1.0
 40
1.0
 10
109.0206616445568
 20
37.29878337680655
 30
0.0
 10
109.8475606284431
 20
35.77427257101157
 30
0.0
 10
110.6904973424469
 20
34.25851542130636
 30
0.0
 10
111.5493314636359
 20
32.75176425445163
 30
0.0
  0
SPLINE
  5
219
330
70
100
AcDbEntity
  8
0
 62
    18
420
        0
370
    25
100
AcDbSpline
210
0.0
220
0.0
230
1.0
 70
     8
 71
     3
 72
     8
 73
     4
 74
     0
 42
0.0000000001
 43
0.0000000001
 40
0.0
 40
0.0
 40
0.0
 40
0.0
 40
1.0
 40
1.0
 40
1.0
 40
1.0
 10
109.0179435566054
 20
37.30751822100129
 30
0.0
 10
109.0181150853518
 20
37.30442695249291
 30
0.0
 10
109.0190488647372
 20
37.30142616024048
 30
0.0
 10
109.0206616446101
 20
37.29878337682516
 30
0.0
  0
SPLINE
  5
21A
330
70
100
AcDbEntity
  8
0
 62
    18
420
        0
370
    25
100
AcDbSpline
210
0.0
220
0.0
230
1.0
 70
     8
 71
     3
 72
     8
 73
     4
 74
     0
 42
0.0000000001
 43
0.0000000001
 40
0.0
 40
0.0
 40
0.0
 40
0.0
 40
1.0
 40
1.0
 40
1.0
 40
1.0
 10
116.725663918742
 20
33.74585723918641
 30
0.0
 10
116.7211234649567
 20
33.84563526267619
 30
0.0
 10
116.6683826388303
 20
33.93698505289257
 30
0.0
 10
116.5842425625043
 20
33.99080621274587
 30
0.0
  0
LINE
  5
21B
330
70
100
AcDbEntity
  8
0
 62
    18
420
        0
370
    25
100
AcDbLine
 10
116.7256639187683
 20
33.74585723923389
 30
0.0
 11
116.0919107858685
 21
33.37999934313424
 31
0.0
  0
LINE
  5
21C
330
70
100
AcDbEntity
  8
0
 62
    18
420
        0
370
    25
100
AcDbLine
 10
115.950489429668
 20
33.62494831673413
 30
0.0
 11
116.5842425625685
 21
33.99080621283378
 31
0.0
  0
LINE
  5
21D
330
70
100
AcDbEntity
  8
0
 62
    18
420
        0
370
    25
100
AcDbLine
 10
116.7256639187683
 20
28.03045638623432
 30
0.0
 11
116.7256639187683
 21
33.74585723923389
 31
0.0
  0
LINE
  5
21E
330
70
100
AcDbEntity
  8
0
 62
    18
420
        0
370
    25
100
AcDbLine
 10
116.5842425625685
 20
33.99080621283378
 30
0.0
 11
109.7960174631685
 21
37.90956514953411
 31
0.0
  0
LINE
  5
21F
330
70
100
AcDbEntity
  8
0
 62
    18
420
        0
370
    25
100
AcDbLine
 10
109.7960174631685
 20
37.90956514953411
 30
0.0
 11
109.1622643302681
 21
37.5437072534338
 31
0.0
  0
LINE
  5
220
330
70
100
AcDbEntity
  8
0
 62
    18
420
        0
370
    25
100
AcDbLine
 10
109.0206616445684
 20
37.29878337683415
 30
0.0
 11
109.0149618358679
 21
37.30236298263401
 31
0.0
  0
SPLINE
  5
221
330
70
100
AcDbEntity
  8
0
 62
    18
420
        0
370
    25
100
AcDbSpline
210
0.0
220
0.0
230
1.0
 70
     8
 71
     3
 72
     8
 73
     4
 74
     0
 42
0.0000000001
 43
0.0000000001
 40
0.0
 40
0.0
 40
0.0
 40
0.0
 40
1.0
 40
1.0
 40
1.0
 40
1.0
 10
109.1622643302969
 20
37.54370725338439
 30
0.0
 10
109.0755121054044
 20
37.49334303337656
 30
0.0
 10
109.0200934578528
 20
37.40254366752695
 30
0.0
 10
109.0149618358666
 20
37.30236298257947
 30
0.0
  0
SPLINE
  5
222
330
70
100
AcDbEntity
  8
0
 62
    18
420
        0
370
    25
100
AcDbSpline
210
0.0
220
0.0
230
1.0
 70
     8
 71
     3
 72
     8
 73
     4
 74
     0
 42
0.0000000001
 43
0.0000000001
 40
0.0
 40
0.0
 40
0.0
 40
0.0
 40
1.0
 40
1.0
 40
1.0
 40
1.0
 10
109.7960174631384
 20
37.90956514955784
 30
0.0
 10
109.7668400121102
 20
37.93046769498378
 30
0.0
 10
109.7287358965655
 20
37.9342409225766
 30
0.0
 10
109.6960255898746
 20
37.91946675965697
 30
0.0
  0
SPLINE
  5
223
330
70
100
AcDbEntity
  8
0
 62
    18
420
        0
370
    25
100
AcDbSpline
210
0.0
220
0.0
230
1.0
 70
     8
 71
     3
 72
     8
 73
     4
 74
     0
 42
0.0000000001
 43
0.0000000001
 40
0.0
 40
0.0
 40
0.0
 40
0.0
 40
1.0
 40
1.0
 40
1.0
 40
1.0
 10
179.799588800653
 20
-22.98104875061576
 30
0.0
 10
179.8408530581581
 20
-23.01061596681446
 30
0.0
 10
179.8947452063508
 20
-23.0159567799513
 30
0.0
 10
179.9410101568908
 20
-22.99506387271787
 30
0.0
  0
LINE
  5
224
330
70
100
AcDbEntity
  8
0
 62
    18
420
        0
370
    25
100
AcDbLine
 10
179.9410101568683
 20
-22.995063872766
 30
0.0
 11
179.9410101568683
 21
-23.81160468456632
 31
0.0
  0
LWPOLYLINE
  5
225
330
70
100
AcDbEntity
  8
0
 62
    18
420
        0
370
    25
100
AcDbPolyline
 90
        5
 70
     0
 43
0.0
 10
179.9410101568683
 20
-23.81160468456632
 10
179.9107028472682
 20
-23.82910123196598
 10
179.876125487068
 20
-23.84906382736625
 10
179.8386068650679
 20
-23.87072531946605
 10
179.7995888006685
 20
-23.89325326916607
  0
LWPOLYLINE
  5
226
330
70
100
AcDbEntity
  8
0
 62
    18
420
        0
370
    25
100
AcDbPolyline
 90
        5
 70
     0
 43
0.0
 10
179.7995888006685
 20
-23.89325326916607
 10
179.7605707362684
 20
-23.87072531946605
 10
179.7230521141682
 20
-23.84906382736625
 10
179.6884747540681
 20
-23.82910123196598
 10
179.6581674443685
 20
-23.81160468456632
  0
LINE
  5
227
330
70
100
AcDbEntity
  8
0
 62
    18
420
        0
370
    25
100
AcDbLine
 10
179.6581674443685
 20
-23.81160468456632
 30
0.0
 11
179.6581674443685
 21
-22.995063872766
 31
0.0
  0
SPLINE
  5
228
330
70
100
AcDbEntity
  8
0
 62
    18
420
        0
370
    25
100
AcDbSpline
210
0.0
220
0.0
230
1.0
 70
     8
 71
     3
 72
     8
 73
     4
 74
     0
 42
0.0000000001
 43
0.0000000001
 40
0.0
 40
0.0
 40
0.0
 40
0.0
 40
1.0
 40
1.0
 40
1.0
 40
1.0
 10
179.658167444346
 20
-22.99506387271787
 30
0.0
 10
179.7044323948861
 20
-23.0159567799513
 30
0.0
 10
179.7583245430787
 20
-23.01061596681446
 30
0.0
 10
179.7995888005831
 20
-22.98104875061576
 30
0.0
  0
LINE
  5
229
330
70
100
AcDbEntity
  8
0
 62
    18
420
        0
370
    25
100
AcDbLine
 10
179.7995888006685
 20
-22.91340979156608
 30
0.0
 11
192.3860895057684
 21
-15.64737759626604
 31
0.0
  0
LINE
  5
22A
330
70
100
AcDbEntity
  8
0
 62
    18
420
        0
370
    25
100
AcDbLine
 10
192.3860895057684
 20
-15.64737759626604
 30
0.0
 11
192.4446681494684
 21
-15.68119982416573
 31
0.0
  0
SPLINE
  5
22B
330
70
100
AcDbEntity
  8
0
 62
    18
420
        0
370
    25
100
AcDbSpline
210
0.0
220
0.0
230
1.0
 70
     8
 71
     3
 72
     8
 73
     4
 74
     0
 42
0.0000000001
 43
0.0000000001
 40
0.0
 40
0.0
 40
0.0
 40
0.0
 40
1.0
 40
1.0
 40
1.0
 40
1.0
 10
192.3860895057639
 20
-15.81067248867755
 30
0.0
 10
192.4273175076255
 20
-15.78105761222769
 30
0.0
 10
192.4496408445512
 20
-15.73171775512191
 30
0.0
 10
192.4446681495268
 20
-15.68119982415803
 30
0.0
  0
LINE
  5
22C
330
70
100
AcDbEntity
  8
0
 62
    18
420
        0
370
    25
100
AcDbLine
 10
192.3860895057684
 20
-15.810672488666
 30
0.0
 11
179.9410101568683
 21
-22.995063872766
 31
0.0
  0
LINE
  5
22D
330
70
100
AcDbEntity
  8
0
 62
    18
420
        0
370
    25
100
AcDbLine
 10
179.7995888006685
 20
-22.91340979156608
 30
0.0
 11
179.7995888006685
 21
-22.98104875066581
 31
0.0
  0
LINE
  5
22E
330
70
100
AcDbEntity
  8
0
 62
    18
420
        0
370
    25
100
AcDbLine
 10
95.08819641446811
 20
25.98943610663374
 30
0.0
 11
179.7995888006685
 21
-22.91340979156608
 31
0.0
  0
LINE
  5
22F
330
70
100
AcDbEntity
  8
0
 62
    18
420
        0
370
    25
100
AcDbLine
 10
179.6581674443685
 20
-22.995063872766
 30
0.0
 11
95.08819641446811
 21
25.82614121423377
 31
0.0
  0
SPLINE
  5
230
330
70
100
AcDbEntity
  8
0
 62
    18
420
        0
370
    25
100
AcDbSpline
210
0.0
220
0.0
230
1.0
 70
     8
 71
     3
 72
     8
 73
     4
 74
     0
 42
0.0000000001
 43
0.0000000001
 40
0.0
 40
0.0
 40
0.0
 40
0.0
 40
1.0
 40
1.0
 40
1.0
 40
1.0
 10
95.02961777070968
 20
25.95561387884186
 30
0.0
 10
95.02464507568527
 20
25.90509594787797
 30
0.0
 10
95.04696841261099
 20
25.8557560907722
 30
0.0
 10
95.0881964144726
 20
25.82614121432233
 30
0.0
  0
LINE
  5
231
330
70
100
AcDbEntity
  8
0
 62
    18
420
        0
370
    25
100
AcDbLine
 10
95.02961777066829
 20
25.95561387883416
 30
0.0
 11
95.08819641446811
 21
25.98943610663374
 31
0.0
  0
LINE
  5
232
330
70
100
AcDbEntity
  8
0
 62
    18
420
        0
370
    25
100
AcDbLine
 10
107.674697119568
 20
33.25546830183431
 30
0.0
 11
95.08819641446811
 21
25.98943610663374
 31
0.0
  0
LINE
  5
233
330
70
100
AcDbEntity
  8
0
 62
    18
420
        0
370
    25
100
AcDbLine
 10
192.3860895057684
 20
-15.64737759626604
 30
0.0
 11
189.4060644413683
 21
-13.92704574496601
 31
0.0
  0
LINE
  5
234
330
70
100
AcDbEntity
  8
0
 62
    18
420
        0
370
    25
100
AcDbLine
 10
187.3919158781684
 20
-12.76430252906599
 30
0.0
 11
112.0485940729684
 21
30.73047133673403
 31
0.0
  0
LINE
  5
235
330
70
100
AcDbEntity
  8
0
 62
    18
420
        0
370
    25
100
AcDbLine
 10
110.0344455097679
 20
31.89321455263405
 30
0.0
 11
107.674697119568
 21
33.25546830183431
 31
0.0
  0
LINE
  5
236
330
70
100
AcDbEntity
  8
0
 62
    18
420
        0
370
    25
100
AcDbLine
 10
192.3860895057684
 20
-16.62721330056579
 30
0.0
 11
192.3860895057684
 21
-15.810672488666
 31
0.0
  0
LINE
  5
237
330
70
100
AcDbEntity
  8
0
 62
    18
420
        0
370
    25
100
AcDbLine
 10
179.9410101568683
 20
-23.81160468456632
 30
0.0
 11
192.3860895057684
 21
-16.62721330056579
 31
0.0
  0
LINE
  5
238
330
70
100
AcDbEntity
  8
0
 62
    18
420
        0
370
    25
100
AcDbLine
 10
95.08819641446811
 20
25.0096004024341
 30
0.0
 11
179.6581674443685
 21
-23.81160468456632
 31
0.0
  0
LINE
  5
239
330
70
100
AcDbEntity
  8
0
 62
    18
420
        0
370
    25
100
AcDbLine
 10
95.08819641446811
 20
25.82614121423377
 30
0.0
 11
95.08819641446811
 21
25.0096004024341
 31
0.0
  0
LINE
  5
23A
330
70
100
AcDbEntity
  8
0
 62
    18
420
        0
370
    25
100
AcDbLine
 10
192.4446681494684
 20
-16.59340434276609
 30
0.0
 11
192.3860895057684
 21
-16.62721330056579
 31
0.0
  0
LINE
  5
23B
330
70
100
AcDbEntity
  8
0
 62
    18
420
        0
370
    25
100
AcDbLine
 10
192.3860895057684
 20
-16.62722657056631
 30
0.0
 11
192.4446681494684
 21
-16.59340434276609
 31
0.0
  0
LINE
  5
23C
330
70
100
AcDbEntity
  8
0
 62
    18
420
        0
370
    25
100
AcDbLine
 10
192.3860895057684
 20
-16.62722657056631
 30
0.0
 11
179.7995888006685
 21
-23.89325876576624
 31
0.0
  0
LINE
  5
23D
330
70
100
AcDbEntity
  8
0
 62
    18
420
        0
370
    25
100
AcDbLine
 10
179.7995888006685
 20
-23.89325876576624
 30
0.0
 11
179.7995888006685
 21
-23.89325326916607
 31
0.0
  0
LINE
  5
23E
330
70
100
AcDbEntity
  8
0
 62
    18
420
        0
370
    25
100
AcDbLine
 10
179.7995888006685
 20
-23.89325876576624
 30
0.0
 11
95.08819641446811
 21
25.00958713243421
 31
0.0
  0
LINE
  5
23F
330
70
100
AcDbEntity
  8
0
 62
    18
420
        0
370
    25
100
AcDbLine
 10
95.02961777066829
 20
25.0434093602338
 30
0.0
 11
95.08819641446811
 21
25.00958713243421
 31
0.0
  0
LWPOLYLINE
  5
240
330
70
100
AcDbEntity
  8
0
 62
    18
420
        0
370
    25
100
AcDbPolyline
 90
        5
 70
     0
 43
0.0
 10
95.08819641446811
 20
25.0096004024341
 10
95.0633238482681
 20
25.02395851923416
 10
95.04484186416839
 20
25.03462643133414
 10
95.03346071466824
 20
25.04119417653419
 10
95.02961777066829
 20
25.0434093602338
  0
SPLINE
  5
241
330
70
100
AcDbEntity
  8
0
 62
    18
420
        0
370
    25
100
AcDbSpline
210
0.0
220
0.0
230
1.0
 70
     8
 71
     3
 72
     8
 73
     4
 74
     0
 42
0.0000000001
 43
0.0000000001
 40
0.0
 40
0.0
 40
0.0
 40
0.0
 40
1.0
 40
1.0
 40
1.0
 40
1.0
 10
189.7131290479252
 20
-14.10431036909316
 30
0.0
 10
189.6880655390873
 20
-14.00243376824279
 30
0.0
 10
189.656361253353
 20
-13.90230674334008
 30
0.0
 10
189.6182194625354
 20
-13.80457125812917
 30
0.0
  0
LINE
  5
242
330
70
100
AcDbEntity
  8
0
 62
    18
420
        0
370
    25
100
AcDbLine
 10
187.410818702768
 20
-15.07887659246587
 30
0.0
 11
189.6182194625681
 21
-13.80457125816574
 31
0.0
  0
LINE
  5
243
330
70
100
AcDbEntity
  8
0
 62
    18
420
        0
370
    25
100
AcDbLine
 10
185.631087819568
 20
-13.78080693036614
 30
0.0
 11
185.7303746147684
 21
-13.73622357146572
 31
0.0
  0
LWPOLYLINE
  5
244
330
70
100
AcDbEntity
  8
0
 62
    18
420
        0
370
    25
100
AcDbPolyline
 90
       12
 70
     0
 43
0.0
 10
190.901165265268
 20
-13.89217977596598
 10
190.8727994359684
 20
-13.58508865266579
 10
190.7891243291682
 20
-13.26064587126585
 10
190.654335764168
 20
-12.93512034756595
 10
190.4751926023686
 20
-12.62483529046602
 10
190.2606778300686
 20
-12.34534968846623
 10
190.0215481135682
 20
-12.11067811656634
 10
189.7697944153682
 20
-11.9325879874659
 10
189.5180407171682
 20
-11.8200094837662
 10
189.2789110006684
 20
-11.77858776166601
 10
189.0643962283684
 20
-11.81039987946629
 10
188.969859429268
 20
-11.8533751066659
  0
SPLINE
  5
245
330
70
100
AcDbEntity
  8
0
 62
    18
420
        0
370
    25
100
AcDbSpline
210
0.0
220
0.0
230
1.0
 70
     8
 71
     3
 72
     8
 73
     4
 74
     0
 42
0.0000000001
 43
0.0000000001
 40
0.0
 40
0.0
 40
0.0
 40
0.0
 40
1.0
 40
1.0
 40
1.0
 40
1.0
 10
187.2790318726414
 20
-15.08216448444408
 30
0.0
 10
187.3213858936568
 20
-15.10009079931442
 30
0.0
 10
187.3694112890406
 20
-15.09889263474236
 30
0.0
 10
187.4108187027923
 20
-15.07887659249154
 30
0.0
  0
LWPOLYLINE
  5
246
330
70
100
AcDbEntity
  8
0
 62
    18
420
        0
370
    25
100
AcDbPolyline
 90
       10
 70
     0
 43
0.0
 10
187.2790318725682
 20
-15.0821644843658
 10
187.128803502168
 20
-14.77464904556622
 10
186.939519548068
 20
-14.48912025386586
 10
186.720824347968
 20
-14.24012628446574
 10
186.4838607924683
 20
-14.0403538014661
 10
186.2407025756684
 20
-13.89998155076584
 10
186.0037390201681
 20
-13.82616173616584
 10
185.7850438200681
 20
-13.82265560226604
 10
185.5957598659682
 20
-13.88964179226585
 10
185.4455314954684
 20
-14.02370724656576
  0
SPLINE
  5
247
330
70
100
AcDbEntity
  8
0
 62
    18
420
        0
370
    25
100
AcDbSpline
210
0.0
220
0.0
230
1.0
 70
     8
 71
     3
 72
    11
 73
     7
 74
     0
 42
0.0000000001
 43
0.0000000001
 40
0.0
 40
0.0
 40
0.0
 40
0.0
 40
1.0
 40
1.0
 40
1.0
 40
2.0
 40
2.0
 40
2.0
 40
2.0
 10
185.4512269085555
 20
-13.94762832892018
 30
0.0
 10
185.4293662185361
 20
-13.95743756755592
 30
0.0
 10
185.419596586887
 20
-13.98311111735933
 30
0.0
 10
185.4294058255227
 20
-14.00497180737866
 30
0.0
 10
185.4328505054245
 20
-14.01264855807833
 30
0.0
 10
185.43845318732
 20
-14.0191579747993
 30
0.0
 10
185.4455314955352
 20
-14.02370724658116
 30
0.0
  0
SPLINE
  5
248
330
70
100
AcDbEntity
  8
0
 62
    18
420
        0
370
    25
100
AcDbSpline
210
0.0
220
0.0
230
1.0
 70
     8
 71
     3
 72
     8
 73
     4
 74
     0
 42
0.0000000001
 43
0.0000000001
 40
0.0
 40
0.0
 40
0.0
 40
0.0
 40
1.0
 40
1.0
 40
1.0
 40
1.0
 10
185.4455314955089
 20
-14.02370724661453
 30
0.0
 10
185.9897492115184
 20
-14.48153069461353
 30
0.0
 10
186.6104135352451
 20
-14.83983258203097
 30
0.0
 10
187.2790318725978
 20
-15.082164484412
 30
0.0
  0
SPLINE
  5
249
330
70
100
AcDbEntity
  8
0
 62
    18
420
        0
370
    25
100
AcDbSpline
210
0.0
220
0.0
230
1.0
 70
     8
 71
     3
 72
     8
 73
     4
 74
     0
 42
0.0000000001
 43
0.0000000001
 40
0.0
 40
0.0
 40
0.0
 40
0.0
 40
1.0
 40
1.0
 40
1.0
 40
1.0
 10
190.5915631569508
 20
-14.61141958613412
 30
0.0
 10
190.8136956703085
 20
-14.44251095639539
 30
0.0
 10
190.9311636052518
 20
-14.16962000060887
 30
0.0
 10
190.9011652652116
 20
-13.89217977590117
 30
0.0
  0
SPLINE
  5
24A
330
70
100
AcDbEntity
  8
0
 62
    18
420
        0
370
    25
100
AcDbSpline
210
0.0
220
0.0
230
1.0
 70
     8
 71
     3
 72
     8
 73
     4
 74
     0
 42
0.0000000001
 43
0.0000000001
 40
0.0
 40
0.0
 40
0.0
 40
0.0
 40
1.0
 40
1.0
 40
1.0
 40
1.0
 10
112.2590352250516
 20
30.60898624553282
 30
0.0
 10
112.2389914100291
 20
30.67766651632514
 30
0.0
 10
112.2159668401847
 20
30.74544153948089
 30
0.0
 10
112.1900269226238
 20
30.81211878292823
 30
0.0
  0
LINE
  5
24B
330
70
100
AcDbEntity
  8
0
 62
    18
420
        0
370
    25
100
AcDbLine
 10
109.9826261628679
 20
29.53781344863388
 30
0.0
 11
112.1900269226681
 21
30.81211878293401
 31
0.0
  0
LINE
  5
24C
330
70
100
AcDbEntity
  8
0
 62
    18
420
        0
370
    25
100
AcDbLine
 10
108.2028952795685
 20
30.83588311073425
 30
0.0
 11
108.3021820747682
 21
30.88046646963404
 31
0.0
  0
LWPOLYLINE
  5
24D
330
70
100
AcDbEntity
  8
0
 62
    18
420
        0
370
    25
100
AcDbPolyline
 90
       12
 70
     0
 43
0.0
 10
113.472972725368
 20
30.72451026513377
 10
113.4446068960684
 20
31.03160138843396
 10
113.3609317892682
 20
31.35604416983391
 10
113.226143224268
 20
31.6815696935338
 10
113.0470000624685
 20
31.99185475063373
 10
112.8324852900684
 20
32.27134035263417
 10
112.593355573568
 20
32.50601192453406
 10
112.3416018754681
 20
32.68410205363385
 10
112.0898481772681
 20
32.7966805573342
 10
111.8507184607683
 20
32.83810227943374
 10
111.6362036883683
 20
32.8062901616341
 10
111.541666889368
 20
32.76331493443385
  0
SPLINE
  5
24E
330
70
100
AcDbEntity
  8
0
 62
    18
420
        0
370
    25
100
AcDbSpline
210
0.0
220
0.0
230
1.0
 70
     8
 71
     3
 72
     8
 73
     4
 74
     0
 42
0.0000000001
 43
0.0000000001
 40
0.0
 40
0.0
 40
0.0
 40
0.0
 40
1.0
 40
1.0
 40
1.0
 40
1.0
 10
109.8508393326419
 20
29.53452555665631
 30
0.0
 10
109.8931933536566
 20
29.51659924178598
 30
0.0
 10
109.9412187490405
 20
29.51779740635804
 30
0.0
 10
109.9826261627922
 20
29.53781344860821
 30
0.0
  0
LWPOLYLINE
  5
24F
330
70
100
AcDbEntity
  8
0
 62
    18
420
        0
370
    25
100
AcDbPolyline
 90
       10
 70
     0
 43
0.0
 10
109.8508393326682
 20
29.53452555673396
 10
109.7006109622679
 20
29.84204099553418
 10
109.5113270081679
 20
30.12756978723389
 10
109.2926318080679
 20
30.37656375663401
 10
109.0556682525683
 20
30.57633623963365
 10
108.8125100357684
 20
30.71670849033391
 10
108.575546480168
 20
30.79052830493391
 10
108.3568512801681
 20
30.79403443893382
 10
108.167567325968
 20
30.7270482488339
 10
108.0173389555684
 20
30.59298279453399
  0
LWPOLYLINE
  5
250
330
70
100
AcDbEntity
  8
0
 62
    18
420
        0
370
    25
100
AcDbPolyline
 90
        5
 70
     0
 43
0.0
 10
108.0173389555684
 20
30.59298279453399
 10
107.999761670168
 20
30.61620924463393
 10
107.997233193868
 20
30.63689481013377
 10
108.0079815954682
 20
30.65739279753418
 10
108.0230343685681
 20
30.66906171213402
  0
SPLINE
  5
251
330
70
100
AcDbEntity
  8
0
 62
    18
420
        0
370
    25
100
AcDbSpline
210
0.0
220
0.0
230
1.0
 70
     8
 71
     3
 72
     8
 73
     4
 74
     0
 42
0.0000000001
 43
0.0000000001
 40
0.0
 40
0.0
 40
0.0
 40
0.0
 40
1.0
 40
1.0
 40
1.0
 40
1.0
 10
108.0173389556088
 20
30.59298279448522
 30
0.0
 10
108.5615566716177
 20
30.13515934648622
 30
0.0
 10
109.1822209953451
 20
29.77685745906878
 30
0.0
 10
109.8508393326977
 20
29.53452555668775
 30
0.0
  0
SPLINE
  5
252
330
70
100
AcDbEntity
  8
0
 62
    18
420
        0
370
    25
100
AcDbSpline
210
0.0
220
0.0
230
1.0
 70
     8
 71
     3
 72
     8
 73
     4
 74
     0
 42
0.0000000001
 43
0.0000000001
 40
0.0
 40
0.0
 40
0.0
 40
0.0
 40
1.0
 40
1.0
 40
1.0
 40
1.0
 10
113.2249343367445
 20
30.05138455727426
 30
0.0
 10
113.4056845253783
 20
30.22635910914843
 30
0.0
 10
113.4969698472326
 20
30.47408889502703
 30
0.0
 10
113.4729727253372
 20
30.72451026519216
 30
0.0
  0
LWPOLYLINE
  5
253
330
70
100
AcDbEntity
  8
0
 62
     8
420
  8421504
370
    25
100
AcDbPolyline
 90
        5
 70
     0
 43
0.0
 10
186.4522059218684
 20
-7.309101712165724
 10
186.4519924723683
 20
-7.635711604666014
 10
186.4512331080683
 20
-8.942151296966029
 10
186.4506108991684
 20
-11.55505739316578
 10
186.4507526113682
 20
-12.22098054006618
  0
LWPOLYLINE
  5
254
330
70
100
AcDbEntity
  8
0
 62
     8
420
  8421504
370
    25
100
AcDbPolyline
 90
        4
 70
     0
 43
0.0
 10
190.6929050014681
 20
-17.60468117916623
 10
190.9963445533683
 20
-17.77976701186584
 10
193.246493687068
 20
-19.07715328126581
 10
193.2494691873682
 20
-19.07886837156593
  0
SPLINE
  5
255
330
70
100
AcDbEntity
  8
0
 62
     8
420
  8421504
370
    25
100
AcDbSpline
210
0.0
220
0.0
230
1.0
 70
     8
 71
     3
 72
     8
 73
     4
 74
     0
 42
0.0000000001
 43
0.0000000001
 40
0.0
 40
0.0
 40
0.0
 40
0.0
 40
1.0
 40
1.0
 40
1.0
 40
1.0
 10
193.48772538899
 20
-19.1618261070015
 30
0.0
 10
193.5177035630398
 20
-19.14156264707426
 30
0.0
 10
193.5337249370118
 20
-19.1061516192804
 30
0.0
 10
193.5291548719633
 20
-19.07025714570771
 30
0.0
  0
SPLINE
  5
256
330
70
100
AcDbEntity
  8
0
 62
     8
420
  8421504
370
    25
100
AcDbSpline
210
0.0
220
0.0
230
1.0
 70
     8
 71
     3
 72
     8
 73
     4
 74
     0
 42
0.0000000001
 43
0.0000000001
 40
0.0
 40
0.0
 40
0.0
 40
0.0
 40
1.0
 40
1.0
 40
1.0
 40
1.0
 10
186.3995084272704
 20
-7.230999667505665
 30
0.0
 10
186.4023649638282
 20
-7.26440242334444
 30
0.0
 10
186.4223009687848
 20
-7.293949231196513
 30
0.0
 10
186.4522059219043
 20
-7.309101712104762
 30
0.0
  0
SPLINE
  5
257
330
70
100
AcDbEntity
  8
0
 62
     8
420
  8421504
370
    25
100
AcDbSpline
210
0.0
220
0.0
230
1.0
 70
     8
 71
     3
 72
     8
 73
     4
 74
     0
 42
0.0000000001
 43
0.0000000001
 40
0.0
 40
0.0
 40
0.0
 40
0.0
 40
1.0
 40
1.0
 40
1.0
 40
1.0
 10
186.599508416316
 20
-7.067757441331283
 30
0.0
 10
186.570330965325
 20
-7.04685489586684
 30
0.0
 10
186.532226849781
 20
-7.043081668259266
 30
0.0
 10
186.499516543108
 20
-7.057855831200081
 30
0.0
  0
LWPOLYLINE
  5
258
330
70
100
AcDbEntity
  8
0
 62
     8
420
  8421504
370
    25
100
AcDbPolyline
 90
        5
 70
     0
 43
0.0
 10
115.8152823471682
 20
28.55600848083372
 10
115.815302287568
 20
29.78284156673409
 10
115.8152870019683
 20
30.77822978403413
 10
115.8152046551684
 20
33.3766663672341
 10
115.8152045418681
 20
33.38010243043382
  0
LWPOLYLINE
  5
259
330
70
100
AcDbEntity
  8
0
 62
     8
420
  8421504
370
    25
100
AcDbPolyline
 90
        3
 70
     0
 43
0.0
 10
116.0919107858685
 20
33.37999934313424
 10
116.0912272866685
 20
30.78199842923421
 10
116.0912220223685
 20
28.39671189703408
  0
LWPOLYLINE
  5
25A
330
70
100
AcDbEntity
  8
0
 62
     8
420
  8421504
370
    25
100
AcDbPolyline
 90
        5
 70
     0
 43
0.0
 10
109.0149618358679
 20
37.30236298263401
 10
109.0147483863684
 20
36.97575309003426
 10
109.0139890219684
 20
35.66931339773424
 10
109.0133668130685
 20
33.05640730163395
 10
109.0134889224683
 20
32.48260024503404
  0
SPLINE
  5
25B
330
70
100
AcDbEntity
  8
0
 62
     8
420
  8421504
370
    25
100
AcDbSpline
210
0.0
220
0.0
230
1.0
 70
     8
 71
     3
 72
     8
 73
     4
 74
     0
 42
0.0000000001
 43
0.0000000001
 40
0.0
 40
0.0
 40
0.0
 40
0.0
 40
1.0
 40
1.0
 40
1.0
 40
1.0
 10
108.9622643411705
 20
37.38046502719461
 30
0.0
 10
108.9651208777277
 20
37.34706227135519
 30
0.0
 10
108.9850568826842
 20
37.31751546350312
 30
0.0
 10
109.0149618358044
 20
37.30236298259551
 30
0.0
  0
SPLINE
  5
25C
330
70
100
AcDbEntity
  8
0
 62
     8
420
  8421504
370
    25
100
AcDbSpline
210
0.0
220
0.0
230
1.0
 70
     8
 71
     3
 72
     8
 73
     4
 74
     0
 42
0.0000000001
 43
0.0000000001
 40
0.0
 40
0.0
 40
0.0
 40
0.0
 40
1.0
 40
1.0
 40
1.0
 40
1.0
 10
109.1622643302116
 20
37.5437072534107
 30
0.0
 10
109.1330868792283
 20
37.56460979888348
 30
0.0
 10
109.0949827636843
 20
37.56838302649363
 30
0.0
 10
109.0622724570152
 20
37.55360886354832
 30
0.0
  0
LINE
  5
25D
330
70
100
AcDbEntity
  8
0
 62
     8
420
  8421504
370
    25
100
AcDbLine
 10
190.1234167663682
 20
-14.34116442736601
 30
0.0
 11
190.901165265268
 21
-13.89217977596598
 31
0.0
  0
LWPOLYLINE
  5
25E
330
70
100
AcDbEntity
  8
0
 62
     8
420
  8421504
370
    25
100
AcDbPolyline
 90
        9
 70
     0
 43
0.0
 10
185.7303746147684
 20
-13.73622357146572
 10
185.8093243660681
 20
-13.71605040706632
 10
186.0440711853684
 20
-13.71542689386622
 10
186.299678666768
 20
-13.79303030476623
 10
186.5623669445683
 20
-13.94467701966632
 10
186.8179744258684
 20
-14.16219172496574
 10
187.0527212451681
 20
-14.43384814666599
 10
187.2539521406681
 20
-14.74500121666621
 10
187.410818702768
 20
-15.07887659246587
  0
LINE
  5
25F
330
70
100
AcDbEntity
  8
0
 62
     8
420
  8421504
370
    25
100
AcDbLine
 10
112.7659463979684
 20
30.31635265433402
 30
0.0
 11
113.472972725368
 21
30.72451026513377
 31
0.0
  0
LWPOLYLINE
  5
260
330
70
100
AcDbEntity
  8
0
 62
     8
420
  8421504
370
    25
100
AcDbPolyline
 90
        9
 70
     0
 43
0.0
 10
108.3021820747682
 20
30.88046646963404
 10
108.381131826168
 20
30.90063963403407
 10
108.6158786454683
 20
30.90126314723417
 10
108.8714861267685
 20
30.82365973643427
 10
109.1341744046682
 20
30.67201302143407
 10
109.3897818859683
 20
30.45449831613401
 10
109.624528705268
 20
30.18284189443376
 10
109.825759600768
 20
29.87168882443418
 10
109.9826261628679
 20
29.53781344863388
  0
INSERT
  5
263
330
70
100
AcDbEntity
  8
CAPA_BASE
100
AcDbBlockReference
  2
Block_0
 10
0.0
 20
0.0
 30
0.0
  0
INSERT
  5
26F
330
70
100
AcDbEntity
  8
CAPA_BASE
100
AcDbBlockReference
  2
Block_1
 10
0.0
 20
0.0
 30
0.0
  0
INSERT
  5
27B
330
70
100
AcDbEntity
  8
CAPA_BASE
100
AcDbBlockReference
  2
Block_2
 10
0.0
 20
0.0
 30
0.0
  0
ENDSEC
  0
SECTION
  2
OBJECTS
  0
DICTIONARY
  5
C
330
0
100
AcDbDictionary
281
     1
  3
ACAD_COLOR
350
63
  3
ACAD_DETAILVIEWSTYLE
350
6A
  3
ACAD_GROUP
350
D
  3
ACAD_LAYOUT
350
62
  3
ACAD_MATERIAL
350
10
  3
ACAD_MLEADERSTYLE
350
66
  3
ACAD_MLINESTYLE
350
5F
  3
ACAD_PLOTSETTINGS
350
61
  3
ACAD_PLOTSTYLENAME
350
E
  3
ACAD_SCALELIST
350
42
  3
ACAD_SECTIONVIEWSTYLE
350
68
  3
ACAD_TABLESTYLE
350
64
  3
ACAD_VISUALSTYLE
350
29
  3
ACDB_RECOMPOSE_DATA
350
28E
  3
AcDbVariableDictionary
350
286
  0
DICTIONARY
  5
63
102
{ACAD_REACTORS
330
C
102
}
330
C
100
AcDbDictionary
281
     1
  0
DICTIONARY
  5
6A
102
{ACAD_REACTORS
330
C
102
}
330
C
100
AcDbDictionary
281
     1
  3
Imperial24
350
6B
  0
DICTIONARY
  5
D
102
{ACAD_REACTORS
330
C
102
}
330
C
100
AcDbDictionary
281
     1
  0
DICTIONARY
  5
62
102
{ACAD_REACTORS
330
C
102
}
330
C
100
AcDbDictionary
281
     1
  3
Layout1
350
6F
  3
Layout2
350
77
  3
Model
350
73
  0
DICTIONARY
  5
10
102
{ACAD_REACTORS
330
C
102
}
330
C
100
AcDbDictionary
281
     1
  3
ByBlock
350
19
  3
ByLayer
350
11
  3
Global
350
21
  0
DICTIONARY
  5
66
102
{ACAD_REACTORS
330
C
102
}
330
C
100
AcDbDictionary
281
     1
  3
Standard
350
67
  0
DICTIONARY
  5
5F
102
{ACAD_REACTORS
330
C
102
}
330
C
100
AcDbDictionary
281
     1
  3
Standard
350
60
  0
DICTIONARY
  5
61
102
{ACAD_REACTORS
330
C
102
}
330
C
100
AcDbDictionary
281
     1
  0
ACDBDICTIONARYWDFLT
  5
E
102
{ACAD_REACTORS
330
C
102
}
330
C
100
AcDbDictionary
281
     1
  3
Normal
350
F
100
AcDbDictionaryWithDefault
340
F
  0
DICTIONARY
  5
42
102
{ACAD_REACTORS
330
C
102
}
330
C
100
AcDbDictionary
281
     1
  3
A0
350
43
  3
A1
350
44
  3
A2
350
45
  3
A3
350
46
  3
A4
350
47
  3
A5
350
48
  3
A6
350
49
  3
A7
350
4A
  3
A8
350
4B
  3
A9
350
4C
  3
B0
350
4D
  3
B1
350
4E
  3
B2
350
4F
  3
B3
350
50
  3
B4
350
51
  3
B5
350
52
  3
B6
350
53
  0
DICTIONARY
  5
68
102
{ACAD_REACTORS
330
C
102
}
330
C
100
AcDbDictionary
281
     1
  3
Imperial24
350
69
  0
DICTIONARY
  5
64
102
{ACAD_REACTORS
330
C
102
}
330
C
100
AcDbDictionary
281
     1
  3
Standard
350
65
  0
DICTIONARY
  5
29
102
{ACAD_REACTORS
330
C
102
}
330
C
100
AcDbDictionary
281
     1
  3
2dWireframe
350
2F
  3
Basic
350
2E
  3
Brighten
350
35
  3
ColorChange
350
39
  3
Conceptual
350
32
  3
Dim
350
34
  3
EdgeColorOff
350
41
  3
Facepattern
350
38
  3
Flat
350
2A
  3
FlatWithEdges
350
2B
  3
Gouraud
350
2C
  3
GouraudWithEdges
350
2D
  3
Hidden
350
31
  3
JitterOff
350
3F
  3
Linepattern
350
37
  3
OverhangOff
350
40
  3
Realistic
350
33
  3
Shaded
350
3E
  3
Shaded with edges
350
3D
  3
Shades of Gray
350
3A
  3
Sketchy
350
3B
  3
Thicken
350
36
  3
Wireframe
350
30
  3
X-Ray
350
3C
  0
XRECORD
  5
28E
102
{ACAD_REACTORS
330
C
102
}
330
C
100
AcDbXrecord
280
     1
 90
        1
330
65
  0
DICTIONARY
  5
286
102
{ACAD_REACTORS
330
C
102
}
330
C
100
AcDbDictionary
281
     1
  3
CANNOSCALE
350
28B
  3
CMLEADERSTYLE
350
288
  3
CTABLESTYLE
350
287
  3
CVIEWDETAILSTYLE
350
289
  3
CVIEWSECTIONSTYLE
350
28A
  0
ACDBDETAILVIEWSTYLE
  5
6B
102
{ACAD_REACTORS
330
6A
102
}
330
6A
100
AcDbModelDocViewStyle
 70
     0
  3
Imperial24
290
     1
300
Imperial24
 90
        0
100
AcDbDetailViewStyle
 70
     0
 71
     0
 90
        3
 71
     1
340
55
 62
   256
 40
0.24
340
0
 62
   256
 40
0.24
300

 40
0.36
280
     3
 71
     2
340
5D
 90
       25
 62
   256
 71
     3
340
55
 62
   256
 40
0.24
 90
        1
 40
0.75
 90
        1
300
%<\AcVar ViewType \f "%tc1">% %<\AcVar ViewDetailId>%\PSCALE %<\AcVar ViewScale \f "%sn">%
 71
     4
340
5D
 90
       25
 62
   256
340
5D
 90
       25
 62
   256
280
     0
  0
LAYOUT
  5
6F
102
{ACAD_REACTORS
330
62
102
}
330
62
100
AcDbPlotSettings
  1

  2

  4

  6

 40
0.0
 41
0.0
 42
0.0
 43
0.0
 44
0.0
 45
0.0
 46
0.0
 47
0.0
 48
0.0
 49
0.0
140
0.0
141
0.0
142
1.0
143
1.0
 70
   688
 72
     0
 73
     0
 74
     5
  7

 75
    16
147
1.0
 76
     0
 77
     2
 78
   300
148
0.0
149
0.0
100
AcDbLayout
  1
Layout1
 70
     1
 71
     1
 10
0.0
 20
0.0
 11
12.0
 21
9.0
 12
0.0
 22
0.0
 32
0.0
 14
0.0
 24
0.0
 34
0.0
 15
0.0
 25
0.0
 35
0.0
146
0.0
 13
0.0
 23
0.0
 33
0.0
 16
1.0
 26
0.0
 36
0.0
 17
0.0
 27
1.0
 37
0.0
 76
     0
330
6C
  0
LAYOUT
  5
77
102
{ACAD_REACTORS
330
62
102
}
330
62
100
AcDbPlotSettings
  1

  2

  4

  6

 40
0.0
 41
0.0
 42
0.0
 43
0.0
 44
0.0
 45
0.0
 46
0.0
 47
0.0
 48
0.0
 49
0.0
140
0.0
141
0.0
142
1.0
143
1.0
 70
   688
 72
     0
 73
     0
 74
     5
  7

 75
    16
147
1.0
 76
     0
 77
     2
 78
   300
148
0.0
149
0.0
100
AcDbLayout
  1
Layout2
 70
     1
 71
     2
 10
0.0
 20
0.0
 11
12.0
 21
9.0
 12
0.0
 22
0.0
 32
0.0
 14
0.0
 24
0.0
 34
0.0
 15
0.0
 25
0.0
 35
0.0
146
0.0
 13
0.0
 23
0.0
 33
0.0
 16
1.0
 26
0.0
 36
0.0
 17
0.0
 27
1.0
 37
0.0
 76
     0
330
74
  0
LAYOUT
  5
73
102
{ACAD_REACTORS
330
62
102
}
330
62
100
AcDbPlotSettings
  1

  2

  4

  6

 40
0.0
 41
0.0
 42
0.0
 43
0.0
 44
0.0
 45
0.0
 46
0.0
 47
0.0
 48
0.0
 49
0.0
140
0.0
141
0.0
142
1.0
143
1.0
 70
  1712
 72
     0
 73
     0
 74
     0
  7

 75
     0
147
1.0
 76
     0
 77
     2
 78
   300
148
0.0
149
0.0
100
AcDbLayout
  1
Model
 70
     1
 71
     0
 10
0.0
 20
0.0
 11
12.0
 21
9.0
 12
0.0
 22
0.0
 32
0.0
 14
0.0
 24
0.0
 34
0.0
 15
0.0
 25
0.0
 35
0.0
146
0.0
 13
0.0
 23
0.0
 33
0.0
 16
1.0
 26
0.0
 36
0.0
 17
0.0
 27
1.0
 37
0.0
 76
     0
330
70
  0
MATERIAL
  5
19
102
{ACAD_XDICTIONARY
360
1A
102
}
102
{ACAD_REACTORS
330
10
102
}
330
10
100
AcDbMaterial
  1
ByBlock
 72
     0
 43
0.0208333333333333
 43
0.0
 43
0.0
 43
0.0
 43
0.0
 43
0.0208333333333333
 43
0.0
 43
0.0
 43
0.0
 43
0.0
 43
1.0
 43
0.0
 43
0.0
 43
0.0
 43
0.0
 43
1.0
 77
     0
 47
0.0208333333333333
 47
0.0
 47
0.0
 47
0.0
 47
0.0
 47
0.0208333333333333
 47
0.0
 47
0.0
 47
0.0
 47
0.0
 47
1.0
 47
0.0
 47
0.0
 47
0.0
 47
0.0
 47
1.0
171
     0
 49
0.0208333333333333
 49
0.0
 49
0.0
 49
0.0
 49
0.0
 49
0.0208333333333333
 49
0.0
 49
0.0
 49
0.0
 49
0.0
 49
1.0
 49
0.0
 49
0.0
 49
0.0
 49
0.0
 49
1.0
175
     0
142
0.0208333333333333
142
0.0
142
0.0
142
0.0
142
0.0
142
0.0208333333333333
142
0.0
142
0.0
142
0.0
142
0.0
142
1.0
142
0.0
142
0.0
142
0.0
142
0.0
142
1.0
179
     0
144
0.0208333333333333
144
0.0
144
0.0
144
0.0
144
0.0
144
0.0208333333333333
144
0.0
144
0.0
144
0.0
144
0.0
144
1.0
144
0.0
144
0.0
144
0.0
144
0.0
144
1.0
147
0.0208333333333333
147
0.0
147
0.0
147
0.0
147
0.0
147
0.0208333333333333
147
0.0
147
0.0
147
0.0
147
0.0
147
1.0
147
0.0
147
0.0
147
0.0
147
0.0
147
1.0
  0
MATERIAL
  5
11
102
{ACAD_XDICTIONARY
360
12
102
}
102
{ACAD_REACTORS
330
10
102
}
330
10
100
AcDbMaterial
  1
ByLayer
 72
     0
 43
0.0208333333333333
 43
0.0
 43
0.0
 43
0.0
 43
0.0
 43
0.0208333333333333
 43
0.0
 43
0.0
 43
0.0
 43
0.0
 43
1.0
 43
0.0
 43
0.0
 43
0.0
 43
0.0
 43
1.0
 77
     0
 47
0.0208333333333333
 47
0.0
 47
0.0
 47
0.0
 47
0.0
 47
0.0208333333333333
 47
0.0
 47
0.0
 47
0.0
 47
0.0
 47
1.0
 47
0.0
 47
0.0
 47
0.0
 47
0.0
 47
1.0
171
     0
 49
0.0208333333333333
 49
0.0
 49
0.0
 49
0.0
 49
0.0
 49
0.0208333333333333
 49
0.0
 49
0.0
 49
0.0
 49
0.0
 49
1.0
 49
0.0
 49
0.0
 49
0.0
 49
0.0
 49
1.0
175
     0
142
0.0208333333333333
142
0.0
142
0.0
142
0.0
142
0.0
142
0.0208333333333333
142
0.0
142
0.0
142
0.0
142
0.0
142
1.0
142
0.0
142
0.0
142
0.0
142
0.0
142
1.0
179
     0
144
0.0208333333333333
144
0.0
144
0.0
144
0.0
144
0.0
144
0.0208333333333333
144
0.0
144
0.0
144
0.0
144
0.0
144
1.0
144
0.0
144
0.0
144
0.0
144
0.0
144
1.0
147
0.0208333333333333
147
0.0
147
0.0
147
0.0
147
0.0
147
0.0208333333333333
147
0.0
147
0.0
147
0.0
147
0.0
147
1.0
147
0.0
147
0.0
147
0.0
147
0.0
147
1.0
  0
MATERIAL
  5
21
102
{ACAD_XDICTIONARY
360
22
102
}
102
{ACAD_REACTORS
330
10
102
}
330
10
100
AcDbMaterial
  1
Global
 72
     0
 43
0.0208333333333333
 43
0.0
 43
0.0
 43
0.0
 43
0.0
 43
0.0208333333333333
 43
0.0
 43
0.0
 43
0.0
 43
0.0
 43
1.0
 43
0.0
 43
0.0
 43
0.0
 43
0.0
 43
1.0
 77
     0
 47
0.0208333333333333
 47
0.0
 47
0.0
 47
0.0
 47
0.0
 47
0.0208333333333333
 47
0.0
 47
0.0
 47
0.0
 47
0.0
 47
1.0
 47
0.0
 47
0.0
 47
0.0
 47
0.0
 47
1.0
171
     0
 49
0.0208333333333333
 49
0.0
 49
0.0
 49
0.0
 49
0.0
 49
0.0208333333333333
 49
0.0
 49
0.0
 49
0.0
 49
0.0
 49
1.0
 49
0.0
 49
0.0
 49
0.0
 49
0.0
 49
1.0
175
     0
142
0.0208333333333333
142
0.0
142
0.0
142
0.0
142
0.0
142
0.0208333333333333
142
0.0
142
0.0
142
0.0
142
0.0
142
1.0
142
0.0
142
0.0
142
0.0
142
0.0
142
1.0
179
     0
144
0.0208333333333333
144
0.0
144
0.0
144
0.0
144
0.0
144
0.0208333333333333
144
0.0
144
0.0
144
0.0
144
0.0
144
1.0
144
0.0
144
0.0
144
0.0
144
0.0
144
1.0
147
0.0208333333333333
147
0.0
147
0.0
147
0.0
147
0.0
147
0.0208333333333333
147
0.0
147
0.0
147
0.0
147
0.0
147
1.0
147
0.0
147
0.0
147
0.0
147
0.0
147
1.0
  0
MLEADERSTYLE
  5
67
102
{ACAD_REACTORS
330
66
102
}
330
66
100
AcDbMLeaderStyle
179
     2
170
     2
171
     1
172
     0
 90
        2
 40
0.0
 41
0.0
173
     1
 91
-1056964608
340
5B
 92
       -2
290
     1
 42
0.09
291
     1
 43
0.36
  3
Standard
 44
0.18
300

342
55
174
     1
178
     6
175
     1
176
     0
 93
-1056964608
 45
0.18
292
     0
297
     0
 46
0.18
 94
-1056964608
 47
1.0
 49
1.0
140
1.0
293
     1
141
0.0
294
     1
177
     0
142
1.0
295
     1
296
     0
143
0.125
271
     0
272
     9
273
     9
298
     1
  0
MLINESTYLE
  5
60
102
{ACAD_REACTORS
330
5F
102
}
330
5F
100
AcDbMlineStyle
  2
STANDARD
 70
     0
  3

 62
   256
 51
90.0
 52
90.0
 71
     2
 49
0.5
 62
   256
  6
BYLAYER
 49
-0.5
 62
   256
  6
BYLAYER
  0
ACDBPLACEHOLDER
  5
F
102
{ACAD_REACTORS
330
E
102
}
330
E
  0
SCALE
  5
43
102
{ACAD_REACTORS
330
42
102
}
330
42
100
AcDbScale
 70
     0
300
1:1
140
1.0
141
1.0
290
     1
  0
SCALE
  5
44
102
{ACAD_REACTORS
330
42
102
}
330
42
100
AcDbScale
 70
     0
300
1/128" = 1'-0"
140
0.0078125
141
12.0
290
     0
  0
SCALE
  5
45
102
{ACAD_REACTORS
330
42
102
}
330
42
100
AcDbScale
 70
     0
300
1/64" = 1'-0"
140
0.015625
141
12.0
290
     0
  0
SCALE
  5
46
102
{ACAD_REACTORS
330
42
102
}
330
42
100
AcDbScale
 70
     0
300
1/32" = 1'-0"
140
0.03125
141
12.0
290
     0
  0
SCALE
  5
47
102
{ACAD_REACTORS
330
42
102
}
330
42
100
AcDbScale
 70
     0
300
1/16" = 1'-0"
140
0.0625
141
12.0
290
     0
  0
SCALE
  5
48
102
{ACAD_REACTORS
330
42
102
}
330
42
100
AcDbScale
 70
     0
300
3/32" = 1'-0"
140
0.09375
141
12.0
290
     0
  0
SCALE
  5
49
102
{ACAD_REACTORS
330
42
102
}
330
42
100
AcDbScale
 70
     0
300
1/8" = 1'-0"
140
0.125
141
12.0
290
     0
  0
SCALE
  5
4A
102
{ACAD_REACTORS
330
42
102
}
330
42
100
AcDbScale
 70
     0
300
3/16" = 1'-0"
140
0.1875
141
12.0
290
     0
  0
SCALE
  5
4B
102
{ACAD_REACTORS
330
42
102
}
330
42
100
AcDbScale
 70
     0
300
1/4" = 1'-0"
140
0.25
141
12.0
290
     0
  0
SCALE
  5
4C
102
{ACAD_REACTORS
330
42
102
}
330
42
100
AcDbScale
 70
     0
300
3/8" = 1'-0"
140
0.375
141
12.0
290
     0
  0
SCALE
  5
4D
102
{ACAD_REACTORS
330
42
102
}
330
42
100
AcDbScale
 70
     0
300
1/2" = 1'-0"
140
0.5
141
12.0
290
     0
  0
SCALE
  5
4E
102
{ACAD_REACTORS
330
42
102
}
330
42
100
AcDbScale
 70
     0
300
3/4" = 1'-0"
140
0.75
141
12.0
290
     0
  0
SCALE
  5
4F
102
{ACAD_REACTORS
330
42
102
}
330
42
100
AcDbScale
 70
     0
300
1" = 1'-0"
140
1.0
141
12.0
290
     0
  0
SCALE
  5
50
102
{ACAD_REACTORS
330
42
102
}
330
42
100
AcDbScale
 70
     0
300
1-1/2" = 1'-0"
140
1.5
141
12.0
290
     0
  0
SCALE
  5
51
102
{ACAD_REACTORS
330
42
102
}
330
42
100
AcDbScale
 70
     0
300
3" = 1'-0"
140
3.0
141
12.0
290
     0
  0
SCALE
  5
52
102
{ACAD_REACTORS
330
42
102
}
330
42
100
AcDbScale
 70
     0
300
6" = 1'-0"
140
6.0
141
12.0
290
     0
  0
SCALE
  5
53
102
{ACAD_REACTORS
330
42
102
}
330
42
100
AcDbScale
 70
     0
300
1'-0" = 1'-0"
140
12.0
141
12.0
290
     0
  0
ACDBSECTIONVIEWSTYLE
  5
69
102
{ACAD_REACTORS
330
68
102
}
330
68
100
AcDbModelDocViewStyle
 70
     0
  3
Imperial24
290
     1
300
Imperial24
 90
        0
100
AcDbSectionViewStyle
 70
     0
 71
     0
 90
       78
 71
     1
340
55
 62
   256
 40
0.24
340
0
340
0
 62
   256
 40
0.24
300
I, O, Q, S, X, Z
 40
0.48
 90
        3
 40
0.18
 90
        1
 71
     2
340
5D
 90
       25
 62
   256
340
5D
 90
       50
 62
   256
 40
0.24
 40
0.0
 40
0.24
 71
     3
340
55
 62
   256
 40
0.24
 90
        1
 40
0.75
 90
        1
300
%<\AcVar ViewType \f "%tc1">% %<\AcVar ViewSectionStartId>%-%<\AcVar ViewSectionEndId>%\PSCALE %<\AcVar ViewScale \f "%sn">%
 71
     4
 62
   256
 62
   257
300
ANSI31
 40
1.0
 90
        0
290
     0
290
     0
 90
        6
 40
0.0
 40
1.570796326794896
 40
0.2617993877991494
 40
1.308996938995747
 40
-0.2617993877991494
 40
1.832595714594046
  0
TABLESTYLE
  5
65
102
{ACAD_XDICTIONARY
360
28C
102
}
102
{ACAD_REACTORS
330
64
102
}
330
64
100
AcDbTableStyle
280
     0
  3
Standard
 70
     0
 71
     0
 40
0.06
 41
0.06
280
     0
281
     0
  7
Standard
140
0.18
170
     2
 62
     0
 63
     7
283
     0
 90
      512
 91
        0
  1

274
    -2
284
     1
 64
     0
275
    -2
285
     1
 65
     0
276
    -2
286
     1
 66
     0
277
    -2
287
     1
 67
     0
278
    -2
288
     1
 68
     0
279
    -2
289
     1
 69
     0
  7
Standard
140
0.25
170
     5
 62
     0
 63
     7
283
     0
 90
      512
 91
        0
  1

274
    -2
284
     1
 64
     0
275
    -2
285
     1
 65
     0
276
    -2
286
     1
 66
     0
277
    -2
287
     1
 67
     0
278
    -2
288
     1
 68
     0
279
    -2
289
     1
 69
     0
  7
Standard
140
0.18
170
     5
 62
     0
 63
     7
283
     0
 90
      512
 91
        0
  1

274
    -2
284
     1
 64
     0
275
    -2
285
     1
 65
     0
276
    -2
286
     1
 66
     0
277
    -2
287
     1
 67
     0
278
    -2
288
     1
 68
     0
279
    -2
289
     1
 69
     0
  0
VISUALSTYLE
  5
2F
102
{ACAD_REACTORS
330
29
102
}
330
29
100
AcDbVisualStyle
  2
2dWireframe
 70
     4
177
     3
291
     0
 70
    58
 90
        0
176
     1
 90
        2
176
     1
 90
        0
176
     1
 90
        0
176
     1
 40
0.6
176
     1
 40
30.0
176
     1
 62
     7
420
 16777215
176
     1
 90
        1
176
     1
 90
        4
176
     1
 62
     7
176
     1
 62
   257
176
     1
 90
        1
176
     1
 90
        1
176
     1
 40
1.0
176
     1
 90
        0
176
     1
 62
   257
176
     1
 40
1.0
176
     1
 90
        1
176
     1
 90
        6
176
     1
 90
        2
176
     1
 62
     7
176
     1
 90
        5
176
     1
 90
        0
176
     1
 90
        0
176
     1
290
     0
176
     1
 90
        1
176
     1
 40
0.0
176
     1
 90
        0
176
     1
290
     1
176
     1
290
     1
176
     1
290
     0
176
     1
290
     0
176
     1
290
     0
176
     1
290
     0
176
     1
290
     0
176
     1
290
     0
176
     1
290
     0
176
     1
 90
       50
176
     1
 40
0.0
176
     1
 40
1.0
176
     1
 90
        0
176
     1
 62
    18
420
        0
176
     1
 90
       50
176
     1
 90
        3
176
     1
 62
     5
420
      255
176
     1
290
     0
176
     1
 90
       50
176
     1
 90
       50
176
     1
 90
       50
176
     1
290
     0
176
     1
 90
       50
176
     1
 62
   256
176
     0
 40
1.0
176
     0
 90
        2
176
     1
  1
strokes_ogs.tif
176
     1
290
     0
176
     1
 40
1.0
176
     1
 40
1.0
176
     1
  0
VISUALSTYLE
  5
2E
102
{ACAD_REACTORS
330
29
102
}
330
29
100
AcDbVisualStyle
  2
Basic
 70
     7
177
     3
291
     1
 70
    58
 90
        1
176
     1
 90
        0
176
     1
 90
        1
176
     1
 90
        0
176
     1
 40
0.6
176
     1
 40
30.0
176
     1
 62
     7
420
 16777215
176
     1
 90
        0
176
     1
 90
        4
176
     1
 62
     7
176
     1
 62
   257
176
     1
 90
        1
176
     1
 90
        1
176
     1
 40
1.0
176
     1
 90
        8
176
     1
 62
     7
176
     1
 40
1.0
176
     1
 90
        1
176
     1
 90
        6
176
     1
 90
        2
176
     1
 62
     7
176
     1
 90
        5
176
     1
 90
        0
176
     1
 90
        0
176
     1
290
     0
176
     1
 90
        1
176
     1
 40
0.0
176
     1
 90
        0
176
     1
290
     0
176
     1
290
     1
176
     1
290
     1
176
     1
290
     0
176
     1
290
     0
176
     1
290
     0
176
     1
290
     0
176
     1
290
     0
176
     1
290
     0
176
     1
 90
       50
176
     1
 40
0.0
176
     1
 40
1.0
176
     1
 90
        0
176
     1
 62
    18
420
        0
176
     1
 90
       50
176
     1
 90
        3
176
     1
 62
     5
420
      255
176
     1
290
     0
176
     1
 90
       50
176
     1
 90
       50
176
     1
 90
       50
176
     1
290
     0
176
     1
 90
       50
176
     1
 62
   256
176
     0
 40
1.0
176
     0
 90
        2
176
     1
  1
strokes_ogs.tif
176
     1
290
     0
176
     1
 40
1.0
176
     1
 40
1.0
176
     1
  0
VISUALSTYLE
  5
35
102
{ACAD_REACTORS
330
29
102
}
330
29
100
AcDbVisualStyle
  2
Brighten
 70
    12
177
     3
291
     1
 70
    58
 90
        2
176
     1
 90
        2
176
     1
 90
        0
176
     1
 90
        0
176
     1
 40
0.6
176
     1
 40
30.0
176
     1
 62
     7
420
 16777215
176
     1
 90
        1
176
     1
 90
        4
176
     1
 62
     7
176
     1
 62
   257
176
     1
 90
        1
176
     1
 90
        1
176
     1
 40
1.0
176
     1
 90
        8
176
     1
 62
     7
176
     1
 40
1.0
176
     1
 90
        1
176
     1
 90
        6
176
     1
 90
        2
176
     1
 62
     7
176
     1
 90
        5
176
     1
 90
        0
176
     1
 90
        0
176
     1
290
     0
176
     1
 90
        1
176
     1
 40
50.0
176
     1
 90
        0
176
     1
290
     0
176
     1
290
     1
176
     1
290
     1
176
     1
290
     0
176
     1
290
     0
176
     1
290
     0
176
     1
290
     0
176
     1
290
     0
176
     1
290
     0
176
     1
 90
       50
176
     1
 40
0.0
176
     1
 40
1.0
176
     1
 90
        0
176
     1
 62
    18
420
        0
176
     1
 90
       50
176
     1
 90
        3
176
     1
 62
     5
420
      255
176
     1
290
     0
176
     1
 90
       50
176
     1
 90
       50
176
     1
 90
       50
176
     1
290
     0
176
     1
 90
       50
176
     1
 62
   256
176
     0
 40
1.0
176
     0
 90
        2
176
     1
  1
strokes_ogs.tif
176
     1
290
     0
176
     1
 40
1.0
176
     1
 40
1.0
176
     1
  0
VISUALSTYLE
  5
39
102
{ACAD_REACTORS
330
29
102
}
330
29
100
AcDbVisualStyle
  2
ColorChange
 70
    16
177
     3
291
     1
 70
    58
 90
        2
176
     1
 90
        2
176
     1
 90
        3
176
     1
 90
        0
176
     1
 40
0.6
176
     1
 40
30.0
176
     1
 62
     8
420
  8421504
176
     1
 90
        1
176
     1
 90
        4
176
     1
 62
     7
176
     1
 62
   257
176
     1
 90
        1
176
     1
 90
        1
176
     1
 40
1.0
176
     1
 90
        8
176
     1
 62
     8
420
  8421504
176
     1
 40
1.0
176
     1
 90
        1
176
     1
 90
        6
176
     1
 90
        2
176
     1
 62
     7
176
     1
 90
        5
176
     1
 90
        0
176
     1
 90
        0
176
     1
290
     0
176
     1
 90
        1
176
     1
 40
0.0
176
     1
 90
        0
176
     1
290
     0
176
     1
290
     1
176
     1
290
     1
176
     1
290
     0
176
     1
290
     0
176
     1
290
     0
176
     1
290
     0
176
     1
290
     0
176
     1
290
     0
176
     1
 90
       50
176
     1
 40
0.0
176
     1
 40
1.0
176
     1
 90
        0
176
     1
 62
    18
420
        0
176
     1
 90
       50
176
     1
 90
        3
176
     1
 62
     5
420
      255
176
     1
290
     0
176
     1
 90
       50
176
     1
 90
       50
176
     1
 90
       50
176
     1
290
     0
176
     1
 90
       50
176
     1
 62
   256
176
     0
 40
1.0
176
     0
 90
        2
176
     1
  1
strokes_ogs.tif
176
     1
290
     0
176
     1
 40
1.0
176
     1
 40
1.0
176
     1
  0
VISUALSTYLE
  5
32
102
{ACAD_REACTORS
330
29
102
}
330
29
100
AcDbVisualStyle
  2
Conceptual
 70
     9
177
     3
291
     0
 70
    58
 90
        3
176
     1
 90
        2
176
     1
 90
        0
176
     1
 90
        0
176
     1
 40
0.6
176
     1
 40
30.0
176
     1
 62
     7
420
 16777215
176
     1
 90
        2
176
     1
 90
        2
176
     1
 62
     7
176
     1
 62
   257
176
     1
 90
        1
176
     1
 90
        1
176
     1
 40
179.0
176
     1
 90
        8
176
     1
 62
     7
176
     1
 40
1.0
176
     1
 90
        1
176
     1
 90
        6
176
     1
 90
        2
176
     1
 62
     7
176
     1
 90
        3
176
     1
 90
        0
176
     1
 90
        0
176
     1
290
     0
176
     1
 90
        1
176
     1
 40
0.0
176
     1
 90
        0
176
     1
290
     0
176
     1
290
     1
176
     1
290
     1
176
     1
290
     0
176
     1
290
     0
176
     1
290
     0
176
     1
290
     0
176
     1
290
     0
176
     1
290
     0
176
     1
 90
       50
176
     1
 40
0.0
176
     1
 40
1.0
176
     1
 90
        0
176
     1
 62
    18
420
        0
176
     1
 90
       50
176
     1
 90
        3
176
     1
 62
     5
420
      255
176
     1
290
     0
176
     1
 90
       50
176
     1
 90
       50
176
     1
 90
       50
176
     1
290
     0
176
     1
 90
       50
176
     1
 62
   256
176
     0
 40
1.0
176
     0
 90
        2
176
     1
  1
strokes_ogs.tif
176
     1
290
     0
176
     1
 40
1.0
176
     1
 40
1.0
176
     1
  0
VISUALSTYLE
  5
34
102
{ACAD_REACTORS
330
29
102
}
330
29
100
AcDbVisualStyle
  2
Dim
 70
    11
177
     3
291
     1
 70
    58
 90
        2
176
     1
 90
        2
176
     1
 90
        0
176
     1
 90
        0
176
     1
 40
0.6
176
     1
 40
30.0
176
     1
 62
     7
420
 16777215
176
     1
 90
        1
176
     1
 90
        4
176
     1
 62
     7
176
     1
 62
   257
176
     1
 90
        1
176
     1
 90
        1
176
     1
 40
1.0
176
     1
 90
        8
176
     1
 62
     7
176
     1
 40
1.0
176
     1
 90
        1
176
     1
 90
        6
176
     1
 90
        2
176
     1
 62
     7
176
     1
 90
        5
176
     1
 90
        0
176
     1
 90
        0
176
     1
290
     0
176
     1
 90
        1
176
     1
 40
-50.0
176
     1
 90
        0
176
     1
290
     0
176
     1
290
     1
176
     1
290
     1
176
     1
290
     0
176
     1
290
     0
176
     1
290
     0
176
     1
290
     0
176
     1
290
     0
176
     1
290
     0
176
     1
 90
       50
176
     1
 40
0.0
176
     1
 40
1.0
176
     1
 90
        0
176
     1
 62
    18
420
        0
176
     1
 90
       50
176
     1
 90
        3
176
     1
 62
     5
420
      255
176
     1
290
     0
176
     1
 90
       50
176
     1
 90
       50
176
     1
 90
       50
176
     1
290
     0
176
     1
 90
       50
176
     1
 62
   256
176
     0
 40
1.0
176
     0
 90
        2
176
     1
  1
strokes_ogs.tif
176
     1
290
     0
176
     1
 40
1.0
176
     1
 40
1.0
176
     1
  0
VISUALSTYLE
  5
41
102
{ACAD_REACTORS
330
29
102
}
330
29
100
AcDbVisualStyle
  2
EdgeColorOff
 70
    22
177
     3
291
     1
 70
    58
 90
        2
176
     0
 90
        2
176
     0
 90
        0
176
     0
 90
        0
176
     0
 40
0.6
176
     0
 40
30.0
176
     0
 62
     7
420
 16777215
176
     0
 90
        1
176
     0
 90
        4
176
     0
 62
     7
176
     0
 62
   257
176
     0
 90
        1
176
     0
 90
        1
176
     0
 40
1.0
176
     0
 90
        8
176
     2
 62
     7
176
     0
 40
1.0
176
     0
 90
        1
176
     0
 90
        6
176
     0
 90
        2
176
     0
 62
     7
176
     0
 90
        5
176
     0
 90
        0
176
     0
 90
        0
176
     0
290
     0
176
     0
 90
        1
176
     0
 40
0.0
176
     0
 90
        0
176
     0
290
     0
176
     0
290
     1
176
     0
290
     1
176
     0
290
     0
176
     0
290
     0
176
     0
290
     0
176
     0
290
     0
176
     0
290
     0
176
     0
290
     0
176
     0
 90
       50
176
     0
 40
0.0
176
     0
 40
1.0
176
     0
 90
        0
176
     0
 62
    18
420
        0
176
     0
 90
       50
176
     0
 90
        3
176
     0
 62
     5
420
      255
176
     0
290
     0
176
     0
 90
       50
176
     0
 90
       50
176
     0
 90
       50
176
     0
290
     0
176
     0
 90
       50
176
     0
 62
   256
176
     0
 40
1.0
176
     0
 90
        2
176
     0
  1
strokes_ogs.tif
176
     0
290
     0
176
     0
 40
1.0
176
     0
 40
1.0
176
     0
  0
VISUALSTYLE
  5
38
102
{ACAD_REACTORS
330
29
102
}
330
29
100
AcDbVisualStyle
  2
Facepattern
 70
    15
177
     3
291
     1
 70
    58
 90
        2
176
     1
 90
        2
176
     1
 90
        0
176
     1
 90
        0
176
     1
 40
0.6
176
     1
 40
30.0
176
     1
 62
     7
420
 16777215
176
     1
 90
        1
176
     1
 90
        4
176
     1
 62
     7
176
     1
 62
   257
176
     1
 90
        1
176
     1
 90
        1
176
     1
 40
1.0
176
     1
 90
        8
176
     1
 62
     7
176
     1
 40
1.0
176
     1
 90
        1
176
     1
 90
        6
176
     1
 90
        2
176
     1
 62
     7
176
     1
 90
        5
176
     1
 90
        0
176
     1
 90
        0
176
     1
290
     0
176
     1
 90
        1
176
     1
 40
0.0
176
     1
 90
        0
176
     1
290
     0
176
     1
290
     1
176
     1
290
     1
176
     1
290
     0
176
     1
290
     0
176
     1
290
     0
176
     1
290
     0
176
     1
290
     0
176
     1
290
     0
176
     1
 90
       50
176
     1
 40
0.0
176
     1
 40
1.0
176
     1
 90
        0
176
     1
 62
    18
420
        0
176
     1
 90
       50
176
     1
 90
        3
176
     1
 62
     5
420
      255
176
     1
290
     0
176
     1
 90
       50
176
     1
 90
       50
176
     1
 90
       50
176
     1
290
     0
176
     1
 90
       50
176
     1
 62
   256
176
     0
 40
1.0
176
     0
 90
        2
176
     1
  1
strokes_ogs.tif
176
     1
290
     0
176
     1
 40
1.0
176
     1
 40
1.0
176
     1
  0
VISUALSTYLE
  5
2A
102
{ACAD_REACTORS
330
29
102
}
330
29
100
AcDbVisualStyle
  2
Flat
 70
     0
177
     3
291
     1
 70
    58
 90
        2
176
     1
 90
        1
176
     1
 90
        1
176
     1
 90
        2
176
     1
 40
0.6
176
     1
 40
30.0
176
     1
 62
     7
420
 16777215
176
     1
 90
        0
176
     1
 90
        0
176
     1
 62
     7
176
     1
 62
   257
176
     1
 90
        1
176
     1
 90
        1
176
     1
 40
1.0
176
     1
 90
        8
176
     1
 62
     7
176
     1
 40
1.0
176
     1
 90
        1
176
     1
 90
        6
176
     1
 90
        2
176
     1
 62
     7
176
     1
 90
        5
176
     1
 90
        0
176
     1
 90
        0
176
     1
290
     0
176
     1
 90
       13
176
     1
 40
0.0
176
     1
 90
        0
176
     1
290
     0
176
     1
290
     1
176
     1
290
     1
176
     1
290
     0
176
     1
290
     0
176
     1
290
     0
176
     1
290
     0
176
     1
290
     0
176
     1
290
     0
176
     1
 90
       50
176
     1
 40
0.0
176
     1
 40
1.0
176
     1
 90
        0
176
     1
 62
    18
420
        0
176
     1
 90
       50
176
     1
 90
        3
176
     1
 62
     5
420
      255
176
     1
290
     0
176
     1
 90
       50
176
     1
 90
       50
176
     1
 90
       50
176
     1
290
     0
176
     1
 90
       50
176
     1
 62
   256
176
     0
 40
1.0
176
     0
 90
        2
176
     1
  1
strokes_ogs.tif
176
     1
290
     0
176
     1
 40
1.0
176
     1
 40
1.0
176
     1
  0
VISUALSTYLE
  5
2B
102
{ACAD_REACTORS
330
29
102
}
330
29
100
AcDbVisualStyle
  2
FlatWithEdges
 70
     1
177
     3
291
     1
 70
    58
 90
        2
176
     1
 90
        1
176
     1
 90
        1
176
     1
 90
        2
176
     1
 40
0.6
176
     1
 40
30.0
176
     1
 62
     7
420
 16777215
176
     1
 90
        1
176
     1
 90
        0
176
     1
 62
     7
176
     1
 62
   257
176
     1
 90
        1
176
     1
 90
        1
176
     1
 40
1.0
176
     1
 90
        0
176
     1
 62
   257
176
     1
 40
1.0
176
     1
 90
        1
176
     1
 90
        6
176
     1
 90
        2
176
     1
 62
     7
176
     1
 90
        5
176
     1
 90
        0
176
     1
 90
        0
176
     1
290
     0
176
     1
 90
       13
176
     1
 40
0.0
176
     1
 90
        0
176
     1
290
     0
176
     1
290
     1
176
     1
290
     1
176
     1
290
     0
176
     1
290
     0
176
     1
290
     0
176
     1
290
     0
176
     1
290
     0
176
     1
290
     0
176
     1
 90
       50
176
     1
 40
0.0
176
     1
 40
1.0
176
     1
 90
        0
176
     1
 62
    18
420
        0
176
     1
 90
       50
176
     1
 90
        3
176
     1
 62
     5
420
      255
176
     1
290
     0
176
     1
 90
       50
176
     1
 90
       50
176
     1
 90
       50
176
     1
290
     0
176
     1
 90
       50
176
     1
 62
   256
176
     0
 40
1.0
176
     0
 90
        2
176
     1
  1
strokes_ogs.tif
176
     1
290
     0
176
     1
 40
1.0
176
     1
 40
1.0
176
     1
  0
VISUALSTYLE
  5
2C
102
{ACAD_REACTORS
330
29
102
}
330
29
100
AcDbVisualStyle
  2
Gouraud
 70
     2
177
     3
291
     1
 70
    58
 90
        2
176
     1
 90
        2
176
     1
 90
        1
176
     1
 90
        2
176
     1
 40
0.6
176
     1
 40
30.0
176
     1
 62
     7
420
 16777215
176
     1
 90
        0
176
     1
 90
        0
176
     1
 62
     7
176
     1
 62
   257
176
     1
 90
        1
176
     1
 90
        1
176
     1
 40
1.0
176
     1
 90
        0
176
     1
 62
     7
176
     1
 40
1.0
176
     1
 90
        1
176
     1
 90
        6
176
     1
 90
        2
176
     1
 62
     7
176
     1
 90
        5
176
     1
 90
        0
176
     1
 90
        0
176
     1
290
     0
176
     1
 90
       13
176
     1
 40
0.0
176
     1
 90
        0
176
     1
290
     0
176
     1
290
     1
176
     1
290
     1
176
     1
290
     0
176
     1
290
     0
176
     1
290
     0
176
     1
290
     0
176
     1
290
     0
176
     1
290
     0
176
     1
 90
       50
176
     1
 40
0.0
176
     1
 40
1.0
176
     1
 90
        0
176
     1
 62
    18
420
        0
176
     1
 90
       50
176
     1
 90
        3
176
     1
 62
     5
420
      255
176
     1
290
     0
176
     1
 90
       50
176
     1
 90
       50
176
     1
 90
       50
176
     1
290
     0
176
     1
 90
       50
176
     1
 62
   256
176
     0
 40
1.0
176
     0
 90
        2
176
     1
  1
strokes_ogs.tif
176
     1
290
     0
176
     1
 40
1.0
176
     1
 40
1.0
176
     1
  0
VISUALSTYLE
  5
2D
102
{ACAD_REACTORS
330
29
102
}
330
29
100
AcDbVisualStyle
  2
GouraudWithEdges
 70
     3
177
     3
291
     1
 70
    58
 90
        2
176
     1
 90
        2
176
     1
 90
        1
176
     1
 90
        2
176
     1
 40
0.6
176
     1
 40
30.0
176
     1
 62
     7
420
 16777215
176
     1
 90
        1
176
     1
 90
        0
176
     1
 62
     7
176
     1
 62
   257
176
     1
 90
        1
176
     1
 90
        1
176
     1
 40
1.0
176
     1
 90
        0
176
     1
 62
   257
176
     1
 40
1.0
176
     1
 90
        1
176
     1
 90
        6
176
     1
 90
        2
176
     1
 62
     7
176
     1
 90
        5
176
     1
 90
        0
176
     1
 90
        0
176
     1
290
     0
176
     1
 90
       13
176
     1
 40
0.0
176
     1
 90
        0
176
     1
290
     0
176
     1
290
     1
176
     1
290
     1
176
     1
290
     0
176
     1
290
     0
176
     1
290
     0
176
     1
290
     0
176
     1
290
     0
176
     1
290
     0
176
     1
 90
       50
176
     1
 40
0.0
176
     1
 40
1.0
176
     1
 90
        0
176
     1
 62
    18
420
        0
176
     1
 90
       50
176
     1
 90
        3
176
     1
 62
     5
420
      255
176
     1
290
     0
176
     1
 90
       50
176
     1
 90
       50
176
     1
 90
       50
176
     1
290
     0
176
     1
 90
       50
176
     1
 62
   256
176
     0
 40
1.0
176
     0
 90
        2
176
     1
  1
strokes_ogs.tif
176
     1
290
     0
176
     1
 40
1.0
176
     1
 40
1.0
176
     1
  0
VISUALSTYLE
  5
31
102
{ACAD_REACTORS
330
29
102
}
330
29
100
AcDbVisualStyle
  2
Hidden
 70
     6
177
     3
291
     0
 70
    58
 90
        1
176
     1
 90
        2
176
     1
 90
        2
176
     1
 90
        0
176
     1
 40
0.6
176
     1
 40
30.0
176
     1
 62
     7
420
 16777215
176
     1
 90
        2
176
     1
 90
        2
176
     1
 62
     7
176
     1
 62
   257
176
     1
 90
        2
176
     1
 90
        1
176
     1
 40
40.0
176
     1
 90
        0
176
     1
 62
   257
176
     1
 40
1.0
176
     1
 90
        1
176
     1
 90
        6
176
     1
 90
        2
176
     1
 62
     7
176
     1
 90
        3
176
     1
 90
        0
176
     1
 90
        0
176
     1
290
     0
176
     1
 90
        1
176
     1
 40
0.0
176
     1
 90
        0
176
     1
290
     0
176
     1
290
     1
176
     1
290
     1
176
     1
290
     0
176
     1
290
     0
176
     1
290
     0
176
     1
290
     0
176
     1
290
     0
176
     1
290
     0
176
     1
 90
       50
176
     1
 40
0.0
176
     1
 40
1.0
176
     1
 90
        0
176
     1
 62
    18
420
        0
176
     1
 90
       50
176
     1
 90
        3
176
     1
 62
     5
420
      255
176
     1
290
     0
176
     1
 90
       50
176
     1
 90
       50
176
     1
 90
       50
176
     1
290
     0
176
     1
 90
       50
176
     1
 62
   256
176
     0
 40
1.0
176
     0
 90
        2
176
     1
  1
strokes_ogs.tif
176
     1
290
     0
176
     1
 40
1.0
176
     1
 40
1.0
176
     1
  0
VISUALSTYLE
  5
3F
102
{ACAD_REACTORS
330
29
102
}
330
29
100
AcDbVisualStyle
  2
JitterOff
 70
    20
177
     3
291
     1
 70
    58
 90
        2
176
     0
 90
        2
176
     0
 90
        0
176
     0
 90
        0
176
     0
 40
0.6
176
     0
 40
30.0
176
     0
 62
     7
420
 16777215
176
     0
 90
        1
176
     0
 90
        4
176
     0
 62
     7
176
     0
 62
   257
176
     0
 90
        1
176
     0
 90
        1
176
     0
 40
1.0
176
     0
 90
       10
176
     2
 62
     7
176
     0
 40
1.0
176
     0
 90
        1
176
     0
 90
        6
176
     0
 90
        2
176
     0
 62
     7
176
     0
 90
        5
176
     0
 90
        0
176
     0
 90
        0
176
     0
290
     0
176
     0
 90
        1
176
     0
 40
0.0
176
     0
 90
        0
176
     0
290
     0
176
     0
290
     1
176
     0
290
     1
176
     0
290
     0
176
     0
290
     0
176
     0
290
     0
176
     0
290
     0
176
     0
290
     0
176
     0
290
     0
176
     0
 90
       50
176
     0
 40
0.0
176
     0
 40
1.0
176
     0
 90
        0
176
     0
 62
    18
420
        0
176
     0
 90
       50
176
     0
 90
        3
176
     0
 62
     5
420
      255
176
     0
290
     0
176
     0
 90
       50
176
     0
 90
       50
176
     0
 90
       50
176
     0
290
     0
176
     0
 90
       50
176
     0
 62
   256
176
     0
 40
1.0
176
     0
 90
        2
176
     0
  1
strokes_ogs.tif
176
     0
290
     0
176
     0
 40
1.0
176
     0
 40
1.0
176
     0
  0
VISUALSTYLE
  5
37
102
{ACAD_REACTORS
330
29
102
}
330
29
100
AcDbVisualStyle
  2
Linepattern
 70
    14
177
     3
291
     1
 70
    58
 90
        2
176
     1
 90
        2
176
     1
 90
        0
176
     1
 90
        0
176
     1
 40
0.6
176
     1
 40
30.0
176
     1
 62
     7
420
 16777215
176
     1
 90
        1
176
     1
 90
        4
176
     1
 62
     7
176
     1
 62
   257
176
     1
 90
        7
176
     1
 90
        7
176
     1
 40
1.0
176
     1
 90
        8
176
     1
 62
     7
176
     1
 40
1.0
176
     1
 90
        1
176
     1
 90
        6
176
     1
 90
        2
176
     1
 62
     7
176
     1
 90
        5
176
     1
 90
        0
176
     1
 90
        0
176
     1
290
     0
176
     1
 90
        1
176
     1
 40
0.0
176
     1
 90
        0
176
     1
290
     0
176
     1
290
     1
176
     1
290
     1
176
     1
290
     0
176
     1
290
     0
176
     1
290
     0
176
     1
290
     0
176
     1
290
     0
176
     1
290
     0
176
     1
 90
       50
176
     1
 40
0.0
176
     1
 40
1.0
176
     1
 90
        0
176
     1
 62
    18
420
        0
176
     1
 90
       50
176
     1
 90
        3
176
     1
 62
     5
420
      255
176
     1
290
     0
176
     1
 90
       50
176
     1
 90
       50
176
     1
 90
       50
176
     1
290
     0
176
     1
 90
       50
176
     1
 62
   256
176
     0
 40
1.0
176
     0
 90
        2
176
     1
  1
strokes_ogs.tif
176
     1
290
     0
176
     1
 40
1.0
176
     1
 40
1.0
176
     1
  0
VISUALSTYLE
  5
40
102
{ACAD_REACTORS
330
29
102
}
330
29
100
AcDbVisualStyle
  2
OverhangOff
 70
    21
177
     3
291
     1
 70
    58
 90
        2
176
     0
 90
        2
176
     0
 90
        0
176
     0
 90
        0
176
     0
 40
0.6
176
     0
 40
30.0
176
     0
 62
     7
420
 16777215
176
     0
 90
        1
176
     0
 90
        4
176
     0
 62
     7
176
     0
 62
   257
176
     0
 90
        1
176
     0
 90
        1
176
     0
 40
1.0
176
     0
 90
        9
176
     2
 62
     7
176
     0
 40
1.0
176
     0
 90
        1
176
     0
 90
        6
176
     0
 90
        2
176
     0
 62
     7
176
     0
 90
        5
176
     0
 90
        0
176
     0
 90
        0
176
     0
290
     0
176
     0
 90
        1
176
     0
 40
0.0
176
     0
 90
        0
176
     0
290
     0
176
     0
290
     1
176
     0
290
     1
176
     0
290
     0
176
     0
290
     0
176
     0
290
     0
176
     0
290
     0
176
     0
290
     0
176
     0
290
     0
176
     0
 90
       50
176
     0
 40
0.0
176
     0
 40
1.0
176
     0
 90
        0
176
     0
 62
    18
420
        0
176
     0
 90
       50
176
     0
 90
        3
176
     0
 62
     5
420
      255
176
     0
290
     0
176
     0
 90
       50
176
     0
 90
       50
176
     0
 90
       50
176
     0
290
     0
176
     0
 90
       50
176
     0
 62
   256
176
     0
 40
1.0
176
     0
 90
        2
176
     0
  1
strokes_ogs.tif
176
     0
290
     0
176
     0
 40
1.0
176
     0
 40
1.0
176
     0
  0
VISUALSTYLE
  5
33
102
{ACAD_REACTORS
330
29
102
}
330
29
100
AcDbVisualStyle
  2
Realistic
 70
     8
177
     3
291
     0
 70
    58
 90
        2
176
     1
 90
        3
176
     1
 90
        0
176
     1
 90
        2
176
     1
 40
0.6
176
     1
 40
30.0
176
     1
 62
     7
420
 16777215
176
     1
 90
        0
176
     1
 90
        0
176
     1
 62
     7
176
     1
 62
   257
176
     1
 90
        1
176
     1
 90
        1
176
     1
 40
1.0
176
     1
 90
        8
176
     1
 62
   257
176
     1
 40
1.0
176
     1
 90
        1
176
     1
 90
        6
176
     1
 90
        2
176
     1
 62
     7
176
     1
 90
        3
176
     1
 90
        0
176
     1
 90
        0
176
     1
290
     0
176
     1
 90
       13
176
     1
 40
0.0
176
     1
 90
        0
176
     1
290
     0
176
     1
290
     1
176
     1
290
     1
176
     1
290
     0
176
     1
290
     0
176
     1
290
     0
176
     1
290
     0
176
     1
290
     0
176
     1
290
     0
176
     1
 90
       50
176
     1
 40
0.0
176
     1
 40
1.0
176
     1
 90
        0
176
     1
 62
    18
420
        0
176
     1
 90
       50
176
     1
 90
        3
176
     1
 62
     5
420
      255
176
     1
290
     0
176
     1
 90
       50
176
     1
 90
       50
176
     1
 90
       50
176
     1
290
     0
176
     1
 90
       50
176
     1
 62
   256
176
     0
 40
1.0
176
     0
 90
        2
176
     1
  1
strokes_ogs.tif
176
     1
290
     0
176
     1
 40
1.0
176
     1
 40
1.0
176
     1
  0
VISUALSTYLE
  5
3E
102
{ACAD_REACTORS
330
29
102
}
330
29
100
AcDbVisualStyle
  2
Shaded
 70
    27
177
     3
291
     0
 70
    58
 90
        2
176
     1
 90
        2
176
     1
 90
        1
176
     1
 90
        2
176
     1
 40
0.6
176
     1
 40
30.0
176
     1
 62
     7
420
 16777215
176
     1
 90
        0
176
     1
 90
        4
176
     1
 62
     7
176
     1
 62
   257
176
     1
 90
        1
176
     1
 90
        1
176
     1
 40
1.0
176
     1
 90
        8
176
     1
 62
   257
176
     1
 40
1.0
176
     1
 90
        1
176
     1
 90
        6
176
     1
 90
        2
176
     1
 62
     8
420
  7895160
176
     1
 90
        3
176
     1
 90
        0
176
     1
 90
        0
176
     1
290
     0
176
     1
 90
        5
176
     1
 40
0.0
176
     1
 90
        0
176
     1
290
     0
176
     1
290
     1
176
     1
290
     1
176
     1
290
     0
176
     1
290
     0
176
     1
290
     0
176
     1
290
     0
176
     1
290
     0
176
     1
290
     0
176
     1
 90
       50
176
     1
 40
0.0
176
     1
 40
1.0
176
     1
 90
        0
176
     1
 62
    18
420
        0
176
     1
 90
       50
176
     1
 90
        3
176
     1
 62
     5
420
      255
176
     1
290
     0
176
     1
 90
       50
176
     1
 90
       50
176
     1
 90
       50
176
     1
290
     0
176
     1
 90
       50
176
     1
 62
   256
176
     0
 40
1.0
176
     0
 90
        2
176
     1
  1
strokes_ogs.tif
176
     1
290
     0
176
     1
 40
1.0
176
     1
 40
1.0
176
     1
  0
VISUALSTYLE
  5
3D
102
{ACAD_REACTORS
330
29
102
}
330
29
100
AcDbVisualStyle
  2
Shaded with edges
 70
    26
177
     3
291
     0
 70
    58
 90
        2
176
     1
 90
        2
176
     1
 90
        1
176
     1
 90
        2
176
     1
 40
0.6
176
     1
 40
30.0
176
     1
 62
     7
420
 16777215
176
     1
 90
        1
176
     1
 90
        2
176
     1
 62
     7
176
     1
 62
   257
176
     1
 90
        2
176
     1
 90
        1
176
     1
 40
1.0
176
     1
 90
        8
176
     1
 62
   257
176
     1
 40
1.0
176
     1
 90
        1
176
     1
 90
        6
176
     1
 90
        2
176
     1
 62
     7
176
     1
 90
        3
176
     1
 90
        0
176
     1
 90
        0
176
     1
290
     0
176
     1
 90
        5
176
     1
 40
0.0
176
     1
 90
        0
176
     1
290
     0
176
     1
290
     1
176
     1
290
     1
176
     1
290
     0
176
     1
290
     0
176
     1
290
     0
176
     1
290
     0
176
     1
290
     0
176
     1
290
     0
176
     1
 90
       50
176
     1
 40
0.0
176
     1
 40
1.0
176
     1
 90
        0
176
     1
 62
    18
420
        0
176
     1
 90
       50
176
     1
 90
        3
176
     1
 62
     5
420
      255
176
     1
290
     0
176
     1
 90
       50
176
     1
 90
       50
176
     1
 90
       50
176
     1
290
     0
176
     1
 90
       50
176
     1
 62
   256
176
     0
 40
1.0
176
     0
 90
        2
176
     1
  1
strokes_ogs.tif
176
     1
290
     0
176
     1
 40
1.0
176
     1
 40
1.0
176
     1
  0
VISUALSTYLE
  5
3A
102
{ACAD_REACTORS
330
29
102
}
330
29
100
AcDbVisualStyle
  2
Shades of Gray
 70
    23
177
     3
291
     0
 70
    58
 90
        2
176
     1
 90
        2
176
     1
 90
        3
176
     1
 90
        0
176
     1
 40
0.6
176
     1
 40
30.0
176
     1
 62
     7
420
 16777215
176
     1
 90
        2
176
     1
 90
        2
176
     1
 62
     7
176
     1
 62
     7
176
     1
 90
        1
176
     1
 90
        1
176
     1
 40
40.0
176
     1
 90
        8
176
     1
 62
     7
176
     1
 40
1.0
176
     1
 90
        1
176
     1
 90
        6
176
     1
 90
        2
176
     1
 62
     7
176
     1
 90
        3
176
     1
 90
        0
176
     1
 90
        0
176
     1
290
     0
176
     1
 90
        1
176
     1
 40
0.0
176
     1
 90
        0
176
     1
290
     0
176
     1
290
     1
176
     1
290
     1
176
     1
290
     0
176
     1
290
     0
176
     1
290
     0
176
     1
290
     0
176
     1
290
     0
176
     1
290
     0
176
     1
 90
       50
176
     1
 40
0.0
176
     1
 40
1.0
176
     1
 90
        0
176
     1
 62
    18
420
        0
176
     1
 90
       50
176
     1
 90
        3
176
     1
 62
     5
420
      255
176
     1
290
     0
176
     1
 90
       50
176
     1
 90
       50
176
     1
 90
       50
176
     1
290
     0
176
     1
 90
       50
176
     1
 62
   256
176
     0
 40
1.0
176
     0
 90
        2
176
     1
  1
strokes_ogs.tif
176
     1
290
     0
176
     1
 40
1.0
176
     1
 40
1.0
176
     1
  0
VISUALSTYLE
  5
3B
102
{ACAD_REACTORS
330
29
102
}
330
29
100
AcDbVisualStyle
  2
Sketchy
 70
    24
177
     3
291
     0
 70
    58
 90
        1
176
     1
 90
        2
176
     1
 90
        2
176
     1
 90
        0
176
     1
 40
0.6
176
     1
 40
30.0
176
     1
 62
     7
420
 16777215
176
     1
 90
        2
176
     1
 90
        2
176
     1
 62
     7
176
     1
 62
     7
176
     1
 90
        1
176
     1
 90
        1
176
     1
 40
40.0
176
     1
 90
       11
176
     1
 62
     7
176
     1
 40
1.0
176
     1
 90
        1
176
     1
 90
        6
176
     1
 90
        2
176
     1
 62
     7
176
     1
 90
        6
176
     1
 90
        0
176
     1
 90
        0
176
     1
290
     0
176
     1
 90
        1
176
     1
 40
0.0
176
     1
 90
        0
176
     1
290
     0
176
     1
290
     1
176
     1
290
     1
176
     1
290
     0
176
     1
290
     0
176
     1
290
     0
176
     1
290
     0
176
     1
290
     0
176
     1
290
     0
176
     1
 90
       50
176
     1
 40
0.0
176
     1
 40
1.0
176
     1
 90
        0
176
     1
 62
    18
420
        0
176
     1
 90
       50
176
     1
 90
        3
176
     1
 62
     5
420
      255
176
     1
290
     0
176
     1
 90
       50
176
     1
 90
       50
176
     1
 90
       50
176
     1
290
     0
176
     1
 90
       50
176
     1
 62
   256
176
     0
 40
1.0
176
     0
 90
        2
176
     1
  1
strokes_ogs.tif
176
     1
290
     0
176
     1
 40
1.0
176
     1
 40
1.0
176
     1
  0
VISUALSTYLE
  5
36
102
{ACAD_REACTORS
330
29
102
}
330
29
100
AcDbVisualStyle
  2
Thicken
 70
    13
177
     3
291
     1
 70
    58
 90
        2
176
     1
 90
        2
176
     1
 90
        0
176
     1
 90
        0
176
     1
 40
0.6
176
     1
 40
30.0
176
     1
 62
     7
420
 16777215
176
     1
 90
        1
176
     1
 90
        4
176
     1
 62
     7
176
     1
 62
   257
176
     1
 90
        1
176
     1
 90
        1
176
     1
 40
1.0
176
     1
 90
       12
176
     1
 62
     7
176
     1
 40
1.0
176
     1
 90
        1
176
     1
 90
        6
176
     1
 90
        2
176
     1
 62
     7
176
     1
 90
        5
176
     1
 90
        0
176
     1
 90
        0
176
     1
290
     0
176
     1
 90
        1
176
     1
 40
0.0
176
     1
 90
        0
176
     1
290
     0
176
     1
290
     1
176
     1
290
     1
176
     1
290
     0
176
     1
290
     0
176
     1
290
     0
176
     1
290
     0
176
     1
290
     0
176
     1
290
     0
176
     1
 90
       50
176
     1
 40
0.0
176
     1
 40
1.0
176
     1
 90
        0
176
     1
 62
    18
420
        0
176
     1
 90
       50
176
     1
 90
        3
176
     1
 62
     5
420
      255
176
     1
290
     0
176
     1
 90
       50
176
     1
 90
       50
176
     1
 90
       50
176
     1
290
     0
176
     1
 90
       50
176
     1
 62
   256
176
     0
 40
1.0
176
     0
 90
        2
176
     1
  1
strokes_ogs.tif
176
     1
290
     0
176
     1
 40
1.0
176
     1
 40
1.0
176
     1
  0
VISUALSTYLE
  5
30
102
{ACAD_REACTORS
330
29
102
}
330
29
100
AcDbVisualStyle
  2
Wireframe
 70
     5
177
     3
291
     0
 70
    58
 90
        0
176
     1
 90
        2
176
     1
 90
        0
176
     1
 90
        0
176
     1
 40
0.6
176
     1
 40
30.0
176
     1
 62
     7
420
 16777215
176
     1
 90
        1
176
     1
 90
        4
176
     1
 62
     7
176
     1
 62
   257
176
     1
 90
        1
176
     1
 90
        1
176
     1
 40
1.0
176
     1
 90
        0
176
     1
 62
   257
176
     1
 40
1.0
176
     1
 90
        1
176
     1
 90
        6
176
     1
 90
        2
176
     1
 62
     7
176
     1
 90
        3
176
     1
 90
        0
176
     1
 90
        0
176
     1
290
     0
176
     1
 90
        1
176
     1
 40
0.0
176
     1
 90
        0
176
     1
290
     0
176
     1
290
     1
176
     1
290
     1
176
     1
290
     0
176
     1
290
     0
176
     1
290
     0
176
     1
290
     0
176
     1
290
     0
176
     1
290
     0
176
     1
 90
       50
176
     1
 40
0.0
176
     1
 40
1.0
176
     1
 90
        0
176
     1
 62
    18
420
        0
176
     1
 90
       50
176
     1
 90
        3
176
     1
 62
     5
420
      255
176
     1
290
     0
176
     1
 90
       50
176
     1
 90
       50
176
     1
 90
       50
176
     1
290
     0
176
     1
 90
       50
176
     1
 62
   256
176
     0
 40
1.0
176
     0
 90
        2
176
     1
  1
strokes_ogs.tif
176
     1
290
     0
176
     1
 40
1.0
176
     1
 40
1.0
176
     1
  0
VISUALSTYLE
  5
3C
102
{ACAD_REACTORS
330
29
102
}
330
29
100
AcDbVisualStyle
  2
X-Ray
 70
    25
177
     3
291
     0
 70
    58
 90
        2
176
     1
 90
        2
176
     1
 90
        1
176
     1
 90
        1
176
     1
 40
0.5
176
     1
 40
30.0
176
     1
 62
     7
420
 16777215
176
     1
 90
        1
176
     1
 90
        0
176
     1
 62
     7
176
     1
 62
   257
176
     1
 90
        1
176
     1
 90
        1
176
     1
 40
1.0
176
     1
 90
        8
176
     1
 62
     7
176
     1
 40
1.0
176
     1
 90
        1
176
     1
 90
        6
176
     1
 90
        2
176
     1
 62
     7
176
     1
 90
        3
176
     1
 90
        0
176
     1
 90
        0
176
     1
290
     0
176
     1
 90
       13
176
     1
 40
0.0
176
     1
 90
        0
176
     1
290
     0
176
     1
290
     1
176
     1
290
     1
176
     1
290
     0
176
     1
290
     0
176
     1
290
     0
176
     1
290
     0
176
     1
290
     0
176
     1
290
     0
176
     1
 90
       50
176
     1
 40
0.0
176
     1
 40
1.0
176
     1
 90
        0
176
     1
 62
    18
420
        0
176
     1
 90
       50
176
     1
 90
        3
176
     1
 62
     5
420
      255
176
     1
290
     0
176
     1
 90
       50
176
     1
 90
       50
176
     1
 90
       50
176
     1
290
     0
176
     1
 90
       50
176
     1
 62
   256
176
     0
 40
1.0
176
     0
 90
        2
176
     1
  1
strokes_ogs.tif
176
     1
290
     0
176
     1
 40
1.0
176
     1
 40
1.0
176
     1
  0
DICTIONARYVAR
  5
28B
102
{ACAD_REACTORS
330
286
102
}
330
286
100
DictionaryVariables
280
     0
  1
1:1
  0
DICTIONARYVAR
  5
288
102
{ACAD_REACTORS
330
286
102
}
330
286
100
DictionaryVariables
280
     0
  1
STANDARD
  0
DICTIONARYVAR
  5
287
102
{ACAD_REACTORS
330
286
102
}
330
286
100
DictionaryVariables
280
     0
  1
STANDARD
  0
DICTIONARYVAR
  5
289
102
{ACAD_REACTORS
330
286
102
}
330
286
100
DictionaryVariables
280
     0
  1
Imperial24
  0
DICTIONARYVAR
  5
28A
102
{ACAD_REACTORS
330
286
102
}
330
286
100
DictionaryVariables
280
     0
  1
Imperial24
  0
DICTIONARY
  5
1A
330
19
100
AcDbDictionary
280
     1
281
     1
  3
BUMPTILE
360
1C
  3
DIFFUSETILE
360
1B
  3
OPACITYTILE
360
1F
  3
REFLECTIONTILE
360
1E
  3
REFRACTIONTILE
360
20
  3
SPECULARTILE
360
1D
  0
DICTIONARY
  5
12
330
11
100
AcDbDictionary
280
     1
281
     1
  3
BUMPTILE
360
14
  3
DIFFUSETILE
360
13
  3
OPACITYTILE
360
17
  3
REFLECTIONTILE
360
16
  3
REFRACTIONTILE
360
18
  3
SPECULARTILE
360
15
  0
DICTIONARY
  5
22
330
21
100
AcDbDictionary
280
     1
281
     1
  3
BUMPTILE
360
24
  3
DIFFUSETILE
360
23
  3
OPACITYTILE
360
27
  3
REFLECTIONTILE
360
26
  3
REFRACTIONTILE
360
28
  3
SPECULARTILE
360
25
  0
DICTIONARY
  5
28C
330
65
100
AcDbDictionary
280
     1
281
     1
  3
ACAD_ROUNDTRIP_2008_TABLESTYLE_CELLSTYLEMAP
360
28D
  0
XRECORD
  5
1C
102
{ACAD_REACTORS
330
1A
102
}
330
1A
100
AcDbXrecord
280
     1
270
     1
271
     1
  0
XRECORD
  5
1B
102
{ACAD_REACTORS
330
1A
102
}
330
1A
100
AcDbXrecord
280
     1
270
     1
271
     1
  0
XRECORD
  5
1F
102
{ACAD_REACTORS
330
1A
102
}
330
1A
100
AcDbXrecord
280
     1
270
     1
271
     1
  0
XRECORD
  5
1E
102
{ACAD_REACTORS
330
1A
102
}
330
1A
100
AcDbXrecord
280
     1
270
     1
271
     1
  0
XRECORD
  5
20
102
{ACAD_REACTORS
330
1A
102
}
330
1A
100
AcDbXrecord
280
     1
270
     1
271
     1
  0
XRECORD
  5
1D
102
{ACAD_REACTORS
330
1A
102
}
330
1A
100
AcDbXrecord
280
     1
270
     1
271
     1
  0
XRECORD
  5
14
102
{ACAD_REACTORS
330
12
102
}
330
12
100
AcDbXrecord
280
     1
270
     1
271
     1
  0
XRECORD
  5
13
102
{ACAD_REACTORS
330
12
102
}
330
12
100
AcDbXrecord
280
     1
270
     1
271
     1
  0
XRECORD
  5
17
102
{ACAD_REACTORS
330
12
102
}
330
12
100
AcDbXrecord
280
     1
270
     1
271
     1
  0
XRECORD
  5
16
102
{ACAD_REACTORS
330
12
102
}
330
12
100
AcDbXrecord
280
     1
270
     1
271
     1
  0
XRECORD
  5
18
102
{ACAD_REACTORS
330
12
102
}
330
12
100
AcDbXrecord
280
     1
270
     1
271
     1
  0
XRECORD
  5
15
102
{ACAD_REACTORS
330
12
102
}
330
12
100
AcDbXrecord
280
     1
270
     1
271
     1
  0
XRECORD
  5
24
102
{ACAD_REACTORS
330
22
102
}
330
22
100
AcDbXrecord
280
     1
270
     1
271
     1
  0
XRECORD
  5
23
102
{ACAD_REACTORS
330
22
102
}
330
22
100
AcDbXrecord
280
     1
270
     1
271
     1
  0
XRECORD
  5
27
102
{ACAD_REACTORS
330
22
102
}
330
22
100
AcDbXrecord
280
     1
270
     1
271
     1
  0
XRECORD
  5
26
102
{ACAD_REACTORS
330
22
102
}
330
22
100
AcDbXrecord
280
     1
270
     1
271
     1
  0
XRECORD
  5
28
102
{ACAD_REACTORS
330
22
102
}
330
22
100
AcDbXrecord
280
     1
270
     1
271
     1
  0
XRECORD
  5
25
102
{ACAD_REACTORS
330
22
102
}
330
22
100
AcDbXrecord
280
     1
270
     1
271
     1
  0
CELLSTYLEMAP
  5
28D
102
{ACAD_REACTORS
330
28C
102
}
330
28C
100
AcDbCellStyleMap
 90
        3
300
CELLSTYLE
  1
TABLEFORMAT_BEGIN
 90
        5
170
     1
 91
        0
 92
    32768
 62
   257
 93
        1
300
CONTENTFORMAT
  1
CONTENTFORMAT_BEGIN
 90
        0
 91
        0
 92
      512
 93
        0
300

 40
0.0
140
1.0
 94
        5
 62
     0
340
55
144
0.25
309
CONTENTFORMAT_END
171
     0
 94
        0
309
TABLEFORMAT_END
  1
CELLSTYLE_BEGIN
 90
        1
 91
        1
300
_TITLE
309
CELLSTYLE_END
300
CELLSTYLE
  1
TABLEFORMAT_BEGIN
 90
        5
170
     1
 91
        0
 92
        0
 62
   257
 93
        1
300
CONTENTFORMAT
  1
CONTENTFORMAT_BEGIN
 90
        0
 91
        0
 92
      512
 93
        0
300

 40
0.0
140
1.0
 94
        5
 62
     0
340
55
144
0.18
309
CONTENTFORMAT_END
171
     0
 94
        0
309
TABLEFORMAT_END
  1
CELLSTYLE_BEGIN
 90
        2
 91
        1
300
_HEADER
309
CELLSTYLE_END
300
CELLSTYLE
  1
TABLEFORMAT_BEGIN
 90
        5
170
     1
 91
        0
 92
        0
 62
   257
 93
        1
300
CONTENTFORMAT
  1
CONTENTFORMAT_BEGIN
 90
        0
 91
        0
 92
      512
 93
        0
300

 40
0.0
140
1.0
 94
        2
 62
     0
340
55
144
0.18
309
CONTENTFORMAT_END
171
     0
 94
        0
309
TABLEFORMAT_END
  1
CELLSTYLE_BEGIN
 90
        3
 91
        2
300
_DATA
309
CELLSTYLE_END
  0
ENDSEC
  0
EOF
