  0
SECTION
  2
HEADER
  9
$ACADVER
  1
AC1032
  9
$ACADMAINTVER
 90
      251
  9
$DWGCODEPAGE
  3
ANSI_1252
  9
$REQUIREDVERSIONS
160
                 0
  9
$INSBASE
 10
0.0
 20
0.0
 30
0.0
  9
$EXTMIN
 10
1.000000000000000E+20
 20
1.000000000000000E+20
 30
1.000000000000000E+20
  9
$EXTMAX
 10
-1.000000000000000E+20
 20
-1.000000000000000E+20
 30
-1.000000000000000E+20
  9
$LIMMIN
 10
0.0
 20
0.0
  9
$LIMMAX
 10
12.0
 20
9.0
  9
$ORTHOMODE
 70
     0
  9
$REGENMODE
 70
     1
  9
$FILLMODE
 70
     1
  9
$QTEXTMODE
 70
     0
  9
$MIRRTEXT
 70
     0
  9
$LTSCALE
 40
1.0
  9
$ATTMODE
 70
     1
  9
$TEXTSIZE
 40
0.2
  9
$TRACEWID
 40
0.05
  9
$TEXTSTYLE
  7
Standard
  9
$CLAYER
  8
0
  9
$CELTYPE
  6
ByLayer
  9
$CECOLOR
 62
   256
  9
$CELTSCALE
 40
1.0
  9
$DISPSILH
 70
     0
  9
$DIMSCALE
 40
1.0
  9
$DIMASZ
 40
0.18
  9
$DIMEXO
 40
0.0625
  9
$DIMDLI
 40
0.38
  9
$DIMRND
 40
0.0
  9
$DIMDLE
 40
0.0
  9
$DIMEXE
 40
0.18
  9
$DIMTP
 40
0.0
  9
$DIMTM
 40
0.0
  9
$DIMTXT
 40
0.18
  9
$DIMCEN
 40
0.09
  9
$DIMTSZ
 40
0.0
  9
$DIMTOL
 70
     0
  9
$DIMLIM
 70
     0
  9
$DIMTIH
 70
     1
  9
$DIMTOH
 70
     1
  9
$DIMSE1
 70
     0
  9
$DIMSE2
 70
     0
  9
$DIMTAD
 70
     0
  9
$DIMZIN
 70
     0
  9
$DIMBLK
  1

  9
$DIMASO
 70
     1
  9
$DIMSHO
 70
     1
  9
$DIMPOST
  1

  9
$DIMAPOST
  1

  9
$DIMALT
 70
     0
  9
$DIMALTD
 70
     2
  9
$DIMALTF
 40
25.4
  9
$DIMLFAC
 40
1.0
  9
$DIMTOFL
 70
     0
  9
$DIMTVP
 40
0.0
  9
$DIMTIX
 70
     0
  9
$DIMSOXD
 70
     0
  9
$DIMSAH
 70
     0
  9
$DIMBLK1
  1

  9
$DIMBLK2
  1

  9
$DIMSTYLE
  2
Standard
  9
$DIMCLRD
 70
     0
  9
$DIMCLRE
 70
     0
  9
$DIMCLRT
 70
     0
  9
$DIMTFAC
 40
1.0
  9
$DIMGAP
 40
0.09
  9
$DIMJUST
 70
     0
  9
$DIMSD1
 70
     0
  9
$DIMSD2
 70
     0
  9
$DIMTOLJ
 70
     1
  9
$DIMTZIN
 70
     0
  9
$DIMALTZ
 70
     0
  9
$DIMALTTZ
 70
     0
  9
$DIMUPT
 70
     0
  9
$DIMDEC
 70
     4
  9
$DIMTDEC
 70
     4
  9
$DIMALTU
 70
     2
  9
$DIMALTTD
 70
     2
  9
$DIMTXSTY
  7
Standard
  9
$DIMAUNIT
 70
     0
  9
$DIMADEC
 70
     0
  9
$DIMALTRND
 40
0.0
  9
$DIMAZIN
 70
     0
  9
$DIMDSEP
 70
    46
  9
$DIMATFIT
 70
     3
  9
$DIMFRAC
 70
     0
  9
$DIMLDRBLK
  1

  9
$DIMLUNIT
 70
     2
  9
$DIMLWD
 70
    -2
  9
$DIMLWE
 70
    -2
  9
$DIMTMOVE
 70
     0
  9
$DIMFXL
 40
1.0
  9
$DIMFXLON
 70
     0
  9
$DIMJOGANG
 40
0.7853981633974483
  9
$DIMTFILL
 70
     0
  9
$DIMTFILLCLR
 70
     0
  9
$DIMARCSYM
 70
     0
  9
$DIMLTYPE
  6

  9
$DIMLTEX1
  6

  9
$DIMLTEX2
  6

  9
$DIMTXTDIRECTION
 70
     0
  9
$LUNITS
 70
     2
  9
$LUPREC
 70
     4
  9
$SKETCHINC
 40
0.1
  9
$FILLETRAD
 40
0.0
  9
$AUNITS
 70
     0
  9
$AUPREC
 70
     0
  9
$MENU
  1
.
  9
$ELEVATION
 40
0.0
  9
$PELEVATION
 40
0.0
  9
$THICKNESS
 40
0.0
  9
$LIMCHECK
 70
     0
  9
$CHAMFERA
 40
0.0
  9
$CHAMFERB
 40
0.0
  9
$CHAMFERC
 40
0.0
  9
$CHAMFERD
 40
0.0
  9
$SKPOLY
 70
     0
  9
$TDCREATE
 40
2460035.542997685
  9
$TDUCREATE
 40
2460035.459664352
  9
$TDUPDATE
 40
2460035.542997685
  9
$TDUUPDATE
 40
2460035.459664352
  9
$TDINDWG
 40
0.0000000000
  9
$TDUSRTIMER
 40
0.0000000000
  9
$USRTIMER
 70
     1
  9
$ANGBASE
 50
0.0
  9
$ANGDIR
 70
     0
  9
$PDMODE
 70
     0
  9
$PDSIZE
 40
0.0
  9
$PLINEWID
 40
0.0
  9
$SPLFRAME
 70
     0
  9
$SPLINETYPE
 70
     6
  9
$SPLINESEGS
 70
     8
  9
$HANDSEED
  5
3DD
  9
$SURFTAB1
 70
     6
  9
$SURFTAB2
 70
     6
  9
$SURFTYPE
 70
     6
  9
$SURFU
 70
     6
  9
$SURFV
 70
     6
  9
$UCSBASE
  2

  9
$UCSNAME
  2

  9
$UCSORG
 10
0.0
 20
0.0
 30
0.0
  9
$UCSXDIR
 10
1.0
 20
0.0
 30
0.0
  9
$UCSYDIR
 10
0.0
 20
1.0
 30
0.0
  9
$UCSORTHOREF
  2

  9
$UCSORTHOVIEW
 70
     0
  9
$UCSORGTOP
 10
0.0
 20
0.0
 30
0.0
  9
$UCSORGBOTTOM
 10
0.0
 20
0.0
 30
0.0
  9
$UCSORGLEFT
 10
0.0
 20
0.0
 30
0.0
  9
$UCSORGRIGHT
 10
0.0
 20
0.0
 30
0.0
  9
$UCSORGFRONT
 10
0.0
 20
0.0
 30
0.0
  9
$UCSORGBACK
 10
0.0
 20
0.0
 30
0.0
  9
$PUCSBASE
  2

  9
$PUCSNAME
  2

  9
$PUCSORG
 10
0.0
 20
0.0
 30
0.0
  9
$PUCSXDIR
 10
1.0
 20
0.0
 30
0.0
  9
$PUCSYDIR
 10
0.0
 20
1.0
 30
0.0
  9
$PUCSORTHOREF
  2

  9
$PUCSORTHOVIEW
 70
     0
  9
$PUCSORGTOP
 10
0.0
 20
0.0
 30
0.0
  9
$PUCSORGBOTTOM
 10
0.0
 20
0.0
 30
0.0
  9
$PUCSORGLEFT
 10
0.0
 20
0.0
 30
0.0
  9
$PUCSORGRIGHT
 10
0.0
 20
0.0
 30
0.0
  9
$PUCSORGFRONT
 10
0.0
 20
0.0
 30
0.0
  9
$PUCSORGBACK
 10
0.0
 20
0.0
 30
0.0
  9
$USERI1
 70
     0
  9
$USERI2
 70
     0
  9
$USERI3
 70
     0
  9
$USERI4
 70
     0
  9
$USERI5
 70
     0
  9
$USERR1
 40
0.0
  9
$USERR2
 40
0.0
  9
$USERR3
 40
0.0
  9
$USERR4
 40
0.0
  9
$USERR5
 40
0.0
  9
$WORLDVIEW
 70
     1
  9
$SHADEDGE
 70
     3
  9
$SHADEDIF
 70
    70
  9
$TILEMODE
 70
     1
  9
$MAXACTVP
 70
    64
  9
$PINSBASE
 10
0.0
 20
0.0
 30
0.0
  9
$PLIMCHECK
 70
     0
  9
$PEXTMIN
 10
1.000000000000000E+20
 20
1.000000000000000E+20
 30
1.000000000000000E+20
  9
$PEXTMAX
 10
-1.000000000000000E+20
 20
-1.000000000000000E+20
 30
-1.000000000000000E+20
  9
$PLIMMIN
 10
0.0
 20
0.0
  9
$PLIMMAX
 10
12.0
 20
9.0
  9
$UNITMODE
 70
     0
  9
$VISRETAIN
 70
     1
  9
$PLINEGEN
 70
     0
  9
$PSLTSCALE
 70
     1
  9
$TREEDEPTH
 70
  3020
  9
$CMLSTYLE
  2
Standard
  9
$CMLJUST
 70
     0
  9
$CMLSCALE
 40
1.0
  9
$PROXYGRAPHICS
 70
     1
  9
$MEASUREMENT
 70
     0
  9
$CELWEIGHT
370
    -1
  9
$ENDCAPS
280
     0
  9
$JOINSTYLE
280
     0
  9
$LWDISPLAY
290
     1
  9
$INSUNITS
 70
     4
  9
$HYPERLINKBASE
  1

  9
$STYLESHEET
  1

  9
$XEDIT
290
     1
  9
$CEPSNTYPE
380
     0
  9
$PSTYLEMODE
290
     1
  9
$FINGERPRINTGUID
  2
{28176538-247F-7648-B5CB-DED8B014A102}
  9
$VERSIONGUID
  2
{A0F85049-6413-304C-BB13-02F84A54371E}
  9
$EXTNAMES
290
     1
  9
$PSVPSCALE
 40
0.0
  9
$OLESTARTUP
290
     0
  9
$SORTENTS
280
   127
  9
$INDEXCTL
280
     0
  9
$HIDETEXT
280
     1
  9
$XCLIPFRAME
280
     2
  9
$HALOGAP
280
     0
  9
$OBSCOLOR
 70
   257
  9
$OBSLTYPE
280
     0
  9
$INTERSECTIONDISPLAY
280
     0
  9
$INTERSECTIONCOLOR
 70
   257
  9
$DIMASSOC
280
     2
  9
$PROJECTNAME
  1

  9
$CAMERADISPLAY
290
     0
  9
$LENSLENGTH
 40
50.0
  9
$CAMERAHEIGHT
 40
0.0
  9
$STEPSPERSEC
 40
2.0
  9
$STEPSIZE
 40
6.0
  9
$3DDWFPREC
 40
2.0
  9
$PSOLWIDTH
 40
0.25
  9
$PSOLHEIGHT
 40
4.0
  9
$LOFTANG1
 40
1.570796326794896
  9
$LOFTANG2
 40
1.570796326794896
  9
$LOFTMAG1
 40
0.0
  9
$LOFTMAG2
 40
0.0
  9
$LOFTPARAM
 70
     7
  9
$LOFTNORMALS
280
     1
  9
$LATITUDE
 40
37.795
  9
$LONGITUDE
 40
-122.394
  9
$NORTHDIRECTION
 40
0.0
  9
$TIMEZONE
 70
 -8000
  9
$LIGHTGLYPHDISPLAY
280
     1
  9
$TILEMODELIGHTSYNCH
280
     1
  9
$CMATERIAL
347
11
  9
$SOLIDHIST
280
     0
  9
$SHOWHIST
280
     1
  9
$DWFFRAME
280
     2
  9
$DGNFRAME
280
     0
  9
$REALWORLDSCALE
290
     1
  9
$INTERFERECOLOR
 62
     1
  9
$INTERFEREOBJVS
345
33
  9
$INTERFEREVPVS
346
30
  9
$CSHADOW
280
     0
  9
$SHADOWPLANELOCATION
 40
0.0
  0
ENDSEC
  0
SECTION
  2
CLASSES
  0
CLASS
  1
ACDBDICTIONARYWDFLT
  2
AcDbDictionaryWithDefault
  3
ObjectDBX Classes
 90
        0
 91
        1
280
     0
281
     0
  0
CLASS
  1
MATERIAL
  2
AcDbMaterial
  3
ObjectDBX Classes
 90
     1153
 91
        3
280
     0
281
     0
  0
CLASS
  1
VISUALSTYLE
  2
AcDbVisualStyle
  3
ObjectDBX Classes
 90
     4095
 91
       24
280
     0
281
     0
  0
CLASS
  1
SCALE
  2
AcDbScale
  3
ObjectDBX Classes
 90
     1153
 91
       17
280
     0
281
     0
  0
CLASS
  1
TABLESTYLE
  2
AcDbTableStyle
  3
ObjectDBX Classes
 90
     4095
 91
        1
280
     0
281
     0
  0
CLASS
  1
MLEADERSTYLE
  2
AcDbMLeaderStyle
  3
ACDB_MLEADERSTYLE_CLASS
 90
     4095
 91
        1
280
     0
281
     0
  0
CLASS
  1
ACDBSECTIONVIEWSTYLE
  2
AcDbSectionViewStyle
  3
ObjectDBX Classes
 90
     1025
 91
        1
280
     0
281
     0
  0
CLASS
  1
ACDBDETAILVIEWSTYLE
  2
AcDbDetailViewStyle
  3
ObjectDBX Classes
 90
     1025
 91
        1
280
     0
281
     0
  0
CLASS
  1
DICTIONARYVAR
  2
AcDbDictionaryVar
  3
ObjectDBX Classes
 90
        0
 91
        5
280
     0
281
     0
  0
CLASS
  1
CELLSTYLEMAP
  2
AcDbCellStyleMap
  3
ObjectDBX Classes
 90
     1152
 91
        1
280
     0
281
     0
  0
ENDSEC
  0
SECTION
  2
TABLES
  0
TABLE
  2
VPORT
  5
8
330
0
100
AcDbSymbolTable
 70
     1
  0
VPORT
  5
57
330
8
100
AcDbSymbolTableRecord
100
AcDbViewportTableRecord
  2
*Active
 70
     0
 10
0.0
 20
0.0
 11
1.0
 21
1.0
 12
0.0
 22
0.0
 13
0.0
 23
0.0
 14
1.0
 24
1.0
 15
0.0
 25
0.0
 16
0.0
 26
0.0
 36
1.0
 17
104.9999999737499
 27
31.49999999212523
 37
0.0
 40
302.9399999242649
 41
0.7070707070707066
 42
50.0
 43
0.0
 44
0.0
 50
0.0
 51
0.0
 71
     0
 72
   100
 73
     1
 74
     1
 75
     0
 76
     0
 77
     0
 78
     0
281
     0
 65
     1
110
0.0
120
0.0
130
0.0
111
1.0
121
0.0
131
0.0
112
0.0
122
1.0
132
0.0
 79
     0
146
0.0
 60
     3
 61
     5
292
     1
282
     1
141
0.0
142
0.0
 63
   250
421
  3355443
  0
ENDTAB
  0
TABLE
  2
LTYPE
  5
5
330
0
100
AcDbSymbolTable
 70
     1
  0
LTYPE
  5
5B
330
5
100
AcDbSymbolTableRecord
100
AcDbLinetypeTableRecord
  2
ByBlock
 70
     0
  3

 72
    65
 73
     0
 40
0.0
  0
LTYPE
  5
5C
330
5
100
AcDbSymbolTableRecord
100
AcDbLinetypeTableRecord
  2
ByLayer
 70
     0
  3

 72
    65
 73
     0
 40
0.0
  0
LTYPE
  5
5D
330
5
100
AcDbSymbolTableRecord
100
AcDbLinetypeTableRecord
  2
Continuous
 70
     0
  3
Solid line
 72
    65
 73
     0
 40
0.0
  0
ENDTAB
  0
TABLE
  2
LAYER
  5
2
330
0
100
AcDbSymbolTable
 70
     2
  0
LAYER
  5
54
330
2
100
AcDbSymbolTableRecord
100
AcDbLayerTableRecord
  2
0
 70
     0
 62
     7
  6
Continuous
370
     0
390
F
347
21
348
0
  0
LAYER
  5
3AF
330
2
100
AcDbSymbolTableRecord
100
AcDbLayerTableRecord
  2
CAPA_BASE
 70
     0
 62
     7
  6
Continuous
370
     0
390
F
347
21
348
0
  0
ENDTAB
  0
TABLE
  2
STYLE
  5
3
330
0
100
AcDbSymbolTable
 70
     2
  0
STYLE
  5
55
330
3
100
AcDbSymbolTableRecord
100
AcDbTextStyleTableRecord
  2
Standard
 70
     0
 40
0.0
 41
1.0
 50
0.0
 71
     0
 42
0.2
  3
txt
  4

  0
STYLE
  5
5A
330
3
100
AcDbSymbolTableRecord
100
AcDbTextStyleTableRecord
  2
Annotative
 70
     0
 40
0.0
 41
1.0
 50
0.0
 71
     0
 42
0.2
  3
txt
  4

1001
AcadAnnotative
1000
AnnotativeData
1002
{
1070
     1
1070
     1
1002
}
  0
ENDTAB
  0
TABLE
  2
VIEW
  5
6
330
0
100
AcDbSymbolTable
 70
     0
  0
ENDTAB
  0
TABLE
  2
UCS
  5
7
330
0
100
AcDbSymbolTable
 70
     0
  0
ENDTAB
  0
TABLE
  2
APPID
  5
9
330
0
100
AcDbSymbolTable
 70
     2
  0
APPID
  5
56
330
9
100
AcDbSymbolTableRecord
100
AcDbRegAppTableRecord
  2
ACAD
 70
     0
  0
APPID
  5
5E
330
9
100
AcDbSymbolTableRecord
100
AcDbRegAppTableRecord
  2
AcadAnnotative
 70
     0
  0
ENDTAB
  0
TABLE
  2
DIMSTYLE
  5
A
330
0
100
AcDbSymbolTable
 70
     2
100
AcDbDimStyleTable
 71
     0
  0
DIMSTYLE
105
58
330
A
100
AcDbSymbolTableRecord
100
AcDbDimStyleTableRecord
  2
Standard
 70
     0
340
55
  0
DIMSTYLE
105
59
330
A
100
AcDbSymbolTableRecord
100
AcDbDimStyleTableRecord
  2
Annotative
 70
     0
340
55
1001
AcadAnnotative
1000
AnnotativeData
1002
{
1070
     1
1070
     1
1002
}
  0
ENDTAB
  0
TABLE
  2
BLOCK_RECORD
  5
1
330
0
100
AcDbSymbolTable
 70
     4
  0
BLOCK_RECORD
  5
70
330
1
100
AcDbSymbolTableRecord
100
AcDbBlockTableRecord
  2
*Model_Space
340
73
 70
     0
280
     1
281
     0
  0
BLOCK_RECORD
  5
6C
330
1
100
AcDbSymbolTableRecord
100
AcDbBlockTableRecord
  2
*Paper_Space
340
6F
 70
     0
280
     1
281
     0
  0
BLOCK_RECORD
  5
74
330
1
100
AcDbSymbolTableRecord
100
AcDbBlockTableRecord
  2
*Paper_Space0
340
77
 70
     0
280
     1
281
     0
  0
BLOCK_RECORD
  5
3B0
330
1
100
AcDbSymbolTableRecord
100
AcDbBlockTableRecord
  2
Block_0
340
0
102
{BLKREFS
331
3B1
102
}
 70
     0
280
     1
281
     0
  0
BLOCK_RECORD
  5
3BC
330
1
100
AcDbSymbolTableRecord
100
AcDbBlockTableRecord
  2
Block_1
340
0
102
{BLKREFS
331
3BD
102
}
 70
     0
280
     1
281
     0
  0
BLOCK_RECORD
  5
3C8
330
1
100
AcDbSymbolTableRecord
100
AcDbBlockTableRecord
  2
Block_2
340
0
102
{BLKREFS
331
3C9
102
}
 70
     0
280
     1
281
     0
  0
ENDTAB
  0
ENDSEC
  0
SECTION
  2
BLOCKS
  0
BLOCK
  5
71
330
70
100
AcDbEntity
  8
0
100
AcDbBlockBegin
  2
*Model_Space
 70
     0
 10
0.0
 20
0.0
 30
0.0
  3
*Model_Space
  1

  0
ENDBLK
  5
72
330
70
100
AcDbEntity
  8
0
100
AcDbBlockEnd
  0
BLOCK
  5
6D
330
6C
100
AcDbEntity
 67
     1
  8
0
100
AcDbBlockBegin
  2
*Paper_Space
 70
     0
 10
0.0
 20
0.0
 30
0.0
  3
*Paper_Space
  1

  0
ENDBLK
  5
6E
330
6C
100
AcDbEntity
 67
     1
  8
0
100
AcDbBlockEnd
  0
BLOCK
  5
75
330
74
100
AcDbEntity
 67
     1
  8
0
100
AcDbBlockBegin
  2
*Paper_Space0
 70
     0
 10
0.0
 20
0.0
 30
0.0
  3
*Paper_Space0
  1

  0
ENDBLK
  5
76
330
74
100
AcDbEntity
 67
     1
  8
0
100
AcDbBlockEnd
  0
BLOCK
  5
3B2
330
3B0
100
AcDbEntity
  8
0
100
AcDbBlockBegin
  2
Block_0
 70
     0
 10
0.0
 20
0.0
 30
0.0
  3
Block_0
  1

  0
LWPOLYLINE
  5
3B4
330
3B0
100
AcDbEntity
  8
CAPA_BASE
100
AcDbPolyline
 90
        4
 70
     1
 43
0.0
 10
114.6684530528836
 20
100.3117310680865
 10
112.1684530528844
 20
100.6217310680862
 10
112.1684530528844
 20
100.0017310680864
 10
112.1684530528844
 20
100.0017310680864
  0
HATCH
  5
3B5
330
3B0
100
AcDbEntity
  8
CAPA_BASE
 62
    18
420
        0
440
 33554687
100
AcDbHatch
 10
0.0
 20
0.0
 30
0.0
210
0.0
220
0.0
230
1.0
  2
SOLID
 70
     1
 71
     1
 91
        1
 92
        1
 93
        3
 72
     1
 10
114.6684530528836
 20
100.3117310680865
 11
112.1684530528844
 21
100.6217310680862
 72
     1
 10
112.1684530528844
 20
100.6217310680862
 11
112.1684530528844
 21
100.0017310680864
 72
     1
 10
112.1684530528844
 20
100.0017310680864
 11
114.6684530528836
 21
100.3117310680865
 97
        1
330
3B4
 75
     2
 76
     1
 98
        1
 10
0.0
 20
0.0
450
        0
451
        0
460
0.0
461
0.0
452
        0
462
0.0
453
        0
470

  0
LWPOLYLINE
  5
3B6
330
3B0
100
AcDbEntity
  8
CAPA_BASE
100
AcDbPolyline
 90
        4
 70
     1
 43
0.0
 10
14.66845305288422
 20
100.3117310680865
 10
17.1684530528843
 20
100.0017310680864
 10
17.1684530528843
 20
100.6217310680862
 10
17.1684530528843
 20
100.6217310680862
  0
HATCH
  5
3B7
330
3B0
100
AcDbEntity
  8
CAPA_BASE
 62
    18
420
        0
440
 33554687
100
AcDbHatch
 10
0.0
 20
0.0
 30
0.0
210
0.0
220
0.0
230
1.0
  2
SOLID
 70
     1
 71
     1
 91
        1
 92
        1
 93
        3
 72
     1
 10
14.66845305288422
 20
100.3117310680865
 11
17.1684530528843
 21
100.0017310680864
 72
     1
 10
17.1684530528843
 20
100.0017310680864
 11
17.1684530528843
 21
100.6217310680862
 72
     1
 10
17.1684530528843
 20
100.6217310680862
 11
14.66845305288422
 21
100.3117310680865
 97
        1
330
3B6
 75
     2
 76
     1
 98
        1
 10
0.0
 20
0.0
450
        0
451
        0
460
0.0
461
0.0
452
        0
462
0.0
453
        0
470

  0
LINE
  5
3B8
330
3B0
100
AcDbEntity
  8
CAPA_BASE
 62
    18
420
        0
370
    25
100
AcDbLine
 10
114.6684530528836
 20
116.9367310680861
 30
0.0
 11
114.6684530528836
 21
99.31173106808644
 31
0.0
  0
LINE
  5
3B9
330
3B0
100
AcDbEntity
  8
CAPA_BASE
 62
    18
420
        0
370
    25
100
AcDbLine
 10
14.66845305288422
 20
116.9367310680861
 30
0.0
 11
14.66845305288422
 21
99.31173106808644
 31
0.0
  0
LINE
  5
3BA
330
3B0
100
AcDbEntity
  8
CAPA_BASE
 62
    18
420
        0
370
    25
100
AcDbLine
 10
114.6684530528836
 20
100.3117310680865
 30
0.0
 11
14.66845305288422
 21
100.3117310680865
 31
0.0
  0
MTEXT
  5
3BB
330
3B0
100
AcDbEntity
  8
CAPA_BASE
100
AcDbMText
 10
62.02261923193087
 20
101.1054888154625
 30
0.0
 40
0.2
 41
0.0
 46
0.0
 71
     7
 72
     1
  1
\C18;\c0;\FArial Bold|b1|i0|c1;\H2.997200;\W0.700000;400
 73
     1
 44
1.0
  0
ENDBLK
  5
3B3
330
3B0
100
AcDbEntity
  8
0
100
AcDbBlockEnd
  0
BLOCK
  5
3BE
330
3BC
100
AcDbEntity
  8
0
100
AcDbBlockBegin
  2
Block_1
 70
     0
 10
0.0
 20
0.0
 30
0.0
  3
Block_1
  1

  0
LWPOLYLINE
  5
3C0
330
3BC
100
AcDbEntity
  8
CAPA_BASE
100
AcDbPolyline
 90
        4
 70
     1
 43
0.0
 10
135.4803755896837
 20
125.3117310680864
 10
135.170375589684
 20
122.8117310680863
 10
135.7903755896847
 20
122.8117310680863
 10
135.7903755896847
 20
122.8117310680863
  0
HATCH
  5
3C1
330
3BC
100
AcDbEntity
  8
CAPA_BASE
 62
    18
420
        0
440
 33554687
100
AcDbHatch
 10
0.0
 20
0.0
 30
0.0
210
0.0
220
0.0
230
1.0
  2
SOLID
 70
     1
 71
     1
 91
        1
 92
        1
 93
        3
 72
     1
 10
135.4803755896837
 20
125.3117310680864
 11
135.170375589684
 21
122.8117310680863
 72
     1
 10
135.170375589684
 20
122.8117310680863
 11
135.7903755896847
 21
122.8117310680863
 72
     1
 10
135.7903755896847
 20
122.8117310680863
 11
135.4803755896837
 21
125.3117310680864
 97
        1
330
3C0
 75
     2
 76
     1
 98
        1
 10
0.0
 20
0.0
450
        0
451
        0
460
0.0
461
0.0
452
        0
462
0.0
453
        0
470

  0
LWPOLYLINE
  5
3C2
330
3BC
100
AcDbEntity
  8
CAPA_BASE
100
AcDbPolyline
 90
        4
 70
     1
 43
0.0
 10
135.4803755896837
 20
110.3117310680862
 10
135.7903755896847
 20
112.8117310680863
 10
135.170375589684
 20
112.8117310680863
 10
135.170375589684
 20
112.8117310680863
  0
HATCH
  5
3C3
330
3BC
100
AcDbEntity
  8
CAPA_BASE
 62
    18
420
        0
440
 33554687
100
AcDbHatch
 10
0.0
 20
0.0
 30
0.0
210
0.0
220
0.0
230
1.0
  2
SOLID
 70
     1
 71
     1
 91
        1
 92
        1
 93
        3
 72
     1
 10
135.4803755896837
 20
110.3117310680862
 11
135.7903755896847
 21
112.8117310680863
 72
     1
 10
135.7903755896847
 20
112.8117310680863
 11
135.170375589684
 21
112.8117310680863
 72
     1
 10
135.170375589684
 20
112.8117310680863
 11
135.4803755896837
 21
110.3117310680862
 97
        1
330
3C2
 75
     2
 76
     1
 98
        1
 10
0.0
 20
0.0
450
        0
451
        0
460
0.0
461
0.0
452
        0
462
0.0
453
        0
470

  0
LINE
  5
3C4
330
3BC
100
AcDbEntity
  8
CAPA_BASE
 62
    18
420
        0
370
    25
100
AcDbLine
 10
144.4803755896847
 20
125.3117310680864
 30
0.0
 11
134.4803755896843
 21
125.3117310680864
 31
0.0
  0
LINE
  5
3C5
330
3BC
100
AcDbEntity
  8
CAPA_BASE
 62
    18
420
        0
370
    25
100
AcDbLine
 10
149.7303755896838
 20
110.3117310680862
 30
0.0
 11
134.4803755896843
 21
110.3117310680862
 31
0.0
  0
LINE
  5
3C6
330
3BC
100
AcDbEntity
  8
CAPA_BASE
 62
    18
420
        0
370
    25
100
AcDbLine
 10
135.4803755896837
 20
125.3117310680864
 30
0.0
 11
135.4803755896837
 21
110.3117310680862
 31
0.0
  0
MTEXT
  5
3C7
330
3BC
100
AcDbEntity
  8
CAPA_BASE
100
AcDbMText
 10
134.6866243449571
 20
116.0476969110916
 30
0.0
 40
0.2
 41
0.0
 46
0.0
 71
     7
 72
     1
  1
\C18;\c0;\FArial Bold|b1|i0|c1;\H2.997200;\W0.700000;60
 11
0.0000000000000003
 21
1.0
 31
0.0
 73
     1
 44
1.0
  0
ENDBLK
  5
3BF
330
3BC
100
AcDbEntity
  8
0
100
AcDbBlockEnd
  0
BLOCK
  5
3CA
330
3C8
100
AcDbEntity
  8
0
100
AcDbBlockBegin
  2
Block_2
 70
     0
 10
0.0
 20
0.0
 30
0.0
  3
Block_2
  1

  0
LWPOLYLINE
  5
3CC
330
3C8
100
AcDbEntity
  8
CAPA_BASE
100
AcDbPolyline
 90
        4
 70
     1
 43
0.0
 10
124.6684530528839
 20
59.81902030868614
 10
124.3584530528842
 20
57.31902030868637
 10
124.9784530528836
 20
57.31902030868637
 10
124.9784530528836
 20
57.31902030868637
  0
HATCH
  5
3CD
330
3C8
100
AcDbEntity
  8
CAPA_BASE
 62
    18
420
        0
440
 33554687
100
AcDbHatch
 10
0.0
 20
0.0
 30
0.0
210
0.0
220
0.0
230
1.0
  2
SOLID
 70
     1
 71
     1
 91
        1
 92
        1
 93
        3
 72
     1
 10
124.6684530528839
 20
59.81902030868614
 11
124.3584530528842
 21
57.31902030868637
 72
     1
 10
124.3584530528842
 20
57.31902030868637
 11
124.9784530528836
 21
57.31902030868637
 72
     1
 10
124.9784530528836
 20
57.31902030868637
 11
124.6684530528839
 21
59.81902030868614
 97
        1
330
3CC
 75
     2
 76
     1
 98
        1
 10
0.0
 20
0.0
450
        0
451
        0
460
0.0
461
0.0
452
        0
462
0.0
453
        0
470

  0
LWPOLYLINE
  5
3CE
330
3C8
100
AcDbEntity
  8
CAPA_BASE
100
AcDbPolyline
 90
        4
 70
     1
 43
0.0
 10
124.6684530528839
 20
27.06902030868643
 10
124.9784530528836
 20
29.5690203086862
 10
124.3584530528842
 20
29.5690203086862
 10
124.3584530528842
 20
29.5690203086862
  0
HATCH
  5
3CF
330
3C8
100
AcDbEntity
  8
CAPA_BASE
 62
    18
420
        0
440
 33554687
100
AcDbHatch
 10
0.0
 20
0.0
 30
0.0
210
0.0
220
0.0
230
1.0
  2
SOLID
 70
     1
 71
     1
 91
        1
 92
        1
 93
        3
 72
     1
 10
124.6684530528839
 20
27.06902030868643
 11
124.9784530528836
 21
29.5690203086862
 72
     1
 10
124.9784530528836
 20
29.5690203086862
 11
124.3584530528842
 21
29.5690203086862
 72
     1
 10
124.3584530528842
 20
29.5690203086862
 11
124.6684530528839
 21
27.06902030868643
 97
        1
330
3CE
 75
     2
 76
     1
 98
        1
 10
0.0
 20
0.0
450
        0
451
        0
460
0.0
461
0.0
452
        0
462
0.0
453
        0
470

  0
LINE
  5
3D0
330
3C8
100
AcDbEntity
  8
CAPA_BASE
 62
    18
420
        0
370
    25
100
AcDbLine
 10
96.91845305288374
 20
59.81902030868614
 30
0.0
 11
125.6684530528846
 21
59.81902030868614
 31
0.0
  0
LINE
  5
3D1
330
3C8
100
AcDbEntity
  8
CAPA_BASE
 62
    18
420
        0
370
    25
100
AcDbLine
 10
115.6684530528842
 20
27.06902030868643
 30
0.0
 11
125.6684530528846
 21
27.06902030868643
 31
0.0
  0
LINE
  5
3D2
330
3C8
100
AcDbEntity
  8
CAPA_BASE
 62
    18
420
        0
370
    25
100
AcDbLine
 10
124.6684530528839
 20
59.81902030868614
 30
0.0
 11
124.6684530528839
 21
27.06902030868643
 31
0.0
  0
MTEXT
  5
3D3
330
3C8
100
AcDbEntity
  8
CAPA_BASE
100
AcDbMText
 10
123.8747035458616
 20
40.79819877452203
 30
0.0
 40
0.2
 41
0.0
 46
0.0
 71
     7
 72
     1
  1
\C18;\c0;\FArial Bold|b1|i0|c1;\H2.997200;\W0.700000;131
 11
0.0000000000000003
 21
1.0
 31
0.0
 73
     1
 44
1.0
  0
ENDBLK
  5
3CB
330
3C8
100
AcDbEntity
  8
0
100
AcDbBlockEnd
  0
ENDSEC
  0
SECTION
  2
ENTITIES
  0
LINE
  5
78
330
70
100
AcDbEntity
  8
0
 62
    18
420
        0
370
    25
100
AcDbLine
 10
14.98095200978419
 20
115.5617309600863
 30
0.0
 11
14.98095200978419
 21
111.8117312767863
 31
0.0
  0
LINE
  5
79
330
70
100
AcDbEntity
  8
0
 62
    18
420
        0
370
    25
100
AcDbLine
 10
15.73095352968417
 20
111.8117312767863
 30
0.0
 11
15.73095352968417
 21
114.2626928963862
 31
0.0
  0
SPLINE
  5
7A
330
70
100
AcDbEntity
  8
0
 62
    18
420
        0
370
    25
100
AcDbSpline
210
0.0
220
0.0
230
1.0
 70
     8
 71
     3
 72
     8
 73
     4
 74
     0
 42
0.0000000001
 43
0.0000000001
 40
0.0
 40
0.0
 40
0.0
 40
0.0
 40
1.0
 40
1.0
 40
1.0
 40
1.0
 10
15.73095305288413
 20
111.8117310680862
 30
0.0
 10
15.73095305288413
 20
111.3975175057132
 30
0.0
 10
16.06673949051095
 20
111.0617310680863
 30
0.0
 10
16.48095305288432
 20
111.0617310680863
 30
0.0
  0
SPLINE
  5
7B
330
70
100
AcDbEntity
  8
0
 62
    18
420
        0
370
    25
100
AcDbSpline
210
0.0
220
0.0
230
1.0
 70
     8
 71
     3
 72
     8
 73
     4
 74
     0
 42
0.0000000001
 43
0.0000000001
 40
0.0
 40
0.0
 40
0.0
 40
0.0
 40
1.0
 40
1.0
 40
1.0
 40
1.0
 10
14.98095305288427
 20
111.8117310680862
 30
0.0
 10
14.98095305288427
 20
110.9833039433401
 30
0.0
 10
15.65252592813789
 20
110.3117310680862
 30
0.0
 10
16.48095305288432
 20
110.3117310680862
 30
0.0
  0
LINE
  5
7C
330
70
100
AcDbEntity
  8
0
 62
    18
420
        0
370
    25
100
AcDbLine
 10
112.8559547813835
 20
111.0617306881861
 30
0.0
 11
16.48095132438422
 21
111.0617306881861
 31
0.0
  0
LINE
  5
7D
330
70
100
AcDbEntity
  8
0
 62
    18
420
        0
370
    25
100
AcDbLine
 10
16.48095132438422
 20
110.3117310308862
 30
0.0
 11
112.8559547813835
 21
110.3117310308862
 31
0.0
  0
SPLINE
  5
7E
330
70
100
AcDbEntity
  8
0
 62
    18
420
        0
370
    25
100
AcDbSpline
210
0.0
220
0.0
230
1.0
 70
     8
 71
     3
 72
     8
 73
     4
 74
     0
 42
0.0000000001
 43
0.0000000001
 40
0.0
 40
0.0
 40
0.0
 40
0.0
 40
1.0
 40
1.0
 40
1.0
 40
1.0
 10
112.8559530528838
 20
111.0617310680863
 30
0.0
 10
113.2701666152578
 20
111.0617310680863
 30
0.0
 10
113.6059530528836
 20
111.3975175057132
 30
0.0
 10
113.6059530528836
 20
111.8117310680862
 30
0.0
  0
SPLINE
  5
7F
330
70
100
AcDbEntity
  8
0
 62
    18
420
        0
370
    25
100
AcDbSpline
210
0.0
220
0.0
230
1.0
 70
     8
 71
     3
 72
     8
 73
     4
 74
     0
 42
0.0000000001
 43
0.0000000001
 40
0.0
 40
0.0
 40
0.0
 40
0.0
 40
1.0
 40
1.0
 40
1.0
 40
1.0
 10
112.8559530528838
 20
110.3117310680862
 30
0.0
 10
113.6843801776305
 20
110.3117310680862
 30
0.0
 10
114.3559530528848
 20
110.9833039433401
 30
0.0
 10
114.3559530528848
 20
111.8117310680862
 30
0.0
  0
LINE
  5
80
330
70
100
AcDbEntity
  8
0
 62
    18
420
        0
370
    25
100
AcDbLine
 10
113.6059525760846
 20
114.2626928963862
 30
0.0
 11
113.6059525760846
 21
111.8117312767863
 31
0.0
  0
LINE
  5
81
330
70
100
AcDbEntity
  8
0
 62
    18
420
        0
370
    25
100
AcDbLine
 10
114.3559540959846
 20
111.8117312767863
 30
0.0
 11
114.3559540959846
 21
115.5617309600863
 31
0.0
  0
SPLINE
  5
82
330
70
100
AcDbEntity
  8
0
 62
    18
420
        0
370
    25
100
AcDbSpline
210
0.0
220
0.0
230
1.0
 70
     8
 71
     3
 72
     8
 73
     4
 74
     0
 42
0.0000000001
 43
0.0000000001
 40
0.0
 40
0.0
 40
0.0
 40
0.0
 40
1.0
 40
1.0
 40
1.0
 40
1.0
 10
15.73095305288413
 20
115.5617310680862
 30
0.0
 10
15.73095305288413
 20
115.1475175057131
 30
0.0
 10
16.06673949051095
 20
114.8117310680863
 30
0.0
 10
16.48095305288432
 20
114.8117310680863
 30
0.0
  0
SPLINE
  5
83
330
70
100
AcDbEntity
  8
0
 62
    18
420
        0
370
    25
100
AcDbSpline
210
0.0
220
0.0
230
1.0
 70
     8
 71
     3
 72
     8
 73
     4
 74
     0
 42
0.0000000001
 43
0.0000000001
 40
0.0
 40
0.0
 40
0.0
 40
0.0
 40
1.0
 40
1.0
 40
1.0
 40
1.0
 10
14.98095305288427
 20
115.5617310680862
 30
0.0
 10
14.98095305288427
 20
114.7333039433401
 30
0.0
 10
15.65252592813789
 20
114.0617310680861
 30
0.0
 10
16.48095305288432
 20
114.0617310680861
 30
0.0
  0
LINE
  5
84
330
70
100
AcDbEntity
  8
0
 62
    18
420
        0
370
    25
100
AcDbLine
 10
14.98095200978419
 20
117.8117310960863
 30
0.0
 11
14.98095200978419
 21
115.5617309600863
 31
0.0
  0
LINE
  5
85
330
70
100
AcDbEntity
  8
0
 62
    18
420
        0
370
    25
100
AcDbLine
 10
15.73095352968417
 20
115.5617309600863
 30
0.0
 11
15.73095352968417
 21
117.8117310960863
 31
0.0
  0
LINE
  5
86
330
70
100
AcDbEntity
  8
0
 62
    18
420
        0
370
    25
100
AcDbLine
 10
16.48095132438422
 20
114.0617311798861
 30
0.0
 11
112.8559547813835
 21
114.0617311798861
 31
0.0
  0
LINE
  5
87
330
70
100
AcDbEntity
  8
0
 62
    18
420
        0
370
    25
100
AcDbLine
 10
112.8559547813835
 20
114.8117308371863
 30
0.0
 11
16.48095132438422
 21
114.8117308371863
 31
0.0
  0
SPLINE
  5
88
330
70
100
AcDbEntity
  8
0
 62
    18
420
        0
370
    25
100
AcDbSpline
210
0.0
220
0.0
230
1.0
 70
     8
 71
     3
 72
     8
 73
     4
 74
     0
 42
0.0000000001
 43
0.0000000001
 40
0.0
 40
0.0
 40
0.0
 40
0.0
 40
1.0
 40
1.0
 40
1.0
 40
1.0
 10
112.8559530528838
 20
114.8117310680863
 30
0.0
 10
113.2701666152578
 20
114.8117310680863
 30
0.0
 10
113.6059530528836
 20
115.1475175057131
 30
0.0
 10
113.6059530528836
 20
115.5617310680862
 30
0.0
  0
SPLINE
  5
89
330
70
100
AcDbEntity
  8
0
 62
    18
420
        0
370
    25
100
AcDbSpline
210
0.0
220
0.0
230
1.0
 70
     8
 71
     3
 72
     8
 73
     4
 74
     0
 42
0.0000000001
 43
0.0000000001
 40
0.0
 40
0.0
 40
0.0
 40
0.0
 40
1.0
 40
1.0
 40
1.0
 40
1.0
 10
112.8559530528838
 20
114.0617310680861
 30
0.0
 10
113.6843801776305
 20
114.0617310680861
 30
0.0
 10
114.3559530528848
 20
114.7333039433401
 30
0.0
 10
114.3559530528848
 20
115.5617310680862
 30
0.0
  0
LINE
  5
8A
330
70
100
AcDbEntity
  8
0
 62
    18
420
        0
370
    25
100
AcDbLine
 10
113.6059525760846
 20
117.8117310960863
 30
0.0
 11
113.6059525760846
 21
115.5617309600863
 31
0.0
  0
LINE
  5
8B
330
70
100
AcDbEntity
  8
0
 62
    18
420
        0
370
    25
100
AcDbLine
 10
114.3559540959846
 20
115.5617309600863
 30
0.0
 11
114.3559540959846
 21
117.8117310960863
 31
0.0
  0
LWPOLYLINE
  5
8C
330
70
100
AcDbEntity
  8
0
 62
    18
420
        0
370
    25
100
AcDbPolyline
 90
        7
 70
     0
 43
0.0
 10
83.66835372178426
 20
125.0618303061862
 10
83.66994814598376
 20
125.0602358818863
 10
83.8652148248838
 20
124.8649696685864
 10
84.25576122128449
 20
124.4744232722864
 10
85.03690989338455
 20
123.6932741344861
 10
86.59940467798419
 20
122.1307800483861
 10
88.4184527548845
 20
120.3117310401861
  0
LWPOLYLINE
  5
8D
330
70
100
AcDbEntity
  8
0
 62
    18
420
        0
370
    25
100
AcDbPolyline
 90
        4
 70
     0
 43
0.0
 10
90.91845223328371
 20
120.3117310401861
 10
92.52429449588417
 20
121.9175733026861
 10
94.14988638488388
 20
123.5431649588864
 10
95.66855312908419
 20
125.0618303061862
  0
SPLINE
  5
8E
330
70
100
AcDbEntity
  8
0
 62
    18
420
        0
370
    25
100
AcDbSpline
210
0.0
220
0.0
230
1.0
 70
     8
 71
     3
 72
    11
 73
     7
 74
     0
 42
0.0000000001
 43
0.0000000001
 40
0.0
 40
0.0
 40
0.0
 40
0.0
 40
1.0
 40
1.0
 40
1.0
 40
2.0
 40
2.0
 40
2.0
 40
2.0
 10
90.04034915590207
 20
120.2973767982096
 30
0.0
 10
90.01375871072999
 20
120.5027696530446
 30
0.0
 10
89.82569908889574
 20
120.6477176451764
 30
0.0
 10
89.62030623406112
 20
120.6211272000043
 30
0.0
 10
89.45138778841325
 20
120.5992587826673
 30
0.0
 10
89.3184242496035
 20
120.4662952438569
 30
0.0
 10
89.29655583226617
 20
120.2973767982096
 30
0.0
  0
LINE
  5
8F
330
70
100
AcDbEntity
  8
0
 62
    18
420
        0
370
    25
100
AcDbLine
 10
88.78095330328457
 20
118.8241375389862
 30
0.0
 11
88.78095330328457
 21
119.3519615958863
 31
0.0
  0
LWPOLYLINE
  5
90
330
70
100
AcDbEntity
  8
0
 62
    18
420
        0
370
    25
100
AcDbPolyline
 90
        5
 70
     0
 43
0.0
 10
88.4184527548845
 20
117.8117310960863
 10
88.05567280978452
 20
117.4489516165861
 10
87.0726078154842
 20
116.4658854581863
 10
86.05839566908391
 20
115.4516730789863
 10
85.41845226318445
 20
114.8117308371863
  0
LINE
  5
91
330
70
100
AcDbEntity
  8
0
 62
    18
420
        0
370
    25
100
AcDbLine
 10
84.66845260588396
 20
114.0617311798861
 30
0.0
 11
83.66835372178426
 21
113.0616318300862
 31
0.0
  0
SPLINE
  5
92
330
70
100
AcDbEntity
  8
0
 62
    18
420
        0
370
    25
100
AcDbSpline
210
0.0
220
0.0
230
1.0
 70
     8
 71
     3
 72
     8
 73
     4
 74
     0
 42
0.0000000001
 43
0.0000000001
 40
0.0
 40
0.0
 40
0.0
 40
0.0
 40
1.0
 40
1.0
 40
1.0
 40
1.0
 10
83.65783350192495
 20
113.0563777738147
 30
0.0
 10
83.66188886208293
 20
113.0566987316279
 30
0.0
 10
83.66566093022569
 20
113.0585825951571
 30
0.0
 10
83.66835372172779
 20
113.0616318301196
 30
0.0
  0
LINE
  5
93
330
70
100
AcDbEntity
  8
0
 62
    18
420
        0
370
    25
100
AcDbLine
 10
83.66835372178426
 20
125.0618303061862
 30
0.0
 11
83.65783163928375
 21
125.0618261151862
 31
0.0
  0
LWPOLYLINE
  5
94
330
70
100
AcDbEntity
  8
0
 62
    18
420
        0
370
    25
100
AcDbPolyline
 90
        5
 70
     0
 43
0.0
 10
90.91845223328371
 20
117.8117310960863
 10
91.28123217848381
 20
117.4489516165861
 10
92.26429903528416
 20
116.4658854581863
 10
93.2785111816838
 20
115.4516730789863
 10
93.91845272508389
 20
114.8117308371863
  0
LINE
  5
95
330
70
100
AcDbEntity
  8
0
 62
    18
420
        0
370
    25
100
AcDbLine
 10
94.66845238238438
 20
114.0617311798861
 30
0.0
 11
95.66855312908419
 21
113.0616318300862
 31
0.0
  0
SPLINE
  5
96
330
70
100
AcDbEntity
  8
0
 62
    18
420
        0
370
    25
100
AcDbSpline
210
0.0
220
0.0
230
1.0
 70
     8
 71
     3
 72
     8
 73
     4
 74
     0
 42
0.0000000001
 43
0.0000000001
 40
0.0
 40
0.0
 40
0.0
 40
0.0
 40
1.0
 40
1.0
 40
1.0
 40
1.0
 10
95.67380578837335
 20
113.0511111447002
 30
0.0
 10
95.67348531710058
 20
113.0551664669823
 30
0.0
 10
95.67160195833954
 20
113.0589386943299
 30
0.0
 10
95.66855312905211
 20
113.0616318301645
 30
0.0
  0
LWPOLYLINE
  5
97
330
70
100
AcDbEntity
  8
0
 62
    18
420
        0
370
    25
100
AcDbPolyline
 90
        7
 70
     0
 43
0.0
 10
83.66835744708398
 20
113.0511088163864
 10
84.1683584602841
 20
113.0509104446861
 10
86.16835692548445
 20
113.0502003111861
 10
90.16835758118423
 20
113.0496126465863
 10
91.69195847238423
 20
113.0498133466864
 10
95.66854754118436
 20
113.0511088163864
 10
95.67380578838427
 20
113.0511111446861
  0
LINE
  5
98
330
70
100
AcDbEntity
  8
0
 62
    18
420
        0
370
    25
100
AcDbLine
 10
83.66835372178426
 20
113.0616318300862
 30
0.0
 11
83.66835744708398
 21
113.0511088163864
 31
0.0
  0
SPLINE
  5
99
330
70
100
AcDbEntity
  8
0
 62
    18
420
        0
370
    25
100
AcDbSpline
210
0.0
220
0.0
230
1.0
 70
     8
 71
     3
 72
    11
 73
     7
 74
     0
 42
0.0000000001
 43
0.0000000001
 40
0.0
 40
0.0
 40
0.0
 40
0.0
 40
1.0
 40
1.0
 40
1.0
 40
2.0
 40
2.0
 40
2.0
 40
2.0
 10
89.30201897045925
 20
117.8117310961001
 30
0.0
 10
89.33235363172952
 20
117.6099289553009
 30
0.0
 10
89.52053769157133
 20
117.4709270988915
 30
0.0
 10
89.72233983237027
 20
117.5012617601617
 30
0.0
 10
89.88276293973056
 20
117.5253763736261
 30
0.0
 10
90.00869455484458
 20
117.6513079887401
 30
0.0
 10
90.03280916830865
 20
117.8117310961001
 30
0.0
  0
SPLINE
  5
9A
330
70
100
AcDbEntity
  8
0
 62
    18
420
        0
370
    25
100
AcDbSpline
210
0.0
220
0.0
230
1.0
 70
     8
 71
     3
 72
     8
 73
     4
 74
     0
 42
0.0000000001
 43
0.0000000001
 40
0.0
 40
0.0
 40
0.0
 40
0.0
 40
1.0
 40
1.0
 40
1.0
 40
1.0
 10
95.6790733489435
 20
125.0670843624577
 30
0.0
 10
95.6750179887855
 20
125.0667634046449
 30
0.0
 10
95.67124592064212
 20
125.0648795411153
 30
0.0
 10
95.66855312914066
 20
125.0618303061531
 30
0.0
  0
LINE
  5
9B
330
70
100
AcDbEntity
  8
0
 62
    18
420
        0
370
    25
100
AcDbLine
 10
95.66855312908419
 20
113.0616318300862
 30
0.0
 11
95.67907521158407
 21
113.0616360210862
 31
0.0
  0
LINE
  5
9C
330
70
100
AcDbEntity
  8
0
 62
    18
420
        0
370
    25
100
AcDbLine
 10
90.55595354758452
 20
119.3079653353864
 30
0.0
 11
90.55595354758452
 21
118.7790780136863
 31
0.0
  0
LINE
  5
9D
330
70
100
AcDbEntity
  8
0
 62
    18
420
        0
370
    25
100
AcDbLine
 10
95.91845305288435
 20
125.0617311202862
 30
0.0
 11
95.91845305288435
 21
120.3117310401861
 31
0.0
  0
LINE
  5
9E
330
70
100
AcDbEntity
  8
0
 62
    18
420
        0
370
    25
100
AcDbLine
 10
95.91845305288435
 20
117.8117310960863
 30
0.0
 11
95.91845305288435
 21
114.8117308371863
 31
0.0
  0
LINE
  5
9F
330
70
100
AcDbEntity
  8
0
 62
    18
420
        0
370
    25
100
AcDbLine
 10
95.91845305288435
 20
114.0617311798861
 30
0.0
 11
95.91845305288435
 21
113.0617310159862
 31
0.0
  0
SPLINE
  5
A0
330
70
100
AcDbEntity
  8
0
 62
    18
420
        0
370
    25
100
AcDbSpline
210
0.0
220
0.0
230
1.0
 70
     8
 71
     3
 72
     8
 73
     4
 74
     0
 42
0.0000000001
 43
0.0000000001
 40
0.0
 40
0.0
 40
0.0
 40
0.0
 40
1.0
 40
1.0
 40
1.0
 40
1.0
 10
95.67907521158021
 20
113.0616360210602
 30
0.0
 10
95.75886783790631
 20
113.0616061850984
 30
0.0
 10
95.83866047539155
 20
113.0616378500754
 30
0.0
 10
95.91845305290489
 20
113.0617310159628
 30
0.0
  0
SPLINE
  5
A1
330
70
100
AcDbEntity
  8
0
 62
    18
420
        0
370
    25
100
AcDbSpline
210
0.0
220
0.0
230
1.0
 70
     8
 71
     3
 72
     8
 73
     4
 74
     0
 42
0.0000000001
 43
0.0000000001
 40
0.0
 40
0.0
 40
0.0
 40
0.0
 40
1.0
 40
1.0
 40
1.0
 40
1.0
 10
95.91845305285485
 20
125.0617311203304
 30
0.0
 10
95.838827000729
 20
125.0680752348905
 30
0.0
 10
95.75890340310788
 20
125.0698625642466
 30
0.0
 10
95.67907334885751
 20
125.0670843624895
 30
0.0
  0
SPLINE
  5
A2
330
70
100
AcDbEntity
  8
0
 62
    18
420
        0
370
    25
100
AcDbSpline
210
0.0
220
0.0
230
1.0
 70
     8
 71
     3
 72
     8
 73
     4
 74
     0
 42
0.0000000001
 43
0.0000000001
 40
0.0
 40
0.0
 40
0.0
 40
0.0
 40
1.0
 40
1.0
 40
1.0
 40
1.0
 10
95.91845305285227
 20
125.061731120316
 30
0.0
 10
95.8356003997278
 20
125.0723197605676
 30
0.0
 10
95.75199987452039
 20
125.075873189467
 30
0.0
 10
95.66854754111634
 20
125.0723533199409
 30
0.0
  0
LINE
  5
A3
330
70
100
AcDbEntity
  8
0
 62
    18
420
        0
370
    25
100
AcDbLine
 10
95.66855312908419
 20
125.0618303061862
 30
0.0
 11
95.66854754118436
 21
125.0723533198863
 31
0.0
  0
SPLINE
  5
A4
330
70
100
AcDbEntity
  8
0
 62
    18
420
        0
370
    25
100
AcDbSpline
210
0.0
220
0.0
230
1.0
 70
     8
 71
     3
 72
     8
 73
     4
 74
     0
 42
0.0000000001
 43
0.0000000001
 40
0.0
 40
0.0
 40
0.0
 40
0.0
 40
1.0
 40
1.0
 40
1.0
 40
1.0
 10
83.41845379791285
 20
113.0617310159949
 30
0.0
 10
83.49807979112881
 20
113.0553857458744
 30
0.0
 10
83.57800345485584
 20
113.0535984150398
 30
0.0
 10
83.65783350191277
 20
113.0563777738359
 30
0.0
  0
LINE
  5
A5
330
70
100
AcDbEntity
  8
0
 62
    18
420
        0
370
    25
100
AcDbLine
 10
83.4184537979841
 20
113.0617310159862
 30
0.0
 11
83.4184537979841
 21
114.0617311798861
 31
0.0
  0
LINE
  5
A6
330
70
100
AcDbEntity
  8
0
 62
    18
420
        0
370
    25
100
AcDbLine
 10
83.4184537979841
 20
114.8117308371863
 30
0.0
 11
83.4184537979841
 21
117.8117310960863
 31
0.0
  0
LINE
  5
A7
330
70
100
AcDbEntity
  8
0
 62
    18
420
        0
370
    25
100
AcDbLine
 10
83.4184537979841
 20
120.3117310401861
 30
0.0
 11
83.4184537979841
 21
125.0617311202862
 31
0.0
  0
SPLINE
  5
A8
330
70
100
AcDbEntity
  8
0
 62
    18
420
        0
370
    25
100
AcDbSpline
210
0.0
220
0.0
230
1.0
 70
     8
 71
     3
 72
     8
 73
     4
 74
     0
 42
0.0000000001
 43
0.0000000001
 40
0.0
 40
0.0
 40
0.0
 40
0.0
 40
1.0
 40
1.0
 40
1.0
 40
1.0
 10
83.65783163935562
 20
125.0618261151673
 30
0.0
 10
83.57803901302375
 20
125.0618559517201
 30
0.0
 10
83.4982463755276
 20
125.0618242867434
 30
0.0
 10
83.41845379800849
 20
125.0617311202647
 30
0.0
  0
SPLINE
  5
A9
330
70
100
AcDbEntity
  8
0
 62
    18
420
        0
370
    25
100
AcDbSpline
210
0.0
220
0.0
230
1.0
 70
     8
 71
     3
 72
     8
 73
     4
 74
     0
 42
0.0000000001
 43
0.0000000001
 40
0.0
 40
0.0
 40
0.0
 40
0.0
 40
1.0
 40
1.0
 40
1.0
 40
1.0
 10
83.41845379790518
 20
113.0617310159888
 30
0.0
 10
83.50130582232756
 20
113.0511423232039
 30
0.0
 10
83.58490573334494
 20
113.0475888939255
 30
0.0
 10
83.66835744699862
 20
113.0511088163639
 30
0.0
  0
LINE
  5
AA
330
70
100
AcDbEntity
  8
0
 62
    18
420
        0
370
    25
100
AcDbLine
 10
95.66845254628397
 20
112.8117309749863
 30
0.0
 11
83.66845244198435
 21
112.8117309749863
 31
0.0
  0
SPLINE
  5
AB
330
70
100
AcDbEntity
  8
0
 62
    18
420
        0
370
    25
100
AcDbSpline
210
0.0
220
0.0
230
1.0
 70
     8
 71
     3
 72
     8
 73
     4
 74
     0
 42
0.0000000001
 43
0.0000000001
 40
0.0
 40
0.0
 40
0.0
 40
0.0
 40
1.0
 40
1.0
 40
1.0
 40
1.0
 10
83.66835744707755
 20
113.0511088163665
 30
0.0
 10
83.66832891643367
 20
112.9713161900144
 30
0.0
 10
83.6683605814103
 20
112.8915235534933
 30
0.0
 10
83.66845244198051
 20
112.8117309749177
 30
0.0
  0
SPLINE
  5
AC
330
70
100
AcDbEntity
  8
0
 62
    18
420
        0
370
    25
100
AcDbSpline
210
0.0
220
0.0
230
1.0
 70
     8
 71
     3
 72
     8
 73
     4
 74
     0
 42
0.0000000001
 43
0.0000000001
 40
0.0
 40
0.0
 40
0.0
 40
0.0
 40
1.0
 40
1.0
 40
1.0
 40
1.0
 10
95.66845254625574
 20
112.8117309749555
 30
0.0
 10
95.67479849282872
 20
112.8913570892273
 30
0.0
 10
95.67658582451773
 20
112.9712809466252
 30
0.0
 10
95.67380578841442
 20
113.0511111446159
 30
0.0
  0
SPLINE
  5
AD
330
70
100
AcDbEntity
  8
0
 62
    18
420
        0
370
    25
100
AcDbSpline
210
0.0
220
0.0
230
1.0
 70
     8
 71
     3
 72
     8
 73
     4
 74
     0
 42
0.0000000001
 43
0.0000000001
 40
0.0
 40
0.0
 40
0.0
 40
0.0
 40
1.0
 40
1.0
 40
1.0
 40
1.0
 10
95.66845254621981
 20
112.811730975004
 30
0.0
 10
95.67904125244096
 20
112.894583466487
 30
0.0
 10
95.68259483684361
 20
112.9781838294851
 30
0.0
 10
95.67907521150578
 20
113.0616360210794
 30
0.0
  0
LWPOLYLINE
  5
AE
330
70
100
AcDbEntity
  8
0
 62
    18
420
        0
370
    25
100
AcDbPolyline
 90
        6
 70
     0
 43
0.0
 10
89.6684534253845
 20
125.0738615967861
 10
89.16845241218373
 20
125.0738480926864
 10
87.16845394698401
 20
125.0735412218863
 10
85.41840569698457
 20
125.0730168872862
 10
83.66835744708398
 20
125.0723533198863
 10
83.66309919978396
 20
125.0723509915863
  0
SPLINE
  5
AF
330
70
100
AcDbEntity
  8
0
 62
    18
420
        0
370
    25
100
AcDbSpline
210
0.0
220
0.0
230
1.0
 70
     8
 71
     3
 72
     8
 73
     4
 74
     0
 42
0.0000000001
 43
0.0000000001
 40
0.0
 40
0.0
 40
0.0
 40
0.0
 40
1.0
 40
1.0
 40
1.0
 40
1.0
 10
83.66845244196317
 20
125.3117311612874
 30
0.0
 10
83.66211256601008
 20
125.2321047376024
 30
0.0
 10
83.66032524208497
 20
125.1521812273444
 30
0.0
 10
83.6630991998045
 20
125.072350991628
 30
0.0
  0
LINE
  5
B0
330
70
100
AcDbEntity
  8
0
 62
    18
420
        0
370
    25
100
AcDbLine
 10
83.66845244198435
 20
125.3117311612864
 30
0.0
 11
89.6684534253845
 21
125.3117311612864
 31
0.0
  0
LINE
  5
B1
330
70
100
AcDbEntity
  8
0
 62
    18
420
        0
370
    25
100
AcDbLine
 10
89.6684534253845
 20
125.0738615967861
 30
0.0
 11
89.6684534253845
 21
125.3117311612864
 31
0.0
  0
SPLINE
  5
B2
330
70
100
AcDbEntity
  8
0
 62
    18
420
        0
370
    25
100
AcDbSpline
210
0.0
220
0.0
230
1.0
 70
     8
 71
     3
 72
     8
 73
     4
 74
     0
 42
0.0000000001
 43
0.0000000001
 40
0.0
 40
0.0
 40
0.0
 40
0.0
 40
1.0
 40
1.0
 40
1.0
 40
1.0
 10
83.6684524419587
 20
125.311731161229
 30
0.0
 10
83.65786373026129
 20
125.228878670311
 30
0.0
 10
83.65431076671143
 20
125.1452782542681
 30
0.0
 10
83.6578316393184
 20
125.0618261151535
 30
0.0
  0
SPLINE
  5
B3
330
70
100
AcDbEntity
  8
0
 62
    18
420
        0
370
    25
100
AcDbSpline
210
0.0
220
0.0
230
1.0
 70
     8
 71
     3
 72
     8
 73
     4
 74
     0
 42
0.0000000001
 43
0.0000000001
 40
0.0
 40
0.0
 40
0.0
 40
0.0
 40
1.0
 40
1.0
 40
1.0
 40
1.0
 10
83.66309919977304
 20
125.0723509916232
 30
0.0
 10
83.66342151660242
 20
125.0682957748471
 30
0.0
 10
83.66530532227796
 20
125.0645239898755
 30
0.0
 10
83.6683537217387
 20
125.0618303061589
 30
0.0
  0
LINE
  5
B4
330
70
100
AcDbEntity
  8
0
 62
    18
420
        0
370
    25
100
AcDbLine
 10
89.6684534253845
 20
125.0618303061862
 30
0.0
 11
89.6684534253845
 21
125.0738615967861
 31
0.0
  0
LINE
  5
B5
330
70
100
AcDbEntity
  8
0
 62
    18
420
        0
370
    25
100
AcDbLine
 10
89.6684534253845
 20
125.0618303061862
 30
0.0
 11
83.66835372178426
 21
125.0618303061862
 31
0.0
  0
LWPOLYLINE
  5
B6
330
70
100
AcDbEntity
  8
0
 62
    18
420
        0
370
    25
100
AcDbPolyline
 90
        5
 70
     0
 43
0.0
 10
95.66854754118436
 20
125.0723533198863
 10
95.16854839048425
 20
125.0725516915863
 10
93.16854806268377
 20
125.0732641533863
 10
91.41850167538391
 20
125.0736995466864
 10
89.6684534253845
 20
125.0738615967861
  0
LINE
  5
B7
330
70
100
AcDbEntity
  8
0
 62
    18
420
        0
370
    25
100
AcDbLine
 10
95.66855312908419
 20
125.0618303061862
 30
0.0
 11
89.6684534253845
 21
125.0618303061862
 31
0.0
  0
LINE
  5
B8
330
70
100
AcDbEntity
  8
0
 62
    18
420
        0
370
    25
100
AcDbLine
 10
89.6684534253845
 20
125.3117311612864
 30
0.0
 11
95.66845254628397
 21
125.3117311612864
 31
0.0
  0
SPLINE
  5
B9
330
70
100
AcDbEntity
  8
0
 62
    18
420
        0
370
    25
100
AcDbSpline
210
0.0
220
0.0
230
1.0
 70
     8
 71
     3
 72
     8
 73
     4
 74
     0
 42
0.0000000001
 43
0.0000000001
 40
0.0
 40
0.0
 40
0.0
 40
0.0
 40
1.0
 40
1.0
 40
1.0
 40
1.0
 10
95.66854754114842
 20
125.0723533197715
 30
0.0
 10
95.66857916287583
 20
125.1521459461521
 30
0.0
 10
95.66854749789854
 20
125.2319385850703
 30
0.0
 10
95.66845254624611
 20
125.3117311612216
 30
0.0
  0
SPLINE
  5
BA
330
70
100
AcDbEntity
  8
0
 62
    18
420
        0
370
    25
100
AcDbSpline
210
0.0
220
0.0
230
1.0
 70
     8
 71
     3
 72
     8
 73
     4
 74
     0
 42
0.0000000001
 43
0.0000000001
 40
0.0
 40
0.0
 40
0.0
 40
0.0
 40
1.0
 40
1.0
 40
1.0
 40
1.0
 10
95.91845305288435
 20
125.0617310681651
 30
0.0
 10
95.91845305284072
 20
125.1998022555922
 30
0.0
 10
95.80652424031097
 20
125.3117310680864
 30
0.0
 10
95.66845305288419
 20
125.3117310680864
 30
0.0
  0
SPLINE
  5
BB
330
70
100
AcDbEntity
  8
0
 62
    18
420
        0
370
    25
100
AcDbSpline
210
0.0
220
0.0
230
1.0
 70
     8
 71
     3
 72
    11
 73
     7
 74
     0
 42
0.0000000001
 43
0.0000000001
 40
0.0
 40
0.0
 40
0.0
 40
0.0
 40
1.0
 40
1.0
 40
1.0
 40
2.0
 40
2.0
 40
2.0
 40
2.0
 10
83.41845305288424
 20
113.0617310685593
 30
0.0
 10
83.41845305262307
 20
112.9236598811014
 30
0.0
 10
83.53038186495325
 20
112.8117310683474
 30
0.0
 10
83.66845305241083
 20
112.8117310680863
 30
0.0
 10
83.66845305264762
 20
112.8117310680863
 30
0.0
 10
83.66845305264762
 20
112.8117310680863
 30
0.0
 10
83.66845305288441
 20
112.8117310680863
 30
0.0
  0
SPLINE
  5
BC
330
70
100
AcDbEntity
  8
0
 62
    18
420
        0
370
    25
100
AcDbSpline
210
0.0
220
0.0
230
1.0
 70
     8
 71
     3
 72
     8
 73
     4
 74
     0
 42
0.0000000001
 43
0.0000000001
 40
0.0
 40
0.0
 40
0.0
 40
0.0
 40
1.0
 40
1.0
 40
1.0
 40
1.0
 10
83.66845305288441
 20
125.3117310680864
 30
0.0
 10
83.53038186542683
 20
125.3117310680864
 30
0.0
 10
83.41845305288424
 20
125.1998022555441
 30
0.0
 10
83.41845305288424
 20
125.0617310680862
 30
0.0
  0
SPLINE
  5
BD
330
70
100
AcDbEntity
  8
0
 62
    18
420
        0
370
    25
100
AcDbSpline
210
0.0
220
0.0
230
1.0
 70
     8
 71
     3
 72
     8
 73
     4
 74
     0
 42
0.0000000001
 43
0.0000000001
 40
0.0
 40
0.0
 40
0.0
 40
0.0
 40
1.0
 40
1.0
 40
1.0
 40
1.0
 10
95.66845305288419
 20
112.8117310680863
 30
0.0
 10
95.80652424034177
 20
112.8117310680863
 30
0.0
 10
95.91845305288435
 20
112.9236598806285
 30
0.0
 10
95.91845305288435
 20
113.0617310680864
 30
0.0
  0
CIRCLE
  5
BE
330
70
100
AcDbEntity
  8
0
 62
    18
420
        0
370
    25
100
AcDbCircle
 10
89.6684530528843
 20
119.0617310680862
 30
0.0
 40
0.6500000000002235
  0
SPLINE
  5
BF
330
70
100
AcDbEntity
  8
0
 62
    18
420
        0
370
    25
100
AcDbSpline
210
0.0
220
0.0
230
1.0
 70
     8
 71
     3
 72
    11
 73
     7
 74
     0
 42
0.0000000001
 43
0.0000000001
 40
0.0
 40
0.0
 40
0.0
 40
0.0
 40
1.0
 40
1.0
 40
1.0
 40
2.0
 40
2.0
 40
2.0
 40
2.0
 10
14.793454423805
 20
120.3117310402076
 30
0.0
 10
14.72441898961927
 20
120.3117323683536
 30
0.0
 10
14.66845363600865
 20
120.2557691680927
 30
0.0
 10
14.66845230786265
 20
120.186733733907
 30
0.0
 10
14.66845230784532
 20
120.1867328291778
 30
0.0
 10
14.66845230783762
 20
120.1867319244479
 30
0.0
 10
14.66845230783987
 20
120.1867310197187
 30
0.0
  0
LINE
  5
C0
330
70
100
AcDbEntity
  8
0
 62
    18
420
        0
370
    25
100
AcDbLine
 10
14.79345442378414
 20
120.3117310401861
 30
0.0
 11
15.91845484108403
 21
120.3117310401861
 31
0.0
  0
SPLINE
  5
C1
330
70
100
AcDbEntity
  8
0
 62
    18
420
        0
370
    25
100
AcDbSpline
210
0.0
220
0.0
230
1.0
 70
     8
 71
     3
 72
     8
 73
     4
 74
     0
 42
0.0000000001
 43
0.0000000001
 40
0.0
 40
0.0
 40
0.0
 40
0.0
 40
1.0
 40
1.0
 40
1.0
 40
1.0
 10
16.04345323171993
 20
120.1867310197046
 30
0.0
 10
16.04345249072727
 20
120.2557656813411
 30
0.0
 10
15.98748950266604
 20
120.311729399086
 30
0.0
 10
15.91845484104521
 20
120.3117310401938
 30
0.0
  0
LINE
  5
C2
330
70
100
AcDbEntity
  8
0
 62
    18
420
        0
370
    25
100
AcDbLine
 10
16.04345323168432
 20
120.1867310196863
 30
0.0
 11
16.04345323168432
 21
117.9367311165861
 31
0.0
  0
SPLINE
  5
C3
330
70
100
AcDbEntity
  8
0
 62
    18
420
        0
370
    25
100
AcDbSpline
210
0.0
220
0.0
230
1.0
 70
     8
 71
     3
 72
     8
 73
     4
 74
     0
 42
0.0000000001
 43
0.0000000001
 40
0.0
 40
0.0
 40
0.0
 40
0.0
 40
1.0
 40
1.0
 40
1.0
 40
1.0
 10
15.9184548410651
 20
117.8117310960375
 30
0.0
 10
15.98748988039127
 20
117.8117318253147
 30
0.0
 10
16.04345340258257
 20
117.8676960771968
 30
0.0
 10
16.0434532317395
 20
117.9367311165268
 30
0.0
  0
LINE
  5
C4
330
70
100
AcDbEntity
  8
0
 62
    18
420
        0
370
    25
100
AcDbLine
 10
15.91845484108403
 20
117.8117310960863
 30
0.0
 11
14.79345442378414
 21
117.8117310960863
 31
0.0
  0
SPLINE
  5
C5
330
70
100
AcDbEntity
  8
0
 62
    18
420
        0
370
    25
100
AcDbSpline
210
0.0
220
0.0
230
1.0
 70
     8
 71
     3
 72
     8
 73
     4
 74
     0
 42
0.0000000001
 43
0.0000000001
 40
0.0
 40
0.0
 40
0.0
 40
0.0
 40
1.0
 40
1.0
 40
1.0
 40
1.0
 10
14.668452307828
 20
117.9367311165143
 30
0.0
 10
14.66845304881071
 20
117.8676950000622
 30
0.0
 10
14.7244183073379
 20
117.8117306797096
 30
0.0
 10
14.7934544237928
 20
117.8117310960254
 30
0.0
  0
LINE
  5
C6
330
70
100
AcDbEntity
  8
0
 62
    18
420
        0
370
    25
100
AcDbLine
 10
14.66845230788415
 20
120.1867310196863
 30
0.0
 11
14.66845230788415
 21
117.9367311165861
 31
0.0
  0
SPLINE
  5
C7
330
70
100
AcDbEntity
  8
0
 62
    18
420
        0
370
    25
100
AcDbSpline
210
0.0
220
0.0
230
1.0
 70
     8
 71
     3
 72
     8
 73
     4
 74
     0
 42
0.0000000001
 43
0.0000000001
 40
0.0
 40
0.0
 40
0.0
 40
0.0
 40
1.0
 40
1.0
 40
1.0
 40
1.0
 10
113.2934528740485
 20
117.9367311165678
 30
0.0
 10
113.2934536150415
 20
117.8676964549316
 30
0.0
 10
113.3494166031024
 20
117.8117327371864
 30
0.0
 10
113.4184512647235
 20
117.8117310960786
 30
0.0
  0
LINE
  5
C8
330
70
100
AcDbEntity
  8
0
 62
    18
420
        0
370
    25
100
AcDbLine
 10
113.2934528740844
 20
120.1867310196863
 30
0.0
 11
113.2934528740844
 21
117.9367311165861
 31
0.0
  0
SPLINE
  5
C9
330
70
100
AcDbEntity
  8
0
 62
    18
420
        0
370
    25
100
AcDbSpline
210
0.0
220
0.0
230
1.0
 70
     8
 71
     3
 72
     8
 73
     4
 74
     0
 42
0.0000000001
 43
0.0000000001
 40
0.0
 40
0.0
 40
0.0
 40
0.0
 40
1.0
 40
1.0
 40
1.0
 40
1.0
 10
113.4184512648031
 20
120.3117310402352
 30
0.0
 10
113.3494162254766
 20
120.3117303109577
 30
0.0
 10
113.293452703286
 20
120.2557660590757
 30
0.0
 10
113.2934528741293
 20
120.1867310197459
 30
0.0
  0
LINE
  5
CA
330
70
100
AcDbEntity
  8
0
 62
    18
420
        0
370
    25
100
AcDbLine
 10
113.4184512647838
 20
120.3117310401861
 30
0.0
 11
114.5434516819836
 21
120.3117310401861
 31
0.0
  0
SPLINE
  5
CB
330
70
100
AcDbEntity
  8
0
 62
    18
420
        0
370
    25
100
AcDbSpline
210
0.0
220
0.0
230
1.0
 70
     8
 71
     3
 72
     8
 73
     4
 74
     0
 42
0.0000000001
 43
0.0000000001
 40
0.0
 40
0.0
 40
0.0
 40
0.0
 40
1.0
 40
1.0
 40
1.0
 40
1.0
 10
114.6684537979398
 20
120.1867310196584
 30
0.0
 10
114.6684530569583
 20
120.2557671361104
 30
0.0
 10
114.6124877984302
 20
120.311731456463
 30
0.0
 10
114.5434516819759
 20
120.3117310401472
 30
0.0
  0
LINE
  5
CC
330
70
100
AcDbEntity
  8
0
 62
    18
420
        0
370
    25
100
AcDbLine
 10
114.6684537979847
 20
120.1867310196863
 30
0.0
 11
114.6684537979847
 21
117.9367311165861
 31
0.0
  0
SPLINE
  5
CD
330
70
100
AcDbEntity
  8
0
 62
    18
420
        0
370
    25
100
AcDbSpline
210
0.0
220
0.0
230
1.0
 70
     8
 71
     3
 72
    11
 73
     7
 74
     0
 42
0.0000000001
 43
0.0000000001
 40
0.0
 40
0.0
 40
0.0
 40
0.0
 40
1.0
 40
1.0
 40
1.0
 40
2.0
 40
2.0
 40
2.0
 40
2.0
 10
114.5434516819631
 20
117.8117310960648
 30
0.0
 10
114.6124871161488
 20
117.8117297679192
 30
0.0
 10
114.6684524697601
 20
117.86769296818
 30
0.0
 10
114.6684537979051
 20
117.9367284023654
 30
0.0
 10
114.6684537979231
 20
117.9367293070946
 30
0.0
 10
114.6684537979308
 20
117.9367302118248
 30
0.0
 10
114.6684537979282
 20
117.936731116554
 30
0.0
  0
LINE
  5
CE
330
70
100
AcDbEntity
  8
0
 62
    18
420
        0
370
    25
100
AcDbLine
 10
114.5434516819836
 20
117.8117310960863
 30
0.0
 11
113.4184512647838
 21
117.8117310960863
 31
0.0
  0
LINE
  5
CF
330
70
100
AcDbEntity
  8
0
 62
    18
420
        0
370
    25
100
AcDbLine
 10
16.04345323168432
 20
117.9367311165861
 30
0.0
 11
18.41845245688407
 21
117.9367311165861
 31
0.0
  0
LINE
  5
D0
330
70
100
AcDbEntity
  8
0
 62
    18
420
        0
370
    25
100
AcDbLine
 10
18.41845245688407
 20
117.9367311165861
 30
0.0
 11
18.41845245688407
 21
117.8117310960863
 31
0.0
  0
LINE
  5
D1
330
70
100
AcDbEntity
  8
0
 62
    18
420
        0
370
    25
100
AcDbLine
 10
18.41845245688407
 20
117.8117310960863
 30
0.0
 11
15.91845484108403
 21
117.8117310960863
 31
0.0
  0
LINE
  5
D2
330
70
100
AcDbEntity
  8
0
 62
    18
420
        0
370
    25
100
AcDbLine
 10
18.41845245688407
 20
120.3117310401861
 30
0.0
 11
18.41845245688407
 21
120.1867310196863
 31
0.0
  0
LINE
  5
D3
330
70
100
AcDbEntity
  8
0
 62
    18
420
        0
370
    25
100
AcDbLine
 10
18.41845245688407
 20
120.1867310196863
 30
0.0
 11
16.04345323168432
 21
120.1867310196863
 31
0.0
  0
LINE
  5
D4
330
70
100
AcDbEntity
  8
0
 62
    18
420
        0
370
    25
100
AcDbLine
 10
15.91845484108403
 20
120.3117310401861
 30
0.0
 11
18.41845245688407
 21
120.3117310401861
 31
0.0
  0
LINE
  5
D5
330
70
100
AcDbEntity
  8
0
 62
    18
420
        0
370
    25
100
AcDbLine
 10
18.41845245688407
 20
120.1867310196863
 30
0.0
 11
18.41845245688407
 21
117.9367311165861
 31
0.0
  0
LINE
  5
D6
330
70
100
AcDbEntity
  8
0
 62
    18
420
        0
370
    25
100
AcDbLine
 10
110.9184536489841
 20
117.9367311165861
 30
0.0
 11
113.2934528740844
 21
117.9367311165861
 31
0.0
  0
LINE
  5
D7
330
70
100
AcDbEntity
  8
0
 62
    18
420
        0
370
    25
100
AcDbLine
 10
110.9184536489841
 20
117.9367311165861
 30
0.0
 11
110.9184536489841
 21
117.8117310960863
 31
0.0
  0
LINE
  5
D8
330
70
100
AcDbEntity
  8
0
 62
    18
420
        0
370
    25
100
AcDbLine
 10
113.4184512647838
 20
117.8117310960863
 30
0.0
 11
110.9184536489841
 21
117.8117310960863
 31
0.0
  0
LINE
  5
D9
330
70
100
AcDbEntity
  8
0
 62
    18
420
        0
370
    25
100
AcDbLine
 10
113.2934528740844
 20
120.1867310196863
 30
0.0
 11
110.9184536489841
 21
120.1867310196863
 31
0.0
  0
LINE
  5
DA
330
70
100
AcDbEntity
  8
0
 62
    18
420
        0
370
    25
100
AcDbLine
 10
110.9184536489841
 20
120.3117310401861
 30
0.0
 11
110.9184536489841
 21
120.1867310196863
 31
0.0
  0
LINE
  5
DB
330
70
100
AcDbEntity
  8
0
 62
    18
420
        0
370
    25
100
AcDbLine
 10
110.9184536489841
 20
120.3117310401861
 30
0.0
 11
113.4184512647838
 21
120.3117310401861
 31
0.0
  0
LINE
  5
DC
330
70
100
AcDbEntity
  8
0
 62
    18
420
        0
370
    25
100
AcDbLine
 10
110.9184536489841
 20
120.1867310196863
 30
0.0
 11
110.9184536489841
 21
117.9367311165861
 31
0.0
  0
LINE
  5
DD
330
70
100
AcDbEntity
  8
0
 62
    18
420
        0
370
    25
100
AcDbLine
 10
18.41845245688407
 20
120.3117310401861
 30
0.0
 11
110.9184536489841
 21
120.3117310401861
 31
0.0
  0
LINE
  5
DE
330
70
100
AcDbEntity
  8
0
 62
    18
420
        0
370
    25
100
AcDbLine
 10
110.9184536489841
 20
120.1867310196863
 30
0.0
 11
18.41845245688407
 21
120.1867310196863
 31
0.0
  0
LINE
  5
DF
330
70
100
AcDbEntity
  8
0
 62
    18
420
        0
370
    25
100
AcDbLine
 10
18.41845245688407
 20
117.9367311165861
 30
0.0
 11
110.9184536489841
 21
117.9367311165861
 31
0.0
  0
LINE
  5
E0
330
70
100
AcDbEntity
  8
0
 62
    18
420
        0
370
    25
100
AcDbLine
 10
110.9184536489841
 20
117.8117310960863
 30
0.0
 11
18.41845245688407
 21
117.8117310960863
 31
0.0
  0
CIRCLE
  5
E1
330
70
100
AcDbEntity
  8
0
 62
    18
420
        0
370
    25
100
AcDbCircle
 10
39.66845305288414
 20
119.0617310680863
 30
0.0
 40
1.062499999999917
  0
CIRCLE
  5
E2
330
70
100
AcDbEntity
  8
0
 62
    18
420
        0
370
    25
100
AcDbCircle
 10
89.66845305288462
 20
119.0617310680863
 30
0.0
 40
1.062499999999917
  0
CIRCLE
  5
E3
330
70
100
AcDbEntity
  8
0
 62
    18
420
        0
370
    25
100
AcDbCircle
 10
39.66845305288422
 20
119.0617310680862
 30
0.0
 40
0.9374999999999127
  0
CIRCLE
  5
E4
330
70
100
AcDbEntity
  8
0
 62
    18
420
        0
370
    25
100
AcDbCircle
 10
89.66845305288446
 20
119.0617310680862
 30
0.0
 40
0.9374999999999529
  0
LWPOLYLINE
  5
E5
330
70
100
AcDbEntity
  8
0
 62
    18
420
        0
370
    25
100
AcDbPolyline
 90
        5
 70
     0
 43
0.0
 10
40.91845335088424
 20
120.3117310401861
 10
41.28123329608434
 20
120.6745105196862
 10
42.26429829028424
 20
121.6575766779863
 10
43.27851043668421
 20
122.6717890572864
 10
45.66855238408428
 20
125.0618303061862
  0
SPLINE
  5
E6
330
70
100
AcDbEntity
  8
0
 62
    18
420
        0
370
    25
100
AcDbSpline
210
0.0
220
0.0
230
1.0
 70
     8
 71
     3
 72
     8
 73
     4
 74
     0
 42
0.0000000001
 43
0.0000000001
 40
0.0
 40
0.0
 40
0.0
 40
0.0
 40
1.0
 40
1.0
 40
1.0
 40
1.0
 10
45.67907260384348
 20
125.0670843624577
 30
0.0
 10
45.6750172436855
 20
125.0667634046449
 30
0.0
 10
45.67124517554242
 20
125.0648795411153
 30
0.0
 10
45.66855238404064
 20
125.0618303061531
 30
0.0
  0
LINE
  5
E7
330
70
100
AcDbEntity
  8
0
 62
    18
420
        0
370
    25
100
AcDbLine
 10
45.66855238408428
 20
113.0616318300862
 30
0.0
 11
45.67907446648404
 21
113.0616360210862
 31
0.0
  0
LWPOLYLINE
  5
E8
330
70
100
AcDbEntity
  8
0
 62
    18
420
        0
370
    25
100
AcDbPolyline
 90
        5
 70
     0
 43
0.0
 10
40.91845335088424
 20
117.8117310960863
 10
41.28122770808408
 20
117.4489563895863
 10
42.26429456498421
 20
116.4658894163862
 10
43.27850857398431
 20
115.4516758729863
 10
43.91845384268409
 20
114.8117308371863
  0
LINE
  5
E9
330
70
100
AcDbEntity
  8
0
 62
    18
420
        0
370
    25
100
AcDbLine
 10
44.66845349988417
 20
114.0617311798861
 30
0.0
 11
45.66855238408428
 21
113.0616318300862
 31
0.0
  0
LINE
  5
EA
330
70
100
AcDbEntity
  8
0
 62
    18
420
        0
370
    25
100
AcDbLine
 10
40.55595280258429
 20
119.3079653353864
 30
0.0
 11
40.55595280258429
 21
118.7790780136863
 31
0.0
  0
LWPOLYLINE
  5
EB
330
70
100
AcDbEntity
  8
0
 62
    18
420
        0
370
    25
100
AcDbPolyline
 90
        5
 70
     0
 43
0.0
 10
38.41845387248408
 20
120.3117310401861
 10
38.05567392728431
 20
120.6745105196862
 10
37.07260707048429
 20
121.6575766779863
 10
36.05839492408431
 20
122.6717890572864
 10
33.66835297668425
 20
125.0618303061862
  0
SPLINE
  5
EC
330
70
100
AcDbEntity
  8
0
 62
    18
420
        0
370
    25
100
AcDbSpline
210
0.0
220
0.0
230
1.0
 70
     8
 71
     3
 72
     8
 73
     4
 74
     0
 42
0.0000000001
 43
0.0000000001
 40
0.0
 40
0.0
 40
0.0
 40
0.0
 40
1.0
 40
1.0
 40
1.0
 40
1.0
 10
33.66310031739508
 20
125.0723509915722
 30
0.0
 10
33.66342078866786
 20
125.0682956692905
 30
0.0
 10
33.66530414742856
 20
125.0645234419425
 30
0.0
 10
33.66835297671601
 20
125.0618303061082
 30
0.0
  0
LWPOLYLINE
  5
ED
330
70
100
AcDbEntity
  8
0
 62
    18
420
        0
370
    25
100
AcDbPolyline
 90
        7
 70
     0
 43
0.0
 10
45.66854865878425
 20
125.0723533198863
 10
45.16854764548433
 20
125.0725516915863
 10
43.16854918028431
 20
125.0732618250863
 10
39.16854852468432
 20
125.0738494895863
 10
37.64494763338421
 20
125.0736487895863
 10
33.66835856458408
 20
125.0723533198863
 10
33.66310031738417
 20
125.0723509915863
  0
LINE
  5
EE
330
70
100
AcDbEntity
  8
0
 62
    18
420
        0
370
    25
100
AcDbLine
 10
45.66855238408428
 20
125.0618303061862
 30
0.0
 11
45.66854865878425
 21
125.0723533198863
 31
0.0
  0
SPLINE
  5
EF
330
70
100
AcDbEntity
  8
0
 62
    18
420
        0
370
    25
100
AcDbSpline
210
0.0
220
0.0
230
1.0
 70
     8
 71
     3
 72
    11
 73
     7
 74
     0
 42
0.0000000001
 43
0.0000000001
 40
0.0
 40
0.0
 40
0.0
 40
0.0
 40
1.0
 40
1.0
 40
1.0
 40
2.0
 40
2.0
 40
2.0
 40
2.0
 10
40.03488713530885
 20
120.3117310401726
 30
0.0
 10
40.00455247403859
 20
120.5135331809715
 30
0.0
 10
39.81636841419678
 20
120.6525350373812
 30
0.0
 10
39.61456627339785
 20
120.622200376111
 30
0.0
 10
39.45414316603821
 20
120.5980857626466
 30
0.0
 10
39.32821155092386
 20
120.4721541475322
 30
0.0
 10
39.30409693745947
 20
120.3117310401726
 30
0.0
  0
SPLINE
  5
F0
330
70
100
AcDbEntity
  8
0
 62
    18
420
        0
370
    25
100
AcDbSpline
210
0.0
220
0.0
230
1.0
 70
     8
 71
     3
 72
     8
 73
     4
 74
     0
 42
0.0000000001
 43
0.0000000001
 40
0.0
 40
0.0
 40
0.0
 40
0.0
 40
1.0
 40
1.0
 40
1.0
 40
1.0
 10
33.65783275692504
 20
113.0563777738147
 30
0.0
 10
33.66188811708271
 20
113.0566987316279
 30
0.0
 10
33.66566018522578
 20
113.0585825951571
 30
0.0
 10
33.66835297672788
 20
113.0616318301196
 30
0.0
  0
LINE
  5
F1
330
70
100
AcDbEntity
  8
0
 62
    18
420
        0
370
    25
100
AcDbLine
 10
33.66835297668425
 20
125.0618303061862
 30
0.0
 11
33.65783089428417
 21
125.0618261151862
 31
0.0
  0
LINE
  5
F2
330
70
100
AcDbEntity
  8
0
 62
    18
420
        0
370
    25
100
AcDbLine
 10
38.78095255818424
 20
118.8241375389862
 30
0.0
 11
38.78095255818424
 21
119.3519615958863
 31
0.0
  0
LWPOLYLINE
  5
F3
330
70
100
AcDbEntity
  8
0
 62
    18
420
        0
370
    25
100
AcDbPolyline
 90
        5
 70
     0
 43
0.0
 10
38.41845387248408
 20
117.8117310960863
 10
38.05567765258434
 20
117.4489563895863
 10
37.07261079578432
 20
116.4658894163862
 10
36.05839864938403
 20
115.4516758729863
 10
35.41845338068423
 20
114.8117308371863
  0
LINE
  5
F4
330
70
100
AcDbEntity
  8
0
 62
    18
420
        0
370
    25
100
AcDbLine
 10
34.66845372348416
 20
114.0617311798861
 30
0.0
 11
33.66835297668425
 21
113.0616318300862
 31
0.0
  0
SPLINE
  5
F5
330
70
100
AcDbEntity
  8
0
 62
    18
420
        0
370
    25
100
AcDbSpline
210
0.0
220
0.0
230
1.0
 70
     8
 71
     3
 72
     8
 73
     4
 74
     0
 42
0.0000000001
 43
0.0000000001
 40
0.0
 40
0.0
 40
0.0
 40
0.0
 40
1.0
 40
1.0
 40
1.0
 40
1.0
 10
45.67380690599539
 20
113.0511111446495
 30
0.0
 10
45.67348458916568
 20
113.0551663614256
 30
0.0
 10
45.67160078349048
 20
113.0589381463969
 30
0.0
 10
45.66855238402942
 20
113.0616318301135
 30
0.0
  0
LWPOLYLINE
  5
F6
330
70
100
AcDbEntity
  8
0
 62
    18
420
        0
370
    25
100
AcDbPolyline
 90
        6
 70
     0
 43
0.0
 10
39.66845268038426
 20
113.0496005394862
 10
40.16845369368417
 20
113.0496140435863
 10
42.1684521587841
 20
113.0499209143861
 10
43.91850040878417
 20
113.0504452489861
 10
45.66854865878425
 20
113.0511088163864
 10
45.67380690598415
 20
113.0511111446861
  0
SPLINE
  5
F7
330
70
100
AcDbEntity
  8
0
 62
    18
420
        0
370
    25
100
AcDbSpline
210
0.0
220
0.0
230
1.0
 70
     8
 71
     3
 72
     8
 73
     4
 74
     0
 42
0.0000000001
 43
0.0000000001
 40
0.0
 40
0.0
 40
0.0
 40
0.0
 40
1.0
 40
1.0
 40
1.0
 40
1.0
 10
39.66845268041667
 20
117.4992310448514
 30
0.0
 10
39.8522041061819
 20
117.4941765776275
 30
0.0
 10
40.00981284169319
 20
117.6293541859841
 30
0.0
 10
40.03280842334819
 20
117.8117310960741
 30
0.0
  0
LWPOLYLINE
  5
F8
330
70
100
AcDbEntity
  8
0
 62
    18
420
        0
370
    25
100
AcDbPolyline
 90
        5
 70
     0
 43
0.0
 10
33.66835856458408
 20
113.0511088163864
 10
34.16835771528419
 20
113.0509104446861
 10
36.16835804308402
 20
113.0501979828864
 10
37.91840443038419
 20
113.0497625895864
 10
39.66845268038426
 20
113.0496005394862
  0
LINE
  5
F9
330
70
100
AcDbEntity
  8
0
 62
    18
420
        0
370
    25
100
AcDbLine
 10
33.66835297668425
 20
113.0616318300862
 30
0.0
 11
33.66835856458408
 21
113.0511088163864
 31
0.0
  0
SPLINE
  5
FA
330
70
100
AcDbEntity
  8
0
 62
    18
420
        0
370
    25
100
AcDbSpline
210
0.0
220
0.0
230
1.0
 70
     8
 71
     3
 72
     8
 73
     4
 74
     0
 42
0.0000000001
 43
0.0000000001
 40
0.0
 40
0.0
 40
0.0
 40
0.0
 40
1.0
 40
1.0
 40
1.0
 40
1.0
 10
39.30039772417213
 20
117.8117310960815
 30
0.0
 10
39.32504424348311
 20
117.628730873887
 30
0.0
 10
39.48387800580825
 20
117.4938717773669
 30
0.0
 10
39.66845268036951
 20
117.4992310448588
 30
0.0
  0
SPLINE
  5
FB
330
70
100
AcDbEntity
  8
0
 62
    18
420
        0
370
    25
100
AcDbSpline
210
0.0
220
0.0
230
1.0
 70
     8
 71
     3
 72
     8
 73
     4
 74
     0
 42
0.0000000001
 43
0.0000000001
 40
0.0
 40
0.0
 40
0.0
 40
0.0
 40
1.0
 40
1.0
 40
1.0
 40
1.0
 10
33.41845305291617
 20
113.0617310159564
 30
0.0
 10
33.50130570604031
 20
113.0511423757048
 30
0.0
 10
33.58490623124805
 20
113.0475889468054
 30
0.0
 10
33.6683585646521
 20
113.0511088163318
 30
0.0
  0
SPLINE
  5
FC
330
70
100
AcDbEntity
  8
0
 62
    18
420
        0
370
    25
100
AcDbSpline
210
0.0
220
0.0
230
1.0
 70
     8
 71
     3
 72
     8
 73
     4
 74
     0
 42
0.0000000001
 43
0.0000000001
 40
0.0
 40
0.0
 40
0.0
 40
0.0
 40
1.0
 40
1.0
 40
1.0
 40
1.0
 10
33.41845305291392
 20
113.0617310159419
 30
0.0
 10
33.49807910503944
 20
113.0553869013822
 30
0.0
 10
33.57800270266056
 20
113.0535995720258
 30
0.0
 10
33.65783275691092
 20
113.0563777737833
 30
0.0
  0
LINE
  5
FD
330
70
100
AcDbEntity
  8
0
 62
    18
420
        0
370
    25
100
AcDbLine
 10
33.41845305288408
 20
113.0617310159862
 30
0.0
 11
33.41845305288408
 21
114.0617311798861
 31
0.0
  0
LINE
  5
FE
330
70
100
AcDbEntity
  8
0
 62
    18
420
        0
370
    25
100
AcDbLine
 10
33.41845305288408
 20
114.8117308371863
 30
0.0
 11
33.41845305288408
 21
117.8117310960863
 31
0.0
  0
LINE
  5
FF
330
70
100
AcDbEntity
  8
0
 62
    18
420
        0
370
    25
100
AcDbLine
 10
33.41845305288408
 20
120.3117310401861
 30
0.0
 11
33.41845305288408
 21
125.0617311202862
 31
0.0
  0
SPLINE
  5
100
330
70
100
AcDbEntity
  8
0
 62
    18
420
        0
370
    25
100
AcDbSpline
210
0.0
220
0.0
230
1.0
 70
     8
 71
     3
 72
     8
 73
     4
 74
     0
 42
0.0000000001
 43
0.0000000001
 40
0.0
 40
0.0
 40
0.0
 40
0.0
 40
1.0
 40
1.0
 40
1.0
 40
1.0
 10
33.65783089418791
 20
125.0618261152122
 30
0.0
 10
33.57803826786213
 20
125.061855951174
 30
0.0
 10
33.49824563037689
 20
125.061824286197
 30
0.0
 10
33.41845305286322
 20
125.0617311203096
 30
0.0
  0
SPLINE
  5
101
330
70
100
AcDbEntity
  8
0
 62
    18
420
        0
370
    25
100
AcDbSpline
210
0.0
220
0.0
230
1.0
 70
     8
 71
     3
 72
     8
 73
     4
 74
     0
 42
0.0000000001
 43
0.0000000001
 40
0.0
 40
0.0
 40
0.0
 40
0.0
 40
1.0
 40
1.0
 40
1.0
 40
1.0
 10
45.91845230786295
 20
125.0617311202839
 30
0.0
 10
45.83560028344087
 20
125.0723198130685
 30
0.0
 10
45.75200037242317
 20
125.0758732423469
 30
0.0
 10
45.66854865876981
 20
125.0723533199088
 30
0.0
  0
SPLINE
  5
102
330
70
100
AcDbEntity
  8
0
 62
    18
420
        0
370
    25
100
AcDbSpline
210
0.0
220
0.0
230
1.0
 70
     8
 71
     3
 72
     8
 73
     4
 74
     0
 42
0.0000000001
 43
0.0000000001
 40
0.0
 40
0.0
 40
0.0
 40
0.0
 40
1.0
 40
1.0
 40
1.0
 40
1.0
 10
45.91845230785525
 20
125.0617311202778
 30
0.0
 10
45.8388263146393
 20
125.0680763903983
 30
0.0
 10
45.7589026509126
 20
125.0698637212329
 30
0.0
 10
45.67907260385536
 20
125.0670843624365
 30
0.0
  0
LINE
  5
103
330
70
100
AcDbEntity
  8
0
 62
    18
420
        0
370
    25
100
AcDbLine
 10
45.91845230788413
 20
125.0617311202862
 30
0.0
 11
45.91845230788413
 21
120.3117310401861
 31
0.0
  0
LINE
  5
104
330
70
100
AcDbEntity
  8
0
 62
    18
420
        0
370
    25
100
AcDbLine
 10
45.91845230788413
 20
117.8117310960863
 30
0.0
 11
45.91845230788413
 21
114.8117308371863
 31
0.0
  0
LINE
  5
105
330
70
100
AcDbEntity
  8
0
 62
    18
420
        0
370
    25
100
AcDbLine
 10
45.91845230788413
 20
114.0617311798861
 30
0.0
 11
45.91845230788413
 21
113.0617310159862
 31
0.0
  0
SPLINE
  5
106
330
70
100
AcDbEntity
  8
0
 62
    18
420
        0
370
    25
100
AcDbSpline
210
0.0
220
0.0
230
1.0
 70
     8
 71
     3
 72
     8
 73
     4
 74
     0
 42
0.0000000001
 43
0.0000000001
 40
0.0
 40
0.0
 40
0.0
 40
0.0
 40
1.0
 40
1.0
 40
1.0
 40
1.0
 10
45.67907446641281
 20
113.0616360211054
 30
0.0
 10
45.75886709274469
 20
113.0616061845527
 30
0.0
 10
45.83865973024052
 20
113.0616378495293
 30
0.0
 10
45.91845230775995
 20
113.061731016008
 30
0.0
  0
LINE
  5
107
330
70
100
AcDbEntity
  8
0
 62
    18
420
        0
370
    25
100
AcDbLine
 10
33.66845355958425
 20
125.3117311612864
 30
0.0
 11
45.66845366388418
 21
125.3117311612864
 31
0.0
  0
SPLINE
  5
108
330
70
100
AcDbEntity
  8
0
 62
    18
420
        0
370
    25
100
AcDbSpline
210
0.0
220
0.0
230
1.0
 70
     8
 71
     3
 72
     8
 73
     4
 74
     0
 42
0.0000000001
 43
0.0000000001
 40
0.0
 40
0.0
 40
0.0
 40
0.0
 40
1.0
 40
1.0
 40
1.0
 40
1.0
 10
45.66854865879067
 20
125.0723533199059
 30
0.0
 10
45.66857718943519
 20
125.152145946258
 30
0.0
 10
45.66854552445855
 20
125.2319385827791
 30
0.0
 10
45.66845366388803
 20
125.3117311613548
 30
0.0
  0
SPLINE
  5
109
330
70
100
AcDbEntity
  8
0
 62
    18
420
        0
370
    25
100
AcDbSpline
210
0.0
220
0.0
230
1.0
 70
     8
 71
     3
 72
     8
 73
     4
 74
     0
 42
0.0000000001
 43
0.0000000001
 40
0.0
 40
0.0
 40
0.0
 40
0.0
 40
1.0
 40
1.0
 40
1.0
 40
1.0
 10
33.66845355951302
 20
125.3117311612168
 30
0.0
 10
33.66210761293941
 20
125.2321050469449
 30
0.0
 10
33.66032028125071
 20
125.1521811895474
 30
0.0
 10
33.66310031735401
 20
125.0723509915568
 30
0.0
  0
SPLINE
  5
10A
330
70
100
AcDbEntity
  8
0
 62
    18
420
        0
370
    25
100
AcDbSpline
210
0.0
220
0.0
230
1.0
 70
     8
 71
     3
 72
     8
 73
     4
 74
     0
 42
0.0000000001
 43
0.0000000001
 40
0.0
 40
0.0
 40
0.0
 40
0.0
 40
1.0
 40
1.0
 40
1.0
 40
1.0
 10
33.66845355954799
 20
125.3117311612688
 30
0.0
 10
33.65786485332781
 20
125.2288786697854
 30
0.0
 10
33.65431126892483
 20
125.1452783067876
 30
0.0
 10
33.65783089426203
 20
125.0618261151933
 30
0.0
  0
SPLINE
  5
10B
330
70
100
AcDbEntity
  8
0
 62
    18
420
        0
370
    25
100
AcDbSpline
210
0.0
220
0.0
230
1.0
 70
     8
 71
     3
 72
     8
 73
     4
 74
     0
 42
0.0000000001
 43
0.0000000001
 40
0.0
 40
0.0
 40
0.0
 40
0.0
 40
1.0
 40
1.0
 40
1.0
 40
1.0
 10
45.66845366380493
 20
112.811730974985
 30
0.0
 10
45.67479353975772
 20
112.8913573986703
 30
0.0
 10
45.67658086368378
 20
112.9712809089283
 30
0.0
 10
45.67380690596395
 20
113.0511111446447
 30
0.0
  0
LINE
  5
10C
330
70
100
AcDbEntity
  8
0
 62
    18
420
        0
370
    25
100
AcDbLine
 10
45.66845366388418
 20
112.8117309749863
 30
0.0
 11
39.66845268038426
 21
112.8117309749863
 31
0.0
  0
LINE
  5
10D
330
70
100
AcDbEntity
  8
0
 62
    18
420
        0
370
    25
100
AcDbLine
 10
39.66845268038426
 20
113.0496005394862
 30
0.0
 11
39.66845268038426
 21
112.8117309749863
 31
0.0
  0
SPLINE
  5
10E
330
70
100
AcDbEntity
  8
0
 62
    18
420
        0
370
    25
100
AcDbSpline
210
0.0
220
0.0
230
1.0
 70
     8
 71
     3
 72
     8
 73
     4
 74
     0
 42
0.0000000001
 43
0.0000000001
 40
0.0
 40
0.0
 40
0.0
 40
0.0
 40
1.0
 40
1.0
 40
1.0
 40
1.0
 10
45.66845366380911
 20
112.8117309750437
 30
0.0
 10
45.67904237550716
 20
112.8945834659614
 30
0.0
 10
45.68259533905636
 20
112.9781838820043
 30
0.0
 10
45.67907446645003
 20
113.0616360211189
 30
0.0
  0
LINE
  5
10F
330
70
100
AcDbEntity
  8
0
 62
    18
420
        0
370
    25
100
AcDbLine
 10
39.66845268038426
 20
112.8117309749863
 30
0.0
 11
33.66845355958425
 21
112.8117309749863
 31
0.0
  0
SPLINE
  5
110
330
70
100
AcDbEntity
  8
0
 62
    18
420
        0
370
    25
100
AcDbSpline
210
0.0
220
0.0
230
1.0
 70
     8
 71
     3
 72
     8
 73
     4
 74
     0
 42
0.0000000001
 43
0.0000000001
 40
0.0
 40
0.0
 40
0.0
 40
0.0
 40
1.0
 40
1.0
 40
1.0
 40
1.0
 10
33.6683585646197
 20
113.0511088165009
 30
0.0
 10
33.66832694289229
 20
112.9713161901203
 30
0.0
 10
33.66835860786989
 20
112.8915235512021
 30
0.0
 10
33.668453559522
 20
112.8117309750511
 30
0.0
  0
SPLINE
  5
111
330
70
100
AcDbEntity
  8
0
 62
    18
420
        0
370
    25
100
AcDbSpline
210
0.0
220
0.0
230
1.0
 70
     8
 71
     3
 72
    11
 73
     7
 74
     0
 42
0.0000000001
 43
0.0000000001
 40
0.0
 40
0.0
 40
0.0
 40
0.0
 40
1.0
 40
1.0
 40
1.0
 40
2.0
 40
2.0
 40
2.0
 40
2.0
 10
33.41845305288408
 20
113.0617310681653
 30
0.0
 10
33.41845305284044
 20
112.9236598807074
 30
0.0
 10
33.53038186534742
 20
112.8117310681299
 30
0.0
 10
33.66845305280532
 20
112.8117310680863
 30
0.0
 10
33.66845305284478
 20
112.8117310680863
 30
0.0
 10
33.66845305284478
 20
112.8117310680863
 30
0.0
 10
33.66845305288425
 20
112.8117310680863
 30
0.0
  0
SPLINE
  5
112
330
70
100
AcDbEntity
  8
0
 62
    18
420
        0
370
    25
100
AcDbSpline
210
0.0
220
0.0
230
1.0
 70
     8
 71
     3
 72
     8
 73
     4
 74
     0
 42
0.0000000001
 43
0.0000000001
 40
0.0
 40
0.0
 40
0.0
 40
0.0
 40
1.0
 40
1.0
 40
1.0
 40
1.0
 10
33.66845305288425
 20
125.3117310680864
 30
0.0
 10
33.53038186542635
 20
125.3117310680864
 30
0.0
 10
33.41845305288408
 20
125.1998022555441
 30
0.0
 10
33.41845305288408
 20
125.0617310680862
 30
0.0
  0
SPLINE
  5
113
330
70
100
AcDbEntity
  8
0
 62
    18
420
        0
370
    25
100
AcDbSpline
210
0.0
220
0.0
230
1.0
 70
     8
 71
     3
 72
     8
 73
     4
 74
     0
 42
0.0000000001
 43
0.0000000001
 40
0.0
 40
0.0
 40
0.0
 40
0.0
 40
1.0
 40
1.0
 40
1.0
 40
1.0
 10
45.66845305288403
 20
112.8117310680863
 30
0.0
 10
45.80652424034193
 20
112.8117310680863
 30
0.0
 10
45.91845305288419
 20
112.9236598806285
 30
0.0
 10
45.91845305288419
 20
113.0617310680864
 30
0.0
  0
SPLINE
  5
114
330
70
100
AcDbEntity
  8
0
 62
    18
420
        0
370
    25
100
AcDbSpline
210
0.0
220
0.0
230
1.0
 70
     8
 71
     3
 72
     8
 73
     4
 74
     0
 42
0.0000000001
 43
0.0000000001
 40
0.0
 40
0.0
 40
0.0
 40
0.0
 40
1.0
 40
1.0
 40
1.0
 40
1.0
 10
45.91845305288419
 20
125.0617310685591
 30
0.0
 10
45.91845305262302
 20
125.1998022558322
 30
0.0
 10
45.80652424015712
 20
125.3117310680864
 30
0.0
 10
45.66845305288403
 20
125.3117310680864
 30
0.0
  0
CIRCLE
  5
115
330
70
100
AcDbEntity
  8
0
 62
    18
420
        0
370
    25
100
AcDbCircle
 10
39.66845305288422
 20
119.0617310680862
 30
0.0
 40
0.6499999999999428
  0
LWPOLYLINE
  5
116
330
70
100
AcDbEntity
  8
0
 62
     8
420
  8421504
370
    25
100
AcDbPolyline
 90
        4
 70
     0
 43
0.0
 10
83.65783163928375
 20
125.0618261151862
 10
83.65763233628408
 20
124.5618260331864
 10
83.65692266848432
 20
122.5618264038862
 10
83.65659111768406
 20
120.3117310401864
  0
LWPOLYLINE
  5
117
330
70
100
AcDbEntity
  8
0
 62
     8
420
  8421504
370
    25
100
AcDbPolyline
 90
        3
 70
     0
 43
0.0
 10
83.65643279278421
 20
117.8117310960863
 10
83.65653523828401
 20
117.0382253226864
 10
83.65725980728454
 20
114.8117308371863
  0
LWPOLYLINE
  5
118
330
70
100
AcDbEntity
  8
0
 62
     8
420
  8421504
370
    25
100
AcDbPolyline
 90
        3
 70
     0
 43
0.0
 10
83.65750567638396
 20
114.0617311798861
 10
83.65783163928375
 20
113.0616360210862
 10
83.65783350198462
 20
113.0563777737862
  0
LWPOLYLINE
  5
119
330
70
100
AcDbEntity
  8
0
 62
     8
420
  8421504
370
    25
100
AcDbPolyline
 90
        3
 70
     0
 43
0.0
 10
95.67907521158407
 20
113.0616360210862
 10
95.67927451458372
 20
113.5616361029862
 10
95.67945146588396
 20
114.0617311798861
  0
LWPOLYLINE
  5
11A
330
70
100
AcDbEntity
  8
0
 62
     8
420
  8421504
370
    25
100
AcDbPolyline
 90
        3
 70
     0
 43
0.0
 10
95.67971782408463
 20
114.8117308371863
 10
95.67998418238413
 20
115.5616357323862
 10
95.68031387058427
 20
117.8117310960863
  0
LWPOLYLINE
  5
11B
330
70
100
AcDbEntity
  8
0
 62
     8
420
  8421504
370
    25
100
AcDbPolyline
 90
        4
 70
     0
 43
0.0
 10
95.68047219538401
 20
120.3117310401861
 10
95.68037161258379
 20
121.0852368135864
 10
95.67907521158407
 20
125.0618261151862
 10
95.67907334888447
 20
125.0670843624863
  0
LINE
  5
11C
330
70
100
AcDbEntity
  8
0
 62
     8
420
  8421504
370
    25
100
AcDbLine
 10
15.35595463238404
 20
111.8117312767863
 30
0.0
 11
14.98095200978419
 21
111.8117312767863
 31
0.0
  0
LINE
  5
11D
330
70
100
AcDbEntity
  8
0
 62
     8
420
  8421504
370
    25
100
AcDbLine
 10
15.73095352968417
 20
111.8117312767863
 30
0.0
 11
15.35595463238404
 21
111.8117312767863
 31
0.0
  0
LINE
  5
11E
330
70
100
AcDbEntity
  8
0
 62
     8
420
  8421504
370
    25
100
AcDbLine
 10
16.48095132438422
 20
110.6867308594864
 30
0.0
 11
16.48095132438422
 21
110.3117310308862
 31
0.0
  0
LINE
  5
11F
330
70
100
AcDbEntity
  8
0
 62
     8
420
  8421504
370
    25
100
AcDbLine
 10
16.48095132438422
 20
111.0617306881861
 30
0.0
 11
16.48095132438422
 21
110.6867308594864
 31
0.0
  0
LINE
  5
120
330
70
100
AcDbEntity
  8
0
 62
     8
420
  8421504
370
    25
100
AcDbLine
 10
112.8559547813835
 20
110.6867308594864
 30
0.0
 11
112.8559547813835
 21
110.3117310308862
 31
0.0
  0
LINE
  5
121
330
70
100
AcDbEntity
  8
0
 62
     8
420
  8421504
370
    25
100
AcDbLine
 10
112.8559547813835
 20
111.0617306881861
 30
0.0
 11
112.8559547813835
 21
110.6867308594864
 31
0.0
  0
LINE
  5
122
330
70
100
AcDbEntity
  8
0
 62
     8
420
  8421504
370
    25
100
AcDbLine
 10
113.9809514733844
 20
111.8117312767863
 30
0.0
 11
114.3559540959846
 21
111.8117312767863
 31
0.0
  0
LINE
  5
123
330
70
100
AcDbEntity
  8
0
 62
     8
420
  8421504
370
    25
100
AcDbLine
 10
113.6059525760846
 20
111.8117312767863
 30
0.0
 11
113.9809514733844
 21
111.8117312767863
 31
0.0
  0
LINE
  5
124
330
70
100
AcDbEntity
  8
0
 62
     8
420
  8421504
370
    25
100
AcDbLine
 10
15.35595463238404
 20
115.5617309600863
 30
0.0
 11
15.73095352968417
 21
115.5617309600863
 31
0.0
  0
LINE
  5
125
330
70
100
AcDbEntity
  8
0
 62
     8
420
  8421504
370
    25
100
AcDbLine
 10
14.98095200978419
 20
115.5617309600863
 30
0.0
 11
15.35595463238404
 21
115.5617309600863
 31
0.0
  0
LINE
  5
126
330
70
100
AcDbEntity
  8
0
 62
     8
420
  8421504
370
    25
100
AcDbLine
 10
16.48095132438422
 20
114.4367310084863
 30
0.0
 11
16.48095132438422
 21
114.8117308371863
 31
0.0
  0
LINE
  5
127
330
70
100
AcDbEntity
  8
0
 62
     8
420
  8421504
370
    25
100
AcDbLine
 10
16.48095132438422
 20
114.0617311798861
 30
0.0
 11
16.48095132438422
 21
114.4367310084863
 31
0.0
  0
LINE
  5
128
330
70
100
AcDbEntity
  8
0
 62
     8
420
  8421504
370
    25
100
AcDbLine
 10
112.8559547813835
 20
114.4367310084863
 30
0.0
 11
112.8559547813835
 21
114.8117308371863
 31
0.0
  0
LINE
  5
129
330
70
100
AcDbEntity
  8
0
 62
     8
420
  8421504
370
    25
100
AcDbLine
 10
112.8559547813835
 20
114.0617311798861
 30
0.0
 11
112.8559547813835
 21
114.4367310084863
 31
0.0
  0
LINE
  5
12A
330
70
100
AcDbEntity
  8
0
 62
     8
420
  8421504
370
    25
100
AcDbLine
 10
113.9809514733844
 20
115.5617309600863
 30
0.0
 11
113.6059525760846
 21
115.5617309600863
 31
0.0
  0
LINE
  5
12B
330
70
100
AcDbEntity
  8
0
 62
     8
420
  8421504
370
    25
100
AcDbLine
 10
114.3559540959846
 20
115.5617309600863
 30
0.0
 11
113.9809514733844
 21
115.5617309600863
 31
0.0
  0
LWPOLYLINE
  5
12C
330
70
100
AcDbEntity
  8
0
 62
     8
420
  8421504
370
    25
100
AcDbPolyline
 90
        3
 70
     0
 43
0.0
 10
45.67907446648404
 20
113.0616360210862
 10
45.67927376948403
 20
113.5616361029862
 10
45.67945072078425
 20
114.0617311798861
  0
LWPOLYLINE
  5
12D
330
70
100
AcDbEntity
  8
0
 62
     8
420
  8421504
370
    25
100
AcDbPolyline
 90
        3
 70
     0
 43
0.0
 10
45.67971707908408
 20
114.8117308371863
 10
45.67998343728411
 20
115.5616357323862
 10
45.68031498818416
 20
117.8117310960863
  0
LWPOLYLINE
  5
12E
330
70
100
AcDbEntity
  8
0
 62
     8
420
  8421504
370
    25
100
AcDbPolyline
 90
        4
 70
     0
 43
0.0
 10
45.68047331298423
 20
120.3117310401861
 10
45.6803708674841
 20
121.0852368135864
 10
45.67907446648404
 20
125.0618261151862
 10
45.67907260388423
 20
125.0670843624863
  0
LWPOLYLINE
  5
12F
330
70
100
AcDbEntity
  8
0
 62
     8
420
  8421504
370
    25
100
AcDbPolyline
 90
        4
 70
     0
 43
0.0
 10
33.65783089428417
 20
125.0618261151862
 10
33.65763159118407
 20
124.5618260331864
 10
33.65692192338431
 20
122.5618264038862
 10
33.65659223518417
 20
120.3117310401864
  0
LWPOLYLINE
  5
130
330
70
100
AcDbEntity
  8
0
 62
     8
420
  8421504
370
    25
100
AcDbPolyline
 90
        3
 70
     0
 43
0.0
 10
33.6564339103841
 20
117.8117310960863
 10
33.65653449318432
 20
117.0382253226864
 10
33.65726092488411
 20
114.8117308371863
  0
LWPOLYLINE
  5
131
330
70
100
AcDbEntity
  8
0
 62
     8
420
  8421504
370
    25
100
AcDbPolyline
 90
        3
 70
     0
 43
0.0
 10
33.65750493138405
 20
114.0617311798861
 10
33.65783089428417
 20
113.0616360210862
 10
33.65783275688429
 20
113.0563777737862
  0
LINE
  5
132
330
70
100
AcDbEntity
  8
0
 62
     8
420
  8421504
370
    25
100
AcDbLine
 10
39.66845268038426
 20
117.4992310448864
 30
0.0
 11
39.66845268038426
 21
114.8117308371863
 31
0.0
  0
LINE
  5
133
330
70
100
AcDbEntity
  8
0
 62
     8
420
  8421504
370
    25
100
AcDbLine
 10
39.66845268038426
 20
114.0617311798861
 30
0.0
 11
39.66845268038426
 21
113.0496005394862
 31
0.0
  0
LWPOLYLINE
  5
134
330
70
100
AcDbEntity
  8
0
 62
    18
420
        0
370
    25
100
AcDbPolyline
 90
        3
 70
     0
 43
0.0
 10
146.9818625185836
 20
117.3736436950864
 10
146.9818535067844
 20
117.4503512052863
 10
146.9818317400847
 20
117.5098006704863
  0
LINE
  5
135
330
70
100
AcDbEntity
  8
0
 62
    18
420
        0
370
    25
100
AcDbLine
 10
150.3553755896839
 20
117.8117310680861
 30
0.0
 11
150.3553755896839
 21
111.8117310680862
 31
0.0
  0
LINE
  5
136
330
70
100
AcDbEntity
  8
0
 62
    18
420
        0
370
    25
100
AcDbLine
 10
151.1053755896837
 20
111.8117310680862
 30
0.0
 11
151.1053755896837
 21
117.8117310680861
 31
0.0
  0
LINE
  5
137
330
70
100
AcDbEntity
  8
0
 62
    18
420
        0
370
    25
100
AcDbLine
 10
150.3553755896839
 20
111.8117310680862
 30
0.0
 11
150.3553755896839
 21
110.6867310680864
 31
0.0
  0
LINE
  5
138
330
70
100
AcDbEntity
  8
0
 62
    18
420
        0
370
    25
100
AcDbLine
 10
151.1053755896837
 20
110.6867310680864
 30
0.0
 11
151.1053755896837
 21
111.8117310680862
 31
0.0
  0
LINE
  5
139
330
70
100
AcDbEntity
  8
0
 62
    18
420
        0
370
    25
100
AcDbLine
 10
154.6053755896835
 20
117.8117310680861
 30
0.0
 11
154.6053755896835
 21
111.8117310680862
 31
0.0
  0
LINE
  5
13A
330
70
100
AcDbEntity
  8
0
 62
    18
420
        0
370
    25
100
AcDbLine
 10
155.3553755896847
 20
111.8117310680862
 30
0.0
 11
155.3553755896847
 21
117.8117310680861
 31
0.0
  0
LINE
  5
13B
330
70
100
AcDbEntity
  8
0
 62
    18
420
        0
370
    25
100
AcDbLine
 10
154.6053755896835
 20
111.8117310680862
 30
0.0
 11
154.6053755896835
 21
110.6867310680864
 31
0.0
  0
LINE
  5
13C
330
70
100
AcDbEntity
  8
0
 62
    18
420
        0
370
    25
100
AcDbLine
 10
155.3553755896847
 20
110.6867310680864
 30
0.0
 11
155.3553755896847
 21
111.8117310680862
 31
0.0
  0
LINE
  5
13D
330
70
100
AcDbEntity
  8
0
 62
    18
420
        0
370
    25
100
AcDbLine
 10
158.8553755896845
 20
117.8117310680861
 30
0.0
 11
158.8553755896845
 21
111.8117310680862
 31
0.0
  0
LINE
  5
13E
330
70
100
AcDbEntity
  8
0
 62
    18
420
        0
370
    25
100
AcDbLine
 10
159.6053755896843
 20
111.8117310680862
 30
0.0
 11
159.6053755896843
 21
117.8117310680861
 31
0.0
  0
LINE
  5
13F
330
70
100
AcDbEntity
  8
0
 62
    18
420
        0
370
    25
100
AcDbLine
 10
158.8553755896845
 20
111.8117310680862
 30
0.0
 11
158.8553755896845
 21
110.6867310680864
 31
0.0
  0
LINE
  5
140
330
70
100
AcDbEntity
  8
0
 62
    18
420
        0
370
    25
100
AcDbLine
 10
159.6053755896843
 20
110.6867310680864
 30
0.0
 11
159.6053755896843
 21
111.8117310680862
 31
0.0
  0
LINE
  5
141
330
70
100
AcDbEntity
  8
0
 62
    18
420
        0
370
    25
100
AcDbLine
 10
163.1053755896841
 20
117.8117310680861
 30
0.0
 11
163.1053755896841
 21
111.8117310680862
 31
0.0
  0
LINE
  5
142
330
70
100
AcDbEntity
  8
0
 62
    18
420
        0
370
    25
100
AcDbLine
 10
163.855375589684
 20
111.8117310680862
 30
0.0
 11
163.855375589684
 21
117.8117310680861
 31
0.0
  0
LINE
  5
143
330
70
100
AcDbEntity
  8
0
 62
    18
420
        0
370
    25
100
AcDbLine
 10
163.1053755896841
 20
111.8117310680862
 30
0.0
 11
163.1053755896841
 21
110.6867310680864
 31
0.0
  0
LINE
  5
144
330
70
100
AcDbEntity
  8
0
 62
    18
420
        0
370
    25
100
AcDbLine
 10
163.855375589684
 20
110.6867310680864
 30
0.0
 11
163.855375589684
 21
111.8117310680862
 31
0.0
  0
LINE
  5
145
330
70
100
AcDbEntity
  8
0
 62
    18
420
        0
370
    25
100
AcDbLine
 10
167.3553755896838
 20
117.8117310680861
 30
0.0
 11
167.3553755896838
 21
111.8117310680862
 31
0.0
  0
LINE
  5
146
330
70
100
AcDbEntity
  8
0
 62
    18
420
        0
370
    25
100
AcDbLine
 10
168.1053755896837
 20
111.8117310680862
 30
0.0
 11
168.1053755896837
 21
117.8117310680861
 31
0.0
  0
LINE
  5
147
330
70
100
AcDbEntity
  8
0
 62
    18
420
        0
370
    25
100
AcDbLine
 10
167.3553755896838
 20
111.8117310680862
 30
0.0
 11
167.3553755896838
 21
110.6867310680864
 31
0.0
  0
LINE
  5
148
330
70
100
AcDbEntity
  8
0
 62
    18
420
        0
370
    25
100
AcDbLine
 10
168.1053755896837
 20
110.6867310680864
 30
0.0
 11
168.1053755896837
 21
111.8117310680862
 31
0.0
  0
LINE
  5
149
330
70
100
AcDbEntity
  8
0
 62
    18
420
        0
370
    25
100
AcDbLine
 10
171.6053755896848
 20
117.8117310680861
 30
0.0
 11
171.6053755896848
 21
111.8117310680862
 31
0.0
  0
LINE
  5
14A
330
70
100
AcDbEntity
  8
0
 62
    18
420
        0
370
    25
100
AcDbLine
 10
172.3553755896846
 20
111.8117310680862
 30
0.0
 11
172.3553755896846
 21
117.8117310680861
 31
0.0
  0
LINE
  5
14B
330
70
100
AcDbEntity
  8
0
 62
    18
420
        0
370
    25
100
AcDbLine
 10
171.6053755896848
 20
111.8117310680862
 30
0.0
 11
171.6053755896848
 21
110.6867310680864
 31
0.0
  0
LINE
  5
14C
330
70
100
AcDbEntity
  8
0
 62
    18
420
        0
370
    25
100
AcDbLine
 10
172.3553755896846
 20
110.6867310680864
 30
0.0
 11
172.3553755896846
 21
111.8117310680862
 31
0.0
  0
LINE
  5
14D
330
70
100
AcDbEntity
  8
0
 62
    18
420
        0
370
    25
100
AcDbLine
 10
176.6053755896843
 20
114.4367310680864
 30
0.0
 11
176.6053755896843
 21
115.5617310680862
 31
0.0
  0
LINE
  5
14E
330
70
100
AcDbEntity
  8
0
 62
    18
420
        0
370
    25
100
AcDbLine
 10
175.8553755896845
 20
115.5617310680862
 30
0.0
 11
175.8553755896845
 21
114.4367310680864
 31
0.0
  0
LINE
  5
14F
330
70
100
AcDbEntity
  8
0
 62
    18
420
        0
370
    25
100
AcDbLine
 10
175.8553755896845
 20
117.8117310680861
 30
0.0
 11
175.8553755896845
 21
115.5617310680862
 31
0.0
  0
LINE
  5
150
330
70
100
AcDbEntity
  8
0
 62
    18
420
        0
370
    25
100
AcDbLine
 10
176.6053755896843
 20
115.5617310680862
 30
0.0
 11
176.6053755896843
 21
117.8117310680861
 31
0.0
  0
LWPOLYLINE
  5
151
330
70
100
AcDbEntity
  8
0
 62
    18
420
        0
370
    25
100
AcDbPolyline
 90
        5
 70
     0
 43
0.0
 10
146.9816977639839
 20
120.1932423607863
 10
146.9817395140836
 20
120.3555623520862
 10
146.9818043994845
 20
120.5392171682864
 10
146.9818539075844
 20
120.6747153529862
 10
146.9818618882837
 20
120.7510095826862
  0
LWPOLYLINE
  5
152
330
70
100
AcDbEntity
  8
0
 62
    18
420
        0
370
    25
100
AcDbPolyline
 90
        3
 70
     0
 43
0.0
 10
146.9818622074841
 20
120.7504129799862
 10
146.9466558114838
 20
122.6280634834863
 10
146.8512565940843
 20
125.0737586519864
  0
LWPOLYLINE
  5
153
330
70
100
AcDbEntity
  8
0
 62
    18
420
        0
370
    25
100
AcDbPolyline
 90
        3
 70
     0
 43
0.0
 10
146.981555158684
 20
117.9048517670862
 10
146.9816269464848
 20
117.9191398756863
 10
146.981635518484
 20
117.9299758634863
  0
SPLINE
  5
154
330
70
100
AcDbEntity
  8
0
 62
    18
420
        0
370
    25
100
AcDbSpline
210
0.0
220
0.0
230
1.0
 70
     8
 71
     3
 72
    11
 73
     7
 74
     0
 42
0.0000000001
 43
0.0000000001
 40
0.0
 40
0.0
 40
0.0
 40
0.0
 40
1.0
 40
1.0
 40
1.0
 40
2.0
 40
2.0
 40
2.0
 40
2.0
 10
150.3553755896839
 20
110.6867310680864
 30
0.0
 10
150.3553755896839
 20
110.4796242868997
 30
0.0
 10
150.5232688084981
 20
110.3117310680862
 30
0.0
 10
150.7303755896844
 20
110.3117310680862
 30
0.0
 10
150.9374823708708
 20
110.3117310680862
 30
0.0
 10
151.1053755896837
 20
110.4796242868997
 30
0.0
 10
151.1053755896837
 20
110.6867310680864
 30
0.0
  0
SPLINE
  5
155
330
70
100
AcDbEntity
  8
0
 62
    18
420
        0
370
    25
100
AcDbSpline
210
0.0
220
0.0
230
1.0
 70
     8
 71
     3
 72
    11
 73
     7
 74
     0
 42
0.0000000001
 43
0.0000000001
 40
0.0
 40
0.0
 40
0.0
 40
0.0
 40
1.0
 40
1.0
 40
1.0
 40
2.0
 40
2.0
 40
2.0
 40
2.0
 10
154.6053755896835
 20
110.6867310680864
 30
0.0
 10
154.6053755896835
 20
110.4796242868997
 30
0.0
 10
154.7732688084977
 20
110.3117310680862
 30
0.0
 10
154.9803755896841
 20
110.3117310680862
 30
0.0
 10
155.1874823708705
 20
110.3117310680862
 30
0.0
 10
155.3553755896847
 20
110.4796242868997
 30
0.0
 10
155.3553755896847
 20
110.6867310680864
 30
0.0
  0
SPLINE
  5
156
330
70
100
AcDbEntity
  8
0
 62
    18
420
        0
370
    25
100
AcDbSpline
210
0.0
220
0.0
230
1.0
 70
     8
 71
     3
 72
    11
 73
     7
 74
     0
 42
0.0000000001
 43
0.0000000001
 40
0.0
 40
0.0
 40
0.0
 40
0.0
 40
1.0
 40
1.0
 40
1.0
 40
2.0
 40
2.0
 40
2.0
 40
2.0
 10
158.8553755896845
 20
110.6867310680864
 30
0.0
 10
158.8553755896845
 20
110.4796242868997
 30
0.0
 10
159.0232688084974
 20
110.3117310680862
 30
0.0
 10
159.2303755896838
 20
110.3117310680862
 30
0.0
 10
159.4374823708702
 20
110.3117310680862
 30
0.0
 10
159.6053755896843
 20
110.4796242868997
 30
0.0
 10
159.6053755896843
 20
110.6867310680864
 30
0.0
  0
SPLINE
  5
157
330
70
100
AcDbEntity
  8
0
 62
    18
420
        0
370
    25
100
AcDbSpline
210
0.0
220
0.0
230
1.0
 70
     8
 71
     3
 72
    11
 73
     7
 74
     0
 42
0.0000000001
 43
0.0000000001
 40
0.0
 40
0.0
 40
0.0
 40
0.0
 40
1.0
 40
1.0
 40
1.0
 40
2.0
 40
2.0
 40
2.0
 40
2.0
 10
163.1053755896841
 20
110.6867310680864
 30
0.0
 10
163.1053755896841
 20
110.4796242868997
 30
0.0
 10
163.2732688084971
 20
110.3117310680862
 30
0.0
 10
163.4803755896848
 20
110.3117310680862
 30
0.0
 10
163.6874823708711
 20
110.3117310680862
 30
0.0
 10
163.855375589684
 20
110.4796242868997
 30
0.0
 10
163.855375589684
 20
110.6867310680864
 30
0.0
  0
SPLINE
  5
158
330
70
100
AcDbEntity
  8
0
 62
    18
420
        0
370
    25
100
AcDbSpline
210
0.0
220
0.0
230
1.0
 70
     8
 71
     3
 72
    11
 73
     7
 74
     0
 42
0.0000000001
 43
0.0000000001
 40
0.0
 40
0.0
 40
0.0
 40
0.0
 40
1.0
 40
1.0
 40
1.0
 40
2.0
 40
2.0
 40
2.0
 40
2.0
 10
167.3553755896838
 20
110.6867310680864
 30
0.0
 10
167.3553755896838
 20
110.4796242868997
 30
0.0
 10
167.523268808498
 20
110.3117310680862
 30
0.0
 10
167.7303755896844
 20
110.3117310680862
 30
0.0
 10
167.9374823708708
 20
110.3117310680862
 30
0.0
 10
168.1053755896837
 20
110.4796242868997
 30
0.0
 10
168.1053755896837
 20
110.6867310680864
 30
0.0
  0
LINE
  5
159
330
70
100
AcDbEntity
  8
0
 62
    18
420
        0
370
    25
100
AcDbLine
 10
150.7303755896844
 20
117.8117310680861
 30
0.0
 11
147.1053755896836
 21
117.8117310680861
 31
0.0
  0
SPLINE
  5
15A
330
70
100
AcDbEntity
  8
0
 62
    18
420
        0
370
    25
100
AcDbSpline
210
0.0
220
0.0
230
1.0
 70
     8
 71
     3
 72
     8
 73
     4
 74
     0
 42
0.0000000001
 43
0.0000000001
 40
0.0
 40
0.0
 40
0.0
 40
0.0
 40
1.0
 40
1.0
 40
1.0
 40
1.0
 10
146.9803755896838
 20
117.9367310680862
 30
0.0
 10
146.9803755896838
 20
117.8676954743574
 30
0.0
 10
147.0363399959548
 20
117.8117310680861
 30
0.0
 10
147.1053755896836
 20
117.8117310680861
 30
0.0
  0
LINE
  5
15B
330
70
100
AcDbEntity
  8
0
 62
    18
420
        0
370
    25
100
AcDbLine
 10
146.9803755896838
 20
117.9367310680862
 30
0.0
 11
150.7303755896844
 21
117.9367310680862
 31
0.0
  0
LINE
  5
15C
330
70
100
AcDbEntity
  8
0
 62
    18
420
        0
370
    25
100
AcDbLine
 10
150.7303755896844
 20
117.8117310680861
 30
0.0
 11
150.7303755896844
 21
117.9367310680862
 31
0.0
  0
LINE
  5
15D
330
70
100
AcDbEntity
  8
0
 62
    18
420
        0
370
    25
100
AcDbLine
 10
150.7303755896844
 20
120.1867310680861
 30
0.0
 11
146.9803755896838
 21
120.1867310680861
 31
0.0
  0
SPLINE
  5
15E
330
70
100
AcDbEntity
  8
0
 62
    18
420
        0
370
    25
100
AcDbSpline
210
0.0
220
0.0
230
1.0
 70
     8
 71
     3
 72
     8
 73
     4
 74
     0
 42
0.0000000001
 43
0.0000000001
 40
0.0
 40
0.0
 40
0.0
 40
0.0
 40
1.0
 40
1.0
 40
1.0
 40
1.0
 10
147.1053755896836
 20
120.3117310680862
 30
0.0
 10
147.0363399959548
 20
120.3117310680862
 30
0.0
 10
146.9803755896838
 20
120.2557666618152
 30
0.0
 10
146.9803755896838
 20
120.1867310680861
 30
0.0
  0
LINE
  5
15F
330
70
100
AcDbEntity
  8
0
 62
    18
420
        0
370
    25
100
AcDbLine
 10
147.1053755896836
 20
120.3117310680862
 30
0.0
 11
150.7303755896844
 21
120.3117310680862
 31
0.0
  0
LINE
  5
160
330
70
100
AcDbEntity
  8
0
 62
    18
420
        0
370
    25
100
AcDbLine
 10
150.7303755896844
 20
120.1867310680861
 30
0.0
 11
150.7303755896844
 21
120.3117310680862
 31
0.0
  0
LINE
  5
161
330
70
100
AcDbEntity
  8
0
 62
    18
420
        0
370
    25
100
AcDbLine
 10
146.9803755896838
 20
120.1867310680861
 30
0.0
 11
146.9803755896838
 21
117.9367310680862
 31
0.0
  0
LINE
  5
162
330
70
100
AcDbEntity
  8
0
 62
    18
420
        0
370
    25
100
AcDbLine
 10
150.7303755896844
 20
120.1867310680861
 30
0.0
 11
150.7303755896844
 21
117.9367310680862
 31
0.0
  0
LINE
  5
163
330
70
100
AcDbEntity
  8
0
 62
    18
420
        0
370
    25
100
AcDbLine
 10
177.9803755896843
 20
117.8117310680861
 30
0.0
 11
150.7303755896844
 21
117.8117310680861
 31
0.0
  0
LINE
  5
164
330
70
100
AcDbEntity
  8
0
 62
    18
420
        0
370
    25
100
AcDbLine
 10
150.7303755896844
 20
117.9367310680862
 30
0.0
 11
178.029453319084
 21
117.9367310680862
 31
0.0
  0
SPLINE
  5
165
330
70
100
AcDbEntity
  8
0
 62
    18
420
        0
370
    25
100
AcDbSpline
210
0.0
220
0.0
230
1.0
 70
     8
 71
     3
 72
     8
 73
     4
 74
     0
 42
0.0000000001
 43
0.0000000001
 40
0.0
 40
0.0
 40
0.0
 40
0.0
 40
1.0
 40
1.0
 40
1.0
 40
1.0
 10
177.980375589683
 20
117.8117310681095
 30
0.0
 10
177.9975940076895
 20
117.8530552713235
 30
0.0
 10
178.0139567428908
 20
117.8947308322076
 30
0.0
 10
178.0294533190955
 20
117.9367310681093
 30
0.0
  0
LINE
  5
166
330
70
100
AcDbEntity
  8
0
 62
    18
420
        0
370
    25
100
AcDbLine
 10
178.029453319084
 20
120.1867310680861
 30
0.0
 11
150.7303755896844
 21
120.1867310680861
 31
0.0
  0
LINE
  5
167
330
70
100
AcDbEntity
  8
0
 62
    18
420
        0
370
    25
100
AcDbLine
 10
150.7303755896844
 20
120.3117310680862
 30
0.0
 11
177.9803755896843
 21
120.3117310680862
 31
0.0
  0
SPLINE
  5
168
330
70
100
AcDbEntity
  8
0
 62
    18
420
        0
370
    25
100
AcDbSpline
210
0.0
220
0.0
230
1.0
 70
     8
 71
     3
 72
     8
 73
     4
 74
     0
 42
0.0000000001
 43
0.0000000001
 40
0.0
 40
0.0
 40
0.0
 40
0.0
 40
1.0
 40
1.0
 40
1.0
 40
1.0
 10
178.0294533191315
 20
120.1867310680996
 30
0.0
 10
178.0139567429267
 20
120.2287313040012
 30
0.0
 10
177.9975940077242
 20
120.2704068648847
 30
0.0
 10
177.9803755897189
 20
120.3117310680984
 30
0.0
  0
SPLINE
  5
169
330
70
100
AcDbEntity
  8
0
 62
    18
420
        0
370
    25
100
AcDbSpline
210
0.0
220
0.0
230
1.0
 70
     8
 71
     3
 72
     8
 73
     4
 74
     0
 42
0.0000000001
 43
0.0000000001
 40
0.0
 40
0.0
 40
0.0
 40
0.0
 40
1.0
 40
1.0
 40
1.0
 40
1.0
 10
178.0294533190968
 20
117.9367310680855
 30
0.0
 10
178.2973496798803
 20
118.6628082480456
 30
0.0
 10
178.2973496798803
 20
119.4606538881267
 30
0.0
 10
178.0294533190968
 20
120.1867310680867
 30
0.0
  0
SPLINE
  5
16A
330
70
100
AcDbEntity
  8
0
 62
    18
420
        0
370
    25
100
AcDbSpline
210
0.0
220
0.0
230
1.0
 70
     8
 71
     3
 72
    11
 73
     7
 74
     0
 42
0.0000000001
 43
0.0000000001
 40
0.0
 40
0.0
 40
0.0
 40
0.0
 40
1.0
 40
1.0
 40
1.0
 40
2.0
 40
2.0
 40
2.0
 40
2.0
 10
171.6053755896835
 20
110.6867310680864
 30
0.0
 10
171.6053755896835
 20
110.4796242868997
 30
0.0
 10
171.7732688084977
 20
110.3117310680862
 30
0.0
 10
171.9803755896841
 20
110.3117310680862
 30
0.0
 10
172.1874823708704
 20
110.3117310680862
 30
0.0
 10
172.3553755896846
 20
110.4796242868997
 30
0.0
 10
172.3553755896846
 20
110.6867310680864
 30
0.0
  0
SPLINE
  5
16B
330
70
100
AcDbEntity
  8
0
 62
    18
420
        0
370
    25
100
AcDbSpline
210
0.0
220
0.0
230
1.0
 70
     8
 71
     3
 72
    11
 73
     7
 74
     0
 42
0.0000000001
 43
0.0000000001
 40
0.0
 40
0.0
 40
0.0
 40
0.0
 40
1.0
 40
1.0
 40
1.0
 40
2.0
 40
2.0
 40
2.0
 40
2.0
 10
175.8553755896845
 20
114.4367310680864
 30
0.0
 10
175.8553755896845
 20
114.2296242868997
 30
0.0
 10
176.0232688084974
 20
114.0617310680861
 30
0.0
 10
176.2303755896837
 20
114.0617310680861
 30
0.0
 10
176.4374823708701
 20
114.0617310680861
 30
0.0
 10
176.6053755896843
 20
114.2296242868997
 30
0.0
 10
176.6053755896843
 20
114.4367310680864
 30
0.0
  0
LINE
  5
16C
330
70
100
AcDbEntity
  8
0
 62
    18
420
        0
370
    25
100
AcDbLine
 10
146.6007034343841
 20
113.0617310680864
 30
0.0
 11
146.8504776493848
 21
113.0511088056864
 31
0.0
  0
LWPOLYLINE
  5
16D
330
70
100
AcDbEntity
  8
0
 62
    18
420
        0
370
    25
100
AcDbPolyline
 90
        7
 70
     0
 43
0.0
 10
146.6007034343841
 20
113.0617310680864
 10
146.6084068758841
 20
113.0615658741862
 10
146.6452202939842
 20
113.0607765197862
 10
146.7241370907848
 20
113.0590848337863
 10
146.7891299627837
 20
113.0576920865864
 10
146.8328855238842
 20
113.0567546729862
 10
146.8504757367841
 20
113.0563778755863
  0
SPLINE
  5
16E
330
70
100
AcDbEntity
  8
0
 62
    18
420
        0
370
    25
100
AcDbSpline
210
0.0
220
0.0
230
1.0
 70
     8
 71
     3
 72
     8
 73
     4
 74
     0
 42
0.0000000001
 43
0.0000000001
 40
0.0
 40
0.0
 40
0.0
 40
0.0
 40
1.0
 40
1.0
 40
1.0
 40
1.0
 10
146.8504757367161
 20
113.0563778755792
 30
0.0
 10
146.8507819903791
 20
113.0581122364044
 30
0.0
 10
146.8509322256937
 20
113.0598705501397
 30
0.0
 10
146.8509246406249
 20
113.0616317262368
 30
0.0
  0
LINE
  5
16F
330
70
100
AcDbEntity
  8
0
 62
    18
420
        0
370
    25
100
AcDbLine
 10
146.850924640684
 20
113.0616317261861
 30
0.0
 11
146.8504776493848
 21
113.0511088056864
 31
0.0
  0
LWPOLYLINE
  5
170
330
70
100
AcDbEntity
  8
0
 62
    18
420
        0
370
    25
100
AcDbPolyline
 90
        4
 70
     0
 43
0.0
 10
146.6007034343841
 20
113.0617310680864
 10
146.6019117016836
 20
117.0382719530863
 10
146.601921836084
 20
121.0148126204863
 10
146.600703434284
 20
125.0617310680862
  0
LINE
  5
171
330
70
100
AcDbEntity
  8
0
 62
    18
420
        0
370
    25
100
AcDbLine
 10
146.600703434284
 20
125.0617310680862
 30
0.0
 11
146.8504776490845
 21
125.0618261760864
 31
0.0
  0
LWPOLYLINE
  5
172
330
70
100
AcDbEntity
  8
0
 62
    18
420
        0
370
    25
100
AcDbPolyline
 90
        7
 70
     0
 43
0.0
 10
146.8504776490845
 20
125.0618261760864
 10
146.8506565365845
 20
124.5618262473862
 10
146.8512887433846
 20
122.5618264708863
 10
146.8518011705842
 20
118.5618264526863
 10
146.8516274746848
 20
117.0382254070861
 10
146.8504776493848
 20
113.0616359545863
 10
146.8504757367841
 20
113.0563778755863
  0
LINE
  5
173
330
70
100
AcDbEntity
  8
0
 62
    18
420
        0
370
    25
100
AcDbLine
 10
146.600703434284
 20
125.0617310680862
 30
0.0
 11
145.4803755896841
 21
125.0617310680862
 31
0.0
  0
LINE
  5
174
330
70
100
AcDbEntity
  8
0
 62
    18
420
        0
370
    25
100
AcDbLine
 10
145.4803755896841
 20
113.0617310680864
 30
0.0
 11
146.6007034343841
 21
113.0617310680864
 31
0.0
  0
LINE
  5
175
330
70
100
AcDbEntity
  8
0
 62
    18
420
        0
370
    25
100
AcDbLine
 10
145.4803755896841
 20
125.0617310680862
 30
0.0
 11
145.4803755896841
 21
113.0617310680864
 31
0.0
  0
LINE
  5
176
330
70
100
AcDbEntity
  8
0
 62
    18
420
        0
370
    25
100
AcDbLine
 10
145.4803755896841
 20
125.3117310680864
 30
0.0
 11
146.6007034343841
 21
125.3117310680864
 31
0.0
  0
LINE
  5
177
330
70
100
AcDbEntity
  8
0
 62
    18
420
        0
370
    25
100
AcDbLine
 10
146.600703434284
 20
125.0617310680862
 30
0.0
 11
146.6007034343841
 21
125.3117310680864
 31
0.0
  0
LINE
  5
178
330
70
100
AcDbEntity
  8
0
 62
    18
420
        0
370
    25
100
AcDbLine
 10
145.4803755896841
 20
125.0617310680862
 30
0.0
 11
145.4803755896841
 21
125.3117310680864
 31
0.0
  0
LINE
  5
179
330
70
100
AcDbEntity
  8
0
 62
    18
420
        0
370
    25
100
AcDbLine
 10
146.6007034343841
 20
112.8117310680863
 30
0.0
 11
146.6007034343841
 21
113.0617310680864
 31
0.0
  0
LINE
  5
17A
330
70
100
AcDbEntity
  8
0
 62
    18
420
        0
370
    25
100
AcDbLine
 10
146.6007034343841
 20
112.8117310680863
 30
0.0
 11
145.4803755896841
 21
112.8117310680863
 31
0.0
  0
LINE
  5
17B
330
70
100
AcDbEntity
  8
0
 62
    18
420
        0
370
    25
100
AcDbLine
 10
145.4803755896841
 20
112.8117310680863
 30
0.0
 11
145.4803755896841
 21
113.0617310680864
 31
0.0
  0
SPLINE
  5
17C
330
70
100
AcDbEntity
  8
0
 62
    18
420
        0
370
    25
100
AcDbSpline
210
0.0
220
0.0
230
1.0
 70
     8
 71
     3
 72
     8
 73
     4
 74
     0
 42
0.0000000001
 43
0.0000000001
 40
0.0
 40
0.0
 40
0.0
 40
0.0
 40
1.0
 40
1.0
 40
1.0
 40
1.0
 10
146.8504776491075
 20
125.0618261760642
 30
0.0
 10
146.8504874910575
 20
125.1997978874333
 30
0.0
 10
146.738675132032
 20
125.3116687446705
 30
0.0
 10
146.6007034343879
 20
125.3117310681509
 30
0.0
  0
SPLINE
  5
17D
330
70
100
AcDbEntity
  8
0
 62
    18
420
        0
370
    25
100
AcDbSpline
210
0.0
220
0.0
230
1.0
 70
     8
 71
     3
 72
     8
 73
     4
 74
     0
 42
0.0000000001
 43
0.0000000001
 40
0.0
 40
0.0
 40
0.0
 40
0.0
 40
1.0
 40
1.0
 40
1.0
 40
1.0
 10
146.6007034343315
 20
112.8117310681633
 30
0.0
 10
146.7346431441444
 20
112.8117310727427
 30
0.0
 10
146.8447866834787
 20
112.9172900522726
 30
0.0
 10
146.8504776493617
 20
113.051108805712
 30
0.0
  0
LINE
  5
17E
330
70
100
AcDbEntity
  8
0
 62
    18
420
        0
370
    25
100
AcDbLine
 10
146.850924640684
 20
125.0618304099861
 30
0.0
 11
146.8504776490845
 21
125.0618261760864
 31
0.0
  0
SPLINE
  5
17F
330
70
100
AcDbEntity
  8
0
 62
    18
420
        0
370
    25
100
AcDbSpline
210
0.0
220
0.0
230
1.0
 70
     8
 71
     3
 72
     8
 73
     4
 74
     0
 42
0.0000000001
 43
0.0000000001
 40
0.0
 40
0.0
 40
0.0
 40
0.0
 40
1.0
 40
1.0
 40
1.0
 40
1.0
 10
146.9805232865088
 20
120.1461271750759
 30
0.0
 10
146.9698714243041
 20
121.7853913164806
 30
0.0
 10
146.9266633555377
 20
123.4242822323159
 30
0.0
 10
146.8509246406403
 20
125.0618304100891
 30
0.0
  0
SPLINE
  5
180
330
70
100
AcDbEntity
  8
0
 62
    18
420
        0
370
    25
100
AcDbSpline
210
0.0
220
0.0
230
1.0
 70
     8
 71
     3
 72
     8
 73
     4
 74
     0
 42
0.0000000001
 43
0.0000000001
 40
0.0
 40
0.0
 40
0.0
 40
0.0
 40
1.0
 40
1.0
 40
1.0
 40
1.0
 10
146.8509246406339
 20
113.0616317262651
 30
0.0
 10
146.9266633923828
 20
114.6991799034053
 30
0.0
 10
146.9698714588917
 20
116.3380708207592
 30
0.0
 10
146.9805232796657
 20
117.9773349635031
 30
0.0
  0
LINE
  5
181
330
70
100
AcDbEntity
  8
0
 62
    18
420
        0
370
    25
100
AcDbLine
 10
146.9815065554837
 20
120.2492310680863
 30
0.0
 11
146.9814599644847
 21
120.1920712728862
 31
0.0
  0
LWPOLYLINE
  5
182
330
70
100
AcDbEntity
  8
0
 62
    18
420
        0
370
    25
100
AcDbPolyline
 90
        4
 70
     0
 43
0.0
 10
146.8504757367841
 20
125.0723512165862
 10
146.850639410384
 20
125.0685065252863
 10
146.8508289856844
 20
125.0640657944864
 10
146.850924640684
 20
125.0618304099861
  0
LINE
  5
183
330
70
100
AcDbEntity
  8
0
 62
    18
420
        0
370
    25
100
AcDbLine
 10
146.9815065797836
 20
117.8742310680863
 30
0.0
 11
146.9814648995842
 21
117.9250978377863
 31
0.0
  0
LWPOLYLINE
  5
184
330
70
100
AcDbEntity
  8
0
 62
    18
420
        0
370
    25
100
AcDbPolyline
 90
        6
 70
     0
 43
0.0
 10
146.981828087784
 20
117.4992310680864
 10
146.9818103403843
 20
117.5203702577863
 10
146.981756208984
 20
117.5814045381864
 10
146.9816751557845
 20
117.6754527661862
 10
146.9815773322837
 20
117.7919117673864
 10
146.9815065797836
 20
117.8742310680863
  0
LWPOLYLINE
  5
185
330
70
100
AcDbEntity
  8
0
 62
    18
420
        0
370
    25
100
AcDbPolyline
 90
        3
 70
     0
 43
0.0
 10
146.981828087784
 20
117.4992310680864
 10
146.9315270397836
 20
115.0068104511864
 10
146.851811650184
 20
113.0496003944863
  0
LINE
  5
186
330
70
100
AcDbEntity
  8
0
 62
    18
420
        0
370
    25
100
AcDbLine
 10
146.8518116501288
 20
113.0496003944225
 30
0.0
 11
146.8509283594582
 21
113.0506113788705
 31
0.0
  0
SPLINE
  5
187
330
70
100
AcDbEntity
  8
0
 62
    18
420
        0
370
    25
100
AcDbSpline
210
0.0
220
0.0
230
1.0
 70
     8
 71
     3
 72
     8
 73
     4
 74
     0
 42
0.0000000001
 43
0.0000000001
 40
0.0
 40
0.0
 40
0.0
 40
0.0
 40
1.0
 40
1.0
 40
1.0
 40
1.0
 10
146.8504757367032
 20
125.0723512165788
 30
0.0
 10
146.8447865780783
 20
125.2061703678643
 30
0.0
 10
146.7346434648412
 20
125.311730679571
 30
0.0
 10
146.6007034343186
 20
125.3117310681245
 30
0.0
  0
SPLINE
  5
188
330
70
100
AcDbEntity
  8
0
 62
    18
420
        0
370
    25
100
AcDbSpline
210
0.0
220
0.0
230
1.0
 70
     8
 71
     3
 72
     8
 73
     4
 74
     0
 42
0.0000000001
 43
0.0000000001
 40
0.0
 40
0.0
 40
0.0
 40
0.0
 40
1.0
 40
1.0
 40
1.0
 40
1.0
 10
146.6021061300845
 20
112.8117310680863
 30
0.0
 10
146.7354616066549
 20
112.8117310680863
 30
0.0
 10
146.8453408830835
 20
112.9164019998842
 30
0.0
 10
146.8518116501596
 20
113.0496003944116
 30
0.0
  0
LINE
  5
189
330
70
100
AcDbEntity
  8
0
 62
     8
420
  8421504
370
    25
100
AcDbLine
 10
151.1053755896837
 20
111.8117310680862
 30
0.0
 11
150.3553755896839
 21
111.8117310680862
 31
0.0
  0
LINE
  5
18A
330
70
100
AcDbEntity
  8
0
 62
     8
420
  8421504
370
    25
100
AcDbLine
 10
155.3553755896847
 20
111.8117310680862
 30
0.0
 11
154.6053755896835
 21
111.8117310680862
 31
0.0
  0
LINE
  5
18B
330
70
100
AcDbEntity
  8
0
 62
     8
420
  8421504
370
    25
100
AcDbLine
 10
159.6053755896843
 20
111.8117310680862
 30
0.0
 11
158.8553755896845
 21
111.8117310680862
 31
0.0
  0
LINE
  5
18C
330
70
100
AcDbEntity
  8
0
 62
     8
420
  8421504
370
    25
100
AcDbLine
 10
163.855375589684
 20
111.8117310680862
 30
0.0
 11
163.1053755896841
 21
111.8117310680862
 31
0.0
  0
LINE
  5
18D
330
70
100
AcDbEntity
  8
0
 62
     8
420
  8421504
370
    25
100
AcDbLine
 10
168.1053755896837
 20
111.8117310680862
 30
0.0
 11
167.3553755896838
 21
111.8117310680862
 31
0.0
  0
LINE
  5
18E
330
70
100
AcDbEntity
  8
0
 62
     8
420
  8421504
370
    25
100
AcDbLine
 10
172.3553755896846
 20
111.8117310680862
 30
0.0
 11
171.6053755896848
 21
111.8117310680862
 31
0.0
  0
LINE
  5
18F
330
70
100
AcDbEntity
  8
0
 62
     8
420
  8421504
370
    25
100
AcDbLine
 10
175.8553755896845
 20
115.5617310680862
 30
0.0
 11
176.6053755896843
 21
115.5617310680862
 31
0.0
  0
LWPOLYLINE
  5
190
330
70
100
AcDbEntity
  8
0
 62
     8
420
  8421504
370
    25
100
AcDbPolyline
 90
        5
 70
     0
 43
0.0
 10
146.851738372584
 20
125.0737774448862
 10
146.8518011705842
 20
125.0738494421862
 10
146.8516274746848
 20
125.0736487248864
 10
146.8504776493848
 20
125.0723533296864
 10
146.8504757367841
 20
125.0723512165862
  0
LWPOLYLINE
  5
191
330
70
100
AcDbEntity
  8
0
 62
    18
420
        0
370
    25
100
AcDbPolyline
 90
        3
 70
     0
 43
0.0
 10
91.23653055748373
 20
58.31902029568622
 10
93.11865338708402
 20
58.34942169128614
 10
95.68047964598408
 20
58.44818006848631
  0
LWPOLYLINE
  5
192
330
70
100
AcDbEntity
  8
0
 62
    18
420
        0
370
    25
100
AcDbPolyline
 90
        3
 70
     0
 43
0.0
 10
83.65642720488438
 20
58.44818006848631
 10
86.2182385625843
 20
58.34942215698639
 10
88.10035021628419
 20
58.31902029568622
  0
SPLINE
  5
193
330
70
100
AcDbEntity
  8
0
 62
    18
420
        0
370
    25
100
AcDbSpline
210
0.0
220
0.0
230
1.0
 70
     8
 71
     3
 72
     8
 73
     4
 74
     0
 42
0.0000000001
 43
0.0000000001
 40
0.0
 40
0.0
 40
0.0
 40
0.0
 40
1.0
 40
1.0
 40
1.0
 40
1.0
 10
95.68038331752337
 20
58.44757343036477
 30
0.0
 10
95.81366728844429
 20
58.4539411372666
 30
0.0
 10
95.91845709178818
 20
58.56386017870207
 30
0.0
 10
95.91845305277013
 20
58.69729617301967
 30
0.0
  0
SPLINE
  5
194
330
70
100
AcDbEntity
  8
0
 62
    18
420
        0
370
    25
100
AcDbSpline
210
0.0
220
0.0
230
1.0
 70
     8
 71
     3
 72
     8
 73
     4
 74
     0
 42
0.0000000001
 43
0.0000000001
 40
0.0
 40
0.0
 40
0.0
 40
0.0
 40
1.0
 40
1.0
 40
1.0
 40
1.0
 10
83.4184530529991
 20
58.69729617301967
 30
0.0
 10
83.41844901498468
 20
58.56389335568014
 30
0.0
 10
83.52318846007111
 20
58.45398938709865
 30
0.0
 10
83.65643709943823
 20
58.44757753892565
 30
0.0
  0
LINE
  5
195
330
70
100
AcDbEntity
  8
0
 62
    18
420
        0
370
    25
100
AcDbLine
 10
113.2636617275845
 20
54.94402020818603
 30
0.0
 11
112.8559547813835
 21
54.94402020818603
 31
0.0
  0
LINE
  5
196
330
70
100
AcDbEntity
  8
0
 62
    18
420
        0
370
    25
100
AcDbLine
 10
112.8559547813835
 20
54.19402008518658
 30
0.0
 11
113.2934528740844
 21
54.19402008518658
 31
0.0
  0
LINE
  5
197
330
70
100
AcDbEntity
  8
0
 62
    18
420
        0
370
    25
100
AcDbLine
 10
16.48095132438422
 20
54.94402020818603
 30
0.0
 11
16.07324437818425
 21
54.94402020818603
 31
0.0
  0
LINE
  5
198
330
70
100
AcDbEntity
  8
0
 62
    18
420
        0
370
    25
100
AcDbLine
 10
16.04345323168432
 20
54.19402008518658
 30
0.0
 11
16.48095132438422
 21
54.19402008518658
 31
0.0
  0
LINE
  5
199
330
70
100
AcDbEntity
  8
0
 62
    18
420
        0
370
    25
100
AcDbLine
 10
112.8559547813835
 20
54.94402020818603
 30
0.0
 11
16.48095132438422
 21
54.94402020818603
 31
0.0
  0
LINE
  5
19A
330
70
100
AcDbEntity
  8
0
 62
    18
420
        0
370
    25
100
AcDbLine
 10
16.48095132438422
 20
54.19402008518658
 30
0.0
 11
112.8559547813835
 21
54.19402008518658
 31
0.0
  0
LINE
  5
19B
330
70
100
AcDbEntity
  8
0
 62
    18
420
        0
370
    25
100
AcDbLine
 10
113.2934528740844
 20
50.69402044278639
 30
0.0
 11
112.8559547813835
 21
50.69402044278639
 31
0.0
  0
LINE
  5
19C
330
70
100
AcDbEntity
  8
0
 62
    18
420
        0
370
    25
100
AcDbLine
 10
112.8559547813835
 20
49.94401985428627
 30
0.0
 11
113.2934528740844
 21
49.94401985428627
 31
0.0
  0
LINE
  5
19D
330
70
100
AcDbEntity
  8
0
 62
    18
420
        0
370
    25
100
AcDbLine
 10
16.48095132438422
 20
50.69402044278639
 30
0.0
 11
16.04345323168432
 21
50.69402044278639
 31
0.0
  0
LINE
  5
19E
330
70
100
AcDbEntity
  8
0
 62
    18
420
        0
370
    25
100
AcDbLine
 10
16.04345323168432
 20
49.94401985428627
 30
0.0
 11
16.48095132438422
 21
49.94401985428627
 31
0.0
  0
LINE
  5
19F
330
70
100
AcDbEntity
  8
0
 62
    18
420
        0
370
    25
100
AcDbLine
 10
112.8559547813835
 20
50.69402044278639
 30
0.0
 11
16.48095132438422
 21
50.69402044278639
 31
0.0
  0
LINE
  5
1A0
330
70
100
AcDbEntity
  8
0
 62
    18
420
        0
370
    25
100
AcDbLine
 10
16.48095132438422
 20
49.94401985428627
 30
0.0
 11
112.8559547813835
 21
49.94401985428627
 31
0.0
  0
LINE
  5
1A1
330
70
100
AcDbEntity
  8
0
 62
    18
420
        0
370
    25
100
AcDbLine
 10
113.2934528740844
 20
46.44402021188673
 30
0.0
 11
112.8559547813835
 21
46.44402021188673
 31
0.0
  0
LINE
  5
1A2
330
70
100
AcDbEntity
  8
0
 62
    18
420
        0
370
    25
100
AcDbLine
 10
112.8559547813835
 20
45.69402055458623
 30
0.0
 11
113.2934528740844
 21
45.69402055458623
 31
0.0
  0
LINE
  5
1A3
330
70
100
AcDbEntity
  8
0
 62
    18
420
        0
370
    25
100
AcDbLine
 10
16.48095132438422
 20
46.44402021188673
 30
0.0
 11
16.04345323168432
 21
46.44402021188673
 31
0.0
  0
LINE
  5
1A4
330
70
100
AcDbEntity
  8
0
 62
    18
420
        0
370
    25
100
AcDbLine
 10
16.04345323168432
 20
45.69402055458623
 30
0.0
 11
16.48095132438422
 21
45.69402055458623
 31
0.0
  0
LINE
  5
1A5
330
70
100
AcDbEntity
  8
0
 62
    18
420
        0
370
    25
100
AcDbLine
 10
112.8559547813835
 20
46.44402021188673
 30
0.0
 11
16.48095132438422
 21
46.44402021188673
 31
0.0
  0
LINE
  5
1A6
330
70
100
AcDbEntity
  8
0
 62
    18
420
        0
370
    25
100
AcDbLine
 10
16.48095132438422
 20
45.69402055458623
 30
0.0
 11
112.8559547813835
 21
45.69402055458623
 31
0.0
  0
LINE
  5
1A7
330
70
100
AcDbEntity
  8
0
 62
    18
420
        0
370
    25
100
AcDbLine
 10
113.2934528740844
 20
42.19401998088631
 30
0.0
 11
112.8559547813835
 21
42.19401998088631
 31
0.0
  0
LINE
  5
1A8
330
70
100
AcDbEntity
  8
0
 62
    18
420
        0
370
    25
100
AcDbLine
 10
112.8559547813835
 20
41.44402032358646
 30
0.0
 11
113.2934528740844
 21
41.44402032358646
 31
0.0
  0
LINE
  5
1A9
330
70
100
AcDbEntity
  8
0
 62
    18
420
        0
370
    25
100
AcDbLine
 10
16.48095132438422
 20
42.19401998088631
 30
0.0
 11
16.04345323168432
 21
42.19401998088631
 31
0.0
  0
LINE
  5
1AA
330
70
100
AcDbEntity
  8
0
 62
    18
420
        0
370
    25
100
AcDbLine
 10
16.04345323168432
 20
41.44402032358646
 30
0.0
 11
16.48095132438422
 21
41.44402032358646
 31
0.0
  0
LINE
  5
1AB
330
70
100
AcDbEntity
  8
0
 62
    18
420
        0
370
    25
100
AcDbLine
 10
112.8559547813835
 20
42.19401998088631
 30
0.0
 11
16.48095132438422
 21
42.19401998088631
 31
0.0
  0
LINE
  5
1AC
330
70
100
AcDbEntity
  8
0
 62
    18
420
        0
370
    25
100
AcDbLine
 10
16.48095132438422
 20
41.44402032358646
 30
0.0
 11
112.8559547813835
 21
41.44402032358646
 31
0.0
  0
LINE
  5
1AD
330
70
100
AcDbEntity
  8
0
 62
    18
420
        0
370
    25
100
AcDbLine
 10
113.2934528740844
 20
37.94402068128639
 30
0.0
 11
112.8559547813835
 21
37.94402068128639
 31
0.0
  0
LINE
  5
1AE
330
70
100
AcDbEntity
  8
0
 62
    18
420
        0
370
    25
100
AcDbLine
 10
112.8559547813835
 20
37.19402102398654
 30
0.0
 11
113.2934528740844
 21
37.19402102398654
 31
0.0
  0
LINE
  5
1AF
330
70
100
AcDbEntity
  8
0
 62
    18
420
        0
370
    25
100
AcDbLine
 10
16.48095132438422
 20
37.94402068128639
 30
0.0
 11
16.04345323168432
 21
37.94402068128639
 31
0.0
  0
LINE
  5
1B0
330
70
100
AcDbEntity
  8
0
 62
    18
420
        0
370
    25
100
AcDbLine
 10
16.04345323168432
 20
37.19402102398654
 30
0.0
 11
16.48095132438422
 21
37.19402102398654
 31
0.0
  0
LINE
  5
1B1
330
70
100
AcDbEntity
  8
0
 62
    18
420
        0
370
    25
100
AcDbLine
 10
112.8559547813835
 20
37.94402068128639
 30
0.0
 11
16.48095132438422
 21
37.94402068128639
 31
0.0
  0
LINE
  5
1B2
330
70
100
AcDbEntity
  8
0
 62
    18
420
        0
370
    25
100
AcDbLine
 10
16.48095132438422
 20
37.19402102398654
 30
0.0
 11
112.8559547813835
 21
37.19402102398654
 31
0.0
  0
LINE
  5
1B3
330
70
100
AcDbEntity
  8
0
 62
    18
420
        0
370
    25
100
AcDbLine
 10
113.2934528740844
 20
27.06902099418656
 30
0.0
 11
114.6684537979847
 21
27.06902099418656
 31
0.0
  0
LINE
  5
1B4
330
70
100
AcDbEntity
  8
0
 62
    18
420
        0
370
    25
100
AcDbLine
 10
14.66845230788415
 20
27.06902099418656
 30
0.0
 11
16.04345323168432
 21
27.06902099418656
 31
0.0
  0
LINE
  5
1B5
330
70
100
AcDbEntity
  8
0
 62
    18
420
        0
370
    25
100
AcDbLine
 10
113.2934528740844
 20
33.69401951898624
 30
0.0
 11
112.8559547813835
 21
33.69401951898624
 31
0.0
  0
LINE
  5
1B6
330
70
100
AcDbEntity
  8
0
 62
    18
420
        0
370
    25
100
AcDbLine
 10
112.8559547813835
 20
32.94401986168639
 30
0.0
 11
113.2934528740844
 21
32.94401986168639
 31
0.0
  0
LINE
  5
1B7
330
70
100
AcDbEntity
  8
0
 62
    18
420
        0
370
    25
100
AcDbLine
 10
16.48095132438422
 20
33.69401951898624
 30
0.0
 11
16.04345323168432
 21
33.69401951898624
 31
0.0
  0
LINE
  5
1B8
330
70
100
AcDbEntity
  8
0
 62
    18
420
        0
370
    25
100
AcDbLine
 10
16.04345323168432
 20
32.94401986168639
 30
0.0
 11
16.48095132438422
 21
32.94401986168639
 31
0.0
  0
LINE
  5
1B9
330
70
100
AcDbEntity
  8
0
 62
    18
420
        0
370
    25
100
AcDbLine
 10
112.8559547813835
 20
33.69401951898624
 30
0.0
 11
16.48095132438422
 21
33.69401951898624
 31
0.0
  0
LINE
  5
1BA
330
70
100
AcDbEntity
  8
0
 62
    18
420
        0
370
    25
100
AcDbLine
 10
16.48095132438422
 20
32.94401986168639
 30
0.0
 11
112.8559547813835
 21
32.94401986168639
 31
0.0
  0
LINE
  5
1BB
330
70
100
AcDbEntity
  8
0
 62
    18
420
        0
370
    25
100
AcDbLine
 10
112.8559547813835
 20
28.69402056208646
 30
0.0
 11
113.2934528740844
 21
28.69402056208646
 31
0.0
  0
LINE
  5
1BC
330
70
100
AcDbEntity
  8
0
 62
    18
420
        0
370
    25
100
AcDbLine
 10
113.2934528740844
 20
29.4440202192862
 30
0.0
 11
112.8559547813835
 21
29.4440202192862
 31
0.0
  0
LINE
  5
1BD
330
70
100
AcDbEntity
  8
0
 62
    18
420
        0
370
    25
100
AcDbLine
 10
16.04345323168432
 20
28.69402056208646
 30
0.0
 11
16.48095132438422
 21
28.69402056208646
 31
0.0
  0
LINE
  5
1BE
330
70
100
AcDbEntity
  8
0
 62
    18
420
        0
370
    25
100
AcDbLine
 10
16.48095132438422
 20
29.4440202192862
 30
0.0
 11
16.04345323168432
 21
29.4440202192862
 31
0.0
  0
LINE
  5
1BF
330
70
100
AcDbEntity
  8
0
 62
    18
420
        0
370
    25
100
AcDbLine
 10
16.48095132438422
 20
28.69402056208646
 30
0.0
 11
112.8559547813835
 21
28.69402056208646
 31
0.0
  0
LINE
  5
1C0
330
70
100
AcDbEntity
  8
0
 62
    18
420
        0
370
    25
100
AcDbLine
 10
112.8559547813835
 20
29.4440202192862
 30
0.0
 11
16.48095132438422
 21
29.4440202192862
 31
0.0
  0
LWPOLYLINE
  5
1C1
330
70
100
AcDbEntity
  8
0
 62
    18
420
        0
370
    25
100
AcDbPolyline
 90
        5
 70
     0
 43
0.0
 10
38.44356232908432
 20
58.31781504788615
 10
39.00597126808419
 20
58.31764694408652
 10
39.67007131898409
 20
58.31756603548623
 10
40.33505798898429
 20
58.3176472933864
 10
40.8933430316842
 20
58.31781504788615
  0
LWPOLYLINE
  5
1C2
330
70
100
AcDbEntity
  8
0
 62
    18
420
        0
370
    25
100
AcDbPolyline
 90
        3
 70
     0
 43
0.0
 10
33.65642645978404
 20
58.44818006848631
 10
36.2182527186841
 20
58.34942169128614
 10
38.10037554828407
 20
58.31902029568622
  0
LWPOLYLINE
  5
1C3
330
70
100
AcDbEntity
  8
0
 62
    18
420
        0
370
    25
100
AcDbPolyline
 90
        3
 70
     0
 43
0.0
 10
41.23655588948425
 20
58.31902029568622
 10
43.11866754318413
 20
58.34942215698639
 10
45.68047890088407
 20
58.44818006848631
  0
SPLINE
  5
1C4
330
70
100
AcDbEntity
  8
0
 62
    18
420
        0
370
    25
100
AcDbSpline
210
0.0
220
0.0
230
1.0
 70
     8
 71
     3
 72
     8
 73
     4
 74
     0
 42
0.0000000001
 43
0.0000000001
 40
0.0
 40
0.0
 40
0.0
 40
0.0
 40
1.0
 40
1.0
 40
1.0
 40
1.0
 10
45.6803833175232
 20
58.44757343036477
 30
0.0
 10
45.81366728844445
 20
58.4539411372666
 30
0.0
 10
45.91845709178801
 20
58.56386017870143
 30
0.0
 10
45.91845305276965
 20
58.69729617301903
 30
0.0
  0
SPLINE
  5
1C5
330
70
100
AcDbEntity
  8
0
 62
    18
420
        0
370
    25
100
AcDbSpline
210
0.0
220
0.0
230
1.0
 70
     8
 71
     3
 72
     8
 73
     4
 74
     0
 42
0.0000000001
 43
0.0000000001
 40
0.0
 40
0.0
 40
0.0
 40
0.0
 40
1.0
 40
1.0
 40
1.0
 40
1.0
 10
33.41845305299862
 20
58.69729617301967
 30
0.0
 10
33.41844901498453
 20
58.56389335568014
 30
0.0
 10
33.52318846007096
 20
58.45398938709865
 30
0.0
 10
33.65643709943871
 20
58.44757753892565
 30
0.0
  0
LWPOLYLINE
  5
1C6
330
70
100
AcDbEntity
  8
0
 62
    18
420
        0
370
    25
100
AcDbPolyline
 90
        3
 70
     0
 43
0.0
 10
83.66835372178426
 20
58.44847122318597
 10
83.66833882058413
 20
58.44847192168629
 10
83.65783163928375
 20
58.44891825798594
  0
LWPOLYLINE
  5
1C7
330
70
100
AcDbEntity
  8
0
 62
    18
420
        0
370
    25
100
AcDbPolyline
 90
        9
 70
     0
 43
0.0
 10
83.65783163928375
 20
58.44891825798594
 10
83.65803466758377
 20
58.45373377778619
 10
83.65864002728425
 20
58.46795844958636
 10
83.65962164128461
 20
58.49104581978598
 10
83.66094411938425
 20
58.52210903648627
 10
83.66255344478453
 20
58.55995495918615
 10
83.66438815018428
 20
58.603129909586
 10
83.66638118058398
 20
58.64997555148637
 10
83.66845244198435
 20
58.69869245328647
  0
LWPOLYLINE
  5
1C8
330
70
100
AcDbEntity
  8
0
 62
    18
420
        0
370
    25
100
AcDbPolyline
 90
        7
 70
     0
 43
0.0
 10
83.66309919978396
 20
58.44892012068616
 10
83.66347731678407
 20
58.46651035938617
 10
83.66441422728419
 20
58.51026598938656
 10
83.66580748588388
 20
58.57525880088612
 10
83.6674987675839
 20
58.65417558348593
 10
83.66828852918466
 20
58.69098901858591
 10
83.66845244198435
 20
58.69869245328647
  0
SPLINE
  5
1C9
330
70
100
AcDbEntity
  8
0
 62
    18
420
        0
370
    25
100
AcDbSpline
210
0.0
220
0.0
230
1.0
 70
     8
 71
     3
 72
     8
 73
     4
 74
     0
 42
0.0000000001
 43
0.0000000001
 40
0.0
 40
0.0
 40
0.0
 40
0.0
 40
1.0
 40
1.0
 40
1.0
 40
1.0
 10
83.66309919974801
 20
58.44892012062842
 30
0.0
 10
83.66483402823959
 20
58.44861572053931
 30
0.0
 10
83.66659239932006
 20
58.44846550167027
 30
0.0
 10
83.66835372171431
 20
58.44847122314746
 30
0.0
  0
LWPOLYLINE
  5
1CA
330
70
100
AcDbEntity
  8
0
 62
    18
420
        0
370
    25
100
AcDbPolyline
 90
        6
 70
     0
 43
0.0
 10
89.6684534253845
 20
58.4475842548862
 10
89.16845241218373
 20
58.44759612918618
 10
87.16845394698401
 20
58.44786225458615
 10
85.41840569698457
 20
58.4483237249861
 10
83.66835744708398
 20
58.44891825798594
 10
83.66309919978396
 20
58.44892012068616
  0
LWPOLYLINE
  5
1CB
330
70
100
AcDbEntity
  8
0
 62
    18
420
        0
370
    25
100
AcDbPolyline
 90
        4
 70
     0
 43
0.0
 10
83.66845244198435
 20
58.69869245328647
 10
86.51573279528468
 20
58.69774296988662
 10
88.09209311038463
 20
58.69741072058604
 10
89.6684534253845
 20
58.69728976508621
  0
LINE
  5
1CC
330
70
100
AcDbEntity
  8
0
 62
    18
420
        0
370
    25
100
AcDbLine
 10
89.6684534253845
 20
58.4475842548862
 30
0.0
 11
89.6684534253845
 21
58.69728976508621
 31
0.0
  0
LINE
  5
1CD
330
70
100
AcDbEntity
  8
0
 62
    18
420
        0
370
    25
100
AcDbLine
 10
95.66845254628397
 20
59.81902030868614
 30
0.0
 11
83.66845244198435
 21
59.81902030868614
 31
0.0
  0
LINE
  5
1CE
330
70
100
AcDbEntity
  8
0
 62
    18
420
        0
370
    25
100
AcDbLine
 10
95.66845254628397
 20
58.69869245328647
 30
0.0
 11
95.66845254628397
 21
59.81902030868614
 31
0.0
  0
LWPOLYLINE
  5
1CF
330
70
100
AcDbEntity
  8
0
 62
    18
420
        0
370
    25
100
AcDbPolyline
 90
        4
 70
     0
 43
0.0
 10
89.6684534253845
 20
58.69728976508621
 10
92.51574122928422
 20
58.69766462238613
 10
94.09209781908385
 20
58.69812585988592
 10
95.66845254628397
 20
58.69869245328647
  0
LINE
  5
1D0
330
70
100
AcDbEntity
  8
0
 62
    18
420
        0
370
    25
100
AcDbLine
 10
83.66845244198435
 20
59.81902030868614
 30
0.0
 11
83.66845244198435
 21
58.69869245328647
 31
0.0
  0
LINE
  5
1D1
330
70
100
AcDbEntity
  8
0
 62
    18
420
        0
370
    25
100
AcDbLine
 10
95.91845305288435
 20
59.81902030868614
 30
0.0
 11
95.91845305288435
 21
58.69869245328647
 31
0.0
  0
LINE
  5
1D2
330
70
100
AcDbEntity
  8
0
 62
    18
420
        0
370
    25
100
AcDbLine
 10
95.66845254628397
 20
58.69869245328647
 30
0.0
 11
95.91845305288435
 21
58.69869245328647
 31
0.0
  0
LINE
  5
1D3
330
70
100
AcDbEntity
  8
0
 62
    18
420
        0
370
    25
100
AcDbLine
 10
95.66845254628397
 20
59.81902030868614
 30
0.0
 11
95.91845305288435
 21
59.81902030868614
 31
0.0
  0
SPLINE
  5
1D4
330
70
100
AcDbEntity
  8
0
 62
    18
420
        0
370
    25
100
AcDbSpline
210
0.0
220
0.0
230
1.0
 70
     8
 71
     3
 72
     8
 73
     4
 74
     0
 42
0.0000000001
 43
0.0000000001
 40
0.0
 40
0.0
 40
0.0
 40
0.0
 40
1.0
 40
1.0
 40
1.0
 40
1.0
 10
95.66854754116832
 20
58.44891825799749
 30
0.0
 10
95.80651959737778
 20
58.44890780705335
 30
0.0
 10
95.9183909853777
 20
58.56072041060723
 30
0.0
 10
95.91845305290489
 20
58.69869245325182
 30
0.0
  0
LWPOLYLINE
  5
1D5
330
70
100
AcDbEntity
  8
0
 62
    18
420
        0
370
    25
100
AcDbPolyline
 90
        9
 70
     0
 43
0.0
 10
95.66854754118436
 20
58.44891825798594
 10
95.66854567848414
 20
58.45547907628613
 10
95.66854009058429
 20
58.47088908888636
 10
95.66853077738411
 20
58.494587523086
 10
95.66851960148433
 20
58.52571209068646
 10
95.6685047002842
 20
58.56313041988612
 10
95.66848793648395
 20
58.60548114978627
 10
95.66847117268435
 20
58.65122317448633
 10
95.66845254628397
 20
58.69869245328647
  0
LWPOLYLINE
  5
1D6
330
70
100
AcDbEntity
  8
0
 62
    18
420
        0
370
    25
100
AcDbPolyline
 90
        5
 70
     0
 43
0.0
 10
95.66854754118436
 20
58.44891825798594
 10
95.16854839048425
 20
58.44873921128616
 10
93.16854806268377
 20
58.44810509698628
 10
91.41850167538391
 20
58.44772453528672
 10
89.6684534253845
 20
58.4475842548862
  0
LINE
  5
1D7
330
70
100
AcDbEntity
  8
0
 62
    18
420
        0
370
    25
100
AcDbLine
 10
83.4184537979841
 20
58.69869245328647
 30
0.0
 11
83.66845244198435
 21
58.69869245328647
 31
0.0
  0
LINE
  5
1D8
330
70
100
AcDbEntity
  8
0
 62
    18
420
        0
370
    25
100
AcDbLine
 10
83.4184537979841
 20
58.69869245328647
 30
0.0
 11
83.4184537979841
 21
59.81902030868614
 31
0.0
  0
LINE
  5
1D9
330
70
100
AcDbEntity
  8
0
 62
    18
420
        0
370
    25
100
AcDbLine
 10
83.4184537979841
 20
59.81902030868614
 30
0.0
 11
83.66845244198435
 21
59.81902030868614
 31
0.0
  0
SPLINE
  5
1DA
330
70
100
AcDbEntity
  8
0
 62
    18
420
        0
370
    25
100
AcDbSpline
210
0.0
220
0.0
230
1.0
 70
     8
 71
     3
 72
     8
 73
     4
 74
     0
 42
0.0000000001
 43
0.0000000001
 40
0.0
 40
0.0
 40
0.0
 40
0.0
 40
1.0
 40
1.0
 40
1.0
 40
1.0
 10
83.41845379792891
 20
58.6986924532377
 30
0.0
 10
83.41845332969972
 20
58.56475251737467
 30
0.0
 10
83.5240126369924
 20
58.45460869252606
 30
0.0
 10
83.65783163928247
 20
58.44891825798337
 30
0.0
  0
SPLINE
  5
1DB
330
70
100
AcDbEntity
  8
0
 62
    18
420
        0
370
    25
100
AcDbSpline
210
0.0
220
0.0
230
1.0
 70
     8
 71
     3
 72
     8
 73
     4
 74
     0
 42
0.0000000001
 43
0.0000000001
 40
0.0
 40
0.0
 40
0.0
 40
0.0
 40
1.0
 40
1.0
 40
1.0
 40
1.0
 10
90.80524997429781
 20
58.31769094909225
 30
0.0
 10
92.42703809724423
 20
58.33018538672341
 30
0.0
 10
94.04843737130219
 20
58.37378683097849
 30
0.0
 10
95.66855312897768
 20
58.44847122313655
 30
0.0
  0
LWPOLYLINE
  5
1DC
330
70
100
AcDbEntity
  8
0
 62
    18
420
        0
370
    25
100
AcDbPolyline
 90
        4
 70
     0
 43
0.0
 10
95.67907334888447
 20
58.44892012068616
 10
95.67522884928413
 20
58.44875644068655
 10
95.67078830328425
 20
58.44856691658602
 10
95.66855312908419
 20
58.44847122318597
  0
SPLINE
  5
1DD
330
70
100
AcDbEntity
  8
0
 62
    18
420
        0
370
    25
100
AcDbSpline
210
0.0
220
0.0
230
1.0
 70
     8
 71
     3
 72
     8
 73
     4
 74
     0
 42
0.0000000001
 43
0.0000000001
 40
0.0
 40
0.0
 40
0.0
 40
0.0
 40
1.0
 40
1.0
 40
1.0
 40
1.0
 10
83.66835372188372
 20
58.44847122320587
 30
0.0
 10
85.28850606341116
 20
58.3748108292864
 30
0.0
 10
86.90988539354064
 20
58.33120990464776
 30
0.0
 10
88.53165501381074
 20
58.31769094916284
 30
0.0
  0
LWPOLYLINE
  5
1DE
330
70
100
AcDbEntity
  8
0
 62
    18
420
        0
370
    25
100
AcDbPolyline
 90
        3
 70
     0
 43
0.0
 10
88.53165501378377
 20
58.31769094908583
 10
88.49365705278442
 20
58.31769013418645
 10
88.44390207558403
 20
58.31769607138618
  0
LINE
  5
1DF
330
70
100
AcDbEntity
  8
0
 62
    18
420
        0
370
    25
100
AcDbLine
 10
89.6684534253845
 20
58.44700031558608
 30
0.0
 11
89.6684534253845
 21
58.4475842548862
 31
0.0
  0
LWPOLYLINE
  5
1E0
330
70
100
AcDbEntity
  8
0
 62
    18
420
        0
370
    25
100
AcDbPolyline
 90
        4
 70
     0
 43
0.0
 10
89.6684534253845
 20
58.44700031558608
 10
88.10595305288435
 20
58.4471254620865
 10
86.54345268038424
 20
58.44746912008628
 10
83.66835372178426
 20
58.44847122318597
  0
LINE
  5
1E1
330
70
100
AcDbEntity
  8
0
 62
    18
420
        0
370
    25
100
AcDbLine
 10
95.66855312908419
 20
58.44847122318597
 30
0.0
 11
95.66854754118436
 21
58.44891825798594
 31
0.0
  0
LWPOLYLINE
  5
1E2
330
70
100
AcDbEntity
  8
0
 62
    18
420
        0
370
    25
100
AcDbPolyline
 90
        4
 70
     0
 43
0.0
 10
95.66855312908419
 20
58.44847122318597
 10
94.10605275658406
 20
58.44788344218642
 10
92.54355238408393
 20
58.44740183198639
 10
89.6684534253845
 20
58.44700031558608
  0
SPLINE
  5
1E3
330
70
100
AcDbEntity
  8
0
 62
    18
420
        0
370
    25
100
AcDbSpline
210
0.0
220
0.0
230
1.0
 70
     8
 71
     3
 72
     8
 73
     4
 74
     0
 42
0.0000000001
 43
0.0000000001
 40
0.0
 40
0.0
 40
0.0
 40
0.0
 40
1.0
 40
1.0
 40
1.0
 40
1.0
 10
95.67907334887292
 20
58.4489201206252
 30
0.0
 10
95.81289091858719
 20
58.45461275243845
 30
0.0
 10
95.91844922576433
 20
58.5647538553377
 30
0.0
 10
95.91845305287153
 20
58.69869245323386
 30
0.0
  0
LWPOLYLINE
  5
1E4
330
70
100
AcDbEntity
  8
0
 62
    18
420
        0
370
    25
100
AcDbPolyline
 90
        5
 70
     0
 43
0.0
 10
90.04034915588411
 20
58.31784764418628
 10
90.34681947558405
 20
58.31777302188603
 10
90.68201923398387
 20
58.31769560578667
 10
90.74754150238412
 20
58.31769025058616
 10
90.78658440738461
 20
58.31769094908647
  0
SPLINE
  5
1E5
330
70
100
AcDbEntity
  8
0
 62
    18
420
        0
370
    25
100
AcDbSpline
210
0.0
220
0.0
230
1.0
 70
     8
 71
     3
 72
     8
 73
     4
 74
     0
 42
0.0000000001
 43
0.0000000001
 40
0.0
 40
0.0
 40
0.0
 40
0.0
 40
1.0
 40
1.0
 40
1.0
 40
1.0
 10
90.04034915589693
 20
58.31784764419911
 30
0.0
 10
89.79243654655842
 20
58.32213080319169
 30
0.0
 10
89.5444684416098
 20
58.32213080319169
 30
0.0
 10
89.29655583227129
 20
58.31784764419911
 30
0.0
  0
LWPOLYLINE
  5
1E6
330
70
100
AcDbEntity
  8
0
 62
    18
420
        0
370
    25
100
AcDbPolyline
 90
        5
 70
     0
 43
0.0
 10
88.55032058088372
 20
58.31769094908583
 10
88.5893634857841
 20
58.31769025058616
 10
88.65488761688395
 20
58.31769560578667
 10
88.99008737528374
 20
58.31777302188603
 10
89.29655583228413
 20
58.31784764418628
  0
SPLINE
  5
1E7
330
70
100
AcDbEntity
  8
0
 62
    18
420
        0
370
    25
100
AcDbSpline
210
0.0
220
0.0
230
1.0
 70
     8
 71
     3
 72
     8
 73
     4
 74
     0
 42
0.0000000001
 43
0.0000000001
 40
0.0
 40
0.0
 40
0.0
 40
0.0
 40
1.0
 40
1.0
 40
1.0
 40
1.0
 10
114.6684530528836
 20
54.56902030868644
 30
0.0
 10
114.6684530528836
 20
56.64008812055204
 30
0.0
 10
112.9895208647492
 20
58.3190203086864
 30
0.0
 10
110.9184530528842
 20
58.3190203086864
 30
0.0
  0
LINE
  5
1E8
330
70
100
AcDbEntity
  8
0
 62
    18
420
        0
370
    25
100
AcDbLine
 10
114.6684537979847
 20
54.56902037948637
 30
0.0
 11
114.5434516819836
 21
54.56902037948637
 31
0.0
  0
SPLINE
  5
1E9
330
70
100
AcDbEntity
  8
0
 62
    18
420
        0
370
    25
100
AcDbSpline
210
0.0
220
0.0
230
1.0
 70
     8
 71
     3
 72
     8
 73
     4
 74
     0
 42
0.0000000001
 43
0.0000000001
 40
0.0
 40
0.0
 40
0.0
 40
0.0
 40
1.0
 40
1.0
 40
1.0
 40
1.0
 10
114.5434530528838
 20
54.56902030868644
 30
0.0
 10
114.5434530528838
 20
56.57105252682324
 30
0.0
 10
112.9204852710204
 20
58.19402030868665
 30
0.0
 10
110.9184530528842
 20
58.19402030868665
 30
0.0
  0
LINE
  5
1EA
330
70
100
AcDbEntity
  8
0
 62
    18
420
        0
370
    25
100
AcDbLine
 10
110.9184536489841
 20
58.31902029568622
 30
0.0
 11
110.9184536489841
 21
58.1940202751861
 31
0.0
  0
LINE
  5
1EB
330
70
100
AcDbEntity
  8
0
 62
    18
420
        0
370
    25
100
AcDbLine
 10
18.41845245688407
 20
58.31902029568622
 30
0.0
 11
38.72476772988432
 21
58.31902029568622
 31
0.0
  0
LINE
  5
1EC
330
70
100
AcDbEntity
  8
0
 62
    18
420
        0
370
    25
100
AcDbLine
 10
40.05139203398412
 20
58.31902029568622
 30
0.0
 11
88.44134466378454
 21
58.31902029568622
 31
0.0
  0
LINE
  5
1ED
330
70
100
AcDbEntity
  8
0
 62
    18
420
        0
370
    25
100
AcDbLine
 10
88.56984296468402
 20
58.31902029568622
 30
0.0
 11
89.28551407188409
 21
58.31902029568622
 31
0.0
  0
LINE
  5
1EE
330
70
100
AcDbEntity
  8
0
 62
    18
420
        0
370
    25
100
AcDbLine
 10
90.05139091638424
 20
58.31902029568622
 30
0.0
 11
90.97085216668466
 21
58.31902029568622
 31
0.0
  0
LINE
  5
1EF
330
70
100
AcDbEntity
  8
0
 62
    18
420
        0
370
    25
100
AcDbLine
 10
91.08654478218371
 20
58.31902029568622
 30
0.0
 11
110.9184536489841
 21
58.31902029568622
 31
0.0
  0
LINE
  5
1F0
330
70
100
AcDbEntity
  8
0
 62
    18
420
        0
370
    25
100
AcDbLine
 10
110.9184536489841
 20
58.1940202751861
 30
0.0
 11
18.41845245688407
 21
58.1940202751861
 31
0.0
  0
LINE
  5
1F1
330
70
100
AcDbEntity
  8
0
 62
    18
420
        0
370
    25
100
AcDbLine
 10
18.41845245688407
 20
58.31902029568622
 30
0.0
 11
18.41845245688407
 21
58.1940202751861
 31
0.0
  0
SPLINE
  5
1F2
330
70
100
AcDbEntity
  8
0
 62
    18
420
        0
370
    25
100
AcDbSpline
210
0.0
220
0.0
230
1.0
 70
     8
 71
     3
 72
     8
 73
     4
 74
     0
 42
0.0000000001
 43
0.0000000001
 40
0.0
 40
0.0
 40
0.0
 40
0.0
 40
1.0
 40
1.0
 40
1.0
 40
1.0
 10
113.4184530528846
 20
54.56902030868644
 30
0.0
 10
113.4184530528846
 20
55.94973218326286
 30
0.0
 10
112.2991649274613
 20
57.0690203086862
 30
0.0
 10
110.9184530528842
 20
57.0690203086862
 30
0.0
  0
LINE
  5
1F3
330
70
100
AcDbEntity
  8
0
 62
    18
420
        0
370
    25
100
AcDbLine
 10
110.9184536489841
 20
57.06902032358645
 30
0.0
 11
110.9184536489841
 21
58.1940202751861
 31
0.0
  0
LINE
  5
1F4
330
70
100
AcDbEntity
  8
0
 62
    18
420
        0
370
    25
100
AcDbLine
 10
114.5434516819836
 20
54.56902037948637
 30
0.0
 11
113.4184512647838
 21
54.56902037948637
 31
0.0
  0
LINE
  5
1F5
330
70
100
AcDbEntity
  8
0
 62
    18
420
        0
370
    25
100
AcDbLine
 10
18.41845245688407
 20
57.06902032358645
 30
0.0
 11
110.9184536489841
 21
57.06902032358645
 31
0.0
  0
LINE
  5
1F6
330
70
100
AcDbEntity
  8
0
 62
    18
420
        0
370
    25
100
AcDbLine
 10
18.41845245688407
 20
58.1940202751861
 30
0.0
 11
18.41845245688407
 21
57.06902032358645
 31
0.0
  0
LINE
  5
1F7
330
70
100
AcDbEntity
  8
0
 62
    18
420
        0
370
    25
100
AcDbLine
 10
113.4184512647838
 20
54.56902037948637
 30
0.0
 11
113.2934528740844
 21
54.56902037948637
 31
0.0
  0
SPLINE
  5
1F8
330
70
100
AcDbEntity
  8
0
 62
    18
420
        0
370
    25
100
AcDbSpline
210
0.0
220
0.0
230
1.0
 70
     8
 71
     3
 72
     8
 73
     4
 74
     0
 42
0.0000000001
 43
0.0000000001
 40
0.0
 40
0.0
 40
0.0
 40
0.0
 40
1.0
 40
1.0
 40
1.0
 40
1.0
 10
113.2934530528836
 20
54.56902030868644
 30
0.0
 10
113.2934530528836
 20
55.88069658953407
 30
0.0
 10
112.2301293337325
 20
56.94402030868644
 30
0.0
 10
110.9184530528842
 20
56.94402030868644
 30
0.0
  0
LINE
  5
1F9
330
70
100
AcDbEntity
  8
0
 62
    18
420
        0
370
    25
100
AcDbLine
 10
110.9184536489841
 20
57.06902032358645
 30
0.0
 11
110.9184536489841
 21
56.94402030318643
 31
0.0
  0
LINE
  5
1FA
330
70
100
AcDbEntity
  8
0
 62
    18
420
        0
370
    25
100
AcDbLine
 10
110.9184536489841
 20
56.94402030318643
 30
0.0
 11
18.41845245688407
 21
56.94402030318643
 31
0.0
  0
LINE
  5
1FB
330
70
100
AcDbEntity
  8
0
 62
    18
420
        0
370
    25
100
AcDbLine
 10
18.41845245688407
 20
57.06902032358645
 30
0.0
 11
18.41845245688407
 21
56.94402030318643
 31
0.0
  0
LINE
  5
1FC
330
70
100
AcDbEntity
  8
0
 62
    18
420
        0
370
    25
100
AcDbLine
 10
114.5434516819836
 20
27.3190215007863
 30
0.0
 11
114.5434516819836
 21
54.56902037948637
 31
0.0
  0
LINE
  5
1FD
330
70
100
AcDbEntity
  8
0
 62
    18
420
        0
370
    25
100
AcDbLine
 10
114.6684537979847
 20
54.56902037948637
 30
0.0
 11
114.6684537979847
 21
27.26994080108623
 31
0.0
  0
LWPOLYLINE
  5
1FE
330
70
100
AcDbEntity
  8
0
 62
    18
420
        0
370
    25
100
AcDbPolyline
 90
        6
 70
     0
 43
0.0
 10
114.6684537979847
 20
27.26994080108623
 10
114.6605338307846
 20
27.28645501298608
 10
114.6374370308837
 20
27.30162812038654
 10
114.6023522468838
 20
27.31291947528646
 10
114.5618881436836
 20
27.31845153138657
 10
114.5434516819836
 20
27.3190215007863
  0
LINE
  5
1FF
330
70
100
AcDbEntity
  8
0
 62
    18
420
        0
370
    25
100
AcDbLine
 10
113.2934528740844
 20
27.26994080108623
 30
0.0
 11
113.2934528740844
 21
54.56902037948637
 31
0.0
  0
LINE
  5
200
330
70
100
AcDbEntity
  8
0
 62
    18
420
        0
370
    25
100
AcDbLine
 10
113.4184512647838
 20
54.56902037948637
 30
0.0
 11
113.4184512647838
 21
27.3190215007863
 31
0.0
  0
LWPOLYLINE
  5
201
330
70
100
AcDbEntity
  8
0
 62
    18
420
        0
370
    25
100
AcDbPolyline
 90
        6
 70
     0
 43
0.0
 10
113.4184512647838
 20
27.3190215007863
 10
113.3793766947843
 20
27.3164175228864
 10
113.3447389455843
 20
27.30911222858633
 10
113.3169780822835
 20
27.29787675308646
 10
113.2986794563847
 20
27.28337792328641
 10
113.2934528740844
 20
27.26994080108623
  0
LINE
  5
202
330
70
100
AcDbEntity
  8
0
 62
    18
420
        0
370
    25
100
AcDbLine
 10
113.4184512647838
 20
27.3190215007863
 30
0.0
 11
114.5434516819836
 21
27.3190215007863
 31
0.0
  0
SPLINE
  5
203
330
70
100
AcDbEntity
  8
0
 62
    18
420
        0
370
    25
100
AcDbSpline
210
0.0
220
0.0
230
1.0
 70
     8
 71
     3
 72
     8
 73
     4
 74
     0
 42
0.0000000001
 43
0.0000000001
 40
0.0
 40
0.0
 40
0.0
 40
0.0
 40
1.0
 40
1.0
 40
1.0
 40
1.0
 10
18.41845305288419
 20
58.3190203086864
 30
0.0
 10
16.34738524101859
 20
58.3190203086864
 30
0.0
 10
14.66845305288422
 20
56.64008812055204
 30
0.0
 10
14.66845305288422
 20
54.56902030868644
 30
0.0
  0
SPLINE
  5
204
330
70
100
AcDbEntity
  8
0
 62
    18
420
        0
370
    25
100
AcDbSpline
210
0.0
220
0.0
230
1.0
 70
     8
 71
     3
 72
     8
 73
     4
 74
     0
 42
0.0000000001
 43
0.0000000001
 40
0.0
 40
0.0
 40
0.0
 40
0.0
 40
1.0
 40
1.0
 40
1.0
 40
1.0
 10
18.41845305288419
 20
58.19402030868665
 30
0.0
 10
16.4164208347477
 20
58.19402030868665
 30
0.0
 10
14.7934530528843
 20
56.57105252682324
 30
0.0
 10
14.7934530528843
 20
54.56902030868644
 30
0.0
  0
LINE
  5
205
330
70
100
AcDbEntity
  8
0
 62
    18
420
        0
370
    25
100
AcDbLine
 10
14.66845230788415
 20
54.56902037948637
 30
0.0
 11
14.79345442378414
 21
54.56902037948637
 31
0.0
  0
SPLINE
  5
206
330
70
100
AcDbEntity
  8
0
 62
    18
420
        0
370
    25
100
AcDbSpline
210
0.0
220
0.0
230
1.0
 70
     8
 71
     3
 72
     8
 73
     4
 74
     0
 42
0.0000000001
 43
0.0000000001
 40
0.0
 40
0.0
 40
0.0
 40
0.0
 40
1.0
 40
1.0
 40
1.0
 40
1.0
 10
18.41845305288419
 20
57.0690203086862
 30
0.0
 10
17.03774117830712
 20
57.0690203086862
 30
0.0
 10
15.9184530528841
 20
55.94973218326286
 30
0.0
 10
15.9184530528841
 20
54.56902030868644
 30
0.0
  0
LINE
  5
207
330
70
100
AcDbEntity
  8
0
 62
    18
420
        0
370
    25
100
AcDbLine
 10
15.91845484108403
 20
54.56902037948637
 30
0.0
 11
14.79345442378414
 21
54.56902037948637
 31
0.0
  0
SPLINE
  5
208
330
70
100
AcDbEntity
  8
0
 62
    18
420
        0
370
    25
100
AcDbSpline
210
0.0
220
0.0
230
1.0
 70
     8
 71
     3
 72
     8
 73
     4
 74
     0
 42
0.0000000001
 43
0.0000000001
 40
0.0
 40
0.0
 40
0.0
 40
0.0
 40
1.0
 40
1.0
 40
1.0
 40
1.0
 10
18.41845305288419
 20
56.94402030868644
 30
0.0
 10
17.10677677203591
 20
56.94402030868644
 30
0.0
 10
16.04345305288419
 20
55.88069658953407
 30
0.0
 10
16.04345305288419
 20
54.56902030868644
 30
0.0
  0
LINE
  5
209
330
70
100
AcDbEntity
  8
0
 62
    18
420
        0
370
    25
100
AcDbLine
 10
15.91845484108403
 20
54.56902037948637
 30
0.0
 11
16.04345323168432
 21
54.56902037948637
 31
0.0
  0
LINE
  5
20A
330
70
100
AcDbEntity
  8
0
 62
    18
420
        0
370
    25
100
AcDbLine
 10
15.91845484108403
 20
27.3190215007863
 30
0.0
 11
15.91845484108403
 21
54.56902037948637
 31
0.0
  0
LINE
  5
20B
330
70
100
AcDbEntity
  8
0
 62
    18
420
        0
370
    25
100
AcDbLine
 10
16.04345323168432
 20
54.56902037948637
 30
0.0
 11
16.04345323168432
 21
27.26994080108623
 31
0.0
  0
LWPOLYLINE
  5
20C
330
70
100
AcDbEntity
  8
0
 62
    18
420
        0
370
    25
100
AcDbPolyline
 90
        6
 70
     0
 43
0.0
 10
16.04345323168432
 20
27.26994080108623
 10
16.03553326458402
 20
27.28645501298608
 10
16.0124401899841
 20
27.30162812038654
 10
15.97735168068414
 20
27.31291947528646
 10
15.93688757738423
 20
27.31845153138657
 10
15.91845484108403
 20
27.3190215007863
  0
LINE
  5
20D
330
70
100
AcDbEntity
  8
0
 62
    18
420
        0
370
    25
100
AcDbLine
 10
14.79345442378414
 20
27.3190215007863
 30
0.0
 11
15.91845484108403
 21
27.3190215007863
 31
0.0
  0
LINE
  5
20E
330
70
100
AcDbEntity
  8
0
 62
    18
420
        0
370
    25
100
AcDbLine
 10
14.79345442378414
 20
54.56902037948637
 30
0.0
 11
14.79345442378414
 21
27.3190215007863
 31
0.0
  0
LINE
  5
20F
330
70
100
AcDbEntity
  8
0
 62
    18
420
        0
370
    25
100
AcDbLine
 10
14.66845230788415
 20
27.26994080108623
 30
0.0
 11
14.66845230788415
 21
54.56902037948637
 31
0.0
  0
LWPOLYLINE
  5
210
330
70
100
AcDbEntity
  8
0
 62
    18
420
        0
370
    25
100
AcDbPolyline
 90
        6
 70
     0
 43
0.0
 10
14.79345442378414
 20
27.3190215007863
 10
14.75437612858431
 20
27.3164175228864
 10
14.71974210468406
 20
27.30911222858633
 10
14.69197751608422
 20
27.29787675308646
 10
14.67367889008432
 20
27.28337792328641
 10
14.66845230788415
 20
27.26994080108623
  0
LINE
  5
211
330
70
100
AcDbEntity
  8
0
 62
    18
420
        0
370
    25
100
AcDbLine
 10
113.2934528740844
 20
27.26994080108623
 30
0.0
 11
113.2934528740844
 21
27.06902099418656
 31
0.0
  0
LINE
  5
212
330
70
100
AcDbEntity
  8
0
 62
    18
420
        0
370
    25
100
AcDbLine
 10
114.6684537979847
 20
27.26994080108623
 30
0.0
 11
114.6684537979847
 21
27.06902099418656
 31
0.0
  0
LINE
  5
213
330
70
100
AcDbEntity
  8
0
 62
    18
420
        0
370
    25
100
AcDbLine
 10
16.04345323168432
 20
27.26994080108623
 30
0.0
 11
16.04345323168432
 21
27.06902099418656
 31
0.0
  0
LINE
  5
214
330
70
100
AcDbEntity
  8
0
 62
    18
420
        0
370
    25
100
AcDbLine
 10
14.66845230788415
 20
27.26994080108623
 30
0.0
 11
14.66845230788415
 21
27.06902099418656
 31
0.0
  0
LWPOLYLINE
  5
215
330
70
100
AcDbEntity
  8
0
 62
    18
420
        0
370
    25
100
AcDbPolyline
 90
        4
 70
     0
 43
0.0
 10
33.66845355958425
 20
58.69869245328647
 10
37.64499419948429
 20
58.69748417868636
 10
41.62153483948411
 20
58.69747405048669
 10
45.66845366388418
 20
58.69869245328647
  0
LWPOLYLINE
  5
216
330
70
100
AcDbEntity
  8
0
 62
    18
420
        0
370
    25
100
AcDbPolyline
 90
        9
 70
     0
 43
0.0
 10
45.66845366388418
 20
58.69869245328647
 10
45.66847042768412
 20
58.65122317448633
 10
45.66848905408416
 20
58.60548114978627
 10
45.66850395528429
 20
58.56313041988612
 10
45.66851885638431
 20
58.52571209068646
 10
45.66853003228408
 20
58.494587523086
 10
45.66853934548428
 20
58.47088908888636
 10
45.66854493348421
 20
58.45547907628613
 10
45.66854865878425
 20
58.44891825798594
  0
LWPOLYLINE
  5
217
330
70
100
AcDbEntity
  8
0
 62
    18
420
        0
370
    25
100
AcDbPolyline
 90
        7
 70
     0
 43
0.0
 10
45.66854865878425
 20
58.44891825798594
 10
45.16854764548433
 20
58.44873932768587
 10
43.16854918028431
 20
58.44810719248658
 10
39.16854852468432
 20
58.44759473218619
 10
37.64494763338421
 20
58.44776842388633
 10
33.66835856458408
 20
58.44891825798594
 10
33.66310031738417
 20
58.44892012068616
  0
LWPOLYLINE
  5
218
330
70
100
AcDbEntity
  8
0
 62
    18
420
        0
370
    25
100
AcDbPolyline
 90
        7
 70
     0
 43
0.0
 10
33.66845355958425
 20
58.69869245328647
 10
33.66828778408433
 20
58.69098901858591
 10
33.66749802258432
 20
58.65417558348593
 10
33.6658067407842
 20
58.57525880088612
 10
33.66441348218416
 20
58.51026598938656
 10
33.66347657168407
 20
58.46651035938617
 10
33.66310031738417
 20
58.44892012068616
  0
LWPOLYLINE
  5
219
330
70
100
AcDbEntity
  8
0
 62
    18
420
        0
370
    25
100
AcDbPolyline
 90
        9
 70
     0
 43
0.0
 10
33.66845355958425
 20
58.69869245328647
 10
33.66638043548429
 20
58.64997555148637
 10
33.66438926778417
 20
58.603129909586
 10
33.6625526996842
 20
58.55995495918615
 10
33.66094337428424
 20
58.52210903648627
 10
33.65962275888418
 20
58.49104581978598
 10
33.65864114488414
 20
58.46795844958636
 10
33.65803578518431
 20
58.45373377778619
 10
33.65783089428417
 20
58.44891825798594
  0
SPLINE
  5
21A
330
70
100
AcDbEntity
  8
0
 62
    18
420
        0
370
    25
100
AcDbSpline
210
0.0
220
0.0
230
1.0
 70
     8
 71
     3
 72
     8
 73
     4
 74
     0
 42
0.0000000001
 43
0.0000000001
 40
0.0
 40
0.0
 40
0.0
 40
0.0
 40
1.0
 40
1.0
 40
1.0
 40
1.0
 10
33.66310031737166
 20
58.44892012062778
 30
0.0
 10
33.6648344921349
 20
58.448615513995
 30
0.0
 10
33.66659226315972
 20
58.44846529313798
 30
0.0
 10
33.66835297669259
 20
58.44847122314746
 30
0.0
  0
LWPOLYLINE
  5
21B
330
70
100
AcDbEntity
  8
0
 62
    18
420
        0
370
    25
100
AcDbPolyline
 90
        3
 70
     0
 43
0.0
 10
33.66835297668425
 20
58.44847122318597
 10
33.66833807558422
 20
58.44847192168629
 10
33.65783089428417
 20
58.44891825798594
  0
LINE
  5
21C
330
70
100
AcDbEntity
  8
0
 62
    18
420
        0
370
    25
100
AcDbLine
 10
45.66845366388418
 20
59.81902030868614
 30
0.0
 11
33.66845355958425
 21
59.81902030868614
 31
0.0
  0
LINE
  5
21D
330
70
100
AcDbEntity
  8
0
 62
    18
420
        0
370
    25
100
AcDbLine
 10
45.66845366388418
 20
58.69869245328647
 30
0.0
 11
45.66845366388418
 21
59.81902030868614
 31
0.0
  0
LINE
  5
21E
330
70
100
AcDbEntity
  8
0
 62
    18
420
        0
370
    25
100
AcDbLine
 10
33.66845355958425
 20
59.81902030868614
 30
0.0
 11
33.66845355958425
 21
58.69869245328647
 31
0.0
  0
LINE
  5
21F
330
70
100
AcDbEntity
  8
0
 62
    18
420
        0
370
    25
100
AcDbLine
 10
45.66845366388418
 20
59.81902030868614
 30
0.0
 11
45.91845230788413
 21
59.81902030868614
 31
0.0
  0
LINE
  5
220
330
70
100
AcDbEntity
  8
0
 62
    18
420
        0
370
    25
100
AcDbLine
 10
45.91845230788413
 20
59.81902030868614
 30
0.0
 11
45.91845230788413
 21
58.69869245328647
 31
0.0
  0
LINE
  5
221
330
70
100
AcDbEntity
  8
0
 62
    18
420
        0
370
    25
100
AcDbLine
 10
45.66845366388418
 20
58.69869245328647
 30
0.0
 11
45.91845230788413
 21
58.69869245328647
 31
0.0
  0
SPLINE
  5
222
330
70
100
AcDbEntity
  8
0
 62
    18
420
        0
370
    25
100
AcDbSpline
210
0.0
220
0.0
230
1.0
 70
     8
 71
     3
 72
     8
 73
     4
 74
     0
 42
0.0000000001
 43
0.0000000001
 40
0.0
 40
0.0
 40
0.0
 40
0.0
 40
1.0
 40
1.0
 40
1.0
 40
1.0
 10
45.66854865872682
 20
58.4489182580193
 30
0.0
 10
45.80652041535106
 20
58.44890780241387
 30
0.0
 10
45.91839127347216
 20
58.56072070975321
 30
0.0
 10
45.91845230781835
 20
58.69869245327364
 30
0.0
  0
LINE
  5
223
330
70
100
AcDbEntity
  8
0
 62
    18
420
        0
370
    25
100
AcDbLine
 10
33.41845305288408
 20
58.69869245328647
 30
0.0
 11
33.66845355958425
 21
58.69869245328647
 31
0.0
  0
LINE
  5
224
330
70
100
AcDbEntity
  8
0
 62
    18
420
        0
370
    25
100
AcDbLine
 10
33.41845305288408
 20
58.69869245328647
 30
0.0
 11
33.41845305288408
 21
59.81902030868614
 31
0.0
  0
LINE
  5
225
330
70
100
AcDbEntity
  8
0
 62
    18
420
        0
370
    25
100
AcDbLine
 10
33.41845305288408
 20
59.81902030868614
 30
0.0
 11
33.66845355958425
 21
59.81902030868614
 31
0.0
  0
SPLINE
  5
226
330
70
100
AcDbEntity
  8
0
 62
    18
420
        0
370
    25
100
AcDbSpline
210
0.0
220
0.0
230
1.0
 70
     8
 71
     3
 72
     8
 73
     4
 74
     0
 42
0.0000000001
 43
0.0000000001
 40
0.0
 40
0.0
 40
0.0
 40
0.0
 40
1.0
 40
1.0
 40
1.0
 40
1.0
 10
33.41845305292098
 20
58.69869245325311
 30
0.0
 10
33.41845304511664
 20
58.56475270239704
 30
0.0
 10
33.52401209638744
 20
58.45460914469031
 30
0.0
 10
33.65783089427454
 20
58.44891825799941
 30
0.0
  0
SPLINE
  5
227
330
70
100
AcDbEntity
  8
0
 62
    18
420
        0
370
    25
100
AcDbSpline
210
0.0
220
0.0
230
1.0
 70
     8
 71
     3
 72
     8
 73
     4
 74
     0
 42
0.0000000001
 43
0.0000000001
 40
0.0
 40
0.0
 40
0.0
 40
0.0
 40
1.0
 40
1.0
 40
1.0
 40
1.0
 10
33.6683529766358
 20
58.44847122317057
 30
0.0
 10
35.30462266163843
 20
58.37279020970707
 30
0.0
 10
36.94223312478931
 20
58.32958855438374
 30
0.0
 10
38.58021715301705
 20
58.31889177316288
 30
0.0
  0
LINE
  5
228
330
70
100
AcDbEntity
  8
0
 62
    18
420
        0
370
    25
100
AcDbLine
 10
45.66855238408428
 20
58.44847122318597
 30
0.0
 11
45.66854865878425
 21
58.44891825798594
 31
0.0
  0
SPLINE
  5
229
330
70
100
AcDbEntity
  8
0
 62
    18
420
        0
370
    25
100
AcDbSpline
210
0.0
220
0.0
230
1.0
 70
     8
 71
     3
 72
     8
 73
     4
 74
     0
 42
0.0000000001
 43
0.0000000001
 40
0.0
 40
0.0
 40
0.0
 40
0.0
 40
1.0
 40
1.0
 40
1.0
 40
1.0
 10
40.7567031087639
 20
58.3188917731725
 30
0.0
 10
42.39468216724017
 20
58.3295888454135
 30
0.0
 10
44.03228765852134
 20
58.37279050063288
 30
0.0
 10
45.66855238392386
 20
58.44847122317249
 30
0.0
  0
LWPOLYLINE
  5
22A
330
70
100
AcDbEntity
  8
0
 62
    18
420
        0
370
    25
100
AcDbPolyline
 90
        4
 70
     0
 43
0.0
 10
45.67907260388423
 20
58.44892012068616
 10
45.67522810428421
 20
58.44875644068655
 10
45.67078755818424
 20
58.44856691658602
 10
45.66855238408428
 20
58.44847122318597
  0
SPLINE
  5
22B
330
70
100
AcDbEntity
  8
0
 62
    18
420
        0
370
    25
100
AcDbSpline
210
0.0
220
0.0
230
1.0
 70
     8
 71
     3
 72
     8
 73
     4
 74
     0
 42
0.0000000001
 43
0.0000000001
 40
0.0
 40
0.0
 40
0.0
 40
0.0
 40
1.0
 40
1.0
 40
1.0
 40
1.0
 10
45.67907260380113
 20
58.4489201206945
 30
0.0
 10
45.81289560169412
 20
58.45460074451684
 30
0.0
 10
45.91846070840026
 20
58.56474894214398
 30
0.0
 10
45.91845230779974
 20
58.69869245330251
 30
0.0
  0
LWPOLYLINE
  5
22C
330
70
100
AcDbEntity
  8
0
 62
     8
420
  8421504
370
    25
100
AcDbPolyline
 90
        5
 70
     0
 43
0.0
 10
95.68050013508404
 20
58.44765748008636
 10
95.68057091558411
 20
58.44759473218619
 10
95.68037161258379
 20
58.44776842388633
 10
95.67907521158407
 20
58.44891825798594
 10
95.67907334888447
 20
58.44892012068616
  0
LINE
  5
22D
330
70
100
AcDbEntity
  8
0
 62
     8
420
  8421504
370
    25
100
AcDbLine
 10
83.65640671573308
 20
58.44765748004014
 30
0.0
 11
83.65736078010558
 21
58.44849337034256
 31
0.0
  0
LINE
  5
22E
330
70
100
AcDbEntity
  8
0
 62
     8
420
  8421504
370
    25
100
AcDbLine
 10
112.8559547813835
 20
54.94402020818603
 30
0.0
 11
112.8559547813835
 21
54.19402008518658
 31
0.0
  0
LINE
  5
22F
330
70
100
AcDbEntity
  8
0
 62
     8
420
  8421504
370
    25
100
AcDbLine
 10
16.48095132438422
 20
54.94402020818603
 30
0.0
 11
16.48095132438422
 21
54.19402008518658
 31
0.0
  0
LINE
  5
230
330
70
100
AcDbEntity
  8
0
 62
     8
420
  8421504
370
    25
100
AcDbLine
 10
112.8559547813835
 20
50.69402044278639
 30
0.0
 11
112.8559547813835
 21
49.94401985428627
 31
0.0
  0
LINE
  5
231
330
70
100
AcDbEntity
  8
0
 62
     8
420
  8421504
370
    25
100
AcDbLine
 10
16.48095132438422
 20
50.69402044278639
 30
0.0
 11
16.48095132438422
 21
49.94401985428627
 31
0.0
  0
LINE
  5
232
330
70
100
AcDbEntity
  8
0
 62
     8
420
  8421504
370
    25
100
AcDbLine
 10
112.8559547813835
 20
46.44402021188673
 30
0.0
 11
112.8559547813835
 21
45.69402055458623
 31
0.0
  0
LINE
  5
233
330
70
100
AcDbEntity
  8
0
 62
     8
420
  8421504
370
    25
100
AcDbLine
 10
16.48095132438422
 20
46.44402021188673
 30
0.0
 11
16.48095132438422
 21
45.69402055458623
 31
0.0
  0
LINE
  5
234
330
70
100
AcDbEntity
  8
0
 62
     8
420
  8421504
370
    25
100
AcDbLine
 10
112.8559547813835
 20
42.19401998088631
 30
0.0
 11
112.8559547813835
 21
41.44402032358646
 31
0.0
  0
LINE
  5
235
330
70
100
AcDbEntity
  8
0
 62
     8
420
  8421504
370
    25
100
AcDbLine
 10
16.48095132438422
 20
42.19401998088631
 30
0.0
 11
16.48095132438422
 21
41.44402032358646
 31
0.0
  0
LINE
  5
236
330
70
100
AcDbEntity
  8
0
 62
     8
420
  8421504
370
    25
100
AcDbLine
 10
112.8559547813835
 20
37.94402068128639
 30
0.0
 11
112.8559547813835
 21
37.19402102398654
 31
0.0
  0
LINE
  5
237
330
70
100
AcDbEntity
  8
0
 62
     8
420
  8421504
370
    25
100
AcDbLine
 10
16.48095132438422
 20
37.94402068128639
 30
0.0
 11
16.48095132438422
 21
37.19402102398654
 31
0.0
  0
LINE
  5
238
330
70
100
AcDbEntity
  8
0
 62
     8
420
  8421504
370
    25
100
AcDbLine
 10
112.8559547813835
 20
33.69401951898624
 30
0.0
 11
112.8559547813835
 21
32.94401986168639
 31
0.0
  0
LINE
  5
239
330
70
100
AcDbEntity
  8
0
 62
     8
420
  8421504
370
    25
100
AcDbLine
 10
16.48095132438422
 20
33.69401951898624
 30
0.0
 11
16.48095132438422
 21
32.94401986168639
 31
0.0
  0
LINE
  5
23A
330
70
100
AcDbEntity
  8
0
 62
     8
420
  8421504
370
    25
100
AcDbLine
 10
112.8559547813835
 20
28.69402056208646
 30
0.0
 11
112.8559547813835
 21
29.4440202192862
 31
0.0
  0
LINE
  5
23B
330
70
100
AcDbEntity
  8
0
 62
     8
420
  8421504
370
    25
100
AcDbLine
 10
16.48095132438422
 20
28.69402056208646
 30
0.0
 11
16.48095132438422
 21
29.4440202192862
 31
0.0
  0
LINE
  5
23C
330
70
100
AcDbEntity
  8
0
 62
     8
420
  8421504
370
    25
100
AcDbLine
 10
33.65640597073349
 20
58.44765748004014
 30
0.0
 11
33.65736003510567
 21
58.44849337034256
 31
0.0
  0
LWPOLYLINE
  5
23D
330
70
100
AcDbEntity
  8
0
 62
     8
420
  8421504
370
    25
100
AcDbPolyline
 90
        5
 70
     0
 43
0.0
 10
45.68049938998402
 20
58.44765748008636
 10
45.68057203318432
 20
58.44759473218619
 10
45.6803708674841
 20
58.44776842388633
 10
45.67907446648404
 20
58.44891825798594
 10
45.67907260388423
 20
58.44892012068616
  0
LINE
  5
23E
330
70
100
AcDbEntity
  8
0
 62
    18
420
        0
370
    25
100
AcDbLine
 10
174.2184882618838
 20
-18.31154075191404
 30
0.0
 11
174.4545907089845
 21
-18.17524171041343
 31
0.0
  0
SPLINE
  5
23F
330
70
100
AcDbEntity
  8
0
 62
    18
420
        0
370
    25
100
AcDbSpline
210
0.0
220
0.0
230
1.0
 70
     8
 71
     3
 72
     8
 73
     4
 74
     0
 42
0.0000000001
 43
0.0000000001
 40
0.0
 40
0.0
 40
0.0
 40
0.0
 40
1.0
 40
1.0
 40
1.0
 40
1.0
 10
178.8119926496257
 20
-26.80196270417698
 30
0.0
 10
178.8880590274658
 20
-26.8422922990909
 30
0.0
 10
178.979524987827
 20
-26.84064365954015
 30
0.0
 10
179.0540885763632
 20
-26.79759901610867
 30
0.0
  0
SPLINE
  5
240
330
70
100
AcDbEntity
  8
0
 62
    18
420
        0
370
    25
100
AcDbSpline
210
0.0
220
0.0
230
1.0
 70
     8
 71
     3
 72
     8
 73
     4
 74
     0
 42
0.0000000001
 43
0.0000000001
 40
0.0
 40
0.0
 40
0.0
 40
0.0
 40
1.0
 40
1.0
 40
1.0
 40
1.0
 10
170.3188275189051
 20
-11.66763617131824
 30
0.0
 10
170.24149702634
 20
-11.71227811444562
 30
0.0
 10
170.1938468116332
 20
-11.79477482889001
 30
0.0
 10
170.1938173740709
 20
-11.88406596674818
 30
0.0
  0
LWPOLYLINE
  5
241
330
70
100
AcDbEntity
  8
0
 62
    18
420
        0
370
    25
100
AcDbPolyline
 90
        3
 70
     0
 43
0.0
 10
170.3187789104839
 20
-21.89910042551343
 10
172.3038907831837
 20
-23.04586854371342
 10
178.8072245001839
 20
-26.79886956841359
  0
LINE
  5
242
330
70
100
AcDbEntity
  8
0
 62
    18
420
        0
370
    25
100
AcDbLine
 10
178.8101894321847
 20
-26.79997851261364
 30
0.0
 11
178.812829290184
 21
-26.80139440721371
 31
0.0
  0
LWPOLYLINE
  5
243
330
70
100
AcDbEntity
  8
0
 62
    18
420
        0
370
    25
100
AcDbPolyline
 90
        3
 70
     0
 43
0.0
 10
170.1938359774843
 20
-11.8840599387134
 10
170.1931538076839
 20
-14.17757446131346
 10
170.1934247163842
 20
-15.98792103731395
  0
LINE
  5
244
330
70
100
AcDbEntity
  8
0
 62
    18
420
        0
370
    25
100
AcDbLine
 10
170.1938784535844
 20
-19.03252632661348
 30
0.0
 11
170.1942749796844
 21
-21.68544540751385
 31
0.0
  0
LINE
  5
245
330
70
100
AcDbEntity
  8
0
 62
    18
420
        0
370
    25
100
AcDbLine
 10
179.0540887993844
 20
-26.79759923011402
 30
0.0
 11
179.8462802230843
 21
-26.34027685561354
 31
0.0
  0
LINE
  5
246
330
70
100
AcDbEntity
  8
0
 62
    18
420
        0
370
    25
100
AcDbLine
 10
171.1110192310846
 20
-11.21031389581395
 30
0.0
 11
170.3188278073848
 21
-11.66763627041389
 31
0.0
  0
LINE
  5
247
330
70
100
AcDbEntity
  8
0
 62
    18
420
        0
370
    25
100
AcDbLine
 10
170.1948070012835
 20
-21.68839900651351
 30
0.0
 11
170.194904136684
 21
-21.69142356641345
 31
0.0
  0
SPLINE
  5
248
330
70
100
AcDbEntity
  8
0
 62
    18
420
        0
370
    25
100
AcDbSpline
210
0.0
220
0.0
230
1.0
 70
     8
 71
     3
 72
     8
 73
     4
 74
     0
 42
0.0000000001
 43
0.0000000001
 40
0.0
 40
0.0
 40
0.0
 40
0.0
 40
1.0
 40
1.0
 40
1.0
 40
1.0
 10
170.1939941547395
 20
-21.69203844192288
 30
0.0
 10
170.1972256211195
 20
-21.77791806632971
 30
0.0
 10
170.2443417081593
 20
-21.85611785866802
 30
0.0
 10
170.3187561186277
 20
-21.89910911100747
 30
0.0
  0
LINE
  5
249
330
70
100
AcDbEntity
  8
0
 62
    18
420
        0
370
    25
100
AcDbLine
 10
188.5828731212837
 20
-32.58148257651363
 30
0.0
 11
188.5828731212837
 21
-36.76274880921384
 31
0.0
  0
LINE
  5
24A
330
70
100
AcDbEntity
  8
0
 62
    18
420
        0
370
    25
100
AcDbLine
 10
189.3328720099841
 20
-36.76274823891345
 30
0.0
 11
189.3328720099841
 21
-32.14851626141383
 31
0.0
  0
SPLINE
  5
24B
330
70
100
AcDbEntity
  8
0
 62
    18
420
        0
370
    25
100
AcDbSpline
210
0.0
220
0.0
230
1.0
 70
     8
 71
     3
 72
    11
 73
     7
 74
     0
 42
0.0000000001
 43
0.0000000001
 40
0.0
 40
0.0
 40
0.0
 40
0.0
 40
1.0
 40
1.0
 40
1.0
 40
2.0
 40
2.0
 40
2.0
 40
2.0
 10
187.9748939655501
 20
-37.54689652405924
 30
0.0
 10
188.367937001807
 20
-37.81997024464988
 30
0.0
 10
188.9079313263389
 20
-37.72271589860431
 30
0.0
 10
189.1810050469288
 20
-37.32967286234737
 30
0.0
 10
189.2960291229978
 20
-37.16411532717761
 30
0.0
 10
189.349733484734
 20
-36.9636350882127
 30
0.0
 10
189.3328720100162
 20
-36.76274823897376
 30
0.0
  0
LWPOLYLINE
  5
24C
330
70
100
AcDbEntity
  8
0
 62
    18
420
        0
370
    25
100
AcDbPolyline
 90
        8
 70
     0
 43
0.0
 10
188.5828731212837
 20
-36.76274880921384
 10
188.5783979820844
 20
-36.83672063941388
 10
188.5549360168845
 20
-36.92633331501398
 10
188.538237303884
 20
-36.95233524981342
 10
188.5341793525839
 20
-36.95404065361392
 10
188.4921497249841
 20
-36.95325835181391
 10
188.3970881666839
 20
-36.92204084241374
 10
188.3498632814842
 20
-36.8973598964139
  0
LINE
  5
24D
330
70
100
AcDbEntity
  8
0
 62
    18
420
        0
370
    25
100
AcDbLine
 10
188.3498632814842
 20
-36.8973598964139
 30
0.0
 11
186.3276680266843
 21
-35.72997142431374
 31
0.0
  0
LINE
  5
24E
330
70
100
AcDbEntity
  8
0
 62
    18
420
        0
370
    25
100
AcDbLine
 10
185.5776674915844
 20
-35.29700533141377
 30
0.0
 11
184.7283031269836
 21
-34.80667772061386
 31
0.0
  0
LINE
  5
24F
330
70
100
AcDbEntity
  8
0
 62
    18
420
        0
370
    25
100
AcDbLine
 10
182.0915383321837
 20
-33.28450580491344
 30
0.0
 11
120.2024448001837
 21
2.443307403286265
 31
0.0
  0
LINE
  5
250
330
70
100
AcDbEntity
  8
0
 62
    18
420
        0
370
    25
100
AcDbLine
 10
119.8274754841841
 20
1.79377077558638
 30
0.0
 11
181.3414778695844
 21
-33.71750692271401
 31
0.0
  0
LINE
  5
251
330
70
100
AcDbEntity
  8
0
 62
    18
420
        0
370
    25
100
AcDbLine
 10
183.9782426643843
 20
-35.23967883831369
 30
0.0
 11
185.5776681501846
 21
-36.16300751771383
 31
0.0
  0
LINE
  5
252
330
70
100
AcDbEntity
  8
0
 62
    18
420
        0
370
    25
100
AcDbLine
 10
186.3276686851843
 20
-36.59597361061379
 30
0.0
 11
187.9748939655847
 21
-37.54689652401367
 31
0.0
  0
LINE
  5
253
330
70
100
AcDbEntity
  8
0
 62
    18
420
        0
370
    25
100
AcDbLine
 10
118.8444664263835
 20
7.67764266888603
 30
0.0
 11
118.8444664263835
 21
3.496376436186459
 31
0.0
  0
LINE
  5
254
330
70
100
AcDbEntity
  8
0
 62
    18
420
        0
370
    25
100
AcDbLine
 10
119.5944653150839
 20
3.496377006486213
 30
0.0
 11
119.5944653150839
 21
8.110608983986479
 31
0.0
  0
SPLINE
  5
255
330
70
100
AcDbEntity
  8
0
 62
    18
420
        0
370
    25
100
AcDbSpline
210
0.0
220
0.0
230
1.0
 70
     8
 71
     3
 72
     8
 73
     4
 74
     0
 42
0.0000000001
 43
0.0000000001
 40
0.0
 40
0.0
 40
0.0
 40
0.0
 40
1.0
 40
1.0
 40
1.0
 40
1.0
 10
118.8444664264143
 20
3.496376436171058
 30
0.0
 10
118.8659154830814
 20
2.799914253087236
 30
0.0
 10
119.2350430892997
 20
2.160572482182751
 30
0.0
 10
119.827475484206
 20
1.793770775585738
 30
0.0
  0
SPLINE
  5
256
330
70
100
AcDbEntity
  8
0
 62
    18
420
        0
370
    25
100
AcDbSpline
210
0.0
220
0.0
230
1.0
 70
     8
 71
     3
 72
     8
 73
     4
 74
     0
 42
0.0000000001
 43
0.0000000001
 40
0.0
 40
0.0
 40
0.0
 40
0.0
 40
1.0
 40
1.0
 40
1.0
 40
1.0
 10
119.5944653151532
 20
3.496377006480437
 30
0.0
 10
119.6145599435857
 20
3.067588385872572
 30
0.0
 10
119.8411537541459
 20
2.675109593327346
 30
0.0
 10
120.2024448001785
 20
2.443307403278565
 30
0.0
  0
LINE
  5
257
330
70
100
AcDbEntity
  8
0
 62
    18
420
        0
370
    25
100
AcDbLine
 10
185.5776694671846
 20
-34.316349718314
 30
0.0
 11
185.5776694671846
 21
-38.49761595101357
 31
0.0
  0
LINE
  5
258
330
70
100
AcDbEntity
  8
0
 62
    18
420
        0
370
    25
100
AcDbLine
 10
186.3276680266843
 20
-38.49761557081395
 30
0.0
 11
186.3276680266843
 21
-33.88338359331369
 31
0.0
  0
SPLINE
  5
259
330
70
100
AcDbEntity
  8
0
 62
    18
420
        0
370
    25
100
AcDbSpline
210
0.0
220
0.0
230
1.0
 70
     8
 71
     3
 72
    11
 73
     7
 74
     0
 42
0.0000000001
 43
0.0000000001
 40
0.0
 40
0.0
 40
0.0
 40
0.0
 40
1.0
 40
1.0
 40
1.0
 40
2.0
 40
2.0
 40
2.0
 40
2.0
 10
184.9696899822067
 20
-39.28176385588979
 30
0.0
 10
185.3627331100495
 20
-39.55483752359609
 30
0.0
 10
185.902727465954
 20
-39.45758306043339
 30
0.0
 10
186.1758011336603
 20
-39.06453993259059
 30
0.0
 10
186.2908251195423
 20
-38.89898245658935
 30
0.0
 10
186.3445294528588
 20
-38.69850232371461
 30
0.0
 10
186.3276680266741
 20
-38.49761557080433
 30
0.0
  0
LWPOLYLINE
  5
25A
330
70
100
AcDbEntity
  8
0
 62
    18
420
        0
370
    25
100
AcDbPolyline
 90
        8
 70
     0
 43
0.0
 10
185.5776694671846
 20
-38.49761595101357
 10
185.5731939987846
 20
-38.57158797131373
 10
185.5497320335847
 20
-38.66120064691384
 10
185.5330333204842
 20
-38.68720258171392
 10
185.528975369184
 20
-38.68890798551378
 10
185.4869457415842
 20
-38.68812568371377
 10
185.3918841833842
 20
-38.6569081743136
 10
185.3446592981844
 20
-38.63222722831376
  0
LINE
  5
25B
330
70
100
AcDbEntity
  8
0
 62
    18
420
        0
370
    25
100
AcDbLine
 10
185.3446592981844
 20
-38.63222722831376
 30
0.0
 11
183.3224640432845
 21
-37.4648387562136
 31
0.0
  0
LINE
  5
25C
330
70
100
AcDbEntity
  8
0
 62
    18
420
        0
370
    25
100
AcDbLine
 10
182.5724635081846
 20
-37.03187266331364
 30
0.0
 11
181.7230991435837
 21
-36.54154505251372
 31
0.0
  0
LINE
  5
25D
330
70
100
AcDbEntity
  8
0
 62
    18
420
        0
370
    25
100
AcDbLine
 10
179.0863343488839
 20
-35.01937313681394
 30
0.0
 11
117.1972408167838
 21
0.7084400713864034
 31
0.0
  0
LINE
  5
25E
330
70
100
AcDbEntity
  8
0
 62
    18
420
        0
370
    25
100
AcDbLine
 10
116.8222715007843
 20
0.0589034436865181
 30
0.0
 11
178.3362738862846
 21
-35.45237425461387
 31
0.0
  0
LINE
  5
25F
330
70
100
AcDbEntity
  8
0
 62
    18
420
        0
370
    25
100
AcDbLine
 10
180.9730386809845
 20
-36.97454617021355
 30
0.0
 11
182.5724641667847
 21
-37.89787484961369
 31
0.0
  0
LINE
  5
260
330
70
100
AcDbEntity
  8
0
 62
    18
420
        0
370
    25
100
AcDbLine
 10
183.3224647018846
 20
-38.33084094251365
 30
0.0
 11
184.9696899821836
 21
-39.28176385591354
 31
0.0
  0
LINE
  5
261
330
70
100
AcDbEntity
  8
0
 62
    18
420
        0
370
    25
100
AcDbLine
 10
115.8392627722844
 20
5.9427755270863
 30
0.0
 11
115.8392627722844
 21
1.761509294386087
 31
0.0
  0
LINE
  5
262
330
70
100
AcDbEntity
  8
0
 62
    18
420
        0
370
    25
100
AcDbLine
 10
116.5892613317841
 20
1.761509674586351
 30
0.0
 11
116.5892613317841
 21
6.375741652085975
 31
0.0
  0
SPLINE
  5
263
330
70
100
AcDbEntity
  8
0
 62
    18
420
        0
370
    25
100
AcDbSpline
210
0.0
220
0.0
230
1.0
 70
     8
 71
     3
 72
     8
 73
     4
 74
     0
 42
0.0000000001
 43
0.0000000001
 40
0.0
 40
0.0
 40
0.0
 40
0.0
 40
1.0
 40
1.0
 40
1.0
 40
1.0
 10
115.8392627723575
 20
1.761509294415605
 30
0.0
 10
115.860712018893
 20
1.065047199532675
 30
0.0
 10
116.2298394191594
 20
0.4257054998099392
 30
0.0
 10
116.8222715008805
 20
0.058903443744271
 30
0.0
  0
SPLINE
  5
264
330
70
100
AcDbEntity
  8
0
 62
    18
420
        0
370
    25
100
AcDbSpline
210
0.0
220
0.0
230
1.0
 70
     8
 71
     3
 72
     8
 73
     4
 74
     0
 42
0.0000000001
 43
0.0000000001
 40
0.0
 40
0.0
 40
0.0
 40
0.0
 40
1.0
 40
1.0
 40
1.0
 40
1.0
 10
116.5892613317777
 20
1.76150967460111
 30
0.0
 10
116.6093561963991
 20
1.332721123244763
 30
0.0
 10
116.8359499488431
 20
0.9402424313647905
 30
0.0
 10
117.1972408168043
 20
0.7084400713985956
 30
0.0
  0
LINE
  5
265
330
70
100
AcDbEntity
  8
0
 62
    18
420
        0
370
    25
100
AcDbLine
 10
182.5724654838835
 20
-36.05121705021387
 30
0.0
 11
182.5724654838835
 21
-40.23248328291344
 31
0.0
  0
LINE
  5
266
330
70
100
AcDbEntity
  8
0
 62
    18
420
        0
370
    25
100
AcDbLine
 10
183.3224647018846
 20
-40.23248252261365
 30
0.0
 11
183.3224647018846
 21
-35.61825054511339
 31
0.0
  0
SPLINE
  5
267
330
70
100
AcDbEntity
  8
0
 62
    18
420
        0
370
    25
100
AcDbSpline
210
0.0
220
0.0
230
1.0
 70
     8
 71
     3
 72
    11
 73
     7
 74
     0
 42
0.0000000001
 43
0.0000000001
 40
0.0
 40
0.0
 40
0.0
 40
0.0
 40
1.0
 40
1.0
 40
1.0
 40
2.0
 40
2.0
 40
2.0
 40
2.0
 10
181.9644859988017
 20
-41.01663118783906
 30
0.0
 10
182.3575296842027
 20
-41.28970477607414
 30
0.0
 10
182.8975244276741
 20
-41.19244979649709
 30
0.0
 10
183.1705980159099
 20
-40.79940611109611
 30
0.0
 10
183.2856216961994
 20
-40.63384879190684
 30
0.0
 10
183.339325941693
 20
-40.43336898692043
 30
0.0
 10
183.3224647018127
 20
-40.23248252258285
 30
0.0
  0
LWPOLYLINE
  5
268
330
70
100
AcDbEntity
  8
0
 62
    18
420
        0
370
    25
100
AcDbPolyline
 90
        8
 70
     0
 43
0.0
 10
182.5724654838835
 20
-40.23248328291344
 10
182.5679906739836
 20
-40.30645492311344
 10
182.5445287087837
 20
-40.39606759871354
 10
182.5278293370844
 20
-40.42206991361378
 10
182.5237720443842
 20
-40.42377493731348
 10
182.4817417582844
 20
-40.42299301561363
 10
182.3866801999843
 20
-40.39177550621346
 10
182.3394559732846
 20
-40.36709418001399
  0
LINE
  5
269
330
70
100
AcDbEntity
  8
0
 62
    18
420
        0
370
    25
100
AcDbLine
 10
182.3394559732846
 20
-40.36709418001399
 30
0.0
 11
180.3172607184847
 21
-39.19970570801395
 31
0.0
  0
LINE
  5
26A
330
70
100
AcDbEntity
  8
0
 62
    18
420
        0
370
    25
100
AcDbLine
 10
179.5672601833835
 20
-38.76673961501388
 30
0.0
 11
178.717895818784
 21
-38.27641200421396
 31
0.0
  0
LINE
  5
26B
330
70
100
AcDbEntity
  8
0
 62
    18
420
        0
370
    25
100
AcDbLine
 10
176.0811310240842
 20
-36.75424008851354
 30
0.0
 11
114.192037491984
 21
-1.026426880413941
 31
0.0
  0
LINE
  5
26C
330
70
100
AcDbEntity
  8
0
 62
    18
420
        0
370
    25
100
AcDbLine
 10
113.8170675174845
 20
-1.675963888213985
 30
0.0
 11
175.3310699028848
 21
-37.18724158651374
 31
0.0
  0
LINE
  5
26D
330
70
100
AcDbEntity
  8
0
 62
    18
420
        0
370
    25
100
AcDbLine
 10
177.9678346975846
 20
-38.70941350211341
 30
0.0
 11
179.5672601833835
 21
-39.63274218151355
 31
0.0
  0
LINE
  5
26E
330
70
100
AcDbEntity
  8
0
 62
    18
420
        0
370
    25
100
AcDbLine
 10
180.3172607184847
 20
-40.06570827441351
 30
0.0
 11
181.9644859988839
 21
-41.01663118781339
 31
0.0
  0
LINE
  5
26F
330
70
100
AcDbEntity
  8
0
 62
    18
420
        0
370
    25
100
AcDbLine
 10
112.8340587889846
 20
4.207908195186438
 30
0.0
 11
112.8340587889846
 21
0.0266419624862253
 31
0.0
  0
LINE
  5
270
330
70
100
AcDbEntity
  8
0
 62
    18
420
        0
370
    25
100
AcDbLine
 10
113.5840580068842
 20
0.0266427227860063
 30
0.0
 11
113.5840580068842
 21
4.640874700286271
 31
0.0
  0
SPLINE
  5
271
330
70
100
AcDbEntity
  8
0
 62
    18
420
        0
370
    25
100
AcDbSpline
210
0.0
220
0.0
230
1.0
 70
     8
 71
     3
 72
     8
 73
     4
 74
     0
 42
0.0000000001
 43
0.0000000001
 40
0.0
 40
0.0
 40
0.0
 40
0.0
 40
1.0
 40
1.0
 40
1.0
 40
1.0
 10
112.8340587889384
 20
0.0266419625144601
 30
0.0
 10
112.8555084823339
 20
-0.6698200052286395
 30
0.0
 10
113.2246357692736
 20
-1.309161508667831
 30
0.0
 10
113.8170675174614
 20
-1.675963888156874
 30
0.0
  0
SPLINE
  5
272
330
70
100
AcDbEntity
  8
0
 62
    18
420
        0
370
    25
100
AcDbSpline
210
0.0
220
0.0
230
1.0
 70
     8
 71
     3
 72
     8
 73
     4
 74
     0
 42
0.0000000001
 43
0.0000000001
 40
0.0
 40
0.0
 40
0.0
 40
0.0
 40
1.0
 40
1.0
 40
1.0
 40
1.0
 10
113.5840580069343
 20
0.0266427228148828
 30
0.0
 10
113.6041502831151
 20
-0.4021465874789181
 30
0.0
 10
113.8307446724903
 20
-0.7946263825781467
 30
0.0
 10
114.1920374919597
 20
-1.02642688038699
 30
0.0
  0
LINE
  5
273
330
70
100
AcDbEntity
  8
0
 62
    18
420
        0
370
    25
100
AcDbLine
 10
179.5672615004837
 20
-37.78608438211373
 30
0.0
 11
179.5672615004837
 21
-41.96735061481393
 31
0.0
  0
LINE
  5
274
330
70
100
AcDbEntity
  8
0
 62
    18
420
        0
370
    25
100
AcDbLine
 10
180.3172607184847
 20
-41.96734985451351
 30
0.0
 11
180.3172607184847
 21
-37.3531178770139
 31
0.0
  0
SPLINE
  5
275
330
70
100
AcDbEntity
  8
0
 62
    18
420
        0
370
    25
100
AcDbSpline
210
0.0
220
0.0
230
1.0
 70
     8
 71
     3
 72
    11
 73
     7
 74
     0
 42
0.0000000001
 43
0.0000000001
 40
0.0
 40
0.0
 40
0.0
 40
0.0
 40
1.0
 40
1.0
 40
1.0
 40
2.0
 40
2.0
 40
2.0
 40
2.0
 10
178.9592826740584
 20
-42.75149813958615
 30
0.0
 10
179.3523261271387
 20
-43.02457161948703
 30
0.0
 10
179.8923205944549
 20
-42.92731674042057
 30
0.0
 10
180.1653940743565
 20
-42.53427328733967
 30
0.0
 10
180.2804177399665
 20
-42.36871602145764
 30
0.0
 10
180.3341219723605
 20
-42.16823626532955
 30
0.0
 10
180.3172607185245
 20
-41.96734985450004
 30
0.0
  0
LWPOLYLINE
  5
276
330
70
100
AcDbEntity
  8
0
 62
    18
420
        0
370
    25
100
AcDbPolyline
 90
        8
 70
     0
 43
0.0
 10
179.5672615004837
 20
-41.96735061481393
 10
179.5627860319836
 20
-42.04132263511346
 10
179.5393247253838
 20
-42.1309349306134
 10
179.5226253537846
 20
-42.15693724551363
 10
179.5185674024844
 20
-42.15864264941361
 10
179.4765377748846
 20
-42.15786034751348
 10
179.3814768751845
 20
-42.1266424579137
 10
179.3342513313847
 20
-42.10196189211347
  0
LINE
  5
277
330
70
100
AcDbEntity
  8
0
 62
    18
420
        0
370
    25
100
AcDbLine
 10
179.3342513313847
 20
-42.10196189211347
 30
0.0
 11
177.3120560765836
 21
-40.93457342001395
 31
0.0
  0
LINE
  5
278
330
70
100
AcDbEntity
  8
0
 62
    18
420
        0
370
    25
100
AcDbLine
 10
176.5620555414837
 20
-40.50160732711399
 30
0.0
 11
175.7126911768841
 21
-40.01127971631344
 31
0.0
  0
LINE
  5
279
330
70
100
AcDbEntity
  8
0
 62
    18
420
        0
370
    25
100
AcDbLine
 10
173.0759263821843
 20
-38.48910780061367
 30
0.0
 11
111.1868328500842
 21
-2.761294592413962
 31
0.0
  0
LINE
  5
27A
330
70
100
AcDbEntity
  8
0
 62
    18
420
        0
370
    25
100
AcDbLine
 10
110.8118641926848
 20
-3.410830839913583
 30
0.0
 11
172.3258665780837
 21
-38.92210853821398
 31
0.0
  0
LINE
  5
27B
330
70
100
AcDbEntity
  8
0
 62
    18
420
        0
370
    25
100
AcDbLine
 10
174.9626313727836
 20
-40.44428045391375
 30
0.0
 11
176.5620568585838
 21
-41.36760913321379
 31
0.0
  0
LINE
  5
27C
330
70
100
AcDbEntity
  8
0
 62
    18
420
        0
370
    25
100
AcDbLine
 10
177.3120573936837
 20
-41.80057522621385
 30
0.0
 11
178.959282673984
 21
-42.75149813961374
 31
0.0
  0
LINE
  5
27D
330
70
100
AcDbEntity
  8
0
 62
    18
420
        0
370
    25
100
AcDbLine
 10
109.8288548055847
 20
2.473040863286576
 30
0.0
 11
109.8288548055847
 21
-1.708225369413636
 31
0.0
  0
LINE
  5
27E
330
70
100
AcDbEntity
  8
0
 62
    18
420
        0
370
    25
100
AcDbLine
 10
110.5788540235845
 20
-1.708224609113855
 30
0.0
 11
110.5788540235845
 21
2.90600736838641
 31
0.0
  0
SPLINE
  5
27F
330
70
100
AcDbEntity
  8
0
 62
    18
420
        0
370
    25
100
AcDbSpline
210
0.0
220
0.0
230
1.0
 70
     8
 71
     3
 72
     8
 73
     4
 74
     0
 42
0.0000000001
 43
0.0000000001
 40
0.0
 40
0.0
 40
0.0
 40
0.0
 40
1.0
 40
1.0
 40
1.0
 40
1.0
 10
109.8288548055629
 20
-1.708225369385401
 30
0.0
 10
109.8503032255041
 20
-2.404687767811228
 30
0.0
 10
110.2194311510011
 20
-3.044029806182932
 30
0.0
 10
110.8118641926283
 20
-3.410830839887274
 30
0.0
  0
SPLINE
  5
280
330
70
100
AcDbEntity
  8
0
 62
    18
420
        0
370
    25
100
AcDbSpline
210
0.0
220
0.0
230
1.0
 70
     8
 71
     3
 72
     8
 73
     4
 74
     0
 42
0.0000000001
 43
0.0000000001
 40
0.0
 40
0.0
 40
0.0
 40
0.0
 40
1.0
 40
1.0
 40
1.0
 40
1.0
 10
110.5788540235473
 20
-1.708224609114497
 30
0.0
 10
110.5989474760458
 20
-2.137013508445624
 30
0.0
 10
110.8255412645469
 20
-2.529492829589792
 30
0.0
 10
111.186832850029
 20
-2.761294592485832
 30
0.0
  0
LINE
  5
281
330
70
100
AcDbEntity
  8
0
 62
    18
420
        0
370
    25
100
AcDbLine
 10
176.5620581756839
 20
-39.52095133391343
 30
0.0
 11
176.5620581756839
 21
-43.70221756651353
 31
0.0
  0
LINE
  5
282
330
70
100
AcDbEntity
  8
0
 62
    18
420
        0
370
    25
100
AcDbLine
 10
177.3120573936837
 20
-43.70221680621376
 30
0.0
 11
177.3120573936837
 21
-39.08798482871349
 31
0.0
  0
SPLINE
  5
283
330
70
100
AcDbEntity
  8
0
 62
    18
420
        0
370
    25
100
AcDbSpline
210
0.0
220
0.0
230
1.0
 70
     8
 71
     3
 72
    11
 73
     7
 74
     0
 42
0.0000000001
 43
0.0000000001
 40
0.0
 40
0.0
 40
0.0
 40
0.0
 40
1.0
 40
1.0
 40
1.0
 40
2.0
 40
2.0
 40
2.0
 40
2.0
 10
175.9540780321367
 20
-44.48636585167087
 30
0.0
 10
176.3471220368869
 20
-44.75943949798678
 30
0.0
 10
176.8871170863256
 20
-44.66218430661053
 30
0.0
 10
177.1601907326415
 20
-44.26914030186096
 30
0.0
 10
177.2752143419117
 20
-44.10358298559016
 30
0.0
 10
177.3289185735009
 20
-43.90310323255634
 30
0.0
 10
177.3120573936926
 20
-43.7022168062452
 30
0.0
  0
LWPOLYLINE
  5
284
330
70
100
AcDbEntity
  8
0
 62
    18
420
        0
370
    25
100
AcDbPolyline
 90
        8
 70
     0
 43
0.0
 10
176.5620581756839
 20
-43.70221756651353
 10
176.5575827071839
 20
-43.7761895869138
 10
176.534121400584
 20
-43.86580188231365
 10
176.5174220289835
 20
-43.89180419731398
 10
176.5133640776846
 20
-43.89350960111385
 10
176.4713344500836
 20
-43.89272729931383
 10
176.3762722332847
 20
-43.86151017001383
 10
176.3290480065836
 20
-43.83682884381371
  0
LINE
  5
285
330
70
100
AcDbEntity
  8
0
 62
    18
420
        0
370
    25
100
AcDbLine
 10
176.3290480065836
 20
-43.83682884381371
 30
0.0
 11
174.3068527517838
 21
-42.66944037181366
 31
0.0
  0
LINE
  5
286
330
70
100
AcDbEntity
  8
0
 62
    18
420
        0
370
    25
100
AcDbLine
 10
173.556852216684
 20
-42.23647427881359
 30
0.0
 11
172.7074878520844
 21
-41.74614666801368
 31
0.0
  0
LINE
  5
287
330
70
100
AcDbEntity
  8
0
 62
    18
420
        0
370
    25
100
AcDbLine
 10
170.0707230572844
 20
-40.223974752414
 30
0.0
 11
108.1816295252844
 21
-4.496161544213665
 31
0.0
  0
LINE
  5
288
330
70
100
AcDbEntity
  8
0
 62
    18
420
        0
370
    25
100
AcDbLine
 10
107.8066595507836
 20
-5.145698552013709
 30
0.0
 11
169.3206619361839
 21
-40.65697625031346
 31
0.0
  0
LINE
  5
289
330
70
100
AcDbEntity
  8
0
 62
    18
420
        0
370
    25
100
AcDbLine
 10
171.9574267308837
 20
-42.17914816601388
 30
0.0
 11
173.556852216684
 21
-43.10247684531391
 31
0.0
  0
LINE
  5
28A
330
70
100
AcDbEntity
  8
0
 62
    18
420
        0
370
    25
100
AcDbLine
 10
174.3068527517838
 20
-43.53544293821388
 30
0.0
 11
175.9540780320841
 21
-44.48636585161376
 31
0.0
  0
LINE
  5
28B
330
70
100
AcDbEntity
  8
0
 62
    18
420
        0
370
    25
100
AcDbLine
 10
106.8236514807837
 20
0.7381739114862316
 30
0.0
 11
106.8236514807837
 21
-3.443092321113876
 31
0.0
  0
LINE
  5
28C
330
70
100
AcDbEntity
  8
0
 62
    18
420
        0
370
    25
100
AcDbLine
 10
107.5736506987847
 20
-3.443091560813453
 30
0.0
 11
107.5736506987847
 21
1.17114041668617
 31
0.0
  0
SPLINE
  5
28D
330
70
100
AcDbEntity
  8
0
 62
    18
420
        0
370
    25
100
AcDbSpline
210
0.0
220
0.0
230
1.0
 70
     8
 71
     3
 72
     8
 73
     4
 74
     0
 42
0.0000000001
 43
0.0000000001
 40
0.0
 40
0.0
 40
0.0
 40
0.0
 40
1.0
 40
1.0
 40
1.0
 40
1.0
 10
106.8236514807747
 20
-3.443092321121576
 30
0.0
 10
106.845101553911
 20
-4.139554112459685
 30
0.0
 10
107.2142284289441
 20
-4.778895473530245
 30
0.0
 10
107.8066595507502
 20
-5.14569855196109
 30
0.0
  0
SPLINE
  5
28E
330
70
100
AcDbEntity
  8
0
 62
    18
420
        0
370
    25
100
AcDbSpline
210
0.0
220
0.0
230
1.0
 70
     8
 71
     3
 72
     8
 73
     4
 74
     0
 42
0.0000000001
 43
0.0000000001
 40
0.0
 40
0.0
 40
0.0
 40
0.0
 40
1.0
 40
1.0
 40
1.0
 40
1.0
 10
107.5736506987565
 20
-3.443091560844897
 30
0.0
 10
107.5937424398296
 20
-3.871880961967988
 30
0.0
 10
107.8203366494585
 20
-4.264361012541722
 30
0.0
 10
108.1816295252382
 20
-4.49616154421559
 30
0.0
  0
LINE
  5
28F
330
70
100
AcDbEntity
  8
0
 62
    18
420
        0
370
    25
100
AcDbLine
 10
188.4976304616848
 20
-29.58634855821396
 30
0.0
 11
169.2180844093843
 21
-40.71619358881373
 31
0.0
  0
LINE
  5
290
330
70
100
AcDbEntity
  8
0
 62
    18
420
        0
370
    25
100
AcDbLine
 10
170.1385689466847
 20
-43.22915189871387
 30
0.0
 11
189.4181149989838
 21
-32.09930686811345
 31
0.0
  0
LINE
  5
291
330
70
100
AcDbEntity
  8
0
 62
    18
420
        0
370
    25
100
AcDbLine
 10
189.5296452736839
 20
-27.15401502921374
 30
0.0
 11
189.4181154105837
 21
-27.08609873361386
 31
0.0
  0
LINE
  5
292
330
70
100
AcDbEntity
  8
0
 62
    18
420
        0
370
    25
100
AcDbLine
 10
190.542358475384
 20
-30.51131129351398
 30
0.0
 11
190.542358475384
 21
-28.67409454591342
 31
0.0
  0
LWPOLYLINE
  5
293
330
70
100
AcDbEntity
  8
0
 62
    18
420
        0
370
    25
100
AcDbPolyline
 90
        3
 70
     0
 43
0.0
 10
188.798922476584
 20
-29.36924745251354
 10
188.7781635073839
 20
-29.39085807451363
 10
188.4976304616848
 20
-29.58634855821396
  0
SPLINE
  5
294
330
70
100
AcDbEntity
  8
0
 62
    18
420
        0
370
    25
100
AcDbSpline
210
0.0
220
0.0
230
1.0
 70
     8
 71
     3
 72
     8
 73
     4
 74
     0
 42
0.0000000001
 43
0.0000000001
 40
0.0
 40
0.0
 40
0.0
 40
0.0
 40
1.0
 40
1.0
 40
1.0
 40
1.0
 10
188.7989224766379
 20
-29.36924745249044
 30
0.0
 10
189.0267264087973
 20
-29.21368703743767
 30
0.0
 10
189.1628749627142
 20
-28.95554929113163
 30
0.0
 10
189.1626084556188
 20
-28.67969860106029
 30
0.0
  0
LINE
  5
295
330
70
100
AcDbEntity
  8
0
 62
    18
420
        0
370
    25
100
AcDbLine
 10
189.4181149989838
 20
-32.09930686811345
 30
0.0
 11
189.5333451412844
 21
-32.02741906161359
 31
0.0
  0
LINE
  5
296
330
70
100
AcDbEntity
  8
0
 62
    18
420
        0
370
    25
100
AcDbLine
 10
189.4181154105837
 20
-27.08609873361386
 30
0.0
 11
124.0107373078846
 21
10.67277692478632
 31
0.0
  0
LINE
  5
297
330
70
100
AcDbEntity
  8
0
 62
    18
420
        0
370
    25
100
AcDbLine
 10
123.0902523589844
 20
8.159818377286216
 30
0.0
 11
188.4866222316837
 21
-29.59270236521386
 31
0.0
  0
LINE
  5
298
330
70
100
AcDbEntity
  8
0
 62
    18
420
        0
370
    25
100
AcDbLine
 10
118.7592237667846
 20
10.67277668718634
 30
0.0
 11
99.47967771448418
 21
-0.4570683434134338
 31
0.0
  0
LINE
  5
299
330
70
100
AcDbEntity
  8
0
 62
    18
420
        0
370
    25
100
AcDbLine
 10
100.4001622517845
 20
-2.970026653313561
 30
0.0
 11
119.6797083040836
 21
8.159818377286216
 31
0.0
  0
SPLINE
  5
29A
330
70
100
AcDbEntity
  8
0
 62
    18
420
        0
370
    25
100
AcDbSpline
210
0.0
220
0.0
230
1.0
 70
     8
 71
     3
 72
     8
 73
     4
 74
     0
 42
0.0000000001
 43
0.0000000001
 40
0.0
 40
0.0
 40
0.0
 40
0.0
 40
1.0
 40
1.0
 40
1.0
 40
1.0
 10
123.0742995298664
 20
11.06046110377157
 30
0.0
 10
122.7721243728397
 20
11.1609991418161
 30
0.0
 10
122.4590414176755
 20
11.22515637534293
 30
0.0
 10
122.1416776056955
 20
11.25157480572848
 30
0.0
  0
SPLINE
  5
29B
330
70
100
AcDbEntity
  8
0
 62
    18
420
        0
370
    25
100
AcDbSpline
210
0.0
220
0.0
230
1.0
 70
     8
 71
     3
 72
     8
 73
     4
 74
     0
 42
0.0000000001
 43
0.0000000001
 40
0.0
 40
0.0
 40
0.0
 40
0.0
 40
1.0
 40
1.0
 40
1.0
 40
1.0
 10
124.0107373078795
 20
10.67277692475359
 30
0.0
 10
123.7169880668194
 20
10.84260251425292
 30
0.0
 10
123.402128532657
 20
10.97295400463845
 30
0.0
 10
123.0742995298703
 20
11.06046110380173
 30
0.0
  0
LINE
  5
29C
330
70
100
AcDbEntity
  8
0
 62
    18
420
        0
370
    25
100
AcDbLine
 10
123.0623304010837
 20
8.175172484386578
 30
0.0
 11
123.0902523589844
 21
8.159818377286216
 31
0.0
  0
LINE
  5
29D
330
70
100
AcDbEntity
  8
0
 62
    18
420
        0
370
    25
100
AcDbLine
 10
119.6797083040836
 20
8.159818377286216
 30
0.0
 11
119.8215377176845
 21
8.234394600186046
 31
0.0
  0
LINE
  5
29E
330
70
100
AcDbEntity
  8
0
 62
    18
420
        0
370
    25
100
AcDbLine
 10
173.556853533784
 20
-41.25581904591345
 30
0.0
 11
173.556853533784
 21
-45.43708527861366
 31
0.0
  0
LINE
  5
29F
330
70
100
AcDbEntity
  8
0
 62
    18
420
        0
370
    25
100
AcDbLine
 10
174.3068527517838
 20
-45.43708451831387
 30
0.0
 11
174.3068527517838
 21
-40.82285254081361
 31
0.0
  0
SPLINE
  5
2A0
330
70
100
AcDbEntity
  8
0
 62
    18
420
        0
370
    25
100
AcDbSpline
210
0.0
220
0.0
230
1.0
 70
     8
 71
     3
 72
    11
 73
     7
 74
     0
 42
0.0000000001
 43
0.0000000001
 40
0.0
 40
0.0
 40
0.0
 40
0.0
 40
1.0
 40
1.0
 40
1.0
 40
2.0
 40
2.0
 40
2.0
 40
2.0
 10
172.9488747072574
 20
-46.22123280339422
 30
0.0
 10
173.3419175098615
 20
-46.49430665890465
 30
0.0
 10
173.8819117543542
 20
-46.39705261164571
 30
0.0
 10
174.154985609864
 20
-46.004009809041
 30
0.0
 10
174.270009916018
 20
-45.83845212292117
 30
0.0
 10
174.3237143502571
 20
-45.6379716132998
 30
0.0
 10
174.3068527517222
 20
-45.43708451830746
 30
0.0
  0
LWPOLYLINE
  5
2A1
330
70
100
AcDbEntity
  8
0
 62
    18
420
        0
370
    25
100
AcDbPolyline
 90
        8
 70
     0
 43
0.0
 10
173.556853533784
 20
-45.43708527861366
 10
173.5523793823841
 20
-45.5110565386134
 10
173.5289167586842
 20
-45.60066959441377
 10
173.5122187040837
 20
-45.62667114901358
 10
173.5081607528836
 20
-45.62837655281344
 10
173.4661311252838
 20
-45.62759425101343
 10
173.3710689084836
 20
-45.59637712181353
 10
173.3238446817839
 20
-45.57169579561342
  0
LINE
  5
2A2
330
70
100
AcDbEntity
  8
0
 62
    18
420
        0
370
    25
100
AcDbLine
 10
173.3238446817839
 20
-45.57169579561342
 30
0.0
 11
171.2681953659839
 21
-44.38499470521376
 31
0.0
  0
LINE
  5
2A3
330
70
100
AcDbEntity
  8
0
 62
    18
420
        0
370
    25
100
AcDbLine
 10
170.5516488918842
 20
-43.97134123051383
 30
0.0
 11
105.1764262003846
 21
-6.231028495913905
 31
0.0
  0
LINE
  5
2A4
330
70
100
AcDbEntity
  8
0
 62
    18
420
        0
370
    25
100
AcDbLine
 10
170.8074855306844
 20
-44.98503514491399
 30
0.0
 11
172.9488747072843
 21
-46.22123280341347
 31
0.0
  0
LINE
  5
2A5
330
70
100
AcDbEntity
  8
0
 62
    18
420
        0
370
    25
100
AcDbLine
 10
103.8184468388838
 20
-0.9966938005137892
 30
0.0
 11
103.8184468388838
 21
-5.177960033214002
 31
0.0
  0
LINE
  5
2A6
330
70
100
AcDbEntity
  8
0
 62
    18
420
        0
370
    25
100
AcDbLine
 10
104.5684460568836
 20
-5.17795927291358
 30
0.0
 11
104.5684460568836
 21
-0.5637272954139557
 31
0.0
  0
SPLINE
  5
2A7
330
70
100
AcDbEntity
  8
0
 62
    18
420
        0
370
    25
100
AcDbSpline
210
0.0
220
0.0
230
1.0
 70
     8
 71
     3
 72
     8
 73
     4
 74
     0
 42
0.0000000001
 43
0.0000000001
 40
0.0
 40
0.0
 40
0.0
 40
0.0
 40
1.0
 40
1.0
 40
1.0
 40
1.0
 10
103.818446838889
 20
-5.177960033252504
 30
0.0
 10
103.8226235393878
 20
-5.450616184432077
 30
0.0
 10
103.8870902264947
 20
-5.718969008344249
 30
0.0
 10
104.0072225733695
 20
-5.963769010055479
 30
0.0
  0
SPLINE
  5
2A8
330
70
100
AcDbEntity
  8
0
 62
    18
420
        0
370
    25
100
AcDbSpline
210
0.0
220
0.0
230
1.0
 70
     8
 71
     3
 72
     8
 73
     4
 74
     0
 42
0.0000000001
 43
0.0000000001
 40
0.0
 40
0.0
 40
0.0
 40
0.0
 40
1.0
 40
1.0
 40
1.0
 40
1.0
 10
104.5684460568874
 20
-5.177959272851976
 30
0.0
 10
104.5885423337254
 20
-5.606747476202742
 30
0.0
 10
104.815136050088
 20
-5.999225538781942
 30
0.0
 10
105.1764262004577
 20
-6.231028495884387
 30
0.0
  0
LINE
  5
2A9
330
70
100
AcDbEntity
  8
0
 62
    18
420
        0
370
    25
100
AcDbLine
 10
170.5516502089843
 20
-42.9906859977138
 30
0.0
 11
170.5516502089843
 21
-44.10992444431384
 31
0.0
  0
LINE
  5
2AA
330
70
100
AcDbEntity
  8
0
 62
    18
420
        0
370
    25
100
AcDbLine
 10
171.3016494269841
 20
-44.10992368401341
 30
0.0
 11
171.3016494269841
 21
-42.55771949251385
 31
0.0
  0
LWPOLYLINE
  5
2AB
330
70
100
AcDbEntity
  8
0
 62
    18
420
        0
370
    25
100
AcDbPolyline
 90
        8
 70
     0
 43
0.0
 10
170.5516502089843
 20
-44.10992444431384
 10
170.5471747404842
 20
-44.18389627461396
 10
170.5237134338844
 20
-44.27350837991368
 10
170.5070140621838
 20
-44.29951069481392
 10
170.5029561109837
 20
-44.30121609871388
 10
170.4609264833839
 20
-44.30043379681377
 10
170.3658655836839
 20
-44.26921552701371
 10
170.318640039884
 20
-44.24453534141376
  0
SPLINE
  5
2AC
330
70
100
AcDbEntity
  8
0
 62
    18
420
        0
370
    25
100
AcDbSpline
210
0.0
220
0.0
230
1.0
 70
     8
 71
     3
 72
    11
 73
     7
 74
     0
 42
0.0000000001
 43
0.0000000001
 40
0.0
 40
0.0
 40
0.0
 40
0.0
 40
1.0
 40
1.0
 40
1.0
 40
2.0
 40
2.0
 40
2.0
 40
2.0
 10
169.9436713824602
 20
-44.89407158887937
 30
0.0
 10
170.3367145753007
 20
-45.16714520784478
 30
0.0
 10
170.8767089443844
 20
-45.06989065247826
 30
0.0
 10
171.1497825633498
 20
-44.67684745963777
 30
0.0
 10
171.2648064026485
 20
-44.51129013768857
 30
0.0
 10
171.3185107187996
 20
-44.31081023731808
 30
0.0
 10
171.3016494269263
 20
-44.10992368402496
 30
0.0
  0
LINE
  5
2AD
330
70
100
AcDbEntity
  8
0
 62
    18
420
        0
370
    25
100
AcDbLine
 10
101.796252901084
 20
-5.553404289213861
 30
0.0
 11
169.9436713824846
 21
-44.89407158891402
 31
0.0
  0
LINE
  5
2AE
330
70
100
AcDbEntity
  8
0
 62
    18
420
        0
370
    25
100
AcDbLine
 10
170.318640039884
 20
-44.24453534141376
 30
0.0
 11
102.1712215584841
 21
-4.903868041713598
 31
0.0
  0
LINE
  5
2AF
330
70
100
AcDbEntity
  8
0
 62
    18
420
        0
370
    25
100
AcDbLine
 10
100.8132435140841
 20
-2.731560752313492
 30
0.0
 11
100.8132435140841
 21
-3.850799198913536
 31
0.0
  0
LINE
  5
2B0
330
70
100
AcDbEntity
  8
0
 62
    18
420
        0
370
    25
100
AcDbLine
 10
101.5632427319837
 20
-3.850798438613755
 30
0.0
 11
101.5632427319837
 21
-2.298594247113554
 31
0.0
  0
SPLINE
  5
2B1
330
70
100
AcDbEntity
  8
0
 62
    18
420
        0
370
    25
100
AcDbSpline
210
0.0
220
0.0
230
1.0
 70
     8
 71
     3
 72
     8
 73
     4
 74
     0
 42
0.0000000001
 43
0.0000000001
 40
0.0
 40
0.0
 40
0.0
 40
0.0
 40
1.0
 40
1.0
 40
1.0
 40
1.0
 10
101.5632427320633
 20
-3.850798438616964
 30
0.0
 10
101.5833351891737
 20
-4.279587528598159
 30
0.0
 10
101.8099292377643
 20
-4.672067158528546
 30
0.0
 10
102.1712215585444
 20
-4.903868041756592
 30
0.0
  0
SPLINE
  5
2B2
330
70
100
AcDbEntity
  8
0
 62
    18
420
        0
370
    25
100
AcDbSpline
210
0.0
220
0.0
230
1.0
 70
     8
 71
     3
 72
     8
 73
     4
 74
     0
 42
0.0000000001
 43
0.0000000001
 40
0.0
 40
0.0
 40
0.0
 40
0.0
 40
1.0
 40
1.0
 40
1.0
 40
1.0
 10
100.8132435140635
 20
-3.850799198909044
 30
0.0
 10
100.8346920706834
 20
-4.547261457861585
 30
0.0
 10
101.2038199776873
 20
-5.186603321422278
 30
0.0
 10
101.7962529011296
 20
-5.553404289179209
 30
0.0
  0
LINE
  5
2B3
330
70
100
AcDbEntity
  8
0
 62
    18
420
        0
370
    25
100
AcDbLine
 10
138.8631486756841
 20
2.098662347786024
 30
0.0
 11
139.0992511228836
 21
2.234961389285988
 31
0.0
  0
SPLINE
  5
2B4
330
70
100
AcDbEntity
  8
0
 62
    18
420
        0
370
    25
100
AcDbSpline
210
0.0
220
0.0
230
1.0
 70
     8
 71
     3
 72
     8
 73
     4
 74
     0
 42
0.0000000001
 43
0.0000000001
 40
0.0
 40
0.0
 40
0.0
 40
0.0
 40
1.0
 40
1.0
 40
1.0
 40
1.0
 10
143.4566535903263
 20
-6.391759908576807
 30
0.0
 10
143.5327199681665
 20
-6.432089503490725
 30
0.0
 10
143.6241859285263
 20
-6.430440863940624
 30
0.0
 10
143.6987495170638
 20
-6.387396220509144
 30
0.0
  0
SPLINE
  5
2B5
330
70
100
AcDbEntity
  8
0
 62
    18
420
        0
370
    25
100
AcDbSpline
210
0.0
220
0.0
230
1.0
 70
     8
 71
     3
 72
     8
 73
     4
 74
     0
 42
0.0000000001
 43
0.0000000001
 40
0.0
 40
0.0
 40
0.0
 40
0.0
 40
1.0
 40
1.0
 40
1.0
 40
1.0
 10
134.9634884596045
 20
8.742566624181185
 30
0.0
 10
134.8861579670393
 20
8.697924681053805
 30
0.0
 10
134.8385077523338
 20
8.615427966609411
 30
0.0
 10
134.8384783147702
 20
8.526136828751237
 30
0.0
  0
LINE
  5
2B6
330
70
100
AcDbEntity
  8
0
 62
    18
420
        0
370
    25
100
AcDbLine
 10
139.2052656756836
 20
-3.938672409913995
 30
0.0
 11
143.4515814895837
 21
-6.388859121513971
 31
0.0
  0
LINE
  5
2B7
330
70
100
AcDbEntity
  8
0
 62
    18
420
        0
370
    25
100
AcDbLine
 10
143.4548498459837
 20
-6.389775412913577
 30
0.0
 11
143.4574924204836
 21
-6.391192780713463
 31
0.0
  0
LWPOLYLINE
  5
2B8
330
70
100
AcDbEntity
  8
0
 62
    18
420
        0
370
    25
100
AcDbPolyline
 90
        3
 70
     0
 43
0.0
 10
134.8384977083847
 20
8.526142400686241
 10
134.8378155385843
 20
6.232627878086177
 10
134.8380851302846
 20
4.422282062386114
  0
LINE
  5
2B9
330
70
100
AcDbEntity
  8
0
 62
    18
420
        0
370
    25
100
AcDbLine
 10
134.8385401844848
 20
1.377676012686057
 30
0.0
 11
134.8389353934847
 21
-1.275242307813786
 31
0.0
  0
LINE
  5
2BA
330
70
100
AcDbEntity
  8
0
 62
    18
420
        0
370
    25
100
AcDbLine
 10
143.6987492131846
 20
-6.387396130413957
 30
0.0
 11
144.4909406368845
 21
-5.930073755913476
 31
0.0
  0
LINE
  5
2BB
330
70
100
AcDbEntity
  8
0
 62
    18
420
        0
370
    25
100
AcDbLine
 10
135.7556796449837
 20
9.19988920388611
 30
0.0
 11
134.9634882211838
 21
8.742566829286165
 31
0.0
  0
LWPOLYLINE
  5
2BC
330
70
100
AcDbEntity
  8
0
 62
    18
420
        0
370
    25
100
AcDbPolyline
 90
        3
 70
     0
 43
0.0
 10
134.9634217081838
 20
-1.488906354413614
 10
135.900609403784
 20
-2.030329622013547
 10
139.2052958040836
 20
-3.938646271813541
  0
LINE
  5
2BD
330
70
100
AcDbEntity
  8
0
 62
    18
420
        0
370
    25
100
AcDbLine
 10
134.8391015113843
 20
-1.278417785313444
 30
0.0
 11
134.8392034211847
 21
-1.281444911913931
 31
0.0
  0
SPLINE
  5
2BE
330
70
100
AcDbEntity
  8
0
 62
    18
420
        0
370
    25
100
AcDbSpline
210
0.0
220
0.0
230
1.0
 70
     8
 71
     3
 72
     8
 73
     4
 74
     0
 42
0.0000000001
 43
0.0000000001
 40
0.0
 40
0.0
 40
0.0
 40
0.0
 40
1.0
 40
1.0
 40
1.0
 40
1.0
 10
134.8386550951835
 20
-1.281835642186955
 30
0.0
 10
134.841886560144
 20
-1.367715266677846
 30
0.0
 10
134.889002645921
 20
-1.445915059820203
 30
0.0
 10
134.9634170557207
 20
-1.488906313380811
 30
0.0
  0
SPLINE
  5
2BF
330
70
100
AcDbEntity
  8
0
 62
    18
420
        0
370
    25
100
AcDbSpline
210
0.0
220
0.0
230
1.0
 70
     8
 71
     3
 72
     8
 73
     4
 74
     0
 42
0.0000000001
 43
0.0000000001
 40
0.0
 40
0.0
 40
0.0
 40
0.0
 40
1.0
 40
1.0
 40
1.0
 40
1.0
 10
179.1058754223702
 20
-16.88464803369325
 30
0.0
 10
179.1001997299383
 20
-16.75992538597365
 30
0.0
 10
179.0342735764854
 20
-16.64573808078307
 30
0.0
 10
178.9290983688255
 20
-16.57846157647127
 30
0.0
  0
SPLINE
  5
2C0
330
70
100
AcDbEntity
  8
0
 62
    18
420
        0
370
    25
100
AcDbSpline
210
0.0
220
0.0
230
1.0
 70
     8
 71
     3
 72
     8
 73
     4
 74
     0
 42
0.0000000001
 43
0.0000000001
 40
0.0
 40
0.0
 40
0.0
 40
0.0
 40
1.0
 40
1.0
 40
1.0
 40
1.0
 10
178.7525485131559
 20
-16.87592097033423
 30
0.0
 10
178.8625546364846
 20
-16.93363257631116
 30
0.0
 10
178.9931542622869
 20
-16.93685834595402
 30
0.0
 10
179.1058754223908
 20
-16.88464803376063
 30
0.0
  0
SPLINE
  5
2C1
330
70
100
AcDbEntity
  8
0
 62
    18
420
        0
370
    25
100
AcDbSpline
210
0.0
220
0.0
230
1.0
 70
     8
 71
     3
 72
     8
 73
     4
 74
     0
 42
0.0000000001
 43
0.0000000001
 40
0.0
 40
0.0
 40
0.0
 40
0.0
 40
1.0
 40
1.0
 40
1.0
 40
1.0
 10
178.9290983688319
 20
-16.57846157647384
 30
0.0
 10
178.8266993608815
 20
-16.64428954521935
 30
0.0
 10
178.7612853636464
 20
-16.75450208482781
 30
0.0
 10
178.752548513143
 20
-16.87592097026877
 30
0.0
  0
SPLINE
  5
2C2
330
70
100
AcDbEntity
  8
0
 62
    18
420
        0
370
    25
100
AcDbSpline
210
0.0
220
0.0
230
1.0
 70
     8
 71
     3
 72
     8
 73
     4
 74
     0
 42
0.0000000001
 43
0.0000000001
 40
0.0
 40
0.0
 40
0.0
 40
0.0
 40
1.0
 40
1.0
 40
1.0
 40
1.0
 10
178.759992700283
 20
-26.68745926255555
 30
0.0
 10
178.8695302350997
 20
-26.74058597088538
 30
0.0
 10
178.997699384239
 20
-26.73898464691192
 30
0.0
 10
179.1058754223997
 20
-26.68313786151193
 30
0.0
  0
SPLINE
  5
2C3
330
70
100
AcDbEntity
  8
0
 62
    18
420
        0
370
    25
100
AcDbSpline
210
0.0
220
0.0
230
1.0
 70
     8
 71
     3
 72
     8
 73
     4
 74
     0
 42
0.0000000001
 43
0.0000000001
 40
0.0
 40
0.0
 40
0.0
 40
0.0
 40
1.0
 40
1.0
 40
1.0
 40
1.0
 10
178.7599927002497
 20
-16.88451920616522
 30
0.0
 10
178.8686631442703
 20
-16.93974359535267
 30
0.0
 10
178.997163870728
 20
-16.93979145675916
 30
0.0
 10
179.1058754223664
 20
-16.88464803371379
 30
0.0
  0
SPLINE
  5
2C4
330
70
100
AcDbEntity
  8
0
 62
    18
420
        0
370
    25
100
AcDbSpline
210
0.0
220
0.0
230
1.0
 70
     8
 71
     3
 72
     8
 73
     4
 74
     0
 42
0.0000000001
 43
0.0000000001
 40
0.0
 40
0.0
 40
0.0
 40
0.0
 40
1.0
 40
1.0
 40
1.0
 40
1.0
 10
178.7599927002946
 20
-16.88451920615495
 30
0.0
 10
178.7575668193273
 20
-16.88316498193391
 30
0.0
 10
178.754597190599
 20
-16.883233513506
 30
0.0
 10
178.7522363630794
 20
-16.88469820293568
 30
0.0
  0
LWPOLYLINE
  5
2C5
330
70
100
AcDbEntity
  8
0
 62
    18
420
        0
370
    25
100
AcDbPolyline
 90
        3
 70
     0
 43
0.0
 10
178.7522363629845
 20
-16.88469820291386
 10
178.7522368569836
 20
-16.88468575041353
 10
178.752548513084
 20
-16.87592097031369
  0
LWPOLYLINE
  5
2C6
330
70
100
AcDbEntity
  8
0
 62
    18
420
        0
370
    25
100
AcDbPolyline
 90
        5
 70
     0
 43
0.0
 10
175.2500997153847
 20
-18.90707739851345
 10
175.2868374438844
 20
-18.88586275331388
 10
176.4554185817843
 20
-18.21103879751386
 10
177.6374385550848
 20
-17.52845766541368
 10
178.7522363629845
 20
-16.88469820291386
  0
LWPOLYLINE
  5
2C7
330
70
100
AcDbEntity
  8
0
 62
    18
420
        0
370
    25
100
AcDbPolyline
 90
        3
 70
     0
 43
0.0
 10
178.7522363629845
 20
-26.683350009314
 10
178.7522473936844
 20
-26.68335580691402
 10
178.7599927002843
 20
-26.68745926261395
  0
SPLINE
  5
2C8
330
70
100
AcDbEntity
  8
0
 62
    18
420
        0
370
    25
100
AcDbSpline
210
0.0
220
0.0
230
1.0
 70
     8
 71
     3
 72
     8
 73
     4
 74
     0
 42
0.0000000001
 43
0.0000000001
 40
0.0
 40
0.0
 40
0.0
 40
0.0
 40
1.0
 40
1.0
 40
1.0
 40
1.0
 10
176.249548925143
 20
-22.52839034704181
 30
0.0
 10
177.0737632177783
 20
-23.9193846022136
 30
0.0
 10
177.9080141262716
 20
-25.30440728642031
 30
0.0
 10
178.7522363630666
 20
-26.68335000930822
 30
0.0
  0
LWPOLYLINE
  5
2C9
330
70
100
AcDbEntity
  8
0
 62
    18
420
        0
370
    25
100
AcDbPolyline
 90
        5
 70
     0
 43
0.0
 10
178.752548513084
 20
-16.87592097031369
 10
178.3988691179841
 20
-16.67173039811366
 10
176.9842069372848
 20
-15.85499924631366
 10
175.7464681716848
 20
-15.14042304341352
 10
174.5088979934836
 20
-14.4259711923138
  0
SPLINE
  5
2CA
330
70
100
AcDbEntity
  8
0
 62
    18
420
        0
370
    25
100
AcDbSpline
210
0.0
220
0.0
230
1.0
 70
     8
 71
     3
 72
     8
 73
     4
 74
     0
 42
0.0000000001
 43
0.0000000001
 40
0.0
 40
0.0
 40
0.0
 40
0.0
 40
1.0
 40
1.0
 40
1.0
 40
1.0
 10
174.6854664529902
 20
-14.12981018293141
 30
0.0
 10
174.5834276591481
 20
-14.19538302558694
 30
0.0
 10
174.5180596240341
 20
-14.30502584233964
 30
0.0
 10
174.5088979934182
 20
-14.42597119225798
 30
0.0
  0
LWPOLYLINE
  5
2CB
330
70
100
AcDbEntity
  8
0
 62
    18
420
        0
370
    25
100
AcDbPolyline
 90
        4
 70
     0
 43
0.0
 10
174.6854664529838
 20
-14.12981018291344
 10
176.6990680312846
 20
-15.29193159451374
 10
177.8140466096847
 20
-15.93521846901346
 10
178.9290983687844
 20
-16.57846157651362
  0
SPLINE
  5
2CC
330
70
100
AcDbEntity
  8
0
 62
    18
420
        0
370
    25
100
AcDbSpline
210
0.0
220
0.0
230
1.0
 70
     8
 71
     3
 72
     8
 73
     4
 74
     0
 42
0.0000000001
 43
0.0000000001
 40
0.0
 40
0.0
 40
0.0
 40
0.0
 40
1.0
 40
1.0
 40
1.0
 40
1.0
 10
179.8980668460701
 20
-16.42732565919406
 30
0.0
 10
179.8923911536382
 20
-16.30260301147381
 30
0.0
 10
179.8264650001866
 20
-16.18841570628323
 30
0.0
 10
179.7212897925254
 20
-16.12113920197143
 30
0.0
  0
LINE
  5
2CD
330
70
100
AcDbEntity
  8
0
 62
    18
420
        0
370
    25
100
AcDbLine
 10
179.8980668460842
 20
-16.42732565921395
 30
0.0
 11
179.1058754223844
 21
-16.88464803371379
 31
0.0
  0
LINE
  5
2CE
330
70
100
AcDbEntity
  8
0
 62
    18
420
        0
370
    25
100
AcDbLine
 10
178.9290983687844
 20
-16.57846157651362
 30
0.0
 11
179.7212897925844
 21
-16.12113920191368
 31
0.0
  0
SPLINE
  5
2CF
330
70
100
AcDbEntity
  8
0
 62
    18
420
        0
370
    25
100
AcDbSpline
210
0.0
220
0.0
230
1.0
 70
     8
 71
     3
 72
     8
 73
     4
 74
     0
 42
0.0000000001
 43
0.0000000001
 40
0.0
 40
0.0
 40
0.0
 40
0.0
 40
1.0
 40
1.0
 40
1.0
 40
1.0
 10
170.2668139864083
 20
-11.98616813283023
 30
0.0
 10
171.3541169940353
 20
-13.98300318070288
 30
0.0
 10
172.4601329294934
 20
-15.96959180621214
 30
0.0
 10
173.5847157288954
 20
-17.94567165431915
 30
0.0
  0
LWPOLYLINE
  5
2D0
330
70
100
AcDbEntity
  8
0
 62
    18
420
        0
370
    25
100
AcDbPolyline
 90
       10
 70
     0
 43
0.0
 10
174.1541890462842
 20
-18.22731487251369
 10
174.1671930776839
 20
-18.17249387841342
 10
174.2109983881837
 20
-18.10710609901375
 10
174.2781922361836
 20
-18.07672851001376
 10
174.3609735857848
 20
-18.08492631281403
 10
174.4499432780836
 20
-18.13080440191342
 10
174.5350655887847
 20
-18.20918781591401
 10
174.6067833082839
 20
-18.31122505861359
 10
174.6571883048846
 20
-18.42532118981344
 10
174.6801303491838
 20
-18.53093432391372
  0
LWPOLYLINE
  5
2D1
330
70
100
AcDbEntity
  8
0
 62
    18
420
        0
370
    25
100
AcDbPolyline
 90
        3
 70
     0
 43
0.0
 10
174.5084850860841
 20
-14.43603359851375
 10
174.5087162351838
 20
-14.4303985901134
 10
174.5088979934836
 20
-14.4259711923138
  0
LWPOLYLINE
  5
2D2
330
70
100
AcDbEntity
  8
0
 62
    18
420
        0
370
    25
100
AcDbPolyline
 90
        4
 70
     0
 43
0.0
 10
178.7522363629845
 20
-16.88469820291386
 10
177.646966130084
 20
-16.24711914811362
 10
176.5417709712841
 20
-15.60949675391382
 10
174.5084850860841
 20
-14.43603359851375
  0
LINE
  5
2D3
330
70
100
AcDbEntity
  8
0
 62
    18
420
        0
370
    25
100
AcDbLine
 10
179.8980668460842
 20
-26.22581548701401
 30
0.0
 11
179.8980668460842
 21
-24.63463510081392
 31
0.0
  0
LINE
  5
2D4
330
70
100
AcDbEntity
  8
0
 62
    18
420
        0
370
    25
100
AcDbLine
 10
179.8980668460842
 20
-21.59029168921387
 30
0.0
 11
179.8980668460842
 21
-16.42732565921395
 31
0.0
  0
LINE
  5
2D5
330
70
100
AcDbEntity
  8
0
 62
    18
420
        0
370
    25
100
AcDbLine
 10
179.1058754223844
 20
-26.68313786151385
 30
0.0
 11
179.8980668460842
 21
-26.22581548701401
 31
0.0
  0
LINE
  5
2D6
330
70
100
AcDbEntity
  8
0
 62
    18
420
        0
370
    25
100
AcDbLine
 10
179.7212897925844
 20
-16.12113920191368
 30
0.0
 11
171.2360083445845
 21
-11.2226904884139
 31
0.0
  0
LWPOLYLINE
  5
2D7
330
70
100
AcDbEntity
  8
0
 62
    18
420
        0
370
    25
100
AcDbPolyline
 90
        4
 70
     0
 43
0.0
 10
170.4438169207845
 20
-11.68001286301384
 10
172.4564767804839
 20
-12.84267183451364
 10
173.5708969130848
 20
-13.48628413421363
 10
174.6854664529838
 20
-14.12981018291344
  0
LINE
  5
2D8
330
70
100
AcDbEntity
  8
0
 62
    18
420
        0
370
    25
100
AcDbLine
 10
171.2360083445845
 20
-11.2226904884139
 30
0.0
 11
170.4438169207845
 21
-11.68001286301384
 31
0.0
  0
LWPOLYLINE
  5
2D9
330
70
100
AcDbEntity
  8
0
 62
    18
420
        0
370
    25
100
AcDbPolyline
 90
        6
 70
     0
 43
0.0
 10
174.5088979934836
 20
-14.4259711923138
 10
174.1553522827848
 20
-14.22187493021347
 10
172.7413279847842
 20
-13.40560938401381
 10
171.5041833086841
 20
-12.69147235681373
 10
170.2671327220841
 20
-11.97739470221344
 10
170.2634158968844
 20
-11.97524940511366
  0
SPLINE
  5
2DA
330
70
100
AcDbEntity
  8
0
 62
    18
420
        0
370
    25
100
AcDbSpline
210
0.0
220
0.0
230
1.0
 70
     8
 71
     3
 72
     8
 73
     4
 74
     0
 42
0.0000000001
 43
0.0000000001
 40
0.0
 40
0.0
 40
0.0
 40
0.0
 40
1.0
 40
1.0
 40
1.0
 40
1.0
 10
170.4438169208397
 20
-11.68001286300358
 30
0.0
 10
170.3385039923352
 20
-11.74247988656725
 30
0.0
 10
170.2709500568328
 20
-11.85303574643389
 30
0.0
 10
170.2634158968677
 20
-11.97524940515024
 30
0.0
  0
SPLINE
  5
2DB
330
70
100
AcDbEntity
  8
0
 62
    18
420
        0
370
    25
100
AcDbSpline
210
0.0
220
0.0
230
1.0
 70
     8
 71
     3
 72
     8
 73
     4
 74
     0
 42
0.0000000001
 43
0.0000000001
 40
0.0
 40
0.0
 40
0.0
 40
0.0
 40
1.0
 40
1.0
 40
1.0
 40
1.0
 10
170.2634158968947
 20
-11.97524940516821
 30
0.0
 10
170.2636312991017
 20
-11.97911343394578
 30
0.0
 10
170.2647986252414
 20
-11.98286428158835
 30
0.0
 10
170.2668139865559
 20
-11.98616813316969
 30
0.0
  0
LWPOLYLINE
  5
2DC
330
70
100
AcDbEntity
  8
0
 62
    18
420
        0
370
    25
100
AcDbPolyline
 90
        4
 70
     0
 43
0.0
 10
174.5084850860841
 20
-14.43603359851375
 10
173.4037189689843
 20
-13.79816352381363
 10
172.2991073628847
 20
-13.1602042517137
 10
170.266813986484
 20
-11.98616813311386
  0
LWPOLYLINE
  5
2DD
330
70
100
AcDbEntity
  8
0
 62
    18
420
        0
370
    25
100
AcDbPolyline
 90
        4
 70
     0
 43
0.0
 10
172.613766843484
 20
-20.42949802761349
 10
172.5964281897843
 20
-20.43951092161371
 10
171.8969617260835
 20
-20.84343909221385
 10
170.266813986484
 20
-21.784819939514
  0
SPLINE
  5
2DE
330
70
100
AcDbEntity
  8
0
 62
    18
420
        0
370
    25
100
AcDbSpline
210
0.0
220
0.0
230
1.0
 70
     8
 71
     3
 72
     8
 73
     4
 74
     0
 42
0.0000000001
 43
0.0000000001
 40
0.0
 40
0.0
 40
0.0
 40
0.0
 40
1.0
 40
1.0
 40
1.0
 40
1.0
 10
170.2596924861636
 20
-21.78463245274889
 30
0.0
 10
170.2618194663018
 20
-21.78610052787703
 30
0.0
 10
170.2646127066424
 20
-21.7861740651335
 30
0.0
 10
170.2668139864738
 20
-21.78481993951336
 30
0.0
  0
LWPOLYLINE
  5
2DF
330
70
100
AcDbEntity
  8
0
 62
    18
420
        0
370
    25
100
AcDbPolyline
 90
        3
 70
     0
 43
0.0
 10
170.266813986484
 20
-11.98616813311386
 10
170.2668039436836
 20
-11.98616176531355
 10
170.2596898519839
 20
-11.98169391701394
  0
SPLINE
  5
2E0
330
70
100
AcDbEntity
  8
0
 62
    18
420
        0
370
    25
100
AcDbSpline
210
0.0
220
0.0
230
1.0
 70
     8
 71
     3
 72
     8
 73
     4
 74
     0
 42
0.0000000001
 43
0.0000000001
 40
0.0
 40
0.0
 40
0.0
 40
0.0
 40
1.0
 40
1.0
 40
1.0
 40
1.0
 10
178.7562679724621
 20
-26.69390149350323
 30
0.0
 10
178.755761798961
 20
-26.69011895683571
 30
0.0
 10
178.7543814540077
 20
-26.6865063331587
 30
0.0
 10
178.7522363629845
 20
-26.68335000938587
 30
0.0
  0
LWPOLYLINE
  5
2E1
330
70
100
AcDbEntity
  8
0
 62
    18
420
        0
370
    25
100
AcDbPolyline
 90
        7
 70
     0
 43
0.0
 10
170.2671327220841
 20
-21.79323144901378
 10
170.6205603062839
 20
-21.99756890921372
 10
172.0343257962839
 20
-22.81481428771391
 10
174.8623910204847
 20
-24.44831981941397
 10
175.9398623610845
 20
-25.07002510141366
 10
178.752548513084
 20
-26.69175771711402
 10
178.7562679724839
 20
-26.6939014935135
  0
LWPOLYLINE
  5
2E2
330
70
100
AcDbEntity
  8
0
 62
    18
420
        0
370
    25
100
AcDbPolyline
 90
        3
 70
     0
 43
0.0
 10
170.266813986484
 20
-21.784819939514
 10
170.2668144803844
 20
-21.7848318218134
 10
170.2671327220841
 20
-21.79323144901378
  0
LINE
  5
2E3
330
70
100
AcDbEntity
  8
0
 62
    18
420
        0
370
    25
100
AcDbLine
 10
174.6801303491838
 20
-18.53093432391372
 30
0.0
 11
174.6823540893838
 21
-18.57149702131377
 31
0.0
  0
LINE
  5
2E4
330
70
100
AcDbEntity
  8
0
 62
    18
420
        0
370
    25
100
AcDbLine
 10
174.1520242457842
 20
-18.26534411931358
 30
0.0
 11
174.1541890462842
 21
-18.22731487251369
 31
0.0
  0
LWPOLYLINE
  5
2E5
330
70
100
AcDbEntity
  8
0
 62
    18
420
        0
370
    25
100
AcDbPolyline
 90
        4
 70
     0
 43
0.0
 10
174.476774439284
 20
-18.156775019514
 10
174.4765847784837
 20
-18.15699300501394
 10
174.454601245684
 20
-18.17523610101347
 10
174.4545907089845
 20
-18.17524171041343
  0
SPLINE
  5
2E6
330
70
100
AcDbEntity
  8
0
 62
    18
420
        0
370
    25
100
AcDbSpline
210
0.0
220
0.0
230
1.0
 70
     8
 71
     3
 72
     8
 73
     4
 74
     0
 42
0.0000000001
 43
0.0000000001
 40
0.0
 40
0.0
 40
0.0
 40
0.0
 40
1.0
 40
1.0
 40
1.0
 40
1.0
 10
170.4438169207922
 20
-11.68001286295481
 30
0.0
 10
170.3353765415732
 20
-11.74296822744455
 30
0.0
 10
170.2661035153894
 20
-11.8564678866399
 30
0.0
 10
170.2596898519942
 20
-11.98169391702101
 30
0.0
  0
SPLINE
  5
2E7
330
70
100
AcDbEntity
  8
0
 62
    18
420
        0
370
    25
100
AcDbSpline
210
0.0
220
0.0
230
1.0
 70
     8
 71
     3
 72
     8
 73
     4
 74
     0
 42
0.0000000001
 43
0.0000000001
 40
0.0
 40
0.0
 40
0.0
 40
0.0
 40
1.0
 40
1.0
 40
1.0
 40
1.0
 10
178.7599927002201
 20
-26.6874592625748
 30
0.0
 10
178.7544572999607
 20
-26.73236206330168
 30
0.0
 10
178.7745389253825
 20
-26.77658208682791
 30
0.0
 10
178.8119920331159
 20
-26.80196252989537
 30
0.0
  0
LWPOLYLINE
  5
2E8
330
70
100
AcDbEntity
  8
0
 62
    18
420
        0
370
    25
100
AcDbPolyline
 90
        4
 70
     0
 43
0.0
 10
178.8080676017839
 20
-26.79719159101356
 10
178.7987175045837
 20
-26.79381084531396
 10
178.7684400975844
 20
-26.75357758701355
 10
178.7562679724839
 20
-26.6939014935135
  0
LWPOLYLINE
  5
2E9
330
70
100
AcDbEntity
  8
0
 62
    18
420
        0
370
    25
100
AcDbPolyline
 90
        4
 70
     0
 43
0.0
 10
170.2596924861841
 20
-21.7846324528137
 10
170.2141010382838
 20
-21.74364464931346
 10
170.1944015025843
 20
-21.6957844922138
 10
170.1961445051846
 20
-21.6855534232135
  0
SPLINE
  5
2EA
330
70
100
AcDbEntity
  8
0
 62
    18
420
        0
370
    25
100
AcDbSpline
210
0.0
220
0.0
230
1.0
 70
     8
 71
     3
 72
     8
 73
     4
 74
     0
 42
0.0000000001
 43
0.0000000001
 40
0.0
 40
0.0
 40
0.0
 40
0.0
 40
1.0
 40
1.0
 40
1.0
 40
1.0
 10
179.8462802231381
 20
-26.34027685552627
 30
0.0
 10
179.8840110841854
 20
-26.31516597758251
 30
0.0
 10
179.9041141240538
 20
-26.27073323950947
 30
0.0
 10
179.8980668461574
 20
-26.2258154869338
 30
0.0
  0
SPLINE
  5
2EB
330
70
100
AcDbEntity
  8
0
 62
    18
420
        0
370
    25
100
AcDbSpline
210
0.0
220
0.0
230
1.0
 70
     8
 71
     3
 72
     8
 73
     4
 74
     0
 42
0.0000000001
 43
0.0000000001
 40
0.0
 40
0.0
 40
0.0
 40
0.0
 40
1.0
 40
1.0
 40
1.0
 40
1.0
 10
171.2360083445793
 20
-11.22269048844214
 30
0.0
 10
171.1995367349368
 20
-11.19656242384374
 30
0.0
 10
171.151906789534
 20
-11.19184604163929
 30
0.0
 10
171.1110192311424
 20
-11.21031389583128
 30
0.0
  0
SPLINE
  5
2EC
330
70
100
AcDbEntity
  8
0
 62
    18
420
        0
370
    25
100
AcDbSpline
210
0.0
220
0.0
230
1.0
 70
     8
 71
     3
 72
     8
 73
     4
 74
     0
 42
0.0000000001
 43
0.0000000001
 40
0.0
 40
0.0
 40
0.0
 40
0.0
 40
1.0
 40
1.0
 40
1.0
 40
1.0
 10
169.168372201561
 20
-42.62439061659146
 30
0.0
 10
169.1953090291964
 20
-42.67996246869528
 30
0.0
 10
169.2381534941653
 20
-42.72627543119531
 30
0.0
 10
169.2914647068144
 20
-42.75744814418553
 30
0.0
  0
SPLINE
  5
2ED
330
70
100
AcDbEntity
  8
0
 62
    18
420
        0
370
    25
100
AcDbSpline
210
0.0
220
0.0
230
1.0
 70
     8
 71
     3
 72
     8
 73
     4
 74
     0
 42
0.0000000001
 43
0.0000000001
 40
0.0
 40
0.0
 40
0.0
 40
0.0
 40
1.0
 40
1.0
 40
1.0
 40
1.0
 10
169.1683722016265
 20
-40.78717386888565
 30
0.0
 10
168.977455877567
 20
-41.38469999743283
 30
0.0
 10
168.977455877567
 20
-42.02686448799488
 30
0.0
 10
169.1683722016265
 20
-42.62439061654204
 30
0.0
  0
LWPOLYLINE
  5
2EE
330
70
100
AcDbEntity
  8
0
 62
    18
420
        0
370
    25
100
AcDbPolyline
 90
        6
 70
     0
 43
0.0
 10
169.2914647068837
 20
-40.7160961600137
 10
169.2619935229843
 20
-40.70632454041368
 10
169.2323353125835
 20
-40.7096870296139
 10
169.2047607368843
 20
-40.72577163101355
 10
169.1815694334847
 20
-40.75461548011339
 10
169.1683722015841
 20
-40.7871738689139
  0
LINE
  5
2EF
330
70
100
AcDbEntity
  8
0
 62
    18
420
        0
370
    25
100
AcDbLine
 10
169.2914647068837
 20
-40.7160961600137
 30
0.0
 11
170.0869601306842
 21
-41.17532589331339
 31
0.0
  0
SPLINE
  5
2F0
330
70
100
AcDbEntity
  8
0
 62
    18
420
        0
370
    25
100
AcDbSpline
210
0.0
220
0.0
230
1.0
 70
     8
 71
     3
 72
     8
 73
     4
 74
     0
 42
0.0000000001
 43
0.0000000001
 40
0.0
 40
0.0
 40
0.0
 40
0.0
 40
1.0
 40
1.0
 40
1.0
 40
1.0
 10
170.1406446789512
 20
-41.34845482293168
 30
0.0
 10
170.1629297177599
 20
-41.28522181099948
 30
0.0
 10
170.1411108220521
 20
-41.21485739181591
 30
0.0
 10
170.0869601306611
 20
-41.17532589330441
 30
0.0
  0
SPLINE
  5
2F1
330
70
100
AcDbEntity
  8
0
 62
    18
420
        0
370
    25
100
AcDbSpline
210
0.0
220
0.0
230
1.0
 70
     8
 71
     3
 72
     8
 73
     4
 74
     0
 42
0.0000000001
 43
0.0000000001
 40
0.0
 40
0.0
 40
0.0
 40
0.0
 40
1.0
 40
1.0
 40
1.0
 40
1.0
 10
170.1406446790256
 20
-41.34845482288548
 30
0.0
 10
169.9497283549674
 20
-41.94598095143265
 30
0.0
 10
169.9497283549674
 20
-42.58814544199469
 30
0.0
 10
170.1406446790256
 20
-43.18567157054187
 30
0.0
  0
LWPOLYLINE
  5
2F2
330
70
100
AcDbEntity
  8
0
 62
    18
420
        0
370
    25
100
AcDbPolyline
 90
        6
 70
     0
 43
0.0
 10
170.0869601306842
 20
-43.21667787741398
 10
170.1127513677841
 20
-43.22857692631398
 10
170.1320756978842
 20
-43.23117701801391
 10
170.1437635457847
 20
-43.2242666706137
 10
170.1464504073838
 20
-43.20725978381345
 10
170.1406446789845
 20
-43.18567157051364
  0
LINE
  5
2F3
330
70
100
AcDbEntity
  8
0
 62
    18
420
        0
370
    25
100
AcDbLine
 10
170.0869601306842
 20
-43.21667787741398
 30
0.0
 11
169.2914647068837
 21
-42.75744814411366
 31
0.0
  0
LINE
  5
2F4
330
70
100
AcDbEntity
  8
0
 62
    18
420
        0
370
    25
100
AcDbLine
 10
189.4440089689839
 20
-30.20485981641371
 30
0.0
 11
170.1406446789845
 21
-41.34845482291371
 31
0.0
  0
LINE
  5
2F5
330
70
100
AcDbEntity
  8
0
 62
    18
420
        0
370
    25
100
AcDbLine
 10
189.4440089689839
 20
-30.20485981641371
 30
0.0
 11
189.4440089689839
 21
-32.04207656401363
 31
0.0
  0
LINE
  5
2F6
330
70
100
AcDbEntity
  8
0
 62
    18
420
        0
370
    25
100
AcDbLine
 10
170.1406446789845
 20
-43.18567157051364
 30
0.0
 11
189.4440089689839
 21
-32.04207656401363
 31
0.0
  0
LINE
  5
2F7
330
70
100
AcDbEntity
  8
0
 62
    18
420
        0
370
    25
100
AcDbLine
 10
170.0869601306842
 20
-41.17532589331339
 30
0.0
 11
189.3556191251839
 21
-30.05176582741342
 31
0.0
  0
SPLINE
  5
2F8
330
70
100
AcDbEntity
  8
0
 62
    18
420
        0
370
    25
100
AcDbSpline
210
0.0
220
0.0
230
1.0
 70
     8
 71
     3
 72
     8
 73
     4
 74
     0
 42
0.0000000001
 43
0.0000000001
 40
0.0
 40
0.0
 40
0.0
 40
0.0
 40
1.0
 40
1.0
 40
1.0
 40
1.0
 10
189.4440089690647
 20
-30.20485981640986
 30
0.0
 10
189.441171250704
 20
-30.14249791811519
 30
0.0
 10
189.4082075798445
 20
-30.0854038036583
 30
0.0
 10
189.3556191252031
 20
-30.05176582745962
 30
0.0
  0
LINE
  5
2F9
330
70
100
AcDbEntity
  8
0
 62
    18
420
        0
370
    25
100
AcDbLine
 10
188.5601237012845
 20
-29.59253609421383
 30
0.0
 11
169.2914647068837
 21
-40.7160961600137
 31
0.0
  0
LINE
  5
2FA
330
70
100
AcDbEntity
  8
0
 62
    18
420
        0
370
    25
100
AcDbLine
 10
189.3556191251839
 20
-30.05176582741342
 30
0.0
 11
188.5601237012845
 21
-29.59253609421383
 31
0.0
  0
LWPOLYLINE
  5
2FB
330
70
100
AcDbEntity
  8
0
 62
    18
420
        0
370
    25
100
AcDbPolyline
 90
       11
 70
     0
 43
0.0
 10
189.557884567684
 20
-27.21202132201361
 10
189.8261718958843
 20
-27.40163991761366
 10
190.133633649684
 20
-27.69128328721377
 10
190.3588208862841
 20
-28.00512592831353
 10
190.4961895662836
 20
-28.33544075021342
 10
190.542358475384
 20
-28.67409454591342
 10
190.4961892369842
 20
-29.01274815151392
 10
190.3588189928844
 20
-29.3430626407134
 10
190.1336331557837
 20
-29.65690665991381
 10
189.8261705787841
 20
-29.94654803361367
 10
189.6212348206841
 20
-30.09520159091351
  0
LINE
  5
2FC
330
70
100
AcDbEntity
  8
0
 62
    18
420
        0
370
    25
100
AcDbLine
 10
189.3952694313836
 20
-27.11553578231363
 30
0.0
 11
189.355620442284
 21
-27.0922872675135
 31
0.0
  0
SPLINE
  5
2FD
330
70
100
AcDbEntity
  8
0
 62
    18
420
        0
370
    25
100
AcDbSpline
210
0.0
220
0.0
230
1.0
 70
     8
 71
     3
 72
     8
 73
     4
 74
     0
 42
0.0000000001
 43
0.0000000001
 40
0.0
 40
0.0
 40
0.0
 40
0.0
 40
1.0
 40
1.0
 40
1.0
 40
1.0
 10
189.4181154105837
 20
-27.08609873365108
 30
0.0
 10
189.3976714565359
 20
-27.07686483765953
 30
0.0
 10
189.3738563431515
 20
-27.07922311770637
 30
0.0
 10
189.355620442275
 20
-27.09228726756291
 30
0.0
  0
SPLINE
  5
2FE
330
70
100
AcDbEntity
  8
0
 62
    18
420
        0
370
    25
100
AcDbSpline
210
0.0
220
0.0
230
1.0
 70
     8
 71
     3
 72
     8
 73
     4
 74
     0
 42
0.0000000001
 43
0.0000000001
 40
0.0
 40
0.0
 40
0.0
 40
0.0
 40
1.0
 40
1.0
 40
1.0
 40
1.0
 10
189.5630000590517
 20
-31.97015150717458
 30
0.0
 10
190.1177794847722
 20
-31.6837197932754
 30
0.0
 10
190.4873312639583
 20
-31.13324002252441
 30
0.0
 10
190.542358475366
 20
-30.51131129354029
 30
0.0
  0
LWPOLYLINE
  5
2FF
330
70
100
AcDbEntity
  8
0
 62
    18
420
        0
370
    25
100
AcDbPolyline
 90
        9
 70
     0
 43
0.0
 10
188.560125347684
 20
-27.5515168107137
 10
188.8710326062845
 20
-27.77021748181393
 10
189.102055946584
 20
-28.01973004781347
 10
189.2443219751837
 20
-28.29046900621381
 10
189.2923575286839
 20
-28.57202645241403
 10
189.2443221398847
 20
-28.85358532431359
 10
189.1020570990845
 20
-29.12432295211375
 10
188.8710327709843
 20
-29.37383684871347
 10
188.5601237012845
 20
-29.59253609421383
  0
LINE
  5
300
330
70
100
AcDbEntity
  8
0
 62
    18
420
        0
370
    25
100
AcDbLine
 10
188.560125347684
 20
-27.5515168107137
 30
0.0
 11
189.355620442284
 21
-27.0922872675135
 31
0.0
  0
SPLINE
  5
301
330
70
100
AcDbEntity
  8
0
 62
    18
420
        0
370
    25
100
AcDbSpline
210
0.0
220
0.0
230
1.0
 70
     8
 71
     3
 72
     8
 73
     4
 74
     0
 42
0.0000000001
 43
0.0000000001
 40
0.0
 40
0.0
 40
0.0
 40
0.0
 40
1.0
 40
1.0
 40
1.0
 40
1.0
 10
188.5601253476045
 20
-27.55151681066044
 30
0.0
 10
188.5075377518747
 20
-27.58515500342805
 30
0.0
 10
188.4745747172354
 20
-27.64224865402573
 30
0.0
 10
188.4717369854683
 20
-27.70460994422906
 30
0.0
  0
LINE
  5
302
330
70
100
AcDbEntity
  8
0
 62
    18
420
        0
370
    25
100
AcDbLine
 10
188.4717369854838
 20
-27.70460994421366
 30
0.0
 11
188.4717369854838
 21
-29.54182669191368
 31
0.0
  0
LINE
  5
303
330
70
100
AcDbEntity
  8
0
 62
    18
420
        0
370
    25
100
AcDbLine
 10
123.1527472449837
 20
10.20735884768649
 30
0.0
 11
188.560125347684
 21
-27.5515168107137
 31
0.0
  0
LINE
  5
304
330
70
100
AcDbEntity
  8
0
 62
    18
420
        0
370
    25
100
AcDbLine
 10
188.4717369854838
 20
-27.70460994421366
 30
0.0
 11
123.0643588827846
 21
10.05426571418652
 31
0.0
  0
SPLINE
  5
305
330
70
100
AcDbEntity
  8
0
 62
    18
420
        0
370
    25
100
AcDbSpline
210
0.0
220
0.0
230
1.0
 70
     8
 71
     3
 72
     8
 73
     4
 74
     0
 42
0.0000000001
 43
0.0000000001
 40
0.0
 40
0.0
 40
0.0
 40
0.0
 40
1.0
 40
1.0
 40
1.0
 40
1.0
 10
123.1527472450042
 20
10.20735884773975
 30
0.0
 10
123.1001596492744
 20
10.17372065497213
 30
0.0
 10
123.0671966146364
 20
10.11662700437445
 30
0.0
 10
123.0643588828681
 20
10.05426571417177
 30
0.0
  0
LINE
  5
306
330
70
100
AcDbEntity
  8
0
 62
    18
420
        0
370
    25
100
AcDbLine
 10
123.0643588827846
 20
8.217048966486499
 30
0.0
 11
188.4717369854838
 21
-29.54182669191368
 31
0.0
  0
LINE
  5
307
330
70
100
AcDbEntity
  8
0
 62
    18
420
        0
370
    25
100
AcDbLine
 10
123.0643588827846
 20
10.05426571418652
 30
0.0
 11
123.0643588827846
 21
8.217048966486499
 31
0.0
  0
LWPOLYLINE
  5
308
330
70
100
AcDbEntity
  8
0
 62
    18
420
        0
370
    25
100
AcDbPolyline
 90
       22
 70
     0
 43
0.0
 10
138.8416799600844
 20
0.027603752786183
 10
138.8083009731836
 20
-0.2088490841139121
 10
138.7111327309838
 20
-0.3857551070137187
 10
138.5588074350839
 20
-0.4873945716135227
 10
138.3648594919846
 20
-0.5047361150136601
 10
138.1465230116838
 20
-0.4362393710135507
 10
137.9231987151847
 20
-0.2879909751134304
 10
137.7147285486835
 20
-0.073162706913829
 10
137.5396360519843
 20
0.189157081786586
 10
137.4134799976837
 20
0.4756595244860734
 10
137.3474688132841
 20
0.7608882031865797
 10
137.3474688132841
 20
1.019498771086567
 10
137.4134799976837
 20
1.228512558586219
 10
137.5396360519843
 20
1.369358321286345
 10
137.7147285486848
 20
1.429520616386051
 10
137.9231987151847
 20
1.403654353686437
 10
138.1465230116838
 20
1.294058005186578
 10
138.3648594919846
 20
1.110468814786388
 10
138.5588074350839
 20
0.8691997427860503
 10
138.7111327309838
 20
0.5916892349861599
 10
138.8083009731836
 20
0.3025951476863772
 10
138.8416799600844
 20
0.027603752786183
  0
LWPOLYLINE
  5
309
330
70
100
AcDbEntity
  8
0
 62
    18
420
        0
370
    25
100
AcDbPolyline
 90
       22
 70
     0
 43
0.0
 10
174.197018229184
 20
-20.38259858661346
 10
174.1636405593846
 20
-20.61905218381397
 10
174.0664710000847
 20
-20.795957446414
 10
173.9141457041836
 20
-20.8975969110138
 10
173.7201990781843
 20
-20.91493921471372
 10
173.5018625977847
 20
-20.84644247071361
 10
173.2785369842843
 20
-20.69819331451371
 10
173.0700668177845
 20
-20.48336504631347
 10
172.8949743210839
 20
-20.2210452576137
 10
172.7688182667846
 20
-19.93454281491356
 10
172.7028083994838
 20
-19.64931489651348
 10
172.7028083994838
 20
-19.39070432861349
 10
172.7688182667846
 20
-19.18168978081342
 10
172.8949743210839
 20
-19.04084401801383
 10
173.0700668177845
 20
-18.98068172301359
 10
173.2785369842843
 20
-19.00654798571384
 10
173.5018625977847
 20
-19.11614509451348
 10
173.7201990781843
 20
-19.29973428491367
 10
173.9141457041836
 20
-19.54100259661359
 10
174.0664710000847
 20
-19.81851310431401
 10
174.1636405593846
 20
-20.10760795201369
 10
174.197018229184
 20
-20.38259858661346
  0
LINE
  5
30A
330
70
100
AcDbEntity
  8
0
 62
    18
420
        0
370
    25
100
AcDbLine
 10
123.9482423395836
 20
10.66658839088605
 30
0.0
 11
123.1527472449837
 21
10.20735884768649
 31
0.0
  0
LINE
  5
30B
330
70
100
AcDbEntity
  8
0
 62
    18
420
        0
370
    25
100
AcDbLine
 10
189.355620442284
 20
-27.0922872675135
 30
0.0
 11
123.9482423395836
 21
10.66658839088605
 31
0.0
  0
LWPOLYLINE
  5
30C
330
70
100
AcDbEntity
  8
0
 62
    18
420
        0
370
    25
100
AcDbPolyline
 90
       16
 70
     0
 43
0.0
 10
173.4914100147842
 20
-19.10929097751372
 10
173.3292539663836
 20
-19.05155749671341
 10
173.1444558406842
 20
-19.05360802951378
 10
172.9977979787846
 20
-19.13829871591358
 10
172.9036379679842
 20
-19.29734035151377
 10
172.8711927971843
 20
-19.51516482561378
 10
172.9036379679842
 20
-19.77044969651364
 10
172.9977979787846
 20
-20.03820616651383
 10
173.1444558406842
 20
-20.29222441611346
 10
173.3292539663836
 20
-20.50763832321341
 10
173.5341060893837
 20
-20.66336351741347
 10
173.7389568952837
 20
-20.74415478971392
 10
173.9237563380845
 20
-20.74210501721398
 10
174.070412882884
 20
-20.65741357051375
 10
174.1645728936844
 20
-20.49837193491356
 10
174.1956351210837
 20
-20.32917693781374
  0
SPLINE
  5
30D
330
70
100
AcDbEntity
  8
0
 62
    18
420
        0
370
    25
100
AcDbSpline
210
0.0
220
0.0
230
1.0
 70
     8
 71
     3
 72
     8
 73
     4
 74
     0
 42
0.0000000001
 43
0.0000000001
 40
0.0
 40
0.0
 40
0.0
 40
0.0
 40
1.0
 40
1.0
 40
1.0
 40
1.0
 10
173.8471605323798
 20
-19.44729045620673
 30
0.0
 10
173.9032529854358
 20
-19.58894867901651
 30
0.0
 10
173.9792800668345
 20
-19.7218743246702
 30
0.0
 10
174.0729411998527
 20
-19.84204506795292
 30
0.0
  0
LWPOLYLINE
  5
30E
330
70
100
AcDbEntity
  8
0
 62
    18
420
        0
370
    25
100
AcDbPolyline
 90
        6
 70
     0
 43
0.0
 10
99.55306064608429
 20
-0.4569724353137135
 10
99.5235868280841
 20
-0.4471992950133804
 10
99.4939312517841
 20
-0.4505633049139004
 10
99.46635404198417
 20
-0.4666463856138927
 10
99.44316273858445
 20
-0.4954902347137307
 10
99.42996550668391
 20
-0.5280486235135929
  0
LINE
  5
30F
330
70
100
AcDbEntity
  8
0
 62
    18
420
        0
370
    25
100
AcDbLine
 10
99.55306064608429
 20
-0.4569724353137135
 30
0.0
 11
100.3485560699842
 21
-0.9162021685139388
 31
0.0
  0
SPLINE
  5
310
330
70
100
AcDbEntity
  8
0
 62
    18
420
        0
370
    25
100
AcDbSpline
210
0.0
220
0.0
230
1.0
 70
     8
 71
     3
 72
     8
 73
     4
 74
     0
 42
0.0000000001
 43
0.0000000001
 40
0.0
 40
0.0
 40
0.0
 40
0.0
 40
1.0
 40
1.0
 40
1.0
 40
1.0
 10
100.4022379840484
 20
-1.089329577519832
 30
0.0
 10
100.4245224139598
 20
-1.026097578257373
 30
0.0
 10
100.4027047853182
 20
-0.9557344107244624
 30
0.0
 10
100.3485560699355
 20
-0.9162021685710499
 30
0.0
  0
SPLINE
  5
311
330
70
100
AcDbEntity
  8
0
 62
    18
420
        0
370
    25
100
AcDbSpline
210
0.0
220
0.0
230
1.0
 70
     8
 71
     3
 72
     8
 73
     4
 74
     0
 42
0.0000000001
 43
0.0000000001
 40
0.0
 40
0.0
 40
0.0
 40
0.0
 40
1.0
 40
1.0
 40
1.0
 40
1.0
 10
100.402237984126
 20
-1.089329577485822
 30
0.0
 10
100.2113216600672
 20
-1.686855706032352
 30
0.0
 10
100.2113216600672
 20
-2.32902019659504
 30
0.0
 10
100.402237984126
 20
-2.92654632514157
 30
0.0
  0
LWPOLYLINE
  5
312
330
70
100
AcDbEntity
  8
0
 62
    18
420
        0
370
    25
100
AcDbPolyline
 90
        6
 70
     0
 43
0.0
 10
100.3485560699842
 20
-2.95755415261389
 10
100.3743446728839
 20
-2.96945168091368
 10
100.3936716370841
 20
-2.972053293313919
 10
100.4053568508844
 20
-2.965141425213408
 10
100.4080437124842
 20
-2.948134538413787
 10
100.4022379840843
 20
-2.926546325113977
  0
LINE
  5
313
330
70
100
AcDbEntity
  8
0
 62
    18
420
        0
370
    25
100
AcDbLine
 10
100.3485560699842
 20
-2.95755415261389
 30
0.0
 11
99.55306064608429
 21
-2.498324419413665
 31
0.0
  0
SPLINE
  5
314
330
70
100
AcDbEntity
  8
0
 62
    18
420
        0
370
    25
100
AcDbSpline
210
0.0
220
0.0
230
1.0
 70
     8
 71
     3
 72
     8
 73
     4
 74
     0
 42
0.0000000001
 43
0.0000000001
 40
0.0
 40
0.0
 40
0.0
 40
0.0
 40
1.0
 40
1.0
 40
1.0
 40
1.0
 10
99.42996550671729
 20
-2.365265371200784
 30
0.0
 10
99.45690273881687
 20
-2.420838187211007
 30
0.0
 10
99.4997481940403
 20
-2.467151758332411
 30
0.0
 10
99.55306064614909
 20
-2.498324419473985
 30
0.0
  0
SPLINE
  5
315
330
70
100
AcDbEntity
  8
0
 62
    18
420
        0
370
    25
100
AcDbSpline
210
0.0
220
0.0
230
1.0
 70
     8
 71
     3
 72
     8
 73
     4
 74
     0
 42
0.0000000001
 43
0.0000000001
 40
0.0
 40
0.0
 40
0.0
 40
0.0
 40
1.0
 40
1.0
 40
1.0
 40
1.0
 10
99.42996550662616
 20
-0.5280486234853581
 30
0.0
 10
99.23904918256731
 20
-1.125574752032529
 30
0.0
 10
99.23904918256731
 20
-1.767739242594576
 30
0.0
 10
99.42996550662616
 20
-2.365265371141748
 30
0.0
  0
LINE
  5
316
330
70
100
AcDbEntity
  8
0
 62
    18
420
        0
370
    25
100
AcDbLine
 10
119.7056022740836
 20
10.05426542898659
 30
0.0
 11
100.4022379840843
 21
-1.089329577513415
 31
0.0
  0
LINE
  5
317
330
70
100
AcDbEntity
  8
0
 62
    18
420
        0
370
    25
100
AcDbLine
 10
119.7056022740836
 20
10.05426542898659
 30
0.0
 11
119.7056022740836
 21
8.217048681386033
 31
0.0
  0
LINE
  5
318
330
70
100
AcDbEntity
  8
0
 62
    18
420
        0
370
    25
100
AcDbLine
 10
100.4022379840843
 20
-2.926546325113977
 30
0.0
 11
119.7056022740836
 21
8.217048681386033
 31
0.0
  0
LINE
  5
319
330
70
100
AcDbEntity
  8
0
 62
    18
420
        0
370
    25
100
AcDbLine
 10
100.3485560699842
 20
-0.9162021685139388
 30
0.0
 11
119.6172150643838
 21
10.20735789728657
 31
0.0
  0
SPLINE
  5
31A
330
70
100
AcDbEntity
  8
0
 62
    18
420
        0
370
    25
100
AcDbSpline
210
0.0
220
0.0
230
1.0
 70
     8
 71
     3
 72
     8
 73
     4
 74
     0
 42
0.0000000001
 43
0.0000000001
 40
0.0
 40
0.0
 40
0.0
 40
0.0
 40
1.0
 40
1.0
 40
1.0
 40
1.0
 10
119.7056022741234
 20
10.05426542907515
 30
0.0
 10
119.7027645345058
 20
10.11662624707397
 30
0.0
 10
119.6698019940685
 20
10.17371953799485
 30
0.0
 10
119.6172150644402
 20
10.2073578973469
 30
0.0
  0
LINE
  5
31B
330
70
100
AcDbEntity
  8
0
 62
    18
420
        0
370
    25
100
AcDbLine
 10
118.8217196405846
 20
10.66658763048616
 30
0.0
 11
99.55306064608429
 21
-0.4569724353137135
 31
0.0
  0
LINE
  5
31C
330
70
100
AcDbEntity
  8
0
 62
    18
420
        0
370
    25
100
AcDbLine
 10
119.6172150643838
 20
10.20735789728657
 30
0.0
 11
118.8217196405846
 21
10.66658763048616
 31
0.0
  0
SPLINE
  5
31D
330
70
100
AcDbEntity
  8
0
 62
    18
420
        0
370
    25
100
AcDbSpline
210
0.0
220
0.0
230
1.0
 70
     8
 71
     3
 72
     8
 73
     4
 74
     0
 42
0.0000000001
 43
0.0000000001
 40
0.0
 40
0.0
 40
0.0
 40
0.0
 40
1.0
 40
1.0
 40
1.0
 40
1.0
 10
118.8217196405961
 20
10.6665876305375
 30
0.0
 10
118.8034835876099
 20
10.67965219625095
 30
0.0
 10
118.7796680782832
 20
10.68201068053583
 30
0.0
 10
118.7592237667884
 20
10.67277668718249
 30
0.0
  0
LWPOLYLINE
  5
31E
330
70
100
AcDbEntity
  8
0
 62
    18
420
        0
370
    25
100
AcDbPolyline
 90
       16
 70
     0
 43
0.0
 10
138.1360704285845
 20
1.300912122186342
 10
137.973915697284
 20
1.358644842686225
 10
137.7891162545846
 20
1.356595070186284
 10
137.6424597096836
 20
1.271903623486053
 10
137.5482996988846
 20
1.11286198788651
 10
137.5158545280847
 20
0.8950375137865009
 10
137.5482996988846
 20
0.6397526427865327
 10
137.6424597096836
 20
0.3719961727863411
 10
137.7891162545846
 20
0.1179786835865982
 10
137.973915697284
 20
-0.0974359838137746
 10
138.1787665031839
 20
-0.2531604177134094
 10
138.383618626184
 20
-0.3339524503136378
 10
138.5684167518847
 20
-0.3319019175139155
 10
138.7150746137844
 20
-0.2472112311134651
 10
138.8092346246835
 20
-0.0881695956133856
 10
138.8402955348839
 20
0.0810261618863175
  0
SPLINE
  5
31F
330
70
100
AcDbEntity
  8
0
 62
    18
420
        0
370
    25
100
AcDbSpline
210
0.0
220
0.0
230
1.0
 70
     8
 71
     3
 72
     8
 73
     4
 74
     0
 42
0.0000000001
 43
0.0000000001
 40
0.0
 40
0.0
 40
0.0
 40
0.0
 40
1.0
 40
1.0
 40
1.0
 40
1.0
 10
138.4918209462661
 20
0.9629126435433843
 30
0.0
 10
138.5479139584113
 20
0.8212541821235895
 30
0.0
 10
138.6239414708816
 20
0.6883283021772407
 30
0.0
 10
138.7176029308275
 20
0.568157271457624
 30
0.0
  0
SPLINE
  5
320
330
70
100
AcDbEntity
  8
0
 62
    18
420
        0
370
    25
100
AcDbSpline
210
0.0
220
0.0
230
1.0
 70
     8
 71
     3
 72
     8
 73
     4
 74
     0
 42
0.0000000001
 43
0.0000000001
 40
0.0
 40
0.0
 40
0.0
 40
0.0
 40
1.0
 40
1.0
 40
1.0
 40
1.0
 10
123.1527472450042
 20
10.20735884777183
 30
0.0
 10
122.0442188970753
 20
10.78172834777693
 30
0.0
 10
120.7257431035771
 20
10.78172799334344
 30
0.0
 10
119.6172150644544
 20
10.2073578973469
 30
0.0
  0
SPLINE
  5
321
330
70
100
AcDbEntity
  8
0
 62
    18
420
        0
370
    25
100
AcDbSpline
210
0.0
220
0.0
230
1.0
 70
     8
 71
     3
 72
     8
 73
     4
 74
     0
 42
0.0000000001
 43
0.0000000001
 40
0.0
 40
0.0
 40
0.0
 40
0.0
 40
1.0
 40
1.0
 40
1.0
 40
1.0
 10
122.1208361537021
 20
11.23594690453769
 30
0.0
 10
120.9886460876027
 20
11.39603187883965
 30
0.0
 10
119.8347622009775
 20
11.19689538598276
 30
0.0
 10
118.8217196405229
 20
10.6665876305452
 30
0.0
  0
SPLINE
  5
322
330
70
100
AcDbEntity
  8
0
 62
    18
420
        0
370
    25
100
AcDbSpline
210
0.0
220
0.0
230
1.0
 70
     8
 71
     3
 72
     8
 73
     4
 74
     0
 42
0.0000000001
 43
0.0000000001
 40
0.0
 40
0.0
 40
0.0
 40
0.0
 40
1.0
 40
1.0
 40
1.0
 40
1.0
 10
123.0643588828
 20
10.05426571415123
 30
0.0
 10
122.0112568022453
 20
10.59991740839227
 30
0.0
 10
120.758704261986
 20
10.5999173020621
 30
0.0
 10
119.7056022740734
 20
10.05426542902317
 30
0.0
  0
SPLINE
  5
323
330
70
100
AcDbEntity
  8
0
 62
    18
420
        0
370
    25
100
AcDbSpline
210
0.0
220
0.0
230
1.0
 70
     8
 71
     3
 72
     8
 73
     4
 74
     0
 42
0.0000000001
 43
0.0000000001
 40
0.0
 40
0.0
 40
0.0
 40
0.0
 40
1.0
 40
1.0
 40
1.0
 40
1.0
 10
123.0643588828
 20
8.217048966551312
 30
0.0
 10
122.0112568022453
 20
8.762700660792354
 30
0.0
 10
120.758704261986
 20
8.762700554462183
 30
0.0
 10
119.7056022740734
 20
8.217048681423252
 30
0.0
  0
SPLINE
  5
324
330
70
100
AcDbEntity
  8
0
 62
    18
420
        0
370
    25
100
AcDbSpline
210
0.0
220
0.0
230
1.0
 70
     8
 71
     3
 72
     8
 73
     4
 74
     0
 42
0.0000000001
 43
0.0000000001
 40
0.0
 40
0.0
 40
0.0
 40
0.0
 40
1.0
 40
1.0
 40
1.0
 40
1.0
 10
123.1131618052881
 20
8.188358368121308
 30
0.0
 10
122.0668816322152
 20
8.708668550066109
 30
0.0
 10
120.842233779247
 20
8.731552864143557
 30
0.0
 10
119.7772453310936
 20
8.250694786011475
 30
0.0
  0
SPLINE
  5
325
330
70
100
AcDbEntity
  8
0
 62
    18
420
        0
370
    25
100
AcDbSpline
210
0.0
220
0.0
230
1.0
 70
     8
 71
     3
 72
     8
 73
     4
 74
     0
 42
0.0000000001
 43
0.0000000001
 40
0.0
 40
0.0
 40
0.0
 40
0.0
 40
1.0
 40
1.0
 40
1.0
 40
1.0
 10
143.3972102440421
 20
3.53428136910327
 30
0.0
 10
143.5072159840224
 20
3.476569874369352
 30
0.0
 10
143.6378152794216
 20
3.47334438190583
 30
0.0
 10
143.7505358361872
 20
3.525555066016434
 30
0.0
  0
SPLINE
  5
326
330
70
100
AcDbEntity
  8
0
 62
    18
420
        0
370
    25
100
AcDbSpline
210
0.0
220
0.0
230
1.0
 70
     8
 71
     3
 72
     8
 73
     4
 74
     0
 42
0.0000000001
 43
0.0000000001
 40
0.0
 40
0.0
 40
0.0
 40
0.0
 40
1.0
 40
1.0
 40
1.0
 40
1.0
 10
143.5737600997143
 20
3.831740762899491
 30
0.0
 10
143.4713599078381
 20
3.765913936566287
 30
0.0
 10
143.4059455246069
 20
3.655700746612532
 30
0.0
 10
143.3972102440241
 20
3.534281369103911
 30
0.0
  0
SPLINE
  5
327
330
70
100
AcDbEntity
  8
0
 62
    18
420
        0
370
    25
100
AcDbSpline
210
0.0
220
0.0
230
1.0
 70
     8
 71
     3
 72
     8
 73
     4
 74
     0
 42
0.0000000001
 43
0.0000000001
 40
0.0
 40
0.0
 40
0.0
 40
0.0
 40
1.0
 40
1.0
 40
1.0
 40
1.0
 10
143.7505358361975
 20
3.525555066010659
 30
0.0
 10
143.744861015633
 20
3.650277431686852
 30
0.0
 10
143.6789352096691
 20
3.764464702216056
 30
0.0
 10
143.5737600997425
 20
3.831740762893717
 30
0.0
  0
SPLINE
  5
328
330
70
100
AcDbEntity
  8
0
 62
    18
420
        0
370
    25
100
AcDbSpline
210
0.0
220
0.0
230
1.0
 70
     8
 71
     3
 72
     8
 73
     4
 74
     0
 42
0.0000000001
 43
0.0000000001
 40
0.0
 40
0.0
 40
0.0
 40
0.0
 40
1.0
 40
1.0
 40
1.0
 40
1.0
 10
143.4046531141
 20
3.525683893549599
 30
0.0
 10
143.5133215636391
 20
3.470451184646829
 30
0.0
 10
143.6418262728622
 20
3.470403321757376
 30
0.0
 10
143.7505358362167
 20
3.525555066001033
 30
0.0
  0
SPLINE
  5
329
330
70
100
AcDbEntity
  8
0
 62
    18
420
        0
370
    25
100
AcDbSpline
210
0.0
220
0.0
230
1.0
 70
     8
 71
     3
 72
     8
 73
     4
 74
     0
 42
0.0000000001
 43
0.0000000001
 40
0.0
 40
0.0
 40
0.0
 40
0.0
 40
1.0
 40
1.0
 40
1.0
 40
1.0
 10
143.4046531141243
 20
-6.277256162845221
 30
0.0
 10
143.5141905889255
 20
-6.330383140132295
 30
0.0
 10
143.6423598647964
 20
-6.328781814575124
 30
0.0
 10
143.7505358362411
 20
-6.272934761801599
 30
0.0
  0
LWPOLYLINE
  5
32A
330
70
100
AcDbEntity
  8
0
 62
    18
420
        0
370
    25
100
AcDbPolyline
 90
        3
 70
     0
 43
0.0
 10
143.3968967768836
 20
3.525504896786196
 10
143.3968972707839
 20
3.525517349286531
 10
143.3972102440844
 20
3.534281369086586
  0
SPLINE
  5
32B
330
70
100
AcDbEntity
  8
0
 62
    18
420
        0
370
    25
100
AcDbSpline
210
0.0
220
0.0
230
1.0
 70
     8
 71
     3
 72
     8
 73
     4
 74
     0
 42
0.0000000001
 43
0.0000000001
 40
0.0
 40
0.0
 40
0.0
 40
0.0
 40
1.0
 40
1.0
 40
1.0
 40
1.0
 10
143.4046531140936
 20
3.525683893544465
 30
0.0
 10
143.4022272331262
 20
3.527038117766152
 30
0.0
 10
143.3992576043992
 20
3.526969586194054
 30
0.0
 10
143.3968967768784
 20
3.525504896764378
 30
0.0
  0
LWPOLYLINE
  5
32C
330
70
100
AcDbEntity
  8
0
 62
    18
420
        0
370
    25
100
AcDbPolyline
 90
        4
 70
     0
 43
0.0
 10
135.0884786517837
 20
8.730189476386433
 10
137.8994631247838
 20
7.106456235986149
 10
140.7112948152839
 20
5.483212083986076
 10
143.5737600997836
 20
3.831740762886016
  0
LWPOLYLINE
  5
32D
330
70
100
AcDbEntity
  8
0
 62
    18
420
        0
370
    25
100
AcDbPolyline
 90
        7
 70
     0
 43
0.0
 10
143.3972102440844
 20
3.534281369086586
 10
143.0435296140848
 20
3.738472749186352
 10
141.6288701498837
 20
4.555202047286591
 10
138.8000801974845
 20
6.188289202286108
 10
137.7228544939843
 20
6.810136287586368
 10
134.9117944529845
 20
8.432807637186192
 10
134.9080776277848
 20
8.43495293418651
  0
SPLINE
  5
32E
330
70
100
AcDbEntity
  8
0
 62
    18
420
        0
370
    25
100
AcDbSpline
210
0.0
220
0.0
230
1.0
 70
     8
 71
     3
 72
     8
 73
     4
 74
     0
 42
0.0000000001
 43
0.0000000001
 40
0.0
 40
0.0
 40
0.0
 40
0.0
 40
1.0
 40
1.0
 40
1.0
 40
1.0
 10
135.0884786517503
 20
8.730189476375525
 30
0.0
 10
134.983158768065
 20
8.66772950015669
 30
0.0
 10
134.9156023432722
 20
8.557169566424557
 30
0.0
 10
134.9080776277771
 20
8.434952934228221
 30
0.0
  0
LWPOLYLINE
  5
32F
330
70
100
AcDbEntity
  8
0
 62
    18
420
        0
370
    25
100
AcDbPolyline
 90
        5
 70
     0
 43
0.0
 10
139.8947618578837
 20
1.503124680886419
 10
140.204815807484
 20
1.682173009286368
 10
140.9121686709836
 20
2.090650528786484
 10
141.6470147797844
 20
2.515002933886326
 10
143.3968967768836
 20
3.525504896786196
  0
LWPOLYLINE
  5
330
330
70
100
AcDbEntity
  8
0
 62
    18
420
        0
370
    25
100
AcDbPolyline
 90
        3
 70
     0
 43
0.0
 10
143.3968967768836
 20
-6.273146909613939
 10
143.3969078074847
 20
-6.273152707213961
 10
143.4046531140846
 20
-6.277256162913882
  0
SPLINE
  5
331
330
70
100
AcDbEntity
  8
0
 62
    18
420
        0
370
    25
100
AcDbSpline
210
0.0
220
0.0
230
1.0
 70
     8
 71
     3
 72
     8
 73
     4
 74
     0
 42
0.0000000001
 43
0.0000000001
 40
0.0
 40
0.0
 40
0.0
 40
0.0
 40
1.0
 40
1.0
 40
1.0
 40
1.0
 10
140.8942093389921
 20
-2.118187247468804
 30
0.0
 10
141.7184248192839
 20
-3.509180792999741
 30
0.0
 10
142.5526757225769
 20
-4.894203468570466
 30
0.0
 10
143.3968967767783
 20
-6.273146909506775
 30
0.0
  0
LWPOLYLINE
  5
332
330
70
100
AcDbEntity
  8
0
 62
    18
420
        0
370
    25
100
AcDbPolyline
 90
       11
 70
     0
 43
0.0
 10
138.7966858943841
 20
2.144858172586209
 10
138.8115587105836
 20
2.237540759386203
 10
138.854650817384
 20
2.302517100986233
 10
138.9211028149842
 20
2.332459110086501
 10
139.0034244181843
 20
2.323992669185991
 10
139.0923321249844
 20
2.278072143086579
 10
139.1778011592844
 20
2.199874630686349
 10
139.2502011308844
 20
2.098215844886536
 10
139.3013639476845
 20
1.984557477786196
 10
139.3255230644837
 20
1.871714024886216
 10
139.3270158202841
 20
1.838705318086509
  0
SPLINE
  5
333
330
70
100
AcDbEntity
  8
0
 62
    18
420
        0
370
    25
100
AcDbSpline
210
0.0
220
0.0
230
1.0
 70
     8
 71
     3
 72
     8
 73
     4
 74
     0
 42
0.0000000001
 43
0.0000000001
 40
0.0
 40
0.0
 40
0.0
 40
0.0
 40
1.0
 40
1.0
 40
1.0
 40
1.0
 10
134.9114744003087
 20
8.424034966666413
 30
0.0
 10
135.995611850183
 20
6.424852273892687
 30
0.0
 10
137.1021834149397
 20
4.437917081435482
 30
0.0
 10
138.2309794513961
 20
2.463605819911136
 30
0.0
  0
SPLINE
  5
334
330
70
100
AcDbEntity
  8
0
 62
    18
420
        0
370
    25
100
AcDbSpline
210
0.0
220
0.0
230
1.0
 70
     8
 71
     3
 72
     8
 73
     4
 74
     0
 42
0.0000000001
 43
0.0000000001
 40
0.0
 40
0.0
 40
0.0
 40
0.0
 40
1.0
 40
1.0
 40
1.0
 40
1.0
 10
134.9080776277874
 20
8.434952934218594
 30
0.0
 10
134.9082918254842
 20
8.431089112899753
 30
0.0
 10
134.9094587610461
 20
8.427338327571932
 30
0.0
 10
134.91147440036
 20
8.424034966556682
 30
0.0
  0
SPLINE
  5
335
330
70
100
AcDbEntity
  8
0
 62
    18
420
        0
370
    25
100
AcDbSpline
210
0.0
220
0.0
230
1.0
 70
     8
 71
     3
 72
     8
 73
     4
 74
     0
 42
0.0000000001
 43
0.0000000001
 40
0.0
 40
0.0
 40
0.0
 40
0.0
 40
1.0
 40
1.0
 40
1.0
 40
1.0
 10
144.5427272598973
 20
3.982877440511139
 30
0.0
 10
144.5370524393329
 20
4.107599806187333
 30
0.0
 10
144.471126633369
 20
4.221787076716536
 30
0.0
 10
144.3659515234424
 20
4.289063137393555
 30
0.0
  0
LINE
  5
336
330
70
100
AcDbEntity
  8
0
 62
    18
420
        0
370
    25
100
AcDbLine
 10
144.5427272599846
 20
3.982877440486113
 30
0.0
 11
143.7505358361846
 21
3.525555065986274
 31
0.0
  0
LINE
  5
337
330
70
100
AcDbEntity
  8
0
 62
    18
420
        0
370
    25
100
AcDbLine
 10
143.5737600997836
 20
3.831740762886016
 30
0.0
 11
144.3659515234848
 21
4.289063137386497
 31
0.0
  0
LINE
  5
338
330
70
100
AcDbEntity
  8
0
 62
    18
420
        0
370
    25
100
AcDbLine
 10
144.5427272599846
 20
-5.815612387313953
 30
0.0
 11
144.5427272599846
 21
-4.224432001113859
 31
0.0
  0
LINE
  5
339
330
70
100
AcDbEntity
  8
0
 62
    18
420
        0
370
    25
100
AcDbLine
 10
144.5427272599846
 20
-1.18008858951381
 30
0.0
 11
144.5427272599846
 21
3.982877440486113
 31
0.0
  0
LINE
  5
33A
330
70
100
AcDbEntity
  8
0
 62
    18
420
        0
370
    25
100
AcDbLine
 10
143.7505358361846
 20
-6.272934761813791
 30
0.0
 11
144.5427272599846
 21
-5.815612387313953
 31
0.0
  0
LINE
  5
33B
330
70
100
AcDbEntity
  8
0
 62
    18
420
        0
370
    25
100
AcDbLine
 10
144.3659515234848
 20
4.289063137386497
 30
0.0
 11
135.8806700754836
 21
9.187511850886272
 31
0.0
  0
LINE
  5
33C
330
70
100
AcDbEntity
  8
0
 62
    18
420
        0
370
    25
100
AcDbLine
 10
135.8806700754836
 20
9.187511850886272
 30
0.0
 11
135.0884786517837
 21
8.730189476386433
 31
0.0
  0
SPLINE
  5
33D
330
70
100
AcDbEntity
  8
0
 62
    18
420
        0
370
    25
100
AcDbSpline
210
0.0
220
0.0
230
1.0
 70
     8
 71
     3
 72
     8
 73
     4
 74
     0
 42
0.0000000001
 43
0.0000000001
 40
0.0
 40
0.0
 40
0.0
 40
0.0
 40
1.0
 40
1.0
 40
1.0
 40
1.0
 10
134.904352900064
 20
-1.374429353049466
 30
0.0
 10
134.9064798802022
 20
-1.375897428177603
 30
0.0
 10
134.9092731205428
 20
-1.375970965433431
 30
0.0
 10
134.9114744003741
 20
-1.374616839813293
 30
0.0
  0
LWPOLYLINE
  5
33E
330
70
100
AcDbEntity
  8
0
 62
    18
420
        0
370
    25
100
AcDbPolyline
 90
        3
 70
     0
 43
0.0
 10
134.9114744003844
 20
8.424034966586201
 10
134.911464357584
 20
8.424041334386513
 10
134.9043502658843
 20
8.428509182686113
  0
LWPOLYLINE
  5
33F
330
70
100
AcDbEntity
  8
0
 62
    18
420
        0
370
    25
100
AcDbPolyline
 90
        4
 70
     0
 43
0.0
 10
137.2584272572843
 20
-0.0192949279134323
 10
137.2410911554843
 20
-0.0293061581138115
 10
136.541624774084
 20
-0.4332352318135861
 10
134.9114744003844
 20
-1.374616839813934
  0
SPLINE
  5
340
330
70
100
AcDbEntity
  8
0
 62
    18
420
        0
370
    25
100
AcDbSpline
210
0.0
220
0.0
230
1.0
 70
     8
 71
     3
 72
     8
 73
     4
 74
     0
 42
0.0000000001
 43
0.0000000001
 40
0.0
 40
0.0
 40
0.0
 40
0.0
 40
1.0
 40
1.0
 40
1.0
 40
1.0
 10
143.4009297034485
 20
-6.283699154128615
 30
0.0
 10
143.4004223798302
 20
-6.279916462621042
 30
0.0
 10
143.3990416500641
 20
-6.276303751657567
 30
0.0
 10
143.396896776881
 20
-6.273146909671692
 30
0.0
  0
LWPOLYLINE
  5
341
330
70
100
AcDbEntity
  8
0
 62
    18
420
        0
370
    25
100
AcDbPolyline
 90
        6
 70
     0
 43
0.0
 10
139.1535584072839
 20
-3.834067978713584
 10
139.5071209107846
 20
-4.038154546413696
 10
140.9215215669838
 20
-4.854202825713671
 10
142.159318860784
 20
-5.567963104713495
 10
143.3972102440844
 20
-6.281555377713742
 10
143.4009297034844
 20
-6.283699154113856
  0
LINE
  5
342
330
70
100
AcDbEntity
  8
0
 62
    18
420
        0
370
    25
100
AcDbLine
 10
139.1198253703844
 20
2.251610803086455
 30
0.0
 11
139.0992511228836
 21
2.234961389285988
 31
0.0
  0
SPLINE
  5
343
330
70
100
AcDbEntity
  8
0
 62
    18
420
        0
370
    25
100
AcDbSpline
210
0.0
220
0.0
230
1.0
 70
     8
 71
     3
 72
     8
 73
     4
 74
     0
 42
0.0000000001
 43
0.0000000001
 40
0.0
 40
0.0
 40
0.0
 40
0.0
 40
1.0
 40
1.0
 40
1.0
 40
1.0
 10
135.08847865174
 20
8.730189476414027
 30
0.0
 10
134.9800383889226
 20
8.667234164301046
 30
0.0
 10
134.9107650132439
 20
8.553735030414641
 30
0.0
 10
134.9043502658522
 20
8.428509182686756
 30
0.0
  0
LWPOLYLINE
  5
344
330
70
100
AcDbEntity
  8
0
 62
    18
420
        0
370
    25
100
AcDbPolyline
 90
        4
 70
     0
 43
0.0
 10
143.4009297034844
 20
-6.283699154113856
 10
143.4131005114848
 20
-6.343374487214024
 10
143.4433779183839
 20
-6.383607745613899
 10
143.4525530073846
 20
-6.386925260513633
  0
LWPOLYLINE
  5
345
330
70
100
AcDbEntity
  8
0
 62
    18
420
        0
370
    25
100
AcDbPolyline
 90
        4
 70
     0
 43
0.0
 10
134.8408049190837
 20
-1.275350323513441
 10
134.8390619163846
 20
-1.285581392513742
 10
134.8587627692843
 20
-1.333442309913819
 10
134.9043529000845
 20
-1.374429353113636
  0
SPLINE
  5
346
330
70
100
AcDbEntity
  8
0
 62
    18
420
        0
370
    25
100
AcDbSpline
210
0.0
220
0.0
230
1.0
 70
     8
 71
     3
 72
     8
 73
     4
 74
     0
 42
0.0000000001
 43
0.0000000001
 40
0.0
 40
0.0
 40
0.0
 40
0.0
 40
1.0
 40
1.0
 40
1.0
 40
1.0
 10
144.4909406368896
 20
-5.9300737558846
 30
0.0
 10
144.528672226803
 20
-5.904963497154747
 30
0.0
 10
144.5487754840817
 20
-5.8605302785518
 30
0.0
 10
144.5427272599076
 20
-5.815612387291492
 30
0.0
  0
SPLINE
  5
347
330
70
100
AcDbEntity
  8
0
 62
    18
420
        0
370
    25
100
AcDbSpline
210
0.0
220
0.0
230
1.0
 70
     8
 71
     3
 72
     8
 73
     4
 74
     0
 42
0.0000000001
 43
0.0000000001
 40
0.0
 40
0.0
 40
0.0
 40
0.0
 40
1.0
 40
1.0
 40
1.0
 40
1.0
 10
135.8806700754694
 20
9.187511850913224
 30
0.0
 10
135.844198145537
 20
9.213640257411434
 30
0.0
 10
135.7965677687968
 20
9.218356922372221
 30
0.0
 10
135.7556796449426
 20
9.19988920386365
 30
0.0
  0
LWPOLYLINE
  5
348
330
70
100
AcDbEntity
  8
0
 62
    18
420
        0
370
    25
100
AcDbPolyline
 90
        5
 70
     0
 43
0.0
 10
134.9117944529845
 20
-1.383029109613494
 10
135.2652206377837
 20
-1.587365857113603
 10
136.6789860454845
 20
-2.404614704813984
 10
137.9161866155847
 20
-3.119501601413515
 10
139.1535584072839
 20
-3.834067978713584
  0
LWPOLYLINE
  5
349
330
70
100
AcDbEntity
  8
0
 62
    18
420
        0
370
    25
100
AcDbPolyline
 90
        3
 70
     0
 43
0.0
 10
134.9114744003844
 20
-1.374616839813934
 10
134.9114748942847
 20
-1.374628722113979
 10
134.9117944529845
 20
-1.383029109613494
  0
LWPOLYLINE
  5
34A
330
70
100
AcDbEntity
  8
0
 62
     8
420
  8421504
370
    25
100
AcDbPolyline
 90
        3
 70
     0
 43
0.0
 10
179.1058754223844
 20
-16.88464803371379
 10
179.1050210431842
 20
-20.13214916911355
 10
179.1050188205838
 20
-21.13247484131345
  0
LINE
  5
34B
330
70
100
AcDbEntity
  8
0
 62
     8
420
  8421504
370
    25
100
AcDbLine
 10
179.1052218992842
 20
-24.17693533571342
 30
0.0
 11
179.1058754223844
 21
-26.68313786151385
 31
0.0
  0
LWPOLYLINE
  5
34C
330
70
100
AcDbEntity
  8
0
 62
     8
420
  8421504
370
    25
100
AcDbPolyline
 90
        4
 70
     0
 43
0.0
 10
178.7599927002843
 20
-26.68745926261395
 10
178.7600071058836
 20
-26.27934318611372
 10
178.7600619297837
 20
-24.64680959441341
 10
178.7600719725841
 20
-23.97768446031397
  0
LWPOLYLINE
  5
34D
330
70
100
AcDbEntity
  8
0
 62
     8
420
  8421504
370
    25
100
AcDbPolyline
 90
        4
 70
     0
 43
0.0
 10
178.760107286984
 20
-20.93336157971362
 10
178.7600963386846
 20
-20.13686032031385
 10
178.7599927002843
 20
-16.88881430031395
 10
178.7599927002843
 20
-16.88451920621399
  0
LWPOLYLINE
  5
34E
330
70
100
AcDbEntity
  8
0
 62
     8
420
  8421504
370
    25
100
AcDbPolyline
 90
        3
 70
     0
 43
0.0
 10
174.6801303491838
 20
-18.53093432391372
 10
174.8967848245837
 20
-18.67838499231393
 10
175.0201320218838
 20
-18.77431987521349
  0
LWPOLYLINE
  5
34F
330
70
100
AcDbEntity
  8
0
 62
     8
420
  8421504
370
    25
100
AcDbPolyline
 90
        3
 70
     0
 43
0.0
 10
173.8140261947843
 20
-18.07804980171392
 10
173.9374303561842
 20
-18.12456144621386
 10
174.1541890462842
 20
-18.22731487251369
  0
LWPOLYLINE
  5
350
330
70
100
AcDbEntity
  8
0
 62
     8
420
  8421504
370
    25
100
AcDbPolyline
 90
        4
 70
     0
 43
0.0
 10
170.2596898519839
 20
-11.98169391701394
 10
170.2594224006836
 20
-12.38995607371381
 10
170.2584736026838
 20
-14.02300574571396
 10
170.2579959108842
 20
-16.02519726861351
  0
LWPOLYLINE
  5
351
330
70
100
AcDbEntity
  8
0
 62
     8
420
  8421504
370
    25
100
AcDbPolyline
 90
        3
 70
     0
 43
0.0
 10
170.2582459108839
 20
-19.06968473881352
 10
170.2596898519839
 20
-21.78033887931394
 10
170.2596924861841
 20
-21.7846324528137
  0
LINE
  5
352
330
70
100
AcDbEntity
  8
0
 62
     8
420
  8421504
370
    25
100
AcDbLine
 10
174.1520242457842
 20
-18.26534411931358
 30
0.0
 11
174.4156825000846
 21
-18.113137448914
 31
0.0
  0
SPLINE
  5
353
330
70
100
AcDbEntity
  8
0
 62
     8
420
  8421504
370
    25
100
AcDbSpline
210
0.0
220
0.0
230
1.0
 70
     8
 71
     3
 72
     8
 73
     4
 74
     0
 42
0.0000000001
 43
0.0000000001
 40
0.0
 40
0.0
 40
0.0
 40
0.0
 40
1.0
 40
1.0
 40
1.0
 40
1.0
 10
179.0540887993382
 20
-26.79759923012622
 30
0.0
 10
179.0918196603854
 20
-26.7724883521831
 30
0.0
 10
179.1119227002539
 20
-26.72805561410942
 30
0.0
 10
179.1058754223574
 20
-26.68313786153375
 30
0.0
  0
SPLINE
  5
354
330
70
100
AcDbEntity
  8
0
 62
     8
420
  8421504
370
    25
100
AcDbSpline
210
0.0
220
0.0
230
1.0
 70
     8
 71
     3
 72
     8
 73
     4
 74
     0
 42
0.0000000001
 43
0.0000000001
 40
0.0
 40
0.0
 40
0.0
 40
0.0
 40
1.0
 40
1.0
 40
1.0
 40
1.0
 10
170.1938173735383
 20
-11.8840661164386
 30
0.0
 10
170.1973878466332
 20
-11.92581986478221
 30
0.0
 10
170.2223081865143
 20
-11.96275361967067
 30
0.0
 10
170.2596898519916
 20
-11.98169391705309
 30
0.0
  0
SPLINE
  5
355
330
70
100
AcDbEntity
  8
0
 62
     8
420
  8421504
370
    25
100
AcDbSpline
210
0.0
220
0.0
230
1.0
 70
     8
 71
     3
 72
     8
 73
     4
 74
     0
 42
0.0000000001
 43
0.0000000001
 40
0.0
 40
0.0
 40
0.0
 40
0.0
 40
1.0
 40
1.0
 40
1.0
 40
1.0
 10
170.4438169207794
 20
-11.68001286304208
 30
0.0
 10
170.4073453111369
 20
-11.65388479844368
 30
0.0
 10
170.359715365734
 20
-11.64916841623924
 30
0.0
 10
170.3188278073424
 20
-11.66763627043122
 30
0.0
  0
LINE
  5
356
330
70
100
AcDbEntity
  8
0
 62
     8
420
  8421504
370
    25
100
AcDbLine
 10
173.9494778517846
 20
-19.6587057696136
 30
0.0
 11
173.9772871161838
 21
-19.64265182301383
 31
0.0
  0
SPLINE
  5
357
330
70
100
AcDbEntity
  8
0
 62
     8
420
  8421504
370
    25
100
AcDbSpline
210
0.0
220
0.0
230
1.0
 70
     8
 71
     3
 72
     8
 73
     4
 74
     0
 42
0.0000000001
 43
0.0000000001
 40
0.0
 40
0.0
 40
0.0
 40
0.0
 40
1.0
 40
1.0
 40
1.0
 40
1.0
 10
170.267132722043
 20
-21.79323144903944
 30
0.0
 10
170.2648587904094
 20
-21.83507606990293
 30
0.0
 10
170.28438187331
 20
-21.87512193247735
 30
0.0
 10
170.3187475472637
 20
-21.89910408238171
 30
0.0
  0
LINE
  5
358
330
70
100
AcDbEntity
  8
0
 62
     8
420
  8421504
370
    25
100
AcDbLine
 10
174.0729407882836
 20
-19.84204476291358
 30
0.0
 11
174.0759048970847
 21
-19.84033361931346
 31
0.0
  0
LINE
  5
359
330
70
100
AcDbEntity
  8
0
 62
     8
420
  8421504
370
    25
100
AcDbLine
 10
173.9862434037848
 20
-19.7192510477134
 30
0.0
 11
174.0114925764838
 21
-19.70467501061387
 31
0.0
  0
SPLINE
  5
35A
330
70
100
AcDbEntity
  8
0
 62
     8
420
  8421504
370
    25
100
AcDbSpline
210
0.0
220
0.0
230
1.0
 70
     8
 71
     3
 72
     8
 73
     4
 74
     0
 42
0.0000000001
 43
0.0000000001
 40
0.0
 40
0.0
 40
0.0
 40
0.0
 40
1.0
 40
1.0
 40
1.0
 40
1.0
 10
170.1939777291525
 20
-21.6915599561991
 30
0.0
 10
170.198997586005
 20
-21.73587585104414
 30
0.0
 10
170.2267090102425
 20
-21.77438944742005
 30
0.0
 10
170.2671327220482
 20
-21.79323144897592
 30
0.0
  0
LWPOLYLINE
  5
35B
330
70
100
AcDbEntity
  8
0
 62
     8
420
  8421504
370
    25
100
AcDbPolyline
 90
        7
 70
     0
 43
0.0
 10
188.6927061621838
 20
-36.9158243098137
 10
188.8143673209848
 20
-36.9627530219135
 10
188.9578720717843
 20
-36.97923109531399
 10
189.1013781396839
 20
-36.96275226161372
 10
189.223038310584
 20
-36.91582526021362
 10
189.3043267397838
 20
-36.8455925285138
 10
189.3328720099841
 20
-36.76274823891345
  0
LWPOLYLINE
  5
35C
330
70
100
AcDbEntity
  8
0
 62
     8
420
  8421504
370
    25
100
AcDbPolyline
 90
        3
 70
     0
 43
0.0
 10
188.5828731212837
 20
-36.76274880921384
 10
188.611417074484
 20
-36.84559233851377
 10
188.6927061621838
 20
-36.9158243098137
  0
LWPOLYLINE
  5
35D
330
70
100
AcDbEntity
  8
0
 62
     8
420
  8421504
370
    25
100
AcDbPolyline
 90
        4
 70
     0
 43
0.0
 10
187.8972133724847
 20
-37.37520485131369
 10
187.9173980908845
 20
-37.48073066731385
 10
187.9748784897842
 20
-37.54688796731378
 10
187.9749328196838
 20
-37.54691896131384
  0
LWPOLYLINE
  5
35E
330
70
100
AcDbEntity
  8
0
 62
     8
420
  8421504
370
    25
100
AcDbPolyline
 90
        7
 70
     0
 43
0.0
 10
188.3497621948847
 20
-36.89730190161382
 10
188.2638527589842
 20
-36.88065396181401
 10
188.1623786235839
 20
-36.91592554571403
 10
188.0609041588842
 20
-36.99781369481383
 10
187.9748784897842
 20
-37.11385149951373
 10
187.9173980908845
 20
-37.24637349491374
 10
187.8972133724847
 20
-37.37520485131369
  0
LWPOLYLINE
  5
35F
330
70
100
AcDbEntity
  8
0
 62
     8
420
  8421504
370
    25
100
AcDbPolyline
 90
        4
 70
     0
 43
0.0
 10
119.7497948910841
 20
1.965462448386469
 10
119.769979609584
 20
1.85993663228621
 10
119.8274600083836
 20
1.793779332286286
 10
119.8274754841841
 20
1.79377077558638
  0
LWPOLYLINE
  5
360
330
70
100
AcDbEntity
  8
0
 62
     8
420
  8421504
370
    25
100
AcDbPolyline
 90
        7
 70
     0
 43
0.0
 10
120.2024448001837
 20
2.443307403286265
 10
120.1164342775836
 20
2.460013337786042
 10
120.0149601421846
 20
2.424741753986132
 10
119.9134856774836
 20
2.342853604786226
 10
119.8274600083836
 20
2.226815800086324
 10
119.769979609584
 20
2.094293804686314
 10
119.7497948910841
 20
1.965462448386469
  0
LWPOLYLINE
  5
361
330
70
100
AcDbEntity
  8
0
 62
     8
420
  8421504
370
    25
100
AcDbPolyline
 90
        3
 70
     0
 43
0.0
 10
118.9543021014838
 20
3.343299414986395
 10
118.8730103795838
 20
3.413532906886531
 10
118.8444664263835
 20
3.496376436186459
  0
LWPOLYLINE
  5
362
330
70
100
AcDbEntity
  8
0
 62
     8
420
  8421504
370
    25
100
AcDbPolyline
 90
        7
 70
     0
 43
0.0
 10
119.5944653150839
 20
3.496377006486213
 10
119.5659200448836
 20
3.413532716886504
 10
119.4846316156838
 20
3.343299985186044
 10
119.3629714447836
 20
3.296372983786583
 10
119.2194653768841
 20
3.279894150086311
 10
119.0759606259845
 20
3.29637222348616
 10
118.9543021014838
 20
3.343299414986395
  0
LWPOLYLINE
  5
363
330
70
100
AcDbEntity
  8
0
 62
     8
420
  8421504
370
    25
100
AcDbPolyline
 90
        7
 70
     0
 43
0.0
 10
185.6875021787839
 20
-38.65069164171357
 10
185.8091636668843
 20
-38.69762016371387
 10
185.9526684176838
 20
-38.71409823711373
 10
186.0961744855847
 20
-38.69761940341345
 10
186.2178346565837
 20
-38.65069240201399
 10
186.299122756384
 20
-38.58045986041366
 10
186.3276680266843
 20
-38.49761557081395
  0
LWPOLYLINE
  5
364
330
70
100
AcDbEntity
  8
0
 62
     8
420
  8421504
370
    25
100
AcDbPolyline
 90
        3
 70
     0
 43
0.0
 10
185.5776694671846
 20
-38.49761595101357
 10
185.6062134203835
 20
-38.5804594803135
 10
185.6875021787839
 20
-38.65069164171357
  0
LWPOLYLINE
  5
365
330
70
100
AcDbEntity
  8
0
 62
     8
420
  8421504
370
    25
100
AcDbPolyline
 90
        4
 70
     0
 43
0.0
 10
184.8920093890848
 20
-39.11007218321355
 10
184.9121944368841
 20
-39.21559780921369
 10
184.9696748356837
 20
-39.28175510921361
 10
184.969728836284
 20
-39.28178629321371
  0
LWPOLYLINE
  5
366
330
70
100
AcDbEntity
  8
0
 62
     8
420
  8421504
370
    25
100
AcDbPolyline
 90
        7
 70
     0
 43
0.0
 10
185.3445585408844
 20
-38.63216904341355
 10
185.2586487755843
 20
-38.61552129371388
 10
185.1571749694847
 20
-38.65079268751376
 10
185.0557005047837
 20
-38.73268083671366
 10
184.9696748356837
 20
-38.84871864131346
 10
184.9121944368841
 20
-38.98124063671347
 10
184.8920093890848
 20
-39.11007218321355
  0
LWPOLYLINE
  5
367
330
70
100
AcDbEntity
  8
0
 62
     8
420
  8421504
370
    25
100
AcDbPolyline
 90
        4
 70
     0
 43
0.0
 10
116.7445909077843
 20
0.230595116486608
 10
116.7647759554835
 20
0.1250694904864799
 10
116.8222563542844
 20
0.058912190486556
 10
116.8222715007843
 20
0.0589034436865181
  0
LWPOLYLINE
  5
368
330
70
100
AcDbEntity
  8
0
 62
     8
420
  8421504
370
    25
100
AcDbPolyline
 90
        7
 70
     0
 43
0.0
 10
117.1972408167838
 20
0.7084400713864034
 10
117.1112302941837
 20
0.7251460058861803
 10
117.0097564880841
 20
0.6898746121864021
 10
116.9082820233844
 20
0.6079864629864967
 10
116.8222563542844
 20
0.4919486582865949
 10
116.7647759554835
 20
0.3594266628865842
 10
116.7445909077843
 20
0.2305951164859664
  0
LWPOLYLINE
  5
369
330
70
100
AcDbEntity
  8
0
 62
     8
420
  8421504
370
    25
100
AcDbPolyline
 90
        3
 70
     0
 43
0.0
 10
115.9490981180839
 20
1.608432082986428
 10
115.8678067254846
 20
1.678665765086159
 10
115.8392627722844
 20
1.761509294386087
  0
LWPOLYLINE
  5
36A
330
70
100
AcDbEntity
  8
0
 62
     8
420
  8421504
370
    25
100
AcDbPolyline
 90
        7
 70
     0
 43
0.0
 10
116.5892613317841
 20
1.761509674586351
 10
116.5607160614837
 20
1.678665384986
 10
116.4794279615847
 20
1.608432843386314
 10
116.3577677906845
 20
1.561505841986211
 10
116.2142617227836
 20
1.54502700828658
 10
116.0707569719841
 20
1.56150508168643
 10
115.9490981180839
 20
1.608432082986428
  0
LWPOLYLINE
  5
36B
330
70
100
AcDbEntity
  8
0
 62
     8
420
  8421504
370
    25
100
AcDbPolyline
 90
        7
 70
     0
 43
0.0
 10
182.6822988539842
 20
-40.3855585934138
 10
182.8039596834845
 20
-40.43248749561374
 10
182.9474644342839
 20
-40.44896556901358
 10
183.0909705021835
 20
-40.43248673531395
 10
183.2126306731838
 20
-40.38555973391384
 10
183.2939194315842
 20
-40.315326812214
 10
183.3224647018846
 20
-40.23248252261365
  0
LWPOLYLINE
  5
36C
330
70
100
AcDbEntity
  8
0
 62
     8
420
  8421504
370
    25
100
AcDbPolyline
 90
        3
 70
     0
 43
0.0
 10
182.5724654838835
 20
-40.23248328291344
 10
182.6010094369837
 20
-40.315326812214
 10
182.6822988539842
 20
-40.3855585934138
  0
LWPOLYLINE
  5
36D
330
70
100
AcDbEntity
  8
0
 62
     8
420
  8421504
370
    25
100
AcDbPolyline
 90
        4
 70
     0
 43
0.0
 10
181.8868060642838
 20
-40.84493913491379
 10
181.9069904534843
 20
-40.95046514111354
 10
181.9644708522839
 20
-41.01662244111347
 10
181.9645255114842
 20
-41.01665324501341
  0
LWPOLYLINE
  5
36E
330
70
100
AcDbEntity
  8
0
 62
     8
420
  8421504
370
    25
100
AcDbPolyline
 90
        7
 70
     0
 43
0.0
 10
182.3393545574846
 20
-40.36703637531341
 10
182.2534454507845
 20
-40.35038824541347
 10
182.1519709860836
 20
-40.38566001941362
 10
182.0504965213839
 20
-40.46754816861352
 10
181.9644708522839
 20
-40.58358597321396
 10
181.9069904534843
 20
-40.71610796861397
 10
181.8868060642838
 20
-40.84493913491379
  0
LWPOLYLINE
  5
36F
330
70
100
AcDbEntity
  8
0
 62
     8
420
  8421504
370
    25
100
AcDbPolyline
 90
        4
 70
     0
 43
0.0
 10
113.7393875829846
 20
-1.504271835313736
 10
113.7595719720837
 20
-1.609797841414023
 10
113.8170523709847
 20
-1.675955141413947
 10
113.8170675174845
 20
-1.675963888213985
  0
LWPOLYLINE
  5
370
330
70
100
AcDbEntity
  8
0
 62
     8
420
  8421504
370
    25
100
AcDbPolyline
 90
        7
 70
     0
 43
0.0
 10
114.192037491984
 20
-1.026426880413941
 10
114.1060269693839
 20
-1.009720945813417
 10
114.0045525046842
 20
-1.04499271971346
 10
113.9030780399845
 20
-1.126880868914007
 10
113.8170523709847
 20
-1.242918673613908
 10
113.7595719720837
 20
-1.375440669013919
 10
113.7393875829846
 20
-1.504271835313736
  0
LWPOLYLINE
  5
371
330
70
100
AcDbEntity
  8
0
 62
     8
420
  8421504
370
    25
100
AcDbPolyline
 90
        3
 70
     0
 43
0.0
 10
112.9438947932842
 20
-0.1264348687138118
 10
112.8626027420847
 20
-0.0562015668137027
 10
112.8340587889846
 20
0.0266419624862253
  0
LWPOLYLINE
  5
372
330
70
100
AcDbEntity
  8
0
 62
     8
420
  8421504
370
    25
100
AcDbPolyline
 90
        7
 70
     0
 43
0.0
 10
113.5840580068842
 20
0.0266427227860063
 10
113.555512736684
 20
-0.0562015668137027
 10
113.4742239782836
 20
-0.1264344885135479
 10
113.3525638072846
 20
-0.1733614899136502
 10
113.2090577393837
 20
-0.189840323613923
 10
113.0655529885843
 20
-0.1733622502134311
 10
112.9438947932842
 20
-0.1264348687138118
  0
LWPOLYLINE
  5
373
330
70
100
AcDbEntity
  8
0
 62
     8
420
  8421504
370
    25
100
AcDbPolyline
 90
        7
 70
     0
 43
0.0
 10
179.6770948706844
 20
-42.12042592531367
 10
179.7987557000846
 20
-42.16735482751359
 10
179.9422604509842
 20
-42.18383290091344
 10
180.0857665188838
 20
-42.16735406721381
 10
180.2074273483841
 20
-42.12042668571355
 10
180.2887154482845
 20
-42.05019414411387
 10
180.3172607184847
 20
-41.96734985451351
  0
LWPOLYLINE
  5
374
330
70
100
AcDbEntity
  8
0
 62
     8
420
  8421504
370
    25
100
AcDbPolyline
 90
        3
 70
     0
 43
0.0
 10
179.5672615004837
 20
-41.96735061481393
 10
179.5958054536839
 20
-42.05019414411387
 10
179.6770948706844
 20
-42.12042592531367
  0
LWPOLYLINE
  5
375
330
70
100
AcDbEntity
  8
0
 62
     8
420
  8421504
370
    25
100
AcDbPolyline
 90
        4
 70
     0
 43
0.0
 10
178.881602080984
 20
-42.57980646681365
 10
178.9017864700844
 20
-42.6853324730134
 10
178.9592668689841
 20
-42.75148977301397
 10
178.9593208695844
 20
-42.75152095701343
  0
LWPOLYLINE
  5
376
330
70
100
AcDbEntity
  8
0
 62
     8
420
  8421504
370
    25
100
AcDbPolyline
 90
        7
 70
     0
 43
0.0
 10
179.3341512326848
 20
-42.10190332711375
 10
179.2482414673847
 20
-42.08525557731397
 10
179.1467676612838
 20
-42.12052697111386
 10
179.045292537984
 20
-42.20241550051339
 10
178.9592668689841
 20
-42.31845330511382
 10
178.9017864700844
 20
-42.45097530061394
 10
178.881602080984
 20
-42.57980646681365
  0
LWPOLYLINE
  5
377
330
70
100
AcDbEntity
  8
0
 62
     8
420
  8421504
370
    25
100
AcDbPolyline
 90
        4
 70
     0
 43
0.0
 10
110.7341835995847
 20
-3.239139167213599
 10
110.7543679887839
 20
-3.344665173313885
 10
110.8118483875835
 20
-3.410822473313809
 10
110.8118641926848
 20
-3.410830839913583
  0
LWPOLYLINE
  5
378
330
70
100
AcDbEntity
  8
0
 62
     8
420
  8421504
370
    25
100
AcDbPolyline
 90
        7
 70
     0
 43
0.0
 10
111.1868328500842
 20
-2.761294592413962
 10
111.1008229860842
 20
-2.744588277713921
 10
110.9993491798845
 20
-2.779859671513805
 10
110.8978740566848
 20
-2.861748200813869
 10
110.8118483875835
 20
-2.97778600551377
 10
110.7543679887839
 20
-3.110308000913781
 10
110.7341835995847
 20
-3.239139167213599
  0
LWPOLYLINE
  5
379
330
70
100
AcDbEntity
  8
0
 62
     8
420
  8421504
370
    25
100
AcDbPolyline
 90
        3
 70
     0
 43
0.0
 10
109.9386908098843
 20
-1.861302200613673
 10
109.8573987587837
 20
-1.791068898713564
 10
109.8288548055847
 20
-1.708225369413636
  0
LWPOLYLINE
  5
37A
330
70
100
AcDbEntity
  8
0
 62
     8
420
  8421504
370
    25
100
AcDbPolyline
 90
        7
 70
     0
 43
0.0
 10
110.5788540235845
 20
-1.708224609113855
 10
110.5503087532841
 20
-1.791068898713564
 10
110.4690206534839
 20
-1.861301440313892
 10
110.3473598239836
 20
-1.908228821813512
 10
110.203853756084
 20
-1.924707655513785
 10
110.0603490051844
 20
-1.908229582113935
 10
109.9386908098843
 20
-1.861302200613673
  0
LWPOLYLINE
  5
37B
330
70
100
AcDbEntity
  8
0
 62
     8
420
  8421504
370
    25
100
AcDbPolyline
 90
        7
 70
     0
 43
0.0
 10
176.6718915457845
 20
-43.85529287711401
 10
176.7935523752836
 20
-43.90222177931394
 10
176.9370571261845
 20
-43.91869985271379
 10
177.080563194084
 20
-43.90222101891342
 10
177.2022227064842
 20
-43.85529439771357
 10
177.2835121233846
 20
-43.78506109581347
 10
177.3120573936837
 20
-43.70221680621376
  0
LWPOLYLINE
  5
37C
330
70
100
AcDbEntity
  8
0
 62
     8
420
  8421504
370
    25
100
AcDbPolyline
 90
        3
 70
     0
 43
0.0
 10
176.5620581756839
 20
-43.70221756651353
 10
176.5906021288842
 20
-43.78506109581347
 10
176.6718915457845
 20
-43.85529287711401
  0
LWPOLYLINE
  5
37D
330
70
100
AcDbEntity
  8
0
 62
     8
420
  8421504
370
    25
100
AcDbPolyline
 90
        4
 70
     0
 43
0.0
 10
175.8763987560842
 20
-44.314673418614
 10
175.8965831452846
 20
-44.42019942471364
 10
175.9540635441844
 20
-44.48635672471357
 10
175.9541175447846
 20
-44.48638790881378
  0
LWPOLYLINE
  5
37E
330
70
100
AcDbEntity
  8
0
 62
     8
420
  8421504
370
    25
100
AcDbPolyline
 90
        7
 70
     0
 43
0.0
 10
176.3289465907836
 20
-43.83677103911377
 10
176.2430381425836
 20
-43.82012252911368
 10
176.1415630193839
 20
-43.85539468321399
 10
176.0400892131842
 20
-43.93728245221363
 10
175.9540635441844
 20
-44.05332025691353
 10
175.8965831452846
 20
-44.18584225231354
 10
175.8763987560842
 20
-44.314673418614
  0
LWPOLYLINE
  5
37F
330
70
100
AcDbEntity
  8
0
 62
     8
420
  8421504
370
    25
100
AcDbPolyline
 90
        4
 70
     0
 43
0.0
 10
107.7289802747837
 20
-4.974006118913838
 10
107.749164663884
 20
-5.079532125113589
 10
107.8066450627838
 20
-5.145689425113513
 10
107.8066595507836
 20
-5.145698552013709
  0
LWPOLYLINE
  5
380
330
70
100
AcDbEntity
  8
0
 62
     8
420
  8421504
370
    25
100
AcDbPolyline
 90
        7
 70
     0
 43
0.0
 10
108.1816295252844
 20
-4.496161544213665
 10
108.0956196611843
 20
-4.479455229413519
 10
107.9941445379846
 20
-4.514727383513825
 10
107.8926707318837
 20
-4.596615152513467
 10
107.8066450627838
 20
-4.71265295721401
 10
107.749164663884
 20
-4.845174952614021
 10
107.7289802747837
 20
-4.974006118913838
  0
LWPOLYLINE
  5
381
330
70
100
AcDbEntity
  8
0
 62
     8
420
  8421504
370
    25
100
AcDbPolyline
 90
        3
 70
     0
 43
0.0
 10
106.9334874850845
 20
-3.596169152313913
 10
106.8521954338839
 20
-3.525935850413804
 10
106.8236514807837
 20
-3.443092321113876
  0
LWPOLYLINE
  5
382
330
70
100
AcDbEntity
  8
0
 62
     8
420
  8421504
370
    25
100
AcDbPolyline
 90
        7
 70
     0
 43
0.0
 10
107.5736506987847
 20
-3.443091560813453
 10
107.5451054284844
 20
-3.525935850413804
 10
107.463816011584
 20
-3.596169152313913
 10
107.3421564990837
 20
-3.643095773513751
 10
107.1986504311841
 20
-3.659574607313488
 10
107.0551456803847
 20
-3.643096533913638
 10
106.9334874850845
 20
-3.596169152313913
  0
SPLINE
  5
383
330
70
100
AcDbEntity
  8
0
 62
     8
420
  8421504
370
    25
100
AcDbSpline
210
0.0
220
0.0
230
1.0
 70
     8
 71
     3
 72
     8
 73
     4
 74
     0
 42
0.0000000001
 43
0.0000000001
 40
0.0
 40
0.0
 40
0.0
 40
0.0
 40
1.0
 40
1.0
 40
1.0
 40
1.0
 10
188.5601237012473
 20
-29.59253609418175
 30
0.0
 10
188.5418880616668
 20
-29.57947281550224
 30
0.0
 10
188.5180737466472
 20
-29.5771149295677
 30
0.0
 10
188.497630461618
 20
-29.58634855821524
 30
0.0
  0
SPLINE
  5
384
330
70
100
AcDbEntity
  8
0
 62
     8
420
  8421504
370
    25
100
AcDbSpline
210
0.0
220
0.0
230
1.0
 70
     8
 71
     3
 72
     8
 73
     4
 74
     0
 42
0.0000000001
 43
0.0000000001
 40
0.0
 40
0.0
 40
0.0
 40
0.0
 40
1.0
 40
1.0
 40
1.0
 40
1.0
 10
189.4181149989261
 20
-32.09930686817698
 30
0.0
 10
189.4367340616321
 20
-32.08654370581939
 30
0.0
 10
189.4467133992772
 20
-32.0644875851371
 30
0.0
 10
189.44400896898
 20
-32.04207656405021
 30
0.0
  0
LINE
  5
385
330
70
100
AcDbEntity
  8
0
 62
     8
420
  8421504
370
    25
100
AcDbLine
 10
189.6212348206841
 20
-30.09520159091351
 30
0.0
 11
189.4440089689839
 21
-30.20485981641371
 31
0.0
  0
LWPOLYLINE
  5
386
330
70
100
AcDbEntity
  8
0
 62
     8
420
  8421504
370
    25
100
AcDbPolyline
 90
       11
 70
     0
 43
0.0
 10
189.3556191251839
 20
-30.05176582741342
 10
189.7250441548835
 20
-29.80206583771366
 10
190.0222578036837
 20
-29.52207887241379
 10
190.2399373858836
 20
-29.21869645671394
 10
190.3727284407838
 20
-28.89939225081386
 10
190.4173573434836
 20
-28.5720262623139
 10
190.3727281114844
 20
-28.24466122431396
 10
190.2399372212839
 20
-27.9253563532139
 10
190.0222575566847
 20
-27.62197588581372
 10
189.7250449780846
 20
-27.34198754241383
 10
189.3952694313836
 20
-27.11553578231363
  0
LINE
  5
387
330
70
100
AcDbEntity
  8
0
 62
     8
420
  8421504
370
    25
100
AcDbLine
 10
189.4440089689839
 20
-32.04207656401363
 30
0.0
 11
189.5630000590838
 21
-31.97015150711361
 31
0.0
  0
SPLINE
  5
388
330
70
100
AcDbEntity
  8
0
 62
     8
420
  8421504
370
    25
100
AcDbSpline
210
0.0
220
0.0
230
1.0
 70
     8
 71
     3
 72
     8
 73
     4
 74
     0
 42
0.0000000001
 43
0.0000000001
 40
0.0
 40
0.0
 40
0.0
 40
0.0
 40
1.0
 40
1.0
 40
1.0
 40
1.0
 10
189.167334335603
 20
-28.68014323517174
 30
0.0
 10
189.1325692508683
 20
-28.25176822619153
 30
0.0
 10
188.8653979934332
 20
-27.87707666654426
 30
0.0
 10
188.4717369855158
 20
-27.70460994430414
 30
0.0
  0
SPLINE
  5
389
330
70
100
AcDbEntity
  8
0
 62
     8
420
  8421504
370
    25
100
AcDbSpline
210
0.0
220
0.0
230
1.0
 70
     8
 71
     3
 72
     8
 73
     4
 74
     0
 42
0.0000000001
 43
0.0000000001
 40
0.0
 40
0.0
 40
0.0
 40
0.0
 40
1.0
 40
1.0
 40
1.0
 40
1.0
 10
188.4717369854658
 20
-29.54182669191304
 30
0.0
 10
188.4703446980545
 20
-29.56001041626828
 30
0.0
 10
188.4763080952394
 20
-29.5779922375466
 30
0.0
 10
188.488290160218
 20
-29.59174056160763
 30
0.0
  0
SPLINE
  5
38A
330
70
100
AcDbEntity
  8
0
 62
     8
420
  8421504
370
    25
100
AcDbSpline
210
0.0
220
0.0
230
1.0
 70
     8
 71
     3
 72
     8
 73
     4
 74
     0
 42
0.0000000001
 43
0.0000000001
 40
0.0
 40
0.0
 40
0.0
 40
0.0
 40
1.0
 40
1.0
 40
1.0
 40
1.0
 10
124.0107373078833
 20
10.6727769247491
 30
0.0
 10
123.9902933538355
 20
10.68201082074001
 30
0.0
 10
123.9664782404511
 20
10.67965254069317
 30
0.0
 10
123.9482423395746
 20
10.66658839083728
 30
0.0
  0
SPLINE
  5
38B
330
70
100
AcDbEntity
  8
0
 62
     8
420
  8421504
370
    25
100
AcDbSpline
210
0.0
220
0.0
230
1.0
 70
     8
 71
     3
 72
     8
 73
     4
 74
     0
 42
0.0000000001
 43
0.0000000001
 40
0.0
 40
0.0
 40
0.0
 40
0.0
 40
1.0
 40
1.0
 40
1.0
 40
1.0
 10
123.0643588828257
 20
8.217048966532061
 30
0.0
 10
123.0614159685431
 20
8.194601980560054
 30
0.0
 10
123.0714490751454
 20
8.172426487409037
 30
0.0
 10
123.0902523589715
 20
8.159818377277872
 30
0.0
  0
SPLINE
  5
38C
330
70
100
AcDbEntity
  8
0
 62
     8
420
  8421504
370
    25
100
AcDbSpline
210
0.0
220
0.0
230
1.0
 70
     8
 71
     3
 72
     8
 73
     4
 74
     0
 42
0.0000000001
 43
0.0000000001
 40
0.0
 40
0.0
 40
0.0
 40
0.0
 40
1.0
 40
1.0
 40
1.0
 40
1.0
 10
119.6797083040284
 20
8.159818377293916
 30
0.0
 10
119.6986376730375
 20
8.172319265650877
 30
0.0
 10
119.7087085556807
 20
8.194577717145484
 30
0.0
 10
119.7056022740824
 20
8.217048681420685
 30
0.0
  0
SPLINE
  5
38D
330
70
100
AcDbEntity
  8
0
 62
     8
420
  8421504
370
    25
100
AcDbSpline
210
0.0
220
0.0
230
1.0
 70
     8
 71
     3
 72
     8
 73
     4
 74
     0
 42
0.0000000001
 43
0.0000000001
 40
0.0
 40
0.0
 40
0.0
 40
0.0
 40
1.0
 40
1.0
 40
1.0
 40
1.0
 10
123.948242339531
 20
10.66658839082059
 30
0.0
 10
123.3826694467032
 20
10.97515798514105
 30
0.0
 10
122.7615866871966
 20
11.16866655458323
 30
0.0
 10
122.1208361537123
 20
11.23594690447288
 30
0.0
  0
LWPOLYLINE
  5
38E
330
70
100
AcDbEntity
  8
0
 62
     8
420
  8421504
370
    25
100
AcDbPolyline
 90
        7
 70
     0
 43
0.0
 10
173.6666869038847
 20
-45.59016058911338
 10
173.7883477333837
 20
-45.63708949131395
 10
173.9318524841845
 20
-45.65356756481391
 10
174.0753585521842
 20
-45.63708873101353
 10
174.1970193816845
 20
-45.59016134951392
 10
174.2783074814847
 20
-45.51992880791359
 10
174.3068527517838
 20
-45.43708451831387
  0
LWPOLYLINE
  5
38F
330
70
100
AcDbEntity
  8
0
 62
     8
420
  8421504
370
    25
100
AcDbPolyline
 90
        3
 70
     0
 43
0.0
 10
173.556853533784
 20
-45.43708527861366
 10
173.5853974869843
 20
-45.51992880791359
 10
173.6666869038847
 20
-45.59016058911338
  0
LWPOLYLINE
  5
390
330
70
100
AcDbEntity
  8
0
 62
     8
420
  8421504
370
    25
100
AcDbPolyline
 90
        4
 70
     0
 43
0.0
 10
172.8711941141843
 20
-46.04954113061402
 10
172.8913785033848
 20
-46.15506713681376
 10
172.9488589021844
 20
-46.22122443681369
 10
172.9489142199835
 20
-46.22125486051401
  0
LWPOLYLINE
  5
391
330
70
100
AcDbEntity
  8
0
 62
     8
420
  8421504
370
    25
100
AcDbPolyline
 90
        7
 70
     0
 43
0.0
 10
173.3237432659839
 20
-45.57163799091347
 10
173.2378335006838
 20
-45.5549902412138
 10
173.1363596945842
 20
-45.59026163491358
 10
173.0348845712844
 20
-45.67215016431375
 10
172.9488589021844
 20
-45.78818796891354
 10
172.8913785033848
 20
-45.92070996441367
 10
172.8711941141843
 20
-46.04954113061402
  0
LWPOLYLINE
  5
392
330
70
100
AcDbEntity
  8
0
 62
     8
420
  8421504
370
    25
100
AcDbPolyline
 90
        5
 70
     0
 43
0.0
 10
105.1764262003846
 20
-6.231028495913905
 10
105.0904150192845
 20
-6.214322941513645
 10
104.9889412131836
 20
-6.249594335313529
 10
104.8874660899839
 20
-6.331482864613593
 10
104.8126988977836
 20
-6.428759585313464
  0
LWPOLYLINE
  5
393
330
70
100
AcDbEntity
  8
0
 62
     8
420
  8421504
370
    25
100
AcDbPolyline
 90
        3
 70
     0
 43
0.0
 10
103.9282828431847
 20
-5.331036864413397
 10
103.846990791984
 20
-5.26080356251393
 10
103.8184468388838
 20
-5.177960033214002
  0
LWPOLYLINE
  5
394
330
70
100
AcDbEntity
  8
0
 62
     8
420
  8421504
370
    25
100
AcDbPolyline
 90
        7
 70
     0
 43
0.0
 10
104.5684460568836
 20
-5.17795927291358
 10
104.5399007865845
 20
-5.26080356251393
 10
104.4586126866841
 20
-5.331036104113617
 10
104.3369518571838
 20
-5.377963485613878
 10
104.1934457892842
 20
-5.394442319413614
 10
104.0499410384848
 20
-5.377964245913658
 10
103.9282828431847
 20
-5.331036864413397
  0
LWPOLYLINE
  5
395
330
70
100
AcDbEntity
  8
0
 62
     8
420
  8421504
370
    25
100
AcDbPolyline
 90
        3
 70
     0
 43
0.0
 10
170.6614835790836
 20
-44.26299975481356
 10
170.5801941620844
 20
-44.19276797361376
 10
170.5516502089843
 20
-44.10992444431384
  0
LWPOLYLINE
  5
396
330
70
100
AcDbEntity
  8
0
 62
     8
420
  8421504
370
    25
100
AcDbPolyline
 90
        7
 70
     0
 43
0.0
 10
171.3016494269841
 20
-44.10992368401341
 10
171.2731041566837
 20
-44.19276797361376
 10
171.1918147396845
 20
-44.26300127551387
 10
171.0701552272843
 20
-44.30992789671371
 10
170.9266491593847
 20
-44.32640673051344
 10
170.7831444085839
 20
-44.3099286571136
 10
170.6614835790836
 20
-44.26299975481356
  0
LWPOLYLINE
  5
397
330
70
100
AcDbEntity
  8
0
 62
     8
420
  8421504
370
    25
100
AcDbPolyline
 90
        8
 70
     0
 43
0.0
 10
169.8659907893846
 20
-44.72237991611392
 10
169.8861751785838
 20
-44.59354874991357
 10
169.9436555773847
 20
-44.46102675441346
 10
170.0296812464846
 20
-44.34498894981366
 10
170.1311550526843
 20
-44.26310118081338
 10
170.232630175884
 20
-44.22782902661361
 10
170.318655844984
 20
-44.24454370801353
 10
170.3197055648848
 20
-44.24515711981387
  0
LWPOLYLINE
  5
398
330
70
100
AcDbEntity
  8
0
 62
     8
420
  8421504
370
    25
100
AcDbPolyline
 90
        3
 70
     0
 43
0.0
 10
169.943596308384
 20
-44.89402823541377
 10
169.8861751785838
 20
-44.82790630251394
 10
169.8659907893846
 20
-44.72237991611392
  0
LWPOLYLINE
  5
399
330
70
100
AcDbEntity
  8
0
 62
     8
420
  8421504
370
    25
100
AcDbPolyline
 90
        7
 70
     0
 43
0.0
 10
101.718572308084
 20
-5.381712616513876
 10
101.7387566971844
 20
-5.252881450213418
 10
101.7962370960841
 20
-5.120359454813407
 10
101.882262765084
 20
-5.004321650113505
 10
101.9837365712837
 20
-4.922433881113863
 10
102.0852116944841
 20
-4.887161727013557
 10
102.1712215584841
 20
-4.903868041713598
  0
LWPOLYLINE
  5
39A
330
70
100
AcDbEntity
  8
0
 62
     8
420
  8421504
370
    25
100
AcDbPolyline
 90
        4
 70
     0
 43
0.0
 10
101.796252901084
 20
-5.553404289213861
 10
101.7962370960841
 20
-5.553395542413823
 10
101.7387566971844
 20
-5.487239002913891
 10
101.718572308084
 20
-5.381712616513876
  0
LWPOLYLINE
  5
39B
330
70
100
AcDbEntity
  8
0
 62
     8
420
  8421504
370
    25
100
AcDbPolyline
 90
        7
 70
     0
 43
0.0
 10
100.9230795183843
 20
-4.003876030113573
 10
101.0447377136837
 20
-4.050803411713939
 10
101.1882424644845
 20
-4.06728148511379
 10
101.3317485323841
 20
-4.050802651313412
 10
101.4534080447843
 20
-4.003876030113573
 10
101.5346974617841
 20
-3.933642728213464
 10
101.5632427319837
 20
-3.850798438613755
  0
LWPOLYLINE
  5
39C
330
70
100
AcDbEntity
  8
0
 62
     8
420
  8421504
370
    25
100
AcDbPolyline
 90
        3
 70
     0
 43
0.0
 10
100.8132435140841
 20
-3.850799198913536
 10
100.8417874671842
 20
-3.933642728213464
 10
100.9230795183843
 20
-4.003876030113573
  0
LWPOLYLINE
  5
39D
330
70
100
AcDbEntity
  8
0
 62
     8
420
  8421504
370
    25
100
AcDbPolyline
 90
        4
 70
     0
 43
0.0
 10
143.4046531140846
 20
-6.277256162913882
 10
143.404667519784
 20
-5.869140086413652
 10
143.4047223435839
 20
-4.236606494713993
 10
143.4047337034845
 20
-3.567482121013791
  0
LWPOLYLINE
  5
39E
330
70
100
AcDbEntity
  8
0
 62
     8
420
  8421504
370
    25
100
AcDbPolyline
 90
        4
 70
     0
 43
0.0
 10
143.4047690178844
 20
-0.523159240313979
 10
143.4047567524836
 20
0.2733427793862147
 10
143.4046531140846
 20
3.521388799386111
 10
143.4046531140846
 20
3.52568389348607
  0
LWPOLYLINE
  5
39F
330
70
100
AcDbEntity
  8
0
 62
     8
420
  8421504
370
    25
100
AcDbPolyline
 90
        3
 70
     0
 43
0.0
 10
143.7505358361846
 20
3.525555065986274
 10
143.7496814569845
 20
0.2780539305865075
 10
143.7496792343841
 20
-0.7222717416133868
  0
LINE
  5
3A0
330
70
100
AcDbEntity
  8
0
 62
     8
420
  8421504
370
    25
100
AcDbLine
 10
143.7498823130845
 20
-3.766732236013996
 30
0.0
 11
143.7505358361846
 21
-6.272934761813791
 31
0.0
  0
LWPOLYLINE
  5
3A1
330
70
100
AcDbEntity
  8
0
 62
     8
420
  8421504
370
    25
100
AcDbPolyline
 90
        4
 70
     0
 43
0.0
 10
134.9043502658843
 20
8.428509182686113
 10
134.9040828144838
 20
8.020247025986247
 10
134.903134016484
 20
6.3871973539861
 10
134.9026576418846
 20
4.385005070786128
  0
LWPOLYLINE
  5
3A2
330
70
100
AcDbEntity
  8
0
 62
     8
420
  8421504
370
    25
100
AcDbPolyline
 90
        3
 70
     0
 43
0.0
 10
134.9029063246842
 20
1.340518360886536
 10
134.9043502658843
 20
-1.37013577961388
 10
134.9043529000845
 20
-1.374429353113636
  0
LWPOLYLINE
  5
3A3
330
70
100
AcDbEntity
  8
0
 62
     8
420
  8421504
370
    25
100
AcDbPolyline
 90
        3
 70
     0
 43
0.0
 10
139.0760068065842
 20
-1.068561399113906
 10
139.0971911132844
 20
-2.268466461413976
 10
139.1535584072839
 20
-3.834067978713584
  0
LINE
  5
3A4
330
70
100
AcDbEntity
  8
0
 62
     8
420
  8421504
370
    25
100
AcDbLine
 10
138.7966858943841
 20
2.144858172586209
 30
0.0
 11
139.0580849293836
 21
2.295760623386348
 31
0.0
  0
SPLINE
  5
3A5
330
70
100
AcDbEntity
  8
0
 62
     8
420
  8421504
370
    25
100
AcDbSpline
210
0.0
220
0.0
230
1.0
 70
     8
 71
     3
 72
     8
 73
     4
 74
     0
 42
0.0000000001
 43
0.0000000001
 40
0.0
 40
0.0
 40
0.0
 40
0.0
 40
1.0
 40
1.0
 40
1.0
 40
1.0
 10
143.6987492131898
 20
-6.387396130384439
 30
0.0
 10
143.7364808031031
 20
-6.362285871654586
 30
0.0
 10
143.7565840603818
 20
-6.317852653051639
 30
0.0
 10
143.7505358362077
 20
-6.272934761791973
 30
0.0
  0
SPLINE
  5
3A6
330
70
100
AcDbEntity
  8
0
 62
     8
420
  8421504
370
    25
100
AcDbSpline
210
0.0
220
0.0
230
1.0
 70
     8
 71
     3
 72
     8
 73
     4
 74
     0
 42
0.0000000001
 43
0.0000000001
 40
0.0
 40
0.0
 40
0.0
 40
0.0
 40
1.0
 40
1.0
 40
1.0
 40
1.0
 10
143.4046531140781
 20
-6.277256162842654
 30
0.0
 10
143.3982150176198
 20
-6.322293123588347
 30
0.0
 10
143.4185052665684
 20
-6.366971704098219
 30
0.0
 10
143.4566537640612
 20
-6.391760190502789
 30
0.0
  0
SPLINE
  5
3A7
330
70
100
AcDbEntity
  8
0
 62
     8
420
  8421504
370
    25
100
AcDbSpline
210
0.0
220
0.0
230
1.0
 70
     8
 71
     3
 72
     8
 73
     4
 74
     0
 42
0.0000000001
 43
0.0000000001
 40
0.0
 40
0.0
 40
0.0
 40
0.0
 40
1.0
 40
1.0
 40
1.0
 40
1.0
 10
134.8384777873899
 20
8.526136983238998
 30
0.0
 10
134.8420494523175
 20
8.484383655742792
 30
0.0
 10
134.8669694367474
 20
8.447450427658445
 30
0.0
 10
134.9043502658445
 20
8.428509182624511
 30
0.0
  0
SPLINE
  5
3A8
330
70
100
AcDbEntity
  8
0
 62
     8
420
  8421504
370
    25
100
AcDbSpline
210
0.0
220
0.0
230
1.0
 70
     8
 71
     3
 72
     8
 73
     4
 74
     0
 42
0.0000000001
 43
0.0000000001
 40
0.0
 40
0.0
 40
0.0
 40
0.0
 40
1.0
 40
1.0
 40
1.0
 40
1.0
 10
135.0884786517696
 20
8.730189476413384
 30
0.0
 10
135.0520067218359
 20
8.756317882911595
 30
0.0
 10
135.004376345097
 20
8.761034547871741
 30
0.0
 10
134.9634882212428
 20
8.742566829363811
 30
0.0
  0
LINE
  5
3A9
330
70
100
AcDbEntity
  8
0
 62
     8
420
  8421504
370
    25
100
AcDbLine
 10
138.5936872448841
 20
0.7522785103865002
 30
0.0
 11
138.6214966739844
 21
0.768332551986605
 31
0.0
  0
SPLINE
  5
3AA
330
70
100
AcDbEntity
  8
0
 62
     8
420
  8421504
370
    25
100
AcDbSpline
210
0.0
220
0.0
230
1.0
 70
     8
 71
     3
 72
     8
 73
     4
 74
     0
 42
0.0000000001
 43
0.0000000001
 40
0.0
 40
0.0
 40
0.0
 40
0.0
 40
1.0
 40
1.0
 40
1.0
 40
1.0
 10
139.153558407307
 20
-3.834067978685991
 30
0.0
 10
139.1515581839436
 20
-3.87556500293703
 30
0.0
 10
139.1711002216366
 20
-3.915159733113395
 30
0.0
 10
139.2052551390007
 20
-3.938812334135604
 30
0.0
  0
LINE
  5
3AB
330
70
100
AcDbEntity
  8
0
 62
     8
420
  8421504
370
    25
100
AcDbLine
 10
138.717602519184
 20
0.5681575763865905
 30
0.0
 11
138.7205666280839
 21
0.5698687200861819
 31
0.0
  0
LINE
  5
3AC
330
70
100
AcDbEntity
  8
0
 62
     8
420
  8421504
370
    25
100
AcDbLine
 10
138.6303047890843
 20
0.6918925708862265
 30
0.0
 11
138.6556333163836
 21
0.7065144183860718
 31
0.0
  0
SPLINE
  5
3AD
330
70
100
AcDbEntity
  8
0
 62
     8
420
  8421504
370
    25
100
AcDbSpline
210
0.0
220
0.0
230
1.0
 70
     8
 71
     3
 72
     8
 73
     4
 74
     0
 42
0.0000000001
 43
0.0000000001
 40
0.0
 40
0.0
 40
0.0
 40
0.0
 40
1.0
 40
1.0
 40
1.0
 40
1.0
 10
134.9117944529845
 20
-1.383029109580125
 30
0.0
 10
134.9095148337952
 20
-1.424902737908378
 30
0.0
 10
134.9290691925757
 20
-1.464973465418355
 30
0.0
 10
134.963479742467
 20
-1.488942434298891
 30
0.0
  0
SPLINE
  5
3AE
330
70
100
AcDbEntity
  8
0
 62
     8
420
  8421504
370
    25
100
AcDbSpline
210
0.0
220
0.0
230
1.0
 70
     8
 71
     3
 72
     8
 73
     4
 74
     0
 42
0.0000000001
 43
0.0000000001
 40
0.0
 40
0.0
 40
0.0
 40
0.0
 40
1.0
 40
1.0
 40
1.0
 40
1.0
 10
134.838644234526
 20
-1.281522516505966
 30
0.0
 10
134.8437281001647
 20
-1.325772130192411
 30
0.0
 10
134.8714260724767
 20
-1.364207105041804
 30
0.0
 10
134.9117944529742
 20
-1.383029109645579
 30
0.0
  0
INSERT
  5
3B1
330
70
100
AcDbEntity
  8
CAPA_BASE
100
AcDbBlockReference
  2
Block_0
 10
0.0
 20
0.0
 30
0.0
  0
INSERT
  5
3BD
330
70
100
AcDbEntity
  8
CAPA_BASE
100
AcDbBlockReference
  2
Block_1
 10
0.0
 20
0.0
 30
0.0
  0
INSERT
  5
3C9
330
70
100
AcDbEntity
  8
CAPA_BASE
100
AcDbBlockReference
  2
Block_2
 10
0.0
 20
0.0
 30
0.0
  0
ENDSEC
  0
SECTION
  2
OBJECTS
  0
DICTIONARY
  5
C
330
0
100
AcDbDictionary
281
     1
  3
ACAD_COLOR
350
63
  3
ACAD_DETAILVIEWSTYLE
350
6A
  3
ACAD_GROUP
350
D
  3
ACAD_LAYOUT
350
62
  3
ACAD_MATERIAL
350
10
  3
ACAD_MLEADERSTYLE
350
66
  3
ACAD_MLINESTYLE
350
5F
  3
ACAD_PLOTSETTINGS
350
61
  3
ACAD_PLOTSTYLENAME
350
E
  3
ACAD_SCALELIST
350
42
  3
ACAD_SECTIONVIEWSTYLE
350
68
  3
ACAD_TABLESTYLE
350
64
  3
ACAD_VISUALSTYLE
350
29
  3
ACDB_RECOMPOSE_DATA
350
3DC
  3
AcDbVariableDictionary
350
3D4
  0
DICTIONARY
  5
63
102
{ACAD_REACTORS
330
C
102
}
330
C
100
AcDbDictionary
281
     1
  0
DICTIONARY
  5
6A
102
{ACAD_REACTORS
330
C
102
}
330
C
100
AcDbDictionary
281
     1
  3
Imperial24
350
6B
  0
DICTIONARY
  5
D
102
{ACAD_REACTORS
330
C
102
}
330
C
100
AcDbDictionary
281
     1
  0
DICTIONARY
  5
62
102
{ACAD_REACTORS
330
C
102
}
330
C
100
AcDbDictionary
281
     1
  3
Layout1
350
6F
  3
Layout2
350
77
  3
Model
350
73
  0
DICTIONARY
  5
10
102
{ACAD_REACTORS
330
C
102
}
330
C
100
AcDbDictionary
281
     1
  3
ByBlock
350
19
  3
ByLayer
350
11
  3
Global
350
21
  0
DICTIONARY
  5
66
102
{ACAD_REACTORS
330
C
102
}
330
C
100
AcDbDictionary
281
     1
  3
Standard
350
67
  0
DICTIONARY
  5
5F
102
{ACAD_REACTORS
330
C
102
}
330
C
100
AcDbDictionary
281
     1
  3
Standard
350
60
  0
DICTIONARY
  5
61
102
{ACAD_REACTORS
330
C
102
}
330
C
100
AcDbDictionary
281
     1
  0
ACDBDICTIONARYWDFLT
  5
E
102
{ACAD_REACTORS
330
C
102
}
330
C
100
AcDbDictionary
281
     1
  3
Normal
350
F
100
AcDbDictionaryWithDefault
340
F
  0
DICTIONARY
  5
42
102
{ACAD_REACTORS
330
C
102
}
330
C
100
AcDbDictionary
281
     1
  3
A0
350
43
  3
A1
350
44
  3
A2
350
45
  3
A3
350
46
  3
A4
350
47
  3
A5
350
48
  3
A6
350
49
  3
A7
350
4A
  3
A8
350
4B
  3
A9
350
4C
  3
B0
350
4D
  3
B1
350
4E
  3
B2
350
4F
  3
B3
350
50
  3
B4
350
51
  3
B5
350
52
  3
B6
350
53
  0
DICTIONARY
  5
68
102
{ACAD_REACTORS
330
C
102
}
330
C
100
AcDbDictionary
281
     1
  3
Imperial24
350
69
  0
DICTIONARY
  5
64
102
{ACAD_REACTORS
330
C
102
}
330
C
100
AcDbDictionary
281
     1
  3
Standard
350
65
  0
DICTIONARY
  5
29
102
{ACAD_REACTORS
330
C
102
}
330
C
100
AcDbDictionary
281
     1
  3
2dWireframe
350
2F
  3
Basic
350
2E
  3
Brighten
350
35
  3
ColorChange
350
39
  3
Conceptual
350
32
  3
Dim
350
34
  3
EdgeColorOff
350
41
  3
Facepattern
350
38
  3
Flat
350
2A
  3
FlatWithEdges
350
2B
  3
Gouraud
350
2C
  3
GouraudWithEdges
350
2D
  3
Hidden
350
31
  3
JitterOff
350
3F
  3
Linepattern
350
37
  3
OverhangOff
350
40
  3
Realistic
350
33
  3
Shaded
350
3E
  3
Shaded with edges
350
3D
  3
Shades of Gray
350
3A
  3
Sketchy
350
3B
  3
Thicken
350
36
  3
Wireframe
350
30
  3
X-Ray
350
3C
  0
XRECORD
  5
3DC
102
{ACAD_REACTORS
330
C
102
}
330
C
100
AcDbXrecord
280
     1
 90
        1
330
65
  0
DICTIONARY
  5
3D4
102
{ACAD_REACTORS
330
C
102
}
330
C
100
AcDbDictionary
281
     1
  3
CANNOSCALE
350
3D9
  3
CMLEADERSTYLE
350
3D6
  3
CTABLESTYLE
350
3D5
  3
CVIEWDETAILSTYLE
350
3D7
  3
CVIEWSECTIONSTYLE
350
3D8
  0
ACDBDETAILVIEWSTYLE
  5
6B
102
{ACAD_REACTORS
330
6A
102
}
330
6A
100
AcDbModelDocViewStyle
 70
     0
  3
Imperial24
290
     1
300
Imperial24
 90
        0
100
AcDbDetailViewStyle
 70
     0
 71
     0
 90
        3
 71
     1
340
55
 62
   256
 40
0.24
340
0
 62
   256
 40
0.24
300

 40
0.36
280
     3
 71
     2
340
5D
 90
       25
 62
   256
 71
     3
340
55
 62
   256
 40
0.24
 90
        1
 40
0.75
 90
        1
300
%<\AcVar ViewType \f "%tc1">% %<\AcVar ViewDetailId>%\PSCALE %<\AcVar ViewScale \f "%sn">%
 71
     4
340
5D
 90
       25
 62
   256
340
5D
 90
       25
 62
   256
280
     0
  0
LAYOUT
  5
6F
102
{ACAD_REACTORS
330
62
102
}
330
62
100
AcDbPlotSettings
  1

  2

  4

  6

 40
0.0
 41
0.0
 42
0.0
 43
0.0
 44
0.0
 45
0.0
 46
0.0
 47
0.0
 48
0.0
 49
0.0
140
0.0
141
0.0
142
1.0
143
1.0
 70
   688
 72
     0
 73
     0
 74
     5
  7

 75
    16
147
1.0
 76
     0
 77
     2
 78
   300
148
0.0
149
0.0
100
AcDbLayout
  1
Layout1
 70
     1
 71
     1
 10
0.0
 20
0.0
 11
12.0
 21
9.0
 12
0.0
 22
0.0
 32
0.0
 14
0.0
 24
0.0
 34
0.0
 15
0.0
 25
0.0
 35
0.0
146
0.0
 13
0.0
 23
0.0
 33
0.0
 16
1.0
 26
0.0
 36
0.0
 17
0.0
 27
1.0
 37
0.0
 76
     0
330
6C
  0
LAYOUT
  5
77
102
{ACAD_REACTORS
330
62
102
}
330
62
100
AcDbPlotSettings
  1

  2

  4

  6

 40
0.0
 41
0.0
 42
0.0
 43
0.0
 44
0.0
 45
0.0
 46
0.0
 47
0.0
 48
0.0
 49
0.0
140
0.0
141
0.0
142
1.0
143
1.0
 70
   688
 72
     0
 73
     0
 74
     5
  7

 75
    16
147
1.0
 76
     0
 77
     2
 78
   300
148
0.0
149
0.0
100
AcDbLayout
  1
Layout2
 70
     1
 71
     2
 10
0.0
 20
0.0
 11
12.0
 21
9.0
 12
0.0
 22
0.0
 32
0.0
 14
0.0
 24
0.0
 34
0.0
 15
0.0
 25
0.0
 35
0.0
146
0.0
 13
0.0
 23
0.0
 33
0.0
 16
1.0
 26
0.0
 36
0.0
 17
0.0
 27
1.0
 37
0.0
 76
     0
330
74
  0
LAYOUT
  5
73
102
{ACAD_REACTORS
330
62
102
}
330
62
100
AcDbPlotSettings
  1

  2

  4

  6

 40
0.0
 41
0.0
 42
0.0
 43
0.0
 44
0.0
 45
0.0
 46
0.0
 47
0.0
 48
0.0
 49
0.0
140
0.0
141
0.0
142
1.0
143
1.0
 70
  1712
 72
     0
 73
     0
 74
     0
  7

 75
     0
147
1.0
 76
     0
 77
     2
 78
   300
148
0.0
149
0.0
100
AcDbLayout
  1
Model
 70
     1
 71
     0
 10
0.0
 20
0.0
 11
12.0
 21
9.0
 12
0.0
 22
0.0
 32
0.0
 14
0.0
 24
0.0
 34
0.0
 15
0.0
 25
0.0
 35
0.0
146
0.0
 13
0.0
 23
0.0
 33
0.0
 16
1.0
 26
0.0
 36
0.0
 17
0.0
 27
1.0
 37
0.0
 76
     0
330
70
  0
MATERIAL
  5
19
102
{ACAD_XDICTIONARY
360
1A
102
}
102
{ACAD_REACTORS
330
10
102
}
330
10
100
AcDbMaterial
  1
ByBlock
 72
     0
 43
0.0208333333333333
 43
0.0
 43
0.0
 43
0.0
 43
0.0
 43
0.0208333333333333
 43
0.0
 43
0.0
 43
0.0
 43
0.0
 43
1.0
 43
0.0
 43
0.0
 43
0.0
 43
0.0
 43
1.0
 77
     0
 47
0.0208333333333333
 47
0.0
 47
0.0
 47
0.0
 47
0.0
 47
0.0208333333333333
 47
0.0
 47
0.0
 47
0.0
 47
0.0
 47
1.0
 47
0.0
 47
0.0
 47
0.0
 47
0.0
 47
1.0
171
     0
 49
0.0208333333333333
 49
0.0
 49
0.0
 49
0.0
 49
0.0
 49
0.0208333333333333
 49
0.0
 49
0.0
 49
0.0
 49
0.0
 49
1.0
 49
0.0
 49
0.0
 49
0.0
 49
0.0
 49
1.0
175
     0
142
0.0208333333333333
142
0.0
142
0.0
142
0.0
142
0.0
142
0.0208333333333333
142
0.0
142
0.0
142
0.0
142
0.0
142
1.0
142
0.0
142
0.0
142
0.0
142
0.0
142
1.0
179
     0
144
0.0208333333333333
144
0.0
144
0.0
144
0.0
144
0.0
144
0.0208333333333333
144
0.0
144
0.0
144
0.0
144
0.0
144
1.0
144
0.0
144
0.0
144
0.0
144
0.0
144
1.0
147
0.0208333333333333
147
0.0
147
0.0
147
0.0
147
0.0
147
0.0208333333333333
147
0.0
147
0.0
147
0.0
147
0.0
147
1.0
147
0.0
147
0.0
147
0.0
147
0.0
147
1.0
  0
MATERIAL
  5
11
102
{ACAD_XDICTIONARY
360
12
102
}
102
{ACAD_REACTORS
330
10
102
}
330
10
100
AcDbMaterial
  1
ByLayer
 72
     0
 43
0.0208333333333333
 43
0.0
 43
0.0
 43
0.0
 43
0.0
 43
0.0208333333333333
 43
0.0
 43
0.0
 43
0.0
 43
0.0
 43
1.0
 43
0.0
 43
0.0
 43
0.0
 43
0.0
 43
1.0
 77
     0
 47
0.0208333333333333
 47
0.0
 47
0.0
 47
0.0
 47
0.0
 47
0.0208333333333333
 47
0.0
 47
0.0
 47
0.0
 47
0.0
 47
1.0
 47
0.0
 47
0.0
 47
0.0
 47
0.0
 47
1.0
171
     0
 49
0.0208333333333333
 49
0.0
 49
0.0
 49
0.0
 49
0.0
 49
0.0208333333333333
 49
0.0
 49
0.0
 49
0.0
 49
0.0
 49
1.0
 49
0.0
 49
0.0
 49
0.0
 49
0.0
 49
1.0
175
     0
142
0.0208333333333333
142
0.0
142
0.0
142
0.0
142
0.0
142
0.0208333333333333
142
0.0
142
0.0
142
0.0
142
0.0
142
1.0
142
0.0
142
0.0
142
0.0
142
0.0
142
1.0
179
     0
144
0.0208333333333333
144
0.0
144
0.0
144
0.0
144
0.0
144
0.0208333333333333
144
0.0
144
0.0
144
0.0
144
0.0
144
1.0
144
0.0
144
0.0
144
0.0
144
0.0
144
1.0
147
0.0208333333333333
147
0.0
147
0.0
147
0.0
147
0.0
147
0.0208333333333333
147
0.0
147
0.0
147
0.0
147
0.0
147
1.0
147
0.0
147
0.0
147
0.0
147
0.0
147
1.0
  0
MATERIAL
  5
21
102
{ACAD_XDICTIONARY
360
22
102
}
102
{ACAD_REACTORS
330
10
102
}
330
10
100
AcDbMaterial
  1
Global
 72
     0
 43
0.0208333333333333
 43
0.0
 43
0.0
 43
0.0
 43
0.0
 43
0.0208333333333333
 43
0.0
 43
0.0
 43
0.0
 43
0.0
 43
1.0
 43
0.0
 43
0.0
 43
0.0
 43
0.0
 43
1.0
 77
     0
 47
0.0208333333333333
 47
0.0
 47
0.0
 47
0.0
 47
0.0
 47
0.0208333333333333
 47
0.0
 47
0.0
 47
0.0
 47
0.0
 47
1.0
 47
0.0
 47
0.0
 47
0.0
 47
0.0
 47
1.0
171
     0
 49
0.0208333333333333
 49
0.0
 49
0.0
 49
0.0
 49
0.0
 49
0.0208333333333333
 49
0.0
 49
0.0
 49
0.0
 49
0.0
 49
1.0
 49
0.0
 49
0.0
 49
0.0
 49
0.0
 49
1.0
175
     0
142
0.0208333333333333
142
0.0
142
0.0
142
0.0
142
0.0
142
0.0208333333333333
142
0.0
142
0.0
142
0.0
142
0.0
142
1.0
142
0.0
142
0.0
142
0.0
142
0.0
142
1.0
179
     0
144
0.0208333333333333
144
0.0
144
0.0
144
0.0
144
0.0
144
0.0208333333333333
144
0.0
144
0.0
144
0.0
144
0.0
144
1.0
144
0.0
144
0.0
144
0.0
144
0.0
144
1.0
147
0.0208333333333333
147
0.0
147
0.0
147
0.0
147
0.0
147
0.0208333333333333
147
0.0
147
0.0
147
0.0
147
0.0
147
1.0
147
0.0
147
0.0
147
0.0
147
0.0
147
1.0
  0
MLEADERSTYLE
  5
67
102
{ACAD_REACTORS
330
66
102
}
330
66
100
AcDbMLeaderStyle
179
     2
170
     2
171
     1
172
     0
 90
        2
 40
0.0
 41
0.0
173
     1
 91
-1056964608
340
5B
 92
       -2
290
     1
 42
0.09
291
     1
 43
0.36
  3
Standard
 44
0.18
300

342
55
174
     1
178
     6
175
     1
176
     0
 93
-1056964608
 45
0.18
292
     0
297
     0
 46
0.18
 94
-1056964608
 47
1.0
 49
1.0
140
1.0
293
     1
141
0.0
294
     1
177
     0
142
1.0
295
     1
296
     0
143
0.125
271
     0
272
     9
273
     9
298
     1
  0
MLINESTYLE
  5
60
102
{ACAD_REACTORS
330
5F
102
}
330
5F
100
AcDbMlineStyle
  2
STANDARD
 70
     0
  3

 62
   256
 51
90.0
 52
90.0
 71
     2
 49
0.5
 62
   256
  6
BYLAYER
 49
-0.5
 62
   256
  6
BYLAYER
  0
ACDBPLACEHOLDER
  5
F
102
{ACAD_REACTORS
330
E
102
}
330
E
  0
SCALE
  5
43
102
{ACAD_REACTORS
330
42
102
}
330
42
100
AcDbScale
 70
     0
300
1:1
140
1.0
141
1.0
290
     1
  0
SCALE
  5
44
102
{ACAD_REACTORS
330
42
102
}
330
42
100
AcDbScale
 70
     0
300
1/128" = 1'-0"
140
0.0078125
141
12.0
290
     0
  0
SCALE
  5
45
102
{ACAD_REACTORS
330
42
102
}
330
42
100
AcDbScale
 70
     0
300
1/64" = 1'-0"
140
0.015625
141
12.0
290
     0
  0
SCALE
  5
46
102
{ACAD_REACTORS
330
42
102
}
330
42
100
AcDbScale
 70
     0
300
1/32" = 1'-0"
140
0.03125
141
12.0
290
     0
  0
SCALE
  5
47
102
{ACAD_REACTORS
330
42
102
}
330
42
100
AcDbScale
 70
     0
300
1/16" = 1'-0"
140
0.0625
141
12.0
290
     0
  0
SCALE
  5
48
102
{ACAD_REACTORS
330
42
102
}
330
42
100
AcDbScale
 70
     0
300
3/32" = 1'-0"
140
0.09375
141
12.0
290
     0
  0
SCALE
  5
49
102
{ACAD_REACTORS
330
42
102
}
330
42
100
AcDbScale
 70
     0
300
1/8" = 1'-0"
140
0.125
141
12.0
290
     0
  0
SCALE
  5
4A
102
{ACAD_REACTORS
330
42
102
}
330
42
100
AcDbScale
 70
     0
300
3/16" = 1'-0"
140
0.1875
141
12.0
290
     0
  0
SCALE
  5
4B
102
{ACAD_REACTORS
330
42
102
}
330
42
100
AcDbScale
 70
     0
300
1/4" = 1'-0"
140
0.25
141
12.0
290
     0
  0
SCALE
  5
4C
102
{ACAD_REACTORS
330
42
102
}
330
42
100
AcDbScale
 70
     0
300
3/8" = 1'-0"
140
0.375
141
12.0
290
     0
  0
SCALE
  5
4D
102
{ACAD_REACTORS
330
42
102
}
330
42
100
AcDbScale
 70
     0
300
1/2" = 1'-0"
140
0.5
141
12.0
290
     0
  0
SCALE
  5
4E
102
{ACAD_REACTORS
330
42
102
}
330
42
100
AcDbScale
 70
     0
300
3/4" = 1'-0"
140
0.75
141
12.0
290
     0
  0
SCALE
  5
4F
102
{ACAD_REACTORS
330
42
102
}
330
42
100
AcDbScale
 70
     0
300
1" = 1'-0"
140
1.0
141
12.0
290
     0
  0
SCALE
  5
50
102
{ACAD_REACTORS
330
42
102
}
330
42
100
AcDbScale
 70
     0
300
1-1/2" = 1'-0"
140
1.5
141
12.0
290
     0
  0
SCALE
  5
51
102
{ACAD_REACTORS
330
42
102
}
330
42
100
AcDbScale
 70
     0
300
3" = 1'-0"
140
3.0
141
12.0
290
     0
  0
SCALE
  5
52
102
{ACAD_REACTORS
330
42
102
}
330
42
100
AcDbScale
 70
     0
300
6" = 1'-0"
140
6.0
141
12.0
290
     0
  0
SCALE
  5
53
102
{ACAD_REACTORS
330
42
102
}
330
42
100
AcDbScale
 70
     0
300
1'-0" = 1'-0"
140
12.0
141
12.0
290
     0
  0
ACDBSECTIONVIEWSTYLE
  5
69
102
{ACAD_REACTORS
330
68
102
}
330
68
100
AcDbModelDocViewStyle
 70
     0
  3
Imperial24
290
     1
300
Imperial24
 90
        0
100
AcDbSectionViewStyle
 70
     0
 71
     0
 90
       78
 71
     1
340
55
 62
   256
 40
0.24
340
0
340
0
 62
   256
 40
0.24
300
I, O, Q, S, X, Z
 40
0.48
 90
        3
 40
0.18
 90
        1
 71
     2
340
5D
 90
       25
 62
   256
340
5D
 90
       50
 62
   256
 40
0.24
 40
0.0
 40
0.24
 71
     3
340
55
 62
   256
 40
0.24
 90
        1
 40
0.75
 90
        1
300
%<\AcVar ViewType \f "%tc1">% %<\AcVar ViewSectionStartId>%-%<\AcVar ViewSectionEndId>%\PSCALE %<\AcVar ViewScale \f "%sn">%
 71
     4
 62
   256
 62
   257
300
ANSI31
 40
1.0
 90
        0
290
     0
290
     0
 90
        6
 40
0.0
 40
1.570796326794896
 40
0.2617993877991494
 40
1.308996938995747
 40
-0.2617993877991494
 40
1.832595714594046
  0
TABLESTYLE
  5
65
102
{ACAD_XDICTIONARY
360
3DA
102
}
102
{ACAD_REACTORS
330
64
102
}
330
64
100
AcDbTableStyle
280
     0
  3
Standard
 70
     0
 71
     0
 40
0.06
 41
0.06
280
     0
281
     0
  7
Standard
140
0.18
170
     2
 62
     0
 63
     7
283
     0
 90
      512
 91
        0
  1

274
    -2
284
     1
 64
     0
275
    -2
285
     1
 65
     0
276
    -2
286
     1
 66
     0
277
    -2
287
     1
 67
     0
278
    -2
288
     1
 68
     0
279
    -2
289
     1
 69
     0
  7
Standard
140
0.25
170
     5
 62
     0
 63
     7
283
     0
 90
      512
 91
        0
  1

274
    -2
284
     1
 64
     0
275
    -2
285
     1
 65
     0
276
    -2
286
     1
 66
     0
277
    -2
287
     1
 67
     0
278
    -2
288
     1
 68
     0
279
    -2
289
     1
 69
     0
  7
Standard
140
0.18
170
     5
 62
     0
 63
     7
283
     0
 90
      512
 91
        0
  1

274
    -2
284
     1
 64
     0
275
    -2
285
     1
 65
     0
276
    -2
286
     1
 66
     0
277
    -2
287
     1
 67
     0
278
    -2
288
     1
 68
     0
279
    -2
289
     1
 69
     0
  0
VISUALSTYLE
  5
2F
102
{ACAD_REACTORS
330
29
102
}
330
29
100
AcDbVisualStyle
  2
2dWireframe
 70
     4
177
     3
291
     0
 70
    58
 90
        0
176
     1
 90
        2
176
     1
 90
        0
176
     1
 90
        0
176
     1
 40
0.6
176
     1
 40
30.0
176
     1
 62
     7
420
 16777215
176
     1
 90
        1
176
     1
 90
        4
176
     1
 62
     7
176
     1
 62
   257
176
     1
 90
        1
176
     1
 90
        1
176
     1
 40
1.0
176
     1
 90
        0
176
     1
 62
   257
176
     1
 40
1.0
176
     1
 90
        1
176
     1
 90
        6
176
     1
 90
        2
176
     1
 62
     7
176
     1
 90
        5
176
     1
 90
        0
176
     1
 90
        0
176
     1
290
     0
176
     1
 90
        1
176
     1
 40
0.0
176
     1
 90
        0
176
     1
290
     1
176
     1
290
     1
176
     1
290
     0
176
     1
290
     0
176
     1
290
     0
176
     1
290
     0
176
     1
290
     0
176
     1
290
     0
176
     1
290
     0
176
     1
 90
       50
176
     1
 40
0.0
176
     1
 40
1.0
176
     1
 90
        0
176
     1
 62
    18
420
        0
176
     1
 90
       50
176
     1
 90
        3
176
     1
 62
     5
420
      255
176
     1
290
     0
176
     1
 90
       50
176
     1
 90
       50
176
     1
 90
       50
176
     1
290
     0
176
     1
 90
       50
176
     1
 62
   256
176
     0
 40
1.0
176
     0
 90
        2
176
     1
  1
strokes_ogs.tif
176
     1
290
     0
176
     1
 40
1.0
176
     1
 40
1.0
176
     1
  0
VISUALSTYLE
  5
2E
102
{ACAD_REACTORS
330
29
102
}
330
29
100
AcDbVisualStyle
  2
Basic
 70
     7
177
     3
291
     1
 70
    58
 90
        1
176
     1
 90
        0
176
     1
 90
        1
176
     1
 90
        0
176
     1
 40
0.6
176
     1
 40
30.0
176
     1
 62
     7
420
 16777215
176
     1
 90
        0
176
     1
 90
        4
176
     1
 62
     7
176
     1
 62
   257
176
     1
 90
        1
176
     1
 90
        1
176
     1
 40
1.0
176
     1
 90
        8
176
     1
 62
     7
176
     1
 40
1.0
176
     1
 90
        1
176
     1
 90
        6
176
     1
 90
        2
176
     1
 62
     7
176
     1
 90
        5
176
     1
 90
        0
176
     1
 90
        0
176
     1
290
     0
176
     1
 90
        1
176
     1
 40
0.0
176
     1
 90
        0
176
     1
290
     0
176
     1
290
     1
176
     1
290
     1
176
     1
290
     0
176
     1
290
     0
176
     1
290
     0
176
     1
290
     0
176
     1
290
     0
176
     1
290
     0
176
     1
 90
       50
176
     1
 40
0.0
176
     1
 40
1.0
176
     1
 90
        0
176
     1
 62
    18
420
        0
176
     1
 90
       50
176
     1
 90
        3
176
     1
 62
     5
420
      255
176
     1
290
     0
176
     1
 90
       50
176
     1
 90
       50
176
     1
 90
       50
176
     1
290
     0
176
     1
 90
       50
176
     1
 62
   256
176
     0
 40
1.0
176
     0
 90
        2
176
     1
  1
strokes_ogs.tif
176
     1
290
     0
176
     1
 40
1.0
176
     1
 40
1.0
176
     1
  0
VISUALSTYLE
  5
35
102
{ACAD_REACTORS
330
29
102
}
330
29
100
AcDbVisualStyle
  2
Brighten
 70
    12
177
     3
291
     1
 70
    58
 90
        2
176
     1
 90
        2
176
     1
 90
        0
176
     1
 90
        0
176
     1
 40
0.6
176
     1
 40
30.0
176
     1
 62
     7
420
 16777215
176
     1
 90
        1
176
     1
 90
        4
176
     1
 62
     7
176
     1
 62
   257
176
     1
 90
        1
176
     1
 90
        1
176
     1
 40
1.0
176
     1
 90
        8
176
     1
 62
     7
176
     1
 40
1.0
176
     1
 90
        1
176
     1
 90
        6
176
     1
 90
        2
176
     1
 62
     7
176
     1
 90
        5
176
     1
 90
        0
176
     1
 90
        0
176
     1
290
     0
176
     1
 90
        1
176
     1
 40
50.0
176
     1
 90
        0
176
     1
290
     0
176
     1
290
     1
176
     1
290
     1
176
     1
290
     0
176
     1
290
     0
176
     1
290
     0
176
     1
290
     0
176
     1
290
     0
176
     1
290
     0
176
     1
 90
       50
176
     1
 40
0.0
176
     1
 40
1.0
176
     1
 90
        0
176
     1
 62
    18
420
        0
176
     1
 90
       50
176
     1
 90
        3
176
     1
 62
     5
420
      255
176
     1
290
     0
176
     1
 90
       50
176
     1
 90
       50
176
     1
 90
       50
176
     1
290
     0
176
     1
 90
       50
176
     1
 62
   256
176
     0
 40
1.0
176
     0
 90
        2
176
     1
  1
strokes_ogs.tif
176
     1
290
     0
176
     1
 40
1.0
176
     1
 40
1.0
176
     1
  0
VISUALSTYLE
  5
39
102
{ACAD_REACTORS
330
29
102
}
330
29
100
AcDbVisualStyle
  2
ColorChange
 70
    16
177
     3
291
     1
 70
    58
 90
        2
176
     1
 90
        2
176
     1
 90
        3
176
     1
 90
        0
176
     1
 40
0.6
176
     1
 40
30.0
176
     1
 62
     8
420
  8421504
176
     1
 90
        1
176
     1
 90
        4
176
     1
 62
     7
176
     1
 62
   257
176
     1
 90
        1
176
     1
 90
        1
176
     1
 40
1.0
176
     1
 90
        8
176
     1
 62
     8
420
  8421504
176
     1
 40
1.0
176
     1
 90
        1
176
     1
 90
        6
176
     1
 90
        2
176
     1
 62
     7
176
     1
 90
        5
176
     1
 90
        0
176
     1
 90
        0
176
     1
290
     0
176
     1
 90
        1
176
     1
 40
0.0
176
     1
 90
        0
176
     1
290
     0
176
     1
290
     1
176
     1
290
     1
176
     1
290
     0
176
     1
290
     0
176
     1
290
     0
176
     1
290
     0
176
     1
290
     0
176
     1
290
     0
176
     1
 90
       50
176
     1
 40
0.0
176
     1
 40
1.0
176
     1
 90
        0
176
     1
 62
    18
420
        0
176
     1
 90
       50
176
     1
 90
        3
176
     1
 62
     5
420
      255
176
     1
290
     0
176
     1
 90
       50
176
     1
 90
       50
176
     1
 90
       50
176
     1
290
     0
176
     1
 90
       50
176
     1
 62
   256
176
     0
 40
1.0
176
     0
 90
        2
176
     1
  1
strokes_ogs.tif
176
     1
290
     0
176
     1
 40
1.0
176
     1
 40
1.0
176
     1
  0
VISUALSTYLE
  5
32
102
{ACAD_REACTORS
330
29
102
}
330
29
100
AcDbVisualStyle
  2
Conceptual
 70
     9
177
     3
291
     0
 70
    58
 90
        3
176
     1
 90
        2
176
     1
 90
        0
176
     1
 90
        0
176
     1
 40
0.6
176
     1
 40
30.0
176
     1
 62
     7
420
 16777215
176
     1
 90
        2
176
     1
 90
        2
176
     1
 62
     7
176
     1
 62
   257
176
     1
 90
        1
176
     1
 90
        1
176
     1
 40
179.0
176
     1
 90
        8
176
     1
 62
     7
176
     1
 40
1.0
176
     1
 90
        1
176
     1
 90
        6
176
     1
 90
        2
176
     1
 62
     7
176
     1
 90
        3
176
     1
 90
        0
176
     1
 90
        0
176
     1
290
     0
176
     1
 90
        1
176
     1
 40
0.0
176
     1
 90
        0
176
     1
290
     0
176
     1
290
     1
176
     1
290
     1
176
     1
290
     0
176
     1
290
     0
176
     1
290
     0
176
     1
290
     0
176
     1
290
     0
176
     1
290
     0
176
     1
 90
       50
176
     1
 40
0.0
176
     1
 40
1.0
176
     1
 90
        0
176
     1
 62
    18
420
        0
176
     1
 90
       50
176
     1
 90
        3
176
     1
 62
     5
420
      255
176
     1
290
     0
176
     1
 90
       50
176
     1
 90
       50
176
     1
 90
       50
176
     1
290
     0
176
     1
 90
       50
176
     1
 62
   256
176
     0
 40
1.0
176
     0
 90
        2
176
     1
  1
strokes_ogs.tif
176
     1
290
     0
176
     1
 40
1.0
176
     1
 40
1.0
176
     1
  0
VISUALSTYLE
  5
34
102
{ACAD_REACTORS
330
29
102
}
330
29
100
AcDbVisualStyle
  2
Dim
 70
    11
177
     3
291
     1
 70
    58
 90
        2
176
     1
 90
        2
176
     1
 90
        0
176
     1
 90
        0
176
     1
 40
0.6
176
     1
 40
30.0
176
     1
 62
     7
420
 16777215
176
     1
 90
        1
176
     1
 90
        4
176
     1
 62
     7
176
     1
 62
   257
176
     1
 90
        1
176
     1
 90
        1
176
     1
 40
1.0
176
     1
 90
        8
176
     1
 62
     7
176
     1
 40
1.0
176
     1
 90
        1
176
     1
 90
        6
176
     1
 90
        2
176
     1
 62
     7
176
     1
 90
        5
176
     1
 90
        0
176
     1
 90
        0
176
     1
290
     0
176
     1
 90
        1
176
     1
 40
-50.0
176
     1
 90
        0
176
     1
290
     0
176
     1
290
     1
176
     1
290
     1
176
     1
290
     0
176
     1
290
     0
176
     1
290
     0
176
     1
290
     0
176
     1
290
     0
176
     1
290
     0
176
     1
 90
       50
176
     1
 40
0.0
176
     1
 40
1.0
176
     1
 90
        0
176
     1
 62
    18
420
        0
176
     1
 90
       50
176
     1
 90
        3
176
     1
 62
     5
420
      255
176
     1
290
     0
176
     1
 90
       50
176
     1
 90
       50
176
     1
 90
       50
176
     1
290
     0
176
     1
 90
       50
176
     1
 62
   256
176
     0
 40
1.0
176
     0
 90
        2
176
     1
  1
strokes_ogs.tif
176
     1
290
     0
176
     1
 40
1.0
176
     1
 40
1.0
176
     1
  0
VISUALSTYLE
  5
41
102
{ACAD_REACTORS
330
29
102
}
330
29
100
AcDbVisualStyle
  2
EdgeColorOff
 70
    22
177
     3
291
     1
 70
    58
 90
        2
176
     0
 90
        2
176
     0
 90
        0
176
     0
 90
        0
176
     0
 40
0.6
176
     0
 40
30.0
176
     0
 62
     7
420
 16777215
176
     0
 90
        1
176
     0
 90
        4
176
     0
 62
     7
176
     0
 62
   257
176
     0
 90
        1
176
     0
 90
        1
176
     0
 40
1.0
176
     0
 90
        8
176
     2
 62
     7
176
     0
 40
1.0
176
     0
 90
        1
176
     0
 90
        6
176
     0
 90
        2
176
     0
 62
     7
176
     0
 90
        5
176
     0
 90
        0
176
     0
 90
        0
176
     0
290
     0
176
     0
 90
        1
176
     0
 40
0.0
176
     0
 90
        0
176
     0
290
     0
176
     0
290
     1
176
     0
290
     1
176
     0
290
     0
176
     0
290
     0
176
     0
290
     0
176
     0
290
     0
176
     0
290
     0
176
     0
290
     0
176
     0
 90
       50
176
     0
 40
0.0
176
     0
 40
1.0
176
     0
 90
        0
176
     0
 62
    18
420
        0
176
     0
 90
       50
176
     0
 90
        3
176
     0
 62
     5
420
      255
176
     0
290
     0
176
     0
 90
       50
176
     0
 90
       50
176
     0
 90
       50
176
     0
290
     0
176
     0
 90
       50
176
     0
 62
   256
176
     0
 40
1.0
176
     0
 90
        2
176
     0
  1
strokes_ogs.tif
176
     0
290
     0
176
     0
 40
1.0
176
     0
 40
1.0
176
     0
  0
VISUALSTYLE
  5
38
102
{ACAD_REACTORS
330
29
102
}
330
29
100
AcDbVisualStyle
  2
Facepattern
 70
    15
177
     3
291
     1
 70
    58
 90
        2
176
     1
 90
        2
176
     1
 90
        0
176
     1
 90
        0
176
     1
 40
0.6
176
     1
 40
30.0
176
     1
 62
     7
420
 16777215
176
     1
 90
        1
176
     1
 90
        4
176
     1
 62
     7
176
     1
 62
   257
176
     1
 90
        1
176
     1
 90
        1
176
     1
 40
1.0
176
     1
 90
        8
176
     1
 62
     7
176
     1
 40
1.0
176
     1
 90
        1
176
     1
 90
        6
176
     1
 90
        2
176
     1
 62
     7
176
     1
 90
        5
176
     1
 90
        0
176
     1
 90
        0
176
     1
290
     0
176
     1
 90
        1
176
     1
 40
0.0
176
     1
 90
        0
176
     1
290
     0
176
     1
290
     1
176
     1
290
     1
176
     1
290
     0
176
     1
290
     0
176
     1
290
     0
176
     1
290
     0
176
     1
290
     0
176
     1
290
     0
176
     1
 90
       50
176
     1
 40
0.0
176
     1
 40
1.0
176
     1
 90
        0
176
     1
 62
    18
420
        0
176
     1
 90
       50
176
     1
 90
        3
176
     1
 62
     5
420
      255
176
     1
290
     0
176
     1
 90
       50
176
     1
 90
       50
176
     1
 90
       50
176
     1
290
     0
176
     1
 90
       50
176
     1
 62
   256
176
     0
 40
1.0
176
     0
 90
        2
176
     1
  1
strokes_ogs.tif
176
     1
290
     0
176
     1
 40
1.0
176
     1
 40
1.0
176
     1
  0
VISUALSTYLE
  5
2A
102
{ACAD_REACTORS
330
29
102
}
330
29
100
AcDbVisualStyle
  2
Flat
 70
     0
177
     3
291
     1
 70
    58
 90
        2
176
     1
 90
        1
176
     1
 90
        1
176
     1
 90
        2
176
     1
 40
0.6
176
     1
 40
30.0
176
     1
 62
     7
420
 16777215
176
     1
 90
        0
176
     1
 90
        0
176
     1
 62
     7
176
     1
 62
   257
176
     1
 90
        1
176
     1
 90
        1
176
     1
 40
1.0
176
     1
 90
        8
176
     1
 62
     7
176
     1
 40
1.0
176
     1
 90
        1
176
     1
 90
        6
176
     1
 90
        2
176
     1
 62
     7
176
     1
 90
        5
176
     1
 90
        0
176
     1
 90
        0
176
     1
290
     0
176
     1
 90
       13
176
     1
 40
0.0
176
     1
 90
        0
176
     1
290
     0
176
     1
290
     1
176
     1
290
     1
176
     1
290
     0
176
     1
290
     0
176
     1
290
     0
176
     1
290
     0
176
     1
290
     0
176
     1
290
     0
176
     1
 90
       50
176
     1
 40
0.0
176
     1
 40
1.0
176
     1
 90
        0
176
     1
 62
    18
420
        0
176
     1
 90
       50
176
     1
 90
        3
176
     1
 62
     5
420
      255
176
     1
290
     0
176
     1
 90
       50
176
     1
 90
       50
176
     1
 90
       50
176
     1
290
     0
176
     1
 90
       50
176
     1
 62
   256
176
     0
 40
1.0
176
     0
 90
        2
176
     1
  1
strokes_ogs.tif
176
     1
290
     0
176
     1
 40
1.0
176
     1
 40
1.0
176
     1
  0
VISUALSTYLE
  5
2B
102
{ACAD_REACTORS
330
29
102
}
330
29
100
AcDbVisualStyle
  2
FlatWithEdges
 70
     1
177
     3
291
     1
 70
    58
 90
        2
176
     1
 90
        1
176
     1
 90
        1
176
     1
 90
        2
176
     1
 40
0.6
176
     1
 40
30.0
176
     1
 62
     7
420
 16777215
176
     1
 90
        1
176
     1
 90
        0
176
     1
 62
     7
176
     1
 62
   257
176
     1
 90
        1
176
     1
 90
        1
176
     1
 40
1.0
176
     1
 90
        0
176
     1
 62
   257
176
     1
 40
1.0
176
     1
 90
        1
176
     1
 90
        6
176
     1
 90
        2
176
     1
 62
     7
176
     1
 90
        5
176
     1
 90
        0
176
     1
 90
        0
176
     1
290
     0
176
     1
 90
       13
176
     1
 40
0.0
176
     1
 90
        0
176
     1
290
     0
176
     1
290
     1
176
     1
290
     1
176
     1
290
     0
176
     1
290
     0
176
     1
290
     0
176
     1
290
     0
176
     1
290
     0
176
     1
290
     0
176
     1
 90
       50
176
     1
 40
0.0
176
     1
 40
1.0
176
     1
 90
        0
176
     1
 62
    18
420
        0
176
     1
 90
       50
176
     1
 90
        3
176
     1
 62
     5
420
      255
176
     1
290
     0
176
     1
 90
       50
176
     1
 90
       50
176
     1
 90
       50
176
     1
290
     0
176
     1
 90
       50
176
     1
 62
   256
176
     0
 40
1.0
176
     0
 90
        2
176
     1
  1
strokes_ogs.tif
176
     1
290
     0
176
     1
 40
1.0
176
     1
 40
1.0
176
     1
  0
VISUALSTYLE
  5
2C
102
{ACAD_REACTORS
330
29
102
}
330
29
100
AcDbVisualStyle
  2
Gouraud
 70
     2
177
     3
291
     1
 70
    58
 90
        2
176
     1
 90
        2
176
     1
 90
        1
176
     1
 90
        2
176
     1
 40
0.6
176
     1
 40
30.0
176
     1
 62
     7
420
 16777215
176
     1
 90
        0
176
     1
 90
        0
176
     1
 62
     7
176
     1
 62
   257
176
     1
 90
        1
176
     1
 90
        1
176
     1
 40
1.0
176
     1
 90
        0
176
     1
 62
     7
176
     1
 40
1.0
176
     1
 90
        1
176
     1
 90
        6
176
     1
 90
        2
176
     1
 62
     7
176
     1
 90
        5
176
     1
 90
        0
176
     1
 90
        0
176
     1
290
     0
176
     1
 90
       13
176
     1
 40
0.0
176
     1
 90
        0
176
     1
290
     0
176
     1
290
     1
176
     1
290
     1
176
     1
290
     0
176
     1
290
     0
176
     1
290
     0
176
     1
290
     0
176
     1
290
     0
176
     1
290
     0
176
     1
 90
       50
176
     1
 40
0.0
176
     1
 40
1.0
176
     1
 90
        0
176
     1
 62
    18
420
        0
176
     1
 90
       50
176
     1
 90
        3
176
     1
 62
     5
420
      255
176
     1
290
     0
176
     1
 90
       50
176
     1
 90
       50
176
     1
 90
       50
176
     1
290
     0
176
     1
 90
       50
176
     1
 62
   256
176
     0
 40
1.0
176
     0
 90
        2
176
     1
  1
strokes_ogs.tif
176
     1
290
     0
176
     1
 40
1.0
176
     1
 40
1.0
176
     1
  0
VISUALSTYLE
  5
2D
102
{ACAD_REACTORS
330
29
102
}
330
29
100
AcDbVisualStyle
  2
GouraudWithEdges
 70
     3
177
     3
291
     1
 70
    58
 90
        2
176
     1
 90
        2
176
     1
 90
        1
176
     1
 90
        2
176
     1
 40
0.6
176
     1
 40
30.0
176
     1
 62
     7
420
 16777215
176
     1
 90
        1
176
     1
 90
        0
176
     1
 62
     7
176
     1
 62
   257
176
     1
 90
        1
176
     1
 90
        1
176
     1
 40
1.0
176
     1
 90
        0
176
     1
 62
   257
176
     1
 40
1.0
176
     1
 90
        1
176
     1
 90
        6
176
     1
 90
        2
176
     1
 62
     7
176
     1
 90
        5
176
     1
 90
        0
176
     1
 90
        0
176
     1
290
     0
176
     1
 90
       13
176
     1
 40
0.0
176
     1
 90
        0
176
     1
290
     0
176
     1
290
     1
176
     1
290
     1
176
     1
290
     0
176
     1
290
     0
176
     1
290
     0
176
     1
290
     0
176
     1
290
     0
176
     1
290
     0
176
     1
 90
       50
176
     1
 40
0.0
176
     1
 40
1.0
176
     1
 90
        0
176
     1
 62
    18
420
        0
176
     1
 90
       50
176
     1
 90
        3
176
     1
 62
     5
420
      255
176
     1
290
     0
176
     1
 90
       50
176
     1
 90
       50
176
     1
 90
       50
176
     1
290
     0
176
     1
 90
       50
176
     1
 62
   256
176
     0
 40
1.0
176
     0
 90
        2
176
     1
  1
strokes_ogs.tif
176
     1
290
     0
176
     1
 40
1.0
176
     1
 40
1.0
176
     1
  0
VISUALSTYLE
  5
31
102
{ACAD_REACTORS
330
29
102
}
330
29
100
AcDbVisualStyle
  2
Hidden
 70
     6
177
     3
291
     0
 70
    58
 90
        1
176
     1
 90
        2
176
     1
 90
        2
176
     1
 90
        0
176
     1
 40
0.6
176
     1
 40
30.0
176
     1
 62
     7
420
 16777215
176
     1
 90
        2
176
     1
 90
        2
176
     1
 62
     7
176
     1
 62
   257
176
     1
 90
        2
176
     1
 90
        1
176
     1
 40
40.0
176
     1
 90
        0
176
     1
 62
   257
176
     1
 40
1.0
176
     1
 90
        1
176
     1
 90
        6
176
     1
 90
        2
176
     1
 62
     7
176
     1
 90
        3
176
     1
 90
        0
176
     1
 90
        0
176
     1
290
     0
176
     1
 90
        1
176
     1
 40
0.0
176
     1
 90
        0
176
     1
290
     0
176
     1
290
     1
176
     1
290
     1
176
     1
290
     0
176
     1
290
     0
176
     1
290
     0
176
     1
290
     0
176
     1
290
     0
176
     1
290
     0
176
     1
 90
       50
176
     1
 40
0.0
176
     1
 40
1.0
176
     1
 90
        0
176
     1
 62
    18
420
        0
176
     1
 90
       50
176
     1
 90
        3
176
     1
 62
     5
420
      255
176
     1
290
     0
176
     1
 90
       50
176
     1
 90
       50
176
     1
 90
       50
176
     1
290
     0
176
     1
 90
       50
176
     1
 62
   256
176
     0
 40
1.0
176
     0
 90
        2
176
     1
  1
strokes_ogs.tif
176
     1
290
     0
176
     1
 40
1.0
176
     1
 40
1.0
176
     1
  0
VISUALSTYLE
  5
3F
102
{ACAD_REACTORS
330
29
102
}
330
29
100
AcDbVisualStyle
  2
JitterOff
 70
    20
177
     3
291
     1
 70
    58
 90
        2
176
     0
 90
        2
176
     0
 90
        0
176
     0
 90
        0
176
     0
 40
0.6
176
     0
 40
30.0
176
     0
 62
     7
420
 16777215
176
     0
 90
        1
176
     0
 90
        4
176
     0
 62
     7
176
     0
 62
   257
176
     0
 90
        1
176
     0
 90
        1
176
     0
 40
1.0
176
     0
 90
       10
176
     2
 62
     7
176
     0
 40
1.0
176
     0
 90
        1
176
     0
 90
        6
176
     0
 90
        2
176
     0
 62
     7
176
     0
 90
        5
176
     0
 90
        0
176
     0
 90
        0
176
     0
290
     0
176
     0
 90
        1
176
     0
 40
0.0
176
     0
 90
        0
176
     0
290
     0
176
     0
290
     1
176
     0
290
     1
176
     0
290
     0
176
     0
290
     0
176
     0
290
     0
176
     0
290
     0
176
     0
290
     0
176
     0
290
     0
176
     0
 90
       50
176
     0
 40
0.0
176
     0
 40
1.0
176
     0
 90
        0
176
     0
 62
    18
420
        0
176
     0
 90
       50
176
     0
 90
        3
176
     0
 62
     5
420
      255
176
     0
290
     0
176
     0
 90
       50
176
     0
 90
       50
176
     0
 90
       50
176
     0
290
     0
176
     0
 90
       50
176
     0
 62
   256
176
     0
 40
1.0
176
     0
 90
        2
176
     0
  1
strokes_ogs.tif
176
     0
290
     0
176
     0
 40
1.0
176
     0
 40
1.0
176
     0
  0
VISUALSTYLE
  5
37
102
{ACAD_REACTORS
330
29
102
}
330
29
100
AcDbVisualStyle
  2
Linepattern
 70
    14
177
     3
291
     1
 70
    58
 90
        2
176
     1
 90
        2
176
     1
 90
        0
176
     1
 90
        0
176
     1
 40
0.6
176
     1
 40
30.0
176
     1
 62
     7
420
 16777215
176
     1
 90
        1
176
     1
 90
        4
176
     1
 62
     7
176
     1
 62
   257
176
     1
 90
        7
176
     1
 90
        7
176
     1
 40
1.0
176
     1
 90
        8
176
     1
 62
     7
176
     1
 40
1.0
176
     1
 90
        1
176
     1
 90
        6
176
     1
 90
        2
176
     1
 62
     7
176
     1
 90
        5
176
     1
 90
        0
176
     1
 90
        0
176
     1
290
     0
176
     1
 90
        1
176
     1
 40
0.0
176
     1
 90
        0
176
     1
290
     0
176
     1
290
     1
176
     1
290
     1
176
     1
290
     0
176
     1
290
     0
176
     1
290
     0
176
     1
290
     0
176
     1
290
     0
176
     1
290
     0
176
     1
 90
       50
176
     1
 40
0.0
176
     1
 40
1.0
176
     1
 90
        0
176
     1
 62
    18
420
        0
176
     1
 90
       50
176
     1
 90
        3
176
     1
 62
     5
420
      255
176
     1
290
     0
176
     1
 90
       50
176
     1
 90
       50
176
     1
 90
       50
176
     1
290
     0
176
     1
 90
       50
176
     1
 62
   256
176
     0
 40
1.0
176
     0
 90
        2
176
     1
  1
strokes_ogs.tif
176
     1
290
     0
176
     1
 40
1.0
176
     1
 40
1.0
176
     1
  0
VISUALSTYLE
  5
40
102
{ACAD_REACTORS
330
29
102
}
330
29
100
AcDbVisualStyle
  2
OverhangOff
 70
    21
177
     3
291
     1
 70
    58
 90
        2
176
     0
 90
        2
176
     0
 90
        0
176
     0
 90
        0
176
     0
 40
0.6
176
     0
 40
30.0
176
     0
 62
     7
420
 16777215
176
     0
 90
        1
176
     0
 90
        4
176
     0
 62
     7
176
     0
 62
   257
176
     0
 90
        1
176
     0
 90
        1
176
     0
 40
1.0
176
     0
 90
        9
176
     2
 62
     7
176
     0
 40
1.0
176
     0
 90
        1
176
     0
 90
        6
176
     0
 90
        2
176
     0
 62
     7
176
     0
 90
        5
176
     0
 90
        0
176
     0
 90
        0
176
     0
290
     0
176
     0
 90
        1
176
     0
 40
0.0
176
     0
 90
        0
176
     0
290
     0
176
     0
290
     1
176
     0
290
     1
176
     0
290
     0
176
     0
290
     0
176
     0
290
     0
176
     0
290
     0
176
     0
290
     0
176
     0
290
     0
176
     0
 90
       50
176
     0
 40
0.0
176
     0
 40
1.0
176
     0
 90
        0
176
     0
 62
    18
420
        0
176
     0
 90
       50
176
     0
 90
        3
176
     0
 62
     5
420
      255
176
     0
290
     0
176
     0
 90
       50
176
     0
 90
       50
176
     0
 90
       50
176
     0
290
     0
176
     0
 90
       50
176
     0
 62
   256
176
     0
 40
1.0
176
     0
 90
        2
176
     0
  1
strokes_ogs.tif
176
     0
290
     0
176
     0
 40
1.0
176
     0
 40
1.0
176
     0
  0
VISUALSTYLE
  5
33
102
{ACAD_REACTORS
330
29
102
}
330
29
100
AcDbVisualStyle
  2
Realistic
 70
     8
177
     3
291
     0
 70
    58
 90
        2
176
     1
 90
        3
176
     1
 90
        0
176
     1
 90
        2
176
     1
 40
0.6
176
     1
 40
30.0
176
     1
 62
     7
420
 16777215
176
     1
 90
        0
176
     1
 90
        0
176
     1
 62
     7
176
     1
 62
   257
176
     1
 90
        1
176
     1
 90
        1
176
     1
 40
1.0
176
     1
 90
        8
176
     1
 62
   257
176
     1
 40
1.0
176
     1
 90
        1
176
     1
 90
        6
176
     1
 90
        2
176
     1
 62
     7
176
     1
 90
        3
176
     1
 90
        0
176
     1
 90
        0
176
     1
290
     0
176
     1
 90
       13
176
     1
 40
0.0
176
     1
 90
        0
176
     1
290
     0
176
     1
290
     1
176
     1
290
     1
176
     1
290
     0
176
     1
290
     0
176
     1
290
     0
176
     1
290
     0
176
     1
290
     0
176
     1
290
     0
176
     1
 90
       50
176
     1
 40
0.0
176
     1
 40
1.0
176
     1
 90
        0
176
     1
 62
    18
420
        0
176
     1
 90
       50
176
     1
 90
        3
176
     1
 62
     5
420
      255
176
     1
290
     0
176
     1
 90
       50
176
     1
 90
       50
176
     1
 90
       50
176
     1
290
     0
176
     1
 90
       50
176
     1
 62
   256
176
     0
 40
1.0
176
     0
 90
        2
176
     1
  1
strokes_ogs.tif
176
     1
290
     0
176
     1
 40
1.0
176
     1
 40
1.0
176
     1
  0
VISUALSTYLE
  5
3E
102
{ACAD_REACTORS
330
29
102
}
330
29
100
AcDbVisualStyle
  2
Shaded
 70
    27
177
     3
291
     0
 70
    58
 90
        2
176
     1
 90
        2
176
     1
 90
        1
176
     1
 90
        2
176
     1
 40
0.6
176
     1
 40
30.0
176
     1
 62
     7
420
 16777215
176
     1
 90
        0
176
     1
 90
        4
176
     1
 62
     7
176
     1
 62
   257
176
     1
 90
        1
176
     1
 90
        1
176
     1
 40
1.0
176
     1
 90
        8
176
     1
 62
   257
176
     1
 40
1.0
176
     1
 90
        1
176
     1
 90
        6
176
     1
 90
        2
176
     1
 62
     8
420
  7895160
176
     1
 90
        3
176
     1
 90
        0
176
     1
 90
        0
176
     1
290
     0
176
     1
 90
        5
176
     1
 40
0.0
176
     1
 90
        0
176
     1
290
     0
176
     1
290
     1
176
     1
290
     1
176
     1
290
     0
176
     1
290
     0
176
     1
290
     0
176
     1
290
     0
176
     1
290
     0
176
     1
290
     0
176
     1
 90
       50
176
     1
 40
0.0
176
     1
 40
1.0
176
     1
 90
        0
176
     1
 62
    18
420
        0
176
     1
 90
       50
176
     1
 90
        3
176
     1
 62
     5
420
      255
176
     1
290
     0
176
     1
 90
       50
176
     1
 90
       50
176
     1
 90
       50
176
     1
290
     0
176
     1
 90
       50
176
     1
 62
   256
176
     0
 40
1.0
176
     0
 90
        2
176
     1
  1
strokes_ogs.tif
176
     1
290
     0
176
     1
 40
1.0
176
     1
 40
1.0
176
     1
  0
VISUALSTYLE
  5
3D
102
{ACAD_REACTORS
330
29
102
}
330
29
100
AcDbVisualStyle
  2
Shaded with edges
 70
    26
177
     3
291
     0
 70
    58
 90
        2
176
     1
 90
        2
176
     1
 90
        1
176
     1
 90
        2
176
     1
 40
0.6
176
     1
 40
30.0
176
     1
 62
     7
420
 16777215
176
     1
 90
        1
176
     1
 90
        2
176
     1
 62
     7
176
     1
 62
   257
176
     1
 90
        2
176
     1
 90
        1
176
     1
 40
1.0
176
     1
 90
        8
176
     1
 62
   257
176
     1
 40
1.0
176
     1
 90
        1
176
     1
 90
        6
176
     1
 90
        2
176
     1
 62
     7
176
     1
 90
        3
176
     1
 90
        0
176
     1
 90
        0
176
     1
290
     0
176
     1
 90
        5
176
     1
 40
0.0
176
     1
 90
        0
176
     1
290
     0
176
     1
290
     1
176
     1
290
     1
176
     1
290
     0
176
     1
290
     0
176
     1
290
     0
176
     1
290
     0
176
     1
290
     0
176
     1
290
     0
176
     1
 90
       50
176
     1
 40
0.0
176
     1
 40
1.0
176
     1
 90
        0
176
     1
 62
    18
420
        0
176
     1
 90
       50
176
     1
 90
        3
176
     1
 62
     5
420
      255
176
     1
290
     0
176
     1
 90
       50
176
     1
 90
       50
176
     1
 90
       50
176
     1
290
     0
176
     1
 90
       50
176
     1
 62
   256
176
     0
 40
1.0
176
     0
 90
        2
176
     1
  1
strokes_ogs.tif
176
     1
290
     0
176
     1
 40
1.0
176
     1
 40
1.0
176
     1
  0
VISUALSTYLE
  5
3A
102
{ACAD_REACTORS
330
29
102
}
330
29
100
AcDbVisualStyle
  2
Shades of Gray
 70
    23
177
     3
291
     0
 70
    58
 90
        2
176
     1
 90
        2
176
     1
 90
        3
176
     1
 90
        0
176
     1
 40
0.6
176
     1
 40
30.0
176
     1
 62
     7
420
 16777215
176
     1
 90
        2
176
     1
 90
        2
176
     1
 62
     7
176
     1
 62
     7
176
     1
 90
        1
176
     1
 90
        1
176
     1
 40
40.0
176
     1
 90
        8
176
     1
 62
     7
176
     1
 40
1.0
176
     1
 90
        1
176
     1
 90
        6
176
     1
 90
        2
176
     1
 62
     7
176
     1
 90
        3
176
     1
 90
        0
176
     1
 90
        0
176
     1
290
     0
176
     1
 90
        1
176
     1
 40
0.0
176
     1
 90
        0
176
     1
290
     0
176
     1
290
     1
176
     1
290
     1
176
     1
290
     0
176
     1
290
     0
176
     1
290
     0
176
     1
290
     0
176
     1
290
     0
176
     1
290
     0
176
     1
 90
       50
176
     1
 40
0.0
176
     1
 40
1.0
176
     1
 90
        0
176
     1
 62
    18
420
        0
176
     1
 90
       50
176
     1
 90
        3
176
     1
 62
     5
420
      255
176
     1
290
     0
176
     1
 90
       50
176
     1
 90
       50
176
     1
 90
       50
176
     1
290
     0
176
     1
 90
       50
176
     1
 62
   256
176
     0
 40
1.0
176
     0
 90
        2
176
     1
  1
strokes_ogs.tif
176
     1
290
     0
176
     1
 40
1.0
176
     1
 40
1.0
176
     1
  0
VISUALSTYLE
  5
3B
102
{ACAD_REACTORS
330
29
102
}
330
29
100
AcDbVisualStyle
  2
Sketchy
 70
    24
177
     3
291
     0
 70
    58
 90
        1
176
     1
 90
        2
176
     1
 90
        2
176
     1
 90
        0
176
     1
 40
0.6
176
     1
 40
30.0
176
     1
 62
     7
420
 16777215
176
     1
 90
        2
176
     1
 90
        2
176
     1
 62
     7
176
     1
 62
     7
176
     1
 90
        1
176
     1
 90
        1
176
     1
 40
40.0
176
     1
 90
       11
176
     1
 62
     7
176
     1
 40
1.0
176
     1
 90
        1
176
     1
 90
        6
176
     1
 90
        2
176
     1
 62
     7
176
     1
 90
        6
176
     1
 90
        0
176
     1
 90
        0
176
     1
290
     0
176
     1
 90
        1
176
     1
 40
0.0
176
     1
 90
        0
176
     1
290
     0
176
     1
290
     1
176
     1
290
     1
176
     1
290
     0
176
     1
290
     0
176
     1
290
     0
176
     1
290
     0
176
     1
290
     0
176
     1
290
     0
176
     1
 90
       50
176
     1
 40
0.0
176
     1
 40
1.0
176
     1
 90
        0
176
     1
 62
    18
420
        0
176
     1
 90
       50
176
     1
 90
        3
176
     1
 62
     5
420
      255
176
     1
290
     0
176
     1
 90
       50
176
     1
 90
       50
176
     1
 90
       50
176
     1
290
     0
176
     1
 90
       50
176
     1
 62
   256
176
     0
 40
1.0
176
     0
 90
        2
176
     1
  1
strokes_ogs.tif
176
     1
290
     0
176
     1
 40
1.0
176
     1
 40
1.0
176
     1
  0
VISUALSTYLE
  5
36
102
{ACAD_REACTORS
330
29
102
}
330
29
100
AcDbVisualStyle
  2
Thicken
 70
    13
177
     3
291
     1
 70
    58
 90
        2
176
     1
 90
        2
176
     1
 90
        0
176
     1
 90
        0
176
     1
 40
0.6
176
     1
 40
30.0
176
     1
 62
     7
420
 16777215
176
     1
 90
        1
176
     1
 90
        4
176
     1
 62
     7
176
     1
 62
   257
176
     1
 90
        1
176
     1
 90
        1
176
     1
 40
1.0
176
     1
 90
       12
176
     1
 62
     7
176
     1
 40
1.0
176
     1
 90
        1
176
     1
 90
        6
176
     1
 90
        2
176
     1
 62
     7
176
     1
 90
        5
176
     1
 90
        0
176
     1
 90
        0
176
     1
290
     0
176
     1
 90
        1
176
     1
 40
0.0
176
     1
 90
        0
176
     1
290
     0
176
     1
290
     1
176
     1
290
     1
176
     1
290
     0
176
     1
290
     0
176
     1
290
     0
176
     1
290
     0
176
     1
290
     0
176
     1
290
     0
176
     1
 90
       50
176
     1
 40
0.0
176
     1
 40
1.0
176
     1
 90
        0
176
     1
 62
    18
420
        0
176
     1
 90
       50
176
     1
 90
        3
176
     1
 62
     5
420
      255
176
     1
290
     0
176
     1
 90
       50
176
     1
 90
       50
176
     1
 90
       50
176
     1
290
     0
176
     1
 90
       50
176
     1
 62
   256
176
     0
 40
1.0
176
     0
 90
        2
176
     1
  1
strokes_ogs.tif
176
     1
290
     0
176
     1
 40
1.0
176
     1
 40
1.0
176
     1
  0
VISUALSTYLE
  5
30
102
{ACAD_REACTORS
330
29
102
}
330
29
100
AcDbVisualStyle
  2
Wireframe
 70
     5
177
     3
291
     0
 70
    58
 90
        0
176
     1
 90
        2
176
     1
 90
        0
176
     1
 90
        0
176
     1
 40
0.6
176
     1
 40
30.0
176
     1
 62
     7
420
 16777215
176
     1
 90
        1
176
     1
 90
        4
176
     1
 62
     7
176
     1
 62
   257
176
     1
 90
        1
176
     1
 90
        1
176
     1
 40
1.0
176
     1
 90
        0
176
     1
 62
   257
176
     1
 40
1.0
176
     1
 90
        1
176
     1
 90
        6
176
     1
 90
        2
176
     1
 62
     7
176
     1
 90
        3
176
     1
 90
        0
176
     1
 90
        0
176
     1
290
     0
176
     1
 90
        1
176
     1
 40
0.0
176
     1
 90
        0
176
     1
290
     0
176
     1
290
     1
176
     1
290
     1
176
     1
290
     0
176
     1
290
     0
176
     1
290
     0
176
     1
290
     0
176
     1
290
     0
176
     1
290
     0
176
     1
 90
       50
176
     1
 40
0.0
176
     1
 40
1.0
176
     1
 90
        0
176
     1
 62
    18
420
        0
176
     1
 90
       50
176
     1
 90
        3
176
     1
 62
     5
420
      255
176
     1
290
     0
176
     1
 90
       50
176
     1
 90
       50
176
     1
 90
       50
176
     1
290
     0
176
     1
 90
       50
176
     1
 62
   256
176
     0
 40
1.0
176
     0
 90
        2
176
     1
  1
strokes_ogs.tif
176
     1
290
     0
176
     1
 40
1.0
176
     1
 40
1.0
176
     1
  0
VISUALSTYLE
  5
3C
102
{ACAD_REACTORS
330
29
102
}
330
29
100
AcDbVisualStyle
  2
X-Ray
 70
    25
177
     3
291
     0
 70
    58
 90
        2
176
     1
 90
        2
176
     1
 90
        1
176
     1
 90
        1
176
     1
 40
0.5
176
     1
 40
30.0
176
     1
 62
     7
420
 16777215
176
     1
 90
        1
176
     1
 90
        0
176
     1
 62
     7
176
     1
 62
   257
176
     1
 90
        1
176
     1
 90
        1
176
     1
 40
1.0
176
     1
 90
        8
176
     1
 62
     7
176
     1
 40
1.0
176
     1
 90
        1
176
     1
 90
        6
176
     1
 90
        2
176
     1
 62
     7
176
     1
 90
        3
176
     1
 90
        0
176
     1
 90
        0
176
     1
290
     0
176
     1
 90
       13
176
     1
 40
0.0
176
     1
 90
        0
176
     1
290
     0
176
     1
290
     1
176
     1
290
     1
176
     1
290
     0
176
     1
290
     0
176
     1
290
     0
176
     1
290
     0
176
     1
290
     0
176
     1
290
     0
176
     1
 90
       50
176
     1
 40
0.0
176
     1
 40
1.0
176
     1
 90
        0
176
     1
 62
    18
420
        0
176
     1
 90
       50
176
     1
 90
        3
176
     1
 62
     5
420
      255
176
     1
290
     0
176
     1
 90
       50
176
     1
 90
       50
176
     1
 90
       50
176
     1
290
     0
176
     1
 90
       50
176
     1
 62
   256
176
     0
 40
1.0
176
     0
 90
        2
176
     1
  1
strokes_ogs.tif
176
     1
290
     0
176
     1
 40
1.0
176
     1
 40
1.0
176
     1
  0
DICTIONARYVAR
  5
3D9
102
{ACAD_REACTORS
330
3D4
102
}
330
3D4
100
DictionaryVariables
280
     0
  1
1:1
  0
DICTIONARYVAR
  5
3D6
102
{ACAD_REACTORS
330
3D4
102
}
330
3D4
100
DictionaryVariables
280
     0
  1
STANDARD
  0
DICTIONARYVAR
  5
3D5
102
{ACAD_REACTORS
330
3D4
102
}
330
3D4
100
DictionaryVariables
280
     0
  1
STANDARD
  0
DICTIONARYVAR
  5
3D7
102
{ACAD_REACTORS
330
3D4
102
}
330
3D4
100
DictionaryVariables
280
     0
  1
Imperial24
  0
DICTIONARYVAR
  5
3D8
102
{ACAD_REACTORS
330
3D4
102
}
330
3D4
100
DictionaryVariables
280
     0
  1
Imperial24
  0
DICTIONARY
  5
1A
330
19
100
AcDbDictionary
280
     1
281
     1
  3
BUMPTILE
360
1C
  3
DIFFUSETILE
360
1B
  3
OPACITYTILE
360
1F
  3
REFLECTIONTILE
360
1E
  3
REFRACTIONTILE
360
20
  3
SPECULARTILE
360
1D
  0
DICTIONARY
  5
12
330
11
100
AcDbDictionary
280
     1
281
     1
  3
BUMPTILE
360
14
  3
DIFFUSETILE
360
13
  3
OPACITYTILE
360
17
  3
REFLECTIONTILE
360
16
  3
REFRACTIONTILE
360
18
  3
SPECULARTILE
360
15
  0
DICTIONARY
  5
22
330
21
100
AcDbDictionary
280
     1
281
     1
  3
BUMPTILE
360
24
  3
DIFFUSETILE
360
23
  3
OPACITYTILE
360
27
  3
REFLECTIONTILE
360
26
  3
REFRACTIONTILE
360
28
  3
SPECULARTILE
360
25
  0
DICTIONARY
  5
3DA
330
65
100
AcDbDictionary
280
     1
281
     1
  3
ACAD_ROUNDTRIP_2008_TABLESTYLE_CELLSTYLEMAP
360
3DB
  0
XRECORD
  5
1C
102
{ACAD_REACTORS
330
1A
102
}
330
1A
100
AcDbXrecord
280
     1
270
     1
271
     1
  0
XRECORD
  5
1B
102
{ACAD_REACTORS
330
1A
102
}
330
1A
100
AcDbXrecord
280
     1
270
     1
271
     1
  0
XRECORD
  5
1F
102
{ACAD_REACTORS
330
1A
102
}
330
1A
100
AcDbXrecord
280
     1
270
     1
271
     1
  0
XRECORD
  5
1E
102
{ACAD_REACTORS
330
1A
102
}
330
1A
100
AcDbXrecord
280
     1
270
     1
271
     1
  0
XRECORD
  5
20
102
{ACAD_REACTORS
330
1A
102
}
330
1A
100
AcDbXrecord
280
     1
270
     1
271
     1
  0
XRECORD
  5
1D
102
{ACAD_REACTORS
330
1A
102
}
330
1A
100
AcDbXrecord
280
     1
270
     1
271
     1
  0
XRECORD
  5
14
102
{ACAD_REACTORS
330
12
102
}
330
12
100
AcDbXrecord
280
     1
270
     1
271
     1
  0
XRECORD
  5
13
102
{ACAD_REACTORS
330
12
102
}
330
12
100
AcDbXrecord
280
     1
270
     1
271
     1
  0
XRECORD
  5
17
102
{ACAD_REACTORS
330
12
102
}
330
12
100
AcDbXrecord
280
     1
270
     1
271
     1
  0
XRECORD
  5
16
102
{ACAD_REACTORS
330
12
102
}
330
12
100
AcDbXrecord
280
     1
270
     1
271
     1
  0
XRECORD
  5
18
102
{ACAD_REACTORS
330
12
102
}
330
12
100
AcDbXrecord
280
     1
270
     1
271
     1
  0
XRECORD
  5
15
102
{ACAD_REACTORS
330
12
102
}
330
12
100
AcDbXrecord
280
     1
270
     1
271
     1
  0
XRECORD
  5
24
102
{ACAD_REACTORS
330
22
102
}
330
22
100
AcDbXrecord
280
     1
270
     1
271
     1
  0
XRECORD
  5
23
102
{ACAD_REACTORS
330
22
102
}
330
22
100
AcDbXrecord
280
     1
270
     1
271
     1
  0
XRECORD
  5
27
102
{ACAD_REACTORS
330
22
102
}
330
22
100
AcDbXrecord
280
     1
270
     1
271
     1
  0
XRECORD
  5
26
102
{ACAD_REACTORS
330
22
102
}
330
22
100
AcDbXrecord
280
     1
270
     1
271
     1
  0
XRECORD
  5
28
102
{ACAD_REACTORS
330
22
102
}
330
22
100
AcDbXrecord
280
     1
270
     1
271
     1
  0
XRECORD
  5
25
102
{ACAD_REACTORS
330
22
102
}
330
22
100
AcDbXrecord
280
     1
270
     1
271
     1
  0
CELLSTYLEMAP
  5
3DB
102
{ACAD_REACTORS
330
3DA
102
}
330
3DA
100
AcDbCellStyleMap
 90
        3
300
CELLSTYLE
  1
TABLEFORMAT_BEGIN
 90
        5
170
     1
 91
        0
 92
    32768
 62
   257
 93
        1
300
CONTENTFORMAT
  1
CONTENTFORMAT_BEGIN
 90
        0
 91
        0
 92
      512
 93
        0
300

 40
0.0
140
1.0
 94
        5
 62
     0
340
55
144
0.25
309
CONTENTFORMAT_END
171
     0
 94
        0
309
TABLEFORMAT_END
  1
CELLSTYLE_BEGIN
 90
        1
 91
        1
300
_TITLE
309
CELLSTYLE_END
300
CELLSTYLE
  1
TABLEFORMAT_BEGIN
 90
        5
170
     1
 91
        0
 92
        0
 62
   257
 93
        1
300
CONTENTFORMAT
  1
CONTENTFORMAT_BEGIN
 90
        0
 91
        0
 92
      512
 93
        0
300

 40
0.0
140
1.0
 94
        5
 62
     0
340
55
144
0.18
309
CONTENTFORMAT_END
171
     0
 94
        0
309
TABLEFORMAT_END
  1
CELLSTYLE_BEGIN
 90
        2
 91
        1
300
_HEADER
309
CELLSTYLE_END
300
CELLSTYLE
  1
TABLEFORMAT_BEGIN
 90
        5
170
     1
 91
        0
 92
        0
 62
   257
 93
        1
300
CONTENTFORMAT
  1
CONTENTFORMAT_BEGIN
 90
        0
 91
        0
 92
      512
 93
        0
300

 40
0.0
140
1.0
 94
        2
 62
     0
340
55
144
0.18
309
CONTENTFORMAT_END
171
     0
 94
        0
309
TABLEFORMAT_END
  1
CELLSTYLE_BEGIN
 90
        3
 91
        2
300
_DATA
309
CELLSTYLE_END
  0
ENDSEC
  0
EOF
