  0
SECTION
  2
HEADER
  9
$ACADVER
  1
AC1032
  9
$ACADMAINTVER
 90
      251
  9
$DWGCODEPAGE
  3
ANSI_1252
  9
$REQUIREDVERSIONS
160
                 0
  9
$INSBASE
 10
0.0
 20
0.0
 30
0.0
  9
$EXTMIN
 10
1.000000000000000E+20
 20
1.000000000000000E+20
 30
1.000000000000000E+20
  9
$EXTMAX
 10
-1.000000000000000E+20
 20
-1.000000000000000E+20
 30
-1.000000000000000E+20
  9
$LIMMIN
 10
0.0
 20
0.0
  9
$LIMMAX
 10
12.0
 20
9.0
  9
$ORTHOMODE
 70
     0
  9
$REGENMODE
 70
     1
  9
$FILLMODE
 70
     1
  9
$QTEXTMODE
 70
     0
  9
$MIRRTEXT
 70
     0
  9
$LTSCALE
 40
1.0
  9
$ATTMODE
 70
     1
  9
$TEXTSIZE
 40
0.2
  9
$TRACEWID
 40
0.05
  9
$TEXTSTYLE
  7
Standard
  9
$CLAYER
  8
0
  9
$CELTYPE
  6
ByLayer
  9
$CECOLOR
 62
   256
  9
$CELTSCALE
 40
1.0
  9
$DISPSILH
 70
     0
  9
$DIMSCALE
 40
1.0
  9
$DIMASZ
 40
0.18
  9
$DIMEXO
 40
0.0625
  9
$DIMDLI
 40
0.38
  9
$DIMRND
 40
0.0
  9
$DIMDLE
 40
0.0
  9
$DIMEXE
 40
0.18
  9
$DIMTP
 40
0.0
  9
$DIMTM
 40
0.0
  9
$DIMTXT
 40
0.18
  9
$DIMCEN
 40
0.09
  9
$DIMTSZ
 40
0.0
  9
$DIMTOL
 70
     0
  9
$DIMLIM
 70
     0
  9
$DIMTIH
 70
     1
  9
$DIMTOH
 70
     1
  9
$DIMSE1
 70
     0
  9
$DIMSE2
 70
     0
  9
$DIMTAD
 70
     0
  9
$DIMZIN
 70
     0
  9
$DIMBLK
  1

  9
$DIMASO
 70
     1
  9
$DIMSHO
 70
     1
  9
$DIMPOST
  1

  9
$DIMAPOST
  1

  9
$DIMALT
 70
     0
  9
$DIMALTD
 70
     2
  9
$DIMALTF
 40
25.4
  9
$DIMLFAC
 40
1.0
  9
$DIMTOFL
 70
     0
  9
$DIMTVP
 40
0.0
  9
$DIMTIX
 70
     0
  9
$DIMSOXD
 70
     0
  9
$DIMSAH
 70
     0
  9
$DIMBLK1
  1

  9
$DIMBLK2
  1

  9
$DIMSTYLE
  2
Standard
  9
$DIMCLRD
 70
     0
  9
$DIMCLRE
 70
     0
  9
$DIMCLRT
 70
     0
  9
$DIMTFAC
 40
1.0
  9
$DIMGAP
 40
0.09
  9
$DIMJUST
 70
     0
  9
$DIMSD1
 70
     0
  9
$DIMSD2
 70
     0
  9
$DIMTOLJ
 70
     1
  9
$DIMTZIN
 70
     0
  9
$DIMALTZ
 70
     0
  9
$DIMALTTZ
 70
     0
  9
$DIMUPT
 70
     0
  9
$DIMDEC
 70
     4
  9
$DIMTDEC
 70
     4
  9
$DIMALTU
 70
     2
  9
$DIMALTTD
 70
     2
  9
$DIMTXSTY
  7
Standard
  9
$DIMAUNIT
 70
     0
  9
$DIMADEC
 70
     0
  9
$DIMALTRND
 40
0.0
  9
$DIMAZIN
 70
     0
  9
$DIMDSEP
 70
    46
  9
$DIMATFIT
 70
     3
  9
$DIMFRAC
 70
     0
  9
$DIMLDRBLK
  1

  9
$DIMLUNIT
 70
     2
  9
$DIMLWD
 70
    -2
  9
$DIMLWE
 70
    -2
  9
$DIMTMOVE
 70
     0
  9
$DIMFXL
 40
1.0
  9
$DIMFXLON
 70
     0
  9
$DIMJOGANG
 40
0.7853981633974483
  9
$DIMTFILL
 70
     0
  9
$DIMTFILLCLR
 70
     0
  9
$DIMARCSYM
 70
     0
  9
$DIMLTYPE
  6

  9
$DIMLTEX1
  6

  9
$DIMLTEX2
  6

  9
$DIMTXTDIRECTION
 70
     0
  9
$LUNITS
 70
     2
  9
$LUPREC
 70
     4
  9
$SKETCHINC
 40
0.1
  9
$FILLETRAD
 40
0.0
  9
$AUNITS
 70
     0
  9
$AUPREC
 70
     0
  9
$MENU
  1
.
  9
$ELEVATION
 40
0.0
  9
$PELEVATION
 40
0.0
  9
$THICKNESS
 40
0.0
  9
$LIMCHECK
 70
     0
  9
$CHAMFERA
 40
0.0
  9
$CHAMFERB
 40
0.0
  9
$CHAMFERC
 40
0.0
  9
$CHAMFERD
 40
0.0
  9
$SKPOLY
 70
     0
  9
$TDCREATE
 40
2460035.544351852
  9
$TDUCREATE
 40
2460035.461018519
  9
$TDUPDATE
 40
2460035.544351852
  9
$TDUUPDATE
 40
2460035.461018519
  9
$TDINDWG
 40
0.0000000000
  9
$TDUSRTIMER
 40
0.0000000000
  9
$USRTIMER
 70
     1
  9
$ANGBASE
 50
0.0
  9
$ANGDIR
 70
     0
  9
$PDMODE
 70
     0
  9
$PDSIZE
 40
0.0
  9
$PLINEWID
 40
0.0
  9
$SPLFRAME
 70
     0
  9
$SPLINETYPE
 70
     6
  9
$SPLINESEGS
 70
     8
  9
$HANDSEED
  5
330
  9
$SURFTAB1
 70
     6
  9
$SURFTAB2
 70
     6
  9
$SURFTYPE
 70
     6
  9
$SURFU
 70
     6
  9
$SURFV
 70
     6
  9
$UCSBASE
  2

  9
$UCSNAME
  2

  9
$UCSORG
 10
0.0
 20
0.0
 30
0.0
  9
$UCSXDIR
 10
1.0
 20
0.0
 30
0.0
  9
$UCSYDIR
 10
0.0
 20
1.0
 30
0.0
  9
$UCSORTHOREF
  2

  9
$UCSORTHOVIEW
 70
     0
  9
$UCSORGTOP
 10
0.0
 20
0.0
 30
0.0
  9
$UCSORGBOTTOM
 10
0.0
 20
0.0
 30
0.0
  9
$UCSORGLEFT
 10
0.0
 20
0.0
 30
0.0
  9
$UCSORGRIGHT
 10
0.0
 20
0.0
 30
0.0
  9
$UCSORGFRONT
 10
0.0
 20
0.0
 30
0.0
  9
$UCSORGBACK
 10
0.0
 20
0.0
 30
0.0
  9
$PUCSBASE
  2

  9
$PUCSNAME
  2

  9
$PUCSORG
 10
0.0
 20
0.0
 30
0.0
  9
$PUCSXDIR
 10
1.0
 20
0.0
 30
0.0
  9
$PUCSYDIR
 10
0.0
 20
1.0
 30
0.0
  9
$PUCSORTHOREF
  2

  9
$PUCSORTHOVIEW
 70
     0
  9
$PUCSORGTOP
 10
0.0
 20
0.0
 30
0.0
  9
$PUCSORGBOTTOM
 10
0.0
 20
0.0
 30
0.0
  9
$PUCSORGLEFT
 10
0.0
 20
0.0
 30
0.0
  9
$PUCSORGRIGHT
 10
0.0
 20
0.0
 30
0.0
  9
$PUCSORGFRONT
 10
0.0
 20
0.0
 30
0.0
  9
$PUCSORGBACK
 10
0.0
 20
0.0
 30
0.0
  9
$USERI1
 70
     0
  9
$USERI2
 70
     0
  9
$USERI3
 70
     0
  9
$USERI4
 70
     0
  9
$USERI5
 70
     0
  9
$USERR1
 40
0.0
  9
$USERR2
 40
0.0
  9
$USERR3
 40
0.0
  9
$USERR4
 40
0.0
  9
$USERR5
 40
0.0
  9
$WORLDVIEW
 70
     1
  9
$SHADEDGE
 70
     3
  9
$SHADEDIF
 70
    70
  9
$TILEMODE
 70
     1
  9
$MAXACTVP
 70
    64
  9
$PINSBASE
 10
0.0
 20
0.0
 30
0.0
  9
$PLIMCHECK
 70
     0
  9
$PEXTMIN
 10
1.000000000000000E+20
 20
1.000000000000000E+20
 30
1.000000000000000E+20
  9
$PEXTMAX
 10
-1.000000000000000E+20
 20
-1.000000000000000E+20
 30
-1.000000000000000E+20
  9
$PLIMMIN
 10
0.0
 20
0.0
  9
$PLIMMAX
 10
12.0
 20
9.0
  9
$UNITMODE
 70
     0
  9
$VISRETAIN
 70
     1
  9
$PLINEGEN
 70
     0
  9
$PSLTSCALE
 70
     1
  9
$TREEDEPTH
 70
  3020
  9
$CMLSTYLE
  2
Standard
  9
$CMLJUST
 70
     0
  9
$CMLSCALE
 40
1.0
  9
$PROXYGRAPHICS
 70
     1
  9
$MEASUREMENT
 70
     0
  9
$CELWEIGHT
370
    -1
  9
$ENDCAPS
280
     0
  9
$JOINSTYLE
280
     0
  9
$LWDISPLAY
290
     1
  9
$INSUNITS
 70
     4
  9
$HYPERLINKBASE
  1

  9
$STYLESHEET
  1

  9
$XEDIT
290
     1
  9
$CEPSNTYPE
380
     0
  9
$PSTYLEMODE
290
     1
  9
$FINGERPRINTGUID
  2
{45E7DA30-EE43-714F-ADFA-A3F9F0B27859}
  9
$VERSIONGUID
  2
{0C38FFC1-C985-514B-92A8-12E5243359C7}
  9
$EXTNAMES
290
     1
  9
$PSVPSCALE
 40
0.0
  9
$OLESTARTUP
290
     0
  9
$SORTENTS
280
   127
  9
$INDEXCTL
280
     0
  9
$HIDETEXT
280
     1
  9
$XCLIPFRAME
280
     2
  9
$HALOGAP
280
     0
  9
$OBSCOLOR
 70
   257
  9
$OBSLTYPE
280
     0
  9
$INTERSECTIONDISPLAY
280
     0
  9
$INTERSECTIONCOLOR
 70
   257
  9
$DIMASSOC
280
     2
  9
$PROJECTNAME
  1

  9
$CAMERADISPLAY
290
     0
  9
$LENSLENGTH
 40
50.0
  9
$CAMERAHEIGHT
 40
0.0
  9
$STEPSPERSEC
 40
2.0
  9
$STEPSIZE
 40
6.0
  9
$3DDWFPREC
 40
2.0
  9
$PSOLWIDTH
 40
0.25
  9
$PSOLHEIGHT
 40
4.0
  9
$LOFTANG1
 40
1.570796326794896
  9
$LOFTANG2
 40
1.570796326794896
  9
$LOFTMAG1
 40
0.0
  9
$LOFTMAG2
 40
0.0
  9
$LOFTPARAM
 70
     7
  9
$LOFTNORMALS
280
     1
  9
$LATITUDE
 40
37.795
  9
$LONGITUDE
 40
-122.394
  9
$NORTHDIRECTION
 40
0.0
  9
$TIMEZONE
 70
 -8000
  9
$LIGHTGLYPHDISPLAY
280
     1
  9
$TILEMODELIGHTSYNCH
280
     1
  9
$CMATERIAL
347
11
  9
$SOLIDHIST
280
     0
  9
$SHOWHIST
280
     1
  9
$DWFFRAME
280
     2
  9
$DGNFRAME
280
     0
  9
$REALWORLDSCALE
290
     1
  9
$INTERFERECOLOR
 62
     1
  9
$INTERFEREOBJVS
345
33
  9
$INTERFEREVPVS
346
30
  9
$CSHADOW
280
     0
  9
$SHADOWPLANELOCATION
 40
0.0
  0
ENDSEC
  0
SECTION
  2
CLASSES
  0
CLASS
  1
ACDBDICTIONARYWDFLT
  2
AcDbDictionaryWithDefault
  3
ObjectDBX Classes
 90
        0
 91
        1
280
     0
281
     0
  0
CLASS
  1
MATERIAL
  2
AcDbMaterial
  3
ObjectDBX Classes
 90
     1153
 91
        3
280
     0
281
     0
  0
CLASS
  1
VISUALSTYLE
  2
AcDbVisualStyle
  3
ObjectDBX Classes
 90
     4095
 91
       24
280
     0
281
     0
  0
CLASS
  1
SCALE
  2
AcDbScale
  3
ObjectDBX Classes
 90
     1153
 91
       17
280
     0
281
     0
  0
CLASS
  1
TABLESTYLE
  2
AcDbTableStyle
  3
ObjectDBX Classes
 90
     4095
 91
        1
280
     0
281
     0
  0
CLASS
  1
MLEADERSTYLE
  2
AcDbMLeaderStyle
  3
ACDB_MLEADERSTYLE_CLASS
 90
     4095
 91
        1
280
     0
281
     0
  0
CLASS
  1
ACDBSECTIONVIEWSTYLE
  2
AcDbSectionViewStyle
  3
ObjectDBX Classes
 90
     1025
 91
        1
280
     0
281
     0
  0
CLASS
  1
ACDBDETAILVIEWSTYLE
  2
AcDbDetailViewStyle
  3
ObjectDBX Classes
 90
     1025
 91
        1
280
     0
281
     0
  0
CLASS
  1
DICTIONARYVAR
  2
AcDbDictionaryVar
  3
ObjectDBX Classes
 90
        0
 91
        5
280
     0
281
     0
  0
CLASS
  1
CELLSTYLEMAP
  2
AcDbCellStyleMap
  3
ObjectDBX Classes
 90
     1152
 91
        1
280
     0
281
     0
  0
ENDSEC
  0
SECTION
  2
TABLES
  0
TABLE
  2
VPORT
  5
8
330
0
100
AcDbSymbolTable
 70
     1
  0
VPORT
  5
57
330
8
100
AcDbSymbolTableRecord
100
AcDbViewportTableRecord
  2
*Active
 70
     0
 10
0.0
 20
0.0
 11
1.0
 21
1.0
 12
0.0
 22
0.0
 13
0.0
 23
0.0
 14
1.0
 24
1.0
 15
0.0
 25
0.0
 16
0.0
 26
0.0
 36
1.0
 17
104.9999999737499
 27
31.49999999212523
 37
0.0
 40
302.9399999242649
 41
0.7070707070707066
 42
50.0
 43
0.0
 44
0.0
 50
0.0
 51
0.0
 71
     0
 72
   100
 73
     1
 74
     1
 75
     0
 76
     0
 77
     0
 78
     0
281
     0
 65
     1
110
0.0
120
0.0
130
0.0
111
1.0
121
0.0
131
0.0
112
0.0
122
1.0
132
0.0
 79
     0
146
0.0
 60
     3
 61
     5
292
     1
282
     1
141
0.0
142
0.0
 63
   250
421
  3355443
  0
ENDTAB
  0
TABLE
  2
LTYPE
  5
5
330
0
100
AcDbSymbolTable
 70
     1
  0
LTYPE
  5
5B
330
5
100
AcDbSymbolTableRecord
100
AcDbLinetypeTableRecord
  2
ByBlock
 70
     0
  3

 72
    65
 73
     0
 40
0.0
  0
LTYPE
  5
5C
330
5
100
AcDbSymbolTableRecord
100
AcDbLinetypeTableRecord
  2
ByLayer
 70
     0
  3

 72
    65
 73
     0
 40
0.0
  0
LTYPE
  5
5D
330
5
100
AcDbSymbolTableRecord
100
AcDbLinetypeTableRecord
  2
Continuous
 70
     0
  3
Solid line
 72
    65
 73
     0
 40
0.0
  0
ENDTAB
  0
TABLE
  2
LAYER
  5
2
330
0
100
AcDbSymbolTable
 70
     2
  0
LAYER
  5
54
330
2
100
AcDbSymbolTableRecord
100
AcDbLayerTableRecord
  2
0
 70
     0
 62
     7
  6
Continuous
370
     0
390
F
347
21
348
0
  0
LAYER
  5
302
330
2
100
AcDbSymbolTableRecord
100
AcDbLayerTableRecord
  2
CAPA_BASE
 70
     0
 62
     7
  6
Continuous
370
     0
390
F
347
21
348
0
  0
ENDTAB
  0
TABLE
  2
STYLE
  5
3
330
0
100
AcDbSymbolTable
 70
     2
  0
STYLE
  5
55
330
3
100
AcDbSymbolTableRecord
100
AcDbTextStyleTableRecord
  2
Standard
 70
     0
 40
0.0
 41
1.0
 50
0.0
 71
     0
 42
0.2
  3
txt
  4

  0
STYLE
  5
5A
330
3
100
AcDbSymbolTableRecord
100
AcDbTextStyleTableRecord
  2
Annotative
 70
     0
 40
0.0
 41
1.0
 50
0.0
 71
     0
 42
0.2
  3
txt
  4

1001
AcadAnnotative
1000
AnnotativeData
1002
{
1070
     1
1070
     1
1002
}
  0
ENDTAB
  0
TABLE
  2
VIEW
  5
6
330
0
100
AcDbSymbolTable
 70
     0
  0
ENDTAB
  0
TABLE
  2
UCS
  5
7
330
0
100
AcDbSymbolTable
 70
     0
  0
ENDTAB
  0
TABLE
  2
APPID
  5
9
330
0
100
AcDbSymbolTable
 70
     2
  0
APPID
  5
56
330
9
100
AcDbSymbolTableRecord
100
AcDbRegAppTableRecord
  2
ACAD
 70
     0
  0
APPID
  5
5E
330
9
100
AcDbSymbolTableRecord
100
AcDbRegAppTableRecord
  2
AcadAnnotative
 70
     0
  0
ENDTAB
  0
TABLE
  2
DIMSTYLE
  5
A
330
0
100
AcDbSymbolTable
 70
     2
100
AcDbDimStyleTable
 71
     0
  0
DIMSTYLE
105
58
330
A
100
AcDbSymbolTableRecord
100
AcDbDimStyleTableRecord
  2
Standard
 70
     0
340
55
  0
DIMSTYLE
105
59
330
A
100
AcDbSymbolTableRecord
100
AcDbDimStyleTableRecord
  2
Annotative
 70
     0
340
55
1001
AcadAnnotative
1000
AnnotativeData
1002
{
1070
     1
1070
     1
1002
}
  0
ENDTAB
  0
TABLE
  2
BLOCK_RECORD
  5
1
330
0
100
AcDbSymbolTable
 70
     4
  0
BLOCK_RECORD
  5
70
330
1
100
AcDbSymbolTableRecord
100
AcDbBlockTableRecord
  2
*Model_Space
340
73
 70
     0
280
     1
281
     0
  0
BLOCK_RECORD
  5
6C
330
1
100
AcDbSymbolTableRecord
100
AcDbBlockTableRecord
  2
*Paper_Space
340
6F
 70
     0
280
     1
281
     0
  0
BLOCK_RECORD
  5
74
330
1
100
AcDbSymbolTableRecord
100
AcDbBlockTableRecord
  2
*Paper_Space0
340
77
 70
     0
280
     1
281
     0
  0
BLOCK_RECORD
  5
303
330
1
100
AcDbSymbolTableRecord
100
AcDbBlockTableRecord
  2
Block_0
340
0
102
{BLKREFS
331
304
102
}
 70
     0
280
     1
281
     0
  0
BLOCK_RECORD
  5
30F
330
1
100
AcDbSymbolTableRecord
100
AcDbBlockTableRecord
  2
Block_1
340
0
102
{BLKREFS
331
310
102
}
 70
     0
280
     1
281
     0
  0
BLOCK_RECORD
  5
31B
330
1
100
AcDbSymbolTableRecord
100
AcDbBlockTableRecord
  2
Block_2
340
0
102
{BLKREFS
331
31C
102
}
 70
     0
280
     1
281
     0
  0
ENDTAB
  0
ENDSEC
  0
SECTION
  2
BLOCKS
  0
BLOCK
  5
71
330
70
100
AcDbEntity
  8
0
100
AcDbBlockBegin
  2
*Model_Space
 70
     0
 10
0.0
 20
0.0
 30
0.0
  3
*Model_Space
  1

  0
ENDBLK
  5
72
330
70
100
AcDbEntity
  8
0
100
AcDbBlockEnd
  0
BLOCK
  5
6D
330
6C
100
AcDbEntity
 67
     1
  8
0
100
AcDbBlockBegin
  2
*Paper_Space
 70
     0
 10
0.0
 20
0.0
 30
0.0
  3
*Paper_Space
  1

  0
ENDBLK
  5
6E
330
6C
100
AcDbEntity
 67
     1
  8
0
100
AcDbBlockEnd
  0
BLOCK
  5
75
330
74
100
AcDbEntity
 67
     1
  8
0
100
AcDbBlockBegin
  2
*Paper_Space0
 70
     0
 10
0.0
 20
0.0
 30
0.0
  3
*Paper_Space0
  1

  0
ENDBLK
  5
76
330
74
100
AcDbEntity
 67
     1
  8
0
100
AcDbBlockEnd
  0
BLOCK
  5
305
330
303
100
AcDbEntity
  8
0
100
AcDbBlockBegin
  2
Block_0
 70
     0
 10
0.0
 20
0.0
 30
0.0
  3
Block_0
  1

  0
LWPOLYLINE
  5
307
330
303
100
AcDbEntity
  8
CAPA_BASE
100
AcDbPolyline
 90
        4
 70
     1
 43
0.0
 10
96.88830896340192
 20
85.89874475028324
 10
94.38830896340151
 20
86.20874475028296
 10
94.38830896340151
 20
85.58874475028352
 10
94.38830896340151
 20
85.58874475028352
  0
HATCH
  5
308
330
303
100
AcDbEntity
  8
CAPA_BASE
 62
    18
420
        0
440
 33554687
100
AcDbHatch
 10
0.0
 20
0.0
 30
0.0
210
0.0
220
0.0
230
1.0
  2
SOLID
 70
     1
 71
     1
 91
        1
 92
        1
 93
        3
 72
     1
 10
96.88830896340192
 20
85.89874475028324
 11
94.38830896340151
 21
86.20874475028296
 72
     1
 10
94.38830896340151
 20
86.20874475028296
 11
94.38830896340151
 21
85.58874475028352
 72
     1
 10
94.38830896340151
 20
85.58874475028352
 11
96.88830896340192
 21
85.89874475028324
 97
        1
330
307
 75
     2
 76
     1
 98
        1
 10
0.0
 20
0.0
450
        0
451
        0
460
0.0
461
0.0
452
        0
462
0.0
453
        0
470

  0
LWPOLYLINE
  5
309
330
303
100
AcDbEntity
  8
CAPA_BASE
100
AcDbPolyline
 90
        4
 70
     1
 43
0.0
 10
21.88830896340185
 20
85.89874475028324
 10
24.38830896340193
 20
85.58874475028352
 10
24.38830896340193
 20
86.20874475028296
 10
24.38830896340193
 20
86.20874475028296
  0
HATCH
  5
30A
330
303
100
AcDbEntity
  8
CAPA_BASE
 62
    18
420
        0
440
 33554687
100
AcDbHatch
 10
0.0
 20
0.0
 30
0.0
210
0.0
220
0.0
230
1.0
  2
SOLID
 70
     1
 71
     1
 91
        1
 92
        1
 93
        3
 72
     1
 10
21.88830896340185
 20
85.89874475028324
 11
24.38830896340193
 21
85.58874475028352
 72
     1
 10
24.38830896340193
 20
85.58874475028352
 11
24.38830896340193
 21
86.20874475028296
 72
     1
 10
24.38830896340193
 20
86.20874475028296
 11
21.88830896340185
 21
85.89874475028324
 97
        1
330
309
 75
     2
 76
     1
 98
        1
 10
0.0
 20
0.0
450
        0
451
        0
460
0.0
461
0.0
452
        0
462
0.0
453
        0
470

  0
LINE
  5
30B
330
303
100
AcDbEntity
  8
CAPA_BASE
 62
    18
420
        0
370
    25
100
AcDbLine
 10
96.88830896340192
 20
105.8987447502833
 30
0.0
 11
96.88830896340192
 21
84.89874475028384
 31
0.0
  0
LINE
  5
30C
330
303
100
AcDbEntity
  8
CAPA_BASE
 62
    18
420
        0
370
    25
100
AcDbLine
 10
21.88830896340185
 20
105.8987447502833
 30
0.0
 11
21.88830896340185
 21
84.89874475028384
 31
0.0
  0
LINE
  5
30D
330
303
100
AcDbEntity
  8
CAPA_BASE
 62
    18
420
        0
370
    25
100
AcDbLine
 10
96.88830896340192
 20
85.89874475028324
 30
0.0
 11
21.88830896340185
 21
85.89874475028324
 31
0.0
  0
MTEXT
  5
30E
330
303
100
AcDbEntity
  8
CAPA_BASE
100
AcDbMText
 10
56.74247748757762
 20
86.69249583302251
 30
0.0
 40
0.2
 41
0.0
 46
0.0
 71
     7
 72
     1
  1
\C18;\c0;\FArial Bold|b1|i0|c1;\H2.997200;\W0.700000;150
 73
     1
 44
1.0
  0
ENDBLK
  5
306
330
303
100
AcDbEntity
  8
0
100
AcDbBlockEnd
  0
BLOCK
  5
311
330
30F
100
AcDbEntity
  8
0
100
AcDbBlockBegin
  2
Block_1
 70
     0
 10
0.0
 20
0.0
 30
0.0
  3
Block_1
  1

  0
LWPOLYLINE
  5
313
330
30F
100
AcDbEntity
  8
CAPA_BASE
100
AcDbPolyline
 90
        4
 70
     1
 43
0.0
 10
115.3417940002017
 20
121.6487447502833
 10
115.031794000202
 20
119.1487447502833
 10
115.6517940002021
 20
119.1487447502833
 10
115.6517940002021
 20
119.1487447502833
  0
HATCH
  5
314
330
30F
100
AcDbEntity
  8
CAPA_BASE
 62
    18
420
        0
440
 33554687
100
AcDbHatch
 10
0.0
 20
0.0
 30
0.0
210
0.0
220
0.0
230
1.0
  2
SOLID
 70
     1
 71
     1
 91
        1
 92
        1
 93
        3
 72
     1
 10
115.3417940002017
 20
121.6487447502833
 11
115.031794000202
 21
119.1487447502833
 72
     1
 10
115.031794000202
 20
119.1487447502833
 11
115.6517940002021
 21
119.1487447502833
 72
     1
 10
115.6517940002021
 20
119.1487447502833
 11
115.3417940002017
 21
121.6487447502833
 97
        1
330
313
 75
     2
 76
     1
 98
        1
 10
0.0
 20
0.0
450
        0
451
        0
460
0.0
461
0.0
452
        0
462
0.0
453
        0
470

  0
LWPOLYLINE
  5
315
330
30F
100
AcDbEntity
  8
CAPA_BASE
100
AcDbPolyline
 90
        4
 70
     1
 43
0.0
 10
115.3417940002017
 20
96.64874475028346
 10
115.6517940002021
 20
99.14874475028355
 10
115.031794000202
 20
99.14874475028355
 10
115.031794000202
 20
99.14874475028355
  0
HATCH
  5
316
330
30F
100
AcDbEntity
  8
CAPA_BASE
 62
    18
420
        0
440
 33554687
100
AcDbHatch
 10
0.0
 20
0.0
 30
0.0
210
0.0
220
0.0
230
1.0
  2
SOLID
 70
     1
 71
     1
 91
        1
 92
        1
 93
        3
 72
     1
 10
115.3417940002017
 20
96.64874475028346
 11
115.6517940002021
 21
99.14874475028355
 72
     1
 10
115.6517940002021
 20
99.14874475028355
 11
115.031794000202
 21
99.14874475028355
 72
     1
 10
115.031794000202
 20
99.14874475028355
 11
115.3417940002017
 21
96.64874475028346
 97
        1
330
315
 75
     2
 76
     1
 98
        1
 10
0.0
 20
0.0
450
        0
451
        0
460
0.0
461
0.0
452
        0
462
0.0
453
        0
470

  0
LINE
  5
317
330
30F
100
AcDbEntity
  8
CAPA_BASE
 62
    18
420
        0
370
    25
100
AcDbLine
 10
124.341794000202
 20
121.6487447502833
 30
0.0
 11
114.3417940002017
 21
121.6487447502833
 31
0.0
  0
LINE
  5
318
330
30F
100
AcDbEntity
  8
CAPA_BASE
 62
    18
420
        0
370
    25
100
AcDbLine
 10
124.341794000202
 20
96.64874475028346
 30
0.0
 11
114.3417940002017
 21
96.64874475028346
 31
0.0
  0
LINE
  5
319
330
30F
100
AcDbEntity
  8
CAPA_BASE
 62
    18
420
        0
370
    25
100
AcDbLine
 10
115.3417940002017
 20
121.6487447502833
 30
0.0
 11
115.3417940002017
 21
96.64874475028346
 31
0.0
  0
MTEXT
  5
31A
330
30F
100
AcDbEntity
  8
CAPA_BASE
100
AcDbMText
 10
114.5480414634019
 20
107.3850043134308
 30
0.0
 40
0.2
 41
0.0
 46
0.0
 71
     7
 72
     1
  1
\C18;\c0;\FArial Bold|b1|i0|c1;\H2.997200;\W0.700000;50
 11
0.0000000000000003
 21
1.0
 31
0.0
 73
     1
 44
1.0
  0
ENDBLK
  5
312
330
30F
100
AcDbEntity
  8
0
100
AcDbBlockEnd
  0
BLOCK
  5
31D
330
31B
100
AcDbEntity
  8
0
100
AcDbBlockBegin
  2
Block_2
 70
     0
 10
0.0
 20
0.0
 30
0.0
  3
Block_2
  1

  0
LWPOLYLINE
  5
31F
330
31B
100
AcDbEntity
  8
CAPA_BASE
100
AcDbPolyline
 90
        4
 70
     1
 43
0.0
 10
106.8883089634023
 20
62.94169647558327
 10
106.5783089634019
 20
60.4416964755835
 10
107.198308963402
 20
60.4416964755835
 10
107.198308963402
 20
60.4416964755835
  0
HATCH
  5
320
330
31B
100
AcDbEntity
  8
CAPA_BASE
 62
    18
420
        0
440
 33554687
100
AcDbHatch
 10
0.0
 20
0.0
 30
0.0
210
0.0
220
0.0
230
1.0
  2
SOLID
 70
     1
 71
     1
 91
        1
 92
        1
 93
        3
 72
     1
 10
106.8883089634023
 20
62.94169647558327
 11
106.5783089634019
 21
60.4416964755835
 72
     1
 10
106.5783089634019
 20
60.4416964755835
 11
107.198308963402
 21
60.4416964755835
 72
     1
 10
107.198308963402
 20
60.4416964755835
 11
106.8883089634023
 21
62.94169647558327
 97
        1
330
31F
 75
     2
 76
     1
 98
        1
 10
0.0
 20
0.0
450
        0
451
        0
460
0.0
461
0.0
452
        0
462
0.0
453
        0
470

  0
LWPOLYLINE
  5
321
330
31B
100
AcDbEntity
  8
CAPA_BASE
100
AcDbPolyline
 90
        4
 70
     1
 43
0.0
 10
106.8883089634023
 20
9.941696475583965
 10
107.198308963402
 20
12.44169647558309
 10
106.5783089634019
 20
12.44169647558309
 10
106.5783089634019
 20
12.44169647558309
  0
HATCH
  5
322
330
31B
100
AcDbEntity
  8
CAPA_BASE
 62
    18
420
        0
440
 33554687
100
AcDbHatch
 10
0.0
 20
0.0
 30
0.0
210
0.0
220
0.0
230
1.0
  2
SOLID
 70
     1
 71
     1
 91
        1
 92
        1
 93
        3
 72
     1
 10
106.8883089634023
 20
9.941696475583965
 11
107.198308963402
 21
12.44169647558309
 72
     1
 10
107.198308963402
 20
12.44169647558309
 11
106.5783089634019
 21
12.44169647558309
 72
     1
 10
106.5783089634019
 20
12.44169647558309
 11
106.8883089634023
 21
9.941696475583965
 97
        1
330
321
 75
     2
 76
     1
 98
        1
 10
0.0
 20
0.0
450
        0
451
        0
460
0.0
461
0.0
452
        0
462
0.0
453
        0
470

  0
LINE
  5
323
330
31B
100
AcDbEntity
  8
CAPA_BASE
 62
    18
420
        0
370
    25
100
AcDbLine
 10
72.88830896340171
 20
62.94169647558327
 30
0.0
 11
107.8883089634016
 21
62.94169647558327
 31
0.0
  0
LINE
  5
324
330
31B
100
AcDbEntity
  8
CAPA_BASE
 62
    18
420
        0
370
    25
100
AcDbLine
 10
87.63830896340143
 20
9.941696475583965
 30
0.0
 11
107.8883089634016
 21
9.941696475583965
 31
0.0
  0
LINE
  5
325
330
31B
100
AcDbEntity
  8
CAPA_BASE
 62
    18
420
        0
370
    25
100
AcDbLine
 10
106.8883089634023
 20
62.94169647558327
 30
0.0
 11
106.8883089634023
 21
9.941696475583965
 31
0.0
  0
MTEXT
  5
326
330
31B
100
AcDbEntity
  8
CAPA_BASE
100
AcDbMText
 10
106.0945576720447
 20
33.79569769120322
 30
0.0
 40
0.2
 41
0.0
 46
0.0
 71
     7
 72
     1
  1
\C18;\c0;\FArial Bold|b1|i0|c1;\H2.997200;\W0.700000;106
 11
0.0000000000000003
 21
1.0
 31
0.0
 73
     1
 44
1.0
  0
ENDBLK
  5
31E
330
31B
100
AcDbEntity
  8
0
100
AcDbBlockEnd
  0
ENDSEC
  0
SECTION
  2
ENTITIES
  0
LINE
  5
78
330
70
100
AcDbEntity
  8
0
 62
    18
420
        0
370
    25
100
AcDbLine
 10
38.13830896340193
 20
100.8987447502834
 30
0.0
 11
80.63830896340183
 21
100.8987447502834
 31
0.0
  0
LINE
  5
79
330
70
100
AcDbEntity
  8
0
 62
    18
420
        0
370
    25
100
AcDbLine
 10
80.63830896340183
 20
102.3987447502835
 30
0.0
 11
38.13830896340193
 21
102.3987447502835
 31
0.0
  0
SPLINE
  5
7A
330
70
100
AcDbEntity
  8
0
 62
    18
420
        0
370
    25
100
AcDbSpline
210
0.0
220
0.0
230
1.0
 70
     8
 71
     3
 72
     8
 73
     4
 74
     0
 42
0.0000000001
 43
0.0000000001
 40
0.0
 40
0.0
 40
0.0
 40
0.0
 40
1.0
 40
1.0
 40
1.0
 40
1.0
 10
80.63830896340183
 20
102.3987447502835
 30
0.0
 10
81.60480727560615
 20
102.3987447502835
 30
0.0
 10
82.38830896340173
 20
103.1822464380794
 30
0.0
 10
82.38830896340173
 20
104.1487447502834
 30
0.0
  0
SPLINE
  5
7B
330
70
100
AcDbEntity
  8
0
 62
    18
420
        0
370
    25
100
AcDbSpline
210
0.0
220
0.0
230
1.0
 70
     8
 71
     3
 72
     8
 73
     4
 74
     0
 42
0.0000000001
 43
0.0000000001
 40
0.0
 40
0.0
 40
0.0
 40
0.0
 40
1.0
 40
1.0
 40
1.0
 40
1.0
 10
80.63830896340183
 20
100.8987447502834
 30
0.0
 10
82.43323440035164
 20
100.8987447502834
 30
0.0
 10
83.88830896340211
 20
102.3538193133332
 30
0.0
 10
83.88830896340211
 20
104.1487447502834
 30
0.0
  0
LINE
  5
7C
330
70
100
AcDbEntity
  8
0
 62
    18
420
        0
370
    25
100
AcDbLine
 10
82.38830896340173
 20
106.6487447502834
 30
0.0
 11
82.38830896340173
 21
104.1487447502834
 31
0.0
  0
LINE
  5
7D
330
70
100
AcDbEntity
  8
0
 62
    18
420
        0
370
    25
100
AcDbLine
 10
83.88830896340211
 20
104.1487447502834
 30
0.0
 11
83.88830896340211
 21
106.6487447502834
 31
0.0
  0
SPLINE
  5
7E
330
70
100
AcDbEntity
  8
0
 62
    18
420
        0
370
    25
100
AcDbSpline
210
0.0
220
0.0
230
1.0
 70
     8
 71
     3
 72
     8
 73
     4
 74
     0
 42
0.0000000001
 43
0.0000000001
 40
0.0
 40
0.0
 40
0.0
 40
0.0
 40
1.0
 40
1.0
 40
1.0
 40
1.0
 10
36.38830896340171
 20
104.1487447502834
 30
0.0
 10
36.38830896340171
 20
103.1822464380794
 30
0.0
 10
37.17181065119792
 20
102.3987447502835
 30
0.0
 10
38.13830896340193
 20
102.3987447502835
 30
0.0
  0
SPLINE
  5
7F
330
70
100
AcDbEntity
  8
0
 62
    18
420
        0
370
    25
100
AcDbSpline
210
0.0
220
0.0
230
1.0
 70
     8
 71
     3
 72
     8
 73
     4
 74
     0
 42
0.0000000001
 43
0.0000000001
 40
0.0
 40
0.0
 40
0.0
 40
0.0
 40
1.0
 40
1.0
 40
1.0
 40
1.0
 10
34.88830896340199
 20
104.1487447502834
 30
0.0
 10
34.88830896340199
 20
102.3538193133332
 30
0.0
 10
36.34338352645181
 20
100.8987447502834
 30
0.0
 10
38.13830896340193
 20
100.8987447502834
 30
0.0
  0
LINE
  5
80
330
70
100
AcDbEntity
  8
0
 62
    18
420
        0
370
    25
100
AcDbLine
 10
34.88830896340199
 20
106.6487447502834
 30
0.0
 11
34.88830896340199
 21
104.1487447502834
 31
0.0
  0
LINE
  5
81
330
70
100
AcDbEntity
  8
0
 62
    18
420
        0
370
    25
100
AcDbLine
 10
36.38830896340171
 20
104.1487447502834
 30
0.0
 11
36.38830896340171
 21
106.6487447502834
 31
0.0
  0
LINE
  5
82
330
70
100
AcDbEntity
  8
0
 62
    18
420
        0
370
    25
100
AcDbLine
 10
22.51330896340195
 20
106.6487447502834
 30
0.0
 11
22.51330896340195
 21
99.14874475028355
 31
0.0
  0
LINE
  5
83
330
70
100
AcDbEntity
  8
0
 62
    18
420
        0
370
    25
100
AcDbLine
 10
24.01330896340168
 20
99.14874475028355
 30
0.0
 11
24.01330896340168
 21
106.6487447502834
 31
0.0
  0
SPLINE
  5
84
330
70
100
AcDbEntity
  8
0
 62
    18
420
        0
370
    25
100
AcDbSpline
210
0.0
220
0.0
230
1.0
 70
     8
 71
     3
 72
     8
 73
     4
 74
     0
 42
0.0000000001
 43
0.0000000001
 40
0.0
 40
0.0
 40
0.0
 40
0.0
 40
1.0
 40
1.0
 40
1.0
 40
1.0
 10
93.01330896340154
 20
97.39874475028333
 30
0.0
 10
93.97980727560588
 20
97.39874475028333
 30
0.0
 10
94.76330896340209
 20
98.18224643807953
 30
0.0
 10
94.76330896340209
 20
99.14874475028355
 30
0.0
  0
SPLINE
  5
85
330
70
100
AcDbEntity
  8
0
 62
    18
420
        0
370
    25
100
AcDbSpline
210
0.0
220
0.0
230
1.0
 70
     8
 71
     3
 72
     8
 73
     4
 74
     0
 42
0.0000000001
 43
0.0000000001
 40
0.0
 40
0.0
 40
0.0
 40
0.0
 40
1.0
 40
1.0
 40
1.0
 40
1.0
 10
93.01330896340154
 20
95.89874475028327
 30
0.0
 10
94.808234400352
 20
95.89874475028327
 30
0.0
 10
96.26330896340183
 20
97.35381931333343
 30
0.0
 10
96.26330896340183
 20
99.14874475028355
 30
0.0
  0
LINE
  5
86
330
70
100
AcDbEntity
  8
0
 62
    18
420
        0
370
    25
100
AcDbLine
 10
93.01330896340154
 20
97.39874475028333
 30
0.0
 11
25.7633089634019
 21
97.39874475028333
 31
0.0
  0
LINE
  5
87
330
70
100
AcDbEntity
  8
0
 62
    18
420
        0
370
    25
100
AcDbLine
 10
25.7633089634019
 20
95.89874475028327
 30
0.0
 11
93.01330896340154
 21
95.89874475028327
 31
0.0
  0
SPLINE
  5
88
330
70
100
AcDbEntity
  8
0
 62
    18
420
        0
370
    25
100
AcDbSpline
210
0.0
220
0.0
230
1.0
 70
     8
 71
     3
 72
     8
 73
     4
 74
     0
 42
0.0000000001
 43
0.0000000001
 40
0.0
 40
0.0
 40
0.0
 40
0.0
 40
1.0
 40
1.0
 40
1.0
 40
1.0
 10
24.01330896340168
 20
99.14874475028355
 30
0.0
 10
24.01330896340168
 20
98.18224643807953
 30
0.0
 10
24.79681065119789
 20
97.39874475028333
 30
0.0
 10
25.7633089634019
 20
97.39874475028333
 30
0.0
  0
SPLINE
  5
89
330
70
100
AcDbEntity
  8
0
 62
    18
420
        0
370
    25
100
AcDbSpline
210
0.0
220
0.0
230
1.0
 70
     8
 71
     3
 72
     8
 73
     4
 74
     0
 42
0.0000000001
 43
0.0000000001
 40
0.0
 40
0.0
 40
0.0
 40
0.0
 40
1.0
 40
1.0
 40
1.0
 40
1.0
 10
22.51330896340195
 20
99.14874475028355
 30
0.0
 10
22.51330896340195
 20
97.35381931333343
 30
0.0
 10
23.96838352645178
 20
95.89874475028327
 30
0.0
 10
25.7633089634019
 20
95.89874475028327
 30
0.0
  0
LINE
  5
8A
330
70
100
AcDbEntity
  8
0
 62
    18
420
        0
370
    25
100
AcDbLine
 10
94.76330896340209
 20
106.6487447502834
 30
0.0
 11
94.76330896340209
 21
99.14874475028355
 31
0.0
  0
LINE
  5
8B
330
70
100
AcDbEntity
  8
0
 62
    18
420
        0
370
    25
100
AcDbLine
 10
96.26330896340183
 20
99.14874475028355
 30
0.0
 11
96.26330896340183
 21
106.6487447502834
 31
0.0
  0
SPLINE
  5
8C
330
70
100
AcDbEntity
  8
0
 62
    18
420
        0
370
    25
100
AcDbSpline
210
0.0
220
0.0
230
1.0
 70
     8
 71
     3
 72
    11
 73
     7
 74
     0
 42
0.0000000001
 43
0.0000000001
 40
0.0
 40
0.0
 40
0.0
 40
0.0
 40
1.0
 40
1.0
 40
1.0
 40
2.0
 40
2.0
 40
2.0
 40
2.0
 10
62.36392995565909
 20
111.6487447502567
 30
0.0
 10
60.86183881676815
 20
113.2921348455567
 30
0.0
 10
58.31192245912866
 20
113.4066802818316
 30
0.0
 10
56.66853236382864
 20
111.9045891429407
 30
0.0
 10
56.57946485952727
 20
111.8231796776186
 30
0.0
 10
56.49409743646639
 20
111.7378122545577
 30
0.0
 10
56.41268797114435
 20
111.6487447502567
 30
0.0
  0
SPLINE
  5
8D
330
70
100
AcDbEntity
  8
0
 62
    18
420
        0
370
    25
100
AcDbSpline
210
0.0
220
0.0
230
1.0
 70
     8
 71
     3
 72
    11
 73
     7
 74
     0
 42
0.0000000001
 43
0.0000000001
 40
0.0
 40
0.0
 40
0.0
 40
0.0
 40
1.0
 40
1.0
 40
1.0
 40
2.0
 40
2.0
 40
2.0
 40
2.0
 10
56.08073458387679
 20
106.6487447502822
 30
0.0
 10
57.35098950848829
 20
104.8220218615396
 30
0.0
 10
59.86158607466
 20
104.3709154461469
 30
0.0
 10
61.68830896340292
 20
105.6411703707581
 30
0.0
 10
62.08136710834921
 20
105.9144926394798
 30
0.0
 10
62.42256107420534
 20
106.2556866053362
 30
0.0
 10
62.69588334292699
 20
106.6487447502822
 30
0.0
  0
LINE
  5
8E
330
70
100
AcDbEntity
  8
0
 62
    18
420
        0
370
    25
100
AcDbLine
 10
56.46283996110194
 20
106.2232757479833
 30
0.0
 11
52.63830896340181
 21
102.3987447502835
 31
0.0
  0
LINE
  5
8F
330
70
100
AcDbEntity
  8
0
 62
    18
420
        0
370
    25
100
AcDbLine
 10
51.13830896340175
 20
100.8987447502834
 30
0.0
 11
47.63830896340194
 21
97.39874475028333
 31
0.0
  0
LINE
  5
90
330
70
100
AcDbEntity
  8
0
 62
    18
420
        0
370
    25
100
AcDbLine
 10
47.37247813280192
 20
121.1489371434835
 30
0.0
 11
47.36706442930188
 21
121.1489349660834
 31
0.0
  0
SPLINE
  5
91
330
70
100
AcDbEntity
  8
0
 62
    18
420
        0
370
    25
100
AcDbSpline
210
0.0
220
0.0
230
1.0
 70
     8
 71
     3
 72
     8
 73
     4
 74
     0
 42
0.0000000001
 43
0.0000000001
 40
0.0
 40
0.0
 40
0.0
 40
0.0
 40
1.0
 40
1.0
 40
1.0
 40
1.0
 10
47.372478132791
 20
121.1489371435124
 30
0.0
 10
48.96166166789543
 20
117.7897314503425
 30
0.0
 10
50.89740432074542
 20
114.6057225281982
 30
0.0
 10
53.14819298649643
 20
111.6487447502294
 30
0.0
  0
LINE
  5
92
330
70
100
AcDbEntity
  8
0
 62
    18
420
        0
370
    25
100
AcDbLine
 10
62.31977332550172
 20
106.2172803880833
 30
0.0
 11
66.13830896340228
 21
102.3987447502835
 31
0.0
  0
LINE
  5
93
330
70
100
AcDbEntity
  8
0
 62
    18
420
        0
370
    25
100
AcDbLine
 10
67.63830896340201
 20
100.8987447502834
 30
0.0
 11
71.13830896340181
 21
97.39874475028333
 31
0.0
  0
SPLINE
  5
94
330
70
100
AcDbEntity
  8
0
 62
    18
420
        0
370
    25
100
AcDbSpline
210
0.0
220
0.0
230
1.0
 70
     8
 71
     3
 72
     8
 73
     4
 74
     0
 42
0.0000000001
 43
0.0000000001
 40
0.0
 40
0.0
 40
0.0
 40
0.0
 40
1.0
 40
1.0
 40
1.0
 40
1.0
 10
65.64720796136654
 20
111.6487447502775
 30
0.0
 10
67.87630934820967
 20
114.6216130560132
 30
0.0
 10
69.80645156226934
 20
117.8073000757939
 30
0.0
 10
71.40954926029093
 20
121.159451135438
 30
0.0
  0
SPLINE
  5
95
330
70
100
AcDbEntity
  8
0
 62
    18
420
        0
370
    25
100
AcDbSpline
210
0.0
220
0.0
230
1.0
 70
     8
 71
     3
 72
     8
 73
     4
 74
     0
 42
0.0000000001
 43
0.0000000001
 40
0.0
 40
0.0
 40
0.0
 40
0.0
 40
1.0
 40
1.0
 40
1.0
 40
1.0
 10
47.36967211930976
 20
121.1594511353709
 30
0.0
 10
47.36980416734111
 20
121.1557799418657
 30
0.0
 10
47.37076335039701
 20
121.152185930979
 30
0.0
 10
47.37247813274352
 20
121.148937143522
 30
0.0
  0
LINE
  5
96
330
70
100
AcDbEntity
  8
0
 62
    18
420
        0
370
    25
100
AcDbLine
 10
71.38850342310179
 20
121.1594511353835
 30
0.0
 11
71.3884991886017
 21
121.1699892751835
 31
0.0
  0
SPLINE
  5
97
330
70
100
AcDbEntity
  8
0
 62
    18
420
        0
370
    25
100
AcDbSpline
210
0.0
220
0.0
230
1.0
 70
     8
 71
     3
 72
     8
 73
     4
 74
     0
 42
0.0000000001
 43
0.0000000001
 40
0.0
 40
0.0
 40
0.0
 40
0.0
 40
1.0
 40
1.0
 40
1.0
 40
1.0
 10
71.88830896336447
 20
121.148744750283
 30
0.0
 10
71.7226040861337
 20
121.1699221550403
 30
0.0
 10
71.55540344344031
 20
121.1770290552978
 30
0.0
 10
71.38849918853368
 20
121.1699892751854
 30
0.0
  0
SPLINE
  5
98
330
70
100
AcDbEntity
  8
0
 62
    18
420
        0
370
    25
100
AcDbSpline
210
0.0
220
0.0
230
1.0
 70
     8
 71
     3
 72
     8
 73
     4
 74
     0
 42
0.0000000001
 43
0.0000000001
 40
0.0
 40
0.0
 40
0.0
 40
0.0
 40
1.0
 40
1.0
 40
1.0
 40
1.0
 10
71.88830896337794
 20
121.1487447502047
 30
0.0
 10
71.72905675903338
 20
121.1614329535356
 30
0.0
 10
71.56920946517229
 20
121.165007579133
 30
0.0
 10
71.40954926028516
 20
121.1594511353324
 30
0.0
  0
LINE
  5
99
330
70
100
AcDbEntity
  8
0
 62
    18
420
        0
370
    25
100
AcDbLine
 10
71.40954926030184
 20
121.1594511353835
 30
0.0
 11
71.38850342310179
 21
121.1594511353835
 31
0.0
  0
LINE
  5
9A
330
70
100
AcDbEntity
  8
0
 62
    18
420
        0
370
    25
100
AcDbLine
 10
71.88830896340168
 20
121.1487447502833
 30
0.0
 11
71.88830896340168
 21
111.6487447502833
 31
0.0
  0
LINE
  5
9B
330
70
100
AcDbEntity
  8
0
 62
    18
420
        0
370
    25
100
AcDbLine
 10
71.88830896340168
 20
106.6487447502834
 30
0.0
 11
71.88830896340168
 21
102.3987447502835
 31
0.0
  0
LINE
  5
9C
330
70
100
AcDbEntity
  8
0
 62
    18
420
        0
370
    25
100
AcDbLine
 10
71.88830896340168
 20
100.8987447502834
 30
0.0
 11
71.88830896340168
 21
97.39874475028333
 31
0.0
  0
LINE
  5
9D
330
70
100
AcDbEntity
  8
0
 62
    18
420
        0
370
    25
100
AcDbLine
 10
46.88830896340176
 20
97.39874475028333
 30
0.0
 11
46.88830896340176
 21
100.8987447502834
 31
0.0
  0
LINE
  5
9E
330
70
100
AcDbEntity
  8
0
 62
    18
420
        0
370
    25
100
AcDbLine
 10
46.88830896340176
 20
102.3987447502835
 30
0.0
 11
46.88830896340176
 21
106.6487447502834
 31
0.0
  0
LINE
  5
9F
330
70
100
AcDbEntity
  8
0
 62
    18
420
        0
370
    25
100
AcDbLine
 10
46.88830896340176
 20
111.6487447502833
 30
0.0
 11
46.88830896340176
 21
121.1487447502833
 31
0.0
  0
SPLINE
  5
A0
330
70
100
AcDbEntity
  8
0
 62
    18
420
        0
370
    25
100
AcDbSpline
210
0.0
220
0.0
230
1.0
 70
     8
 71
     3
 72
     8
 73
     4
 74
     0
 42
0.0000000001
 43
0.0000000001
 40
0.0
 40
0.0
 40
0.0
 40
0.0
 40
1.0
 40
1.0
 40
1.0
 40
1.0
 10
47.36706442940231
 20
121.1489349661065
 30
0.0
 10
47.20747924878628
 20
121.1489949468038
 30
0.0
 10
47.04789404567292
 20
121.1489315415089
 30
0.0
 10
46.88830896310273
 20
121.1487447502792
 30
0.0
  0
LWPOLYLINE
  5
A1
330
70
100
AcDbEntity
  8
0
 62
    18
420
        0
370
    25
100
AcDbPolyline
 90
        6
 70
     0
 43
0.0
 10
59.38830896340189
 20
121.1730060975833
 10
58.38830896340184
 20
121.1729784670834
 10
54.38830901170175
 20
121.1723648437835
 10
50.8882138133018
 20
121.1713160546833
 10
47.38811873820174
 20
121.1699892751835
 10
47.37760257920196
 20
121.1699850480835
  0
SPLINE
  5
A2
330
70
100
AcDbEntity
  8
0
 62
    18
420
        0
370
    25
100
AcDbSpline
210
0.0
220
0.0
230
1.0
 70
     8
 71
     3
 72
     8
 73
     4
 74
     0
 42
0.0000000001
 43
0.0000000001
 40
0.0
 40
0.0
 40
0.0
 40
0.0
 40
1.0
 40
1.0
 40
1.0
 40
1.0
 10
47.38830896804191
 20
121.6487447502057
 30
0.0
 10
47.37562075920042
 20
121.4894925464595
 30
0.0
 10
47.37204613235848
 20
121.3296452526616
 30
0.0
 10
47.37760257920292
 20
121.1699850480392
 30
0.0
  0
LINE
  5
A3
330
70
100
AcDbEntity
  8
0
 62
    18
420
        0
370
    25
100
AcDbLine
 10
47.38830896340178
 20
121.6487447502833
 30
0.0
 11
59.38830896340189
 21
121.6487447502833
 31
0.0
  0
LINE
  5
A4
330
70
100
AcDbEntity
  8
0
 62
    18
420
        0
370
    25
100
AcDbLine
 10
59.38830896340189
 20
121.1730060975833
 30
0.0
 11
59.38830896340189
 21
121.6487447502833
 31
0.0
  0
SPLINE
  5
A5
330
70
100
AcDbEntity
  8
0
 62
    18
420
        0
370
    25
100
AcDbSpline
210
0.0
220
0.0
230
1.0
 70
     8
 71
     3
 72
     8
 73
     4
 74
     0
 42
0.0000000001
 43
0.0000000001
 40
0.0
 40
0.0
 40
0.0
 40
0.0
 40
1.0
 40
1.0
 40
1.0
 40
1.0
 10
47.38830896335397
 20
121.6487447502112
 30
0.0
 10
47.36713154936101
 20
121.4830398706363
 30
0.0
 10
47.36002464602274
 20
121.3158392243157
 30
0.0
 10
47.36706442930637
 20
121.1489349660424
 30
0.0
  0
LWPOLYLINE
  5
A6
330
70
100
AcDbEntity
  8
0
 62
    18
420
        0
370
    25
100
AcDbPolyline
 90
        3
 70
     0
 43
0.0
 10
47.37760257920196
 20
121.1699850480835
 10
47.37900136330174
 20
121.1622956648834
 10
47.38023105800187
 20
121.1594511353835
  0
LINE
  5
A7
330
70
100
AcDbEntity
  8
0
 62
    18
420
        0
370
    25
100
AcDbLine
 10
47.38023105800187
 20
121.1594511353835
 30
0.0
 11
47.36967211930174
 21
121.1594511353835
 31
0.0
  0
LINE
  5
A8
330
70
100
AcDbEntity
  8
0
 62
    18
420
        0
370
    25
100
AcDbLine
 10
59.38830896340189
 20
121.1594511353835
 30
0.0
 11
59.38830896340189
 21
121.1730060975833
 31
0.0
  0
LINE
  5
A9
330
70
100
AcDbEntity
  8
0
 62
    18
420
        0
370
    25
100
AcDbLine
 10
59.38830896340189
 20
121.1594511353835
 30
0.0
 11
47.38023105800187
 21
121.1594511353835
 31
0.0
  0
LWPOLYLINE
  5
AA
330
70
100
AcDbEntity
  8
0
 62
    18
420
        0
370
    25
100
AcDbPolyline
 90
        5
 70
     0
 43
0.0
 10
71.3884991886017
 20
121.1699892751835
 10
70.38849933150228
 20
121.1703862149834
 10
66.38849978110214
 20
121.1718105586833
 10
62.88840452230195
 20
121.1726815664835
 10
59.38830896340189
 20
121.1730060975833
  0
LINE
  5
AB
330
70
100
AcDbEntity
  8
0
 62
    18
420
        0
370
    25
100
AcDbLine
 10
71.38850342310179
 20
121.1594511353835
 30
0.0
 11
59.38830896340189
 21
121.1594511353835
 31
0.0
  0
LINE
  5
AC
330
70
100
AcDbEntity
  8
0
 62
    18
420
        0
370
    25
100
AcDbLine
 10
59.38830896340189
 20
121.6487447502833
 30
0.0
 11
71.38830896340135
 21
121.6487447502833
 31
0.0
  0
SPLINE
  5
AD
330
70
100
AcDbEntity
  8
0
 62
    18
420
        0
370
    25
100
AcDbSpline
210
0.0
220
0.0
230
1.0
 70
     8
 71
     3
 72
     8
 73
     4
 74
     0
 42
0.0000000001
 43
0.0000000001
 40
0.0
 40
0.0
 40
0.0
 40
0.0
 40
1.0
 40
1.0
 40
1.0
 40
1.0
 10
71.38849918851892
 20
121.1699892751864
 30
0.0
 10
71.38855917216378
 20
121.3295744587915
 30
0.0
 10
71.38849576375446
 20
121.4891596649029
 30
0.0
 10
71.38830896334744
 20
121.6487447504524
 30
0.0
  0
SPLINE
  5
AE
330
70
100
AcDbEntity
  8
0
 62
    18
420
        0
370
    25
100
AcDbSpline
210
0.0
220
0.0
230
1.0
 70
     8
 71
     3
 72
     8
 73
     4
 74
     0
 42
0.0000000001
 43
0.0000000001
 40
0.0
 40
0.0
 40
0.0
 40
0.0
 40
1.0
 40
1.0
 40
1.0
 40
1.0
 10
71.88830896340168
 20
121.1487447503619
 30
0.0
 10
71.88830896335804
 20
121.4248871252466
 30
0.0
 10
71.66445133828698
 20
121.6487447502833
 30
0.0
 10
71.38830896340135
 20
121.6487447502833
 30
0.0
  0
SPLINE
  5
AF
330
70
100
AcDbEntity
  8
0
 62
    18
420
        0
370
    25
100
AcDbSpline
210
0.0
220
0.0
230
1.0
 70
     8
 71
     3
 72
     8
 73
     4
 74
     0
 42
0.0000000001
 43
0.0000000001
 40
0.0
 40
0.0
 40
0.0
 40
0.0
 40
1.0
 40
1.0
 40
1.0
 40
1.0
 10
47.38830896340178
 20
121.6487447502833
 30
0.0
 10
47.1121665884863
 20
121.6487447502833
 30
0.0
 10
46.88830896340176
 20
121.4248871251988
 30
0.0
 10
46.88830896340176
 20
121.1487447502833
 30
0.0
  0
LINE
  5
B0
330
70
100
AcDbEntity
  8
0
 62
    18
420
        0
370
    25
100
AcDbLine
 10
32.13830896340173
 20
106.8987447502833
 30
0.0
 11
40.82299910300174
 21
106.8987447502833
 31
0.0
  0
SPLINE
  5
B1
330
70
100
AcDbEntity
  8
0
 62
    18
420
        0
370
    25
100
AcDbSpline
210
0.0
220
0.0
230
1.0
 70
     8
 71
     3
 72
     8
 73
     4
 74
     0
 42
0.0000000001
 43
0.0000000001
 40
0.0
 40
0.0
 40
0.0
 40
0.0
 40
1.0
 40
1.0
 40
1.0
 40
1.0
 10
40.6383089633863
 20
106.6487447501943
 30
0.0
 10
40.70308804681359
 20
106.7296537994625
 30
0.0
 10
40.76469792793345
 20
106.8130500777408
 30
0.0
 10
40.82299910301778
 20
106.8987447501944
 30
0.0
  0
LINE
  5
B2
330
70
100
AcDbEntity
  8
0
 62
    18
420
        0
370
    25
100
AcDbLine
 10
40.6383089634017
 20
106.6487447502834
 30
0.0
 11
32.13830896340173
 21
106.6487447502834
 31
0.0
  0
LINE
  5
B3
330
70
100
AcDbEntity
  8
0
 62
    18
420
        0
370
    25
100
AcDbLine
 10
32.13830896340173
 20
106.8987447502833
 30
0.0
 11
32.13830896340173
 21
106.6487447502834
 31
0.0
  0
LINE
  5
B4
330
70
100
AcDbEntity
  8
0
 62
    18
420
        0
370
    25
100
AcDbLine
 10
39.88751820930186
 20
111.6487447502833
 30
0.0
 11
32.13830896340173
 21
111.6487447502833
 31
0.0
  0
SPLINE
  5
B5
330
70
100
AcDbEntity
  8
0
 62
    18
420
        0
370
    25
100
AcDbSpline
210
0.0
220
0.0
230
1.0
 70
     8
 71
     3
 72
     8
 73
     4
 74
     0
 42
0.0000000001
 43
0.0000000001
 40
0.0
 40
0.0
 40
0.0
 40
0.0
 40
1.0
 40
1.0
 40
1.0
 40
1.0
 10
41.1298415757962
 20
110.8630304645702
 30
0.0
 10
40.90222811177225
 20
111.3428817795265
 30
0.0
 10
40.41861629202323
 20
111.6487447502833
 30
0.0
 10
39.88751820930186
 20
111.6487447502833
 30
0.0
  0
LWPOLYLINE
  5
B6
330
70
100
AcDbEntity
  8
0
 62
    18
420
        0
370
    25
100
AcDbPolyline
 90
        3
 70
     0
 43
0.0
 10
41.12984157580197
 20
110.8630304644833
 10
41.31162213830178
 20
110.4104142548835
 10
41.35434809740171
 20
110.2737447502834
  0
LINE
  5
B7
330
70
100
AcDbEntity
  8
0
 62
    18
420
        0
370
    25
100
AcDbLine
 10
41.35434809740171
 20
110.2737447502834
 30
0.0
 11
32.13830896340173
 21
110.2737447502834
 31
0.0
  0
LINE
  5
B8
330
70
100
AcDbEntity
  8
0
 62
    18
420
        0
370
    25
100
AcDbLine
 10
32.13830896340173
 20
111.6487447502833
 30
0.0
 11
32.13830896340173
 21
110.2737447502834
 31
0.0
  0
SPLINE
  5
B9
330
70
100
AcDbEntity
  8
0
 62
    18
420
        0
370
    25
100
AcDbSpline
210
0.0
220
0.0
230
1.0
 70
     8
 71
     3
 72
     8
 73
     4
 74
     0
 42
0.0000000001
 43
0.0000000001
 40
0.0
 40
0.0
 40
0.0
 40
0.0
 40
1.0
 40
1.0
 40
1.0
 40
1.0
 10
78.88909971750191
 20
111.6487447502833
 30
0.0
 10
78.35800163478022
 20
111.6487447502833
 30
0.0
 10
77.87438981503183
 20
111.3428817795265
 30
0.0
 10
77.64677635100724
 20
110.8630304645702
 30
0.0
  0
LINE
  5
BA
330
70
100
AcDbEntity
  8
0
 62
    18
420
        0
370
    25
100
AcDbLine
 10
86.63830896340204
 20
111.6487447502833
 30
0.0
 11
78.88909971750191
 21
111.6487447502833
 31
0.0
  0
LINE
  5
BB
330
70
100
AcDbEntity
  8
0
 62
    18
420
        0
370
    25
100
AcDbLine
 10
86.63830896340204
 20
111.6487447502833
 30
0.0
 11
86.63830896340204
 21
110.2737447502834
 31
0.0
  0
LINE
  5
BC
330
70
100
AcDbEntity
  8
0
 62
    18
420
        0
370
    25
100
AcDbLine
 10
86.63830896340204
 20
110.2737447502834
 30
0.0
 11
77.4222698294014
 21
110.2737447502834
 31
0.0
  0
LWPOLYLINE
  5
BD
330
70
100
AcDbEntity
  8
0
 62
    18
420
        0
370
    25
100
AcDbPolyline
 90
        3
 70
     0
 43
0.0
 10
77.4222698294014
 20
110.2737447502834
 10
77.59136822870146
 20
110.7409796697834
 10
77.64677635100212
 20
110.8630304644833
  0
LINE
  5
BE
330
70
100
AcDbEntity
  8
0
 62
    18
420
        0
370
    25
100
AcDbLine
 10
32.13830896340173
 20
110.2737447502834
 30
0.0
 11
21.88830896340185
 21
110.2737447502834
 31
0.0
  0
LINE
  5
BF
330
70
100
AcDbEntity
  8
0
 62
    18
420
        0
370
    25
100
AcDbLine
 10
32.13830896340173
 20
110.2737447502834
 30
0.0
 11
32.13830896340173
 21
106.8987447502833
 31
0.0
  0
LINE
  5
C0
330
70
100
AcDbEntity
  8
0
 62
    18
420
        0
370
    25
100
AcDbLine
 10
21.88830896340185
 20
106.8987447502833
 30
0.0
 11
32.13830896340173
 21
106.8987447502833
 31
0.0
  0
LINE
  5
C1
330
70
100
AcDbEntity
  8
0
 62
    18
420
        0
370
    25
100
AcDbLine
 10
21.88830896340185
 20
110.2737447502834
 30
0.0
 11
21.88830896340185
 21
106.8987447502833
 31
0.0
  0
LINE
  5
C2
330
70
100
AcDbEntity
  8
0
 62
    18
420
        0
370
    25
100
AcDbLine
 10
86.63830896340204
 20
106.6487447502834
 30
0.0
 11
78.13830896340142
 21
106.6487447502834
 31
0.0
  0
LINE
  5
C3
330
70
100
AcDbEntity
  8
0
 62
    18
420
        0
370
    25
100
AcDbLine
 10
77.95361882380203
 20
106.8987447502833
 30
0.0
 11
86.63830896340204
 21
106.8987447502833
 31
0.0
  0
LINE
  5
C4
330
70
100
AcDbEntity
  8
0
 62
    18
420
        0
370
    25
100
AcDbLine
 10
86.63830896340204
 20
106.6487447502834
 30
0.0
 11
86.63830896340204
 21
106.8987447502833
 31
0.0
  0
SPLINE
  5
C5
330
70
100
AcDbEntity
  8
0
 62
    18
420
        0
370
    25
100
AcDbSpline
210
0.0
220
0.0
230
1.0
 70
     8
 71
     3
 72
     8
 73
     4
 74
     0
 42
0.0000000001
 43
0.0000000001
 40
0.0
 40
0.0
 40
0.0
 40
0.0
 40
1.0
 40
1.0
 40
1.0
 40
1.0
 10
77.95361882370577
 20
106.8987447502317
 30
0.0
 10
78.0119199987901
 20
106.8130500777799
 30
0.0
 10
78.07352987990836
 20
106.7296537995033
 30
0.0
 10
78.13830896333404
 20
106.6487447502366
 30
0.0
  0
SPLINE
  5
C6
330
70
100
AcDbEntity
  8
0
 62
    18
420
        0
370
    25
100
AcDbSpline
210
0.0
220
0.0
230
1.0
 70
     8
 71
     3
 72
     8
 73
     4
 74
     0
 42
0.0000000001
 43
0.0000000001
 40
0.0
 40
0.0
 40
0.0
 40
0.0
 40
1.0
 40
1.0
 40
1.0
 40
1.0
 10
40.82299910303318
 20
106.898744750284
 30
0.0
 10
41.49582865407714
 20
107.8877112318392
 30
0.0
 10
41.69076287292017
 20
109.1258861330287
 30
0.0
 10
41.35434809739755
 20
110.2737447502843
 30
0.0
  0
LINE
  5
C7
330
70
100
AcDbEntity
  8
0
 62
    18
420
        0
370
    25
100
AcDbLine
 10
96.63830896340176
 20
106.6487447502834
 30
0.0
 11
86.63830896340204
 21
106.6487447502834
 31
0.0
  0
LINE
  5
C8
330
70
100
AcDbEntity
  8
0
 62
    18
420
        0
370
    25
100
AcDbLine
 10
86.63830896340204
 20
106.8987447502833
 30
0.0
 11
96.88830896340192
 21
106.8987447502833
 31
0.0
  0
SPLINE
  5
C9
330
70
100
AcDbEntity
  8
0
 62
    18
420
        0
370
    25
100
AcDbSpline
210
0.0
220
0.0
230
1.0
 70
     8
 71
     3
 72
     8
 73
     4
 74
     0
 42
0.0000000001
 43
0.0000000001
 40
0.0
 40
0.0
 40
0.0
 40
0.0
 40
1.0
 40
1.0
 40
1.0
 40
1.0
 10
96.63830896340176
 20
106.6487447502834
 30
0.0
 10
96.77638015085998
 20
106.6487447502834
 30
0.0
 10
96.88830896340192
 20
106.7606735628257
 30
0.0
 10
96.88830896340192
 20
106.8987447502833
 30
0.0
  0
LINE
  5
CA
330
70
100
AcDbEntity
  8
0
 62
    18
420
        0
370
    25
100
AcDbLine
 10
32.13830896340173
 20
111.6487447502833
 30
0.0
 11
23.26330896340181
 21
111.6487447502833
 31
0.0
  0
SPLINE
  5
CB
330
70
100
AcDbEntity
  8
0
 62
    18
420
        0
370
    25
100
AcDbSpline
210
0.0
220
0.0
230
1.0
 70
     8
 71
     3
 72
     8
 73
     4
 74
     0
 42
0.0000000001
 43
0.0000000001
 40
0.0
 40
0.0
 40
0.0
 40
0.0
 40
1.0
 40
1.0
 40
1.0
 40
1.0
 10
23.26330896340181
 20
111.6487447502833
 30
0.0
 10
22.50391743238449
 20
111.6487447502833
 30
0.0
 10
21.88830896340185
 20
111.0331362813007
 30
0.0
 10
21.88830896340185
 20
110.2737447502834
 30
0.0
  0
LINE
  5
CC
330
70
100
AcDbEntity
  8
0
 62
    18
420
        0
370
    25
100
AcDbLine
 10
32.13830896340173
 20
106.6487447502834
 30
0.0
 11
22.13830896340169
 21
106.6487447502834
 31
0.0
  0
SPLINE
  5
CD
330
70
100
AcDbEntity
  8
0
 62
    18
420
        0
370
    25
100
AcDbSpline
210
0.0
220
0.0
230
1.0
 70
     8
 71
     3
 72
     8
 73
     4
 74
     0
 42
0.0000000001
 43
0.0000000001
 40
0.0
 40
0.0
 40
0.0
 40
0.0
 40
1.0
 40
1.0
 40
1.0
 40
1.0
 10
21.88830896340185
 20
106.8987447502833
 30
0.0
 10
21.88830896340185
 20
106.7606735628257
 30
0.0
 10
22.00023777594411
 20
106.6487447502834
 30
0.0
 10
22.13830896340169
 20
106.6487447502834
 30
0.0
  0
LINE
  5
CE
330
70
100
AcDbEntity
  8
0
 62
    18
420
        0
370
    25
100
AcDbLine
 10
95.51330896340195
 20
111.6487447502833
 30
0.0
 11
86.63830896340204
 21
111.6487447502833
 31
0.0
  0
SPLINE
  5
CF
330
70
100
AcDbEntity
  8
0
 62
    18
420
        0
370
    25
100
AcDbSpline
210
0.0
220
0.0
230
1.0
 70
     8
 71
     3
 72
     8
 73
     4
 74
     0
 42
0.0000000001
 43
0.0000000001
 40
0.0
 40
0.0
 40
0.0
 40
0.0
 40
1.0
 40
1.0
 40
1.0
 40
1.0
 10
96.88830896340192
 20
110.2737447502834
 30
0.0
 10
96.88830896340192
 20
111.0331362813007
 30
0.0
 10
96.27270049441928
 20
111.6487447502833
 30
0.0
 10
95.51330896340195
 20
111.6487447502833
 30
0.0
  0
LINE
  5
D0
330
70
100
AcDbEntity
  8
0
 62
    18
420
        0
370
    25
100
AcDbLine
 10
96.88830896340192
 20
110.2737447502834
 30
0.0
 11
86.63830896340204
 21
110.2737447502834
 31
0.0
  0
LINE
  5
D1
330
70
100
AcDbEntity
  8
0
 62
    18
420
        0
370
    25
100
AcDbLine
 10
96.88830896340192
 20
110.2737447502834
 30
0.0
 11
96.88830896340192
 21
106.8987447502833
 31
0.0
  0
LINE
  5
D2
330
70
100
AcDbEntity
  8
0
 62
    18
420
        0
370
    25
100
AcDbLine
 10
86.63830896340204
 20
110.2737447502834
 30
0.0
 11
86.63830896340204
 21
106.8987447502833
 31
0.0
  0
SPLINE
  5
D3
330
70
100
AcDbEntity
  8
0
 62
    18
420
        0
370
    25
100
AcDbSpline
210
0.0
220
0.0
230
1.0
 70
     8
 71
     3
 72
     8
 73
     4
 74
     0
 42
0.0000000001
 43
0.0000000001
 40
0.0
 40
0.0
 40
0.0
 40
0.0
 40
1.0
 40
1.0
 40
1.0
 40
1.0
 10
77.42226982940654
 20
110.2737447502843
 30
0.0
 10
77.08585505388359
 20
109.1258861330287
 30
0.0
 10
77.28078927272661
 20
107.8877112318392
 30
0.0
 10
77.95361882377058
 20
106.898744750284
 30
0.0
  0
LINE
  5
D4
330
70
100
AcDbEntity
  8
0
 62
    18
420
        0
370
    25
100
AcDbLine
 10
78.13830896340142
 20
106.6487447502834
 30
0.0
 11
40.6383089634017
 21
106.6487447502834
 31
0.0
  0
LINE
  5
D5
330
70
100
AcDbEntity
  8
0
 62
    18
420
        0
370
    25
100
AcDbLine
 10
39.88751820930186
 20
111.6487447502833
 30
0.0
 11
78.88909971750191
 21
111.6487447502833
 31
0.0
  0
SPLINE
  5
D6
330
70
100
AcDbEntity
  8
0
 62
    18
420
        0
370
    25
100
AcDbSpline
210
0.0
220
0.0
230
1.0
 70
     8
 71
     3
 72
     8
 73
     4
 74
     0
 42
0.0000000001
 43
0.0000000001
 40
0.0
 40
0.0
 40
0.0
 40
0.0
 40
1.0
 40
1.0
 40
1.0
 40
1.0
 10
58.40851306628986
 20
106.6487447502828
 30
0.0
 10
59.03449377833356
 20
106.3820780836168
 30
0.0
 10
59.74212414846988
 20
106.3820780836168
 30
0.0
 10
60.3681048605139
 20
106.6487447502828
 30
0.0
  0
LWPOLYLINE
  5
D7
330
70
100
AcDbEntity
  8
0
 62
     8
420
  8421504
370
    25
100
AcDbPolyline
 90
        4
 70
     0
 43
0.0
 10
47.36706442930188
 20
121.1489349660834
 10
47.36666754640178
 20
120.1489351087835
 10
47.36524720150177
 20
116.1489355557835
 10
47.36458624380168
 20
111.6487447502833
  0
LWPOLYLINE
  5
D8
330
70
100
AcDbEntity
  8
0
 62
     8
420
  8421504
370
    25
100
AcDbPolyline
 90
        3
 70
     0
 43
0.0
 10
47.36426984860184
 20
106.6487447502834
 10
47.36447365000194
 20
105.1017334281835
 10
47.36535416290178
 20
102.3987447502835
  0
LINE
  5
D9
330
70
100
AcDbEntity
  8
0
 62
     8
420
  8421504
370
    25
100
AcDbLine
 10
47.36584279590197
 20
100.8987447502834
 30
0.0
 11
47.36698293950194
 21
97.39874475028333
 31
0.0
  0
LWPOLYLINE
  5
DA
330
70
100
AcDbEntity
  8
0
 62
     8
420
  8421504
370
    25
100
AcDbPolyline
 90
        3
 70
     0
 43
0.0
 10
71.40965279370163
 20
97.39874475028333
 10
71.40995038040165
 20
98.14855439168322
 10
71.41092693520189
 20
100.8987447502834
  0
LINE
  5
DB
330
70
100
AcDbEntity
  8
0
 62
     8
420
  8421504
370
    25
100
AcDbLine
 10
71.41140747160135
 20
102.3987447502835
 30
0.0
 11
71.41203168300208
 21
106.6487447502834
 31
0.0
  0
LWPOLYLINE
  5
DC
330
70
100
AcDbEntity
  8
0
 62
     8
420
  8421504
370
    25
100
AcDbPolyline
 90
        4
 70
     0
 43
0.0
 10
71.41234807820191
 20
111.6487447502833
 10
71.4121442768015
 20
113.1957560722832
 10
71.40955348650155
 20
121.1489349772833
 10
71.40954926030184
 20
121.1594511353835
  0
LINE
  5
DD
330
70
100
AcDbEntity
  8
0
 62
     8
420
  8421504
370
    25
100
AcDbLine
 10
38.13830896340193
 20
100.8987447502834
 30
0.0
 11
38.13830896340193
 21
102.3987447502835
 31
0.0
  0
LINE
  5
DE
330
70
100
AcDbEntity
  8
0
 62
     8
420
  8421504
370
    25
100
AcDbLine
 10
80.63830896340183
 20
100.8987447502834
 30
0.0
 11
80.63830896340183
 21
102.3987447502835
 31
0.0
  0
LINE
  5
DF
330
70
100
AcDbEntity
  8
0
 62
     8
420
  8421504
370
    25
100
AcDbLine
 10
83.88830896340211
 20
104.1487447502834
 30
0.0
 11
82.38830896340173
 21
104.1487447502834
 31
0.0
  0
LINE
  5
E0
330
70
100
AcDbEntity
  8
0
 62
     8
420
  8421504
370
    25
100
AcDbLine
 10
34.88830896340199
 20
104.1487447502834
 30
0.0
 11
36.38830896340171
 21
104.1487447502834
 31
0.0
  0
LINE
  5
E1
330
70
100
AcDbEntity
  8
0
 62
     8
420
  8421504
370
    25
100
AcDbLine
 10
22.51330896340195
 20
99.14874475028355
 30
0.0
 11
24.01330896340168
 21
99.14874475028355
 31
0.0
  0
LINE
  5
E2
330
70
100
AcDbEntity
  8
0
 62
     8
420
  8421504
370
    25
100
AcDbLine
 10
96.26330896340183
 20
99.14874475028355
 30
0.0
 11
94.76330896340209
 21
99.14874475028355
 31
0.0
  0
LINE
  5
E3
330
70
100
AcDbEntity
  8
0
 62
     8
420
  8421504
370
    25
100
AcDbLine
 10
93.01330896340154
 20
95.89874475028327
 30
0.0
 11
93.01330896340154
 21
97.39874475028333
 31
0.0
  0
LINE
  5
E4
330
70
100
AcDbEntity
  8
0
 62
     8
420
  8421504
370
    25
100
AcDbLine
 10
25.7633089634019
 20
95.89874475028327
 30
0.0
 11
25.7633089634019
 21
97.39874475028333
 31
0.0
  0
LINE
  5
E5
330
70
100
AcDbEntity
  8
0
 62
     8
420
  8421504
370
    25
100
AcDbLine
 10
77.4222698294014
 20
110.2737447502834
 30
0.0
 11
41.35434809740171
 21
110.2737447502834
 31
0.0
  0
LINE
  5
E6
330
70
100
AcDbEntity
  8
0
 62
     8
420
  8421504
370
    25
100
AcDbLine
 10
40.82299910300174
 20
106.8987447502833
 30
0.0
 11
77.95361882380203
 21
106.8987447502833
 31
0.0
  0
LINE
  5
E7
330
70
100
AcDbEntity
  8
0
 62
    18
420
        0
370
    25
100
AcDbLine
 10
128.3417940002015
 20
104.9200913429833
 30
0.0
 11
133.3417940002017
 21
106.4487447502834
 31
0.0
  0
LINE
  5
E8
330
70
100
AcDbEntity
  8
0
 62
    18
420
        0
370
    25
100
AcDbLine
 10
133.3417940002017
 20
111.4487447502833
 30
0.0
 11
128.397768996802
 21
112.9602848836833
 31
0.0
  0
LWPOLYLINE
  5
E9
330
70
100
AcDbEntity
  8
0
 62
    18
420
        0
370
    25
100
AcDbPolyline
 90
       11
 70
     0
 43
0.0
 10
128.3444357589018
 20
106.9598776667833
 10
128.3445445551019
 20
107.3068167677833
 10
128.3446066554019
 20
107.7129030576834
 10
128.3446401786016
 20
108.1214186036834
 10
128.3446849954016
 20
108.4896478718834
 10
128.3447470378018
 20
108.7889320557832
 10
128.3447760333021
 20
109.0941822693835
 10
128.3447377169018
 20
109.3404344983835
 10
128.3447333227015
 20
109.4935629309833
 10
128.3447472815018
 20
109.6440028524835
 10
128.3447477448021
 20
109.6680007627832
  0
LWPOLYLINE
  5
EA
330
70
100
AcDbEntity
  8
0
 62
    18
420
        0
370
    25
100
AcDbPolyline
 90
        3
 70
     0
 43
0.0
 10
128.0835560090018
 20
97.12468958258348
 10
128.2743544438016
 20
102.0160799193835
 10
128.344767235802
 20
105.7713809264835
  0
LWPOLYLINE
  5
EB
330
70
100
AcDbEntity
  8
0
 62
    18
420
        0
370
    25
100
AcDbPolyline
 90
        5
 70
     0
 43
0.0
 10
128.3447678580018
 20
105.7725700041832
 10
128.3447498344019
 20
105.9259850245832
 10
128.3446506212018
 20
106.1969576452834
 10
128.3445223299018
 20
106.5628205810833
 10
128.3444079045015
 20
107.0040868381835
  0
SPLINE
  5
EC
330
70
100
AcDbEntity
  8
0
 62
    18
420
        0
370
    25
100
AcDbSpline
210
0.0
220
0.0
230
1.0
 70
     8
 71
     3
 72
     8
 73
     4
 74
     0
 42
0.0000000001
 43
0.0000000001
 40
0.0
 40
0.0
 40
0.0
 40
0.0
 40
1.0
 40
1.0
 40
1.0
 40
1.0
 10
127.5852422714496
 20
96.64874475051256
 30
0.0
 10
127.8520479061223
 20
96.64873667449143
 30
0.0
 10
128.0718558432763
 20
96.85821556466203
 30
0.0
 10
128.0846795396236
 20
97.12471284339143
 30
0.0
  0
LINE
  5
ED
330
70
100
AcDbEntity
  8
0
 62
    18
420
        0
370
    25
100
AcDbLine
 10
143.0917940002019
 20
106.6487447502834
 30
0.0
 11
143.0917940002019
 21
99.14874475028355
 31
0.0
  0
LINE
  5
EE
330
70
100
AcDbEntity
  8
0
 62
    18
420
        0
370
    25
100
AcDbLine
 10
144.5917940002016
 20
99.14874475028355
 30
0.0
 11
144.5917940002016
 21
106.6487447502834
 31
0.0
  0
LINE
  5
EF
330
70
100
AcDbEntity
  8
0
 62
    18
420
        0
370
    25
100
AcDbLine
 10
143.0917940002019
 20
99.14874475028355
 30
0.0
 11
143.0917940002019
 21
96.64874475028346
 31
0.0
  0
LINE
  5
F0
330
70
100
AcDbEntity
  8
0
 62
    18
420
        0
370
    25
100
AcDbLine
 10
144.5917940002016
 20
96.64874475028346
 30
0.0
 11
144.5917940002016
 21
99.14874475028355
 31
0.0
  0
LINE
  5
F1
330
70
100
AcDbEntity
  8
0
 62
    18
420
        0
370
    25
100
AcDbLine
 10
151.0917940002015
 20
99.14874475028355
 30
0.0
 11
151.0917940002015
 21
96.64874475028346
 31
0.0
  0
LINE
  5
F2
330
70
100
AcDbEntity
  8
0
 62
    18
420
        0
370
    25
100
AcDbLine
 10
152.5917940002019
 20
96.64874475028346
 30
0.0
 11
152.5917940002019
 21
99.14874475028355
 31
0.0
  0
LINE
  5
F3
330
70
100
AcDbEntity
  8
0
 62
    18
420
        0
370
    25
100
AcDbLine
 10
151.0917940002015
 20
106.6487447502834
 30
0.0
 11
151.0917940002015
 21
99.14874475028355
 31
0.0
  0
LINE
  5
F4
330
70
100
AcDbEntity
  8
0
 62
    18
420
        0
370
    25
100
AcDbLine
 10
152.5917940002019
 20
99.14874475028355
 30
0.0
 11
152.5917940002019
 21
106.6487447502834
 31
0.0
  0
LINE
  5
F5
330
70
100
AcDbEntity
  8
0
 62
    18
420
        0
370
    25
100
AcDbLine
 10
159.0917940002018
 20
106.6487447502834
 30
0.0
 11
159.0917940002018
 21
99.14874475028355
 31
0.0
  0
LINE
  5
F6
330
70
100
AcDbEntity
  8
0
 62
    18
420
        0
370
    25
100
AcDbLine
 10
160.5917940002015
 20
99.14874475028355
 30
0.0
 11
160.5917940002015
 21
106.6487447502834
 31
0.0
  0
LINE
  5
F7
330
70
100
AcDbEntity
  8
0
 62
    18
420
        0
370
    25
100
AcDbLine
 10
159.0917940002018
 20
99.14874475028355
 30
0.0
 11
159.0917940002018
 21
96.64874475028346
 31
0.0
  0
LINE
  5
F8
330
70
100
AcDbEntity
  8
0
 62
    18
420
        0
370
    25
100
AcDbLine
 10
160.5917940002015
 20
96.64874475028346
 30
0.0
 11
160.5917940002015
 21
99.14874475028355
 31
0.0
  0
LINE
  5
F9
330
70
100
AcDbEntity
  8
0
 62
    18
420
        0
370
    25
100
AcDbLine
 10
167.0917940002021
 20
106.6487447502834
 30
0.0
 11
167.0917940002021
 21
99.14874475028355
 31
0.0
  0
LINE
  5
FA
330
70
100
AcDbEntity
  8
0
 62
    18
420
        0
370
    25
100
AcDbLine
 10
168.5917940002018
 20
99.14874475028355
 30
0.0
 11
168.5917940002018
 21
106.6487447502834
 31
0.0
  0
LINE
  5
FB
330
70
100
AcDbEntity
  8
0
 62
    18
420
        0
370
    25
100
AcDbLine
 10
167.0917940002021
 20
99.14874475028355
 30
0.0
 11
167.0917940002021
 21
96.64874475028346
 31
0.0
  0
LINE
  5
FC
330
70
100
AcDbEntity
  8
0
 62
    18
420
        0
370
    25
100
AcDbLine
 10
168.5917940002018
 20
96.64874475028346
 30
0.0
 11
168.5917940002018
 21
99.14874475028355
 31
0.0
  0
LINE
  5
FD
330
70
100
AcDbEntity
  8
0
 62
    18
420
        0
370
    25
100
AcDbLine
 10
176.2167940002015
 20
106.6487447502834
 30
0.0
 11
176.2167940002015
 21
104.1487447502834
 31
0.0
  0
LINE
  5
FE
330
70
100
AcDbEntity
  8
0
 62
    18
420
        0
370
    25
100
AcDbLine
 10
177.7167940002019
 20
104.1487447502834
 30
0.0
 11
177.7167940002019
 21
106.6487447502834
 31
0.0
  0
LINE
  5
FF
330
70
100
AcDbEntity
  8
0
 62
    18
420
        0
370
    25
100
AcDbLine
 10
177.7167940002019
 20
101.6487447502833
 30
0.0
 11
177.7167940002019
 21
104.1487447502834
 31
0.0
  0
LINE
  5
100
330
70
100
AcDbEntity
  8
0
 62
    18
420
        0
370
    25
100
AcDbLine
 10
176.2167940002015
 20
104.1487447502834
 30
0.0
 11
176.2167940002015
 21
101.6487447502833
 31
0.0
  0
LINE
  5
101
330
70
100
AcDbEntity
  8
0
 62
    18
420
        0
370
    25
100
AcDbLine
 10
134.0026511573018
 20
111.4487447502833
 30
0.0
 11
133.3417940002017
 21
111.4487447502833
 31
0.0
  0
LINE
  5
102
330
70
100
AcDbEntity
  8
0
 62
    18
420
        0
370
    25
100
AcDbLine
 10
133.3417940002017
 20
106.4487447502834
 30
0.0
 11
134.8417940002021
 21
106.4487447502834
 31
0.0
  0
LINE
  5
103
330
70
100
AcDbEntity
  8
0
 62
    18
420
        0
370
    25
100
AcDbLine
 10
128.3565048318017
 20
110.3987447502834
 30
0.0
 11
128.3214709999016
 21
110.3987447502834
 31
0.0
  0
LINE
  5
104
330
70
100
AcDbEntity
  8
0
 62
    18
420
        0
370
    25
100
AcDbLine
 10
133.3417940002017
 20
106.4487447502834
 30
0.0
 11
133.3417940002017
 21
106.8987447502833
 31
0.0
  0
LINE
  5
105
330
70
100
AcDbEntity
  8
0
 62
    18
420
        0
370
    25
100
AcDbLine
 10
133.3417940002017
 20
110.2737447502834
 30
0.0
 11
133.3417940002017
 21
111.4487447502833
 31
0.0
  0
LINE
  5
106
330
70
100
AcDbEntity
  8
0
 62
    18
420
        0
370
    25
100
AcDbLine
 10
128.397768996802
 20
112.9602848836833
 30
0.0
 11
128.3417940002015
 21
109.4855459562833
 31
0.0
  0
LINE
  5
107
330
70
100
AcDbEntity
  8
0
 62
    18
420
        0
370
    25
100
AcDbLine
 10
128.3417940002015
 20
106.3975423223835
 30
0.0
 11
128.3417940002015
 21
109.4855459562833
 31
0.0
  0
SPLINE
  5
108
330
70
100
AcDbEntity
  8
0
 62
    18
420
        0
370
    25
100
AcDbSpline
210
0.0
220
0.0
230
1.0
 70
     8
 71
     3
 72
     8
 73
     4
 74
     0
 42
0.0000000001
 43
0.0000000001
 40
0.0
 40
0.0
 40
0.0
 40
0.0
 40
1.0
 40
1.0
 40
1.0
 40
1.0
 10
128.3417940002015
 20
107.0737447502832
 30
0.0
 10
128.3417940002015
 20
107.1289732252663
 30
0.0
 10
128.2970224751846
 20
107.1737447502832
 30
0.0
 10
128.2417940002018
 20
107.1737447502832
 30
0.0
  0
SPLINE
  5
109
330
70
100
AcDbEntity
  8
0
 62
    18
420
        0
370
    25
100
AcDbSpline
210
0.0
220
0.0
230
1.0
 70
     8
 71
     3
 72
     8
 73
     4
 74
     0
 42
0.0000000001
 43
0.0000000001
 40
0.0
 40
0.0
 40
0.0
 40
0.0
 40
1.0
 40
1.0
 40
1.0
 40
1.0
 10
128.2417940002018
 20
110.7237447502832
 30
0.0
 10
128.2688383847349
 20
110.7237447502832
 30
0.0
 10
128.2947296397095
 20
110.7346986004245
 30
0.0
 10
128.313562484992
 20
110.7541079454248
 30
0.0
  0
LWPOLYLINE
  5
10A
330
70
100
AcDbEntity
  8
0
 62
    18
420
        0
370
    25
100
AcDbPolyline
 90
        7
 70
     0
 43
0.0
 10
128.0819981190015
 20
121.1489349660834
 10
128.0823558939021
 20
120.1489351087835
 10
128.0836203075016
 20
116.1489355557835
 10
128.0846451619021
 20
108.1489355192834
 10
128.0842977702015
 20
105.1017334281835
 10
128.0819981197016
 20
97.14855452318337
 10
128.081994294302
 20
97.13803836628356
  0
LWPOLYLINE
  5
10B
330
70
100
AcDbEntity
  8
0
 62
    18
420
        0
370
    25
100
AcDbPolyline
 90
        7
 70
     0
 43
0.0
 10
128.081994294302
 20
97.13803836628356
 10
128.0468138687018
 20
97.13879196128337
 10
127.959302746502
 20
97.14066678908334
 10
127.8293170024015
 20
97.14345228428335
 10
127.6714834088015
 20
97.14683565738342
 10
127.5978565693018
 20
97.14841436708349
 10
127.5824496895019
 20
97.14874475588326
  0
LWPOLYLINE
  5
10C
330
70
100
AcDbEntity
  8
0
 62
    18
420
        0
370
    25
100
AcDbPolyline
 90
        4
 70
     0
 43
0.0
 10
127.5824496895019
 20
97.14874475028347
 10
127.5848662242016
 20
105.1018265200833
 10
127.5848864929017
 20
113.0549078548834
 10
127.5824496893017
 20
121.1487447502833
  0
LINE
  5
10D
330
70
100
AcDbEntity
  8
0
 62
    18
420
        0
370
    25
100
AcDbLine
 10
128.0819981190015
 20
121.1489349660834
 30
0.0
 11
127.5824496893017
 21
121.1487447502833
 31
0.0
  0
LWPOLYLINE
  5
10E
330
70
100
AcDbEntity
  8
0
 62
    18
420
        0
370
    25
100
AcDbPolyline
 90
        5
 70
     0
 43
0.0
 10
128.0828921021017
 20
97.14854606638349
 10
128.0828908304018
 20
97.14851609338339
 10
128.0824447336015
 20
97.13800814378346
 10
128.0822214910021
 20
97.13275417728342
 10
128.0819981190015
 20
97.12750021618326
  0
LINE
  5
10F
330
70
100
AcDbEntity
  8
0
 62
    18
420
        0
370
    25
100
AcDbLine
 10
127.5824496895019
 20
97.14874475028347
 30
0.0
 11
128.0819981190015
 21
97.12750021618326
 31
0.0
  0
SPLINE
  5
110
330
70
100
AcDbEntity
  8
0
 62
    18
420
        0
370
    25
100
AcDbSpline
210
0.0
220
0.0
230
1.0
 70
     8
 71
     3
 72
     8
 73
     4
 74
     0
 42
0.0000000001
 43
0.0000000001
 40
0.0
 40
0.0
 40
0.0
 40
0.0
 40
1.0
 40
1.0
 40
1.0
 40
1.0
 10
128.0819942943334
 20
97.13803836630216
 30
0.0
 10
128.0826035377633
 20
97.14150751351125
 30
0.0
 10
128.0829039834411
 20
97.1450238485456
 30
0.0
 10
128.0828921021511
 20
97.14854606641942
 30
0.0
  0
LINE
  5
111
330
70
100
AcDbEntity
  8
0
 62
    18
420
        0
370
    25
100
AcDbLine
 10
125.341794000202
 20
121.1487447502833
 30
0.0
 11
125.341794000202
 21
121.6487447502833
 31
0.0
  0
LINE
  5
112
330
70
100
AcDbEntity
  8
0
 62
    18
420
        0
370
    25
100
AcDbLine
 10
125.341794000202
 20
121.6487447502833
 30
0.0
 11
127.5824496895019
 21
121.6487447502833
 31
0.0
  0
LINE
  5
113
330
70
100
AcDbEntity
  8
0
 62
    18
420
        0
370
    25
100
AcDbLine
 10
127.5824496893017
 20
121.1487447502833
 30
0.0
 11
127.5824496895019
 21
121.6487447502833
 31
0.0
  0
LINE
  5
114
330
70
100
AcDbEntity
  8
0
 62
    18
420
        0
370
    25
100
AcDbLine
 10
127.5824496893017
 20
121.1487447502833
 30
0.0
 11
125.341794000202
 21
121.1487447502833
 31
0.0
  0
LINE
  5
115
330
70
100
AcDbEntity
  8
0
 62
    18
420
        0
370
    25
100
AcDbLine
 10
125.341794000202
 20
97.14874475028347
 30
0.0
 11
127.5824496895019
 21
97.14874475028347
 31
0.0
  0
LINE
  5
116
330
70
100
AcDbEntity
  8
0
 62
    18
420
        0
370
    25
100
AcDbLine
 10
125.341794000202
 20
121.1487447502833
 30
0.0
 11
125.341794000202
 21
97.14874475028347
 31
0.0
  0
LINE
  5
117
330
70
100
AcDbEntity
  8
0
 62
    18
420
        0
370
    25
100
AcDbLine
 10
127.5824496893017
 20
96.64874475028346
 30
0.0
 11
127.5824496895019
 21
97.14874475028347
 31
0.0
  0
LINE
  5
118
330
70
100
AcDbEntity
  8
0
 62
    18
420
        0
370
    25
100
AcDbLine
 10
127.5824496893017
 20
96.64874475028346
 30
0.0
 11
125.341794000202
 21
96.64874475028346
 31
0.0
  0
LINE
  5
119
330
70
100
AcDbEntity
  8
0
 62
    18
420
        0
370
    25
100
AcDbLine
 10
125.341794000202
 20
96.64874475028346
 30
0.0
 11
125.341794000202
 21
97.14874475028347
 31
0.0
  0
SPLINE
  5
11A
330
70
100
AcDbEntity
  8
0
 62
    18
420
        0
370
    25
100
AcDbSpline
210
0.0
220
0.0
230
1.0
 70
     8
 71
     3
 72
     8
 73
     4
 74
     0
 42
0.0000000001
 43
0.0000000001
 40
0.0
 40
0.0
 40
0.0
 40
0.0
 40
1.0
 40
1.0
 40
1.0
 40
1.0
 10
128.0819981189476
 20
121.1489349660404
 30
0.0
 10
128.0820178028481
 20
121.4248783887937
 30
0.0
 10
127.8583930847721
 20
121.6486201032735
 30
0.0
 10
127.5824496894692
 20
121.6487447502131
 30
0.0
  0
SPLINE
  5
11B
330
70
100
AcDbEntity
  8
0
 62
    18
420
        0
370
    25
100
AcDbSpline
210
0.0
220
0.0
230
1.0
 70
     8
 71
     3
 72
     8
 73
     4
 74
     0
 42
0.0000000001
 43
0.0000000001
 40
0.0
 40
0.0
 40
0.0
 40
0.0
 40
1.0
 40
1.0
 40
1.0
 40
1.0
 10
127.5824496892946
 20
96.64874475023566
 30
0.0
 10
127.8503291053778
 20
96.64874475939335
 30
0.0
 10
128.0706161824542
 20
96.85986271305726
 30
0.0
 10
128.08199811897
 20
97.12750021618807
 30
0.0
  0
SPLINE
  5
11C
330
70
100
AcDbEntity
  8
0
 62
    18
420
        0
370
    25
100
AcDbSpline
210
0.0
220
0.0
230
1.0
 70
     8
 71
     3
 72
     8
 73
     4
 74
     0
 42
0.0000000001
 43
0.0000000001
 40
0.0
 40
0.0
 40
0.0
 40
0.0
 40
1.0
 40
1.0
 40
1.0
 40
1.0
 10
128.0828921020997
 20
97.14854606668412
 30
0.0
 10
128.2196328121517
 20
100.239411854169
 30
0.0
 10
128.3059449269103
 20
103.3323025837529
 30
0.0
 10
128.341794000122
 20
106.4259839154318
 30
0.0
  0
LINE
  5
11D
330
70
100
AcDbEntity
  8
0
 62
    18
420
        0
370
    25
100
AcDbLine
 10
128.0822282804019
 20
121.1489371434835
 30
0.0
 11
128.0819981190015
 21
121.1489349660834
 31
0.0
  0
LINE
  5
11E
330
70
100
AcDbEntity
  8
0
 62
    18
420
        0
370
    25
100
AcDbLine
 10
128.0822282804019
 20
121.1489371434835
 30
0.0
 11
128.3417940002015
 21
109.4855459562833
 31
0.0
  0
LINE
  5
11F
330
70
100
AcDbEntity
  8
0
 62
    18
420
        0
370
    25
100
AcDbLine
 10
128.0819942942923
 20
121.169985048096
 30
0.0
 11
128.0837877055015
 21
121.1719883627258
 31
0.0
  0
SPLINE
  5
120
330
70
100
AcDbEntity
  8
0
 62
    18
420
        0
370
    25
100
AcDbSpline
210
0.0
220
0.0
230
1.0
 70
     8
 71
     3
 72
     8
 73
     4
 74
     0
 42
0.0000000001
 43
0.0000000001
 40
0.0
 40
0.0
 40
0.0
 40
0.0
 40
1.0
 40
1.0
 40
1.0
 40
1.0
 10
128.0819942942179
 20
121.1699850481136
 30
0.0
 10
128.0706159764765
 20
121.4376233503106
 30
0.0
 10
127.8503297501531
 20
121.6487439731755
 30
0.0
 10
127.5824496894602
 20
121.6487447502776
 30
0.0
  0
LINE
  5
121
330
70
100
AcDbEntity
  8
0
 62
    18
420
        0
370
    25
100
AcDbLine
 10
127.5824496895019
 20
121.6487447502833
 30
0.0
 11
127.5852550809015
 21
121.6487447502833
 31
0.0
  0
LINE
  5
122
330
70
100
AcDbEntity
  8
0
 62
    18
420
        0
370
    25
100
AcDbLine
 10
128.081994294302
 20
121.1594511353835
 30
0.0
 11
128.0822282804019
 21
121.1489371434835
 31
0.0
  0
LWPOLYLINE
  5
123
330
70
100
AcDbEntity
  8
0
 62
    18
420
        0
370
    25
100
AcDbPolyline
 90
        3
 70
     0
 43
0.0
 10
128.081994294302
 20
121.1699850480835
 10
128.082321641602
 20
121.1622956648834
 10
128.0824429483018
 20
121.1594511353835
  0
LINE
  5
124
330
70
100
AcDbEntity
  8
0
 62
    18
420
        0
370
    25
100
AcDbLine
 10
128.0824429483018
 20
121.1594511353835
 30
0.0
 11
128.081994294302
 21
121.1594511353835
 31
0.0
  0
LWPOLYLINE
  5
125
330
70
100
AcDbEntity
  8
0
 62
    18
420
        0
370
    25
100
AcDbPolyline
 90
        3
 70
     0
 43
0.0
 10
128.085324251302
 20
121.1594511353835
 10
128.0849557890021
 20
121.1670419185833
 10
128.0846661211018
 20
121.1730060975833
  0
LINE
  5
126
330
70
100
AcDbEntity
  8
0
 62
    18
420
        0
370
    25
100
AcDbLine
 10
128.085324251302
 20
121.1594511353835
 30
0.0
 11
128.0824429483018
 21
121.1594511353835
 31
0.0
  0
LINE
  5
127
330
70
100
AcDbEntity
  8
0
 62
    18
420
        0
370
    25
100
AcDbLine
 10
143.5917940002016
 20
110.2737447502834
 30
0.0
 11
133.3417940002017
 21
110.2737447502834
 31
0.0
  0
LINE
  5
128
330
70
100
AcDbEntity
  8
0
 62
    18
420
        0
370
    25
100
AcDbLine
 10
143.5917940002016
 20
110.2737447502834
 30
0.0
 11
143.5917940002016
 21
106.8987447502833
 31
0.0
  0
LINE
  5
129
330
70
100
AcDbEntity
  8
0
 62
    18
420
        0
370
    25
100
AcDbLine
 10
133.3417940002017
 20
106.8987447502833
 30
0.0
 11
143.5917940002016
 21
106.8987447502833
 31
0.0
  0
LINE
  5
12A
330
70
100
AcDbEntity
  8
0
 62
    18
420
        0
370
    25
100
AcDbLine
 10
133.3417940002017
 20
110.2737447502834
 30
0.0
 11
133.3417940002017
 21
106.8987447502833
 31
0.0
  0
LINE
  5
12B
330
70
100
AcDbEntity
  8
0
 62
    18
420
        0
370
    25
100
AcDbLine
 10
143.5917940002016
 20
106.8987447502833
 30
0.0
 11
143.5917940002016
 21
106.6487447502834
 31
0.0
  0
LINE
  5
12C
330
70
100
AcDbEntity
  8
0
 62
    18
420
        0
370
    25
100
AcDbLine
 10
143.5917940002016
 20
106.6487447502834
 30
0.0
 11
133.5917940002018
 21
106.6487447502834
 31
0.0
  0
SPLINE
  5
12D
330
70
100
AcDbEntity
  8
0
 62
    18
420
        0
370
    25
100
AcDbSpline
210
0.0
220
0.0
230
1.0
 70
     8
 71
     3
 72
     8
 73
     4
 74
     0
 42
0.0000000001
 43
0.0000000001
 40
0.0
 40
0.0
 40
0.0
 40
0.0
 40
1.0
 40
1.0
 40
1.0
 40
1.0
 10
133.3417940002017
 20
106.8987447502833
 30
0.0
 10
133.3417940002017
 20
106.7606735628257
 30
0.0
 10
133.4537228127443
 20
106.6487447502834
 30
0.0
 10
133.5917940002018
 20
106.6487447502834
 30
0.0
  0
LINE
  5
12E
330
70
100
AcDbEntity
  8
0
 62
    18
420
        0
370
    25
100
AcDbLine
 10
143.5917940002016
 20
111.6487447502833
 30
0.0
 11
134.7167940002016
 21
111.6487447502833
 31
0.0
  0
LINE
  5
12F
330
70
100
AcDbEntity
  8
0
 62
    18
420
        0
370
    25
100
AcDbLine
 10
143.5917940002016
 20
111.6487447502833
 30
0.0
 11
143.5917940002016
 21
110.2737447502834
 31
0.0
  0
SPLINE
  5
130
330
70
100
AcDbEntity
  8
0
 62
    18
420
        0
370
    25
100
AcDbSpline
210
0.0
220
0.0
230
1.0
 70
     8
 71
     3
 72
     8
 73
     4
 74
     0
 42
0.0000000001
 43
0.0000000001
 40
0.0
 40
0.0
 40
0.0
 40
0.0
 40
1.0
 40
1.0
 40
1.0
 40
1.0
 10
134.7167940002016
 20
111.6487447502833
 30
0.0
 10
133.9574024691843
 20
111.6487447502833
 30
0.0
 10
133.3417940002017
 20
111.0331362813007
 30
0.0
 10
133.3417940002017
 20
110.2737447502834
 30
0.0
  0
LINE
  5
131
330
70
100
AcDbEntity
  8
0
 62
    18
420
        0
370
    25
100
AcDbLine
 10
143.5917940002016
 20
106.8987447502833
 30
0.0
 11
168.0917940002015
 21
106.8987447502833
 31
0.0
  0
LINE
  5
132
330
70
100
AcDbEntity
  8
0
 62
    18
420
        0
370
    25
100
AcDbLine
 10
168.0917940002015
 20
106.8987447502833
 30
0.0
 11
168.0917940002015
 21
106.6487447502834
 31
0.0
  0
LINE
  5
133
330
70
100
AcDbEntity
  8
0
 62
    18
420
        0
370
    25
100
AcDbLine
 10
168.0917940002015
 20
106.6487447502834
 30
0.0
 11
143.5917940002016
 21
106.6487447502834
 31
0.0
  0
LINE
  5
134
330
70
100
AcDbEntity
  8
0
 62
    18
420
        0
370
    25
100
AcDbLine
 10
168.0917940002015
 20
110.2737447502834
 30
0.0
 11
143.5917940002016
 21
110.2737447502834
 31
0.0
  0
LINE
  5
135
330
70
100
AcDbEntity
  8
0
 62
    18
420
        0
370
    25
100
AcDbLine
 10
168.0917940002015
 20
110.2737447502834
 30
0.0
 11
168.0917940002015
 21
106.8987447502833
 31
0.0
  0
LINE
  5
136
330
70
100
AcDbEntity
  8
0
 62
    18
420
        0
370
    25
100
AcDbLine
 10
168.0917940002015
 20
111.6487447502833
 30
0.0
 11
143.5917940002016
 21
111.6487447502833
 31
0.0
  0
LINE
  5
137
330
70
100
AcDbEntity
  8
0
 62
    18
420
        0
370
    25
100
AcDbLine
 10
168.0917940002015
 20
111.6487447502833
 30
0.0
 11
168.0917940002015
 21
110.2737447502834
 31
0.0
  0
LINE
  5
138
330
70
100
AcDbEntity
  8
0
 62
    18
420
        0
370
    25
100
AcDbLine
 10
178.341794000202
 20
110.2737447502834
 30
0.0
 11
168.0917940002015
 21
110.2737447502834
 31
0.0
  0
LINE
  5
139
330
70
100
AcDbEntity
  8
0
 62
    18
420
        0
370
    25
100
AcDbLine
 10
178.341794000202
 20
110.2737447502834
 30
0.0
 11
178.341794000202
 21
106.8987447502833
 31
0.0
  0
LINE
  5
13A
330
70
100
AcDbEntity
  8
0
 62
    18
420
        0
370
    25
100
AcDbLine
 10
168.0917940002015
 20
106.8987447502833
 30
0.0
 11
178.341794000202
 21
106.8987447502833
 31
0.0
  0
LINE
  5
13B
330
70
100
AcDbEntity
  8
0
 62
    18
420
        0
370
    25
100
AcDbLine
 10
176.966794000202
 20
111.6487447502833
 30
0.0
 11
168.0917940002015
 21
111.6487447502833
 31
0.0
  0
SPLINE
  5
13C
330
70
100
AcDbEntity
  8
0
 62
    18
420
        0
370
    25
100
AcDbSpline
210
0.0
220
0.0
230
1.0
 70
     8
 71
     3
 72
     8
 73
     4
 74
     0
 42
0.0000000001
 43
0.0000000001
 40
0.0
 40
0.0
 40
0.0
 40
0.0
 40
1.0
 40
1.0
 40
1.0
 40
1.0
 10
178.341794000202
 20
110.2737447502834
 30
0.0
 10
178.341794000202
 20
111.0331362813007
 30
0.0
 10
177.7261855312194
 20
111.6487447502833
 30
0.0
 10
176.966794000202
 20
111.6487447502833
 30
0.0
  0
SPLINE
  5
13D
330
70
100
AcDbEntity
  8
0
 62
    18
420
        0
370
    25
100
AcDbSpline
210
0.0
220
0.0
230
1.0
 70
     8
 71
     3
 72
     8
 73
     4
 74
     0
 42
0.0000000001
 43
0.0000000001
 40
0.0
 40
0.0
 40
0.0
 40
0.0
 40
1.0
 40
1.0
 40
1.0
 40
1.0
 10
178.0917940002018
 20
106.6487447502834
 30
0.0
 10
178.2298651876594
 20
106.6487447502834
 30
0.0
 10
178.341794000202
 20
106.7606735628257
 30
0.0
 10
178.341794000202
 20
106.8987447502833
 30
0.0
  0
LINE
  5
13E
330
70
100
AcDbEntity
  8
0
 62
    18
420
        0
370
    25
100
AcDbLine
 10
178.0917940002018
 20
106.6487447502834
 30
0.0
 11
168.0917940002015
 21
106.6487447502834
 31
0.0
  0
SPLINE
  5
13F
330
70
100
AcDbEntity
  8
0
 62
    18
420
        0
370
    25
100
AcDbSpline
210
0.0
220
0.0
230
1.0
 70
     8
 71
     3
 72
    11
 73
     7
 74
     0
 42
0.0000000001
 43
0.0000000001
 40
0.0
 40
0.0
 40
0.0
 40
0.0
 40
1.0
 40
1.0
 40
1.0
 40
2.0
 40
2.0
 40
2.0
 40
2.0
 10
143.0917940002019
 20
96.64874475028346
 30
0.0
 10
143.0917940002019
 20
96.2345311879104
 30
0.0
 10
143.427580437829
 20
95.89874475028327
 30
0.0
 10
143.8417940002017
 20
95.89874475028327
 30
0.0
 10
144.2560075625751
 20
95.89874475028327
 30
0.0
 10
144.5917940002016
 20
96.2345311879104
 30
0.0
 10
144.5917940002016
 20
96.64874475028346
 30
0.0
  0
SPLINE
  5
140
330
70
100
AcDbEntity
  8
0
 62
    18
420
        0
370
    25
100
AcDbSpline
210
0.0
220
0.0
230
1.0
 70
     8
 71
     3
 72
    11
 73
     7
 74
     0
 42
0.0000000001
 43
0.0000000001
 40
0.0
 40
0.0
 40
0.0
 40
0.0
 40
1.0
 40
1.0
 40
1.0
 40
2.0
 40
2.0
 40
2.0
 40
2.0
 10
151.0917940002015
 20
96.64874475028346
 30
0.0
 10
151.0917940002015
 20
96.2345311879104
 30
0.0
 10
151.4275804378287
 20
95.89874475028327
 30
0.0
 10
151.841794000202
 20
95.89874475028327
 30
0.0
 10
152.2560075625747
 20
95.89874475028327
 30
0.0
 10
152.5917940002019
 20
96.2345311879104
 30
0.0
 10
152.5917940002019
 20
96.64874475028346
 30
0.0
  0
SPLINE
  5
141
330
70
100
AcDbEntity
  8
0
 62
    18
420
        0
370
    25
100
AcDbSpline
210
0.0
220
0.0
230
1.0
 70
     8
 71
     3
 72
    11
 73
     7
 74
     0
 42
0.0000000001
 43
0.0000000001
 40
0.0
 40
0.0
 40
0.0
 40
0.0
 40
1.0
 40
1.0
 40
1.0
 40
2.0
 40
2.0
 40
2.0
 40
2.0
 10
159.0917940002018
 20
96.64874475028346
 30
0.0
 10
159.0917940002018
 20
96.2345311879104
 30
0.0
 10
159.4275804378289
 20
95.89874475028327
 30
0.0
 10
159.8417940002017
 20
95.89874475028327
 30
0.0
 10
160.256007562575
 20
95.89874475028327
 30
0.0
 10
160.5917940002015
 20
96.2345311879104
 30
0.0
 10
160.5917940002015
 20
96.64874475028346
 30
0.0
  0
SPLINE
  5
142
330
70
100
AcDbEntity
  8
0
 62
    18
420
        0
370
    25
100
AcDbSpline
210
0.0
220
0.0
230
1.0
 70
     8
 71
     3
 72
    11
 73
     7
 74
     0
 42
0.0000000001
 43
0.0000000001
 40
0.0
 40
0.0
 40
0.0
 40
0.0
 40
1.0
 40
1.0
 40
1.0
 40
2.0
 40
2.0
 40
2.0
 40
2.0
 10
167.0917940002021
 20
96.64874475028346
 30
0.0
 10
167.0917940002021
 20
96.2345311879104
 30
0.0
 10
167.4275804378286
 20
95.89874475028327
 30
0.0
 10
167.841794000202
 20
95.89874475028327
 30
0.0
 10
168.2560075625747
 20
95.89874475028327
 30
0.0
 10
168.5917940002018
 20
96.2345311879104
 30
0.0
 10
168.5917940002018
 20
96.64874475028346
 30
0.0
  0
SPLINE
  5
143
330
70
100
AcDbEntity
  8
0
 62
    18
420
        0
370
    25
100
AcDbSpline
210
0.0
220
0.0
230
1.0
 70
     8
 71
     3
 72
    11
 73
     7
 74
     0
 42
0.0000000001
 43
0.0000000001
 40
0.0
 40
0.0
 40
0.0
 40
0.0
 40
1.0
 40
1.0
 40
1.0
 40
2.0
 40
2.0
 40
2.0
 40
2.0
 10
176.2167940002015
 20
101.6487447502833
 30
0.0
 10
176.2167940002015
 20
101.2345311879102
 30
0.0
 10
176.5525804378287
 20
100.8987447502834
 30
0.0
 10
176.966794000202
 20
100.8987447502834
 30
0.0
 10
177.3810075625747
 20
100.8987447502834
 30
0.0
 10
177.7167940002019
 20
101.2345311879102
 30
0.0
 10
177.7167940002019
 20
101.6487447502833
 30
0.0
  0
LINE
  5
144
330
70
100
AcDbEntity
  8
0
 62
    18
420
        0
370
    25
100
AcDbLine
 10
134.8417940002021
 20
106.4487447502834
 30
0.0
 11
134.8417940002021
 21
106.6487447502834
 31
0.0
  0
LINE
  5
145
330
70
100
AcDbEntity
  8
0
 62
     8
420
  8421504
370
    25
100
AcDbLine
 10
128.0845195659037
 20
97.12465199678938
 30
0.0
 11
128.082848983222
 21
97.12656005144799
 31
0.0
  0
LINE
  5
146
330
70
100
AcDbEntity
  8
0
 62
     8
420
  8421504
370
    25
100
AcDbLine
 10
143.0917940002019
 20
99.14874475028355
 30
0.0
 11
144.5917940002016
 21
99.14874475028355
 31
0.0
  0
LINE
  5
147
330
70
100
AcDbEntity
  8
0
 62
     8
420
  8421504
370
    25
100
AcDbLine
 10
151.0917940002015
 20
99.14874475028355
 30
0.0
 11
152.5917940002019
 21
99.14874475028355
 31
0.0
  0
LINE
  5
148
330
70
100
AcDbEntity
  8
0
 62
     8
420
  8421504
370
    25
100
AcDbLine
 10
159.0917940002018
 20
99.14874475028355
 30
0.0
 11
160.5917940002015
 21
99.14874475028355
 31
0.0
  0
LINE
  5
149
330
70
100
AcDbEntity
  8
0
 62
     8
420
  8421504
370
    25
100
AcDbLine
 10
167.0917940002021
 20
99.14874475028355
 30
0.0
 11
168.5917940002018
 21
99.14874475028355
 31
0.0
  0
LINE
  5
14A
330
70
100
AcDbEntity
  8
0
 62
     8
420
  8421504
370
    25
100
AcDbLine
 10
176.2167940002015
 20
104.1487447502834
 30
0.0
 11
177.7167940002019
 21
104.1487447502834
 31
0.0
  0
LINE
  5
14B
330
70
100
AcDbEntity
  8
0
 62
    18
420
        0
370
    25
100
AcDbLine
 10
55.35965555610168
 20
59.94169647558316
 30
0.0
 11
56.8883089634018
 21
54.94169647558362
 31
0.0
  0
LINE
  5
14C
330
70
100
AcDbEntity
  8
0
 62
    18
420
        0
370
    25
100
AcDbLine
 10
61.88830896340197
 20
54.94169647558362
 30
0.0
 11
63.41696237070177
 21
59.94169647558316
 31
0.0
  0
LWPOLYLINE
  5
14D
330
70
100
AcDbEntity
  8
0
 62
    18
420
        0
370
    25
100
AcDbPolyline
 90
        3
 70
     0
 43
0.0
 10
47.36425650020174
 20
60.20001593048302
 10
52.48787904790191
 20
60.00250014868347
 10
55.39484675240167
 20
59.95554379968346
  0
LWPOLYLINE
  5
14E
330
70
100
AcDbEntity
  8
0
 62
    18
420
        0
370
    25
100
AcDbPolyline
 90
        3
 70
     0
 43
0.0
 10
63.37549701960196
 20
59.95295956718321
 10
65.65786425060156
 20
59.98552998018331
 10
71.41235737600197
 20
60.20015967398372
  0
SPLINE
  5
14F
330
70
100
AcDbEntity
  8
0
 62
    18
420
        0
370
    25
100
AcDbSpline
210
0.0
220
0.0
230
1.0
 70
     8
 71
     3
 72
     8
 73
     4
 74
     0
 42
0.0000000001
 43
0.0000000001
 40
0.0
 40
0.0
 40
0.0
 40
0.0
 40
1.0
 40
1.0
 40
1.0
 40
1.0
 10
71.4121694926797
 20
60.1988027189412
 30
0.0
 10
71.67873743452283
 20
60.21153813274356
 30
0.0
 10
71.88831704120929
 20
60.43137621561449
 30
0.0
 10
71.88830896317324
 20
60.69824820424969
 30
0.0
  0
SPLINE
  5
150
330
70
100
AcDbEntity
  8
0
 62
    18
420
        0
370
    25
100
AcDbSpline
210
0.0
220
0.0
230
1.0
 70
     8
 71
     3
 72
     8
 73
     4
 74
     0
 42
0.0000000001
 43
0.0000000001
 40
0.0
 40
0.0
 40
0.0
 40
0.0
 40
1.0
 40
1.0
 40
1.0
 40
1.0
 10
46.88830896363085
 20
60.69824820424969
 30
0.0
 10
46.88830088760234
 20
60.43144256957191
 30
0.0
 10
47.09777977777552
 20
60.21163463240895
 30
0.0
 10
47.36427705651069
 20
60.19881093606167
 30
0.0
  0
LINE
  5
151
330
70
100
AcDbEntity
  8
0
 62
    18
420
        0
370
    25
100
AcDbLine
 10
77.26080796260186
 20
12.6916964755839
 30
0.0
 11
77.26080796260186
 21
9.941696475583965
 31
0.0
  0
LINE
  5
152
330
70
100
AcDbEntity
  8
0
 62
    18
420
        0
370
    25
100
AcDbLine
 10
41.51580996420189
 20
9.941696475583965
 30
0.0
 11
41.51580996420189
 21
12.6916964755839
 31
0.0
  0
LINE
  5
153
330
70
100
AcDbEntity
  8
0
 62
    18
420
        0
370
    25
100
AcDbLine
 10
41.51580996420189
 20
10.56669647558278
 30
0.0
 11
77.26080796260186
 21
10.56669647558278
 31
0.0
  0
LINE
  5
154
330
70
100
AcDbEntity
  8
0
 62
    18
420
        0
370
    25
100
AcDbLine
 10
77.26080796260186
 20
12.0666964755838
 30
0.0
 11
41.51580996420189
 21
12.0666964755838
 31
0.0
  0
LINE
  5
155
330
70
100
AcDbEntity
  8
0
 62
    18
420
        0
370
    25
100
AcDbLine
 10
94.12162373690176
 20
45.19169647558344
 30
0.0
 11
93.01330896340154
 21
45.19169647558344
 31
0.0
  0
LINE
  5
156
330
70
100
AcDbEntity
  8
0
 62
    18
420
        0
370
    25
100
AcDbLine
 10
93.01330896340154
 20
43.69169647558307
 30
0.0
 11
94.13830896340199
 21
43.69169647558307
 31
0.0
  0
LINE
  5
157
330
70
100
AcDbEntity
  8
0
 62
    18
420
        0
370
    25
100
AcDbLine
 10
25.7633089634019
 20
45.19169647558344
 30
0.0
 11
24.6549941898019
 21
45.19169647558344
 31
0.0
  0
LINE
  5
158
330
70
100
AcDbEntity
  8
0
 62
    18
420
        0
370
    25
100
AcDbLine
 10
24.63830896340178
 20
43.69169647558307
 30
0.0
 11
25.7633089634019
 21
43.69169647558307
 31
0.0
  0
LINE
  5
159
330
70
100
AcDbEntity
  8
0
 62
    18
420
        0
370
    25
100
AcDbLine
 10
94.13830896340199
 20
37.19169647558381
 30
0.0
 11
93.01330896340154
 21
37.19169647558381
 31
0.0
  0
LINE
  5
15A
330
70
100
AcDbEntity
  8
0
 62
    18
420
        0
370
    25
100
AcDbLine
 10
93.01330896340154
 20
35.69169647558279
 30
0.0
 11
94.13830896340199
 21
35.69169647558279
 31
0.0
  0
LINE
  5
15B
330
70
100
AcDbEntity
  8
0
 62
    18
420
        0
370
    25
100
AcDbLine
 10
25.7633089634019
 20
37.19169647558381
 30
0.0
 11
24.63830896340178
 21
37.19169647558381
 31
0.0
  0
LINE
  5
15C
330
70
100
AcDbEntity
  8
0
 62
    18
420
        0
370
    25
100
AcDbLine
 10
24.63830896340178
 20
35.69169647558279
 30
0.0
 11
25.7633089634019
 21
35.69169647558279
 31
0.0
  0
LINE
  5
15D
330
70
100
AcDbEntity
  8
0
 62
    18
420
        0
370
    25
100
AcDbLine
 10
94.13830896340199
 20
29.19169647558352
 30
0.0
 11
93.01330896340154
 21
29.19169647558352
 31
0.0
  0
LINE
  5
15E
330
70
100
AcDbEntity
  8
0
 62
    18
420
        0
370
    25
100
AcDbLine
 10
93.01330896340154
 20
27.69169647558379
 30
0.0
 11
94.13830896340199
 21
27.69169647558379
 31
0.0
  0
LINE
  5
15F
330
70
100
AcDbEntity
  8
0
 62
    18
420
        0
370
    25
100
AcDbLine
 10
25.7633089634019
 20
29.19169647558352
 30
0.0
 11
24.63830896340178
 21
29.19169647558352
 31
0.0
  0
LINE
  5
160
330
70
100
AcDbEntity
  8
0
 62
    18
420
        0
370
    25
100
AcDbLine
 10
24.63830896340178
 20
27.69169647558379
 30
0.0
 11
25.7633089634019
 21
27.69169647558379
 31
0.0
  0
LINE
  5
161
330
70
100
AcDbEntity
  8
0
 62
    18
420
        0
370
    25
100
AcDbLine
 10
94.13830896340199
 20
21.19169647558324
 30
0.0
 11
93.01330896340154
 21
21.19169647558324
 31
0.0
  0
LINE
  5
162
330
70
100
AcDbEntity
  8
0
 62
    18
420
        0
370
    25
100
AcDbLine
 10
93.01330896340154
 20
19.69169647558351
 30
0.0
 11
94.12162373690176
 21
19.69169647558351
 31
0.0
  0
LINE
  5
163
330
70
100
AcDbEntity
  8
0
 62
    18
420
        0
370
    25
100
AcDbLine
 10
25.7633089634019
 20
21.19169647558324
 30
0.0
 11
24.63830896340178
 21
21.19169647558324
 31
0.0
  0
LINE
  5
164
330
70
100
AcDbEntity
  8
0
 62
    18
420
        0
370
    25
100
AcDbLine
 10
24.6549941898019
 20
19.69169647558351
 30
0.0
 11
25.7633089634019
 21
19.69169647558351
 31
0.0
  0
LINE
  5
165
330
70
100
AcDbEntity
  8
0
 62
    18
420
        0
370
    25
100
AcDbLine
 10
93.01330896340154
 20
45.19169647558344
 30
0.0
 11
25.7633089634019
 21
45.19169647558344
 31
0.0
  0
LINE
  5
166
330
70
100
AcDbEntity
  8
0
 62
    18
420
        0
370
    25
100
AcDbLine
 10
25.7633089634019
 20
43.69169647558307
 30
0.0
 11
93.01330896340154
 21
43.69169647558307
 31
0.0
  0
LINE
  5
167
330
70
100
AcDbEntity
  8
0
 62
    18
420
        0
370
    25
100
AcDbLine
 10
93.01330896340154
 20
37.19169647558381
 30
0.0
 11
25.7633089634019
 21
37.19169647558381
 31
0.0
  0
LINE
  5
168
330
70
100
AcDbEntity
  8
0
 62
    18
420
        0
370
    25
100
AcDbLine
 10
25.7633089634019
 20
35.69169647558279
 30
0.0
 11
93.01330896340154
 21
35.69169647558279
 31
0.0
  0
LINE
  5
169
330
70
100
AcDbEntity
  8
0
 62
    18
420
        0
370
    25
100
AcDbLine
 10
93.01330896340154
 20
29.19169647558352
 30
0.0
 11
25.7633089634019
 21
29.19169647558352
 31
0.0
  0
LINE
  5
16A
330
70
100
AcDbEntity
  8
0
 62
    18
420
        0
370
    25
100
AcDbLine
 10
25.7633089634019
 20
27.69169647558379
 30
0.0
 11
93.01330896340154
 21
27.69169647558379
 31
0.0
  0
LINE
  5
16B
330
70
100
AcDbEntity
  8
0
 62
    18
420
        0
370
    25
100
AcDbLine
 10
93.01330896340154
 20
21.19169647558324
 30
0.0
 11
25.7633089634019
 21
21.19169647558324
 31
0.0
  0
LINE
  5
16C
330
70
100
AcDbEntity
  8
0
 62
    18
420
        0
370
    25
100
AcDbLine
 10
25.7633089634019
 20
19.69169647558351
 30
0.0
 11
93.01330896340154
 21
19.69169647558351
 31
0.0
  0
SPLINE
  5
16D
330
70
100
AcDbEntity
  8
0
 62
    18
420
        0
370
    25
100
AcDbSpline
210
0.0
220
0.0
230
1.0
 70
     8
 71
     3
 72
     8
 73
     4
 74
     0
 42
0.0000000001
 43
0.0000000001
 40
0.0
 40
0.0
 40
0.0
 40
0.0
 40
1.0
 40
1.0
 40
1.0
 40
1.0
 10
55.39557897729814
 20
59.94169647560113
 30
0.0
 10
58.05662888675035
 20
59.85114664941886
 30
0.0
 10
60.71998904005341
 20
59.85114664941886
 30
0.0
 10
63.38103894950562
 20
59.94169647560113
 30
0.0
  0
LINE
  5
16E
330
70
100
AcDbEntity
  8
0
 62
    18
420
        0
370
    25
100
AcDbLine
 10
55.39557897740177
 20
59.94169647558316
 30
0.0
 11
57.51330896340189
 21
59.94169647558316
 31
0.0
  0
LINE
  5
16F
330
70
100
AcDbEntity
  8
0
 62
    18
420
        0
370
    25
100
AcDbLine
 10
57.51330896340189
 20
59.94169647558316
 30
0.0
 11
58.1845378275018
 21
59.94169647558316
 31
0.0
  0
LINE
  5
170
330
70
100
AcDbEntity
  8
0
 62
    18
420
        0
370
    25
100
AcDbLine
 10
60.59208009930197
 20
59.94169647558316
 30
0.0
 11
61.26330896340187
 21
59.94169647558316
 31
0.0
  0
LINE
  5
171
330
70
100
AcDbEntity
  8
0
 62
    18
420
        0
370
    25
100
AcDbLine
 10
61.26330896340187
 20
59.94169647558316
 30
0.0
 11
63.38103894940167
 21
59.94169647558316
 31
0.0
  0
LINE
  5
172
330
70
100
AcDbEntity
  8
0
 62
    18
420
        0
370
    25
100
AcDbLine
 10
59.38830896340189
 20
54.94169647558362
 30
0.0
 11
61.50830306710195
 21
54.94169647558362
 31
0.0
  0
LINE
  5
173
330
70
100
AcDbEntity
  8
0
 62
    18
420
        0
370
    25
100
AcDbLine
 10
57.26831485960171
 20
54.94169647558362
 30
0.0
 11
59.38830896340189
 21
54.94169647558362
 31
0.0
  0
SPLINE
  5
174
330
70
100
AcDbEntity
  8
0
 62
    18
420
        0
370
    25
100
AcDbSpline
210
0.0
220
0.0
230
1.0
 70
     8
 71
     3
 72
     8
 73
     4
 74
     0
 42
0.0000000001
 43
0.0000000001
 40
0.0
 40
0.0
 40
0.0
 40
0.0
 40
1.0
 40
1.0
 40
1.0
 40
1.0
 10
58.01330896338844
 20
59.96992799077919
 30
0.0
 10
57.86596259191457
 20
59.97198671736914
 30
0.0
 10
57.71858965716909
 20
59.96879214872372
 30
0.0
 10
57.57147090268352
 20
59.96035037045479
 30
0.0
  0
SPLINE
  5
175
330
70
100
AcDbEntity
  8
0
 62
    18
420
        0
370
    25
100
AcDbSpline
210
0.0
220
0.0
230
1.0
 70
     8
 71
     3
 72
     8
 73
     4
 74
     0
 42
0.0000000001
 43
0.0000000001
 40
0.0
 40
0.0
 40
0.0
 40
0.0
 40
1.0
 40
1.0
 40
1.0
 40
1.0
 10
61.20514702410613
 20
59.9603503704689
 30
0.0
 10
61.22211443666709
 20
59.94821878017351
 30
0.0
 10
61.24245066596133
 20
59.9416964755838
 30
0.0
 10
61.26330896340187
 20
59.9416964755838
 30
0.0
  0
SPLINE
  5
176
330
70
100
AcDbEntity
  8
0
 62
    18
420
        0
370
    25
100
AcDbSpline
210
0.0
220
0.0
230
1.0
 70
     8
 71
     3
 72
     8
 73
     4
 74
     0
 42
0.0000000001
 43
0.0000000001
 40
0.0
 40
0.0
 40
0.0
 40
0.0
 40
1.0
 40
1.0
 40
1.0
 40
1.0
 10
57.51330896340189
 20
59.9416964755838
 30
0.0
 10
57.53416726084243
 20
59.9416964755838
 30
0.0
 10
57.55450349013667
 20
59.94821878017351
 30
0.0
 10
57.57147090269764
 20
59.9603503704689
 30
0.0
  0
LINE
  5
177
330
70
100
AcDbEntity
  8
0
 62
    18
420
        0
370
    25
100
AcDbLine
 10
58.01330896340192
 20
59.96992799078305
 30
0.0
 11
60.76330896340185
 21
59.96992799078305
 31
0.0
  0
SPLINE
  5
178
330
70
100
AcDbEntity
  8
0
 62
    18
420
        0
370
    25
100
AcDbSpline
210
0.0
220
0.0
230
1.0
 70
     8
 71
     3
 72
     8
 73
     4
 74
     0
 42
0.0000000001
 43
0.0000000001
 40
0.0
 40
0.0
 40
0.0
 40
0.0
 40
1.0
 40
1.0
 40
1.0
 40
1.0
 10
61.20514702404902
 20
59.96035037051061
 30
0.0
 10
61.05811650984125
 20
59.97084399605419
 30
0.0
 10
60.91065609046895
 20
59.97404046108326
 30
0.0
 10
60.76330896333832
 20
59.96992799083503
 30
0.0
  0
LWPOLYLINE
  5
179
330
70
100
AcDbEntity
  8
0
 62
    18
420
        0
370
    25
100
AcDbPolyline
 90
        6
 70
     0
 43
0.0
 10
59.38830896340189
 20
60.19882435468354
 10
58.38830896340184
 20
60.19884816278377
 10
54.38830901170175
 20
60.19938041268339
 10
50.8882138133018
 20
60.20030324548343
 10
47.38811873820174
 20
60.20149235618386
 10
47.37760257920196
 20
60.20149618148337
  0
LWPOLYLINE
  5
17A
330
70
100
AcDbEntity
  8
0
 62
    18
420
        0
370
    25
100
AcDbPolyline
 90
        7
 70
     0
 43
0.0
 10
47.37760257920196
 20
60.20149618148337
 10
47.37835617420176
 20
60.23667660738381
 10
47.38023100190197
 20
60.32418772988328
 10
47.38301649690177
 20
60.45417347418339
 10
47.38639986980195
 20
60.61200706788344
 10
47.38797857930181
 20
60.68563390718302
 10
47.3883089681019
 20
60.70104078628343
  0
LWPOLYLINE
  5
17B
330
70
100
AcDbEntity
  8
0
 62
    18
420
        0
370
    25
100
AcDbPolyline
 90
        4
 70
     0
 43
0.0
 10
47.38830896340178
 20
60.70104078628343
 10
53.08286757160196
 20
60.69914170618342
 10
56.23558823550167
 20
60.69847725498328
 10
59.38830896340189
 20
60.69823539478309
  0
LINE
  5
17C
330
70
100
AcDbEntity
  8
0
 62
    18
420
        0
370
    25
100
AcDbLine
 10
59.38830896340189
 20
60.19882435468354
 30
0.0
 11
59.38830896340189
 21
60.69823539478309
 31
0.0
  0
LINE
  5
17D
330
70
100
AcDbEntity
  8
0
 62
    18
420
        0
370
    25
100
AcDbLine
 10
47.36967211932035
 20
60.2014961814391
 30
0.0
 11
47.37153866057541
 21
60.20127826880664
 31
0.0
  0
LINE
  5
17E
330
70
100
AcDbEntity
  8
0
 62
    18
420
        0
370
    25
100
AcDbLine
 10
47.37247813280192
 20
60.20126219528334
 30
0.0
 11
47.36706442930188
 21
60.2014923567832
 31
0.0
  0
LINE
  5
17F
330
70
100
AcDbEntity
  8
0
 62
    18
420
        0
370
    25
100
AcDbLine
 10
47.36706442930188
 20
60.2014923567832
 30
0.0
 11
47.38830896340178
 21
60.70104078628343
 31
0.0
  0
LWPOLYLINE
  5
180
330
70
100
AcDbEntity
  8
0
 62
    18
420
        0
370
    25
100
AcDbPolyline
 90
        3
 70
     0
 43
0.0
 10
47.37760257920196
 20
60.20149618148337
 10
47.37900136330174
 20
60.20116883418336
 10
47.38023105800187
 20
60.20104752738347
  0
LINE
  5
181
330
70
100
AcDbEntity
  8
0
 62
    18
420
        0
370
    25
100
AcDbLine
 10
47.38023105800187
 20
60.20104752738347
 30
0.0
 11
47.36967211930174
 21
60.20149618138327
 31
0.0
  0
LINE
  5
182
330
70
100
AcDbEntity
  8
0
 62
    18
420
        0
370
    25
100
AcDbLine
 10
71.38830896340135
 20
62.94169647558327
 30
0.0
 11
71.88830896340168
 21
62.94169647558327
 31
0.0
  0
LINE
  5
183
330
70
100
AcDbEntity
  8
0
 62
    18
420
        0
370
    25
100
AcDbLine
 10
71.88830896340168
 20
62.94169647558327
 30
0.0
 11
71.88830896340168
 21
60.70104078618332
 31
0.0
  0
LINE
  5
184
330
70
100
AcDbEntity
  8
0
 62
    18
420
        0
370
    25
100
AcDbLine
 10
71.38830896340135
 20
60.70104078628343
 30
0.0
 11
71.88830896340168
 21
60.70104078618332
 31
0.0
  0
LINE
  5
185
330
70
100
AcDbEntity
  8
0
 62
    18
420
        0
370
    25
100
AcDbLine
 10
71.38830896340135
 20
60.70104078628343
 30
0.0
 11
71.38830896340135
 21
62.94169647558327
 31
0.0
  0
LWPOLYLINE
  5
186
330
70
100
AcDbEntity
  8
0
 62
    18
420
        0
370
    25
100
AcDbPolyline
 90
        4
 70
     0
 43
0.0
 10
59.38830896340189
 20
60.69823539478309
 10
65.08288701220172
 20
60.6989850795837
 10
68.23559802300194
 20
60.69990761538297
 10
71.38830896340135
 20
60.70104078628343
  0
LINE
  5
187
330
70
100
AcDbEntity
  8
0
 62
    18
420
        0
370
    25
100
AcDbLine
 10
47.38830896340178
 20
62.94169647558327
 30
0.0
 11
47.38830896340178
 21
60.70104078628343
 31
0.0
  0
LINE
  5
188
330
70
100
AcDbEntity
  8
0
 62
    18
420
        0
370
    25
100
AcDbLine
 10
71.38830896340135
 20
62.94169647558327
 30
0.0
 11
47.38830896340178
 21
62.94169647558327
 31
0.0
  0
LWPOLYLINE
  5
189
330
70
100
AcDbEntity
  8
0
 62
    18
420
        0
370
    25
100
AcDbPolyline
 90
        5
 70
     0
 43
0.0
 10
71.3884991886017
 20
60.20149235618386
 10
70.38849933150228
 20
60.20113416858351
 10
66.38849978110214
 20
60.19986616488323
 10
62.88840452230195
 20
60.19910492298346
 10
59.38830896340189
 20
60.19882435468354
  0
LINE
  5
18A
330
70
100
AcDbEntity
  8
0
 62
    18
420
        0
370
    25
100
AcDbLine
 10
71.3884991886017
 20
60.20149235618386
 30
0.0
 11
71.38830896340135
 21
60.70104078628343
 31
0.0
  0
LINE
  5
18B
330
70
100
AcDbEntity
  8
0
 62
    18
420
        0
370
    25
100
AcDbLine
 10
46.88830896340176
 20
60.70104078648299
 30
0.0
 11
47.38830896340178
 21
60.70104078628343
 31
0.0
  0
LINE
  5
18C
330
70
100
AcDbEntity
  8
0
 62
    18
420
        0
370
    25
100
AcDbLine
 10
46.88830896340176
 20
60.70104078648299
 30
0.0
 11
46.88830896340176
 21
62.94169647558327
 31
0.0
  0
LINE
  5
18D
330
70
100
AcDbEntity
  8
0
 62
    18
420
        0
370
    25
100
AcDbLine
 10
46.88830896340176
 20
62.94169647558327
 30
0.0
 11
47.38830896340178
 21
62.94169647558327
 31
0.0
  0
SPLINE
  5
18E
330
70
100
AcDbEntity
  8
0
 62
    18
420
        0
370
    25
100
AcDbSpline
210
0.0
220
0.0
230
1.0
 70
     8
 71
     3
 72
     8
 73
     4
 74
     0
 42
0.0000000001
 43
0.0000000001
 40
0.0
 40
0.0
 40
0.0
 40
0.0
 40
1.0
 40
1.0
 40
1.0
 40
1.0
 10
71.38849918858631
 20
60.20149235615241
 30
0.0
 10
71.66444260786118
 20
60.20147267751256
 30
0.0
 10
71.88818431667572
 20
60.42509739434942
 30
0.0
 10
71.88830896341579
 20
60.70104078617369
 30
0.0
  0
SPLINE
  5
18F
330
70
100
AcDbEntity
  8
0
 62
    18
420
        0
370
    25
100
AcDbSpline
210
0.0
220
0.0
230
1.0
 70
     8
 71
     3
 72
     8
 73
     4
 74
     0
 42
0.0000000001
 43
0.0000000001
 40
0.0
 40
0.0
 40
0.0
 40
0.0
 40
1.0
 40
1.0
 40
1.0
 40
1.0
 10
46.88830896335395
 20
60.70104078639058
 30
0.0
 10
46.88830897251164
 20
60.43316137030743
 30
0.0
 10
47.09942692617555
 20
60.21287429323098
 30
0.0
 10
47.3670644293067
 20
60.20149235671517
 30
0.0
  0
SPLINE
  5
190
330
70
100
AcDbEntity
  8
0
 62
    18
420
        0
370
    25
100
AcDbSpline
210
0.0
220
0.0
230
1.0
 70
     8
 71
     3
 72
     8
 73
     4
 74
     0
 42
0.0000000001
 43
0.0000000001
 40
0.0
 40
0.0
 40
0.0
 40
0.0
 40
1.0
 40
1.0
 40
1.0
 40
1.0
 10
55.40268502660429
 20
59.941696475596
 30
0.0
 10
56.13955651980413
 20
59.93900688161668
 30
0.0
 10
56.87643426246022
 20
59.93845372678393
 30
0.0
 10
57.61330896320266
 20
59.94003701807173
 30
0.0
  0
SPLINE
  5
191
330
70
100
AcDbEntity
  8
0
 62
    18
420
        0
370
    25
100
AcDbSpline
210
0.0
220
0.0
230
1.0
 70
     8
 71
     3
 72
     8
 73
     4
 74
     0
 42
0.0000000001
 43
0.0000000001
 40
0.0
 40
0.0
 40
0.0
 40
0.0
 40
1.0
 40
1.0
 40
1.0
 40
1.0
 10
47.37247813285807
 20
60.20126219530837
 30
0.0
 10
50.0476276956229
 20
60.07116549342907
 30
0.0
 10
52.72471809904777
 20
59.98463211932213
 30
0.0
 10
55.40268502668098
 20
59.94169647559728
 30
0.0
  0
SPLINE
  5
192
330
70
100
AcDbEntity
  8
0
 62
    18
420
        0
370
    25
100
AcDbSpline
210
0.0
220
0.0
230
1.0
 70
     8
 71
     3
 72
     8
 73
     4
 74
     0
 42
0.0000000001
 43
0.0000000001
 40
0.0
 40
0.0
 40
0.0
 40
0.0
 40
1.0
 40
1.0
 40
1.0
 40
1.0
 10
61.16330896358154
 20
59.94003702116343
 30
0.0
 10
61.90020549288148
 20
59.93772767347707
 30
0.0
 10
62.63710821304286
 20
59.93828082913118
 30
0.0
 10
63.37400044487888
 20
59.94169647560497
 30
0.0
  0
SPLINE
  5
193
330
70
100
AcDbEntity
  8
0
 62
    18
420
        0
370
    25
100
AcDbSpline
210
0.0
220
0.0
230
1.0
 70
     8
 71
     3
 72
     8
 73
     4
 74
     0
 42
0.0000000001
 43
0.0000000001
 40
0.0
 40
0.0
 40
0.0
 40
0.0
 40
1.0
 40
1.0
 40
1.0
 40
1.0
 10
63.37400044527512
 20
59.94169647562744
 30
0.0
 10
66.05363828946892
 20
59.98918734152721
 30
0.0
 10
68.73244000947801
 20
60.07579647239093
 30
0.0
 10
71.40954926042633
 20
60.20149618148145
 30
0.0
  0
LINE
  5
194
330
70
100
AcDbEntity
  8
0
 62
    18
420
        0
370
    25
100
AcDbLine
 10
59.38830896340189
 20
60.19816622448332
 30
0.0
 11
59.38830896340189
 21
60.19882435468354
 31
0.0
  0
LWPOLYLINE
  5
195
330
70
100
AcDbEntity
  8
0
 62
    18
420
        0
370
    25
100
AcDbPolyline
 90
        5
 70
     0
 43
0.0
 10
59.38830896340189
 20
60.19816622448332
 10
56.26330896340169
 20
60.19841097668312
 10
53.13830902950196
 20
60.19908327718312
 10
50.25927002090197
 20
60.1999811638836
 10
47.38023105800187
 20
60.20104752738347
  0
LINE
  5
196
330
70
100
AcDbEntity
  8
0
 62
    18
420
        0
370
    25
100
AcDbLine
 10
71.38850342310179
 20
60.20104445828327
 30
0.0
 11
71.3884991886017
 21
60.20149235618386
 31
0.0
  0
LWPOLYLINE
  5
197
330
70
100
AcDbEntity
  8
0
 62
    18
420
        0
370
    25
100
AcDbPolyline
 90
        5
 70
     0
 43
0.0
 10
71.38850342310179
 20
60.20104445828327
 10
68.27401555500195
 20
60.19989746038368
 10
65.14901569480166
 20
60.19895427948356
 10
62.26866237640173
 20
60.19837504958381
 10
59.38830896340189
 20
60.19816622448332
  0
SPLINE
  5
198
330
70
100
AcDbEntity
  8
0
 62
    18
420
        0
370
    25
100
AcDbSpline
210
0.0
220
0.0
230
1.0
 70
     8
 71
     3
 72
     8
 73
     4
 74
     0
 42
0.0000000001
 43
0.0000000001
 40
0.0
 40
0.0
 40
0.0
 40
0.0
 40
1.0
 40
1.0
 40
1.0
 40
1.0
 10
71.40954926028708
 20
60.20149618144423
 30
0.0
 10
71.67718756285748
 20
60.21287449869467
 30
0.0
 10
71.88830818627078
 20
60.43316072516759
 30
0.0
 10
71.88830896337922
 20
60.7010407862122
 30
0.0
  0
SPLINE
  5
199
330
70
100
AcDbEntity
  8
0
 62
    18
420
        0
370
    25
100
AcDbSpline
210
0.0
220
0.0
230
1.0
 70
     8
 71
     3
 72
     8
 73
     4
 74
     0
 42
0.0000000001
 43
0.0000000001
 40
0.0
 40
0.0
 40
0.0
 40
0.0
 40
1.0
 40
1.0
 40
1.0
 40
1.0
 10
71.388503423062
 20
60.20104445827236
 30
0.0
 10
71.3955210962969
 20
60.20104719013854
 30
0.0
 10
71.4025379328679
 20
60.20119779793752
 30
0.0
 10
71.40954926030376
 20
60.2014961813807
 30
0.0
  0
LINE
  5
19A
330
70
100
AcDbEntity
  8
0
 62
    18
420
        0
370
    25
100
AcDbLine
 10
61.16330896340187
 20
59.94169647558316
 30
0.0
 11
61.26330896340187
 21
59.94169647558316
 31
0.0
  0
LINE
  5
19B
330
70
100
AcDbEntity
  8
0
 62
    18
420
        0
370
    25
100
AcDbLine
 10
61.16330896340187
 20
59.9736748172834
 30
0.0
 11
61.16330896340187
 21
59.96391433128363
 31
0.0
  0
SPLINE
  5
19C
330
70
100
AcDbEntity
  8
0
 62
    18
420
        0
370
    25
100
AcDbSpline
210
0.0
220
0.0
230
1.0
 70
     8
 71
     3
 72
     8
 73
     4
 74
     0
 42
0.0000000001
 43
0.0000000001
 40
0.0
 40
0.0
 40
0.0
 40
0.0
 40
1.0
 40
1.0
 40
1.0
 40
1.0
 10
61.16330896338839
 20
59.97367481733153
 30
0.0
 10
61.13012514965598
 20
59.97589552101675
 30
0.0
 10
61.09685893439892
 20
59.97663807715065
 30
0.0
 10
61.06360908213273
 20
59.97590028114921
 30
0.0
  0
LINE
  5
19D
330
70
100
AcDbEntity
  8
0
 62
    18
420
        0
370
    25
100
AcDbLine
 10
60.63830896340177
 20
59.97592868738305
 30
0.0
 11
61.06360908210192
 21
59.97590028118387
 31
0.0
  0
SPLINE
  5
19E
330
70
100
AcDbEntity
  8
0
 62
    18
420
        0
370
    25
100
AcDbSpline
210
0.0
220
0.0
230
1.0
 70
     8
 71
     3
 72
     8
 73
     4
 74
     0
 42
0.0000000001
 43
0.0000000001
 40
0.0
 40
0.0
 40
0.0
 40
0.0
 40
1.0
 40
1.0
 40
1.0
 40
1.0
 10
60.13830896341394
 20
59.98705605653301
 30
0.0
 10
60.30474117864748
 20
59.97622963193502
 30
0.0
 10
60.47155988551341
 20
59.97251712525306
 30
0.0
 10
60.63830896341588
 20
59.97592868733428
 30
0.0
  0
SPLINE
  5
19F
330
70
100
AcDbEntity
  8
0
 62
    18
420
        0
370
    25
100
AcDbSpline
210
0.0
220
0.0
230
1.0
 70
     8
 71
     3
 72
     8
 73
     4
 74
     0
 42
0.0000000001
 43
0.0000000001
 40
0.0
 40
0.0
 40
0.0
 40
0.0
 40
1.0
 40
1.0
 40
1.0
 40
1.0
 10
60.13830896339084
 20
59.98705605654455
 30
0.0
 10
59.63871465094045
 20
60.01554070300965
 30
0.0
 10
59.13790327586331
 20
60.01554070300965
 30
0.0
 10
58.6383089634126
 20
59.98705605654455
 30
0.0
  0
SPLINE
  5
1A0
330
70
100
AcDbEntity
  8
0
 62
    18
420
        0
370
    25
100
AcDbSpline
210
0.0
220
0.0
230
1.0
 70
     8
 71
     3
 72
     8
 73
     4
 74
     0
 42
0.0000000001
 43
0.0000000001
 40
0.0
 40
0.0
 40
0.0
 40
0.0
 40
1.0
 40
1.0
 40
1.0
 40
1.0
 10
58.13830896337248
 20
59.9759286873484
 30
0.0
 10
58.30505817552128
 20
59.97222506810572
 30
0.0
 10
58.4718896068999
 20
59.97593785796819
 30
0.0
 10
58.63830896337058
 20
59.98705605654777
 30
0.0
  0
LINE
  5
1A1
330
70
100
AcDbEntity
  8
0
 62
    18
420
        0
370
    25
100
AcDbLine
 10
57.71300884460174
 20
59.97590028118387
 30
0.0
 11
58.13830896340167
 21
59.97592868738305
 31
0.0
  0
SPLINE
  5
1A2
330
70
100
AcDbEntity
  8
0
 62
    18
420
        0
370
    25
100
AcDbSpline
210
0.0
220
0.0
230
1.0
 70
     8
 71
     3
 72
     8
 73
     4
 74
     0
 42
0.0000000001
 43
0.0000000001
 40
0.0
 40
0.0
 40
0.0
 40
0.0
 40
1.0
 40
1.0
 40
1.0
 40
1.0
 10
57.713008844672
 20
59.97590028110686
 30
0.0
 10
57.67975899240548
 20
59.9766380771083
 30
0.0
 10
57.64649277714842
 20
59.97589552097377
 30
0.0
 10
57.61330896341601
 20
59.97367481728917
 30
0.0
  0
LINE
  5
1A3
330
70
100
AcDbEntity
  8
0
 62
    18
420
        0
370
    25
100
AcDbLine
 10
57.6133089634019
 20
59.94169647558316
 30
0.0
 11
57.6133089634019
 21
59.9736748172834
 31
0.0
  0
LINE
  5
1A4
330
70
100
AcDbEntity
  8
0
 62
    18
420
        0
370
    25
100
AcDbLine
 10
57.51330896340189
 20
59.94169647558316
 30
0.0
 11
57.6133089634019
 21
59.94169647558316
 31
0.0
  0
LINE
  5
1A5
330
70
100
AcDbEntity
  8
0
 62
    18
420
        0
370
    25
100
AcDbLine
 10
61.16330896340187
 20
59.94169647558316
 30
0.0
 11
61.16330896340187
 21
59.94003702118333
 31
0.0
  0
LINE
  5
1A6
330
70
100
AcDbEntity
  8
0
 62
    18
420
        0
370
    25
100
AcDbLine
 10
57.6133089634019
 20
59.94003701808328
 30
0.0
 11
57.6133089634019
 21
59.94169647558316
 31
0.0
  0
SPLINE
  5
1A7
330
70
100
AcDbEntity
  8
0
 62
    18
420
        0
370
    25
100
AcDbSpline
210
0.0
220
0.0
230
1.0
 70
     8
 71
     3
 72
     8
 73
     4
 74
     0
 42
0.0000000001
 43
0.0000000001
 40
0.0
 40
0.0
 40
0.0
 40
0.0
 40
1.0
 40
1.0
 40
1.0
 40
1.0
 10
32.13830896340173
 20
53.56669647558366
 30
0.0
 10
27.23678180865352
 20
53.56669647558366
 30
0.0
 10
23.26330896340181
 20
49.59322363033162
 30
0.0
 10
23.26330896340181
 20
44.69169647558374
 30
0.0
  0
LINE
  5
1A8
330
70
100
AcDbEntity
  8
0
 62
    18
420
        0
370
    25
100
AcDbLine
 10
23.26330896340181
 20
44.69169647558374
 30
0.0
 11
21.88830896340185
 21
44.69169647558374
 31
0.0
  0
SPLINE
  5
1A9
330
70
100
AcDbEntity
  8
0
 62
    18
420
        0
370
    25
100
AcDbSpline
210
0.0
220
0.0
230
1.0
 70
     8
 71
     3
 72
     8
 73
     4
 74
     0
 42
0.0000000001
 43
0.0000000001
 40
0.0
 40
0.0
 40
0.0
 40
0.0
 40
1.0
 40
1.0
 40
1.0
 40
1.0
 10
32.13830896340173
 20
54.94169647558362
 30
0.0
 10
26.4773902776362
 20
54.94169647558362
 30
0.0
 10
21.88830896340185
 20
50.35261516134895
 30
0.0
 10
21.88830896340185
 20
44.69169647558374
 30
0.0
  0
LINE
  5
1AA
330
70
100
AcDbEntity
  8
0
 62
    18
420
        0
370
    25
100
AcDbLine
 10
32.13830896340173
 20
53.56669647558366
 30
0.0
 11
32.13830896340173
 21
54.94169647558362
 31
0.0
  0
SPLINE
  5
1AB
330
70
100
AcDbEntity
  8
0
 62
    18
420
        0
370
    25
100
AcDbSpline
210
0.0
220
0.0
230
1.0
 70
     8
 71
     3
 72
     8
 73
     4
 74
     0
 42
0.0000000001
 43
0.0000000001
 40
0.0
 40
0.0
 40
0.0
 40
0.0
 40
1.0
 40
1.0
 40
1.0
 40
1.0
 10
95.51330896340195
 20
44.69169647558374
 30
0.0
 10
95.51330896340195
 20
49.59322363033162
 30
0.0
 10
91.53983611814991
 20
53.56669647558366
 30
0.0
 10
86.63830896340204
 20
53.56669647558366
 30
0.0
  0
LINE
  5
1AC
330
70
100
AcDbEntity
  8
0
 62
    18
420
        0
370
    25
100
AcDbLine
 10
86.63830896340204
 20
53.56669647558366
 30
0.0
 11
86.63830896340204
 21
54.94169647558362
 31
0.0
  0
SPLINE
  5
1AD
330
70
100
AcDbEntity
  8
0
 62
    18
420
        0
370
    25
100
AcDbSpline
210
0.0
220
0.0
230
1.0
 70
     8
 71
     3
 72
     8
 73
     4
 74
     0
 42
0.0000000001
 43
0.0000000001
 40
0.0
 40
0.0
 40
0.0
 40
0.0
 40
1.0
 40
1.0
 40
1.0
 40
1.0
 10
96.88830896340192
 20
44.69169647558374
 30
0.0
 10
96.88830896340192
 20
50.35261516134895
 30
0.0
 10
92.29922764916789
 20
54.94169647558362
 30
0.0
 10
86.63830896340204
 20
54.94169647558362
 30
0.0
  0
LINE
  5
1AE
330
70
100
AcDbEntity
  8
0
 62
    18
420
        0
370
    25
100
AcDbLine
 10
95.51330896340195
 20
44.69169647558374
 30
0.0
 11
96.88830896340192
 21
44.69169647558374
 31
0.0
  0
LINE
  5
1AF
330
70
100
AcDbEntity
  8
0
 62
    18
420
        0
370
    25
100
AcDbLine
 10
61.50830306710195
 20
54.94169647558362
 30
0.0
 11
86.63830896340204
 21
54.94169647558362
 31
0.0
  0
LINE
  5
1B0
330
70
100
AcDbEntity
  8
0
 62
    18
420
        0
370
    25
100
AcDbLine
 10
32.13830896340173
 20
53.56669647558366
 30
0.0
 11
86.63830896340204
 21
53.56669647558366
 31
0.0
  0
LINE
  5
1B1
330
70
100
AcDbEntity
  8
0
 62
    18
420
        0
370
    25
100
AcDbLine
 10
32.13830896340173
 20
54.94169647558362
 30
0.0
 11
57.26831485960171
 21
54.94169647558362
 31
0.0
  0
LWPOLYLINE
  5
1B2
330
70
100
AcDbEntity
  8
0
 62
    18
420
        0
370
    25
100
AcDbPolyline
 90
       14
 70
     0
 43
0.0
 10
57.26831485960171
 20
54.94169647558362
 10
57.47063855800188
 20
54.91311095998322
 10
57.71442787280173
 20
54.83464546798338
 10
58.03247526790183
 20
54.70219943978341
 10
58.38847062840167
 20
54.54484597768368
 10
58.69514831260175
 20
54.42152390638349
 10
59.02888522810193
 20
54.32191805868381
 10
59.49860960750173
 20
54.28482946328341
 10
59.95606757710168
 20
54.37863418188341
 10
60.34406826350196
 20
54.52597700298312
 10
60.71223726020186
 20
54.68809940298343
 10
60.99021949890175
 20
54.80660769168332
 10
61.24961512620167
 20
54.89797160058377
 10
61.50830306710195
 20
54.94169647558362
  0
LINE
  5
1B3
330
70
100
AcDbEntity
  8
0
 62
    18
420
        0
370
    25
100
AcDbLine
 10
24.63830896340178
 20
44.69169647558374
 30
0.0
 11
23.26330896340181
 21
44.69169647558374
 31
0.0
  0
LINE
  5
1B4
330
70
100
AcDbEntity
  8
0
 62
    18
420
        0
370
    25
100
AcDbLine
 10
32.13830896340173
 20
52.19169647558369
 30
0.0
 11
32.13830896340173
 21
53.56669647558366
 31
0.0
  0
SPLINE
  5
1B5
330
70
100
AcDbEntity
  8
0
 62
    18
420
        0
370
    25
100
AcDbSpline
210
0.0
220
0.0
230
1.0
 70
     8
 71
     3
 72
     8
 73
     4
 74
     0
 42
0.0000000001
 43
0.0000000001
 40
0.0
 40
0.0
 40
0.0
 40
0.0
 40
1.0
 40
1.0
 40
1.0
 40
1.0
 10
32.13830896340173
 20
52.19169647558369
 30
0.0
 10
27.99617333967085
 20
52.19169647558369
 30
0.0
 10
24.63830896340178
 20
48.8338320993143
 30
0.0
 10
24.63830896340178
 20
44.69169647558374
 30
0.0
  0
LINE
  5
1B6
330
70
100
AcDbEntity
  8
0
 62
    18
420
        0
370
    25
100
AcDbLine
 10
86.63830896340204
 20
52.19169647558369
 30
0.0
 11
86.63830896340204
 21
53.56669647558366
 31
0.0
  0
LINE
  5
1B7
330
70
100
AcDbEntity
  8
0
 62
    18
420
        0
370
    25
100
AcDbLine
 10
94.13830896340199
 20
44.69169647558374
 30
0.0
 11
95.51330896340195
 21
44.69169647558374
 31
0.0
  0
SPLINE
  5
1B8
330
70
100
AcDbEntity
  8
0
 62
    18
420
        0
370
    25
100
AcDbSpline
210
0.0
220
0.0
230
1.0
 70
     8
 71
     3
 72
     8
 73
     4
 74
     0
 42
0.0000000001
 43
0.0000000001
 40
0.0
 40
0.0
 40
0.0
 40
0.0
 40
1.0
 40
1.0
 40
1.0
 40
1.0
 10
94.13830896340199
 20
44.69169647558374
 30
0.0
 10
94.13830896340199
 20
48.8338320993143
 30
0.0
 10
90.78044458713261
 20
52.19169647558369
 30
0.0
 10
86.63830896340204
 20
52.19169647558369
 30
0.0
  0
LINE
  5
1B9
330
70
100
AcDbEntity
  8
0
 62
    18
420
        0
370
    25
100
AcDbLine
 10
86.63830896340204
 20
52.19169647558369
 30
0.0
 11
32.13830896340173
 21
52.19169647558369
 31
0.0
  0
LINE
  5
1BA
330
70
100
AcDbEntity
  8
0
 62
    18
420
        0
370
    25
100
AcDbLine
 10
95.51330896340195
 20
44.69169647558374
 30
0.0
 11
95.51330896340195
 21
20.19169647558385
 31
0.0
  0
LINE
  5
1BB
330
70
100
AcDbEntity
  8
0
 62
    18
420
        0
370
    25
100
AcDbLine
 10
94.13830896340199
 20
20.19169647558385
 30
0.0
 11
95.51330896340195
 21
20.19169647558385
 31
0.0
  0
LINE
  5
1BC
330
70
100
AcDbEntity
  8
0
 62
    18
420
        0
370
    25
100
AcDbLine
 10
94.13830896340199
 20
20.19169647558385
 30
0.0
 11
94.13830896340199
 21
44.69169647558374
 31
0.0
  0
LINE
  5
1BD
330
70
100
AcDbEntity
  8
0
 62
    18
420
        0
370
    25
100
AcDbLine
 10
24.63830896340178
 20
20.19169647558385
 30
0.0
 11
23.26330896340181
 21
20.19169647558385
 31
0.0
  0
LINE
  5
1BE
330
70
100
AcDbEntity
  8
0
 62
    18
420
        0
370
    25
100
AcDbLine
 10
23.26330896340181
 20
20.19169647558385
 30
0.0
 11
23.26330896340181
 21
44.69169647558374
 31
0.0
  0
LINE
  5
1BF
330
70
100
AcDbEntity
  8
0
 62
    18
420
        0
370
    25
100
AcDbLine
 10
24.63830896340178
 20
44.69169647558374
 30
0.0
 11
24.63830896340178
 21
20.19169647558385
 31
0.0
  0
LINE
  5
1C0
330
70
100
AcDbEntity
  8
0
 62
    18
420
        0
370
    25
100
AcDbLine
 10
23.26330896340181
 20
20.19169647558385
 30
0.0
 11
21.88830896340185
 21
20.19169647558385
 31
0.0
  0
LINE
  5
1C1
330
70
100
AcDbEntity
  8
0
 62
    18
420
        0
370
    25
100
AcDbLine
 10
21.88830896340185
 20
20.19169647558385
 30
0.0
 11
21.88830896340185
 21
44.69169647558374
 31
0.0
  0
LINE
  5
1C2
330
70
100
AcDbEntity
  8
0
 62
    18
420
        0
370
    25
100
AcDbLine
 10
96.88830896340192
 20
44.69169647558374
 30
0.0
 11
96.88830896340192
 21
20.19169647558385
 31
0.0
  0
LINE
  5
1C3
330
70
100
AcDbEntity
  8
0
 62
    18
420
        0
370
    25
100
AcDbLine
 10
95.51330896340195
 20
20.19169647558385
 30
0.0
 11
96.88830896340192
 21
20.19169647558385
 31
0.0
  0
SPLINE
  5
1C4
330
70
100
AcDbEntity
  8
0
 62
    18
420
        0
370
    25
100
AcDbSpline
210
0.0
220
0.0
230
1.0
 70
     8
 71
     3
 72
     8
 73
     4
 74
     0
 42
0.0000000001
 43
0.0000000001
 40
0.0
 40
0.0
 40
0.0
 40
0.0
 40
1.0
 40
1.0
 40
1.0
 40
1.0
 10
86.63830896340204
 20
11.31669647558393
 30
0.0
 10
91.53983611814991
 20
11.31669647558393
 30
0.0
 10
95.51330896340195
 20
15.29016932083468
 30
0.0
 10
95.51330896340195
 20
20.19169647558385
 30
0.0
  0
SPLINE
  5
1C5
330
70
100
AcDbEntity
  8
0
 62
    18
420
        0
370
    25
100
AcDbSpline
210
0.0
220
0.0
230
1.0
 70
     8
 71
     3
 72
     8
 73
     4
 74
     0
 42
0.0000000001
 43
0.0000000001
 40
0.0
 40
0.0
 40
0.0
 40
0.0
 40
1.0
 40
1.0
 40
1.0
 40
1.0
 10
86.63830896340204
 20
9.941696475583965
 30
0.0
 10
92.29922764916789
 20
9.941696475583965
 30
0.0
 10
96.88830896340192
 20
14.53077778981799
 30
0.0
 10
96.88830896340192
 20
20.19169647558385
 30
0.0
  0
LINE
  5
1C6
330
70
100
AcDbEntity
  8
0
 62
    18
420
        0
370
    25
100
AcDbLine
 10
86.63830896340204
 20
11.31669647558393
 30
0.0
 11
86.63830896340204
 21
9.941696475583965
 31
0.0
  0
SPLINE
  5
1C7
330
70
100
AcDbEntity
  8
0
 62
    18
420
        0
370
    25
100
AcDbSpline
210
0.0
220
0.0
230
1.0
 70
     8
 71
     3
 72
     8
 73
     4
 74
     0
 42
0.0000000001
 43
0.0000000001
 40
0.0
 40
0.0
 40
0.0
 40
0.0
 40
1.0
 40
1.0
 40
1.0
 40
1.0
 10
23.26330896340181
 20
20.19169647558385
 30
0.0
 10
23.26330896340181
 20
15.29016932083468
 30
0.0
 10
27.23678180865352
 20
11.31669647558393
 30
0.0
 10
32.13830896340173
 20
11.31669647558393
 30
0.0
  0
LINE
  5
1C8
330
70
100
AcDbEntity
  8
0
 62
    18
420
        0
370
    25
100
AcDbLine
 10
32.13830896340173
 20
11.31669647558393
 30
0.0
 11
32.13830896340173
 21
9.941696475583965
 31
0.0
  0
SPLINE
  5
1C9
330
70
100
AcDbEntity
  8
0
 62
    18
420
        0
370
    25
100
AcDbSpline
210
0.0
220
0.0
230
1.0
 70
     8
 71
     3
 72
     8
 73
     4
 74
     0
 42
0.0000000001
 43
0.0000000001
 40
0.0
 40
0.0
 40
0.0
 40
0.0
 40
1.0
 40
1.0
 40
1.0
 40
1.0
 10
21.88830896340185
 20
20.19169647558385
 30
0.0
 10
21.88830896340185
 20
14.53077778981799
 30
0.0
 10
26.4773902776362
 20
9.941696475583965
 30
0.0
 10
32.13830896340173
 20
9.941696475583965
 30
0.0
  0
LINE
  5
1CA
330
70
100
AcDbEntity
  8
0
 62
    18
420
        0
370
    25
100
AcDbLine
 10
86.63830896340204
 20
12.6916964755839
 30
0.0
 11
86.63830896340204
 21
11.31669647558393
 31
0.0
  0
SPLINE
  5
1CB
330
70
100
AcDbEntity
  8
0
 62
    18
420
        0
370
    25
100
AcDbSpline
210
0.0
220
0.0
230
1.0
 70
     8
 71
     3
 72
     8
 73
     4
 74
     0
 42
0.0000000001
 43
0.0000000001
 40
0.0
 40
0.0
 40
0.0
 40
0.0
 40
1.0
 40
1.0
 40
1.0
 40
1.0
 10
86.63830896340204
 20
12.6916964755839
 30
0.0
 10
90.78044458713261
 20
12.6916964755839
 30
0.0
 10
94.13830896340199
 20
16.04956085185264
 30
0.0
 10
94.13830896340199
 20
20.19169647558385
 30
0.0
  0
LINE
  5
1CC
330
70
100
AcDbEntity
  8
0
 62
    18
420
        0
370
    25
100
AcDbLine
 10
32.13830896340173
 20
12.6916964755839
 30
0.0
 11
32.13830896340173
 21
11.31669647558393
 31
0.0
  0
SPLINE
  5
1CD
330
70
100
AcDbEntity
  8
0
 62
    18
420
        0
370
    25
100
AcDbSpline
210
0.0
220
0.0
230
1.0
 70
     8
 71
     3
 72
     8
 73
     4
 74
     0
 42
0.0000000001
 43
0.0000000001
 40
0.0
 40
0.0
 40
0.0
 40
0.0
 40
1.0
 40
1.0
 40
1.0
 40
1.0
 10
24.63830896340178
 20
20.19169647558385
 30
0.0
 10
24.63830896340178
 20
16.04956085185264
 30
0.0
 10
27.99617333967085
 20
12.6916964755839
 30
0.0
 10
32.13830896340173
 20
12.6916964755839
 30
0.0
  0
LINE
  5
1CE
330
70
100
AcDbEntity
  8
0
 62
    18
420
        0
370
    25
100
AcDbLine
 10
77.4222698294014
 20
12.6916964755839
 30
0.0
 11
86.63830896340204
 21
12.6916964755839
 31
0.0
  0
LINE
  5
1CF
330
70
100
AcDbEntity
  8
0
 62
    18
420
        0
370
    25
100
AcDbLine
 10
86.63830896340204
 20
11.31669647558393
 30
0.0
 11
78.88909971750191
 21
11.31669647558393
 31
0.0
  0
LINE
  5
1D0
330
70
100
AcDbEntity
  8
0
 62
    18
420
        0
370
    25
100
AcDbLine
 10
77.64677635100212
 20
12.55901984208309
 30
0.0
 11
78.88909971750191
 21
11.31669647558393
 31
0.0
  0
LWPOLYLINE
  5
1D1
330
70
100
AcDbEntity
  8
0
 62
    18
420
        0
370
    25
100
AcDbPolyline
 90
        3
 70
     0
 43
0.0
 10
77.64677635100212
 20
12.55901984208309
 10
77.46499578850134
 20
12.68488741488348
 10
77.4222698294014
 20
12.6916964755839
  0
LINE
  5
1D2
330
70
100
AcDbEntity
  8
0
 62
    18
420
        0
370
    25
100
AcDbLine
 10
39.88751820930186
 20
11.31669647558393
 30
0.0
 11
32.13830896340173
 21
11.31669647558393
 31
0.0
  0
LINE
  5
1D3
330
70
100
AcDbEntity
  8
0
 62
    18
420
        0
370
    25
100
AcDbLine
 10
32.13830896340173
 20
12.6916964755839
 30
0.0
 11
41.35434809740171
 21
12.6916964755839
 31
0.0
  0
LWPOLYLINE
  5
1D4
330
70
100
AcDbEntity
  8
0
 62
    18
420
        0
370
    25
100
AcDbPolyline
 90
        3
 70
     0
 43
0.0
 10
41.35434809740171
 20
12.6916964755839
 10
41.18524969810168
 20
12.60987725568308
 10
41.12984157580197
 20
12.55901984208309
  0
LINE
  5
1D5
330
70
100
AcDbEntity
  8
0
 62
    18
420
        0
370
    25
100
AcDbLine
 10
41.12984157580197
 20
12.55901984208309
 30
0.0
 11
39.88751820930186
 21
11.31669647558393
 31
0.0
  0
LINE
  5
1D6
330
70
100
AcDbEntity
  8
0
 62
    18
420
        0
370
    25
100
AcDbLine
 10
41.12984157580197
 20
10.07437310908349
 30
0.0
 11
39.88751820930186
 21
11.31669647558393
 31
0.0
  0
LINE
  5
1D7
330
70
100
AcDbEntity
  8
0
 62
    18
420
        0
370
    25
100
AcDbLine
 10
41.12984157580197
 20
12.55901984208309
 30
0.0
 11
41.12984157580197
 21
10.07437310908349
 31
0.0
  0
LINE
  5
1D8
330
70
100
AcDbEntity
  8
0
 62
    18
420
        0
370
    25
100
AcDbLine
 10
78.88909971750191
 20
11.31669647558393
 30
0.0
 11
77.64677635100212
 21
10.07437310908349
 31
0.0
  0
LINE
  5
1D9
330
70
100
AcDbEntity
  8
0
 62
    18
420
        0
370
    25
100
AcDbLine
 10
77.64677635100212
 20
10.07437310908349
 30
0.0
 11
77.64677635100212
 21
12.55901984208309
 31
0.0
  0
LWPOLYLINE
  5
1DA
330
70
100
AcDbEntity
  8
0
 62
    18
420
        0
370
    25
100
AcDbPolyline
 90
        3
 70
     0
 43
0.0
 10
41.12984157580197
 20
10.07437310908349
 10
41.31162213830178
 20
9.948505536283096
 10
41.35434809740171
 20
9.941696475583965
  0
LINE
  5
1DB
330
70
100
AcDbEntity
  8
0
 62
    18
420
        0
370
    25
100
AcDbLine
 10
41.35434809740171
 20
9.941696475583965
 30
0.0
 11
32.13830896340173
 21
9.941696475583965
 31
0.0
  0
LINE
  5
1DC
330
70
100
AcDbEntity
  8
0
 62
    18
420
        0
370
    25
100
AcDbLine
 10
86.63830896340204
 20
9.941696475583965
 30
0.0
 11
77.4222698294014
 21
9.941696475583965
 31
0.0
  0
LWPOLYLINE
  5
1DD
330
70
100
AcDbEntity
  8
0
 62
    18
420
        0
370
    25
100
AcDbPolyline
 90
        3
 70
     0
 43
0.0
 10
77.4222698294014
 20
9.941696475583965
 10
77.59136822870146
 20
10.0235156954835
 10
77.64677635100212
 20
10.07437310908349
  0
LINE
  5
1DE
330
70
100
AcDbEntity
  8
0
 62
    18
420
        0
370
    25
100
AcDbLine
 10
77.26080796260186
 20
12.6916964755839
 30
0.0
 11
77.4222698294014
 21
12.6916964755839
 31
0.0
  0
LINE
  5
1DF
330
70
100
AcDbEntity
  8
0
 62
    18
420
        0
370
    25
100
AcDbLine
 10
77.26080796260186
 20
9.941696475583965
 30
0.0
 11
77.4222698294014
 21
9.941696475583965
 31
0.0
  0
LINE
  5
1E0
330
70
100
AcDbEntity
  8
0
 62
    18
420
        0
370
    25
100
AcDbLine
 10
41.51580996420189
 20
12.6916964755839
 30
0.0
 11
41.35434809740171
 21
12.6916964755839
 31
0.0
  0
LINE
  5
1E1
330
70
100
AcDbEntity
  8
0
 62
    18
420
        0
370
    25
100
AcDbLine
 10
41.51580996420189
 20
9.941696475583965
 30
0.0
 11
41.35434809740171
 21
9.941696475583965
 31
0.0
  0
LINE
  5
1E2
330
70
100
AcDbEntity
  8
0
 62
     8
420
  8421504
370
    25
100
AcDbLine
 10
58.01330896340192
 20
59.96992799078305
 30
0.0
 11
58.01330896340192
 21
59.97592033848326
 31
0.0
  0
LINE
  5
1E3
330
70
100
AcDbEntity
  8
0
 62
     8
420
  8421504
370
    25
100
AcDbLine
 10
60.76330896340185
 20
59.96992799078305
 30
0.0
 11
60.76330896340185
 21
59.97592033848326
 31
0.0
  0
LINE
  5
1E4
330
70
100
AcDbEntity
  8
0
 62
     8
420
  8421504
370
    25
100
AcDbLine
 10
47.36421621446021
 20
60.198970913676
 30
0.0
 11
47.36612426611054
 21
60.20064149377294
 31
0.0
  0
LWPOLYLINE
  5
1E5
330
70
100
AcDbEntity
  8
0
 62
     8
420
  8421504
370
    25
100
AcDbPolyline
 90
        5
 70
     0
 43
0.0
 10
71.41240171460137
 20
60.19897091178364
 10
71.41254571140187
 20
60.19884531388388
 10
71.4121442768015
 20
60.19919270548374
 10
71.40955348650155
 20
60.20149235608375
 10
71.40954926030184
 20
60.20149618138327
  0
LINE
  5
1E6
330
70
100
AcDbEntity
  8
0
 62
     8
420
  8421504
370
    25
100
AcDbLine
 10
93.01330896340154
 20
44.44169647558293
 30
0.0
 11
93.01330896340154
 21
45.19169647558344
 31
0.0
  0
LINE
  5
1E7
330
70
100
AcDbEntity
  8
0
 62
     8
420
  8421504
370
    25
100
AcDbLine
 10
93.01330896340154
 20
43.69169647558307
 30
0.0
 11
93.01330896340154
 21
44.44169647558293
 31
0.0
  0
LINE
  5
1E8
330
70
100
AcDbEntity
  8
0
 62
     8
420
  8421504
370
    25
100
AcDbLine
 10
25.7633089634019
 20
44.44169647558293
 30
0.0
 11
25.7633089634019
 21
45.19169647558344
 31
0.0
  0
LINE
  5
1E9
330
70
100
AcDbEntity
  8
0
 62
     8
420
  8421504
370
    25
100
AcDbLine
 10
25.7633089634019
 20
43.69169647558307
 30
0.0
 11
25.7633089634019
 21
44.44169647558293
 31
0.0
  0
LINE
  5
1EA
330
70
100
AcDbEntity
  8
0
 62
     8
420
  8421504
370
    25
100
AcDbLine
 10
93.01330896340154
 20
36.44169647558394
 30
0.0
 11
93.01330896340154
 21
37.19169647558381
 31
0.0
  0
LINE
  5
1EB
330
70
100
AcDbEntity
  8
0
 62
     8
420
  8421504
370
    25
100
AcDbLine
 10
93.01330896340154
 20
35.69169647558279
 30
0.0
 11
93.01330896340154
 21
36.44169647558394
 31
0.0
  0
LINE
  5
1EC
330
70
100
AcDbEntity
  8
0
 62
     8
420
  8421504
370
    25
100
AcDbLine
 10
25.7633089634019
 20
36.44169647558394
 30
0.0
 11
25.7633089634019
 21
37.19169647558381
 31
0.0
  0
LINE
  5
1ED
330
70
100
AcDbEntity
  8
0
 62
     8
420
  8421504
370
    25
100
AcDbLine
 10
25.7633089634019
 20
35.69169647558279
 30
0.0
 11
25.7633089634019
 21
36.44169647558394
 31
0.0
  0
LINE
  5
1EE
330
70
100
AcDbEntity
  8
0
 62
     8
420
  8421504
370
    25
100
AcDbLine
 10
93.01330896340154
 20
28.44169647558365
 30
0.0
 11
93.01330896340154
 21
29.19169647558352
 31
0.0
  0
LINE
  5
1EF
330
70
100
AcDbEntity
  8
0
 62
     8
420
  8421504
370
    25
100
AcDbLine
 10
93.01330896340154
 20
27.69169647558379
 30
0.0
 11
93.01330896340154
 21
28.44169647558365
 31
0.0
  0
LINE
  5
1F0
330
70
100
AcDbEntity
  8
0
 62
     8
420
  8421504
370
    25
100
AcDbLine
 10
25.7633089634019
 20
28.44169647558365
 30
0.0
 11
25.7633089634019
 21
29.19169647558352
 31
0.0
  0
LINE
  5
1F1
330
70
100
AcDbEntity
  8
0
 62
     8
420
  8421504
370
    25
100
AcDbLine
 10
25.7633089634019
 20
27.69169647558379
 30
0.0
 11
25.7633089634019
 21
28.44169647558365
 31
0.0
  0
LINE
  5
1F2
330
70
100
AcDbEntity
  8
0
 62
     8
420
  8421504
370
    25
100
AcDbLine
 10
93.01330896340154
 20
20.44169647558337
 30
0.0
 11
93.01330896340154
 21
21.19169647558324
 31
0.0
  0
LINE
  5
1F3
330
70
100
AcDbEntity
  8
0
 62
     8
420
  8421504
370
    25
100
AcDbLine
 10
93.01330896340154
 20
19.69169647558351
 30
0.0
 11
93.01330896340154
 21
20.44169647558337
 31
0.0
  0
LINE
  5
1F4
330
70
100
AcDbEntity
  8
0
 62
     8
420
  8421504
370
    25
100
AcDbLine
 10
25.7633089634019
 20
20.44169647558337
 30
0.0
 11
25.7633089634019
 21
21.19169647558324
 31
0.0
  0
LINE
  5
1F5
330
70
100
AcDbEntity
  8
0
 62
     8
420
  8421504
370
    25
100
AcDbLine
 10
25.7633089634019
 20
19.69169647558351
 30
0.0
 11
25.7633089634019
 21
20.44169647558337
 31
0.0
  0
LINE
  5
1F6
330
70
100
AcDbEntity
  8
0
 62
    18
420
        0
370
    25
100
AcDbLine
 10
139.0961444995016
 20
-6.426862541517016
 30
0.0
 11
136.7340406669018
 21
-3.511958953217179
 31
0.0
  0
SPLINE
  5
1F7
330
70
100
AcDbEntity
  8
0
 62
    18
420
        0
370
    25
100
AcDbSpline
210
0.0
220
0.0
230
1.0
 70
     8
 71
     3
 72
     8
 73
     4
 74
     0
 42
0.0000000001
 43
0.0000000001
 40
0.0
 40
0.0
 40
0.0
 40
0.0
 40
1.0
 40
1.0
 40
1.0
 40
1.0
 10
125.046045341843
 20
-21.30675819270656
 30
0.0
 10
125.2006845521882
 20
-21.39602950864568
 30
0.0
 10
125.3911933018408
 20
-21.39606091216974
 30
0.0
 10
125.5458619348063
 20
-21.3068405826357
 30
0.0
  0
SPLINE
  5
1F8
330
70
100
AcDbEntity
  8
0
 62
    18
420
        0
370
    25
100
AcDbSpline
210
0.0
220
0.0
230
1.0
 70
     8
 71
     3
 72
     8
 73
     4
 74
     0
 42
0.0000000001
 43
0.0000000001
 40
0.0
 40
0.0
 40
0.0
 40
0.0
 40
1.0
 40
1.0
 40
1.0
 40
1.0
 10
142.7662629879198
 20
8.538161950014277
 30
0.0
 10
142.7600566516057
 20
8.710267633908649
 30
0.0
 10
142.6657162713058
 20
8.86706571886469
 30
0.0
 10
142.5165674567604
 20
8.953167496774206
 30
0.0
  0
LINE
  5
1F9
330
70
100
AcDbEntity
  8
0
 62
    18
420
        0
370
    25
100
AcDbLine
 10
142.7665501276017
 20
-11.07696989341656
 30
0.0
 11
142.7669125465019
 21
-9.858395169216269
 31
0.0
  0
LINE
  5
1FA
330
70
100
AcDbEntity
  8
0
 62
    18
420
        0
370
    25
100
AcDbLine
 10
142.7675880361018
 20
-4.307383302216472
 30
0.0
 11
142.7656732398015
 21
8.526812113482892
 31
0.0
  0
LINE
  5
1FB
330
70
100
AcDbEntity
  8
0
 62
    18
420
        0
370
    25
100
AcDbLine
 10
142.7653608745018
 20
8.532656948583518
 30
0.0
 11
142.7651672618017
 21
8.538657918282934
 31
0.0
  0
LWPOLYLINE
  5
1FC
330
70
100
AcDbEntity
  8
0
 62
    18
420
        0
370
    25
100
AcDbPolyline
 90
        3
 70
     0
 43
0.0
 10
125.5458327112019
 20
-21.3068140194167
 10
129.5187834900017
 20
-19.01485292921605
 10
142.5209712346021
 20
-11.50626270571632
  0
LINE
  5
1FD
330
70
100
AcDbEntity
  8
0
 62
    18
420
        0
370
    25
100
AcDbLine
 10
123.9908313531018
 20
-20.69759612331667
 30
0.0
 11
125.046045341902
 21
-21.30675819271683
 31
0.0
  0
LINE
  5
1FE
330
70
100
AcDbEntity
  8
0
 62
    18
420
        0
370
    25
100
AcDbLine
 10
142.5165674568021
 20
8.953167496783191
 30
0.0
 11
140.9321846246017
 21
9.867812237083995
 31
0.0
  0
LINE
  5
1FF
330
70
100
AcDbEntity
  8
0
 62
    18
420
        0
370
    25
100
AcDbLine
 10
142.525556903402
 20
-11.50238704541597
 30
0.0
 11
142.5306983414019
 21
-11.49919265081601
 31
0.0
  0
SPLINE
  5
200
330
70
100
AcDbEntity
  8
0
 62
    18
420
        0
370
    25
100
AcDbSpline
210
0.0
220
0.0
230
1.0
 70
     8
 71
     3
 72
     8
 73
     4
 74
     0
 42
0.0000000001
 43
0.0000000001
 40
0.0
 40
0.0
 40
0.0
 40
0.0
 40
1.0
 40
1.0
 40
1.0
 40
1.0
 10
142.5326730484507
 20
-11.50015500703612
 30
0.0
 10
142.678193682642
 20
-11.40868513278572
 30
0.0
 10
142.7665310589718
 20
-11.24888206525879
 30
0.0
 10
142.7665877463088
 20
-11.0770013227151
 30
0.0
  0
SPLINE
  5
201
330
70
100
AcDbEntity
  8
0
 62
    18
420
        0
370
    25
100
AcDbSpline
210
0.0
220
0.0
230
1.0
 70
     8
 71
     3
 72
     8
 73
     4
 74
     0
 42
0.0000000001
 43
0.0000000001
 40
0.0
 40
0.0
 40
0.0
 40
0.0
 40
1.0
 40
1.0
 40
1.0
 40
1.0
 10
137.5689501212636
 20
-35.34981991857829
 30
0.0
 10
141.0755885008582
 20
-37.15542189351084
 30
0.0
 10
145.2385688503452
 20
-37.15542189351084
 30
0.0
 10
148.7452072299399
 20
-35.34981991857829
 30
0.0
  0
SPLINE
  5
202
330
70
100
AcDbEntity
  8
0
 62
    18
420
        0
370
    25
100
AcDbSpline
210
0.0
220
0.0
230
1.0
 70
     8
 71
     3
 72
     8
 73
     4
 74
     0
 42
0.0000000001
 43
0.0000000001
 40
0.0
 40
0.0
 40
0.0
 40
0.0
 40
1.0
 40
1.0
 40
1.0
 40
1.0
 10
135.9610210221656
 20
-39.97220412292517
 30
0.0
 10
140.4683799542049
 20
-42.33127122367867
 30
0.0
 10
145.8457773969985
 20
-42.33127122367867
 30
0.0
 10
150.3531363290378
 20
-39.97220412292517
 30
0.0
  0
LINE
  5
203
330
70
100
AcDbEntity
  8
0
 62
    18
420
        0
370
    25
100
AcDbLine
 10
137.568950121202
 20
-35.3498199186168
 30
0.0
 11
120.244833982102
 21
-25.34882054871702
 31
0.0
  0
LINE
  5
204
330
70
100
AcDbEntity
  8
0
 62
    18
420
        0
370
    25
100
AcDbLine
 10
154.9121697652016
 20
-31.78970822601694
 30
0.0
 11
148.7452072299021
 21
-35.3498199186168
 31
0.0
  0
LINE
  5
205
330
70
100
AcDbEntity
  8
0
 62
    18
420
        0
370
    25
100
AcDbLine
 10
150.3531363290019
 20
-39.97220412291619
 30
0.0
 11
156.4047377961015
 21
-36.47868895751653
 31
0.0
  0
LINE
  5
206
330
70
100
AcDbEntity
  8
0
 62
    18
420
        0
370
    25
100
AcDbLine
 10
118.6369048830015
 20
-29.97120475311652
 30
0.0
 11
135.9610210221015
 21
-39.97220412291619
 31
0.0
  0
LINE
  5
207
330
70
100
AcDbEntity
  8
0
 62
    18
420
        0
370
    25
100
AcDbLine
 10
135.9547292972018
 20
-39.9685719875168
 30
0.0
 11
135.9547292972018
 21
-45.52260262261683
 31
0.0
  0
LINE
  5
208
330
70
100
AcDbEntity
  8
0
 62
    18
420
        0
370
    25
100
AcDbLine
 10
137.4547292972015
 20
-45.52260262261683
 30
0.0
 11
137.4547292972015
 21
-40.67722434461667
 31
0.0
  0
LINE
  5
209
330
70
100
AcDbEntity
  8
0
 62
    18
420
        0
370
    25
100
AcDbLine
 10
156.2870580226018
 20
-32.58341432251693
 30
0.0
 11
154.9121697652016
 21
-31.78970822601694
 31
0.0
  0
LINE
  5
20A
330
70
100
AcDbEntity
  8
0
 62
    18
420
        0
370
    25
100
AcDbLine
 10
151.1575250927019
 20
-39.50784037391706
 30
0.0
 11
151.1575250927019
 21
-40.1132353814171
 31
0.0
  0
LINE
  5
20B
330
70
100
AcDbEntity
  8
0
 62
    18
420
        0
370
    25
100
AcDbLine
 10
152.6575250927016
 20
-40.1132353814171
 30
0.0
 11
152.6575250927016
 21
-38.64190880581663
 31
0.0
  0
LWPOLYLINE
  5
20C
330
70
100
AcDbEntity
  8
0
 62
    18
420
        0
370
    25
100
AcDbPolyline
 90
       10
 70
     0
 43
0.0
 10
153.3003225210019
 20
-40.48454062461627
 10
153.1876771137019
 20
-40.54332689961659
 10
153.0066436600018
 20
-40.6085472223162
 10
152.8831130525017
 20
-40.6249477503169
 10
152.819862748502
 20
-40.61669754421696
 10
152.7888280787018
 20
-40.60034676001608
 10
152.7515853481021
 20
-40.55642261721631
 10
152.7052931029017
 20
-40.45613194691632
 10
152.6660152752018
 20
-40.2706896088169
 10
152.6575250927016
 20
-40.1132353814171
  0
SPLINE
  5
20D
330
70
100
AcDbEntity
  8
0
 62
    18
420
        0
370
    25
100
AcDbSpline
210
0.0
220
0.0
230
1.0
 70
     8
 71
     3
 72
    11
 73
     7
 74
     0
 42
0.0000000001
 43
0.0000000001
 40
0.0
 40
0.0
 40
0.0
 40
0.0
 40
1.0
 40
1.0
 40
1.0
 40
2.0
 40
2.0
 40
2.0
 40
2.0
 10
151.1575250927044
 20
-40.11323538147871
 30
0.0
 10
151.0592701970535
 20
-41.12165709232932
 30
0.0
 10
151.7971061838122
 20
-42.0187957402627
 30
0.0
 10
152.8055278946635
 20
-42.11705063591362
 30
0.0
 10
153.2471083223771
 20
-42.16007572986002
 30
0.0
 10
153.689319951172
 20
-42.0416169808817
 30
0.0
 10
154.0502615704082
 20
-41.78361391820227
 30
0.0
  0
SPLINE
  5
20E
330
70
100
AcDbEntity
  8
0
 62
    18
420
        0
370
    25
100
AcDbSpline
210
0.0
220
0.0
230
1.0
 70
     8
 71
     3
 72
    11
 73
     7
 74
     0
 42
0.0000000001
 43
0.0000000001
 40
0.0
 40
0.0
 40
0.0
 40
0.0
 40
1.0
 40
1.0
 40
1.0
 40
2.0
 40
2.0
 40
2.0
 40
2.0
 10
135.954729297205
 20
-45.52260262257833
 30
0.0
 10
135.8564744015534
 20
-46.53102433343023
 30
0.0
 10
136.5943103883122
 20
-47.42816298136233
 30
0.0
 10
137.6027320991634
 20
-47.52641787701325
 30
0.0
 10
138.0443125268777
 20
-47.56944297095965
 30
0.0
 10
138.486524155672
 20
-47.45098422198259
 30
0.0
 10
138.8474657749082
 20
-47.19298115930189
 30
0.0
  0
LWPOLYLINE
  5
20F
330
70
100
AcDbEntity
  8
0
 62
    18
420
        0
370
    25
100
AcDbPolyline
 90
       10
 70
     0
 43
0.0
 10
138.0975267255018
 20
-45.89390786571718
 10
137.9848813182019
 20
-45.95269414071622
 10
137.8038478645017
 20
-46.01791446351721
 10
137.6803172570016
 20
-46.03431499141652
 10
137.617066953002
 20
-46.02606478541669
 10
137.5860322831016
 20
-46.0097140012171
 10
137.548789552602
 20
-45.96578985841604
 10
137.5024973074017
 20
-45.86549918801723
 10
137.4632194797017
 20
-45.68005684991653
 10
137.4547292972015
 20
-45.52260262261683
  0
LINE
  5
210
330
70
100
AcDbEntity
  8
0
 62
    18
420
        0
370
    25
100
AcDbLine
 10
130.2978750477017
 20
-36.70293954021724
 30
0.0
 11
130.2978750477017
 21
-42.25697017531598
 31
0.0
  0
LINE
  5
211
330
70
100
AcDbEntity
  8
0
 62
    18
420
        0
370
    25
100
AcDbLine
 10
131.7978750477021
 20
-42.25697017531598
 30
0.0
 11
131.7978750477021
 21
-37.56887110831638
 31
0.0
  0
LINE
  5
212
330
70
100
AcDbEntity
  8
0
 62
    18
420
        0
370
    25
100
AcDbLine
 10
154.0502615704018
 20
-41.78361391821638
 30
0.0
 11
184.1022997709016
 21
-24.43494154191601
 31
0.0
  0
LINE
  5
213
330
70
100
AcDbEntity
  8
0
 62
    18
420
        0
370
    25
100
AcDbLine
 10
183.3523607214016
 20
-23.135868248416
 30
0.0
 11
153.3003225210019
 21
-40.48454062461627
 31
0.0
  0
LINE
  5
214
330
70
100
AcDbEntity
  8
0
 62
    18
420
        0
370
    25
100
AcDbLine
 10
181.8293701120019
 20
-20.64805205181619
 30
0.0
 11
156.956414957902
 21
-35.00690342561721
 31
0.0
  0
LINE
  5
215
330
70
100
AcDbEntity
  8
0
 62
    18
420
        0
370
    25
100
AcDbLine
 10
145.7023765646016
 20
-41.50372150131693
 30
0.0
 11
138.0975267255018
 21
-45.89390786571718
 31
0.0
  0
LINE
  5
216
330
70
100
AcDbEntity
  8
0
 62
    18
420
        0
370
    25
100
AcDbLine
 10
138.8474657749017
 20
-47.19298115931601
 30
0.0
 11
151.1575250927019
 21
-40.0865351801164
 31
0.0
  0
LINE
  5
217
330
70
100
AcDbEntity
  8
0
 62
    18
420
        0
370
    25
100
AcDbLine
 10
152.6575250927016
 20
-39.22060361201597
 30
0.0
 11
184.7450971991018
 21
-20.6968425243162
 31
0.0
  0
LINE
  5
218
330
70
100
AcDbEntity
  8
0
 62
    18
420
        0
370
    25
100
AcDbLine
 10
186.2450971991016
 20
-19.83091095621705
 30
0.0
 11
186.4003968097016
 21
-19.74125839931683
 31
0.0
  0
SPLINE
  5
219
330
70
100
AcDbEntity
  8
0
 62
    18
420
        0
370
    25
100
AcDbSpline
210
0.0
220
0.0
230
1.0
 70
     8
 71
     3
 72
    11
 73
     7
 74
     0
 42
0.0000000001
 43
0.0000000001
 40
0.0
 40
0.0
 40
0.0
 40
0.0
 40
1.0
 40
1.0
 40
1.0
 40
2.0
 40
2.0
 40
2.0
 40
2.0
 10
130.2978750477049
 20
-42.25697017527877
 30
0.0
 10
130.1996201520534
 20
-43.26539188612938
 30
0.0
 10
130.9374561388121
 20
-44.16253053406276
 30
0.0
 10
131.9458778496633
 20
-44.26078542971368
 30
0.0
 10
132.3874582773777
 20
-44.30381052366008
 30
0.0
 10
132.8296699061719
 20
-44.18535177468174
 30
0.0
 10
133.1906115254081
 20
-43.92734871200232
 30
0.0
  0
LWPOLYLINE
  5
21A
330
70
100
AcDbEntity
  8
0
 62
    18
420
        0
370
    25
100
AcDbPolyline
 90
       10
 70
     0
 43
0.0
 10
132.4406724760018
 20
-42.62827541841633
 10
132.3280270687018
 20
-42.68706169341665
 10
132.1469936150016
 20
-42.75228201621636
 10
132.0234630075015
 20
-42.76868254411694
 10
131.9602127035019
 20
-42.76043233811712
 10
131.9291780337016
 20
-42.74408155391624
 10
131.8919353031019
 20
-42.70015741111648
 10
131.8456430579016
 20
-42.59986674071638
 10
131.8063652302016
 20
-42.41442440261695
 10
131.7978750477021
 20
-42.25697017531598
  0
LINE
  5
21B
330
70
100
AcDbEntity
  8
0
 62
    18
420
        0
370
    25
100
AcDbLine
 10
124.6410207982016
 20
-33.43730709291638
 30
0.0
 11
124.6410207982016
 21
-38.99133772801641
 31
0.0
  0
LINE
  5
21C
330
70
100
AcDbEntity
  8
0
 62
    18
420
        0
370
    25
100
AcDbLine
 10
126.141020798202
 20
-38.99133772801641
 30
0.0
 11
126.141020798202
 21
-34.30323866101681
 31
0.0
  0
LWPOLYLINE
  5
21D
330
70
100
AcDbEntity
  8
0
 62
    18
420
        0
370
    25
100
AcDbPolyline
 90
       11
 70
     0
 43
0.0
 10
118.8699457248019
 20
-18.10319855631694
 10
118.4995713631016
 20
-18.32839864641704
 10
117.8540832853015
 20
-18.78430916761673
 10
117.2754079645021
 20
-19.28420283661674
 10
116.7726829237021
 20
-19.82306426721632
 10
116.3534297258019
 20
-20.39445503371678
 10
116.0233723807018
 20
-20.99005330661691
 10
115.7853977906015
 20
-21.60075993261696
 10
115.6395089995019
 20
-22.21807165041624
 10
115.5837364885018
 20
-22.83493494811694
 10
115.588641563802
 20
-22.92978449511598
  0
LINE
  5
21E
330
70
100
AcDbEntity
  8
0
 62
    18
420
        0
370
    25
100
AcDbLine
 10
179.9936035108016
 20
-15.17655265841714
 30
0.0
 11
142.7824736252019
 21
-36.6580806942164
 31
0.0
  0
LINE
  5
21F
330
70
100
AcDbEntity
  8
0
 62
    18
420
        0
370
    25
100
AcDbLine
 10
135.9547292972018
 20
-40.59965359601681
 30
0.0
 11
132.4406724760018
 21
-42.62827541841633
 31
0.0
  0
LINE
  5
220
330
70
100
AcDbEntity
  8
0
 62
    18
420
        0
370
    25
100
AcDbLine
 10
133.1906115254017
 20
-43.92734871201644
 30
0.0
 11
135.9547292972018
 21
-42.331657487616
 31
0.0
  0
LINE
  5
221
330
70
100
AcDbEntity
  8
0
 62
    18
420
        0
370
    25
100
AcDbLine
 10
137.4547292972015
 20
-41.46572591951685
 30
0.0
 11
138.302987650602
 21
-40.97603679541611
 31
0.0
  0
LINE
  5
222
330
70
100
AcDbEntity
  8
0
 62
    18
420
        0
370
    25
100
AcDbLine
 10
146.4959866612017
 20
-36.24631914141622
 30
0.0
 11
180.7435425602015
 21
-16.47562595201597
 31
0.0
  0
LINE
  5
223
330
70
100
AcDbEntity
  8
0
 62
    18
420
        0
370
    25
100
AcDbLine
 10
115.5829625365019
 20
-22.91682673831655
 30
0.0
 11
115.5829625365019
 21
-25.67265197841696
 31
0.0
  0
SPLINE
  5
224
330
70
100
AcDbEntity
  8
0
 62
    18
420
        0
370
    25
100
AcDbSpline
210
0.0
220
0.0
230
1.0
 70
     8
 71
     3
 72
     8
 73
     4
 74
     0
 42
0.0000000001
 43
0.0000000001
 40
0.0
 40
0.0
 40
0.0
 40
0.0
 40
1.0
 40
1.0
 40
1.0
 40
1.0
 10
118.3330206107289
 20
-22.92623305268033
 30
0.0
 10
118.5210849993147
 20
-24.00444550810025
 30
0.0
 10
119.2398736974824
 20
-24.91527108269377
 30
0.0
 10
120.2448339821334
 20
-25.34882054878889
 30
0.0
  0
SPLINE
  5
225
330
70
100
AcDbEntity
  8
0
 62
    18
420
        0
370
    25
100
AcDbSpline
210
0.0
220
0.0
230
1.0
 70
     8
 71
     3
 72
    11
 73
     7
 74
     0
 42
0.0000000001
 43
0.0000000001
 40
0.0
 40
0.0
 40
0.0
 40
0.0
 40
1.0
 40
1.0
 40
1.0
 40
2.0
 40
2.0
 40
2.0
 40
2.0
 10
124.6410207982049
 20
-38.99133772797791
 30
0.0
 10
124.5427659025533
 20
-39.99975943882981
 30
0.0
 10
125.280601889312
 20
-40.89689808676191
 30
0.0
 10
126.2890236001633
 20
-40.99515298241411
 30
0.0
 10
126.7306040278776
 20
-41.03817807635922
 30
0.0
 10
127.1728156566718
 20
-40.91971932738218
 30
0.0
 10
127.533757275908
 20
-40.66171626470147
 30
0.0
  0
LWPOLYLINE
  5
226
330
70
100
AcDbEntity
  8
0
 62
    18
420
        0
370
    25
100
AcDbPolyline
 90
       10
 70
     0
 43
0.0
 10
126.7838182265017
 20
-39.36264297121687
 10
126.6711728192018
 20
-39.42142924611708
 10
126.4901393655015
 20
-39.48664956891678
 10
126.3666087580015
 20
-39.50305009691621
 10
126.3033584540018
 20
-39.49479989081627
 10
126.2723237842016
 20
-39.47844910661667
 10
126.2350810536019
 20
-39.43452496381691
 10
126.1887888084015
 20
-39.33423429351691
 10
126.1495109807016
 20
-39.14879195531611
 10
126.141020798202
 20
-38.99133772801641
  0
LINE
  5
227
330
70
100
AcDbEntity
  8
0
 62
    18
420
        0
370
    25
100
AcDbLine
 10
118.9841665488017
 20
-30.17167464561681
 30
0.0
 11
118.9841665488017
 21
-35.72570528071685
 31
0.0
  0
LINE
  5
228
330
70
100
AcDbEntity
  8
0
 62
    18
420
        0
370
    25
100
AcDbLine
 10
120.4841665488021
 20
-35.72570528071685
 30
0.0
 11
120.4841665488021
 21
-31.03760621371596
 31
0.0
  0
SPLINE
  5
229
330
70
100
AcDbEntity
  8
0
 62
    18
420
        0
370
    25
100
AcDbSpline
210
0.0
220
0.0
230
1.0
 70
     8
 71
     3
 72
     8
 73
     4
 74
     0
 42
0.0000000001
 43
0.0000000001
 40
0.0
 40
0.0
 40
0.0
 40
0.0
 40
1.0
 40
1.0
 40
1.0
 40
1.0
 10
116.0351804732144
 20
-27.43385621247044
 30
0.0
 10
116.637759882654
 20
-28.5142383385023
 30
0.0
 10
117.5417674180469
 20
-29.39587752828483
 30
0.0
 10
118.6369048830387
 20
-29.97120475317556
 30
0.0
  0
SPLINE
  5
22A
330
70
100
AcDbEntity
  8
0
 62
    18
420
        0
370
    25
100
AcDbSpline
210
0.0
220
0.0
230
1.0
 70
     8
 71
     3
 72
     8
 73
     4
 74
     0
 42
0.0000000001
 43
0.0000000001
 40
0.0
 40
0.0
 40
0.0
 40
0.0
 40
1.0
 40
1.0
 40
1.0
 40
1.0
 10
120.4778748238594
 20
-22.7255827606972
 30
0.0
 10
119.8280456920572
 20
-23.08217415967703
 30
0.0
 10
119.2658431558999
 20
-23.57908881089333
 30
0.0
 10
118.8321391121732
 20
-24.18020122036447
 30
0.0
  0
LINE
  5
22B
330
70
100
AcDbEntity
  8
0
 62
    18
420
        0
370
    25
100
AcDbLine
 10
174.3367492613016
 20
-11.91092021111629
 30
0.0
 11
135.6519674650019
 21
-34.24316938681649
 31
0.0
  0
LINE
  5
22C
330
70
100
AcDbEntity
  8
0
 62
    18
420
        0
370
    25
100
AcDbLine
 10
130.2978750477017
 20
-37.33402114871724
 30
0.0
 11
126.7838182265017
 21
-39.36264297121687
 31
0.0
  0
LINE
  5
22D
330
70
100
AcDbEntity
  8
0
 62
    18
420
        0
370
    25
100
AcDbLine
 10
127.5337572759016
 20
-40.66171626471687
 30
0.0
 11
130.2978750477017
 21
-39.06602504031644
 31
0.0
  0
LINE
  5
22E
330
70
100
AcDbEntity
  8
0
 62
    18
420
        0
370
    25
100
AcDbLine
 10
131.7978750477021
 20
-38.20009347221601
 30
0.0
 11
132.3445888879017
 21
-37.88448229031625
 31
0.0
  0
LINE
  5
22F
330
70
100
AcDbEntity
  8
0
 62
    18
420
        0
370
    25
100
AcDbLine
 10
137.1520893759015
 20
-35.1091713327162
 30
0.0
 11
175.0866883107015
 21
-13.2099935047164
 31
0.0
  0
SPLINE
  5
230
330
70
100
AcDbEntity
  8
0
 62
    18
420
        0
370
    25
100
AcDbSpline
210
0.0
220
0.0
230
1.0
 70
     8
 71
     3
 72
    11
 73
     7
 74
     0
 42
0.0000000001
 43
0.0000000001
 40
0.0
 40
0.0
 40
0.0
 40
0.0
 40
1.0
 40
1.0
 40
1.0
 40
2.0
 40
2.0
 40
2.0
 40
2.0
 10
118.9841665487048
 20
-35.72570528077845
 30
0.0
 10
118.8859116530532
 20
-36.73412699163035
 30
0.0
 10
119.6237476398119
 20
-37.63126563956245
 30
0.0
 10
120.6321693506638
 20
-37.72952053521337
 30
0.0
 10
121.0737497783775
 20
-37.77254562915977
 30
0.0
 10
121.5159614071724
 20
-37.65408688018143
 30
0.0
 10
121.8769030264079
 20
-37.39608381750201
 30
0.0
  0
LWPOLYLINE
  5
231
330
70
100
AcDbEntity
  8
0
 62
    18
420
        0
370
    25
100
AcDbPolyline
 90
       10
 70
     0
 43
0.0
 10
121.1269639770016
 20
-36.09701052391601
 10
121.0143185697017
 20
-36.15579679881623
 10
120.8332851160015
 20
-36.22101712161722
 10
120.709754508502
 20
-36.23741764961663
 10
120.6465042045018
 20
-36.2291674435167
 10
120.6154695347015
 20
-36.21281665931711
 10
120.5782268041018
 20
-36.16889251651605
 10
120.5319345590016
 20
-36.06860184621606
 10
120.4926567312015
 20
-35.88315950811664
 10
120.4841665488021
 20
-35.72570528071685
  0
LINE
  5
232
330
70
100
AcDbEntity
  8
0
 62
    18
420
        0
370
    25
100
AcDbLine
 10
168.6798950118015
 20
-8.645287763816719
 30
0.0
 11
129.9951132155019
 21
-30.97753693951692
 31
0.0
  0
LINE
  5
233
330
70
100
AcDbEntity
  8
0
 62
    18
420
        0
370
    25
100
AcDbLine
 10
124.6410207982016
 20
-34.06838870141639
 30
0.0
 11
121.1269639770016
 21
-36.09701052391601
 31
0.0
  0
LINE
  5
234
330
70
100
AcDbEntity
  8
0
 62
    18
420
        0
370
    25
100
AcDbLine
 10
121.8769030265016
 20
-37.39608381741602
 30
0.0
 11
124.6410207982016
 21
-35.80039259301687
 31
0.0
  0
LINE
  5
235
330
70
100
AcDbEntity
  8
0
 62
    18
420
        0
370
    25
100
AcDbLine
 10
126.141020798202
 20
-34.93446102491644
 30
0.0
 11
126.6877346384017
 21
-34.61884984301668
 31
0.0
  0
LINE
  5
236
330
70
100
AcDbEntity
  8
0
 62
    18
420
        0
370
    25
100
AcDbLine
 10
131.4952351264021
 20
-31.84353888541662
 30
0.0
 11
169.4298340613015
 21
-9.944361057416834
 31
0.0
  0
LINE
  5
237
330
70
100
AcDbEntity
  8
0
 62
    18
420
        0
370
    25
100
AcDbLine
 10
137.4414042656016
 20
-7.382123745216142
 30
0.0
 11
118.8699457248019
 21
-18.10319855631694
 31
0.0
  0
LINE
  5
238
330
70
100
AcDbEntity
  8
0
 62
    18
420
        0
370
    25
100
AcDbLine
 10
157.4072652994017
 20
4.143922490883379
 30
0.0
 11
138.835806758602
 21
-6.577152320316243
 31
0.0
  0
LINE
  5
239
330
70
100
AcDbEntity
  8
0
 62
    18
420
        0
370
    25
100
AcDbLine
 10
187.2825268046019
 20
-13.10269887141647
 30
0.0
 11
181.1155642692016
 21
-16.66281056391622
 31
0.0
  0
LINE
  5
23A
330
70
100
AcDbEntity
  8
0
 62
    18
420
        0
370
    25
100
AcDbLine
 10
120.4778748239017
 20
-22.72558276071644
 30
0.0
 11
159.0151943985015
 21
-0.4784617135161204
 31
0.0
  0
LINE
  5
23B
330
70
100
AcDbEntity
  8
0
 62
    18
420
        0
370
    25
100
AcDbLine
 10
182.839080195802
 20
-21.21846791321621
 30
0.0
 11
188.8904559037017
 21
-17.72508307581597
 31
0.0
  0
LWPOLYLINE
  5
23C
330
70
100
AcDbEntity
  8
0
 62
    18
420
        0
370
    25
100
AcDbPolyline
 90
       11
 70
     0
 43
0.0
 10
191.9387192229019
 20
-10.65774730421657
 10
191.9120281714017
 20
-10.14162187001667
 10
191.7958126722018
 20
-9.541283132416872
 10
191.5974912891017
 20
-8.955651748217244
 10
191.3184678519018
 20
-8.386941800617027
 10
190.9592936092015
 20
-7.837544954316762
 10
190.5204888269021
 20
-7.310703077616041
 10
190.0036734285018
 20
-6.810802818216734
 10
189.412469178502
 20
-6.343067845716377
 10
188.7808115341015
 20
-5.929534497716407
 10
188.657415061902
 20
-5.857076879016391
  0
LINE
  5
23D
330
70
100
AcDbEntity
  8
0
 62
    18
420
        0
370
    25
100
AcDbLine
 10
184.7450971991018
 20
-20.11814771811686
 30
0.0
 11
184.7450971991018
 21
-20.72354272571701
 31
0.0
  0
LINE
  5
23E
330
70
100
AcDbEntity
  8
0
 62
    18
420
        0
370
    25
100
AcDbLine
 10
186.2450971991016
 20
-20.72354272571701
 30
0.0
 11
186.2450971991016
 21
-19.25221615001643
 31
0.0
  0
LINE
  5
23F
330
70
100
AcDbEntity
  8
0
 62
    18
420
        0
370
    25
100
AcDbLine
 10
191.944398250202
 20
-13.42653030111641
 30
0.0
 11
191.944398250202
 21
-10.670705061016
 31
0.0
  0
SPLINE
  5
240
330
70
100
AcDbEntity
  8
0
 62
    18
420
        0
370
    25
100
AcDbSpline
210
0.0
220
0.0
230
1.0
 70
     8
 71
     3
 72
     8
 73
     4
 74
     0
 42
0.0000000001
 43
0.0000000001
 40
0.0
 40
0.0
 40
0.0
 40
0.0
 40
1.0
 40
1.0
 40
1.0
 40
1.0
 10
187.2825268046122
 20
-13.1026988714062
 30
0.0
 10
188.2976569978754
 20
-12.67236714200622
 30
0.0
 10
189.0199479339667
 20
-11.74999615754298
 30
0.0
 10
189.1943401760187
 20
-10.66129874663553
 30
0.0
  0
SPLINE
  5
241
330
70
100
AcDbEntity
  8
0
 62
    18
420
        0
370
    25
100
AcDbSpline
210
0.0
220
0.0
230
1.0
 70
     8
 71
     3
 72
     8
 73
     4
 74
     0
 42
0.0000000001
 43
0.0000000001
 40
0.0
 40
0.0
 40
0.0
 40
0.0
 40
1.0
 40
1.0
 40
1.0
 40
1.0
 10
183.3523607213715
 20
-23.13586824843012
 30
0.0
 10
184.1756811741235
 20
-22.60076567547239
 30
0.0
 10
184.6933573885191
 20
-21.70411109330565
 30
0.0
 10
184.7450971990774
 20
-20.72354272572086
 30
0.0
  0
SPLINE
  5
242
330
70
100
AcDbEntity
  8
0
 62
    18
420
        0
370
    25
100
AcDbSpline
210
0.0
220
0.0
230
1.0
 70
     8
 71
     3
 72
     8
 73
     4
 74
     0
 42
0.0000000001
 43
0.0000000001
 40
0.0
 40
0.0
 40
0.0
 40
0.0
 40
1.0
 40
1.0
 40
1.0
 40
1.0
 10
184.1022997708541
 20
-24.43494154193013
 30
0.0
 10
185.3935209259669
 20
-23.63519651089559
 30
0.0
 10
186.1980957941866
 20
-22.2416451774031
 30
0.0
 10
186.2450971990855
 20
-20.72354272565156
 30
0.0
  0
SPLINE
  5
243
330
70
100
AcDbEntity
  8
0
 62
    18
420
        0
370
    25
100
AcDbSpline
210
0.0
220
0.0
230
1.0
 70
     8
 71
     3
 72
     8
 73
     4
 74
     0
 42
0.0000000001
 43
0.0000000001
 40
0.0
 40
0.0
 40
0.0
 40
0.0
 40
1.0
 40
1.0
 40
1.0
 40
1.0
 10
188.8904559036742
 20
-17.72508307578132
 30
0.0
 10
189.9911248029386
 20
-17.13976770343245
 30
0.0
 10
190.9002966561645
 20
-16.25033222628293
 30
0.0
 10
191.5096237769964
 20
-15.16277231035529
 30
0.0
  0
SPLINE
  5
244
330
70
100
AcDbEntity
  8
0
 62
    18
420
        0
370
    25
100
AcDbSpline
210
0.0
220
0.0
230
1.0
 70
     8
 71
     3
 72
     8
 73
     4
 74
     0
 42
0.0000000001
 43
0.0000000001
 40
0.0
 40
0.0
 40
0.0
 40
0.0
 40
1.0
 40
1.0
 40
1.0
 40
1.0
 10
188.692380443933
 20
-11.93339606857511
 30
0.0
 10
188.2713412539663
 20
-11.32217595407838
 30
0.0
 10
187.707362289537
 20
-10.82306371240751
 30
0.0
 10
187.04948596286
 20
-10.47946108341332
 30
0.0
  0
LINE
  5
245
330
70
100
AcDbEntity
  8
0
 62
    18
420
        0
370
    25
100
AcDbLine
 10
188.657415061902
 20
-5.857076879016391
 30
0.0
 11
171.3332989229015
 21
4.143922490883379
 31
0.0
  0
LINE
  5
246
330
70
100
AcDbEntity
  8
0
 62
    18
420
        0
370
    25
100
AcDbLine
 10
169.7253698238017
 20
-0.4784617135161204
 30
0.0
 11
187.0494859628015
 21
-10.47946108341717
 31
0.0
  0
LINE
  5
247
330
70
100
AcDbEntity
  8
0
 62
    18
420
        0
370
    25
100
AcDbLine
 10
187.043194238002
 20
-10.4758289479164
 30
0.0
 11
187.043194238002
 21
-13.24086262121658
 31
0.0
  0
LINE
  5
248
330
70
100
AcDbEntity
  8
0
 62
    18
420
        0
370
    25
100
AcDbLine
 10
188.5431942380017
 20
-12.109024518516
 30
0.0
 11
188.5431942380017
 21
-11.72431664801685
 31
0.0
  0
SPLINE
  5
249
330
70
100
AcDbEntity
  8
0
 62
    18
420
        0
370
    25
100
AcDbSpline
210
0.0
220
0.0
230
1.0
 70
     8
 71
     3
 72
     8
 73
     4
 74
     0
 42
0.0000000001
 43
0.0000000001
 40
0.0
 40
0.0
 40
0.0
 40
0.0
 40
1.0
 40
1.0
 40
1.0
 40
1.0
 10
186.4003968096959
 20
-19.74125839925137
 30
0.0
 10
186.9689583619021
 20
-19.40325738750984
 30
0.0
 10
187.4449277009342
 20
-18.92966558411792
 30
0.0
 10
187.7857716150098
 20
-18.36280374131722
 30
0.0
  0
LINE
  5
24A
330
70
100
AcDbEntity
  8
0
 62
    18
420
        0
370
    25
100
AcDbLine
 10
181.3863399885019
 20
-7.210196500616832
 30
0.0
 11
181.3863399885019
 21
-12.76422713571686
 31
0.0
  0
LINE
  5
24B
330
70
100
AcDbEntity
  8
0
 62
    18
420
        0
370
    25
100
AcDbLine
 10
182.8863399885016
 20
-12.76422713571686
 30
0.0
 11
182.8863399885016
 21
-8.076128068715981
 31
0.0
  0
SPLINE
  5
24C
330
70
100
AcDbEntity
  8
0
 62
    18
420
        0
370
    25
100
AcDbSpline
210
0.0
220
0.0
230
1.0
 70
     8
 71
     3
 72
     8
 73
     4
 74
     0
 42
0.0000000001
 43
0.0000000001
 40
0.0
 40
0.0
 40
0.0
 40
0.0
 40
1.0
 40
1.0
 40
1.0
 40
1.0
 10
171.3332989229144
 20
4.143922490826909
 30
0.0
 10
166.9747215935399
 20
6.438004651835057
 30
0.0
 10
161.7658426288634
 20
6.438004651835057
 30
0.0
 10
157.4072652994896
 20
4.143922490826909
 30
0.0
  0
SPLINE
  5
24D
330
70
100
AcDbEntity
  8
0
 62
    18
420
        0
370
    25
100
AcDbSpline
210
0.0
220
0.0
230
1.0
 70
     8
 71
     3
 72
     8
 73
     4
 74
     0
 42
0.0000000001
 43
0.0000000001
 40
0.0
 40
0.0
 40
0.0
 40
0.0
 40
1.0
 40
1.0
 40
1.0
 40
1.0
 10
180.7435425602542
 20
-16.47562595203009
 30
0.0
 10
182.0347637153669
 20
-15.67588092099555
 30
0.0
 10
182.8393385835866
 20
-14.28232958750306
 30
0.0
 10
182.8863399884849
 20
-12.76422713575152
 30
0.0
  0
SPLINE
  5
24E
330
70
100
AcDbEntity
  8
0
 62
    18
420
        0
370
    25
100
AcDbSpline
210
0.0
220
0.0
230
1.0
 70
     8
 71
     3
 72
     8
 73
     4
 74
     0
 42
0.0000000001
 43
0.0000000001
 40
0.0
 40
0.0
 40
0.0
 40
0.0
 40
1.0
 40
1.0
 40
1.0
 40
1.0
 10
179.9936035107715
 20
-15.17655265842997
 30
0.0
 10
180.8169239635229
 20
-14.64145008547224
 30
0.0
 10
181.3346001779185
 20
-13.7447955033055
 30
0.0
 10
181.3863399884775
 20
-12.76422713572072
 30
0.0
  0
LINE
  5
24F
330
70
100
AcDbEntity
  8
0
 62
    18
420
        0
370
    25
100
AcDbLine
 10
175.7294857390018
 20
-3.944564053315979
 30
0.0
 11
175.7294857390018
 21
-9.498594688416012
 31
0.0
  0
LINE
  5
250
330
70
100
AcDbEntity
  8
0
 62
    18
420
        0
370
    25
100
AcDbLine
 10
177.2294857390015
 20
-9.498594688416012
 30
0.0
 11
177.2294857390015
 21
-4.810495621416411
 31
0.0
  0
SPLINE
  5
251
330
70
100
AcDbEntity
  8
0
 62
    18
420
        0
370
    25
100
AcDbSpline
210
0.0
220
0.0
230
1.0
 70
     8
 71
     3
 72
     8
 73
     4
 74
     0
 42
0.0000000001
 43
0.0000000001
 40
0.0
 40
0.0
 40
0.0
 40
0.0
 40
1.0
 40
1.0
 40
1.0
 40
1.0
 10
169.7253698238139
 20
-0.4784617135828571
 30
0.0
 10
166.3676331702214
 20
1.262803709292312
 30
0.0
 10
162.3729310521825
 20
1.262803709292312
 30
0.0
 10
159.0151943985894
 20
-0.4784617135828571
 30
0.0
  0
SPLINE
  5
252
330
70
100
AcDbEntity
  8
0
 62
    18
420
        0
370
    25
100
AcDbSpline
210
0.0
220
0.0
230
1.0
 70
     8
 71
     3
 72
     8
 73
     4
 74
     0
 42
0.0000000001
 43
0.0000000001
 40
0.0
 40
0.0
 40
0.0
 40
0.0
 40
1.0
 40
1.0
 40
1.0
 40
1.0
 10
175.0866883107612
 20
-13.20999350472667
 30
0.0
 10
176.3779094658701
 20
-12.41024847369084
 30
0.0
 10
177.1824843340866
 20
-11.01669714019964
 30
0.0
 10
177.2294857389855
 20
-9.498594688451948
 30
0.0
  0
SPLINE
  5
253
330
70
100
AcDbEntity
  8
0
 62
    18
420
        0
370
    25
100
AcDbSpline
210
0.0
220
0.0
230
1.0
 70
     8
 71
     3
 72
     8
 73
     4
 74
     0
 42
0.0000000001
 43
0.0000000001
 40
0.0
 40
0.0
 40
0.0
 40
0.0
 40
1.0
 40
1.0
 40
1.0
 40
1.0
 10
174.3367492612714
 20
-11.91092021113041
 30
0.0
 10
175.1600697140235
 20
-11.37581763817268
 30
0.0
 10
175.6777459284191
 20
-10.47916305600594
 30
0.0
 10
175.7294857389774
 20
-9.498594688419862
 30
0.0
  0
LINE
  5
254
330
70
100
AcDbEntity
  8
0
 62
    18
420
        0
370
    25
100
AcDbLine
 10
170.0726314895017
 20
-0.6789316060164099
 30
0.0
 11
170.0726314895017
 21
-6.232962241116442
 31
0.0
  0
LINE
  5
255
330
70
100
AcDbEntity
  8
0
 62
    18
420
        0
370
    25
100
AcDbLine
 10
171.5726314895015
 20
-6.232962241116442
 30
0.0
 11
171.5726314895015
 21
-1.544863174116841
 31
0.0
  0
SPLINE
  5
256
330
70
100
AcDbEntity
  8
0
 62
    18
420
        0
370
    25
100
AcDbSpline
210
0.0
220
0.0
230
1.0
 70
     8
 71
     3
 72
     8
 73
     4
 74
     0
 42
0.0000000001
 43
0.0000000001
 40
0.0
 40
0.0
 40
0.0
 40
0.0
 40
1.0
 40
1.0
 40
1.0
 40
1.0
 10
169.429834061254
 20
-9.944361057429668
 30
0.0
 10
170.7210552163668
 20
-9.144616026396409
 30
0.0
 10
171.5256300845865
 20
-7.751064692902636
 30
0.0
 10
171.5726314894854
 20
-6.232962241152378
 30
0.0
  0
SPLINE
  5
257
330
70
100
AcDbEntity
  8
0
 62
    18
420
        0
370
    25
100
AcDbSpline
210
0.0
220
0.0
230
1.0
 70
     8
 71
     3
 72
     8
 73
     4
 74
     0
 42
0.0000000001
 43
0.0000000001
 40
0.0
 40
0.0
 40
0.0
 40
0.0
 40
1.0
 40
1.0
 40
1.0
 40
1.0
 10
168.6798950117714
 20
-8.645287763830838
 30
0.0
 10
169.5032154645234
 20
-8.110185190873108
 30
0.0
 10
170.020891678919
 20
-7.213530608705084
 30
0.0
 10
170.0726314894773
 20
-6.232962241120293
 30
0.0
  0
SPLINE
  5
258
330
70
100
AcDbEntity
  8
0
 62
    18
420
        0
370
    25
100
AcDbSpline
210
0.0
220
0.0
230
1.0
 70
     8
 71
     3
 72
     8
 73
     4
 74
     0
 42
0.0000000001
 43
0.0000000001
 40
0.0
 40
0.0
 40
0.0
 40
0.0
 40
1.0
 40
1.0
 40
1.0
 40
1.0
 10
139.0071329968012
 20
-6.478247788264389
 30
0.0
 10
138.6171404300986
 20
-6.350434819039801
 30
0.0
 10
138.1897124458939
 20
-6.413988721978202
 30
0.0
 10
137.8537778166925
 20
-6.649739187699712
 30
0.0
  0
SPLINE
  5
259
330
70
100
AcDbEntity
  8
0
 62
    18
420
        0
370
    25
100
AcDbSpline
210
0.0
220
0.0
230
1.0
 70
     8
 71
     3
 72
     8
 73
     4
 74
     0
 42
0.0000000001
 43
0.0000000001
 40
0.0
 40
0.0
 40
0.0
 40
0.0
 40
1.0
 40
1.0
 40
1.0
 40
1.0
 10
137.8537778166347
 20
-6.649739187644526
 30
0.0
 10
137.3842800076525
 20
-6.941427751785987
 30
0.0
 10
136.9893507169561
 20
-7.338681705230791
 30
0.0
 10
136.7004226365272
 20
-7.809883334503049
 30
0.0
  0
LWPOLYLINE
  5
25A
330
70
100
AcDbEntity
  8
0
 62
    18
420
        0
370
    25
100
AcDbPolyline
 90
       17
 70
     0
 43
0.0
 10
136.7340406669018
 20
-3.511958953217179
 10
136.6651620748015
 20
-3.432968850916765
 10
136.380383551502
 20
-3.202083043016668
 10
136.0433291264019
 20
-3.058654109617084
 10
135.662517045102
 20
-3.006306874216089
 10
135.2475714231021
 20
-3.046364288316524
 10
134.8089790198019
 20
-3.177813996316147
 10
134.3578242105016
 20
-3.397333921016012
 10
133.9055088551016
 20
-3.699376220716002
 10
133.4634641438019
 20
-4.076307497716164
 10
133.0428617006016
 20
-4.518601714516648
 10
132.6543312476019
 20
-5.015080941316893
 10
132.3076919638019
 20
-5.553197851716356
 10
132.0117043290016
 20
-6.119352826316089
 10
131.7738487236016
 20
-6.699237650616796
 10
131.6001363798016
 20
-7.278197120917226
 10
131.4949574622017
 20
-7.841599419616458
  0
SPLINE
  5
25B
330
70
100
AcDbEntity
  8
0
 62
    18
420
        0
370
    25
100
AcDbSpline
210
0.0
220
0.0
230
1.0
 70
     8
 71
     3
 72
     8
 73
     4
 74
     0
 42
0.0000000001
 43
0.0000000001
 40
0.0
 40
0.0
 40
0.0
 40
0.0
 40
1.0
 40
1.0
 40
1.0
 40
1.0
 10
131.4949574621504
 20
-7.841599419703729
 30
0.0
 10
131.2625951687123
 20
-8.774127184191819
 30
0.0
 10
131.6730850066716
 20
-9.748177519727553
 30
0.0
 10
132.5028043327526
 20
-10.23311680137095
 30
0.0
  0
SPLINE
  5
25C
330
70
100
AcDbEntity
  8
0
 62
    18
420
        0
370
    25
100
AcDbSpline
210
0.0
220
0.0
230
1.0
 70
     8
 71
     3
 72
     8
 73
     4
 74
     0
 42
0.0000000001
 43
0.0000000001
 40
0.0
 40
0.0
 40
0.0
 40
0.0
 40
1.0
 40
1.0
 40
1.0
 40
1.0
 10
124.9424716344454
 20
-1.480856304217368
 30
0.0
 10
125.1588923896103
 20
-1.592372533815657
 30
0.0
 10
125.4151929071064
 20
-1.595459725373256
 30
0.0
 10
125.6342369531042
 20
-1.489188757356754
 30
0.0
  0
SPLINE
  5
25D
330
70
100
AcDbEntity
  8
0
 62
    18
420
        0
370
    25
100
AcDbSpline
210
0.0
220
0.0
230
1.0
 70
     8
 71
     3
 72
     8
 73
     4
 74
     0
 42
0.0000000001
 43
0.0000000001
 40
0.0
 40
0.0
 40
0.0
 40
0.0
 40
1.0
 40
1.0
 40
1.0
 40
1.0
 10
125.2960250251203
 20
-0.8684838703328303
 30
0.0
 10
125.085674834177
 20
-1.003036769825241
 30
0.0
 10
124.9538227687765
 20
-1.231411245391843
 30
0.0
 10
124.9424716343877
 20
-1.480856304151914
 30
0.0
  0
SPLINE
  5
25E
330
70
100
AcDbEntity
  8
0
 62
    18
420
        0
370
    25
100
AcDbSpline
210
0.0
220
0.0
230
1.0
 70
     8
 71
     3
 72
     8
 73
     4
 74
     0
 42
0.0000000001
 43
0.0000000001
 40
0.0
 40
0.0
 40
0.0
 40
0.0
 40
1.0
 40
1.0
 40
1.0
 40
1.0
 10
125.6342369530516
 20
-1.489188757319535
 30
0.0
 10
125.6242074190926
 20
-1.240936671860733
 30
0.0
 10
125.4991907134312
 20
-1.011499228209964
 30
0.0
 10
125.2960250251248
 20
-0.8684838703597817
 30
0.0
  0
LWPOLYLINE
  5
25F
330
70
100
AcDbEntity
  8
0
 62
    18
420
        0
370
    25
100
AcDbPolyline
 90
        6
 70
     0
 43
0.0
 10
134.1364270438019
 20
3.436497990583802
 10
133.4293034277019
 20
3.028281091882766
 10
130.6004999797021
 20
1.395181105983259
 10
128.124906388702
 20
-0.0340516251167436
 10
125.6491245981015
 20
-1.463402600616416
 10
125.641685845802
 20
-1.467697229516656
  0
SPLINE
  5
260
330
70
100
AcDbEntity
  8
0
 62
    18
420
        0
370
    25
100
AcDbSpline
210
0.0
220
0.0
230
1.0
 70
     8
 71
     3
 72
     8
 73
     4
 74
     0
 42
0.0000000001
 43
0.0000000001
 40
0.0
 40
0.0
 40
0.0
 40
0.0
 40
1.0
 40
1.0
 40
1.0
 40
1.0
 10
125.6416858458829
 20
-1.467697229511523
 30
0.0
 10
125.6286905790692
 20
-1.224243272600682
 30
0.0
 10
125.5002663680587
 20
-1.00161606336279
 30
0.0
 10
125.296025028504
 20
-0.8684838684885873
 30
0.0
  0
LWPOLYLINE
  5
261
330
70
100
AcDbEntity
  8
0
 62
    18
420
        0
370
    25
100
AcDbPolyline
 90
        4
 70
     0
 43
0.0
 10
125.2960250252018
 20
-0.8684838704162512
 10
129.324028885302
 20
1.455282837883126
 10
131.5538088838021
 20
2.741964968383404
 10
133.7832901107016
 20
4.028819628383422
  0
SPLINE
  5
262
330
70
100
AcDbEntity
  8
0
 62
    18
420
        0
370
    25
100
AcDbSpline
210
0.0
220
0.0
230
1.0
 70
     8
 71
     3
 72
     8
 73
     4
 74
     0
 42
0.0000000001
 43
0.0000000001
 40
0.0
 40
0.0
 40
0.0
 40
0.0
 40
1.0
 40
1.0
 40
1.0
 40
1.0
 10
134.1364270437988
 20
3.436497990523482
 30
0.0
 10
134.1181036546153
 20
3.678388552416681
 30
0.0
 10
133.9873675949271
 20
3.897674018600349
 30
0.0
 10
133.7832901107093
 20
4.02881962836032
 30
0.0
  0
SPLINE
  5
263
330
70
100
AcDbEntity
  8
0
 62
    18
420
        0
370
    25
100
AcDbSpline
210
0.0
220
0.0
230
1.0
 70
     8
 71
     3
 72
     8
 73
     4
 74
     0
 42
0.0000000001
 43
0.0000000001
 40
0.0
 40
0.0
 40
0.0
 40
0.0
 40
1.0
 40
1.0
 40
1.0
 40
1.0
 10
125.6360781639423
 20
-1.479535845031243
 30
0.0
 10
125.636108956753
 20
-1.482194467163854
 30
0.0
 10
125.6368512039954
 20
-1.484796329774099
 30
0.0
 10
125.6382277682543
 20
-1.487071036498019
 30
0.0
  0
LINE
  5
264
330
70
100
AcDbEntity
  8
0
 62
    18
420
        0
370
    25
100
AcDbLine
 10
125.6382277682017
 20
-1.487071036515987
 30
0.0
 11
125.6342369531016
 21
-1.489188757316969
 31
0.0
  0
LWPOLYLINE
  5
265
330
70
100
AcDbEntity
  8
0
 62
    18
420
        0
370
    25
100
AcDbPolyline
 90
        3
 70
     0
 43
0.0
 10
125.641685845802
 20
-1.467697229516656
 10
125.642906405102
 20
-1.47353855981627
 10
125.6438617073017
 20
-1.475408785816942
  0
LINE
  5
266
330
70
100
AcDbEntity
  8
0
 62
    18
420
        0
370
    25
100
AcDbLine
 10
125.6438617073017
 20
-1.475408785816942
 30
0.0
 11
125.6360781639018
 21
-1.479535845017125
 31
0.0
  0
SPLINE
  5
267
330
70
100
AcDbEntity
  8
0
 62
    18
420
        0
370
    25
100
AcDbSpline
210
0.0
220
0.0
230
1.0
 70
     8
 71
     3
 72
     8
 73
     4
 74
     0
 42
0.0000000001
 43
0.0000000001
 40
0.0
 40
0.0
 40
0.0
 40
0.0
 40
1.0
 40
1.0
 40
1.0
 40
1.0
 10
124.9424716346187
 20
-21.07783578499815
 30
0.0
 10
125.1559820174196
 20
-21.19777104013354
 30
0.0
 10
125.4150218372839
 20
-21.20422177627643
 30
0.0
 10
125.6342372447692
 20
-21.09506247017257
 30
0.0
  0
LINE
  5
268
330
70
100
AcDbEntity
  8
0
 62
    18
420
        0
370
    25
100
AcDbLine
 10
132.2481513366018
 20
-10.06835952711672
 30
0.0
 11
131.9717074689016
 21
-10.53971249481621
 31
0.0
  0
LINE
  5
269
330
70
100
AcDbEntity
  8
0
 62
    18
420
        0
370
    25
100
AcDbLine
 10
126.8938411372016
 20
-19.02172424691686
 30
0.0
 11
125.6497507581016
 21
-21.07825972111608
 31
0.0
  0
SPLINE
  5
26A
330
70
100
AcDbEntity
  8
0
 62
    18
420
        0
370
    25
100
AcDbSpline
210
0.0
220
0.0
230
1.0
 70
     8
 71
     3
 72
     8
 73
     4
 74
     0
 42
0.0000000001
 43
0.0000000001
 40
0.0
 40
0.0
 40
0.0
 40
0.0
 40
1.0
 40
1.0
 40
1.0
 40
1.0
 10
125.6342372447718
 20
-21.09506247012124
 30
0.0
 10
125.6407155355921
 20
-21.09082729137974
 30
0.0
 10
125.6460451117856
 20
-21.08505480585012
 30
0.0
 10
125.6497507580753
 20
-21.07825972111992
 30
0.0
  0
LWPOLYLINE
  5
26B
330
70
100
AcDbEntity
  8
0
 62
    18
420
        0
370
    25
100
AcDbPolyline
 90
        8
 70
     0
 43
0.0
 10
125.6382277682017
 20
-1.487071036515987
 10
126.9878053436019
 20
-3.572174723316836
 10
128.4493698790017
 20
-5.515484990417022
 10
129.284924632502
 20
-6.44608785801619
 10
130.1967995391021
 20
-7.264828565916279
 10
130.6824525080017
 20
-7.597836896715975
 10
131.2302444991017
 20
-7.810868104716184
 10
131.4999821977021
 20
-7.838698701617122
  0
SPLINE
  5
26C
330
70
100
AcDbEntity
  8
0
 62
    18
420
        0
370
    25
100
AcDbSpline
210
0.0
220
0.0
230
1.0
 70
     8
 71
     3
 72
     8
 73
     4
 74
     0
 42
0.0000000001
 43
0.0000000001
 40
0.0
 40
0.0
 40
0.0
 40
0.0
 40
1.0
 40
1.0
 40
1.0
 40
1.0
 10
123.7116421929115
 20
0.0461608699127891
 30
0.0
 10
123.5012920020965
 20
-0.0883920297207954
 30
0.0
 10
123.3694399367802
 20
-0.3167665052617294
 30
0.0
 10
123.3580888023181
 20
-0.5662115639858661
 30
0.0
  0
LINE
  5
26D
330
70
100
AcDbEntity
  8
0
 62
    18
420
        0
370
    25
100
AcDbLine
 10
123.7116421929019
 20
0.046160869883271
 30
0.0
 11
125.2960250252018
 21
-0.8684838704162512
 31
0.0
  0
LINE
  5
26E
330
70
100
AcDbEntity
  8
0
 62
    18
420
        0
370
    25
100
AcDbLine
 10
124.9424716344018
 20
-1.480856304216084
 30
0.0
 11
123.3580888023021
 21
-0.5662115640166677
 31
0.0
  0
LWPOLYLINE
  5
26F
330
70
100
AcDbEntity
  8
0
 62
    18
420
        0
370
    25
100
AcDbPolyline
 90
        8
 70
     0
 43
0.0
 10
137.3615663888018
 20
-4.286343615416162
 10
137.5236376381016
 20
-4.071390638916372
 10
137.877365588902
 20
-3.500268253316131
 10
138.5166206782018
 20
-2.286793176816192
 10
139.0932799527019
 20
-1.045889652816435
 10
140.1642371987019
 20
1.498488948483108
 10
141.4475699886021
 20
4.908513355183451
 10
142.6348383092019
 20
8.333639507483146
  0
LWPOLYLINE
  5
270
330
70
100
AcDbEntity
  8
0
 62
    18
420
        0
370
    25
100
AcDbPolyline
 90
        3
 70
     0
 43
0.0
 10
134.136892412102
 20
3.425161159283429
 10
134.1366318700015
 20
3.431509751383892
 10
134.1364270438019
 20
3.436497990583802
  0
LWPOLYLINE
  5
271
330
70
100
AcDbEntity
  8
0
 62
    18
420
        0
370
    25
100
AcDbPolyline
 90
        5
 70
     0
 43
0.0
 10
134.136892412102
 20
3.425161159283429
 10
131.9270106549018
 20
2.149623393383499
 10
129.7168266223017
 20
0.8742601814834584
 10
127.6804037142018
 20
-0.3006086980168447
 10
125.6438617073017
 20
-1.475408785816942
  0
LINE
  5
272
330
70
100
AcDbEntity
  8
0
 62
    18
420
        0
370
    25
100
AcDbLine
 10
123.3580888023021
 20
-0.5662115640166677
 30
0.0
 11
123.3580888023021
 21
-15.51224870751627
 31
0.0
  0
LINE
  5
273
330
70
100
AcDbEntity
  8
0
 62
    18
420
        0
370
    25
100
AcDbLine
 10
140.6822049414021
 20
9.843058211783262
 30
0.0
 11
123.7116421929019
 21
0.046160869883271
 31
0.0
  0
LINE
  5
274
330
70
100
AcDbEntity
  8
0
 62
    18
420
        0
370
    25
100
AcDbLine
 10
142.2665877736019
 20
8.928413471483739
 30
0.0
 11
140.6822049414021
 21
9.843058211783262
 31
0.0
  0
LWPOLYLINE
  5
275
330
70
100
AcDbEntity
  8
0
 62
    18
420
        0
370
    25
100
AcDbPolyline
 90
        4
 70
     0
 43
0.0
 10
133.7832901107016
 20
4.028819628383422
 10
137.8094347578017
 20
6.353675508983596
 10
140.0380857613021
 20
7.641001513584011
 10
142.2665877736019
 20
8.928413471483739
  0
LWPOLYLINE
  5
276
330
70
100
AcDbEntity
  8
0
 62
    18
420
        0
370
    25
100
AcDbPolyline
 90
        5
 70
     0
 43
0.0
 10
142.6199563656017
 20
8.333650042583544
 10
141.9131029623018
 20
7.925623948983724
 10
139.0855727695017
 20
6.293453339383694
 10
136.6111699565016
 20
4.865100729983899
 10
134.1364270438019
 20
3.436497990583802
  0
SPLINE
  5
277
330
70
100
AcDbEntity
  8
0
 62
    18
420
        0
370
    25
100
AcDbSpline
210
0.0
220
0.0
230
1.0
 70
     8
 71
     3
 72
     8
 73
     4
 74
     0
 42
0.0000000001
 43
0.0000000001
 40
0.0
 40
0.0
 40
0.0
 40
0.0
 40
1.0
 40
1.0
 40
1.0
 40
1.0
 10
142.6199563655914
 20
8.333650042547608
 30
0.0
 10
142.6024538657581
 20
8.576506444709389
 30
0.0
 10
142.4715064830065
 20
8.79690722777611
 30
0.0
 10
142.2665877736571
 20
8.928413471467056
 30
0.0
  0
LWPOLYLINE
  5
278
330
70
100
AcDbEntity
  8
0
 62
    18
420
        0
370
    25
100
AcDbPolyline
 90
        4
 70
     0
 43
0.0
 10
142.620276071402
 20
8.324864116183826
 10
142.6202751552021
 20
8.324889308383317
 10
142.6201158060017
 20
8.329269651182929
 10
142.6199563656017
 20
8.333650042583544
  0
LWPOLYLINE
  5
279
330
70
100
AcDbEntity
  8
0
 62
    18
420
        0
370
    25
100
AcDbPolyline
 90
        5
 70
     0
 43
0.0
 10
142.620276071402
 20
8.324864116183826
 10
140.4188116300017
 20
7.053049327083959
 10
138.2097699673017
 20
5.777026699283205
 10
136.1734621811016
 20
4.601018348183964
 10
134.136892412102
 20
3.425161159283429
  0
LWPOLYLINE
  5
27A
330
70
100
AcDbEntity
  8
0
 62
    18
420
        0
370
    25
100
AcDbPolyline
 90
        5
 70
     0
 43
0.0
 10
142.6205944879018
 20
-11.28120017221671
 10
142.6206147828018
 20
-11.28118740811695
 10
142.6277295871019
 20
-11.27671246881709
 10
142.6312868461017
 20
-11.27447492381629
 10
142.634844009702
 20
-11.27223732871676
  0
LINE
  5
27B
330
70
100
AcDbEntity
  8
0
 62
    18
420
        0
370
    25
100
AcDbLine
 10
141.461630013502
 20
-10.61191873631609
 30
0.0
 11
142.6205944879018
 21
-11.28120017221671
 31
0.0
  0
SPLINE
  5
27C
330
70
100
AcDbEntity
  8
0
 62
    18
420
        0
370
    25
100
AcDbSpline
210
0.0
220
0.0
230
1.0
 70
     8
 71
     3
 72
     8
 73
     4
 74
     0
 42
0.0000000001
 43
0.0000000001
 40
0.0
 40
0.0
 40
0.0
 40
0.0
 40
1.0
 40
1.0
 40
1.0
 40
1.0
 10
142.6273897078553
 20
-11.29372573340122
 30
0.0
 10
142.6278060942095
 20
-11.2885730439299
 30
0.0
 10
142.6251409773639
 20
-11.28366046064247
 30
0.0
 10
142.620594487844
 20
-11.28120017215896
 30
0.0
  0
LWPOLYLINE
  5
27D
330
70
100
AcDbEntity
  8
0
 62
    18
420
        0
370
    25
100
AcDbPolyline
 90
        7
 70
     0
 43
0.0
 10
125.6491246043016
 20
-21.09507613251624
 10
126.3564842696019
 20
-20.68734225121631
 10
129.185805153802
 20
-19.05620211841694
 10
134.8433841105015
 20
-15.7919474300171
 10
136.9978357298017
 20
-14.5475975828168
 10
142.6199563670019
 20
-11.29802348371681
 10
142.6273897079015
 20
-11.29372573341662
  0
LWPOLYLINE
  5
27E
330
70
100
AcDbEntity
  8
0
 62
    18
420
        0
370
    25
100
AcDbPolyline
 90
        5
 70
     0
 43
0.0
 10
125.6497507581016
 20
-21.07825972111608
 10
125.6497498673021
 20
-21.07828367131606
 10
125.6494374196018
 20
-21.08668001621623
 10
125.6492810579019
 20
-21.0908781029167
 10
125.6491246043016
 20
-21.09507613251624
  0
SPLINE
  5
27F
330
70
100
AcDbEntity
  8
0
 62
    18
420
        0
370
    25
100
AcDbSpline
210
0.0
220
0.0
230
1.0
 70
     8
 71
     3
 72
     8
 73
     4
 74
     0
 42
0.0000000001
 43
0.0000000001
 40
0.0
 40
0.0
 40
0.0
 40
0.0
 40
1.0
 40
1.0
 40
1.0
 40
1.0
 10
124.9424716346392
 20
-21.07783578952726
 30
0.0
 10
125.1599581352593
 20
-21.20268708749976
 30
0.0
 10
125.4258084390656
 20
-21.20917308646281
 30
0.0
 10
125.649124604319
 20
-21.09507613254319
 30
0.0
  0
SPLINE
  5
280
330
70
100
AcDbEntity
  8
0
 62
    18
420
        0
370
    25
100
AcDbSpline
210
0.0
220
0.0
230
1.0
 70
     8
 71
     3
 72
     8
 73
     4
 74
     0
 42
0.0000000001
 43
0.0000000001
 40
0.0
 40
0.0
 40
0.0
 40
0.0
 40
1.0
 40
1.0
 40
1.0
 40
1.0
 10
142.6199563655664
 20
8.333650042566858
 30
0.0
 10
142.7032507555427
 20
8.368949319812221
 30
0.0
 10
142.7597537862592
 20
8.447930998137907
 30
0.0
 10
142.7662629879494
 20
8.538161949973208
 30
0.0
  0
LWPOLYLINE
  5
281
330
70
100
AcDbEntity
  8
0
 62
    18
420
        0
370
    25
100
AcDbPolyline
 90
        4
 70
     0
 43
0.0
 10
142.761927410402
 20
8.526594032283805
 10
142.7654200445018
 20
8.507042899683764
 10
142.7260199485019
 20
8.414383791483087
 10
142.6348383092019
 20
8.333639507483146
  0
SPLINE
  5
282
330
70
100
AcDbEntity
  8
0
 62
    18
420
        0
370
    25
100
AcDbSpline
210
0.0
220
0.0
230
1.0
 70
     8
 71
     3
 72
     8
 73
     4
 74
     0
 42
0.0000000001
 43
0.0000000001
 40
0.0
 40
0.0
 40
0.0
 40
0.0
 40
1.0
 40
1.0
 40
1.0
 40
1.0
 10
142.6202760714572
 20
8.324864116147891
 30
0.0
 10
142.6251842781922
 20
8.327698470622069
 30
0.0
 10
142.6300392014938
 20
8.330624109700487
 30
0.0
 10
142.6348383092129
 20
8.333639507474163
 30
0.0
  0
LWPOLYLINE
  5
283
330
70
100
AcDbEntity
  8
0
 62
    18
420
        0
370
    25
100
AcDbPolyline
 90
        4
 70
     0
 43
0.0
 10
142.5192874680019
 20
-11.50291166171708
 10
142.5387751069018
 20
-11.4956891031167
 10
142.601980518202
 20
-11.41369200651633
 10
142.6273897079015
 20
-11.29372573341662
  0
SPLINE
  5
284
330
70
100
AcDbEntity
  8
0
 62
    18
420
        0
370
    25
100
AcDbSpline
210
0.0
220
0.0
230
1.0
 70
     8
 71
     3
 72
     8
 73
     4
 74
     0
 42
0.0000000001
 43
0.0000000001
 40
0.0
 40
0.0
 40
0.0
 40
0.0
 40
1.0
 40
1.0
 40
1.0
 40
1.0
 10
140.9321846245356
 20
9.867812236990308
 30
0.0
 10
140.8504088578082
 20
9.904747644290369
 30
0.0
 10
140.7551485689475
 20
9.895314575306723
 30
0.0
 10
140.6822049413764
 20
9.843058211742194
 30
0.0
  0
SPLINE
  5
285
330
70
100
AcDbEntity
  8
0
 62
    18
420
        0
370
    25
100
AcDbSpline
210
0.0
220
0.0
230
1.0
 70
     8
 71
     3
 72
     8
 73
     4
 74
     0
 42
0.0000000001
 43
0.0000000001
 40
0.0
 40
0.0
 40
0.0
 40
0.0
 40
1.0
 40
1.0
 40
1.0
 40
1.0
 10
136.8815059925789
 20
-35.41789348804943
 30
0.0
 10
140.8152495615761
 20
-37.46319030409929
 30
0.0
 10
145.4989077896274
 20
-37.46319030409929
 30
0.0
 10
149.4326513586246
 20
-35.41789348804943
 30
0.0
  0
SPLINE
  5
286
330
70
100
AcDbEntity
  8
0
 62
    18
420
        0
370
    25
100
AcDbSpline
210
0.0
220
0.0
230
1.0
 70
     8
 71
     3
 72
     8
 73
     4
 74
     0
 42
0.0000000001
 43
0.0000000001
 40
0.0
 40
0.0
 40
0.0
 40
0.0
 40
1.0
 40
1.0
 40
1.0
 40
1.0
 10
150.4049231826817
 20
-37.10191768125629
 30
0.0
 10
150.3737075629113
 20
-36.41594376976492
 30
0.0
 10
150.0111143832907
 20
-35.78791396202831
 30
0.0
 10
149.4326513585495
 20
-35.41789348803659
 30
0.0
  0
SPLINE
  5
287
330
70
100
AcDbEntity
  8
0
 62
    18
420
        0
370
    25
100
AcDbSpline
210
0.0
220
0.0
230
1.0
 70
     8
 71
     3
 72
     8
 73
     4
 74
     0
 42
0.0000000001
 43
0.0000000001
 40
0.0
 40
0.0
 40
0.0
 40
0.0
 40
1.0
 40
1.0
 40
1.0
 40
1.0
 10
135.9092341684396
 20
-37.10191768121137
 30
0.0
 10
140.4542026477458
 20
-39.45683226161245
 30
0.0
 10
145.8599547034577
 20
-39.45683226161245
 30
0.0
 10
150.4049231827639
 20
-37.10191768121137
 30
0.0
  0
SPLINE
  5
288
330
70
100
AcDbEntity
  8
0
 62
    18
420
        0
370
    25
100
AcDbSpline
210
0.0
220
0.0
230
1.0
 70
     8
 71
     3
 72
     8
 73
     4
 74
     0
 42
0.0000000001
 43
0.0000000001
 40
0.0
 40
0.0
 40
0.0
 40
0.0
 40
1.0
 40
1.0
 40
1.0
 40
1.0
 10
136.8815059925538
 20
-35.41789348803659
 30
0.0
 10
136.3030429678133
 20
-35.78791396202831
 30
0.0
 10
135.9404497881927
 20
-36.41594376976492
 30
0.0
 10
135.9092341684216
 20
-37.10191768125629
 30
0.0
  0
LINE
  5
289
330
70
100
AcDbEntity
  8
0
 62
    18
420
        0
370
    25
100
AcDbLine
 10
150.4049231827016
 20
-37.10191768121651
 30
0.0
 11
150.4049231827016
 21
-39.85774292131691
 31
0.0
  0
SPLINE
  5
28A
330
70
100
AcDbEntity
  8
0
 62
    18
420
        0
370
    25
100
AcDbSpline
210
0.0
220
0.0
230
1.0
 70
     8
 71
     3
 72
     8
 73
     4
 74
     0
 42
0.0000000001
 43
0.0000000001
 40
0.0
 40
0.0
 40
0.0
 40
0.0
 40
1.0
 40
1.0
 40
1.0
 40
1.0
 10
135.9092341684396
 20
-39.85774292131178
 30
0.0
 10
140.4542026477458
 20
-42.21265750171157
 30
0.0
 10
145.8599547034577
 20
-42.21265750171157
 30
0.0
 10
150.4049231827639
 20
-39.85774292131178
 30
0.0
  0
LINE
  5
28B
330
70
100
AcDbEntity
  8
0
 62
    18
420
        0
370
    25
100
AcDbLine
 10
135.9092341684017
 20
-37.10191768121651
 30
0.0
 11
135.9092341684017
 21
-39.85774292131691
 31
0.0
  0
LINE
  5
28C
330
70
100
AcDbEntity
  8
0
 62
    18
420
        0
370
    25
100
AcDbLine
 10
136.8815059925019
 20
-35.41789348801606
 30
0.0
 11
119.557389853502
 21
-25.4168941182164
 31
0.0
  0
LINE
  5
28D
330
70
100
AcDbEntity
  8
0
 62
    18
420
        0
370
    25
100
AcDbLine
 10
135.9092341684017
 20
-37.10191768121651
 30
0.0
 11
118.5851180293018
 21
-27.10091831141684
 31
0.0
  0
SPLINE
  5
28E
330
70
100
AcDbEntity
  8
0
 62
    18
420
        0
370
    25
100
AcDbSpline
210
0.0
220
0.0
230
1.0
 70
     8
 71
     3
 72
     8
 73
     4
 74
     0
 42
0.0000000001
 43
0.0000000001
 40
0.0
 40
0.0
 40
0.0
 40
0.0
 40
1.0
 40
1.0
 40
1.0
 40
1.0
 10
119.5573898534539
 20
-25.41689411813683
 30
0.0
 10
118.9789268287127
 20
-25.78691459212854
 30
0.0
 10
118.616333649092
 20
-26.41494439986515
 30
0.0
 10
118.5851180293217
 20
-27.10091831135652
 30
0.0
  0
LINE
  5
28F
330
70
100
AcDbEntity
  8
0
 62
    18
420
        0
370
    25
100
AcDbLine
 10
154.9121697652016
 20
-32.25463484371689
 30
0.0
 11
149.4326513586015
 21
-35.41789348801606
 31
0.0
  0
SPLINE
  5
290
330
70
100
AcDbEntity
  8
0
 62
    18
420
        0
370
    25
100
AcDbSpline
210
0.0
220
0.0
230
1.0
 70
     8
 71
     3
 72
     8
 73
     4
 74
     0
 42
0.0000000001
 43
0.0000000001
 40
0.0
 40
0.0
 40
0.0
 40
0.0
 40
1.0
 40
1.0
 40
1.0
 40
1.0
 10
156.6690803189445
 20
-32.89620262448774
 30
0.0
 10
156.1996011127777
 20
-32.4449897090693
 30
0.0
 10
155.5619371032632
 20
-32.21213512089192
 30
0.0
 10
154.9121697651939
 20
-32.25463484372074
 30
0.0
  0
LWPOLYLINE
  5
291
330
70
100
AcDbEntity
  8
0
 62
    18
420
        0
370
    25
100
AcDbPolyline
 90
        3
 70
     0
 43
0.0
 10
156.6690803190016
 20
-32.89620262451597
 10
156.886620401702
 20
-33.24295832261626
 10
156.9216469500016
 20
-33.3398931273162
  0
LINE
  5
292
330
70
100
AcDbEntity
  8
0
 62
    18
420
        0
370
    25
100
AcDbLine
 10
156.9216469500016
 20
-33.3398931273162
 30
0.0
 11
150.4049231827016
 21
-37.10191768121651
 31
0.0
  0
LINE
  5
293
330
70
100
AcDbEntity
  8
0
 62
    18
420
        0
370
    25
100
AcDbLine
 10
118.5851180293018
 20
-29.85674355151596
 30
0.0
 11
135.9092341684017
 21
-39.85774292131691
 31
0.0
  0
LINE
  5
294
330
70
100
AcDbEntity
  8
0
 62
    18
420
        0
370
    25
100
AcDbLine
 10
118.5851180293018
 20
-27.10091831141684
 30
0.0
 11
118.5851180293018
 21
-29.85674355151596
 31
0.0
  0
SPLINE
  5
295
330
70
100
AcDbEntity
  8
0
 62
    18
420
        0
370
    25
100
AcDbSpline
210
0.0
220
0.0
230
1.0
 70
     8
 71
     3
 72
     8
 73
     4
 74
     0
 42
0.0000000001
 43
0.0000000001
 40
0.0
 40
0.0
 40
0.0
 40
0.0
 40
1.0
 40
1.0
 40
1.0
 40
1.0
 10
156.5459264729991
 20
-36.31261718204
 30
0.0
 10
157.004742085001
 20
-35.39301476135126
 30
0.0
 10
157.1372336981077
 20
-34.34473278220536
 30
0.0
 10
156.9216469500914
 20
-33.33989312731876
 30
0.0
  0
LINE
  5
296
330
70
100
AcDbEntity
  8
0
 62
    18
420
        0
370
    25
100
AcDbLine
 10
150.4049231827016
 20
-39.85774292131691
 30
0.0
 11
156.5459264730017
 21
-36.31261718201689
 31
0.0
  0
LINE
  5
297
330
70
100
AcDbEntity
  8
0
 62
    18
420
        0
370
    25
100
AcDbLine
 10
154.9121697652016
 20
-31.78970822601694
 30
0.0
 11
154.9121697652016
 21
-32.25463484371689
 31
0.0
  0
LWPOLYLINE
  5
298
330
70
100
AcDbEntity
  8
0
 62
    18
420
        0
370
    25
100
AcDbPolyline
 90
        3
 70
     0
 43
0.0
 10
156.5459264730017
 20
-36.31261718201689
 10
156.4796037619015
 20
-36.41654419861724
 10
156.4031733702021
 20
-36.47645824251646
  0
LWPOLYLINE
  5
299
330
70
100
AcDbEntity
  8
0
 62
    18
420
        0
370
    25
100
AcDbPolyline
 90
       16
 70
     0
 43
0.0
 10
119.557389853502
 20
-25.4168941182164
 10
118.9357921286021
 20
-25.01836111431667
 10
118.389761246002
 20
-24.58450224611603
 10
117.9252796343019
 20
-24.12007096201615
 10
117.547436251302
 20
-23.63015566831681
 10
117.2603708282017
 20
-23.1201239797163
 10
117.067228513702
 20
-22.59556390991606
 10
116.9701254155021
 20
-22.06222264891598
 10
116.9701254155021
 20
-21.52594359511672
 10
117.067228513702
 20
-20.99260233401655
 10
117.2603708282017
 20
-20.46804226421631
 10
117.547436251302
 20
-19.95801057561707
 10
117.9252796343019
 20
-19.46809528191646
 10
118.389761246002
 20
-19.00366399781657
 10
118.9357921286021
 20
-18.56980512961721
 10
119.557389853502
 20
-18.17127212571621
  0
SPLINE
  5
29A
330
70
100
AcDbEntity
  8
0
 62
    18
420
        0
370
    25
100
AcDbSpline
210
0.0
220
0.0
230
1.0
 70
     8
 71
     3
 72
     8
 73
     4
 74
     0
 42
0.0000000001
 43
0.0000000001
 40
0.0
 40
0.0
 40
0.0
 40
0.0
 40
1.0
 40
1.0
 40
1.0
 40
1.0
 10
115.5829625365308
 20
-25.67265197840284
 30
0.0
 10
115.5874910070235
 20
-26.26186089038514
 30
0.0
 10
115.7338240683791
 20
-26.84131729474849
 30
0.0
 10
116.0095895619594
 20
-27.36202934718634
 30
0.0
  0
SPLINE
  5
29B
330
70
100
AcDbEntity
  8
0
 62
    18
420
        0
370
    25
100
AcDbSpline
210
0.0
220
0.0
230
1.0
 70
     8
 71
     3
 72
     8
 73
     4
 74
     0
 42
0.0000000001
 43
0.0000000001
 40
0.0
 40
0.0
 40
0.0
 40
0.0
 40
1.0
 40
1.0
 40
1.0
 40
1.0
 10
120.5296616775822
 20
-19.85529631895644
 30
0.0
 10
120.4984460578112
 20
-19.16932240746507
 30
0.0
 10
120.1358528781905
 20
-18.54129259972846
 30
0.0
 10
119.55738985345
 20
-18.17127212573674
 30
0.0
  0
LINE
  5
29C
330
70
100
AcDbEntity
  8
0
 62
    18
420
        0
370
    25
100
AcDbLine
 10
120.5296616776021
 20
-22.61112155911717
 30
0.0
 11
120.5296616776021
 21
-19.85529631901676
 31
0.0
  0
LINE
  5
29D
330
70
100
AcDbEntity
  8
0
 62
    18
420
        0
370
    25
100
AcDbLine
 10
119.557389853502
 20
-18.17127212571621
 30
0.0
 11
158.0947094281018
 21
4.075848921384007
 31
0.0
  0
SPLINE
  5
29E
330
70
100
AcDbEntity
  8
0
 62
    18
420
        0
370
    25
100
AcDbSpline
210
0.0
220
0.0
230
1.0
 70
     8
 71
     3
 72
     8
 73
     4
 74
     0
 42
0.0000000001
 43
0.0000000001
 40
0.0
 40
0.0
 40
0.0
 40
0.0
 40
1.0
 40
1.0
 40
1.0
 40
1.0
 10
159.0669812522821
 20
2.391824728143775
 30
0.0
 10
159.0357656325117
 20
3.077798639635151
 30
0.0
 10
158.6731724528904
 20
3.705828447371757
 30
0.0
 10
158.0947094281499
 20
4.075848921363473
 30
0.0
  0
LINE
  5
29F
330
70
100
AcDbEntity
  8
0
 62
    18
420
        0
370
    25
100
AcDbLine
 10
159.066981252302
 20
2.391824728183561
 30
0.0
 11
120.5296616776021
 21
-19.85529631901676
 31
0.0
  0
LINE
  5
2A0
330
70
100
AcDbEntity
  8
0
 62
    18
420
        0
370
    25
100
AcDbLine
 10
159.066981252302
 20
-0.3640005119168461
 30
0.0
 11
159.066981252302
 21
2.391824728183561
 31
0.0
  0
LINE
  5
2A1
330
70
100
AcDbEntity
  8
0
 62
    18
420
        0
370
    25
100
AcDbLine
 10
120.5296616776021
 20
-22.61112155911717
 30
0.0
 11
159.066981252302
 21
-0.3640005119168461
 31
0.0
  0
SPLINE
  5
2A2
330
70
100
AcDbEntity
  8
0
 62
    18
420
        0
370
    25
100
AcDbSpline
210
0.0
220
0.0
230
1.0
 70
     8
 71
     3
 72
     8
 73
     4
 74
     0
 42
0.0000000001
 43
0.0000000001
 40
0.0
 40
0.0
 40
0.0
 40
0.0
 40
1.0
 40
1.0
 40
1.0
 40
1.0
 10
137.4428828649219
 20
-7.381827174139591
 30
0.0
 10
137.9299631602938
 20
-7.157204605660676
 30
0.0
 10
138.3956243253181
 20
-6.888785496228282
 30
0.0
 10
138.8341222761904
 20
-6.579880883944116
 30
0.0
  0
LINE
  5
2A3
330
70
100
AcDbEntity
  8
0
 62
    18
420
        0
370
    25
100
AcDbLine
 10
182.4904525266018
 20
-16.33403108511618
 30
0.0
 11
182.4904525266018
 21
-17.98984173981609
 31
0.0
  0
LINE
  5
2A4
330
70
100
AcDbEntity
  8
0
 62
    18
420
        0
370
    25
100
AcDbLine
 10
187.969970933302
 20
-13.17077244081702
 30
0.0
 11
182.4904525266018
 21
-16.33403108511618
 31
0.0
  0
SPLINE
  5
2A5
330
70
100
AcDbEntity
  8
0
 62
    18
420
        0
370
    25
100
AcDbSpline
210
0.0
220
0.0
230
1.0
 70
     8
 71
     3
 72
     8
 73
     4
 74
     0
 42
0.0000000001
 43
0.0000000001
 40
0.0
 40
0.0
 40
0.0
 40
0.0
 40
1.0
 40
1.0
 40
1.0
 40
1.0
 10
188.9422427573816
 20
-14.85479663405725
 30
0.0
 10
188.9110271376112
 20
-14.16882272256459
 30
0.0
 10
188.5484339579906
 20
-13.54079291482798
 30
0.0
 10
187.9699709332494
 20
-13.17077244083627
 30
0.0
  0
LINE
  5
2A6
330
70
100
AcDbEntity
  8
0
 62
    18
420
        0
370
    25
100
AcDbLine
 10
188.9422427574015
 20
-14.85479663401618
 30
0.0
 11
182.4255189901015
 21
-18.6168211880166
 31
0.0
  0
LWPOLYLINE
  5
2A7
330
70
100
AcDbEntity
  8
0
 62
    18
420
        0
370
    25
100
AcDbPolyline
 90
        3
 70
     0
 43
0.0
 10
182.4255189901015
 20
-18.6168211880166
 10
182.4872346896021
 20
-18.13287921761611
 10
182.4904525266018
 20
-17.98984173981609
  0
LINE
  5
2A8
330
70
100
AcDbEntity
  8
0
 62
    18
420
        0
370
    25
100
AcDbLine
 10
182.4904525266018
 20
-17.98984173981609
 30
0.0
 11
180.7335419729019
 21
-16.97559886591654
 31
0.0
  0
SPLINE
  5
2A9
330
70
100
AcDbEntity
  8
0
 62
    18
420
        0
370
    25
100
AcDbSpline
210
0.0
220
0.0
230
1.0
 70
     8
 71
     3
 72
     8
 73
     4
 74
     0
 42
0.0000000001
 43
0.0000000001
 40
0.0
 40
0.0
 40
0.0
 40
0.0
 40
1.0
 40
1.0
 40
1.0
 40
1.0
 10
182.4904525266101
 20
-16.33403108512003
 30
0.0
 10
181.8406851885402
 20
-16.29153136229121
 30
0.0
 10
181.2030211790257
 20
-16.52438595046987
 30
0.0
 10
180.7335419728589
 20
-16.97559886588702
 30
0.0
  0
SPLINE
  5
2AA
330
70
100
AcDbEntity
  8
0
 62
    18
420
        0
370
    25
100
AcDbSpline
210
0.0
220
0.0
230
1.0
 70
     8
 71
     3
 72
     8
 73
     4
 74
     0
 42
0.0000000001
 43
0.0000000001
 40
0.0
 40
0.0
 40
0.0
 40
0.0
 40
1.0
 40
1.0
 40
1.0
 40
1.0
 10
180.856695818914
 20
-20.03318645980092
 30
0.0
 10
180.9488488685355
 20
-20.12296132941112
 30
0.0
 10
181.0521515456443
 20
-20.20052763245479
 30
0.0
 10
181.1640681643618
 20
-20.26398141266552
 30
0.0
  0
SPLINE
  5
2AB
330
70
100
AcDbEntity
  8
0
 62
    18
420
        0
370
    25
100
AcDbSpline
210
0.0
220
0.0
230
1.0
 70
     8
 71
     3
 72
     8
 73
     4
 74
     0
 42
0.0000000001
 43
0.0000000001
 40
0.0
 40
0.0
 40
0.0
 40
0.0
 40
1.0
 40
1.0
 40
1.0
 40
1.0
 10
180.4809753417864
 20
-17.4942600342007
 30
0.0
 10
180.206275189337
 20
-18.35308688331795
 30
0.0
 10
180.3450312175633
 20
-19.29072900889019
 30
0.0
 10
180.8566958188788
 20
-20.03318645971108
 30
0.0
  0
LWPOLYLINE
  5
2AC
330
70
100
AcDbEntity
  8
0
 62
    18
420
        0
370
    25
100
AcDbPolyline
 90
        3
 70
     0
 43
0.0
 10
180.7335419729019
 20
-16.97559886591654
 10
180.5160018902016
 20
-17.36800238231705
 10
180.4809753418019
 20
-17.4942600342161
  0
SPLINE
  5
2AD
330
70
100
AcDbEntity
  8
0
 62
    18
420
        0
370
    25
100
AcDbSpline
210
0.0
220
0.0
230
1.0
 70
     8
 71
     3
 72
     8
 73
     4
 74
     0
 42
0.0000000001
 43
0.0000000001
 40
0.0
 40
0.0
 40
0.0
 40
0.0
 40
1.0
 40
1.0
 40
1.0
 40
1.0
 10
182.4255189900862
 20
-18.6168211880012
 30
0.0
 10
182.1508188376373
 20
-19.47564803711716
 30
0.0
 10
182.289574865863
 20
-20.41329016268941
 30
0.0
 10
182.8012394671785
 20
-21.15574761351158
 30
0.0
  0
LWPOLYLINE
  5
2AE
330
70
100
AcDbEntity
  8
0
 62
    18
420
        0
370
    25
100
AcDbPolyline
 90
        7
 70
     0
 43
0.0
 10
182.7550584220015
 20
-21.18244053841618
 10
182.7988931697016
 20
-21.20609727311601
 10
182.8271758109018
 20
-21.21767613091673
 10
182.8407147636019
 20
-21.21722272541725
 10
182.8366566088016
 20
-21.20098416191656
 10
182.8073222699021
 20
-21.1626467288165
 10
182.8012394671015
 20
-21.15574761351671
  0
LINE
  5
2AF
330
70
100
AcDbEntity
  8
0
 62
    18
420
        0
370
    25
100
AcDbLine
 10
182.7550584220015
 20
-21.18244053841618
 30
0.0
 11
181.1640681643015
 21
-20.26398141261675
 31
0.0
  0
LINE
  5
2B0
330
70
100
AcDbEntity
  8
0
 62
    18
420
        0
370
    25
100
AcDbLine
 10
188.9422427574015
 20
-14.85479663401618
 30
0.0
 11
188.9422427574015
 21
-17.61062187421669
 31
0.0
  0
LINE
  5
2B1
330
70
100
AcDbEntity
  8
0
 62
    18
420
        0
370
    25
100
AcDbLine
 10
182.8012394671015
 20
-21.15574761351671
 30
0.0
 11
188.9422427574015
 21
-17.61062187421669
 31
0.0
  0
LWPOLYLINE
  5
2B2
330
70
100
AcDbEntity
  8
0
 62
    18
420
        0
370
    25
100
AcDbPolyline
 90
       16
 70
     0
 43
0.0
 10
187.969970933302
 20
-5.925150448416941
 10
188.5915686582019
 20
-6.323683452216556
 10
189.1375995407019
 20
-6.757542320516021
 10
189.602081152402
 20
-7.221973604617187
 10
189.9799245354019
 20
-7.711888898216415
 10
190.2669899585015
 20
-8.221920586917034
 10
190.4601322730019
 20
-8.746480656715991
 10
190.5572353712018
 20
-9.279821917716065
 10
190.5572353712018
 20
-9.816100971516611
 10
190.4601322730019
 20
-10.34944223251669
 10
190.2669899585015
 20
-10.87400230231692
 10
189.9799245354019
 20
-11.38403399101626
 10
189.602081152402
 20
-11.87394928461677
 10
189.1375995407019
 20
-12.33838056871666
 10
188.5915686582019
 20
-12.77223943701612
 10
187.969970933302
 20
-13.17077244081702
  0
SPLINE
  5
2B3
330
70
100
AcDbEntity
  8
0
 62
    18
420
        0
370
    25
100
AcDbSpline
210
0.0
220
0.0
230
1.0
 70
     8
 71
     3
 72
     8
 73
     4
 74
     0
 42
0.0000000001
 43
0.0000000001
 40
0.0
 40
0.0
 40
0.0
 40
0.0
 40
1.0
 40
1.0
 40
1.0
 40
1.0
 10
191.5304950938287
 20
-15.09105199095726
 30
0.0
 10
191.7981919683099
 20
-14.57676505704459
 30
0.0
 10
191.9400447299718
 20
-14.00630069866213
 30
0.0
 10
191.9443982502283
 20
-13.42653030112411
 30
0.0
  0
SPLINE
  5
2B4
330
70
100
AcDbEntity
  8
0
 62
    18
420
        0
370
    25
100
AcDbSpline
210
0.0
220
0.0
230
1.0
 70
     8
 71
     3
 72
     8
 73
     4
 74
     0
 42
0.0000000001
 43
0.0000000001
 40
0.0
 40
0.0
 40
0.0
 40
0.0
 40
1.0
 40
1.0
 40
1.0
 40
1.0
 10
187.9699709332539
 20
-5.925150448436192
 30
0.0
 10
187.3915079085134
 20
-6.295170922427907
 30
0.0
 10
187.0289147288921
 20
-6.923200730164514
 30
0.0
 10
186.9976991091217
 20
-7.609174641657173
 30
0.0
  0
LINE
  5
2B5
330
70
100
AcDbEntity
  8
0
 62
    18
420
        0
370
    25
100
AcDbLine
 10
186.9976991091018
 20
-10.36499988171651
 30
0.0
 11
186.9976991091018
 21
-7.609174641616104
 31
0.0
  0
SPLINE
  5
2B6
330
70
100
AcDbEntity
  8
0
 62
    18
420
        0
370
    25
100
AcDbSpline
210
0.0
220
0.0
230
1.0
 70
     8
 71
     3
 72
     8
 73
     4
 74
     0
 42
0.0000000001
 43
0.0000000001
 40
0.0
 40
0.0
 40
0.0
 40
0.0
 40
1.0
 40
1.0
 40
1.0
 40
1.0
 10
170.6458547941539
 20
4.075848921363473
 30
0.0
 10
170.0673917694134
 20
3.705828447371757
 30
0.0
 10
169.7047985897921
 20
3.077798639635151
 30
0.0
 10
169.6735829700217
 20
2.391824728143775
 30
0.0
  0
LINE
  5
2B7
330
70
100
AcDbEntity
  8
0
 62
    18
420
        0
370
    25
100
AcDbLine
 10
170.6458547942021
 20
4.075848921384007
 30
0.0
 11
187.969970933302
 21
-5.925150448416941
 31
0.0
  0
LINE
  5
2B8
330
70
100
AcDbEntity
  8
0
 62
    18
420
        0
370
    25
100
AcDbLine
 10
186.9976991091018
 20
-7.609174641616104
 30
0.0
 11
169.6735829701019
 21
2.391824728183561
 31
0.0
  0
LINE
  5
2B9
330
70
100
AcDbEntity
  8
0
 62
    18
420
        0
370
    25
100
AcDbLine
 10
169.6735829701019
 20
-0.3640005119168461
 30
0.0
 11
186.9976991091018
 21
-10.36499988171651
 31
0.0
  0
LINE
  5
2BA
330
70
100
AcDbEntity
  8
0
 62
    18
420
        0
370
    25
100
AcDbLine
 10
169.6735829701019
 20
-0.3640005119168461
 30
0.0
 11
169.6735829701019
 21
2.391824728183561
 31
0.0
  0
SPLINE
  5
2BB
330
70
100
AcDbEntity
  8
0
 62
    18
420
        0
370
    25
100
AcDbSpline
210
0.0
220
0.0
230
1.0
 70
     8
 71
     3
 72
     8
 73
     4
 74
     0
 42
0.0000000001
 43
0.0000000001
 40
0.0
 40
0.0
 40
0.0
 40
0.0
 40
1.0
 40
1.0
 40
1.0
 40
1.0
 10
170.6458547942245
 20
4.075848921416092
 30
0.0
 10
166.7121112252273
 20
6.121145737465959
 30
0.0
 10
162.028452997176
 20
6.121145737465959
 30
0.0
 10
158.0947094281794
 20
4.075848921416092
 30
0.0
  0
SPLINE
  5
2BC
330
70
100
AcDbEntity
  8
0
 62
    18
420
        0
370
    25
100
AcDbSpline
210
0.0
220
0.0
230
1.0
 70
     8
 71
     3
 72
     8
 73
     4
 74
     0
 42
0.0000000001
 43
0.0000000001
 40
0.0
 40
0.0
 40
0.0
 40
0.0
 40
1.0
 40
1.0
 40
1.0
 40
1.0
 10
169.6735829700936
 20
2.391824728159176
 30
0.0
 10
166.3493584997358
 20
4.120514028293156
 30
0.0
 10
162.3912057226682
 20
4.120514028293156
 30
0.0
 10
159.0669812523097
 20
2.391824728159176
 30
0.0
  0
SPLINE
  5
2BD
330
70
100
AcDbEntity
  8
0
 62
    18
420
        0
370
    25
100
AcDbSpline
210
0.0
220
0.0
230
1.0
 70
     8
 71
     3
 72
     8
 73
     4
 74
     0
 42
0.0000000001
 43
0.0000000001
 40
0.0
 40
0.0
 40
0.0
 40
0.0
 40
1.0
 40
1.0
 40
1.0
 40
1.0
 10
169.6735829700936
 20
-0.3640005119412307
 30
0.0
 10
166.3493584997358
 20
1.364688788194032
 30
0.0
 10
162.3912057226682
 20
1.364688788194032
 30
0.0
 10
159.0669812523097
 20
-0.3640005119412307
 30
0.0
  0
LWPOLYLINE
  5
2BE
330
70
100
AcDbEntity
  8
0
 62
     8
420
  8421504
370
    25
100
AcDbPolyline
 90
        5
 70
     0
 43
0.0
 10
125.6342369531016
 20
-1.489188757316969
 10
125.6342092996019
 20
-2.306037507117151
 10
125.6340990395015
 20
-5.573296319017149
 10
125.6339928803019
 20
-12.1065208276168
 10
125.634025011702
 20
-14.19837870041722
  0
LWPOLYLINE
  5
2BF
330
70
100
AcDbEntity
  8
0
 62
     8
420
  8421504
370
    25
100
AcDbPolyline
 90
        3
 70
     0
 43
0.0
 10
125.6341945463019
 20
-19.74890274541627
 10
125.6342369613019
 20
-21.08647888551651
 10
125.6342372447018
 20
-21.09506247011611
  0
LINE
  5
2C0
330
70
100
AcDbEntity
  8
0
 62
     8
420
  8421504
370
    25
100
AcDbLine
 10
124.942471634602
 20
-21.07783578951699
 30
0.0
 11
124.9427163140017
 21
-20.14808463201703
 31
0.0
  0
LWPOLYLINE
  5
2C1
330
70
100
AcDbEntity
  8
0
 62
     8
420
  8421504
370
    25
100
AcDbPolyline
 90
        4
 70
     0
 43
0.0
 10
124.9441772739016
 20
-14.5966193226162
 10
124.9441803826016
 20
-14.58480638341683
 10
124.9441947148021
 20
-8.090799167116344
 10
124.9424716344018
 20
-1.480856304216084
  0
LINE
  5
2C2
330
70
100
AcDbEntity
  8
0
 62
     8
420
  8421504
370
    25
100
AcDbLine
 10
124.1373185994018
 20
-20.61303083601698
 30
0.0
 11
124.942471634602
 21
-21.07783578951699
 31
0.0
  0
LWPOLYLINE
  5
2C3
330
70
100
AcDbEntity
  8
0
 62
     8
420
  8421504
370
    25
100
AcDbPolyline
 90
        3
 70
     0
 43
0.0
 10
142.634844009702
 20
-11.27223732871676
 10
142.6353776335017
 20
-10.45568066941686
 10
142.6356807577019
 20
-9.934153668316199
  0
LWPOLYLINE
  5
2C4
330
70
100
AcDbEntity
  8
0
 62
     8
420
  8421504
370
    25
100
AcDbPolyline
 90
        5
 70
     0
 43
0.0
 10
142.6379445147018
 20
-4.382224914016459
 10
142.6388315666016
 20
-0.657066325717226
 10
142.6383020664015
 20
1.831076483183086
 10
142.6348440025015
 20
8.325052798883437
 10
142.6348383092019
 20
8.333639507483146
  0
SPLINE
  5
2C5
330
70
100
AcDbEntity
  8
0
 62
     8
420
  8421504
370
    25
100
AcDbSpline
210
0.0
220
0.0
230
1.0
 70
     8
 71
     3
 72
     8
 73
     4
 74
     0
 42
0.0000000001
 43
0.0000000001
 40
0.0
 40
0.0
 40
0.0
 40
0.0
 40
1.0
 40
1.0
 40
1.0
 40
1.0
 10
125.5458619348557
 20
-21.30684058259848
 30
0.0
 10
125.6146293835132
 20
-21.25889529780309
 30
0.0
 10
125.6536945668188
 20
-21.17878292899721
 30
0.0
 10
125.6491246043049
 20
-21.09507613254961
 30
0.0
  0
SPLINE
  5
2C6
330
70
100
AcDbEntity
  8
0
 62
     8
420
  8421504
370
    25
100
AcDbSpline
210
0.0
220
0.0
230
1.0
 70
     8
 71
     3
 72
     8
 73
     4
 74
     0
 42
0.0000000001
 43
0.0000000001
 40
0.0
 40
0.0
 40
0.0
 40
0.0
 40
1.0
 40
1.0
 40
1.0
 40
1.0
 10
124.9424716346001
 20
-21.07783578957218
 30
0.0
 10
124.9325928672112
 20
-21.16733304840275
 30
0.0
 10
124.972300239503
 20
-21.25509573767116
 30
0.0
 10
125.0460453418668
 20
-21.30675819270912
 30
0.0
  0
SPLINE
  5
2C7
330
70
100
AcDbEntity
  8
0
 62
     8
420
  8421504
370
    25
100
AcDbSpline
210
0.0
220
0.0
230
1.0
 70
     8
 71
     3
 72
     8
 73
     4
 74
     0
 42
0.0000000001
 43
0.0000000001
 40
0.0
 40
0.0
 40
0.0
 40
0.0
 40
1.0
 40
1.0
 40
1.0
 40
1.0
 10
142.5165674568355
 20
8.953167496789607
 30
0.0
 10
142.4347916901081
 20
8.990102904089667
 30
0.0
 10
142.3395314012474
 20
8.980669835107306
 30
0.0
 10
142.2665877736763
 20
8.928413471542777
 30
0.0
  0
SPLINE
  5
2C8
330
70
100
AcDbEntity
  8
0
 62
     8
420
  8421504
370
    25
100
AcDbSpline
210
0.0
220
0.0
230
1.0
 70
     8
 71
     3
 72
     8
 73
     4
 74
     0
 42
0.0000000001
 43
0.0000000001
 40
0.0
 40
0.0
 40
0.0
 40
0.0
 40
1.0
 40
1.0
 40
1.0
 40
1.0
 10
142.6348440097206
 20
-11.27223732878349
 30
0.0
 10
142.709581200893
 20
-11.23434687343636
 30
0.0
 10
142.7594133062181
 20
-11.16050595810994
 30
0.0
 10
142.7665877389639
 20
-11.07702025953995
 30
0.0
  0
SPLINE
  5
2C9
330
70
100
AcDbEntity
  8
0
 62
     8
420
  8421504
370
    25
100
AcDbSpline
210
0.0
220
0.0
230
1.0
 70
     8
 71
     3
 72
     8
 73
     4
 74
     0
 42
0.0000000001
 43
0.0000000001
 40
0.0
 40
0.0
 40
0.0
 40
0.0
 40
1.0
 40
1.0
 40
1.0
 40
1.0
 10
142.5318608317587
 20
-11.50066254624347
 30
0.0
 10
142.603616829262
 20
-11.44764345240637
 30
0.0
 10
142.6426269623871
 20
-11.36111574645912
 30
0.0
 10
142.6348440097668
 20
-11.27223732873344
 30
0.0
  0
SPLINE
  5
2CA
330
70
100
AcDbEntity
  8
0
 62
     8
420
  8421504
370
    25
100
AcDbSpline
210
0.0
220
0.0
230
1.0
 70
     8
 71
     3
 72
     8
 73
     4
 74
     0
 42
0.0000000001
 43
0.0000000001
 40
0.0
 40
0.0
 40
0.0
 40
0.0
 40
1.0
 40
1.0
 40
1.0
 40
1.0
 10
149.4326513585919
 20
-35.41789348805713
 30
0.0
 10
149.2324811973075
 20
-35.27457053297238
 30
0.0
 10
148.9712509276596
 20
-35.24834811461949
 30
0.0
 10
148.7465878356277
 20
-35.34902610626518
 30
0.0
  0
SPLINE
  5
2CB
330
70
100
AcDbEntity
  8
0
 62
     8
420
  8421504
370
    25
100
AcDbSpline
210
0.0
220
0.0
230
1.0
 70
     8
 71
     3
 72
     8
 73
     4
 74
     0
 42
0.0000000001
 43
0.0000000001
 40
0.0
 40
0.0
 40
0.0
 40
0.0
 40
1.0
 40
1.0
 40
1.0
 40
1.0
 10
137.5688197984645
 20
-35.34974471331308
 30
0.0
 10
137.3439571033757
 20
-35.24825696552669
 30
0.0
 10
137.0820608321334
 20
-35.27422459460907
 30
0.0
 10
136.8815059925712
 20
-35.41789348797627
 30
0.0
  0
SPLINE
  5
2CC
330
70
100
AcDbEntity
  8
0
 62
     8
420
  8421504
370
    25
100
AcDbSpline
210
0.0
220
0.0
230
1.0
 70
     8
 71
     3
 72
     8
 73
     4
 74
     0
 42
0.0000000001
 43
0.0000000001
 40
0.0
 40
0.0
 40
0.0
 40
0.0
 40
1.0
 40
1.0
 40
1.0
 40
1.0
 10
150.3531126334749
 20
-39.97221779689129
 30
0.0
 10
150.3906007771955
 20
-39.94689345716336
 30
0.0
 10
150.4106382976991
 20
-39.9026207617569
 30
0.0
 10
150.4049231827446
 20
-39.85774292130793
 30
0.0
  0
SPLINE
  5
2CD
330
70
100
AcDbEntity
  8
0
 62
     8
420
  8421504
370
    25
100
AcDbSpline
210
0.0
220
0.0
230
1.0
 70
     8
 71
     3
 72
     8
 73
     4
 74
     0
 42
0.0000000001
 43
0.0000000001
 40
0.0
 40
0.0
 40
0.0
 40
0.0
 40
1.0
 40
1.0
 40
1.0
 40
1.0
 10
135.9092341683992
 20
-39.85774292138237
 30
0.0
 10
135.9035190480718
 20
-39.9026207824902
 30
0.0
 10
135.9235565914724
 20
-39.94689349677929
 30
0.0
 10
135.9610447678857
 20
-39.97221782593459
 30
0.0
  0
SPLINE
  5
2CE
330
70
100
AcDbEntity
  8
0
 62
     8
420
  8421504
370
    25
100
AcDbSpline
210
0.0
220
0.0
230
1.0
 70
     8
 71
     3
 72
     8
 73
     4
 74
     0
 42
0.0000000001
 43
0.0000000001
 40
0.0
 40
0.0
 40
0.0
 40
0.0
 40
1.0
 40
1.0
 40
1.0
 40
1.0
 10
120.2448339821694
 20
-25.34882054874783
 30
0.0
 10
120.0199506236696
 20
-25.24724817867298
 30
0.0
 10
119.757984829303
 20
-25.27318911837575
 30
0.0
 10
119.5573898534821
 20
-25.41689411817789
 30
0.0
  0
SPLINE
  5
2CF
330
70
100
AcDbEntity
  8
0
 62
     8
420
  8421504
370
    25
100
AcDbSpline
210
0.0
220
0.0
230
1.0
 70
     8
 71
     3
 72
     8
 73
     4
 74
     0
 42
0.0000000001
 43
0.0000000001
 40
0.0
 40
0.0
 40
0.0
 40
0.0
 40
1.0
 40
1.0
 40
1.0
 40
1.0
 10
118.5851180293351
 20
-29.85674355156217
 30
0.0
 10
118.5794054480465
 20
-29.90161164352468
 30
0.0
 10
118.5994321655063
 20
-29.94587542825721
 30
0.0
 10
118.6369048830522
 20
-29.97120475317941
 30
0.0
  0
LWPOLYLINE
  5
2D0
330
70
100
AcDbEntity
  8
0
 62
     8
420
  8421504
370
    25
100
AcDbPolyline
 90
       10
 70
     0
 43
0.0
 10
135.9547292972018
 20
-45.52260262261683
 10
135.9746507565018
 20
-45.62173037701674
 10
136.0859811913016
 20
-45.76728735341608
 10
136.2808769864016
 20
-45.8797983010167
 10
136.5330163848018
 20
-45.94406799301633
 10
136.8083465634015
 20
-45.95141645131651
 10
137.069682656202
 20
-45.90085122591676
 10
137.2817297755017
 20
-45.79920143071642
 10
137.4158497829016
 20
-45.66019543371669
 10
137.4547292972015
 20
-45.52260262261683
  0
LWPOLYLINE
  5
2D1
330
70
100
AcDbEntity
  8
0
 62
     8
420
  8421504
370
    25
100
AcDbPolyline
 90
       10
 70
     0
 43
0.0
 10
151.1575250927019
 20
-40.1132353814171
 10
151.1774465520019
 20
-40.21236313581701
 10
151.2887769868016
 20
-40.35792011221635
 10
151.4836727819017
 20
-40.47043105991708
 10
151.7358121803019
 20
-40.5347007519167
 10
152.0111423590016
 20
-40.54204921021688
 10
152.2724784517015
 20
-40.49148398481713
 10
152.4845255710018
 20
-40.38983418961679
 10
152.6186455784016
 20
-40.25082819261707
 10
152.6575250927016
 20
-40.1132353814171
  0
SPLINE
  5
2D2
330
70
100
AcDbEntity
  8
0
 62
     8
420
  8421504
370
    25
100
AcDbSpline
210
0.0
220
0.0
230
1.0
 70
     8
 71
     3
 72
     8
 73
     4
 74
     0
 42
0.0000000001
 43
0.0000000001
 40
0.0
 40
0.0
 40
0.0
 40
0.0
 40
1.0
 40
1.0
 40
1.0
 40
1.0
 10
153.6752920457089
 20
-40.52167166252887
 30
0.0
 10
153.5681264387578
 20
-40.43824023757767
 30
0.0
 10
153.4226136706602
 20
-40.42364912106022
 30
0.0
 10
153.3010162673886
 20
-40.48414161233288
 30
0.0
  0
LWPOLYLINE
  5
2D3
330
70
100
AcDbEntity
  8
0
 62
     8
420
  8421504
370
    25
100
AcDbPolyline
 90
        8
 70
     0
 43
0.0
 10
154.0504294631017
 20
-41.78351690901631
 10
154.0985045904018
 20
-41.74744950451684
 10
154.1853771217021
 20
-41.59613586791676
 10
154.2033598369018
 20
-41.38241865761609
 10
154.1500240709018
 20
-41.13516156691672
 10
154.0325731143018
 20
-40.88775803611632
 10
153.8668693696018
 20
-40.67362128291694
 10
153.6752920457018
 20
-40.52167166251604
  0
SPLINE
  5
2D4
330
70
100
AcDbEntity
  8
0
 62
     8
420
  8421504
370
    25
100
AcDbSpline
210
0.0
220
0.0
230
1.0
 70
     8
 71
     3
 72
     8
 73
     4
 74
     0
 42
0.0000000001
 43
0.0000000001
 40
0.0
 40
0.0
 40
0.0
 40
0.0
 40
1.0
 40
1.0
 40
1.0
 40
1.0
 10
138.4724962502088
 20
-45.9310389036285
 30
0.0
 10
138.3653306432577
 20
-45.84760747867729
 30
0.0
 10
138.2198178751602
 20
-45.83301636216113
 30
0.0
 10
138.0982204718885
 20
-45.8935088534325
 30
0.0
  0
LWPOLYLINE
  5
2D5
330
70
100
AcDbEntity
  8
0
 62
     8
420
  8421504
370
    25
100
AcDbPolyline
 90
        8
 70
     0
 43
0.0
 10
138.8476336676017
 20
-47.1928841501172
 10
138.8957087949017
 20
-47.15681674561646
 10
138.9825813261019
 20
-47.00550310911649
 10
139.0005640414017
 20
-46.79178589871701
 10
138.9472282754017
 20
-46.54452880801635
 10
138.8297773188017
 20
-46.29712527721723
 10
138.6640735741017
 20
-46.08298852411667
 10
138.4724962502018
 20
-45.93103890361694
  0
LWPOLYLINE
  5
2D6
330
70
100
AcDbEntity
  8
0
 62
     8
420
  8421504
370
    25
100
AcDbPolyline
 90
       10
 70
     0
 43
0.0
 10
130.2978750477017
 20
-42.25697017531598
 10
130.3177965070018
 20
-42.35609792971717
 10
130.4291269418015
 20
-42.50165490611651
 10
130.6240227369015
 20
-42.61416585371714
 10
130.8761621353018
 20
-42.67843554571675
 10
131.1514923139021
 20
-42.68578400401694
 10
131.412828406702
 20
-42.63521877861719
 10
131.6248755260017
 20
-42.53356898341684
 10
131.7589955334015
 20
-42.39456298641711
 10
131.7978750477021
 20
-42.25697017531598
  0
SPLINE
  5
2D7
330
70
100
AcDbEntity
  8
0
 62
     8
420
  8421504
370
    25
100
AcDbSpline
210
0.0
220
0.0
230
1.0
 70
     8
 71
     3
 72
     8
 73
     4
 74
     0
 42
0.0000000001
 43
0.0000000001
 40
0.0
 40
0.0
 40
0.0
 40
0.0
 40
1.0
 40
1.0
 40
1.0
 40
1.0
 10
183.7273302461215
 20
-23.17299928620539
 30
0.0
 10
183.6199567308807
 20
-23.08935398409888
 30
0.0
 10
183.4740538684961
 20
-23.07490607739902
 30
0.0
 10
183.3523607213824
 20
-23.13586824833515
 30
0.0
  0
LWPOLYLINE
  5
2D8
330
70
100
AcDbEntity
  8
0
 62
     8
420
  8421504
370
    25
100
AcDbPolyline
 90
        8
 70
     0
 43
0.0
 10
184.1022997709016
 20
-24.43494154191601
 10
184.1505427908015
 20
-24.39877712821646
 10
184.2374153221017
 20
-24.24746349171649
 10
184.2553980374016
 20
-24.03374628131701
 10
184.2020622713015
 20
-23.78648919061635
 10
184.0846113147015
 20
-23.53908565981722
 10
183.9189075700015
 20
-23.32494890671667
 10
183.7273302461016
 20
-23.17299928621694
  0
LWPOLYLINE
  5
2D9
330
70
100
AcDbEntity
  8
0
 62
     8
420
  8421504
370
    25
100
AcDbPolyline
 90
        5
 70
     0
 43
0.0
 10
186.4003968097016
 20
-19.74125839931683
 10
186.4486398297016
 20
-19.70509398561599
 10
186.5355123609018
 20
-19.5537803490172
 10
186.5534950762016
 20
-19.34006313871653
 10
186.5036180102019
 20
-19.10297526241627
  0
SPLINE
  5
2DA
330
70
100
AcDbEntity
  8
0
 62
     8
420
  8421504
370
    25
100
AcDbSpline
210
0.0
220
0.0
230
1.0
 70
     8
 71
     3
 72
     8
 73
     4
 74
     0
 42
0.0000000001
 43
0.0000000001
 40
0.0
 40
0.0
 40
0.0
 40
0.0
 40
1.0
 40
1.0
 40
1.0
 40
1.0
 10
132.8156420007088
 20
-42.66540645632892
 30
0.0
 10
132.7084763937577
 20
-42.58197503137773
 30
0.0
 10
132.5629636256601
 20
-42.56738391486027
 30
0.0
 10
132.4413662223885
 20
-42.62787640613294
 30
0.0
  0
LWPOLYLINE
  5
2DB
330
70
100
AcDbEntity
  8
0
 62
     8
420
  8421504
370
    25
100
AcDbPolyline
 90
        8
 70
     0
 43
0.0
 10
133.1907794181016
 20
-43.92725170281635
 10
133.2388545454017
 20
-43.89118429831689
 10
133.3257270767019
 20
-43.73987066181692
 10
133.3437097919017
 20
-43.52615345141615
 10
133.2903740259016
 20
-43.27889636071678
 10
133.1729230693017
 20
-43.03149282991637
 10
133.0072193246017
 20
-42.8173560768171
 10
132.8156420007017
 20
-42.66540645631609
  0
LWPOLYLINE
  5
2DC
330
70
100
AcDbEntity
  8
0
 62
     8
420
  8421504
370
    25
100
AcDbPolyline
 90
       10
 70
     0
 43
0.0
 10
124.6410207982016
 20
-38.99133772801641
 10
124.6609422575017
 20
-39.09046548241632
 10
124.7722726923021
 20
-39.23602245881694
 10
124.9671684874021
 20
-39.34853340641628
 10
125.2193078858017
 20
-39.41280309851601
 10
125.4946380645021
 20
-39.4201515568162
 10
125.7559741572019
 20
-39.36958633131633
 10
125.9680212765016
 20
-39.26793653611599
 10
126.102141283902
 20
-39.12893053921638
 10
126.141020798202
 20
-38.99133772801641
  0
LWPOLYLINE
  5
2DD
330
70
100
AcDbEntity
  8
0
 62
     8
420
  8421504
370
    25
100
AcDbPolyline
 90
        9
 70
     0
 43
0.0
 10
118.5851180293018
 20
-27.10091831141684
 10
117.9096053895019
 20
-26.67065807601696
 10
117.3103990104019
 20
-26.20424639271613
 10
116.7932695769016
 20
-25.70617506111638
 10
116.3631973282017
 20
-25.18124078031689
 10
116.0243240952019
 20
-24.63449895451712
 10
115.7799134124019
 20
-24.07121500621598
 10
115.6323190881018
 20
-23.49681366781636
 10
115.582977700402
 20
-22.92700501231639
  0
SPLINE
  5
2DE
330
70
100
AcDbEntity
  8
0
 62
     8
420
  8421504
370
    25
100
AcDbSpline
210
0.0
220
0.0
230
1.0
 70
     8
 71
     3
 72
     8
 73
     4
 74
     0
 42
0.0000000001
 43
0.0000000001
 40
0.0
 40
0.0
 40
0.0
 40
0.0
 40
1.0
 40
1.0
 40
1.0
 40
1.0
 10
119.5573898534269
 20
-18.17127212572904
 30
0.0
 10
119.359386269065
 20
-18.02068731707318
 30
0.0
 10
119.0934753106526
 20
-17.99439068132253
 30
0.0
 10
118.8698120664672
 20
-18.10327574558211
 30
0.0
  0
SPLINE
  5
2DF
330
70
100
AcDbEntity
  8
0
 62
     8
420
  8421504
370
    25
100
AcDbSpline
210
0.0
220
0.0
230
1.0
 70
     8
 71
     3
 72
     8
 73
     4
 74
     0
 42
0.0000000001
 43
0.0000000001
 40
0.0
 40
0.0
 40
0.0
 40
0.0
 40
1.0
 40
1.0
 40
1.0
 40
1.0
 10
180.3685730355209
 20
-15.21368369630535
 30
0.0
 10
180.2611995202807
 20
-15.13003839419884
 30
0.0
 10
180.1152966578962
 20
-15.11559048749898
 30
0.0
 10
179.9936035107831
 20
-15.17655265843383
 30
0.0
  0
LWPOLYLINE
  5
2E0
330
70
100
AcDbEntity
  8
0
 62
     8
420
  8421504
370
    25
100
AcDbPolyline
 90
        8
 70
     0
 43
0.0
 10
180.7435425602015
 20
-16.47562595201597
 10
180.7917855802015
 20
-16.43946153831642
 10
180.8786581115018
 20
-16.28814790171635
 10
180.8966408267016
 20
-16.07443069141696
 10
180.8433050607015
 20
-15.82717360071631
 10
180.7258541041015
 20
-15.57977006991719
 10
180.5601503594016
 20
-15.36563331671653
 10
180.3685730355016
 20
-15.21368369631691
  0
SPLINE
  5
2E1
330
70
100
AcDbEntity
  8
0
 62
     8
420
  8421504
370
    25
100
AcDbSpline
210
0.0
220
0.0
230
1.0
 70
     8
 71
     3
 72
     8
 73
     4
 74
     0
 42
0.0000000001
 43
0.0000000001
 40
0.0
 40
0.0
 40
0.0
 40
0.0
 40
1.0
 40
1.0
 40
1.0
 40
1.0
 10
116.0095895619087
 20
-27.36202934720303
 30
0.0
 10
116.6078410781989
 20
-28.42589632681911
 30
0.0
 10
117.5027253233287
 20
-29.29270112660604
 30
0.0
 10
118.5851180293133
 20
-29.85674355150955
 30
0.0
  0
LWPOLYLINE
  5
2E2
330
70
100
AcDbEntity
  8
0
 62
     8
420
  8421504
370
    25
100
AcDbPolyline
 90
        8
 70
     0
 43
0.0
 10
120.5296616776021
 20
-19.85529631901676
 10
119.929086431902
 20
-20.24664503591675
 10
119.4146029942021
 20
-20.67693101491655
 10
118.9937136915019
 20
-21.13987971731704
 10
118.6725560377017
 20
-21.62874030861646
 10
118.4558132344015
 20
-22.13638410051673
 10
118.3466458798016
 20
-22.65540850351625
 10
118.3330065964017
 20
-22.93166759701707
  0
SPLINE
  5
2E3
330
70
100
AcDbEntity
  8
0
 62
     8
420
  8421504
370
    25
100
AcDbSpline
210
0.0
220
0.0
230
1.0
 70
     8
 71
     3
 72
     8
 73
     4
 74
     0
 42
0.0000000001
 43
0.0000000001
 40
0.0
 40
0.0
 40
0.0
 40
0.0
 40
1.0
 40
1.0
 40
1.0
 40
1.0
 10
127.1587877512093
 20
-39.39977400902936
 30
0.0
 10
127.0516221442576
 20
-39.31634258407816
 30
0.0
 10
126.9061093761601
 20
-39.30175146756072
 30
0.0
 10
126.7845119728884
 20
-39.36224395883209
 30
0.0
  0
LWPOLYLINE
  5
2E4
330
70
100
AcDbEntity
  8
0
 62
     8
420
  8421504
370
    25
100
AcDbPolyline
 90
        8
 70
     0
 43
0.0
 10
127.5339251686015
 20
-40.66161925551678
 10
127.5820002959016
 20
-40.62555185101603
 10
127.6688728272018
 20
-40.47423821451607
 10
127.6868555424016
 20
-40.26052100411658
 10
127.6335197764016
 20
-40.01326391341721
 10
127.5160688198016
 20
-39.76586038261681
 10
127.3503650751016
 20
-39.55172362951625
 10
127.1587877512017
 20
-39.39977400901653
  0
SPLINE
  5
2E5
330
70
100
AcDbEntity
  8
0
 62
     8
420
  8421504
370
    25
100
AcDbSpline
210
0.0
220
0.0
230
1.0
 70
     8
 71
     3
 72
     8
 73
     4
 74
     0
 42
0.0000000001
 43
0.0000000001
 40
0.0
 40
0.0
 40
0.0
 40
0.0
 40
1.0
 40
1.0
 40
1.0
 40
1.0
 10
120.529661677606
 20
-22.61112155904787
 30
0.0
 10
119.8406019631558
 20
-22.98193456200852
 30
0.0
 10
119.2501126060865
 20
-23.51201694188011
 30
0.0
 10
118.8073731093218
 20
-24.15722025189003
 30
0.0
  0
LWPOLYLINE
  5
2E6
330
70
100
AcDbEntity
  8
0
 62
     8
420
  8421504
370
    25
100
AcDbPolyline
 90
       10
 70
     0
 43
0.0
 10
118.9841665488017
 20
-35.72570528071685
 10
119.0040880080016
 20
-35.82483303511675
 10
119.115418442802
 20
-35.97039001151609
 10
119.3103142379021
 20
-36.08290095921682
 10
119.5624536363016
 20
-36.14717065121644
 10
119.837783815002
 20
-36.15451910951663
 10
120.0991199077019
 20
-36.10395388411687
 10
120.3111670270015
 20
-36.00230408881643
 10
120.445287034402
 20
-35.8632980919168
 10
120.4841665488021
 20
-35.72570528071685
  0
SPLINE
  5
2E7
330
70
100
AcDbEntity
  8
0
 62
     8
420
  8421504
370
    25
100
AcDbSpline
210
0.0
220
0.0
230
1.0
 70
     8
 71
     3
 72
     8
 73
     4
 74
     0
 42
0.0000000001
 43
0.0000000001
 40
0.0
 40
0.0
 40
0.0
 40
0.0
 40
1.0
 40
1.0
 40
1.0
 40
1.0
 10
120.4781902931375
 20
-22.72539972272628
 30
0.0
 10
120.5144350963747
 20
-22.69915945675695
 30
0.0
 10
120.534030062113
 20
-22.65565418242122
 30
0.0
 10
120.5296616775688
 20
-22.61112155913899
 30
0.0
  0
SPLINE
  5
2E8
330
70
100
AcDbEntity
  8
0
 62
     8
420
  8421504
370
    25
100
AcDbSpline
210
0.0
220
0.0
230
1.0
 70
     8
 71
     3
 72
     8
 73
     4
 74
     0
 42
0.0000000001
 43
0.0000000001
 40
0.0
 40
0.0
 40
0.0
 40
0.0
 40
1.0
 40
1.0
 40
1.0
 40
1.0
 10
174.7117187860214
 20
-11.94805124900579
 30
0.0
 10
174.6043452707807
 20
-11.86440594689927
 30
0.0
 10
174.4584424083961
 20
-11.84995804019941
 30
0.0
 10
174.3367492612823
 20
-11.91092021113425
 30
0.0
  0
LWPOLYLINE
  5
2E9
330
70
100
AcDbEntity
  8
0
 62
     8
420
  8421504
370
    25
100
AcDbPolyline
 90
        8
 70
     0
 43
0.0
 10
175.0866883107015
 20
-13.2099935047164
 10
175.1349313307015
 20
-13.17382909101685
 10
175.2218038620017
 20
-13.02251545441678
 10
175.2397865772015
 20
-12.80879824411611
 10
175.1864508112015
 20
-12.56154115341674
 10
175.0689998546015
 20
-12.31413762261634
 10
174.9032961099015
 20
-12.10000086941696
 10
174.7117187860015
 20
-11.94805124901605
  0
SPLINE
  5
2EA
330
70
100
AcDbEntity
  8
0
 62
     8
420
  8421504
370
    25
100
AcDbSpline
210
0.0
220
0.0
230
1.0
 70
     8
 71
     3
 72
     8
 73
     4
 74
     0
 42
0.0000000001
 43
0.0000000001
 40
0.0
 40
0.0
 40
0.0
 40
0.0
 40
1.0
 40
1.0
 40
1.0
 40
1.0
 10
121.5019335017087
 20
-36.13414156172979
 30
0.0
 10
121.3947678947576
 20
-36.05071013677859
 30
0.0
 10
121.24925512666
 20
-36.03611902026114
 30
0.0
 10
121.127657723389
 20
-36.09661151153252
 30
0.0
  0
LWPOLYLINE
  5
2EB
330
70
100
AcDbEntity
  8
0
 62
     8
420
  8421504
370
    25
100
AcDbPolyline
 90
        8
 70
     0
 43
0.0
 10
121.8770709191021
 20
-37.39598680821722
 10
121.9251460464015
 20
-37.35991940371647
 10
122.0120185777018
 20
-37.2086057672165
 10
122.0300012930016
 20
-36.99488855681702
 10
121.9766655269015
 20
-36.74763146611636
 10
121.8592145703015
 20
-36.50022793531724
 10
121.6935108256015
 20
-36.28609118221668
 10
121.5019335017016
 20
-36.13414156171696
  0
SPLINE
  5
2EC
330
70
100
AcDbEntity
  8
0
 62
     8
420
  8421504
370
    25
100
AcDbSpline
210
0.0
220
0.0
230
1.0
 70
     8
 71
     3
 72
     8
 73
     4
 74
     0
 42
0.0000000001
 43
0.0000000001
 40
0.0
 40
0.0
 40
0.0
 40
0.0
 40
1.0
 40
1.0
 40
1.0
 40
1.0
 10
169.0548645365207
 20
-8.682418801704933
 30
0.0
 10
168.9474910212806
 20
-8.598773499598417
 30
0.0
 10
168.801588158896
 20
-8.584325592898558
 30
0.0
 10
168.6798950117829
 20
-8.645287763833405
 30
0.0
  0
LWPOLYLINE
  5
2ED
330
70
100
AcDbEntity
  8
0
 62
     8
420
  8421504
370
    25
100
AcDbPolyline
 90
        8
 70
     0
 43
0.0
 10
169.4298340613015
 20
-9.944361057416834
 10
169.4780770812021
 20
-9.908196643715999
 10
169.5649496125017
 20
-9.756883007216032
 10
169.5829323278015
 20
-9.543165796816543
 10
169.529596561702
 20
-9.295908706117172
 10
169.412145605102
 20
-9.048505175316767
 10
169.2464418604021
 20
-8.834368422116105
 10
169.0548645365015
 20
-8.682418801716485
  0
SPLINE
  5
2EE
330
70
100
AcDbEntity
  8
0
 62
     8
420
  8421504
370
    25
100
AcDbSpline
210
0.0
220
0.0
230
1.0
 70
     8
 71
     3
 72
     8
 73
     4
 74
     0
 42
0.0000000001
 43
0.0000000001
 40
0.0
 40
0.0
 40
0.0
 40
0.0
 40
1.0
 40
1.0
 40
1.0
 40
1.0
 10
158.094709428121
 20
4.075848921421226
 30
0.0
 10
157.8941144523007
 20
4.219553921223363
 30
0.0
 10
157.6321486579342
 20
4.245494860926138
 30
0.0
 10
157.4072652994337
 20
4.143922490852578
 30
0.0
  0
SPLINE
  5
2EF
330
70
100
AcDbEntity
  8
0
 62
     8
420
  8421504
370
    25
100
AcDbSpline
210
0.0
220
0.0
230
1.0
 70
     8
 71
     3
 72
     8
 73
     4
 74
     0
 42
0.0000000001
 43
0.0000000001
 40
0.0
 40
0.0
 40
0.0
 40
0.0
 40
1.0
 40
1.0
 40
1.0
 40
1.0
 10
187.9699709332212
 20
-13.17077244087862
 30
0.0
 10
187.7693759574002
 20
-13.02706744107648
 30
0.0
 10
187.5074101630337
 20
-13.00112650137371
 30
0.0
 10
187.2825268045339
 20
-13.10269887144855
 30
0.0
  0
SPLINE
  5
2F0
330
70
100
AcDbEntity
  8
0
 62
     8
420
  8421504
370
    25
100
AcDbSpline
210
0.0
220
0.0
230
1.0
 70
     8
 71
     3
 72
     8
 73
     4
 74
     0
 42
0.0000000001
 43
0.0000000001
 40
0.0
 40
0.0
 40
0.0
 40
0.0
 40
1.0
 40
1.0
 40
1.0
 40
1.0
 10
159.0151943985631
 20
-0.4784617135366548
 30
0.0
 10
159.0520669497148
 20
-0.4526304859644104
 30
0.0
 10
159.0719206358745
 20
-0.4087491413513812
 30
0.0
 10
159.0669812522795
 20
-0.3640005119194129
 30
0.0
  0
SPLINE
  5
2F1
330
70
100
AcDbEntity
  8
0
 62
     8
420
  8421504
370
    25
100
AcDbSpline
210
0.0
220
0.0
230
1.0
 70
     8
 71
     3
 72
     8
 73
     4
 74
     0
 42
0.0000000001
 43
0.0000000001
 40
0.0
 40
0.0
 40
0.0
 40
0.0
 40
1.0
 40
1.0
 40
1.0
 40
1.0
 10
188.8904559036947
 20
-17.7250830758057
 30
0.0
 10
188.9273284548579
 20
-17.69925184824244
 30
0.0
 10
188.9471821410209
 20
-17.65537050362299
 30
0.0
 10
188.9422427574118
 20
-17.61062187418846
 30
0.0
  0
SPLINE
  5
2F2
330
70
100
AcDbEntity
  8
0
 62
     8
420
  8421504
370
    25
100
AcDbSpline
210
0.0
220
0.0
230
1.0
 70
     8
 71
     3
 72
     8
 73
     4
 74
     0
 42
0.0000000001
 43
0.0000000001
 40
0.0
 40
0.0
 40
0.0
 40
0.0
 40
1.0
 40
1.0
 40
1.0
 40
1.0
 10
188.6575480127808
 20
-5.857153659541086
 30
0.0
 10
188.4338848699556
 20
-5.748269068656469
 30
0.0
 10
188.1679743032755
 20
-5.774565850774827
 30
0.0
 10
187.9699709332122
 20
-5.925150448374589
 30
0.0
  0
LWPOLYLINE
  5
2F3
330
70
100
AcDbEntity
  8
0
 62
     8
420
  8421504
370
    25
100
AcDbPolyline
 90
       10
 70
     0
 43
0.0
 10
191.9443830863018
 20
-10.66052678701616
 10
191.944398250202
 20
-10.670705061016
 10
191.8950416986021
 20
-11.25069199051709
 10
191.7474473744015
 20
-11.82509332881659
 10
191.503036691502
 20
-12.38837727711646
 10
191.1641634585016
 20
-12.93511910301633
 10
190.7340912098017
 20
-13.460053383717
 10
190.216961776302
 20
-13.95812471541686
 10
189.617755397202
 20
-14.4245363986163
 10
188.9422427574015
 20
-14.85479663401618
  0
SPLINE
  5
2F4
330
70
100
AcDbEntity
  8
0
 62
     8
420
  8421504
370
    25
100
AcDbSpline
210
0.0
220
0.0
230
1.0
 70
     8
 71
     3
 72
     8
 73
     4
 74
     0
 42
0.0000000001
 43
0.0000000001
 40
0.0
 40
0.0
 40
0.0
 40
0.0
 40
1.0
 40
1.0
 40
1.0
 40
1.0
 10
184.7450971991269
 20
-20.72354272565669
 30
0.0
 10
184.7531506171528
 20
-20.85941778606461
 30
0.0
 10
184.8386289025834
 20
-20.97854851550453
 30
0.0
 10
184.964767113237
 20
-21.02969576759026
 30
0.0
  0
LWPOLYLINE
  5
2F5
330
70
100
AcDbEntity
  8
0
 62
     8
420
  8421504
370
    25
100
AcDbPolyline
 90
        8
 70
     0
 43
0.0
 10
186.2450971991016
 20
-20.72354272571701
 10
186.2379050223018
 20
-20.78335970021707
 10
186.1503139921017
 20
-20.93422581531669
 10
185.9742323033016
 20
-21.05663801161602
 10
185.7334407638017
 20
-21.13406384391649
 10
185.4604596051018
 20
-21.15604652431652
 10
185.1921564454021
 20
-21.11961717021695
 10
184.9647671132017
 20
-21.02969576761721
  0
SPLINE
  5
2F6
330
70
100
AcDbEntity
  8
0
 62
     8
420
  8421504
370
    25
100
AcDbSpline
210
0.0
220
0.0
230
1.0
 70
     8
 71
     3
 72
     8
 73
     4
 74
     0
 42
0.0000000001
 43
0.0000000001
 40
0.0
 40
0.0
 40
0.0
 40
0.0
 40
1.0
 40
1.0
 40
1.0
 40
1.0
 10
188.9422427574054
 20
-17.61062187420258
 30
0.0
 10
190.0333322156893
 20
-17.04265097838572
 30
0.0
 10
190.9333921330784
 20
-16.16647525585058
 30
0.0
 10
191.5304950938479
 20
-15.09105199093801
 30
0.0
  0
SPLINE
  5
2F7
330
70
100
AcDbEntity
  8
0
 62
     8
420
  8421504
370
    25
100
AcDbSpline
210
0.0
220
0.0
230
1.0
 70
     8
 71
     3
 72
     8
 73
     4
 74
     0
 42
0.0000000001
 43
0.0000000001
 40
0.0
 40
0.0
 40
0.0
 40
0.0
 40
1.0
 40
1.0
 40
1.0
 40
1.0
 10
189.1943541903542
 20
-10.65586420225388
 30
0.0
 10
189.0422739487154
 20
-9.327212071331663
 30
0.0
 10
188.2102540275913
 20
-8.17322734719019
 30
0.0
 10
186.997699109146
 20
-7.609174641625087
 30
0.0
  0
SPLINE
  5
2F8
330
70
100
AcDbEntity
  8
0
 62
     8
420
  8421504
370
    25
100
AcDbSpline
210
0.0
220
0.0
230
1.0
 70
     8
 71
     3
 72
     8
 73
     4
 74
     0
 42
0.0000000001
 43
0.0000000001
 40
0.0
 40
0.0
 40
0.0
 40
0.0
 40
1.0
 40
1.0
 40
1.0
 40
1.0
 10
188.7207379481136
 20
-11.91225825518033
 30
0.0
 10
188.2779505095298
 20
-11.26652097051532
 30
0.0
 10
187.6871789693262
 20
-10.73601858619143
 30
0.0
 10
186.9976991091718
 20
-10.36499988179095
 30
0.0
  0
SPLINE
  5
2F9
330
70
100
AcDbEntity
  8
0
 62
     8
420
  8421504
370
    25
100
AcDbSpline
210
0.0
220
0.0
230
1.0
 70
     8
 71
     3
 72
     8
 73
     4
 74
     0
 42
0.0000000001
 43
0.0000000001
 40
0.0
 40
0.0
 40
0.0
 40
0.0
 40
1.0
 40
1.0
 40
1.0
 40
1.0
 10
186.9976991091159
 20
-10.36499988173063
 30
0.0
 10
186.9933511067062
 20
-10.40943618051335
 30
0.0
 10
187.012841127
 20
-10.45285580176737
 30
0.0
 10
187.0489335674889
 20
-10.47913936153457
 30
0.0
  0
SPLINE
  5
2FA
330
70
100
AcDbEntity
  8
0
 62
     8
420
  8421504
370
    25
100
AcDbSpline
210
0.0
220
0.0
230
1.0
 70
     8
 71
     3
 72
     8
 73
     4
 74
     0
 42
0.0000000001
 43
0.0000000001
 40
0.0
 40
0.0
 40
0.0
 40
0.0
 40
1.0
 40
1.0
 40
1.0
 40
1.0
 10
171.3332989228694
 20
4.143922490852578
 30
0.0
 10
171.1084155643696
 20
4.245494860926138
 30
0.0
 10
170.8464497700031
 20
4.219553921223363
 30
0.0
 10
170.6458547941822
 20
4.075848921421226
 30
0.0
  0
SPLINE
  5
2FB
330
70
100
AcDbEntity
  8
0
 62
     8
420
  8421504
370
    25
100
AcDbSpline
210
0.0
220
0.0
230
1.0
 70
     8
 71
     3
 72
     8
 73
     4
 74
     0
 42
0.0000000001
 43
0.0000000001
 40
0.0
 40
0.0
 40
0.0
 40
0.0
 40
1.0
 40
1.0
 40
1.0
 40
1.0
 10
169.6735829700596
 20
-0.3640005119579149
 30
0.0
 10
169.6686435864364
 20
-0.4087491413950168
 30
0.0
 10
169.6884972726025
 20
-0.4526304860208799
 30
0.0
 10
169.7253698237773
 20
-0.4784617135751568
 30
0.0
  0
SPLINE
  5
2FC
330
70
100
AcDbEntity
  8
0
 62
     8
420
  8421504
370
    25
100
AcDbSpline
210
0.0
220
0.0
230
1.0
 70
     8
 71
     3
 72
     8
 73
     4
 74
     0
 42
0.0000000001
 43
0.0000000001
 40
0.0
 40
0.0
 40
0.0
 40
0.0
 40
1.0
 40
1.0
 40
1.0
 40
1.0
 10
181.3863399884268
 20
-12.76422713575665
 30
0.0
 10
181.3943934064528
 20
-12.90010219616585
 30
0.0
 10
181.4798716918826
 20
-13.01923292560449
 30
0.0
 10
181.6060099025363
 20
-13.07038017769022
 30
0.0
  0
LWPOLYLINE
  5
2FD
330
70
100
AcDbEntity
  8
0
 62
     8
420
  8421504
370
    25
100
AcDbPolyline
 90
        8
 70
     0
 43
0.0
 10
182.8863399885016
 20
-12.76422713571686
 10
182.8791478116017
 20
-12.82404411021693
 10
182.7915567814017
 20
-12.97491022531654
 10
182.6154750927017
 20
-13.09732242171598
 10
182.3746835531016
 20
-13.17474825391635
 10
182.1017023945018
 20
-13.19673093441648
 10
181.8333992348015
 20
-13.1603015802168
 10
181.6060099026018
 20
-13.07038017761707
  0
SPLINE
  5
2FE
330
70
100
AcDbEntity
  8
0
 62
     8
420
  8421504
370
    25
100
AcDbSpline
210
0.0
220
0.0
230
1.0
 70
     8
 71
     3
 72
     8
 73
     4
 74
     0
 42
0.0000000001
 43
0.0000000001
 40
0.0
 40
0.0
 40
0.0
 40
0.0
 40
1.0
 40
1.0
 40
1.0
 40
1.0
 10
175.7294857389274
 20
-9.498594688457082
 30
0.0
 10
175.7375391569527
 20
-9.634469748864999
 30
0.0
 10
175.8230174423832
 20
-9.753600478303638
 30
0.0
 10
175.9491556530375
 20
-9.804747730390653
 30
0.0
  0
LWPOLYLINE
  5
2FF
330
70
100
AcDbEntity
  8
0
 62
     8
420
  8421504
370
    25
100
AcDbPolyline
 90
        8
 70
     0
 43
0.0
 10
177.2294857390015
 20
-9.498594688416012
 10
177.2222935621016
 20
-9.558411663016183
 10
177.1347025320017
 20
-9.709277778016977
 10
176.9586208432016
 20
-9.831689974416416
 10
176.7178293037016
 20
-9.909115806616776
 10
176.4448481450018
 20
-9.931098487116909
 10
176.176544985302
 20
-9.894669132917238
 10
175.9491556531017
 20
-9.804747730316217
  0
SPLINE
  5
300
330
70
100
AcDbEntity
  8
0
 62
     8
420
  8421504
370
    25
100
AcDbSpline
210
0.0
220
0.0
230
1.0
 70
     8
 71
     3
 72
     8
 73
     4
 74
     0
 42
0.0000000001
 43
0.0000000001
 40
0.0
 40
0.0
 40
0.0
 40
0.0
 40
1.0
 40
1.0
 40
1.0
 40
1.0
 10
170.0726314895261
 20
-6.232962241157512
 30
0.0
 10
170.0806849075527
 20
-6.36883730156543
 30
0.0
 10
170.1661631929826
 20
-6.487968031004069
 30
0.0
 10
170.2923014036363
 20
-6.539115283091084
 30
0.0
  0
LWPOLYLINE
  5
301
330
70
100
AcDbEntity
  8
0
 62
     8
420
  8421504
370
    25
100
AcDbPolyline
 90
        8
 70
     0
 43
0.0
 10
171.5726314895015
 20
-6.232962241116442
 10
171.5654393126016
 20
-6.292779215716613
 10
171.4778482825016
 20
-6.443645330716123
 10
171.3017665937015
 20
-6.566057527116847
 10
171.0609750542016
 20
-6.643483359317206
 10
170.7879938955017
 20
-6.665466039816055
 10
170.519690735802
 20
-6.629036685616385
 10
170.2923014036016
 20
-6.539115283116752
  0
INSERT
  5
304
330
70
100
AcDbEntity
  8
CAPA_BASE
100
AcDbBlockReference
  2
Block_0
 10
0.0
 20
0.0
 30
0.0
  0
INSERT
  5
310
330
70
100
AcDbEntity
  8
CAPA_BASE
100
AcDbBlockReference
  2
Block_1
 10
0.0
 20
0.0
 30
0.0
  0
INSERT
  5
31C
330
70
100
AcDbEntity
  8
CAPA_BASE
100
AcDbBlockReference
  2
Block_2
 10
0.0
 20
0.0
 30
0.0
  0
ENDSEC
  0
SECTION
  2
OBJECTS
  0
DICTIONARY
  5
C
330
0
100
AcDbDictionary
281
     1
  3
ACAD_COLOR
350
63
  3
ACAD_DETAILVIEWSTYLE
350
6A
  3
ACAD_GROUP
350
D
  3
ACAD_LAYOUT
350
62
  3
ACAD_MATERIAL
350
10
  3
ACAD_MLEADERSTYLE
350
66
  3
ACAD_MLINESTYLE
350
5F
  3
ACAD_PLOTSETTINGS
350
61
  3
ACAD_PLOTSTYLENAME
350
E
  3
ACAD_SCALELIST
350
42
  3
ACAD_SECTIONVIEWSTYLE
350
68
  3
ACAD_TABLESTYLE
350
64
  3
ACAD_VISUALSTYLE
350
29
  3
ACDB_RECOMPOSE_DATA
350
32F
  3
AcDbVariableDictionary
350
327
  0
DICTIONARY
  5
63
102
{ACAD_REACTORS
330
C
102
}
330
C
100
AcDbDictionary
281
     1
  0
DICTIONARY
  5
6A
102
{ACAD_REACTORS
330
C
102
}
330
C
100
AcDbDictionary
281
     1
  3
Imperial24
350
6B
  0
DICTIONARY
  5
D
102
{ACAD_REACTORS
330
C
102
}
330
C
100
AcDbDictionary
281
     1
  0
DICTIONARY
  5
62
102
{ACAD_REACTORS
330
C
102
}
330
C
100
AcDbDictionary
281
     1
  3
Layout1
350
6F
  3
Layout2
350
77
  3
Model
350
73
  0
DICTIONARY
  5
10
102
{ACAD_REACTORS
330
C
102
}
330
C
100
AcDbDictionary
281
     1
  3
ByBlock
350
19
  3
ByLayer
350
11
  3
Global
350
21
  0
DICTIONARY
  5
66
102
{ACAD_REACTORS
330
C
102
}
330
C
100
AcDbDictionary
281
     1
  3
Standard
350
67
  0
DICTIONARY
  5
5F
102
{ACAD_REACTORS
330
C
102
}
330
C
100
AcDbDictionary
281
     1
  3
Standard
350
60
  0
DICTIONARY
  5
61
102
{ACAD_REACTORS
330
C
102
}
330
C
100
AcDbDictionary
281
     1
  0
ACDBDICTIONARYWDFLT
  5
E
102
{ACAD_REACTORS
330
C
102
}
330
C
100
AcDbDictionary
281
     1
  3
Normal
350
F
100
AcDbDictionaryWithDefault
340
F
  0
DICTIONARY
  5
42
102
{ACAD_REACTORS
330
C
102
}
330
C
100
AcDbDictionary
281
     1
  3
A0
350
43
  3
A1
350
44
  3
A2
350
45
  3
A3
350
46
  3
A4
350
47
  3
A5
350
48
  3
A6
350
49
  3
A7
350
4A
  3
A8
350
4B
  3
A9
350
4C
  3
B0
350
4D
  3
B1
350
4E
  3
B2
350
4F
  3
B3
350
50
  3
B4
350
51
  3
B5
350
52
  3
B6
350
53
  0
DICTIONARY
  5
68
102
{ACAD_REACTORS
330
C
102
}
330
C
100
AcDbDictionary
281
     1
  3
Imperial24
350
69
  0
DICTIONARY
  5
64
102
{ACAD_REACTORS
330
C
102
}
330
C
100
AcDbDictionary
281
     1
  3
Standard
350
65
  0
DICTIONARY
  5
29
102
{ACAD_REACTORS
330
C
102
}
330
C
100
AcDbDictionary
281
     1
  3
2dWireframe
350
2F
  3
Basic
350
2E
  3
Brighten
350
35
  3
ColorChange
350
39
  3
Conceptual
350
32
  3
Dim
350
34
  3
EdgeColorOff
350
41
  3
Facepattern
350
38
  3
Flat
350
2A
  3
FlatWithEdges
350
2B
  3
Gouraud
350
2C
  3
GouraudWithEdges
350
2D
  3
Hidden
350
31
  3
JitterOff
350
3F
  3
Linepattern
350
37
  3
OverhangOff
350
40
  3
Realistic
350
33
  3
Shaded
350
3E
  3
Shaded with edges
350
3D
  3
Shades of Gray
350
3A
  3
Sketchy
350
3B
  3
Thicken
350
36
  3
Wireframe
350
30
  3
X-Ray
350
3C
  0
XRECORD
  5
32F
102
{ACAD_REACTORS
330
C
102
}
330
C
100
AcDbXrecord
280
     1
 90
        1
330
65
  0
DICTIONARY
  5
327
102
{ACAD_REACTORS
330
C
102
}
330
C
100
AcDbDictionary
281
     1
  3
CANNOSCALE
350
32C
  3
CMLEADERSTYLE
350
329
  3
CTABLESTYLE
350
328
  3
CVIEWDETAILSTYLE
350
32A
  3
CVIEWSECTIONSTYLE
350
32B
  0
ACDBDETAILVIEWSTYLE
  5
6B
102
{ACAD_REACTORS
330
6A
102
}
330
6A
100
AcDbModelDocViewStyle
 70
     0
  3
Imperial24
290
     1
300
Imperial24
 90
        0
100
AcDbDetailViewStyle
 70
     0
 71
     0
 90
        3
 71
     1
340
55
 62
   256
 40
0.24
340
0
 62
   256
 40
0.24
300

 40
0.36
280
     3
 71
     2
340
5D
 90
       25
 62
   256
 71
     3
340
55
 62
   256
 40
0.24
 90
        1
 40
0.75
 90
        1
300
%<\AcVar ViewType \f "%tc1">% %<\AcVar ViewDetailId>%\PSCALE %<\AcVar ViewScale \f "%sn">%
 71
     4
340
5D
 90
       25
 62
   256
340
5D
 90
       25
 62
   256
280
     0
  0
LAYOUT
  5
6F
102
{ACAD_REACTORS
330
62
102
}
330
62
100
AcDbPlotSettings
  1

  2

  4

  6

 40
0.0
 41
0.0
 42
0.0
 43
0.0
 44
0.0
 45
0.0
 46
0.0
 47
0.0
 48
0.0
 49
0.0
140
0.0
141
0.0
142
1.0
143
1.0
 70
   688
 72
     0
 73
     0
 74
     5
  7

 75
    16
147
1.0
 76
     0
 77
     2
 78
   300
148
0.0
149
0.0
100
AcDbLayout
  1
Layout1
 70
     1
 71
     1
 10
0.0
 20
0.0
 11
12.0
 21
9.0
 12
0.0
 22
0.0
 32
0.0
 14
0.0
 24
0.0
 34
0.0
 15
0.0
 25
0.0
 35
0.0
146
0.0
 13
0.0
 23
0.0
 33
0.0
 16
1.0
 26
0.0
 36
0.0
 17
0.0
 27
1.0
 37
0.0
 76
     0
330
6C
  0
LAYOUT
  5
77
102
{ACAD_REACTORS
330
62
102
}
330
62
100
AcDbPlotSettings
  1

  2

  4

  6

 40
0.0
 41
0.0
 42
0.0
 43
0.0
 44
0.0
 45
0.0
 46
0.0
 47
0.0
 48
0.0
 49
0.0
140
0.0
141
0.0
142
1.0
143
1.0
 70
   688
 72
     0
 73
     0
 74
     5
  7

 75
    16
147
1.0
 76
     0
 77
     2
 78
   300
148
0.0
149
0.0
100
AcDbLayout
  1
Layout2
 70
     1
 71
     2
 10
0.0
 20
0.0
 11
12.0
 21
9.0
 12
0.0
 22
0.0
 32
0.0
 14
0.0
 24
0.0
 34
0.0
 15
0.0
 25
0.0
 35
0.0
146
0.0
 13
0.0
 23
0.0
 33
0.0
 16
1.0
 26
0.0
 36
0.0
 17
0.0
 27
1.0
 37
0.0
 76
     0
330
74
  0
LAYOUT
  5
73
102
{ACAD_REACTORS
330
62
102
}
330
62
100
AcDbPlotSettings
  1

  2

  4

  6

 40
0.0
 41
0.0
 42
0.0
 43
0.0
 44
0.0
 45
0.0
 46
0.0
 47
0.0
 48
0.0
 49
0.0
140
0.0
141
0.0
142
1.0
143
1.0
 70
  1712
 72
     0
 73
     0
 74
     0
  7

 75
     0
147
1.0
 76
     0
 77
     2
 78
   300
148
0.0
149
0.0
100
AcDbLayout
  1
Model
 70
     1
 71
     0
 10
0.0
 20
0.0
 11
12.0
 21
9.0
 12
0.0
 22
0.0
 32
0.0
 14
0.0
 24
0.0
 34
0.0
 15
0.0
 25
0.0
 35
0.0
146
0.0
 13
0.0
 23
0.0
 33
0.0
 16
1.0
 26
0.0
 36
0.0
 17
0.0
 27
1.0
 37
0.0
 76
     0
330
70
  0
MATERIAL
  5
19
102
{ACAD_XDICTIONARY
360
1A
102
}
102
{ACAD_REACTORS
330
10
102
}
330
10
100
AcDbMaterial
  1
ByBlock
 72
     0
 43
0.0208333333333333
 43
0.0
 43
0.0
 43
0.0
 43
0.0
 43
0.0208333333333333
 43
0.0
 43
0.0
 43
0.0
 43
0.0
 43
1.0
 43
0.0
 43
0.0
 43
0.0
 43
0.0
 43
1.0
 77
     0
 47
0.0208333333333333
 47
0.0
 47
0.0
 47
0.0
 47
0.0
 47
0.0208333333333333
 47
0.0
 47
0.0
 47
0.0
 47
0.0
 47
1.0
 47
0.0
 47
0.0
 47
0.0
 47
0.0
 47
1.0
171
     0
 49
0.0208333333333333
 49
0.0
 49
0.0
 49
0.0
 49
0.0
 49
0.0208333333333333
 49
0.0
 49
0.0
 49
0.0
 49
0.0
 49
1.0
 49
0.0
 49
0.0
 49
0.0
 49
0.0
 49
1.0
175
     0
142
0.0208333333333333
142
0.0
142
0.0
142
0.0
142
0.0
142
0.0208333333333333
142
0.0
142
0.0
142
0.0
142
0.0
142
1.0
142
0.0
142
0.0
142
0.0
142
0.0
142
1.0
179
     0
144
0.0208333333333333
144
0.0
144
0.0
144
0.0
144
0.0
144
0.0208333333333333
144
0.0
144
0.0
144
0.0
144
0.0
144
1.0
144
0.0
144
0.0
144
0.0
144
0.0
144
1.0
147
0.0208333333333333
147
0.0
147
0.0
147
0.0
147
0.0
147
0.0208333333333333
147
0.0
147
0.0
147
0.0
147
0.0
147
1.0
147
0.0
147
0.0
147
0.0
147
0.0
147
1.0
  0
MATERIAL
  5
11
102
{ACAD_XDICTIONARY
360
12
102
}
102
{ACAD_REACTORS
330
10
102
}
330
10
100
AcDbMaterial
  1
ByLayer
 72
     0
 43
0.0208333333333333
 43
0.0
 43
0.0
 43
0.0
 43
0.0
 43
0.0208333333333333
 43
0.0
 43
0.0
 43
0.0
 43
0.0
 43
1.0
 43
0.0
 43
0.0
 43
0.0
 43
0.0
 43
1.0
 77
     0
 47
0.0208333333333333
 47
0.0
 47
0.0
 47
0.0
 47
0.0
 47
0.0208333333333333
 47
0.0
 47
0.0
 47
0.0
 47
0.0
 47
1.0
 47
0.0
 47
0.0
 47
0.0
 47
0.0
 47
1.0
171
     0
 49
0.0208333333333333
 49
0.0
 49
0.0
 49
0.0
 49
0.0
 49
0.0208333333333333
 49
0.0
 49
0.0
 49
0.0
 49
0.0
 49
1.0
 49
0.0
 49
0.0
 49
0.0
 49
0.0
 49
1.0
175
     0
142
0.0208333333333333
142
0.0
142
0.0
142
0.0
142
0.0
142
0.0208333333333333
142
0.0
142
0.0
142
0.0
142
0.0
142
1.0
142
0.0
142
0.0
142
0.0
142
0.0
142
1.0
179
     0
144
0.0208333333333333
144
0.0
144
0.0
144
0.0
144
0.0
144
0.0208333333333333
144
0.0
144
0.0
144
0.0
144
0.0
144
1.0
144
0.0
144
0.0
144
0.0
144
0.0
144
1.0
147
0.0208333333333333
147
0.0
147
0.0
147
0.0
147
0.0
147
0.0208333333333333
147
0.0
147
0.0
147
0.0
147
0.0
147
1.0
147
0.0
147
0.0
147
0.0
147
0.0
147
1.0
  0
MATERIAL
  5
21
102
{ACAD_XDICTIONARY
360
22
102
}
102
{ACAD_REACTORS
330
10
102
}
330
10
100
AcDbMaterial
  1
Global
 72
     0
 43
0.0208333333333333
 43
0.0
 43
0.0
 43
0.0
 43
0.0
 43
0.0208333333333333
 43
0.0
 43
0.0
 43
0.0
 43
0.0
 43
1.0
 43
0.0
 43
0.0
 43
0.0
 43
0.0
 43
1.0
 77
     0
 47
0.0208333333333333
 47
0.0
 47
0.0
 47
0.0
 47
0.0
 47
0.0208333333333333
 47
0.0
 47
0.0
 47
0.0
 47
0.0
 47
1.0
 47
0.0
 47
0.0
 47
0.0
 47
0.0
 47
1.0
171
     0
 49
0.0208333333333333
 49
0.0
 49
0.0
 49
0.0
 49
0.0
 49
0.0208333333333333
 49
0.0
 49
0.0
 49
0.0
 49
0.0
 49
1.0
 49
0.0
 49
0.0
 49
0.0
 49
0.0
 49
1.0
175
     0
142
0.0208333333333333
142
0.0
142
0.0
142
0.0
142
0.0
142
0.0208333333333333
142
0.0
142
0.0
142
0.0
142
0.0
142
1.0
142
0.0
142
0.0
142
0.0
142
0.0
142
1.0
179
     0
144
0.0208333333333333
144
0.0
144
0.0
144
0.0
144
0.0
144
0.0208333333333333
144
0.0
144
0.0
144
0.0
144
0.0
144
1.0
144
0.0
144
0.0
144
0.0
144
0.0
144
1.0
147
0.0208333333333333
147
0.0
147
0.0
147
0.0
147
0.0
147
0.0208333333333333
147
0.0
147
0.0
147
0.0
147
0.0
147
1.0
147
0.0
147
0.0
147
0.0
147
0.0
147
1.0
  0
MLEADERSTYLE
  5
67
102
{ACAD_REACTORS
330
66
102
}
330
66
100
AcDbMLeaderStyle
179
     2
170
     2
171
     1
172
     0
 90
        2
 40
0.0
 41
0.0
173
     1
 91
-1056964608
340
5B
 92
       -2
290
     1
 42
0.09
291
     1
 43
0.36
  3
Standard
 44
0.18
300

342
55
174
     1
178
     6
175
     1
176
     0
 93
-1056964608
 45
0.18
292
     0
297
     0
 46
0.18
 94
-1056964608
 47
1.0
 49
1.0
140
1.0
293
     1
141
0.0
294
     1
177
     0
142
1.0
295
     1
296
     0
143
0.125
271
     0
272
     9
273
     9
298
     1
  0
MLINESTYLE
  5
60
102
{ACAD_REACTORS
330
5F
102
}
330
5F
100
AcDbMlineStyle
  2
STANDARD
 70
     0
  3

 62
   256
 51
90.0
 52
90.0
 71
     2
 49
0.5
 62
   256
  6
BYLAYER
 49
-0.5
 62
   256
  6
BYLAYER
  0
ACDBPLACEHOLDER
  5
F
102
{ACAD_REACTORS
330
E
102
}
330
E
  0
SCALE
  5
43
102
{ACAD_REACTORS
330
42
102
}
330
42
100
AcDbScale
 70
     0
300
1:1
140
1.0
141
1.0
290
     1
  0
SCALE
  5
44
102
{ACAD_REACTORS
330
42
102
}
330
42
100
AcDbScale
 70
     0
300
1/128" = 1'-0"
140
0.0078125
141
12.0
290
     0
  0
SCALE
  5
45
102
{ACAD_REACTORS
330
42
102
}
330
42
100
AcDbScale
 70
     0
300
1/64" = 1'-0"
140
0.015625
141
12.0
290
     0
  0
SCALE
  5
46
102
{ACAD_REACTORS
330
42
102
}
330
42
100
AcDbScale
 70
     0
300
1/32" = 1'-0"
140
0.03125
141
12.0
290
     0
  0
SCALE
  5
47
102
{ACAD_REACTORS
330
42
102
}
330
42
100
AcDbScale
 70
     0
300
1/16" = 1'-0"
140
0.0625
141
12.0
290
     0
  0
SCALE
  5
48
102
{ACAD_REACTORS
330
42
102
}
330
42
100
AcDbScale
 70
     0
300
3/32" = 1'-0"
140
0.09375
141
12.0
290
     0
  0
SCALE
  5
49
102
{ACAD_REACTORS
330
42
102
}
330
42
100
AcDbScale
 70
     0
300
1/8" = 1'-0"
140
0.125
141
12.0
290
     0
  0
SCALE
  5
4A
102
{ACAD_REACTORS
330
42
102
}
330
42
100
AcDbScale
 70
     0
300
3/16" = 1'-0"
140
0.1875
141
12.0
290
     0
  0
SCALE
  5
4B
102
{ACAD_REACTORS
330
42
102
}
330
42
100
AcDbScale
 70
     0
300
1/4" = 1'-0"
140
0.25
141
12.0
290
     0
  0
SCALE
  5
4C
102
{ACAD_REACTORS
330
42
102
}
330
42
100
AcDbScale
 70
     0
300
3/8" = 1'-0"
140
0.375
141
12.0
290
     0
  0
SCALE
  5
4D
102
{ACAD_REACTORS
330
42
102
}
330
42
100
AcDbScale
 70
     0
300
1/2" = 1'-0"
140
0.5
141
12.0
290
     0
  0
SCALE
  5
4E
102
{ACAD_REACTORS
330
42
102
}
330
42
100
AcDbScale
 70
     0
300
3/4" = 1'-0"
140
0.75
141
12.0
290
     0
  0
SCALE
  5
4F
102
{ACAD_REACTORS
330
42
102
}
330
42
100
AcDbScale
 70
     0
300
1" = 1'-0"
140
1.0
141
12.0
290
     0
  0
SCALE
  5
50
102
{ACAD_REACTORS
330
42
102
}
330
42
100
AcDbScale
 70
     0
300
1-1/2" = 1'-0"
140
1.5
141
12.0
290
     0
  0
SCALE
  5
51
102
{ACAD_REACTORS
330
42
102
}
330
42
100
AcDbScale
 70
     0
300
3" = 1'-0"
140
3.0
141
12.0
290
     0
  0
SCALE
  5
52
102
{ACAD_REACTORS
330
42
102
}
330
42
100
AcDbScale
 70
     0
300
6" = 1'-0"
140
6.0
141
12.0
290
     0
  0
SCALE
  5
53
102
{ACAD_REACTORS
330
42
102
}
330
42
100
AcDbScale
 70
     0
300
1'-0" = 1'-0"
140
12.0
141
12.0
290
     0
  0
ACDBSECTIONVIEWSTYLE
  5
69
102
{ACAD_REACTORS
330
68
102
}
330
68
100
AcDbModelDocViewStyle
 70
     0
  3
Imperial24
290
     1
300
Imperial24
 90
        0
100
AcDbSectionViewStyle
 70
     0
 71
     0
 90
       78
 71
     1
340
55
 62
   256
 40
0.24
340
0
340
0
 62
   256
 40
0.24
300
I, O, Q, S, X, Z
 40
0.48
 90
        3
 40
0.18
 90
        1
 71
     2
340
5D
 90
       25
 62
   256
340
5D
 90
       50
 62
   256
 40
0.24
 40
0.0
 40
0.24
 71
     3
340
55
 62
   256
 40
0.24
 90
        1
 40
0.75
 90
        1
300
%<\AcVar ViewType \f "%tc1">% %<\AcVar ViewSectionStartId>%-%<\AcVar ViewSectionEndId>%\PSCALE %<\AcVar ViewScale \f "%sn">%
 71
     4
 62
   256
 62
   257
300
ANSI31
 40
1.0
 90
        0
290
     0
290
     0
 90
        6
 40
0.0
 40
1.570796326794896
 40
0.2617993877991494
 40
1.308996938995747
 40
-0.2617993877991494
 40
1.832595714594046
  0
TABLESTYLE
  5
65
102
{ACAD_XDICTIONARY
360
32D
102
}
102
{ACAD_REACTORS
330
64
102
}
330
64
100
AcDbTableStyle
280
     0
  3
Standard
 70
     0
 71
     0
 40
0.06
 41
0.06
280
     0
281
     0
  7
Standard
140
0.18
170
     2
 62
     0
 63
     7
283
     0
 90
      512
 91
        0
  1

274
    -2
284
     1
 64
     0
275
    -2
285
     1
 65
     0
276
    -2
286
     1
 66
     0
277
    -2
287
     1
 67
     0
278
    -2
288
     1
 68
     0
279
    -2
289
     1
 69
     0
  7
Standard
140
0.25
170
     5
 62
     0
 63
     7
283
     0
 90
      512
 91
        0
  1

274
    -2
284
     1
 64
     0
275
    -2
285
     1
 65
     0
276
    -2
286
     1
 66
     0
277
    -2
287
     1
 67
     0
278
    -2
288
     1
 68
     0
279
    -2
289
     1
 69
     0
  7
Standard
140
0.18
170
     5
 62
     0
 63
     7
283
     0
 90
      512
 91
        0
  1

274
    -2
284
     1
 64
     0
275
    -2
285
     1
 65
     0
276
    -2
286
     1
 66
     0
277
    -2
287
     1
 67
     0
278
    -2
288
     1
 68
     0
279
    -2
289
     1
 69
     0
  0
VISUALSTYLE
  5
2F
102
{ACAD_REACTORS
330
29
102
}
330
29
100
AcDbVisualStyle
  2
2dWireframe
 70
     4
177
     3
291
     0
 70
    58
 90
        0
176
     1
 90
        2
176
     1
 90
        0
176
     1
 90
        0
176
     1
 40
0.6
176
     1
 40
30.0
176
     1
 62
     7
420
 16777215
176
     1
 90
        1
176
     1
 90
        4
176
     1
 62
     7
176
     1
 62
   257
176
     1
 90
        1
176
     1
 90
        1
176
     1
 40
1.0
176
     1
 90
        0
176
     1
 62
   257
176
     1
 40
1.0
176
     1
 90
        1
176
     1
 90
        6
176
     1
 90
        2
176
     1
 62
     7
176
     1
 90
        5
176
     1
 90
        0
176
     1
 90
        0
176
     1
290
     0
176
     1
 90
        1
176
     1
 40
0.0
176
     1
 90
        0
176
     1
290
     1
176
     1
290
     1
176
     1
290
     0
176
     1
290
     0
176
     1
290
     0
176
     1
290
     0
176
     1
290
     0
176
     1
290
     0
176
     1
290
     0
176
     1
 90
       50
176
     1
 40
0.0
176
     1
 40
1.0
176
     1
 90
        0
176
     1
 62
    18
420
        0
176
     1
 90
       50
176
     1
 90
        3
176
     1
 62
     5
420
      255
176
     1
290
     0
176
     1
 90
       50
176
     1
 90
       50
176
     1
 90
       50
176
     1
290
     0
176
     1
 90
       50
176
     1
 62
   256
176
     0
 40
1.0
176
     0
 90
        2
176
     1
  1
strokes_ogs.tif
176
     1
290
     0
176
     1
 40
1.0
176
     1
 40
1.0
176
     1
  0
VISUALSTYLE
  5
2E
102
{ACAD_REACTORS
330
29
102
}
330
29
100
AcDbVisualStyle
  2
Basic
 70
     7
177
     3
291
     1
 70
    58
 90
        1
176
     1
 90
        0
176
     1
 90
        1
176
     1
 90
        0
176
     1
 40
0.6
176
     1
 40
30.0
176
     1
 62
     7
420
 16777215
176
     1
 90
        0
176
     1
 90
        4
176
     1
 62
     7
176
     1
 62
   257
176
     1
 90
        1
176
     1
 90
        1
176
     1
 40
1.0
176
     1
 90
        8
176
     1
 62
     7
176
     1
 40
1.0
176
     1
 90
        1
176
     1
 90
        6
176
     1
 90
        2
176
     1
 62
     7
176
     1
 90
        5
176
     1
 90
        0
176
     1
 90
        0
176
     1
290
     0
176
     1
 90
        1
176
     1
 40
0.0
176
     1
 90
        0
176
     1
290
     0
176
     1
290
     1
176
     1
290
     1
176
     1
290
     0
176
     1
290
     0
176
     1
290
     0
176
     1
290
     0
176
     1
290
     0
176
     1
290
     0
176
     1
 90
       50
176
     1
 40
0.0
176
     1
 40
1.0
176
     1
 90
        0
176
     1
 62
    18
420
        0
176
     1
 90
       50
176
     1
 90
        3
176
     1
 62
     5
420
      255
176
     1
290
     0
176
     1
 90
       50
176
     1
 90
       50
176
     1
 90
       50
176
     1
290
     0
176
     1
 90
       50
176
     1
 62
   256
176
     0
 40
1.0
176
     0
 90
        2
176
     1
  1
strokes_ogs.tif
176
     1
290
     0
176
     1
 40
1.0
176
     1
 40
1.0
176
     1
  0
VISUALSTYLE
  5
35
102
{ACAD_REACTORS
330
29
102
}
330
29
100
AcDbVisualStyle
  2
Brighten
 70
    12
177
     3
291
     1
 70
    58
 90
        2
176
     1
 90
        2
176
     1
 90
        0
176
     1
 90
        0
176
     1
 40
0.6
176
     1
 40
30.0
176
     1
 62
     7
420
 16777215
176
     1
 90
        1
176
     1
 90
        4
176
     1
 62
     7
176
     1
 62
   257
176
     1
 90
        1
176
     1
 90
        1
176
     1
 40
1.0
176
     1
 90
        8
176
     1
 62
     7
176
     1
 40
1.0
176
     1
 90
        1
176
     1
 90
        6
176
     1
 90
        2
176
     1
 62
     7
176
     1
 90
        5
176
     1
 90
        0
176
     1
 90
        0
176
     1
290
     0
176
     1
 90
        1
176
     1
 40
50.0
176
     1
 90
        0
176
     1
290
     0
176
     1
290
     1
176
     1
290
     1
176
     1
290
     0
176
     1
290
     0
176
     1
290
     0
176
     1
290
     0
176
     1
290
     0
176
     1
290
     0
176
     1
 90
       50
176
     1
 40
0.0
176
     1
 40
1.0
176
     1
 90
        0
176
     1
 62
    18
420
        0
176
     1
 90
       50
176
     1
 90
        3
176
     1
 62
     5
420
      255
176
     1
290
     0
176
     1
 90
       50
176
     1
 90
       50
176
     1
 90
       50
176
     1
290
     0
176
     1
 90
       50
176
     1
 62
   256
176
     0
 40
1.0
176
     0
 90
        2
176
     1
  1
strokes_ogs.tif
176
     1
290
     0
176
     1
 40
1.0
176
     1
 40
1.0
176
     1
  0
VISUALSTYLE
  5
39
102
{ACAD_REACTORS
330
29
102
}
330
29
100
AcDbVisualStyle
  2
ColorChange
 70
    16
177
     3
291
     1
 70
    58
 90
        2
176
     1
 90
        2
176
     1
 90
        3
176
     1
 90
        0
176
     1
 40
0.6
176
     1
 40
30.0
176
     1
 62
     8
420
  8421504
176
     1
 90
        1
176
     1
 90
        4
176
     1
 62
     7
176
     1
 62
   257
176
     1
 90
        1
176
     1
 90
        1
176
     1
 40
1.0
176
     1
 90
        8
176
     1
 62
     8
420
  8421504
176
     1
 40
1.0
176
     1
 90
        1
176
     1
 90
        6
176
     1
 90
        2
176
     1
 62
     7
176
     1
 90
        5
176
     1
 90
        0
176
     1
 90
        0
176
     1
290
     0
176
     1
 90
        1
176
     1
 40
0.0
176
     1
 90
        0
176
     1
290
     0
176
     1
290
     1
176
     1
290
     1
176
     1
290
     0
176
     1
290
     0
176
     1
290
     0
176
     1
290
     0
176
     1
290
     0
176
     1
290
     0
176
     1
 90
       50
176
     1
 40
0.0
176
     1
 40
1.0
176
     1
 90
        0
176
     1
 62
    18
420
        0
176
     1
 90
       50
176
     1
 90
        3
176
     1
 62
     5
420
      255
176
     1
290
     0
176
     1
 90
       50
176
     1
 90
       50
176
     1
 90
       50
176
     1
290
     0
176
     1
 90
       50
176
     1
 62
   256
176
     0
 40
1.0
176
     0
 90
        2
176
     1
  1
strokes_ogs.tif
176
     1
290
     0
176
     1
 40
1.0
176
     1
 40
1.0
176
     1
  0
VISUALSTYLE
  5
32
102
{ACAD_REACTORS
330
29
102
}
330
29
100
AcDbVisualStyle
  2
Conceptual
 70
     9
177
     3
291
     0
 70
    58
 90
        3
176
     1
 90
        2
176
     1
 90
        0
176
     1
 90
        0
176
     1
 40
0.6
176
     1
 40
30.0
176
     1
 62
     7
420
 16777215
176
     1
 90
        2
176
     1
 90
        2
176
     1
 62
     7
176
     1
 62
   257
176
     1
 90
        1
176
     1
 90
        1
176
     1
 40
179.0
176
     1
 90
        8
176
     1
 62
     7
176
     1
 40
1.0
176
     1
 90
        1
176
     1
 90
        6
176
     1
 90
        2
176
     1
 62
     7
176
     1
 90
        3
176
     1
 90
        0
176
     1
 90
        0
176
     1
290
     0
176
     1
 90
        1
176
     1
 40
0.0
176
     1
 90
        0
176
     1
290
     0
176
     1
290
     1
176
     1
290
     1
176
     1
290
     0
176
     1
290
     0
176
     1
290
     0
176
     1
290
     0
176
     1
290
     0
176
     1
290
     0
176
     1
 90
       50
176
     1
 40
0.0
176
     1
 40
1.0
176
     1
 90
        0
176
     1
 62
    18
420
        0
176
     1
 90
       50
176
     1
 90
        3
176
     1
 62
     5
420
      255
176
     1
290
     0
176
     1
 90
       50
176
     1
 90
       50
176
     1
 90
       50
176
     1
290
     0
176
     1
 90
       50
176
     1
 62
   256
176
     0
 40
1.0
176
     0
 90
        2
176
     1
  1
strokes_ogs.tif
176
     1
290
     0
176
     1
 40
1.0
176
     1
 40
1.0
176
     1
  0
VISUALSTYLE
  5
34
102
{ACAD_REACTORS
330
29
102
}
330
29
100
AcDbVisualStyle
  2
Dim
 70
    11
177
     3
291
     1
 70
    58
 90
        2
176
     1
 90
        2
176
     1
 90
        0
176
     1
 90
        0
176
     1
 40
0.6
176
     1
 40
30.0
176
     1
 62
     7
420
 16777215
176
     1
 90
        1
176
     1
 90
        4
176
     1
 62
     7
176
     1
 62
   257
176
     1
 90
        1
176
     1
 90
        1
176
     1
 40
1.0
176
     1
 90
        8
176
     1
 62
     7
176
     1
 40
1.0
176
     1
 90
        1
176
     1
 90
        6
176
     1
 90
        2
176
     1
 62
     7
176
     1
 90
        5
176
     1
 90
        0
176
     1
 90
        0
176
     1
290
     0
176
     1
 90
        1
176
     1
 40
-50.0
176
     1
 90
        0
176
     1
290
     0
176
     1
290
     1
176
     1
290
     1
176
     1
290
     0
176
     1
290
     0
176
     1
290
     0
176
     1
290
     0
176
     1
290
     0
176
     1
290
     0
176
     1
 90
       50
176
     1
 40
0.0
176
     1
 40
1.0
176
     1
 90
        0
176
     1
 62
    18
420
        0
176
     1
 90
       50
176
     1
 90
        3
176
     1
 62
     5
420
      255
176
     1
290
     0
176
     1
 90
       50
176
     1
 90
       50
176
     1
 90
       50
176
     1
290
     0
176
     1
 90
       50
176
     1
 62
   256
176
     0
 40
1.0
176
     0
 90
        2
176
     1
  1
strokes_ogs.tif
176
     1
290
     0
176
     1
 40
1.0
176
     1
 40
1.0
176
     1
  0
VISUALSTYLE
  5
41
102
{ACAD_REACTORS
330
29
102
}
330
29
100
AcDbVisualStyle
  2
EdgeColorOff
 70
    22
177
     3
291
     1
 70
    58
 90
        2
176
     0
 90
        2
176
     0
 90
        0
176
     0
 90
        0
176
     0
 40
0.6
176
     0
 40
30.0
176
     0
 62
     7
420
 16777215
176
     0
 90
        1
176
     0
 90
        4
176
     0
 62
     7
176
     0
 62
   257
176
     0
 90
        1
176
     0
 90
        1
176
     0
 40
1.0
176
     0
 90
        8
176
     2
 62
     7
176
     0
 40
1.0
176
     0
 90
        1
176
     0
 90
        6
176
     0
 90
        2
176
     0
 62
     7
176
     0
 90
        5
176
     0
 90
        0
176
     0
 90
        0
176
     0
290
     0
176
     0
 90
        1
176
     0
 40
0.0
176
     0
 90
        0
176
     0
290
     0
176
     0
290
     1
176
     0
290
     1
176
     0
290
     0
176
     0
290
     0
176
     0
290
     0
176
     0
290
     0
176
     0
290
     0
176
     0
290
     0
176
     0
 90
       50
176
     0
 40
0.0
176
     0
 40
1.0
176
     0
 90
        0
176
     0
 62
    18
420
        0
176
     0
 90
       50
176
     0
 90
        3
176
     0
 62
     5
420
      255
176
     0
290
     0
176
     0
 90
       50
176
     0
 90
       50
176
     0
 90
       50
176
     0
290
     0
176
     0
 90
       50
176
     0
 62
   256
176
     0
 40
1.0
176
     0
 90
        2
176
     0
  1
strokes_ogs.tif
176
     0
290
     0
176
     0
 40
1.0
176
     0
 40
1.0
176
     0
  0
VISUALSTYLE
  5
38
102
{ACAD_REACTORS
330
29
102
}
330
29
100
AcDbVisualStyle
  2
Facepattern
 70
    15
177
     3
291
     1
 70
    58
 90
        2
176
     1
 90
        2
176
     1
 90
        0
176
     1
 90
        0
176
     1
 40
0.6
176
     1
 40
30.0
176
     1
 62
     7
420
 16777215
176
     1
 90
        1
176
     1
 90
        4
176
     1
 62
     7
176
     1
 62
   257
176
     1
 90
        1
176
     1
 90
        1
176
     1
 40
1.0
176
     1
 90
        8
176
     1
 62
     7
176
     1
 40
1.0
176
     1
 90
        1
176
     1
 90
        6
176
     1
 90
        2
176
     1
 62
     7
176
     1
 90
        5
176
     1
 90
        0
176
     1
 90
        0
176
     1
290
     0
176
     1
 90
        1
176
     1
 40
0.0
176
     1
 90
        0
176
     1
290
     0
176
     1
290
     1
176
     1
290
     1
176
     1
290
     0
176
     1
290
     0
176
     1
290
     0
176
     1
290
     0
176
     1
290
     0
176
     1
290
     0
176
     1
 90
       50
176
     1
 40
0.0
176
     1
 40
1.0
176
     1
 90
        0
176
     1
 62
    18
420
        0
176
     1
 90
       50
176
     1
 90
        3
176
     1
 62
     5
420
      255
176
     1
290
     0
176
     1
 90
       50
176
     1
 90
       50
176
     1
 90
       50
176
     1
290
     0
176
     1
 90
       50
176
     1
 62
   256
176
     0
 40
1.0
176
     0
 90
        2
176
     1
  1
strokes_ogs.tif
176
     1
290
     0
176
     1
 40
1.0
176
     1
 40
1.0
176
     1
  0
VISUALSTYLE
  5
2A
102
{ACAD_REACTORS
330
29
102
}
330
29
100
AcDbVisualStyle
  2
Flat
 70
     0
177
     3
291
     1
 70
    58
 90
        2
176
     1
 90
        1
176
     1
 90
        1
176
     1
 90
        2
176
     1
 40
0.6
176
     1
 40
30.0
176
     1
 62
     7
420
 16777215
176
     1
 90
        0
176
     1
 90
        0
176
     1
 62
     7
176
     1
 62
   257
176
     1
 90
        1
176
     1
 90
        1
176
     1
 40
1.0
176
     1
 90
        8
176
     1
 62
     7
176
     1
 40
1.0
176
     1
 90
        1
176
     1
 90
        6
176
     1
 90
        2
176
     1
 62
     7
176
     1
 90
        5
176
     1
 90
        0
176
     1
 90
        0
176
     1
290
     0
176
     1
 90
       13
176
     1
 40
0.0
176
     1
 90
        0
176
     1
290
     0
176
     1
290
     1
176
     1
290
     1
176
     1
290
     0
176
     1
290
     0
176
     1
290
     0
176
     1
290
     0
176
     1
290
     0
176
     1
290
     0
176
     1
 90
       50
176
     1
 40
0.0
176
     1
 40
1.0
176
     1
 90
        0
176
     1
 62
    18
420
        0
176
     1
 90
       50
176
     1
 90
        3
176
     1
 62
     5
420
      255
176
     1
290
     0
176
     1
 90
       50
176
     1
 90
       50
176
     1
 90
       50
176
     1
290
     0
176
     1
 90
       50
176
     1
 62
   256
176
     0
 40
1.0
176
     0
 90
        2
176
     1
  1
strokes_ogs.tif
176
     1
290
     0
176
     1
 40
1.0
176
     1
 40
1.0
176
     1
  0
VISUALSTYLE
  5
2B
102
{ACAD_REACTORS
330
29
102
}
330
29
100
AcDbVisualStyle
  2
FlatWithEdges
 70
     1
177
     3
291
     1
 70
    58
 90
        2
176
     1
 90
        1
176
     1
 90
        1
176
     1
 90
        2
176
     1
 40
0.6
176
     1
 40
30.0
176
     1
 62
     7
420
 16777215
176
     1
 90
        1
176
     1
 90
        0
176
     1
 62
     7
176
     1
 62
   257
176
     1
 90
        1
176
     1
 90
        1
176
     1
 40
1.0
176
     1
 90
        0
176
     1
 62
   257
176
     1
 40
1.0
176
     1
 90
        1
176
     1
 90
        6
176
     1
 90
        2
176
     1
 62
     7
176
     1
 90
        5
176
     1
 90
        0
176
     1
 90
        0
176
     1
290
     0
176
     1
 90
       13
176
     1
 40
0.0
176
     1
 90
        0
176
     1
290
     0
176
     1
290
     1
176
     1
290
     1
176
     1
290
     0
176
     1
290
     0
176
     1
290
     0
176
     1
290
     0
176
     1
290
     0
176
     1
290
     0
176
     1
 90
       50
176
     1
 40
0.0
176
     1
 40
1.0
176
     1
 90
        0
176
     1
 62
    18
420
        0
176
     1
 90
       50
176
     1
 90
        3
176
     1
 62
     5
420
      255
176
     1
290
     0
176
     1
 90
       50
176
     1
 90
       50
176
     1
 90
       50
176
     1
290
     0
176
     1
 90
       50
176
     1
 62
   256
176
     0
 40
1.0
176
     0
 90
        2
176
     1
  1
strokes_ogs.tif
176
     1
290
     0
176
     1
 40
1.0
176
     1
 40
1.0
176
     1
  0
VISUALSTYLE
  5
2C
102
{ACAD_REACTORS
330
29
102
}
330
29
100
AcDbVisualStyle
  2
Gouraud
 70
     2
177
     3
291
     1
 70
    58
 90
        2
176
     1
 90
        2
176
     1
 90
        1
176
     1
 90
        2
176
     1
 40
0.6
176
     1
 40
30.0
176
     1
 62
     7
420
 16777215
176
     1
 90
        0
176
     1
 90
        0
176
     1
 62
     7
176
     1
 62
   257
176
     1
 90
        1
176
     1
 90
        1
176
     1
 40
1.0
176
     1
 90
        0
176
     1
 62
     7
176
     1
 40
1.0
176
     1
 90
        1
176
     1
 90
        6
176
     1
 90
        2
176
     1
 62
     7
176
     1
 90
        5
176
     1
 90
        0
176
     1
 90
        0
176
     1
290
     0
176
     1
 90
       13
176
     1
 40
0.0
176
     1
 90
        0
176
     1
290
     0
176
     1
290
     1
176
     1
290
     1
176
     1
290
     0
176
     1
290
     0
176
     1
290
     0
176
     1
290
     0
176
     1
290
     0
176
     1
290
     0
176
     1
 90
       50
176
     1
 40
0.0
176
     1
 40
1.0
176
     1
 90
        0
176
     1
 62
    18
420
        0
176
     1
 90
       50
176
     1
 90
        3
176
     1
 62
     5
420
      255
176
     1
290
     0
176
     1
 90
       50
176
     1
 90
       50
176
     1
 90
       50
176
     1
290
     0
176
     1
 90
       50
176
     1
 62
   256
176
     0
 40
1.0
176
     0
 90
        2
176
     1
  1
strokes_ogs.tif
176
     1
290
     0
176
     1
 40
1.0
176
     1
 40
1.0
176
     1
  0
VISUALSTYLE
  5
2D
102
{ACAD_REACTORS
330
29
102
}
330
29
100
AcDbVisualStyle
  2
GouraudWithEdges
 70
     3
177
     3
291
     1
 70
    58
 90
        2
176
     1
 90
        2
176
     1
 90
        1
176
     1
 90
        2
176
     1
 40
0.6
176
     1
 40
30.0
176
     1
 62
     7
420
 16777215
176
     1
 90
        1
176
     1
 90
        0
176
     1
 62
     7
176
     1
 62
   257
176
     1
 90
        1
176
     1
 90
        1
176
     1
 40
1.0
176
     1
 90
        0
176
     1
 62
   257
176
     1
 40
1.0
176
     1
 90
        1
176
     1
 90
        6
176
     1
 90
        2
176
     1
 62
     7
176
     1
 90
        5
176
     1
 90
        0
176
     1
 90
        0
176
     1
290
     0
176
     1
 90
       13
176
     1
 40
0.0
176
     1
 90
        0
176
     1
290
     0
176
     1
290
     1
176
     1
290
     1
176
     1
290
     0
176
     1
290
     0
176
     1
290
     0
176
     1
290
     0
176
     1
290
     0
176
     1
290
     0
176
     1
 90
       50
176
     1
 40
0.0
176
     1
 40
1.0
176
     1
 90
        0
176
     1
 62
    18
420
        0
176
     1
 90
       50
176
     1
 90
        3
176
     1
 62
     5
420
      255
176
     1
290
     0
176
     1
 90
       50
176
     1
 90
       50
176
     1
 90
       50
176
     1
290
     0
176
     1
 90
       50
176
     1
 62
   256
176
     0
 40
1.0
176
     0
 90
        2
176
     1
  1
strokes_ogs.tif
176
     1
290
     0
176
     1
 40
1.0
176
     1
 40
1.0
176
     1
  0
VISUALSTYLE
  5
31
102
{ACAD_REACTORS
330
29
102
}
330
29
100
AcDbVisualStyle
  2
Hidden
 70
     6
177
     3
291
     0
 70
    58
 90
        1
176
     1
 90
        2
176
     1
 90
        2
176
     1
 90
        0
176
     1
 40
0.6
176
     1
 40
30.0
176
     1
 62
     7
420
 16777215
176
     1
 90
        2
176
     1
 90
        2
176
     1
 62
     7
176
     1
 62
   257
176
     1
 90
        2
176
     1
 90
        1
176
     1
 40
40.0
176
     1
 90
        0
176
     1
 62
   257
176
     1
 40
1.0
176
     1
 90
        1
176
     1
 90
        6
176
     1
 90
        2
176
     1
 62
     7
176
     1
 90
        3
176
     1
 90
        0
176
     1
 90
        0
176
     1
290
     0
176
     1
 90
        1
176
     1
 40
0.0
176
     1
 90
        0
176
     1
290
     0
176
     1
290
     1
176
     1
290
     1
176
     1
290
     0
176
     1
290
     0
176
     1
290
     0
176
     1
290
     0
176
     1
290
     0
176
     1
290
     0
176
     1
 90
       50
176
     1
 40
0.0
176
     1
 40
1.0
176
     1
 90
        0
176
     1
 62
    18
420
        0
176
     1
 90
       50
176
     1
 90
        3
176
     1
 62
     5
420
      255
176
     1
290
     0
176
     1
 90
       50
176
     1
 90
       50
176
     1
 90
       50
176
     1
290
     0
176
     1
 90
       50
176
     1
 62
   256
176
     0
 40
1.0
176
     0
 90
        2
176
     1
  1
strokes_ogs.tif
176
     1
290
     0
176
     1
 40
1.0
176
     1
 40
1.0
176
     1
  0
VISUALSTYLE
  5
3F
102
{ACAD_REACTORS
330
29
102
}
330
29
100
AcDbVisualStyle
  2
JitterOff
 70
    20
177
     3
291
     1
 70
    58
 90
        2
176
     0
 90
        2
176
     0
 90
        0
176
     0
 90
        0
176
     0
 40
0.6
176
     0
 40
30.0
176
     0
 62
     7
420
 16777215
176
     0
 90
        1
176
     0
 90
        4
176
     0
 62
     7
176
     0
 62
   257
176
     0
 90
        1
176
     0
 90
        1
176
     0
 40
1.0
176
     0
 90
       10
176
     2
 62
     7
176
     0
 40
1.0
176
     0
 90
        1
176
     0
 90
        6
176
     0
 90
        2
176
     0
 62
     7
176
     0
 90
        5
176
     0
 90
        0
176
     0
 90
        0
176
     0
290
     0
176
     0
 90
        1
176
     0
 40
0.0
176
     0
 90
        0
176
     0
290
     0
176
     0
290
     1
176
     0
290
     1
176
     0
290
     0
176
     0
290
     0
176
     0
290
     0
176
     0
290
     0
176
     0
290
     0
176
     0
290
     0
176
     0
 90
       50
176
     0
 40
0.0
176
     0
 40
1.0
176
     0
 90
        0
176
     0
 62
    18
420
        0
176
     0
 90
       50
176
     0
 90
        3
176
     0
 62
     5
420
      255
176
     0
290
     0
176
     0
 90
       50
176
     0
 90
       50
176
     0
 90
       50
176
     0
290
     0
176
     0
 90
       50
176
     0
 62
   256
176
     0
 40
1.0
176
     0
 90
        2
176
     0
  1
strokes_ogs.tif
176
     0
290
     0
176
     0
 40
1.0
176
     0
 40
1.0
176
     0
  0
VISUALSTYLE
  5
37
102
{ACAD_REACTORS
330
29
102
}
330
29
100
AcDbVisualStyle
  2
Linepattern
 70
    14
177
     3
291
     1
 70
    58
 90
        2
176
     1
 90
        2
176
     1
 90
        0
176
     1
 90
        0
176
     1
 40
0.6
176
     1
 40
30.0
176
     1
 62
     7
420
 16777215
176
     1
 90
        1
176
     1
 90
        4
176
     1
 62
     7
176
     1
 62
   257
176
     1
 90
        7
176
     1
 90
        7
176
     1
 40
1.0
176
     1
 90
        8
176
     1
 62
     7
176
     1
 40
1.0
176
     1
 90
        1
176
     1
 90
        6
176
     1
 90
        2
176
     1
 62
     7
176
     1
 90
        5
176
     1
 90
        0
176
     1
 90
        0
176
     1
290
     0
176
     1
 90
        1
176
     1
 40
0.0
176
     1
 90
        0
176
     1
290
     0
176
     1
290
     1
176
     1
290
     1
176
     1
290
     0
176
     1
290
     0
176
     1
290
     0
176
     1
290
     0
176
     1
290
     0
176
     1
290
     0
176
     1
 90
       50
176
     1
 40
0.0
176
     1
 40
1.0
176
     1
 90
        0
176
     1
 62
    18
420
        0
176
     1
 90
       50
176
     1
 90
        3
176
     1
 62
     5
420
      255
176
     1
290
     0
176
     1
 90
       50
176
     1
 90
       50
176
     1
 90
       50
176
     1
290
     0
176
     1
 90
       50
176
     1
 62
   256
176
     0
 40
1.0
176
     0
 90
        2
176
     1
  1
strokes_ogs.tif
176
     1
290
     0
176
     1
 40
1.0
176
     1
 40
1.0
176
     1
  0
VISUALSTYLE
  5
40
102
{ACAD_REACTORS
330
29
102
}
330
29
100
AcDbVisualStyle
  2
OverhangOff
 70
    21
177
     3
291
     1
 70
    58
 90
        2
176
     0
 90
        2
176
     0
 90
        0
176
     0
 90
        0
176
     0
 40
0.6
176
     0
 40
30.0
176
     0
 62
     7
420
 16777215
176
     0
 90
        1
176
     0
 90
        4
176
     0
 62
     7
176
     0
 62
   257
176
     0
 90
        1
176
     0
 90
        1
176
     0
 40
1.0
176
     0
 90
        9
176
     2
 62
     7
176
     0
 40
1.0
176
     0
 90
        1
176
     0
 90
        6
176
     0
 90
        2
176
     0
 62
     7
176
     0
 90
        5
176
     0
 90
        0
176
     0
 90
        0
176
     0
290
     0
176
     0
 90
        1
176
     0
 40
0.0
176
     0
 90
        0
176
     0
290
     0
176
     0
290
     1
176
     0
290
     1
176
     0
290
     0
176
     0
290
     0
176
     0
290
     0
176
     0
290
     0
176
     0
290
     0
176
     0
290
     0
176
     0
 90
       50
176
     0
 40
0.0
176
     0
 40
1.0
176
     0
 90
        0
176
     0
 62
    18
420
        0
176
     0
 90
       50
176
     0
 90
        3
176
     0
 62
     5
420
      255
176
     0
290
     0
176
     0
 90
       50
176
     0
 90
       50
176
     0
 90
       50
176
     0
290
     0
176
     0
 90
       50
176
     0
 62
   256
176
     0
 40
1.0
176
     0
 90
        2
176
     0
  1
strokes_ogs.tif
176
     0
290
     0
176
     0
 40
1.0
176
     0
 40
1.0
176
     0
  0
VISUALSTYLE
  5
33
102
{ACAD_REACTORS
330
29
102
}
330
29
100
AcDbVisualStyle
  2
Realistic
 70
     8
177
     3
291
     0
 70
    58
 90
        2
176
     1
 90
        3
176
     1
 90
        0
176
     1
 90
        2
176
     1
 40
0.6
176
     1
 40
30.0
176
     1
 62
     7
420
 16777215
176
     1
 90
        0
176
     1
 90
        0
176
     1
 62
     7
176
     1
 62
   257
176
     1
 90
        1
176
     1
 90
        1
176
     1
 40
1.0
176
     1
 90
        8
176
     1
 62
   257
176
     1
 40
1.0
176
     1
 90
        1
176
     1
 90
        6
176
     1
 90
        2
176
     1
 62
     7
176
     1
 90
        3
176
     1
 90
        0
176
     1
 90
        0
176
     1
290
     0
176
     1
 90
       13
176
     1
 40
0.0
176
     1
 90
        0
176
     1
290
     0
176
     1
290
     1
176
     1
290
     1
176
     1
290
     0
176
     1
290
     0
176
     1
290
     0
176
     1
290
     0
176
     1
290
     0
176
     1
290
     0
176
     1
 90
       50
176
     1
 40
0.0
176
     1
 40
1.0
176
     1
 90
        0
176
     1
 62
    18
420
        0
176
     1
 90
       50
176
     1
 90
        3
176
     1
 62
     5
420
      255
176
     1
290
     0
176
     1
 90
       50
176
     1
 90
       50
176
     1
 90
       50
176
     1
290
     0
176
     1
 90
       50
176
     1
 62
   256
176
     0
 40
1.0
176
     0
 90
        2
176
     1
  1
strokes_ogs.tif
176
     1
290
     0
176
     1
 40
1.0
176
     1
 40
1.0
176
     1
  0
VISUALSTYLE
  5
3E
102
{ACAD_REACTORS
330
29
102
}
330
29
100
AcDbVisualStyle
  2
Shaded
 70
    27
177
     3
291
     0
 70
    58
 90
        2
176
     1
 90
        2
176
     1
 90
        1
176
     1
 90
        2
176
     1
 40
0.6
176
     1
 40
30.0
176
     1
 62
     7
420
 16777215
176
     1
 90
        0
176
     1
 90
        4
176
     1
 62
     7
176
     1
 62
   257
176
     1
 90
        1
176
     1
 90
        1
176
     1
 40
1.0
176
     1
 90
        8
176
     1
 62
   257
176
     1
 40
1.0
176
     1
 90
        1
176
     1
 90
        6
176
     1
 90
        2
176
     1
 62
     8
420
  7895160
176
     1
 90
        3
176
     1
 90
        0
176
     1
 90
        0
176
     1
290
     0
176
     1
 90
        5
176
     1
 40
0.0
176
     1
 90
        0
176
     1
290
     0
176
     1
290
     1
176
     1
290
     1
176
     1
290
     0
176
     1
290
     0
176
     1
290
     0
176
     1
290
     0
176
     1
290
     0
176
     1
290
     0
176
     1
 90
       50
176
     1
 40
0.0
176
     1
 40
1.0
176
     1
 90
        0
176
     1
 62
    18
420
        0
176
     1
 90
       50
176
     1
 90
        3
176
     1
 62
     5
420
      255
176
     1
290
     0
176
     1
 90
       50
176
     1
 90
       50
176
     1
 90
       50
176
     1
290
     0
176
     1
 90
       50
176
     1
 62
   256
176
     0
 40
1.0
176
     0
 90
        2
176
     1
  1
strokes_ogs.tif
176
     1
290
     0
176
     1
 40
1.0
176
     1
 40
1.0
176
     1
  0
VISUALSTYLE
  5
3D
102
{ACAD_REACTORS
330
29
102
}
330
29
100
AcDbVisualStyle
  2
Shaded with edges
 70
    26
177
     3
291
     0
 70
    58
 90
        2
176
     1
 90
        2
176
     1
 90
        1
176
     1
 90
        2
176
     1
 40
0.6
176
     1
 40
30.0
176
     1
 62
     7
420
 16777215
176
     1
 90
        1
176
     1
 90
        2
176
     1
 62
     7
176
     1
 62
   257
176
     1
 90
        2
176
     1
 90
        1
176
     1
 40
1.0
176
     1
 90
        8
176
     1
 62
   257
176
     1
 40
1.0
176
     1
 90
        1
176
     1
 90
        6
176
     1
 90
        2
176
     1
 62
     7
176
     1
 90
        3
176
     1
 90
        0
176
     1
 90
        0
176
     1
290
     0
176
     1
 90
        5
176
     1
 40
0.0
176
     1
 90
        0
176
     1
290
     0
176
     1
290
     1
176
     1
290
     1
176
     1
290
     0
176
     1
290
     0
176
     1
290
     0
176
     1
290
     0
176
     1
290
     0
176
     1
290
     0
176
     1
 90
       50
176
     1
 40
0.0
176
     1
 40
1.0
176
     1
 90
        0
176
     1
 62
    18
420
        0
176
     1
 90
       50
176
     1
 90
        3
176
     1
 62
     5
420
      255
176
     1
290
     0
176
     1
 90
       50
176
     1
 90
       50
176
     1
 90
       50
176
     1
290
     0
176
     1
 90
       50
176
     1
 62
   256
176
     0
 40
1.0
176
     0
 90
        2
176
     1
  1
strokes_ogs.tif
176
     1
290
     0
176
     1
 40
1.0
176
     1
 40
1.0
176
     1
  0
VISUALSTYLE
  5
3A
102
{ACAD_REACTORS
330
29
102
}
330
29
100
AcDbVisualStyle
  2
Shades of Gray
 70
    23
177
     3
291
     0
 70
    58
 90
        2
176
     1
 90
        2
176
     1
 90
        3
176
     1
 90
        0
176
     1
 40
0.6
176
     1
 40
30.0
176
     1
 62
     7
420
 16777215
176
     1
 90
        2
176
     1
 90
        2
176
     1
 62
     7
176
     1
 62
     7
176
     1
 90
        1
176
     1
 90
        1
176
     1
 40
40.0
176
     1
 90
        8
176
     1
 62
     7
176
     1
 40
1.0
176
     1
 90
        1
176
     1
 90
        6
176
     1
 90
        2
176
     1
 62
     7
176
     1
 90
        3
176
     1
 90
        0
176
     1
 90
        0
176
     1
290
     0
176
     1
 90
        1
176
     1
 40
0.0
176
     1
 90
        0
176
     1
290
     0
176
     1
290
     1
176
     1
290
     1
176
     1
290
     0
176
     1
290
     0
176
     1
290
     0
176
     1
290
     0
176
     1
290
     0
176
     1
290
     0
176
     1
 90
       50
176
     1
 40
0.0
176
     1
 40
1.0
176
     1
 90
        0
176
     1
 62
    18
420
        0
176
     1
 90
       50
176
     1
 90
        3
176
     1
 62
     5
420
      255
176
     1
290
     0
176
     1
 90
       50
176
     1
 90
       50
176
     1
 90
       50
176
     1
290
     0
176
     1
 90
       50
176
     1
 62
   256
176
     0
 40
1.0
176
     0
 90
        2
176
     1
  1
strokes_ogs.tif
176
     1
290
     0
176
     1
 40
1.0
176
     1
 40
1.0
176
     1
  0
VISUALSTYLE
  5
3B
102
{ACAD_REACTORS
330
29
102
}
330
29
100
AcDbVisualStyle
  2
Sketchy
 70
    24
177
     3
291
     0
 70
    58
 90
        1
176
     1
 90
        2
176
     1
 90
        2
176
     1
 90
        0
176
     1
 40
0.6
176
     1
 40
30.0
176
     1
 62
     7
420
 16777215
176
     1
 90
        2
176
     1
 90
        2
176
     1
 62
     7
176
     1
 62
     7
176
     1
 90
        1
176
     1
 90
        1
176
     1
 40
40.0
176
     1
 90
       11
176
     1
 62
     7
176
     1
 40
1.0
176
     1
 90
        1
176
     1
 90
        6
176
     1
 90
        2
176
     1
 62
     7
176
     1
 90
        6
176
     1
 90
        0
176
     1
 90
        0
176
     1
290
     0
176
     1
 90
        1
176
     1
 40
0.0
176
     1
 90
        0
176
     1
290
     0
176
     1
290
     1
176
     1
290
     1
176
     1
290
     0
176
     1
290
     0
176
     1
290
     0
176
     1
290
     0
176
     1
290
     0
176
     1
290
     0
176
     1
 90
       50
176
     1
 40
0.0
176
     1
 40
1.0
176
     1
 90
        0
176
     1
 62
    18
420
        0
176
     1
 90
       50
176
     1
 90
        3
176
     1
 62
     5
420
      255
176
     1
290
     0
176
     1
 90
       50
176
     1
 90
       50
176
     1
 90
       50
176
     1
290
     0
176
     1
 90
       50
176
     1
 62
   256
176
     0
 40
1.0
176
     0
 90
        2
176
     1
  1
strokes_ogs.tif
176
     1
290
     0
176
     1
 40
1.0
176
     1
 40
1.0
176
     1
  0
VISUALSTYLE
  5
36
102
{ACAD_REACTORS
330
29
102
}
330
29
100
AcDbVisualStyle
  2
Thicken
 70
    13
177
     3
291
     1
 70
    58
 90
        2
176
     1
 90
        2
176
     1
 90
        0
176
     1
 90
        0
176
     1
 40
0.6
176
     1
 40
30.0
176
     1
 62
     7
420
 16777215
176
     1
 90
        1
176
     1
 90
        4
176
     1
 62
     7
176
     1
 62
   257
176
     1
 90
        1
176
     1
 90
        1
176
     1
 40
1.0
176
     1
 90
       12
176
     1
 62
     7
176
     1
 40
1.0
176
     1
 90
        1
176
     1
 90
        6
176
     1
 90
        2
176
     1
 62
     7
176
     1
 90
        5
176
     1
 90
        0
176
     1
 90
        0
176
     1
290
     0
176
     1
 90
        1
176
     1
 40
0.0
176
     1
 90
        0
176
     1
290
     0
176
     1
290
     1
176
     1
290
     1
176
     1
290
     0
176
     1
290
     0
176
     1
290
     0
176
     1
290
     0
176
     1
290
     0
176
     1
290
     0
176
     1
 90
       50
176
     1
 40
0.0
176
     1
 40
1.0
176
     1
 90
        0
176
     1
 62
    18
420
        0
176
     1
 90
       50
176
     1
 90
        3
176
     1
 62
     5
420
      255
176
     1
290
     0
176
     1
 90
       50
176
     1
 90
       50
176
     1
 90
       50
176
     1
290
     0
176
     1
 90
       50
176
     1
 62
   256
176
     0
 40
1.0
176
     0
 90
        2
176
     1
  1
strokes_ogs.tif
176
     1
290
     0
176
     1
 40
1.0
176
     1
 40
1.0
176
     1
  0
VISUALSTYLE
  5
30
102
{ACAD_REACTORS
330
29
102
}
330
29
100
AcDbVisualStyle
  2
Wireframe
 70
     5
177
     3
291
     0
 70
    58
 90
        0
176
     1
 90
        2
176
     1
 90
        0
176
     1
 90
        0
176
     1
 40
0.6
176
     1
 40
30.0
176
     1
 62
     7
420
 16777215
176
     1
 90
        1
176
     1
 90
        4
176
     1
 62
     7
176
     1
 62
   257
176
     1
 90
        1
176
     1
 90
        1
176
     1
 40
1.0
176
     1
 90
        0
176
     1
 62
   257
176
     1
 40
1.0
176
     1
 90
        1
176
     1
 90
        6
176
     1
 90
        2
176
     1
 62
     7
176
     1
 90
        3
176
     1
 90
        0
176
     1
 90
        0
176
     1
290
     0
176
     1
 90
        1
176
     1
 40
0.0
176
     1
 90
        0
176
     1
290
     0
176
     1
290
     1
176
     1
290
     1
176
     1
290
     0
176
     1
290
     0
176
     1
290
     0
176
     1
290
     0
176
     1
290
     0
176
     1
290
     0
176
     1
 90
       50
176
     1
 40
0.0
176
     1
 40
1.0
176
     1
 90
        0
176
     1
 62
    18
420
        0
176
     1
 90
       50
176
     1
 90
        3
176
     1
 62
     5
420
      255
176
     1
290
     0
176
     1
 90
       50
176
     1
 90
       50
176
     1
 90
       50
176
     1
290
     0
176
     1
 90
       50
176
     1
 62
   256
176
     0
 40
1.0
176
     0
 90
        2
176
     1
  1
strokes_ogs.tif
176
     1
290
     0
176
     1
 40
1.0
176
     1
 40
1.0
176
     1
  0
VISUALSTYLE
  5
3C
102
{ACAD_REACTORS
330
29
102
}
330
29
100
AcDbVisualStyle
  2
X-Ray
 70
    25
177
     3
291
     0
 70
    58
 90
        2
176
     1
 90
        2
176
     1
 90
        1
176
     1
 90
        1
176
     1
 40
0.5
176
     1
 40
30.0
176
     1
 62
     7
420
 16777215
176
     1
 90
        1
176
     1
 90
        0
176
     1
 62
     7
176
     1
 62
   257
176
     1
 90
        1
176
     1
 90
        1
176
     1
 40
1.0
176
     1
 90
        8
176
     1
 62
     7
176
     1
 40
1.0
176
     1
 90
        1
176
     1
 90
        6
176
     1
 90
        2
176
     1
 62
     7
176
     1
 90
        3
176
     1
 90
        0
176
     1
 90
        0
176
     1
290
     0
176
     1
 90
       13
176
     1
 40
0.0
176
     1
 90
        0
176
     1
290
     0
176
     1
290
     1
176
     1
290
     1
176
     1
290
     0
176
     1
290
     0
176
     1
290
     0
176
     1
290
     0
176
     1
290
     0
176
     1
290
     0
176
     1
 90
       50
176
     1
 40
0.0
176
     1
 40
1.0
176
     1
 90
        0
176
     1
 62
    18
420
        0
176
     1
 90
       50
176
     1
 90
        3
176
     1
 62
     5
420
      255
176
     1
290
     0
176
     1
 90
       50
176
     1
 90
       50
176
     1
 90
       50
176
     1
290
     0
176
     1
 90
       50
176
     1
 62
   256
176
     0
 40
1.0
176
     0
 90
        2
176
     1
  1
strokes_ogs.tif
176
     1
290
     0
176
     1
 40
1.0
176
     1
 40
1.0
176
     1
  0
DICTIONARYVAR
  5
32C
102
{ACAD_REACTORS
330
327
102
}
330
327
100
DictionaryVariables
280
     0
  1
1:1
  0
DICTIONARYVAR
  5
329
102
{ACAD_REACTORS
330
327
102
}
330
327
100
DictionaryVariables
280
     0
  1
STANDARD
  0
DICTIONARYVAR
  5
328
102
{ACAD_REACTORS
330
327
102
}
330
327
100
DictionaryVariables
280
     0
  1
STANDARD
  0
DICTIONARYVAR
  5
32A
102
{ACAD_REACTORS
330
327
102
}
330
327
100
DictionaryVariables
280
     0
  1
Imperial24
  0
DICTIONARYVAR
  5
32B
102
{ACAD_REACTORS
330
327
102
}
330
327
100
DictionaryVariables
280
     0
  1
Imperial24
  0
DICTIONARY
  5
1A
330
19
100
AcDbDictionary
280
     1
281
     1
  3
BUMPTILE
360
1C
  3
DIFFUSETILE
360
1B
  3
OPACITYTILE
360
1F
  3
REFLECTIONTILE
360
1E
  3
REFRACTIONTILE
360
20
  3
SPECULARTILE
360
1D
  0
DICTIONARY
  5
12
330
11
100
AcDbDictionary
280
     1
281
     1
  3
BUMPTILE
360
14
  3
DIFFUSETILE
360
13
  3
OPACITYTILE
360
17
  3
REFLECTIONTILE
360
16
  3
REFRACTIONTILE
360
18
  3
SPECULARTILE
360
15
  0
DICTIONARY
  5
22
330
21
100
AcDbDictionary
280
     1
281
     1
  3
BUMPTILE
360
24
  3
DIFFUSETILE
360
23
  3
OPACITYTILE
360
27
  3
REFLECTIONTILE
360
26
  3
REFRACTIONTILE
360
28
  3
SPECULARTILE
360
25
  0
DICTIONARY
  5
32D
330
65
100
AcDbDictionary
280
     1
281
     1
  3
ACAD_ROUNDTRIP_2008_TABLESTYLE_CELLSTYLEMAP
360
32E
  0
XRECORD
  5
1C
102
{ACAD_REACTORS
330
1A
102
}
330
1A
100
AcDbXrecord
280
     1
270
     1
271
     1
  0
XRECORD
  5
1B
102
{ACAD_REACTORS
330
1A
102
}
330
1A
100
AcDbXrecord
280
     1
270
     1
271
     1
  0
XRECORD
  5
1F
102
{ACAD_REACTORS
330
1A
102
}
330
1A
100
AcDbXrecord
280
     1
270
     1
271
     1
  0
XRECORD
  5
1E
102
{ACAD_REACTORS
330
1A
102
}
330
1A
100
AcDbXrecord
280
     1
270
     1
271
     1
  0
XRECORD
  5
20
102
{ACAD_REACTORS
330
1A
102
}
330
1A
100
AcDbXrecord
280
     1
270
     1
271
     1
  0
XRECORD
  5
1D
102
{ACAD_REACTORS
330
1A
102
}
330
1A
100
AcDbXrecord
280
     1
270
     1
271
     1
  0
XRECORD
  5
14
102
{ACAD_REACTORS
330
12
102
}
330
12
100
AcDbXrecord
280
     1
270
     1
271
     1
  0
XRECORD
  5
13
102
{ACAD_REACTORS
330
12
102
}
330
12
100
AcDbXrecord
280
     1
270
     1
271
     1
  0
XRECORD
  5
17
102
{ACAD_REACTORS
330
12
102
}
330
12
100
AcDbXrecord
280
     1
270
     1
271
     1
  0
XRECORD
  5
16
102
{ACAD_REACTORS
330
12
102
}
330
12
100
AcDbXrecord
280
     1
270
     1
271
     1
  0
XRECORD
  5
18
102
{ACAD_REACTORS
330
12
102
}
330
12
100
AcDbXrecord
280
     1
270
     1
271
     1
  0
XRECORD
  5
15
102
{ACAD_REACTORS
330
12
102
}
330
12
100
AcDbXrecord
280
     1
270
     1
271
     1
  0
XRECORD
  5
24
102
{ACAD_REACTORS
330
22
102
}
330
22
100
AcDbXrecord
280
     1
270
     1
271
     1
  0
XRECORD
  5
23
102
{ACAD_REACTORS
330
22
102
}
330
22
100
AcDbXrecord
280
     1
270
     1
271
     1
  0
XRECORD
  5
27
102
{ACAD_REACTORS
330
22
102
}
330
22
100
AcDbXrecord
280
     1
270
     1
271
     1
  0
XRECORD
  5
26
102
{ACAD_REACTORS
330
22
102
}
330
22
100
AcDbXrecord
280
     1
270
     1
271
     1
  0
XRECORD
  5
28
102
{ACAD_REACTORS
330
22
102
}
330
22
100
AcDbXrecord
280
     1
270
     1
271
     1
  0
XRECORD
  5
25
102
{ACAD_REACTORS
330
22
102
}
330
22
100
AcDbXrecord
280
     1
270
     1
271
     1
  0
CELLSTYLEMAP
  5
32E
102
{ACAD_REACTORS
330
32D
102
}
330
32D
100
AcDbCellStyleMap
 90
        3
300
CELLSTYLE
  1
TABLEFORMAT_BEGIN
 90
        5
170
     1
 91
        0
 92
    32768
 62
   257
 93
        1
300
CONTENTFORMAT
  1
CONTENTFORMAT_BEGIN
 90
        0
 91
        0
 92
      512
 93
        0
300

 40
0.0
140
1.0
 94
        5
 62
     0
340
55
144
0.25
309
CONTENTFORMAT_END
171
     0
 94
        0
309
TABLEFORMAT_END
  1
CELLSTYLE_BEGIN
 90
        1
 91
        1
300
_TITLE
309
CELLSTYLE_END
300
CELLSTYLE
  1
TABLEFORMAT_BEGIN
 90
        5
170
     1
 91
        0
 92
        0
 62
   257
 93
        1
300
CONTENTFORMAT
  1
CONTENTFORMAT_BEGIN
 90
        0
 91
        0
 92
      512
 93
        0
300

 40
0.0
140
1.0
 94
        5
 62
     0
340
55
144
0.18
309
CONTENTFORMAT_END
171
     0
 94
        0
309
TABLEFORMAT_END
  1
CELLSTYLE_BEGIN
 90
        2
 91
        1
300
_HEADER
309
CELLSTYLE_END
300
CELLSTYLE
  1
TABLEFORMAT_BEGIN
 90
        5
170
     1
 91
        0
 92
        0
 62
   257
 93
        1
300
CONTENTFORMAT
  1
CONTENTFORMAT_BEGIN
 90
        0
 91
        0
 92
      512
 93
        0
300

 40
0.0
140
1.0
 94
        2
 62
     0
340
55
144
0.18
309
CONTENTFORMAT_END
171
     0
 94
        0
309
TABLEFORMAT_END
  1
CELLSTYLE_BEGIN
 90
        3
 91
        2
300
_DATA
309
CELLSTYLE_END
  0
ENDSEC
  0
EOF
