  0
SECTION
  2
HEADER
  9
$ACADVER
  1
AC1032
  9
$ACADMAINTVER
 90
      251
  9
$DWGCODEPAGE
  3
ANSI_1252
  9
$REQUIREDVERSIONS
160
                 0
  9
$INSBASE
 10
0.0
 20
0.0
 30
0.0
  9
$EXTMIN
 10
1.000000000000000E+20
 20
1.000000000000000E+20
 30
1.000000000000000E+20
  9
$EXTMAX
 10
-1.000000000000000E+20
 20
-1.000000000000000E+20
 30
-1.000000000000000E+20
  9
$LIMMIN
 10
0.0
 20
0.0
  9
$LIMMAX
 10
12.0
 20
9.0
  9
$ORTHOMODE
 70
     0
  9
$REGENMODE
 70
     1
  9
$FILLMODE
 70
     1
  9
$QTEXTMODE
 70
     0
  9
$MIRRTEXT
 70
     0
  9
$LTSCALE
 40
1.0
  9
$ATTMODE
 70
     1
  9
$TEXTSIZE
 40
0.2
  9
$TRACEWID
 40
0.05
  9
$TEXTSTYLE
  7
Standard
  9
$CLAYER
  8
0
  9
$CELTYPE
  6
ByLayer
  9
$CECOLOR
 62
   256
  9
$CELTSCALE
 40
1.0
  9
$DISPSILH
 70
     0
  9
$DIMSCALE
 40
1.0
  9
$DIMASZ
 40
0.18
  9
$DIMEXO
 40
0.0625
  9
$DIMDLI
 40
0.38
  9
$DIMRND
 40
0.0
  9
$DIMDLE
 40
0.0
  9
$DIMEXE
 40
0.18
  9
$DIMTP
 40
0.0
  9
$DIMTM
 40
0.0
  9
$DIMTXT
 40
0.18
  9
$DIMCEN
 40
0.09
  9
$DIMTSZ
 40
0.0
  9
$DIMTOL
 70
     0
  9
$DIMLIM
 70
     0
  9
$DIMTIH
 70
     1
  9
$DIMTOH
 70
     1
  9
$DIMSE1
 70
     0
  9
$DIMSE2
 70
     0
  9
$DIMTAD
 70
     0
  9
$DIMZIN
 70
     0
  9
$DIMBLK
  1

  9
$DIMASO
 70
     1
  9
$DIMSHO
 70
     1
  9
$DIMPOST
  1

  9
$DIMAPOST
  1

  9
$DIMALT
 70
     0
  9
$DIMALTD
 70
     2
  9
$DIMALTF
 40
25.4
  9
$DIMLFAC
 40
1.0
  9
$DIMTOFL
 70
     0
  9
$DIMTVP
 40
0.0
  9
$DIMTIX
 70
     0
  9
$DIMSOXD
 70
     0
  9
$DIMSAH
 70
     0
  9
$DIMBLK1
  1

  9
$DIMBLK2
  1

  9
$DIMSTYLE
  2
Standard
  9
$DIMCLRD
 70
     0
  9
$DIMCLRE
 70
     0
  9
$DIMCLRT
 70
     0
  9
$DIMTFAC
 40
1.0
  9
$DIMGAP
 40
0.09
  9
$DIMJUST
 70
     0
  9
$DIMSD1
 70
     0
  9
$DIMSD2
 70
     0
  9
$DIMTOLJ
 70
     1
  9
$DIMTZIN
 70
     0
  9
$DIMALTZ
 70
     0
  9
$DIMALTTZ
 70
     0
  9
$DIMUPT
 70
     0
  9
$DIMDEC
 70
     4
  9
$DIMTDEC
 70
     4
  9
$DIMALTU
 70
     2
  9
$DIMALTTD
 70
     2
  9
$DIMTXSTY
  7
Standard
  9
$DIMAUNIT
 70
     0
  9
$DIMADEC
 70
     0
  9
$DIMALTRND
 40
0.0
  9
$DIMAZIN
 70
     0
  9
$DIMDSEP
 70
    46
  9
$DIMATFIT
 70
     3
  9
$DIMFRAC
 70
     0
  9
$DIMLDRBLK
  1

  9
$DIMLUNIT
 70
     2
  9
$DIMLWD
 70
    -2
  9
$DIMLWE
 70
    -2
  9
$DIMTMOVE
 70
     0
  9
$DIMFXL
 40
1.0
  9
$DIMFXLON
 70
     0
  9
$DIMJOGANG
 40
0.7853981633974483
  9
$DIMTFILL
 70
     0
  9
$DIMTFILLCLR
 70
     0
  9
$DIMARCSYM
 70
     0
  9
$DIMLTYPE
  6

  9
$DIMLTEX1
  6

  9
$DIMLTEX2
  6

  9
$DIMTXTDIRECTION
 70
     0
  9
$LUNITS
 70
     2
  9
$LUPREC
 70
     4
  9
$SKETCHINC
 40
0.1
  9
$FILLETRAD
 40
0.0
  9
$AUNITS
 70
     0
  9
$AUPREC
 70
     0
  9
$MENU
  1
.
  9
$ELEVATION
 40
0.0
  9
$PELEVATION
 40
0.0
  9
$THICKNESS
 40
0.0
  9
$LIMCHECK
 70
     0
  9
$CHAMFERA
 40
0.0
  9
$CHAMFERB
 40
0.0
  9
$CHAMFERC
 40
0.0
  9
$CHAMFERD
 40
0.0
  9
$SKPOLY
 70
     0
  9
$TDCREATE
 40
2460035.559606482
  9
$TDUCREATE
 40
2460035.476273148
  9
$TDUPDATE
 40
2460035.559606482
  9
$TDUUPDATE
 40
2460035.476273148
  9
$TDINDWG
 40
0.0000000000
  9
$TDUSRTIMER
 40
0.0000000000
  9
$USRTIMER
 70
     1
  9
$ANGBASE
 50
0.0
  9
$ANGDIR
 70
     0
  9
$PDMODE
 70
     0
  9
$PDSIZE
 40
0.0
  9
$PLINEWID
 40
0.0
  9
$SPLFRAME
 70
     0
  9
$SPLINETYPE
 70
     6
  9
$SPLINESEGS
 70
     8
  9
$HANDSEED
  5
3AD
  9
$SURFTAB1
 70
     6
  9
$SURFTAB2
 70
     6
  9
$SURFTYPE
 70
     6
  9
$SURFU
 70
     6
  9
$SURFV
 70
     6
  9
$UCSBASE
  2

  9
$UCSNAME
  2

  9
$UCSORG
 10
0.0
 20
0.0
 30
0.0
  9
$UCSXDIR
 10
1.0
 20
0.0
 30
0.0
  9
$UCSYDIR
 10
0.0
 20
1.0
 30
0.0
  9
$UCSORTHOREF
  2

  9
$UCSORTHOVIEW
 70
     0
  9
$UCSORGTOP
 10
0.0
 20
0.0
 30
0.0
  9
$UCSORGBOTTOM
 10
0.0
 20
0.0
 30
0.0
  9
$UCSORGLEFT
 10
0.0
 20
0.0
 30
0.0
  9
$UCSORGRIGHT
 10
0.0
 20
0.0
 30
0.0
  9
$UCSORGFRONT
 10
0.0
 20
0.0
 30
0.0
  9
$UCSORGBACK
 10
0.0
 20
0.0
 30
0.0
  9
$PUCSBASE
  2

  9
$PUCSNAME
  2

  9
$PUCSORG
 10
0.0
 20
0.0
 30
0.0
  9
$PUCSXDIR
 10
1.0
 20
0.0
 30
0.0
  9
$PUCSYDIR
 10
0.0
 20
1.0
 30
0.0
  9
$PUCSORTHOREF
  2

  9
$PUCSORTHOVIEW
 70
     0
  9
$PUCSORGTOP
 10
0.0
 20
0.0
 30
0.0
  9
$PUCSORGBOTTOM
 10
0.0
 20
0.0
 30
0.0
  9
$PUCSORGLEFT
 10
0.0
 20
0.0
 30
0.0
  9
$PUCSORGRIGHT
 10
0.0
 20
0.0
 30
0.0
  9
$PUCSORGFRONT
 10
0.0
 20
0.0
 30
0.0
  9
$PUCSORGBACK
 10
0.0
 20
0.0
 30
0.0
  9
$USERI1
 70
     0
  9
$USERI2
 70
     0
  9
$USERI3
 70
     0
  9
$USERI4
 70
     0
  9
$USERI5
 70
     0
  9
$USERR1
 40
0.0
  9
$USERR2
 40
0.0
  9
$USERR3
 40
0.0
  9
$USERR4
 40
0.0
  9
$USERR5
 40
0.0
  9
$WORLDVIEW
 70
     1
  9
$SHADEDGE
 70
     3
  9
$SHADEDIF
 70
    70
  9
$TILEMODE
 70
     1
  9
$MAXACTVP
 70
    64
  9
$PINSBASE
 10
0.0
 20
0.0
 30
0.0
  9
$PLIMCHECK
 70
     0
  9
$PEXTMIN
 10
1.000000000000000E+20
 20
1.000000000000000E+20
 30
1.000000000000000E+20
  9
$PEXTMAX
 10
-1.000000000000000E+20
 20
-1.000000000000000E+20
 30
-1.000000000000000E+20
  9
$PLIMMIN
 10
0.0
 20
0.0
  9
$PLIMMAX
 10
12.0
 20
9.0
  9
$UNITMODE
 70
     0
  9
$VISRETAIN
 70
     1
  9
$PLINEGEN
 70
     0
  9
$PSLTSCALE
 70
     1
  9
$TREEDEPTH
 70
  3020
  9
$CMLSTYLE
  2
Standard
  9
$CMLJUST
 70
     0
  9
$CMLSCALE
 40
1.0
  9
$PROXYGRAPHICS
 70
     1
  9
$MEASUREMENT
 70
     0
  9
$CELWEIGHT
370
    -1
  9
$ENDCAPS
280
     0
  9
$JOINSTYLE
280
     0
  9
$LWDISPLAY
290
     1
  9
$INSUNITS
 70
     4
  9
$HYPERLINKBASE
  1

  9
$STYLESHEET
  1

  9
$XEDIT
290
     1
  9
$CEPSNTYPE
380
     0
  9
$PSTYLEMODE
290
     1
  9
$FINGERPRINTGUID
  2
{F670A9DF-DE6C-7C45-8BD7-51610ADD69BD}
  9
$VERSIONGUID
  2
{388C7E31-A8DD-DA4C-B98D-4804FFF07D16}
  9
$EXTNAMES
290
     1
  9
$PSVPSCALE
 40
0.0
  9
$OLESTARTUP
290
     0
  9
$SORTENTS
280
   127
  9
$INDEXCTL
280
     0
  9
$HIDETEXT
280
     1
  9
$XCLIPFRAME
280
     2
  9
$HALOGAP
280
     0
  9
$OBSCOLOR
 70
   257
  9
$OBSLTYPE
280
     0
  9
$INTERSECTIONDISPLAY
280
     0
  9
$INTERSECTIONCOLOR
 70
   257
  9
$DIMASSOC
280
     2
  9
$PROJECTNAME
  1

  9
$CAMERADISPLAY
290
     0
  9
$LENSLENGTH
 40
50.0
  9
$CAMERAHEIGHT
 40
0.0
  9
$STEPSPERSEC
 40
2.0
  9
$STEPSIZE
 40
6.0
  9
$3DDWFPREC
 40
2.0
  9
$PSOLWIDTH
 40
0.25
  9
$PSOLHEIGHT
 40
4.0
  9
$LOFTANG1
 40
1.570796326794896
  9
$LOFTANG2
 40
1.570796326794896
  9
$LOFTMAG1
 40
0.0
  9
$LOFTMAG2
 40
0.0
  9
$LOFTPARAM
 70
     7
  9
$LOFTNORMALS
280
     1
  9
$LATITUDE
 40
37.795
  9
$LONGITUDE
 40
-122.394
  9
$NORTHDIRECTION
 40
0.0
  9
$TIMEZONE
 70
 -8000
  9
$LIGHTGLYPHDISPLAY
280
     1
  9
$TILEMODELIGHTSYNCH
280
     1
  9
$CMATERIAL
347
11
  9
$SOLIDHIST
280
     0
  9
$SHOWHIST
280
     1
  9
$DWFFRAME
280
     2
  9
$DGNFRAME
280
     0
  9
$REALWORLDSCALE
290
     1
  9
$INTERFERECOLOR
 62
     1
  9
$INTERFEREOBJVS
345
33
  9
$INTERFEREVPVS
346
30
  9
$CSHADOW
280
     0
  9
$SHADOWPLANELOCATION
 40
0.0
  0
ENDSEC
  0
SECTION
  2
CLASSES
  0
CLASS
  1
ACDBDICTIONARYWDFLT
  2
AcDbDictionaryWithDefault
  3
ObjectDBX Classes
 90
        0
 91
        1
280
     0
281
     0
  0
CLASS
  1
MATERIAL
  2
AcDbMaterial
  3
ObjectDBX Classes
 90
     1153
 91
        3
280
     0
281
     0
  0
CLASS
  1
VISUALSTYLE
  2
AcDbVisualStyle
  3
ObjectDBX Classes
 90
     4095
 91
       24
280
     0
281
     0
  0
CLASS
  1
SCALE
  2
AcDbScale
  3
ObjectDBX Classes
 90
     1153
 91
       17
280
     0
281
     0
  0
CLASS
  1
TABLESTYLE
  2
AcDbTableStyle
  3
ObjectDBX Classes
 90
     4095
 91
        1
280
     0
281
     0
  0
CLASS
  1
MLEADERSTYLE
  2
AcDbMLeaderStyle
  3
ACDB_MLEADERSTYLE_CLASS
 90
     4095
 91
        1
280
     0
281
     0
  0
CLASS
  1
ACDBSECTIONVIEWSTYLE
  2
AcDbSectionViewStyle
  3
ObjectDBX Classes
 90
     1025
 91
        1
280
     0
281
     0
  0
CLASS
  1
ACDBDETAILVIEWSTYLE
  2
AcDbDetailViewStyle
  3
ObjectDBX Classes
 90
     1025
 91
        1
280
     0
281
     0
  0
CLASS
  1
DICTIONARYVAR
  2
AcDbDictionaryVar
  3
ObjectDBX Classes
 90
        0
 91
        5
280
     0
281
     0
  0
CLASS
  1
CELLSTYLEMAP
  2
AcDbCellStyleMap
  3
ObjectDBX Classes
 90
     1152
 91
        1
280
     0
281
     0
  0
ENDSEC
  0
SECTION
  2
TABLES
  0
TABLE
  2
VPORT
  5
8
330
0
100
AcDbSymbolTable
 70
     1
  0
VPORT
  5
57
330
8
100
AcDbSymbolTableRecord
100
AcDbViewportTableRecord
  2
*Active
 70
     0
 10
0.0
 20
0.0
 11
1.0
 21
1.0
 12
0.0
 22
0.0
 13
0.0
 23
0.0
 14
1.0
 24
1.0
 15
0.0
 25
0.0
 16
0.0
 26
0.0
 36
1.0
 17
104.9999999737499
 27
31.49999999212523
 37
0.0
 40
302.9399999242649
 41
0.7070707070707066
 42
50.0
 43
0.0
 44
0.0
 50
0.0
 51
0.0
 71
     0
 72
   100
 73
     1
 74
     1
 75
     0
 76
     0
 77
     0
 78
     0
281
     0
 65
     1
110
0.0
120
0.0
130
0.0
111
1.0
121
0.0
131
0.0
112
0.0
122
1.0
132
0.0
 79
     0
146
0.0
 60
     3
 61
     5
292
     1
282
     1
141
0.0
142
0.0
 63
   250
421
  3355443
  0
ENDTAB
  0
TABLE
  2
LTYPE
  5
5
330
0
100
AcDbSymbolTable
 70
     1
  0
LTYPE
  5
5B
330
5
100
AcDbSymbolTableRecord
100
AcDbLinetypeTableRecord
  2
ByBlock
 70
     0
  3

 72
    65
 73
     0
 40
0.0
  0
LTYPE
  5
5C
330
5
100
AcDbSymbolTableRecord
100
AcDbLinetypeTableRecord
  2
ByLayer
 70
     0
  3

 72
    65
 73
     0
 40
0.0
  0
LTYPE
  5
5D
330
5
100
AcDbSymbolTableRecord
100
AcDbLinetypeTableRecord
  2
Continuous
 70
     0
  3
Solid line
 72
    65
 73
     0
 40
0.0
  0
ENDTAB
  0
TABLE
  2
LAYER
  5
2
330
0
100
AcDbSymbolTable
 70
     2
  0
LAYER
  5
54
330
2
100
AcDbSymbolTableRecord
100
AcDbLayerTableRecord
  2
0
 70
     0
 62
     7
  6
Continuous
370
     0
390
F
347
21
348
0
  0
LAYER
  5
377
330
2
100
AcDbSymbolTableRecord
100
AcDbLayerTableRecord
  2
CAPA_BASE
 70
     0
 62
     7
  6
Continuous
370
     0
390
F
347
21
348
0
  0
ENDTAB
  0
TABLE
  2
STYLE
  5
3
330
0
100
AcDbSymbolTable
 70
     2
  0
STYLE
  5
55
330
3
100
AcDbSymbolTableRecord
100
AcDbTextStyleTableRecord
  2
Standard
 70
     0
 40
0.0
 41
1.0
 50
0.0
 71
     0
 42
0.2
  3
txt
  4

  0
STYLE
  5
5A
330
3
100
AcDbSymbolTableRecord
100
AcDbTextStyleTableRecord
  2
Annotative
 70
     0
 40
0.0
 41
1.0
 50
0.0
 71
     0
 42
0.2
  3
txt
  4

1001
AcadAnnotative
1000
AnnotativeData
1002
{
1070
     1
1070
     1
1002
}
  0
ENDTAB
  0
TABLE
  2
VIEW
  5
6
330
0
100
AcDbSymbolTable
 70
     0
  0
ENDTAB
  0
TABLE
  2
UCS
  5
7
330
0
100
AcDbSymbolTable
 70
     0
  0
ENDTAB
  0
TABLE
  2
APPID
  5
9
330
0
100
AcDbSymbolTable
 70
     2
  0
APPID
  5
56
330
9
100
AcDbSymbolTableRecord
100
AcDbRegAppTableRecord
  2
ACAD
 70
     0
  0
APPID
  5
5E
330
9
100
AcDbSymbolTableRecord
100
AcDbRegAppTableRecord
  2
AcadAnnotative
 70
     0
  0
ENDTAB
  0
TABLE
  2
DIMSTYLE
  5
A
330
0
100
AcDbSymbolTable
 70
     2
100
AcDbDimStyleTable
 71
     0
  0
DIMSTYLE
105
58
330
A
100
AcDbSymbolTableRecord
100
AcDbDimStyleTableRecord
  2
Standard
 70
     0
340
55
  0
DIMSTYLE
105
59
330
A
100
AcDbSymbolTableRecord
100
AcDbDimStyleTableRecord
  2
Annotative
 70
     0
340
55
1001
AcadAnnotative
1000
AnnotativeData
1002
{
1070
     1
1070
     1
1002
}
  0
ENDTAB
  0
TABLE
  2
BLOCK_RECORD
  5
1
330
0
100
AcDbSymbolTable
 70
     4
  0
BLOCK_RECORD
  5
70
330
1
100
AcDbSymbolTableRecord
100
AcDbBlockTableRecord
  2
*Model_Space
340
73
 70
     0
280
     1
281
     0
  0
BLOCK_RECORD
  5
6C
330
1
100
AcDbSymbolTableRecord
100
AcDbBlockTableRecord
  2
*Paper_Space
340
6F
 70
     0
280
     1
281
     0
  0
BLOCK_RECORD
  5
74
330
1
100
AcDbSymbolTableRecord
100
AcDbBlockTableRecord
  2
*Paper_Space0
340
77
 70
     0
280
     1
281
     0
  0
BLOCK_RECORD
  5
378
330
1
100
AcDbSymbolTableRecord
100
AcDbBlockTableRecord
  2
Block_0
340
0
102
{BLKREFS
331
379
102
}
 70
     0
280
     1
281
     0
  0
BLOCK_RECORD
  5
384
330
1
100
AcDbSymbolTableRecord
100
AcDbBlockTableRecord
  2
Block_1
340
0
102
{BLKREFS
331
385
102
}
 70
     0
280
     1
281
     0
  0
BLOCK_RECORD
  5
390
330
1
100
AcDbSymbolTableRecord
100
AcDbBlockTableRecord
  2
Block_2
340
0
102
{BLKREFS
331
391
102
}
 70
     0
280
     1
281
     0
  0
ENDTAB
  0
ENDSEC
  0
SECTION
  2
BLOCKS
  0
BLOCK
  5
71
330
70
100
AcDbEntity
  8
0
100
AcDbBlockBegin
  2
*Model_Space
 70
     0
 10
0.0
 20
0.0
 30
0.0
  3
*Model_Space
  1

  0
ENDBLK
  5
72
330
70
100
AcDbEntity
  8
0
100
AcDbBlockEnd
  0
BLOCK
  5
6D
330
6C
100
AcDbEntity
 67
     1
  8
0
100
AcDbBlockBegin
  2
*Paper_Space
 70
     0
 10
0.0
 20
0.0
 30
0.0
  3
*Paper_Space
  1

  0
ENDBLK
  5
6E
330
6C
100
AcDbEntity
 67
     1
  8
0
100
AcDbBlockEnd
  0
BLOCK
  5
75
330
74
100
AcDbEntity
 67
     1
  8
0
100
AcDbBlockBegin
  2
*Paper_Space0
 70
     0
 10
0.0
 20
0.0
 30
0.0
  3
*Paper_Space0
  1

  0
ENDBLK
  5
76
330
74
100
AcDbEntity
 67
     1
  8
0
100
AcDbBlockEnd
  0
BLOCK
  5
37A
330
378
100
AcDbEntity
  8
0
100
AcDbBlockBegin
  2
Block_0
 70
     0
 10
0.0
 20
0.0
 30
0.0
  3
Block_0
  1

  0
LWPOLYLINE
  5
37C
330
378
100
AcDbEntity
  8
CAPA_BASE
100
AcDbPolyline
 90
        4
 70
     1
 43
0.0
 10
86.50984592678321
 20
69.65979003017332
 10
84.00984592678344
 20
69.96979003017305
 10
84.00984592678344
 20
69.34979003017359
 10
84.00984592678344
 20
69.34979003017359
  0
HATCH
  5
37D
330
378
100
AcDbEntity
  8
CAPA_BASE
 62
    18
420
        0
440
 33554687
100
AcDbHatch
 10
0.0
 20
0.0
 30
0.0
210
0.0
220
0.0
230
1.0
  2
SOLID
 70
     1
 71
     1
 91
        1
 92
        1
 93
        3
 72
     1
 10
86.50984592678321
 20
69.65979003017332
 11
84.00984592678344
 21
69.96979003017305
 72
     1
 10
84.00984592678344
 20
69.96979003017305
 11
84.00984592678344
 21
69.34979003017359
 72
     1
 10
84.00984592678344
 20
69.34979003017359
 11
86.50984592678321
 21
69.65979003017332
 97
        1
330
37C
 75
     2
 76
     1
 98
        1
 10
0.0
 20
0.0
450
        0
451
        0
460
0.0
461
0.0
452
        0
462
0.0
453
        0
470

  0
LWPOLYLINE
  5
37E
330
378
100
AcDbEntity
  8
CAPA_BASE
100
AcDbPolyline
 90
        4
 70
     1
 43
0.0
 10
22.17651259348354
 20
69.65979003017332
 10
24.67651259348363
 20
69.34979003017359
 10
24.67651259348363
 20
69.96979003017305
 10
24.67651259348363
 20
69.96979003017305
  0
HATCH
  5
37F
330
378
100
AcDbEntity
  8
CAPA_BASE
 62
    18
420
        0
440
 33554687
100
AcDbHatch
 10
0.0
 20
0.0
 30
0.0
210
0.0
220
0.0
230
1.0
  2
SOLID
 70
     1
 71
     1
 91
        1
 92
        1
 93
        3
 72
     1
 10
22.17651259348354
 20
69.65979003017332
 11
24.67651259348363
 21
69.34979003017359
 72
     1
 10
24.67651259348363
 20
69.34979003017359
 11
24.67651259348363
 21
69.96979003017305
 72
     1
 10
24.67651259348363
 20
69.96979003017305
 11
22.17651259348354
 21
69.65979003017332
 97
        1
330
37E
 75
     2
 76
     1
 98
        1
 10
0.0
 20
0.0
450
        0
451
        0
460
0.0
461
0.0
452
        0
462
0.0
453
        0
470

  0
LINE
  5
380
330
378
100
AcDbEntity
  8
CAPA_BASE
 62
    18
420
        0
370
    25
100
AcDbLine
 10
86.50984592678321
 20
96.99312336357339
 30
0.0
 11
86.50984592678321
 21
68.65979003017392
 31
0.0
  0
LINE
  5
381
330
378
100
AcDbEntity
  8
CAPA_BASE
 62
    18
420
        0
370
    25
100
AcDbLine
 10
22.17651259348354
 20
88.65979003017335
 30
0.0
 11
22.17651259348354
 21
68.65979003017392
 31
0.0
  0
LINE
  5
382
330
378
100
AcDbEntity
  8
CAPA_BASE
 62
    18
420
        0
370
    25
100
AcDbLine
 10
86.50984592678321
 20
69.65979003017332
 30
0.0
 11
22.17651259348354
 21
69.65979003017332
 31
0.0
  0
MTEXT
  5
383
330
378
100
AcDbEntity
  8
CAPA_BASE
100
AcDbMText
 10
51.69734508493537
 20
70.4535376478597
 30
0.0
 40
0.2
 41
0.0
 46
0.0
 71
     7
 72
     1
  1
\C18;\c0;\FArial Bold|b1|i0|c1;\H2.997200;\W0.700000;193
 73
     1
 44
1.0
  0
ENDBLK
  5
37B
330
378
100
AcDbEntity
  8
0
100
AcDbBlockEnd
  0
BLOCK
  5
386
330
384
100
AcDbEntity
  8
0
100
AcDbBlockBegin
  2
Block_1
 70
     0
 10
0.0
 20
0.0
 30
0.0
  3
Block_1
  1

  0
LWPOLYLINE
  5
388
330
384
100
AcDbEntity
  8
CAPA_BASE
100
AcDbPolyline
 90
        4
 70
     1
 43
0.0
 10
100.8431792600837
 20
41.4656036704737
 10
100.5331792600833
 20
38.96560367047328
 10
101.1531792600834
 20
38.96560367047328
 10
101.1531792600834
 20
38.96560367047328
  0
HATCH
  5
389
330
384
100
AcDbEntity
  8
CAPA_BASE
 62
    18
420
        0
440
 33554687
100
AcDbHatch
 10
0.0
 20
0.0
 30
0.0
210
0.0
220
0.0
230
1.0
  2
SOLID
 70
     1
 71
     1
 91
        1
 92
        1
 93
        3
 72
     1
 10
100.8431792600837
 20
41.4656036704737
 11
100.5331792600833
 21
38.96560367047328
 72
     1
 10
100.5331792600833
 20
38.96560367047328
 11
101.1531792600834
 21
38.96560367047328
 72
     1
 10
101.1531792600834
 20
38.96560367047328
 11
100.8431792600837
 21
41.4656036704737
 97
        1
330
388
 75
     2
 76
     1
 98
        1
 10
0.0
 20
0.0
450
        0
451
        0
460
0.0
461
0.0
452
        0
462
0.0
453
        0
470

  0
LWPOLYLINE
  5
38A
330
384
100
AcDbEntity
  8
CAPA_BASE
100
AcDbPolyline
 90
        4
 70
     1
 43
0.0
 10
100.8431792600837
 20
-27.2010629962262
 10
101.1531792600834
 20
-24.70106299622643
 10
100.5331792600833
 20
-24.70106299622643
 10
100.5331792600833
 20
-24.70106299622643
  0
HATCH
  5
38B
330
384
100
AcDbEntity
  8
CAPA_BASE
 62
    18
420
        0
440
 33554687
100
AcDbHatch
 10
0.0
 20
0.0
 30
0.0
210
0.0
220
0.0
230
1.0
  2
SOLID
 70
     1
 71
     1
 91
        1
 92
        1
 93
        3
 72
     1
 10
100.8431792600837
 20
-27.2010629962262
 11
101.1531792600834
 21
-24.70106299622643
 72
     1
 10
101.1531792600834
 20
-24.70106299622643
 11
100.5331792600833
 21
-24.70106299622643
 72
     1
 10
100.5331792600833
 20
-24.70106299622643
 11
100.8431792600837
 21
-27.2010629962262
 97
        1
330
38A
 75
     2
 76
     1
 98
        1
 10
0.0
 20
0.0
450
        0
451
        0
460
0.0
461
0.0
452
        0
462
0.0
453
        0
470

  0
LINE
  5
38C
330
384
100
AcDbEntity
  8
CAPA_BASE
 62
    18
420
        0
370
    25
100
AcDbLine
 10
66.00984592678344
 20
41.4656036704737
 30
0.0
 11
101.8431792600837
 21
41.4656036704737
 31
0.0
  0
LINE
  5
38D
330
384
100
AcDbEntity
  8
CAPA_BASE
 62
    18
420
        0
370
    25
100
AcDbLine
 10
27.00984592678336
 20
-27.2010629962262
 30
0.0
 11
101.8431792600837
 21
-27.2010629962262
 31
0.0
  0
LINE
  5
38E
330
384
100
AcDbEntity
  8
CAPA_BASE
 62
    18
420
        0
370
    25
100
AcDbLine
 10
100.8431792600837
 20
41.4656036704737
 30
0.0
 11
100.8431792600837
 21
-27.2010629962262
 31
0.0
  0
MTEXT
  5
38F
330
384
100
AcDbEntity
  8
CAPA_BASE
100
AcDbMText
 10
100.0494217092683
 20
4.486203340891696
 30
0.0
 40
0.2
 41
0.0
 46
0.0
 71
     7
 72
     1
  1
\C18;\c0;\FArial Bold|b1|i0|c1;\H2.997200;\W0.700000;206
 11
0.0000000000000003
 21
1.0
 31
0.0
 73
     1
 44
1.0
  0
ENDBLK
  5
387
330
384
100
AcDbEntity
  8
0
100
AcDbBlockEnd
  0
BLOCK
  5
392
330
390
100
AcDbEntity
  8
0
100
AcDbBlockBegin
  2
Block_2
 70
     0
 10
0.0
 20
0.0
 30
0.0
  3
Block_2
  1

  0
LWPOLYLINE
  5
394
330
390
100
AcDbEntity
  8
CAPA_BASE
100
AcDbPolyline
 90
        4
 70
     1
 43
0.0
 10
112.0342844668832
 20
106.3264566968733
 10
111.7242844668835
 20
103.8264566968736
 10
112.3442844668836
 20
103.8264566968736
 10
112.3442844668836
 20
103.8264566968736
  0
HATCH
  5
395
330
390
100
AcDbEntity
  8
CAPA_BASE
 62
    18
420
        0
440
 33554687
100
AcDbHatch
 10
0.0
 20
0.0
 30
0.0
210
0.0
220
0.0
230
1.0
  2
SOLID
 70
     1
 71
     1
 91
        1
 92
        1
 93
        3
 72
     1
 10
112.0342844668832
 20
106.3264566968733
 11
111.7242844668835
 21
103.8264566968736
 72
     1
 10
111.7242844668835
 20
103.8264566968736
 11
112.3442844668836
 21
103.8264566968736
 72
     1
 10
112.3442844668836
 20
103.8264566968736
 11
112.0342844668832
 21
106.3264566968733
 97
        1
330
394
 75
     2
 76
     1
 98
        1
 10
0.0
 20
0.0
450
        0
451
        0
460
0.0
461
0.0
452
        0
462
0.0
453
        0
470

  0
LWPOLYLINE
  5
396
330
390
100
AcDbEntity
  8
CAPA_BASE
100
AcDbPolyline
 90
        4
 70
     1
 43
0.0
 10
112.0342844668832
 20
79.65979003017366
 10
112.3442844668836
 20
82.15979003017343
 10
111.7242844668835
 20
82.15979003017343
 10
111.7242844668835
 20
82.15979003017343
  0
HATCH
  5
397
330
390
100
AcDbEntity
  8
CAPA_BASE
 62
    18
420
        0
440
 33554687
100
AcDbHatch
 10
0.0
 20
0.0
 30
0.0
210
0.0
220
0.0
230
1.0
  2
SOLID
 70
     1
 71
     1
 91
        1
 92
        1
 93
        3
 72
     1
 10
112.0342844668832
 20
79.65979003017366
 11
112.3442844668836
 21
82.15979003017343
 72
     1
 10
112.3442844668836
 20
82.15979003017343
 11
111.7242844668835
 21
82.15979003017343
 72
     1
 10
111.7242844668835
 20
82.15979003017343
 11
112.0342844668832
 21
79.65979003017366
 97
        1
330
396
 75
     2
 76
     1
 98
        1
 10
0.0
 20
0.0
450
        0
451
        0
460
0.0
461
0.0
452
        0
462
0.0
453
        0
470

  0
LINE
  5
398
330
390
100
AcDbEntity
  8
CAPA_BASE
 62
    18
420
        0
370
    25
100
AcDbLine
 10
147.2009511335835
 20
106.3264566968733
 30
0.0
 11
111.0342844668832
 21
106.3264566968733
 31
0.0
  0
LINE
  5
399
330
390
100
AcDbEntity
  8
CAPA_BASE
 62
    18
420
        0
370
    25
100
AcDbLine
 10
134.4234439760833
 20
79.65979003017366
 30
0.0
 11
111.0342844668832
 21
79.65979003017366
 31
0.0
  0
LINE
  5
39A
330
390
100
AcDbEntity
  8
CAPA_BASE
 62
    18
420
        0
370
    25
100
AcDbLine
 10
112.0342844668832
 20
106.3264566968733
 30
0.0
 11
112.0342844668832
 21
79.65979003017366
 31
0.0
  0
MTEXT
  5
39B
330
390
100
AcDbEntity
  8
CAPA_BASE
100
AcDbMText
 10
111.2405344790942
 20
91.22957354490031
 30
0.0
 40
0.2
 41
0.0
 46
0.0
 71
     7
 72
     1
  1
\C18;\c0;\FArial Bold|b1|i0|c1;\H2.997200;\W0.700000;80
 11
0.0000000000000003
 21
1.0
 31
0.0
 73
     1
 44
1.0
  0
ENDBLK
  5
393
330
390
100
AcDbEntity
  8
0
100
AcDbBlockEnd
  0
ENDSEC
  0
SECTION
  2
ENTITIES
  0
LINE
  5
78
330
70
100
AcDbEntity
  8
0
 62
    18
420
        0
370
    25
100
AcDbLine
 10
24.59317925078357
 20
96.3264567340736
 30
0.0
 11
24.59317925078357
 21
91.65979023387343
 31
0.0
  0
LINE
  5
79
330
70
100
AcDbEntity
  8
0
 62
    18
420
        0
370
    25
100
AcDbLine
 10
25.59317933708347
 20
91.65979023387343
 30
0.0
 11
25.59317933708347
 21
96.3264567340736
 31
0.0
  0
LWPOLYLINE
  5
7A
330
70
100
AcDbEntity
  8
0
 62
    18
420
        0
370
    25
100
AcDbPolyline
 90
        9
 70
     0
 43
0.0
 10
24.59317925078357
 20
91.65979023387343
 10
24.60399217758365
 20
91.42214154807366
 10
24.67833081108333
 20
91.00150660287354
 10
24.82269035038364
 20
90.60685555747356
 10
25.03495715878353
 20
90.25684218217358
 10
25.30909180338348
 20
89.97197792537338
 10
25.59417197178356
 20
89.78977087247358
 10
25.93622688518363
 20
89.67883359007387
 10
26.15383940758351
 20
89.65978990607329
  0
LWPOLYLINE
  5
7B
330
70
100
AcDbEntity
  8
0
 62
    18
420
        0
370
    25
100
AcDbPolyline
 90
        8
 70
     0
 43
0.0
 10
26.15383940758351
 20
90.65979006997352
 10
26.10781080718352
 20
90.66401020297346
 10
25.99305417088354
 20
90.70996538407346
 10
25.86962583478359
 20
90.81542028097361
 10
25.74134142768347
 20
91.00494007877355
 10
25.64614427278354
 20
91.25330269937366
 10
25.59765341078362
 20
91.53953227507356
 10
25.59317933708347
 20
91.65979023387343
  0
LINE
  5
7C
330
70
100
AcDbEntity
  8
0
 62
    18
420
        0
370
    25
100
AcDbLine
 10
86.17500407938385
 20
90.65979006997352
 30
0.0
 11
26.15383940758351
 21
90.65979006997352
 31
0.0
  0
LINE
  5
7D
330
70
100
AcDbEntity
  8
0
 62
    18
420
        0
370
    25
100
AcDbLine
 10
26.15383940758351
 20
89.65978990607329
 30
0.0
 11
86.17500407938385
 21
89.65978990607329
 31
0.0
  0
LWPOLYLINE
  5
7E
330
70
100
AcDbEntity
  8
0
 62
    18
420
        0
370
    25
100
AcDbPolyline
 90
        9
 70
     0
 43
0.0
 10
86.17500407938385
 20
89.65978990607329
 10
86.40074177028344
 20
89.68029017857359
 10
86.72038657908368
 20
89.78298090997313
 10
87.00986647048312
 20
89.96400021617343
 10
87.26308686978345
 20
90.21758072677361
 10
87.47162365358381
 20
90.5376272460737
 10
87.62489699768378
 20
90.91240324687348
 10
87.71400594158368
 20
91.32407824807343
 10
87.73566229588354
 20
91.65979023387343
  0
LWPOLYLINE
  5
7F
330
70
100
AcDbEntity
  8
0
 62
    18
420
        0
370
    25
100
AcDbPolyline
 90
        8
 70
     0
 43
0.0
 10
86.73566523638337
 20
91.65979023387343
 10
86.72899448318361
 20
91.51310382397355
 10
86.67601588808302
 20
91.22950306147352
 10
86.5785622938838
 20
90.98797821117344
 10
86.45499689818343
 20
90.81076180547359
 10
86.3290175143833
 20
90.70589240007359
 10
86.21805850108371
 20
90.66348493707369
 10
86.17500407938385
 20
90.65979006997352
  0
LINE
  5
80
330
70
100
AcDbEntity
  8
0
 62
    18
420
        0
370
    25
100
AcDbLine
 10
86.73566523638337
 20
96.3264567340736
 30
0.0
 11
86.73566523638337
 21
91.65979023387343
 31
0.0
  0
LINE
  5
81
330
70
100
AcDbEntity
  8
0
 62
    18
420
        0
370
    25
100
AcDbLine
 10
87.73566229588354
 20
91.65979023387343
 30
0.0
 11
87.73566229588354
 21
96.3264567340736
 31
0.0
  0
LINE
  5
82
330
70
100
AcDbEntity
  8
0
 62
    18
420
        0
370
    25
100
AcDbLine
 10
24.59317925078357
 20
91.65979023387343
 30
0.0
 11
24.59317925078357
 21
81.65979045737397
 31
0.0
  0
LINE
  5
83
330
70
100
AcDbEntity
  8
0
 62
    18
420
        0
370
    25
100
AcDbLine
 10
25.59317933708347
 20
81.65979045737397
 30
0.0
 11
25.59317933708347
 21
89.7904054135739
 31
0.0
  0
LWPOLYLINE
  5
84
330
70
100
AcDbEntity
  8
0
 62
    18
420
        0
370
    25
100
AcDbPolyline
 90
        9
 70
     0
 43
0.0
 10
24.59317925078357
 20
81.65979045737397
 10
24.60399217758365
 20
81.42214177157354
 10
24.67833081108333
 20
81.00150682637345
 10
24.82269035038364
 20
80.60685578097377
 10
25.03495715878353
 20
80.25684240567379
 10
25.30909180338348
 20
79.97197814887359
 10
25.59417197178356
 20
79.78977047507351
 10
25.93622688518363
 20
79.67883381357346
 10
26.15383940758351
 20
79.65979012957349
  0
LWPOLYLINE
  5
85
330
70
100
AcDbEntity
  8
0
 62
    18
420
        0
370
    25
100
AcDbPolyline
 90
        8
 70
     0
 43
0.0
 10
26.15383940758351
 20
80.65978967257343
 10
26.10781080718352
 20
80.66401042647305
 10
25.99305417088354
 20
80.70996560757334
 10
25.86962583478359
 20
80.8154198835732
 10
25.74134142768347
 20
81.00494030227343
 10
25.64614427278354
 20
81.25330292297396
 10
25.59765341078362
 20
81.53953187767347
 10
25.59317933708347
 20
81.65979045737397
  0
LINE
  5
86
330
70
100
AcDbEntity
  8
0
 62
    18
420
        0
370
    25
100
AcDbLine
 10
77.45402001778352
 20
80.65978967257343
 30
0.0
 11
26.15383940758351
 21
80.65978967257343
 31
0.0
  0
LINE
  5
87
330
70
100
AcDbEntity
  8
0
 62
    18
420
        0
370
    25
100
AcDbLine
 10
26.15383940758351
 20
79.65979012957349
 30
0.0
 11
77.45402001778352
 21
79.65979012957349
 31
0.0
  0
LWPOLYLINE
  5
88
330
70
100
AcDbEntity
  8
0
 62
    18
420
        0
370
    25
100
AcDbPolyline
 90
        9
 70
     0
 43
0.0
 10
77.45402001778352
 20
79.65979012957349
 10
77.67975770878384
 20
79.68029040207318
 10
77.99940251748333
 20
79.78298051267316
 10
78.28888240898352
 20
79.96400106057362
 10
78.54210777528341
 20
80.21758032947332
 10
78.75063959208357
 20
80.5376274695739
 10
78.90391293608344
 20
80.91240284947373
 10
78.99302187998334
 20
81.32407847157395
 10
79.01467823428321
 20
81.65979045737397
  0
LWPOLYLINE
  5
89
330
70
100
AcDbEntity
  8
0
 62
    18
420
        0
370
    25
100
AcDbPolyline
 90
        8
 70
     0
 43
0.0
 10
78.01468117478368
 20
81.65979045737397
 10
78.00801042158328
 20
81.51310466837342
 10
77.95503182648333
 20
81.22950328497308
 10
77.85757823228347
 20
80.98797781377369
 10
77.7340128366832
 20
80.81076202897348
 10
77.60803345288306
 20
80.7058926235735
 10
77.49707443958347
 20
80.66348516057358
 10
77.45402001778352
 20
80.65978967257343
  0
LINE
  5
8A
330
70
100
AcDbEntity
  8
0
 62
    18
420
        0
370
    25
100
AcDbLine
 10
78.01468117478368
 20
96.3264567340736
 30
0.0
 11
78.01468117478368
 21
90.65979006997352
 31
0.0
  0
LINE
  5
8B
330
70
100
AcDbEntity
  8
0
 62
    18
420
        0
370
    25
100
AcDbLine
 10
78.01468117478368
 20
89.65978990607329
 30
0.0
 11
78.01468117478368
 21
81.65979045737397
 31
0.0
  0
LINE
  5
8C
330
70
100
AcDbEntity
  8
0
 62
    18
420
        0
370
    25
100
AcDbLine
 10
79.01467823428321
 20
81.65979045737397
 30
0.0
 11
79.01467823428321
 21
89.65978990607329
 31
0.0
  0
LINE
  5
8D
330
70
100
AcDbEntity
  8
0
 62
    18
420
        0
370
    25
100
AcDbLine
 10
79.01467823428321
 20
90.65979006997352
 30
0.0
 11
79.01467823428321
 21
96.3264567340736
 31
0.0
  0
SPLINE
  5
8E
330
70
100
AcDbEntity
  8
0
 62
    18
420
        0
370
    25
100
AcDbSpline
210
0.0
220
0.0
230
1.0
 70
     8
 71
     3
 72
     8
 73
     4
 74
     0
 42
0.0000000001
 43
0.0000000001
 40
0.0
 40
0.0
 40
0.0
 40
0.0
 40
1.0
 40
1.0
 40
1.0
 40
1.0
 10
43.91666693924352
 20
80.65978967255226
 30
0.0
 10
44.06365595764087
 20
80.9723337860931
 30
0.0
 10
44.13689828975947
 20
81.31446200465127
 30
0.0
 10
44.13074571329867
 20
81.65979045734701
 30
0.0
  0
LWPOLYLINE
  5
8F
330
70
100
AcDbEntity
  8
0
 62
    18
420
        0
370
    25
100
AcDbPolyline
 90
        8
 70
     0
 43
0.0
 10
43.13074492858349
 20
81.65979045737397
 10
43.12407790068345
 20
81.51310466837342
 10
43.07109806378357
 20
81.22950328497308
 10
42.97364198608361
 20
80.98797781377369
 10
42.85008031568359
 20
80.81076202897348
 10
42.72409720658341
 20
80.7058926235735
 10
42.61314191858353
 20
80.66348516057358
 10
42.5700850133836
 20
80.65978967257343
  0
LINE
  5
90
330
70
100
AcDbEntity
  8
0
 62
    18
420
        0
370
    25
100
AcDbLine
 10
43.13074492858349
 20
96.3264567340736
 30
0.0
 11
43.13074492858349
 21
90.65979006997352
 31
0.0
  0
LINE
  5
91
330
70
100
AcDbEntity
  8
0
 62
    18
420
        0
370
    25
100
AcDbLine
 10
43.13074492858349
 20
89.65978990607329
 30
0.0
 11
43.13074492858349
 21
81.65979045737397
 31
0.0
  0
LINE
  5
92
330
70
100
AcDbEntity
  8
0
 62
    18
420
        0
370
    25
100
AcDbLine
 10
44.13074571338337
 20
81.65979045737397
 30
0.0
 11
44.13074571338337
 21
89.65978990607329
 31
0.0
  0
LINE
  5
93
330
70
100
AcDbEntity
  8
0
 62
    18
420
        0
370
    25
100
AcDbLine
 10
44.13074571338337
 20
90.65979006997352
 30
0.0
 11
44.13074571338337
 21
96.3264567340736
 31
0.0
  0
SPLINE
  5
94
330
70
100
AcDbEntity
  8
0
 62
    18
420
        0
370
    25
100
AcDbSpline
210
0.0
220
0.0
230
1.0
 70
     8
 71
     3
 72
     8
 73
     4
 74
     0
 42
0.0000000001
 43
0.0000000001
 40
0.0
 40
0.0
 40
0.0
 40
0.0
 40
1.0
 40
1.0
 40
1.0
 40
1.0
 10
35.19568287777858
 20
90.65979006992378
 30
0.0
 10
35.34267187615043
 20
90.97233396995596
 30
0.0
 10
35.41591420965575
 20
91.31446198257364
 30
0.0
 10
35.40976165183341
 20
91.65979023383879
 30
0.0
  0
LWPOLYLINE
  5
95
330
70
100
AcDbEntity
  8
0
 62
    18
420
        0
370
    25
100
AcDbPolyline
 90
        8
 70
     0
 43
0.0
 10
34.40976148788344
 20
91.65979023387343
 10
34.40309445998341
 20
91.51310382397355
 10
34.35011400228334
 20
91.22950306147352
 10
34.2526579244836
 20
90.98797821117344
 10
34.12909625418337
 20
90.81076180547359
 10
34.00311438678334
 20
90.70589240007359
 10
33.89215785708362
 20
90.66348493707369
 10
33.84910157268356
 20
90.65979006997352
  0
LINE
  5
96
330
70
100
AcDbEntity
  8
0
 62
    18
420
        0
370
    25
100
AcDbLine
 10
34.40976148788344
 20
96.3264567340736
 30
0.0
 11
34.40976148788344
 21
91.65979023387343
 31
0.0
  0
LINE
  5
97
330
70
100
AcDbEntity
  8
0
 62
    18
420
        0
370
    25
100
AcDbLine
 10
35.40976165178336
 20
91.65979023387343
 30
0.0
 11
35.40976165178336
 21
96.3264567340736
 31
0.0
  0
SPLINE
  5
98
330
70
100
AcDbEntity
  8
0
 62
    18
420
        0
370
    25
100
AcDbSpline
210
0.0
220
0.0
230
1.0
 70
     8
 71
     3
 72
     8
 73
     4
 74
     0
 42
0.0000000001
 43
0.0000000001
 40
0.0
 40
0.0
 40
0.0
 40
0.0
 40
1.0
 40
1.0
 40
1.0
 40
1.0
 10
52.63765100086439
 20
80.65978967252531
 30
0.0
 10
52.78463867181954
 20
80.97233419779694
 30
0.0
 10
52.85788053175673
 20
81.31446219522434
 30
0.0
 10
52.85172853315618
 20
81.65979045732198
 30
0.0
  0
LWPOLYLINE
  5
99
330
70
100
AcDbEntity
  8
0
 62
    18
420
        0
370
    25
100
AcDbPolyline
 90
        8
 70
     0
 43
0.0
 10
51.85172899008341
 20
81.65979045737397
 10
51.84506072048353
 20
81.51310466837342
 10
51.79208212538359
 20
81.22950328497308
 10
51.69462604768363
 20
80.98797781377369
 10
51.57106313548335
 20
80.81076202897348
 10
51.44508126818344
 20
80.7058926235735
 10
51.33412473838362
 20
80.66348516057358
 10
51.29106783318336
 20
80.65978967257343
  0
LINE
  5
9A
330
70
100
AcDbEntity
  8
0
 62
    18
420
        0
370
    25
100
AcDbLine
 10
51.85172899008341
 20
96.3264567340736
 30
0.0
 11
51.85172899008341
 21
90.65979006997352
 31
0.0
  0
LINE
  5
9B
330
70
100
AcDbEntity
  8
0
 62
    18
420
        0
370
    25
100
AcDbLine
 10
51.85172899008341
 20
89.65978990607329
 30
0.0
 11
51.85172899008341
 21
81.65979045737397
 31
0.0
  0
LINE
  5
9C
330
70
100
AcDbEntity
  8
0
 62
    18
420
        0
370
    25
100
AcDbLine
 10
52.85172853318345
 20
81.65979045737397
 30
0.0
 11
52.85172853318345
 21
89.65978990607329
 31
0.0
  0
LINE
  5
9D
330
70
100
AcDbEntity
  8
0
 62
    18
420
        0
370
    25
100
AcDbLine
 10
52.85172853318345
 20
90.65979006997352
 30
0.0
 11
52.85172853318345
 21
96.3264567340736
 31
0.0
  0
SPLINE
  5
9E
330
70
100
AcDbEntity
  8
0
 62
    18
420
        0
370
    25
100
AcDbSpline
210
0.0
220
0.0
230
1.0
 70
     8
 71
     3
 72
     8
 73
     4
 74
     0
 42
0.0000000001
 43
0.0000000001
 40
0.0
 40
0.0
 40
0.0
 40
0.0
 40
1.0
 40
1.0
 40
1.0
 40
1.0
 10
61.35863257887319
 20
80.65978967256894
 30
0.0
 10
61.50562294470699
 20
80.97233337437707
 30
0.0
 10
61.5788657490073
 20
81.3144618140673
 30
0.0
 10
61.57271259469075
 20
81.65979045736241
 30
0.0
  0
LWPOLYLINE
  5
9F
330
70
100
AcDbEntity
  8
0
 62
    18
420
        0
370
    25
100
AcDbPolyline
 90
        8
 70
     0
 43
0.0
 10
60.57271305168342
 20
81.65979045737397
 10
60.56604478208355
 20
81.51310466837342
 10
60.51306618698361
 20
81.22950328497308
 10
60.41561010918354
 20
80.98797781377369
 10
60.29204719708337
 20
80.81076202897348
 10
60.16606532978345
 20
80.7058926235735
 10
60.05510879998363
 20
80.66348516057358
 10
60.01205189468359
 20
80.65978967257343
  0
LINE
  5
A0
330
70
100
AcDbEntity
  8
0
 62
    18
420
        0
370
    25
100
AcDbLine
 10
60.57271305168342
 20
96.3264567340736
 30
0.0
 11
60.57271305168342
 21
90.65979006997352
 31
0.0
  0
LINE
  5
A1
330
70
100
AcDbEntity
  8
0
 62
    18
420
        0
370
    25
100
AcDbLine
 10
60.57271305168342
 20
89.65978990607329
 30
0.0
 11
60.57271305168342
 21
81.65979045737397
 31
0.0
  0
LINE
  5
A2
330
70
100
AcDbEntity
  8
0
 62
    18
420
        0
370
    25
100
AcDbLine
 10
61.57271259468337
 20
81.65979045737397
 30
0.0
 11
61.57271259468337
 21
89.65978990607329
 31
0.0
  0
LINE
  5
A3
330
70
100
AcDbEntity
  8
0
 62
    18
420
        0
370
    25
100
AcDbLine
 10
61.57271259468337
 20
90.65979006997352
 30
0.0
 11
61.57271259468337
 21
96.3264567340736
 31
0.0
  0
SPLINE
  5
A4
330
70
100
AcDbEntity
  8
0
 62
    18
420
        0
370
    25
100
AcDbSpline
210
0.0
220
0.0
230
1.0
 70
     8
 71
     3
 72
     8
 73
     4
 74
     0
 42
0.0000000001
 43
0.0000000001
 40
0.0
 40
0.0
 40
0.0
 40
0.0
 40
1.0
 40
1.0
 40
1.0
 40
1.0
 10
70.07961912402079
 20
80.65978967259976
 30
0.0
 10
70.22660606630839
 20
80.9723343582724
 30
0.0
 10
70.29984708101117
 20
81.31446237648185
 30
0.0
 10
70.29369417278426
 20
81.65979045739323
 30
0.0
  0
LWPOLYLINE
  5
A5
330
70
100
AcDbEntity
  8
0
 62
    18
420
        0
370
    25
100
AcDbPolyline
 90
        8
 70
     0
 43
0.0
 10
69.29369711318333
 20
81.65979045737397
 10
69.28703132708388
 20
81.51310466837342
 10
69.23404776498374
 20
81.22950328497308
 10
69.13659417078324
 20
80.98797781377369
 10
69.01302877508351
 20
80.81076202897348
 10
68.88704939128337
 20
80.7058926235735
 10
68.77609037798312
 20
80.66348516057358
 10
68.73303595628328
 20
80.65978967257343
  0
LINE
  5
A6
330
70
100
AcDbEntity
  8
0
 62
    18
420
        0
370
    25
100
AcDbLine
 10
69.29369711318333
 20
96.3264567340736
 30
0.0
 11
69.29369711318333
 21
90.65979006997352
 31
0.0
  0
LINE
  5
A7
330
70
100
AcDbEntity
  8
0
 62
    18
420
        0
370
    25
100
AcDbLine
 10
69.29369711318333
 20
89.65978990607329
 30
0.0
 11
69.29369711318333
 21
81.65979045737397
 31
0.0
  0
LINE
  5
A8
330
70
100
AcDbEntity
  8
0
 62
    18
420
        0
370
    25
100
AcDbLine
 10
70.29369417278362
 20
81.65979045737397
 30
0.0
 11
70.29369417278362
 21
89.65978990607329
 31
0.0
  0
LINE
  5
A9
330
70
100
AcDbEntity
  8
0
 62
    18
420
        0
370
    25
100
AcDbLine
 10
70.29369417278362
 20
90.65979006997352
 30
0.0
 11
70.29369417278362
 21
96.3264567340736
 31
0.0
  0
LWPOLYLINE
  5
AA
330
70
100
AcDbEntity
  8
0
 62
    18
420
        0
370
    25
100
AcDbPolyline
 90
        7
 70
     0
 43
0.0
 10
24.17827375538348
 20
96.53389890347341
 10
24.1783454900836
 20
97.06878462167358
 10
24.17840106888359
 20
97.7929681335736
 10
24.17840162628359
 20
98.20967499307357
 10
24.17837659318343
 20
98.64279086377361
 10
24.17832954428343
 20
99.06691438807365
 10
24.17827375538348
 20
99.45234782357365
  0
LWPOLYLINE
  5
AB
330
70
100
AcDbEntity
  8
0
 62
    18
420
        0
370
    25
100
AcDbPolyline
 90
        5
 70
     0
 43
0.0
 10
24.17825519638364
 20
99.42289536797353
 10
24.17833115938344
 20
99.7182317262736
 10
24.17841767318344
 20
99.9631048364734
 10
24.17848368398364
 20
100.1437691535734
 10
24.17849432498363
 20
100.2454947243734
  0
LWPOLYLINE
  5
AC
330
70
100
AcDbEntity
  8
0
 62
    18
420
        0
370
    25
100
AcDbPolyline
 90
        3
 70
     0
 43
0.0
 10
24.17849475058346
 20
100.2446992196734
 10
24.13155288948351
 20
102.7482332225735
 10
24.00435392908353
 20
106.0091601869736
  0
LWPOLYLINE
  5
AD
330
70
100
AcDbEntity
  8
0
 62
    18
420
        0
370
    25
100
AcDbPolyline
 90
        3
 70
     0
 43
0.0
 10
24.17808535218358
 20
96.45061755537362
 10
24.1781810691834
 20
96.46966837947346
 10
24.17825518818337
 20
96.5633628453734
  0
SPLINE
  5
AE
330
70
100
AcDbEntity
  8
0
 62
    18
420
        0
370
    25
100
AcDbSpline
210
0.0
220
0.0
230
1.0
 70
     8
 71
     3
 72
     8
 73
     4
 74
     0
 42
0.0000000001
 43
0.0000000001
 40
0.0
 40
0.0
 40
0.0
 40
0.0
 40
1.0
 40
1.0
 40
1.0
 40
1.0
 10
24.00510843117819
 20
106.0090303830925
 30
0.0
 10
23.99661815530984
 20
106.1867423443211
 30
0.0
 10
23.85005943339567
 20
106.3264620821121
 30
0.0
 10
23.67214477430607
 20
106.326456696754
 30
0.0
  0
SPLINE
  5
AF
330
70
100
AcDbEntity
  8
0
 62
    18
420
        0
370
    25
100
AcDbSpline
210
0.0
220
0.0
230
1.0
 70
     8
 71
     3
 72
    11
 73
     7
 74
     0
 42
0.0000000001
 43
0.0000000001
 40
0.0
 40
0.0
 40
0.0
 40
0.0
 40
1.0
 40
1.0
 40
1.0
 40
2.0
 40
2.0
 40
2.0
 40
2.0
 10
57.17237485884076
 20
99.64065100360086
 30
0.0
 10
57.13692159017804
 20
99.91450814338108
 30
0.0
 10
56.88617596133614
 20
100.1077726664937
 30
0.0
 10
56.61231882155623
 20
100.0723193978309
 30
0.0
 10
56.38709335521254
 20
100.0431619364828
 30
0.0
 10
56.20980788867427
 20
99.86587646994454
 30
0.0
 10
56.18065042732611
 20
99.64065100360086
 30
0.0
  0
LWPOLYLINE
  5
B0
330
70
100
AcDbEntity
  8
0
 62
    18
420
        0
370
    25
100
AcDbPolyline
 90
        7
 70
     0
 43
0.0
 10
48.67638094668348
 20
105.9932556808735
 10
48.67850684568364
 20
105.9911297818737
 10
48.9388599340834
 20
105.7307748308734
 10
49.45959094608343
 20
105.2100463023735
 10
50.50112250888339
 20
104.1685141186736
 10
52.58444640478352
 20
102.0851886705734
 10
55.00984632418343
 20
99.65978999297348
  0
LWPOLYLINE
  5
B1
330
70
100
AcDbEntity
  8
0
 62
    18
420
        0
370
    25
100
AcDbPolyline
 90
        4
 70
     0
 43
0.0
 10
58.34317896208356
 20
99.65978999297348
 10
60.48430197878354
 20
101.8009130095737
 10
62.65175783078348
 20
103.9683685511735
 10
64.67664433958351
 20
105.9932556808735
  0
LINE
  5
B2
330
70
100
AcDbEntity
  8
0
 62
    18
420
        0
370
    25
100
AcDbLine
 10
55.49318038868358
 20
97.66481100717347
 30
0.0
 11
55.49318038868358
 21
98.36999410277348
 31
0.0
  0
LWPOLYLINE
  5
B3
330
70
100
AcDbEntity
  8
0
 62
    18
420
        0
370
    25
100
AcDbPolyline
 90
        5
 70
     0
 43
0.0
 10
55.00984632418343
 20
96.3264567340736
 10
54.82253376088353
 20
96.1391449469735
 10
53.88593369168341
 20
95.20254565387372
 10
52.87729892578347
 20
94.19391026707348
 10
52.85172853318345
 20
94.16833987447347
  0
LINE
  5
B4
330
70
100
AcDbEntity
  8
0
 62
    18
420
        0
370
    25
100
AcDbLine
 10
51.85172899008341
 20
93.16833971047344
 30
0.0
 11
49.34317810778353
 21
90.65979006997352
 31
0.0
  0
LINE
  5
B5
330
70
100
AcDbEntity
  8
0
 62
    18
420
        0
370
    25
100
AcDbLine
 10
48.67638094668348
 20
105.9932556808735
 30
0.0
 11
48.66234901988338
 21
105.9932500929737
 31
0.0
  0
SPLINE
  5
B6
330
70
100
AcDbEntity
  8
0
 62
    18
420
        0
370
    25
100
AcDbSpline
210
0.0
220
0.0
230
1.0
 70
     8
 71
     3
 72
    11
 73
     7
 74
     0
 42
0.0000000001
 43
0.0000000001
 40
0.0
 40
0.0
 40
0.0
 40
0.0
 40
1.0
 40
1.0
 40
1.0
 40
2.0
 40
2.0
 40
2.0
 40
2.0
 10
56.18793461165065
 20
96.32645673416504
 30
0.0
 10
56.22838160891167
 20
96.0573872130999
 30
0.0
 10
56.47929432282647
 20
95.87205203867975
 30
0.0
 10
56.74836384389191
 20
95.91249903594079
 30
0.0
 10
56.96226029687944
 20
95.94465232187895
 30
0.0
 10
57.130168256178
 20
96.1125602811775
 30
0.0
 10
57.16232154211649
 20
96.32645673416504
 30
0.0
  0
LWPOLYLINE
  5
B7
330
70
100
AcDbEntity
  8
0
 62
    18
420
        0
370
    25
100
AcDbPolyline
 90
        5
 70
     0
 43
0.0
 10
58.34317896208356
 20
96.3264567340736
 10
58.53049152538346
 20
96.1391449469735
 10
59.46709159458357
 20
95.20254565387372
 10
60.47572636048352
 20
94.19391026707348
 10
60.57271305168342
 20
94.09692326547348
  0
LINE
  5
B8
330
70
100
AcDbEntity
  8
0
 62
    18
420
        0
370
    25
100
AcDbLine
 10
61.57271259468337
 20
93.09692341197333
 30
0.0
 11
64.00984469498336
 21
90.65979006997352
 31
0.0
  0
SPLINE
  5
B9
330
70
100
AcDbEntity
  8
0
 62
    18
420
        0
370
    25
100
AcDbSpline
210
0.0
220
0.0
230
1.0
 70
     8
 71
     3
 72
     8
 73
     4
 74
     0
 42
0.0000000001
 43
0.0000000001
 40
0.0
 40
0.0
 40
0.0
 40
0.0
 40
1.0
 40
1.0
 40
1.0
 40
1.0
 10
64.69067378288222
 20
106.0002610893259
 30
0.0
 10
64.68526571994465
 20
105.9998338978658
 30
0.0
 10
64.68023525270472
 20
105.9973220036427
 30
0.0
 10
64.67664433961847
 20
105.9932556809197
 30
0.0
  0
LINE
  5
BA
330
70
100
AcDbEntity
  8
0
 62
    18
420
        0
370
    25
100
AcDbLine
 10
57.85984489758341
 20
98.30991473577345
 30
0.0
 11
57.85984489758341
 21
97.60614932657368
 31
0.0
  0
LINE
  5
BB
330
70
100
AcDbEntity
  8
0
 62
    18
420
        0
370
    25
100
AcDbLine
 10
65.0098467214834
 20
105.9931234330735
 30
0.0
 11
65.0098467214834
 21
99.65978999297348
 31
0.0
  0
LINE
  5
BC
330
70
100
AcDbEntity
  8
0
 62
    18
420
        0
370
    25
100
AcDbLine
 10
65.0098467214834
 20
96.3264567340736
 30
0.0
 11
65.0098467214834
 21
90.65979006997352
 31
0.0
  0
SPLINE
  5
BD
330
70
100
AcDbEntity
  8
0
 62
    18
420
        0
370
    25
100
AcDbSpline
210
0.0
220
0.0
230
1.0
 70
     8
 71
     3
 72
     8
 73
     4
 74
     0
 42
0.0000000001
 43
0.0000000001
 40
0.0
 40
0.0
 40
0.0
 40
0.0
 40
1.0
 40
1.0
 40
1.0
 40
1.0
 10
65.00984672147473
 20
105.9931234331015
 30
0.0
 10
64.90367865197349
 20
106.0015822525149
 30
0.0
 10
64.79711385514502
 20
106.0039653583235
 30
0.0
 10
64.69067378281067
 20
106.0002610893133
 30
0.0
  0
SPLINE
  5
BE
330
70
100
AcDbEntity
  8
0
 62
    18
420
        0
370
    25
100
AcDbSpline
210
0.0
220
0.0
230
1.0
 70
     8
 71
     3
 72
     8
 73
     4
 74
     0
 42
0.0000000001
 43
0.0000000001
 40
0.0
 40
0.0
 40
0.0
 40
0.0
 40
1.0
 40
1.0
 40
1.0
 40
1.0
 10
65.00984672156649
 20
105.9931234331185
 30
0.0
 10
64.89937650178106
 20
106.0072414363625
 30
0.0
 10
64.78790915042651
 20
106.0119793408989
 30
0.0
 10
64.67663937258365
 20
106.0072863659516
 30
0.0
  0
LINE
  5
BF
330
70
100
AcDbEntity
  8
0
 62
    18
420
        0
370
    25
100
AcDbLine
 10
64.67664433958351
 20
105.9932556808735
 30
0.0
 11
64.67663937258365
 21
106.0072863658736
 31
0.0
  0
LINE
  5
C0
330
70
100
AcDbEntity
  8
0
 62
    18
420
        0
370
    25
100
AcDbLine
 10
48.34317856478359
 20
90.65979006997352
 30
0.0
 11
48.34317856478359
 21
96.3264567340736
 31
0.0
  0
LINE
  5
C1
330
70
100
AcDbEntity
  8
0
 62
    18
420
        0
370
    25
100
AcDbLine
 10
48.34317856478359
 20
99.65978999297348
 30
0.0
 11
48.34317856478359
 21
105.9931234330735
 31
0.0
  0
SPLINE
  5
C2
330
70
100
AcDbEntity
  8
0
 62
    18
420
        0
370
    25
100
AcDbSpline
210
0.0
220
0.0
230
1.0
 70
     8
 71
     3
 72
     8
 73
     4
 74
     0
 42
0.0000000001
 43
0.0000000001
 40
0.0
 40
0.0
 40
0.0
 40
0.0
 40
1.0
 40
1.0
 40
1.0
 40
1.0
 10
48.66234901981601
 20
105.9932500929358
 30
0.0
 10
48.55595885138955
 20
105.9932898742181
 30
0.0
 10
48.44956866808434
 20
105.9932476542488
 30
0.0
 10
48.34317856474092
 20
105.9931234330655
 30
0.0
  0
SPLINE
  5
C3
330
70
100
AcDbEntity
  8
0
 62
    18
420
        0
370
    25
100
AcDbSpline
210
0.0
220
0.0
230
1.0
 70
     8
 71
     3
 72
     8
 73
     4
 74
     0
 42
0.0000000001
 43
0.0000000001
 40
0.0
 40
0.0
 40
0.0
 40
0.0
 40
1.0
 40
1.0
 40
1.0
 40
1.0
 10
48.67651257360208
 20
106.3264568210835
 30
0.0
 10
48.6623942986415
 20
106.215986832439
 30
0.0
 10
48.65765618610442
 20
106.1045196817752
 30
0.0
 10
48.66234901988724
 20
105.993250092983
 30
0.0
  0
SPLINE
  5
C4
330
70
100
AcDbEntity
  8
0
 62
    18
420
        0
370
    25
100
AcDbSpline
210
0.0
220
0.0
230
1.0
 70
     8
 71
     3
 72
     8
 73
     4
 74
     0
 42
0.0000000001
 43
0.0000000001
 40
0.0
 40
0.0
 40
0.0
 40
0.0
 40
1.0
 40
1.0
 40
1.0
 40
1.0
 10
48.6765125736149
 20
106.3264568210482
 30
0.0
 10
48.66805131151697
 20
106.2202886686856
 30
0.0
 10
48.66566820259839
 20
106.1137235254883
 30
0.0
 10
48.669374917403
 20
106.0072832615005
 30
0.0
  0
SPLINE
  5
C5
330
70
100
AcDbEntity
  8
0
 62
    18
420
        0
370
    25
100
AcDbSpline
210
0.0
220
0.0
230
1.0
 70
     8
 71
     3
 72
     8
 73
     4
 74
     0
 42
0.0000000001
 43
0.0000000001
 40
0.0
 40
0.0
 40
0.0
 40
0.0
 40
1.0
 40
1.0
 40
1.0
 40
1.0
 10
48.6693749174184
 20
106.0072832615307
 30
0.0
 10
48.66980263446492
 20
106.0018757390385
 30
0.0
 10
48.67231473628059
 20
105.9968459697788
 30
0.0
 10
48.67638094670626
 20
105.9932556809117
 30
0.0
  0
LWPOLYLINE
  5
C6
330
70
100
AcDbEntity
  8
0
 62
    18
420
        0
370
    25
100
AcDbPolyline
 90
        6
 70
     0
 43
0.0
 10
56.67651140138345
 20
106.0092974017734
 10
56.00984586718337
 20
106.0092793961736
 10
53.34317876338353
 20
106.0088702351734
 10
51.00978358038358
 20
106.0081711223735
 10
48.67638591368335
 20
106.0072863658736
 10
48.66937491738343
 20
106.0072832614736
  0
LINE
  5
C7
330
70
100
AcDbEntity
  8
0
 62
    18
420
        0
370
    25
100
AcDbLine
 10
48.67651257358346
 20
106.3264568210736
 30
0.0
 11
56.67651140138345
 21
106.3264568210736
 31
0.0
  0
LINE
  5
C8
330
70
100
AcDbEntity
  8
0
 62
    18
420
        0
370
    25
100
AcDbLine
 10
56.67651140138345
 20
106.0092974017734
 30
0.0
 11
56.67651140138345
 21
106.3264568210736
 31
0.0
  0
LINE
  5
C9
330
70
100
AcDbEntity
  8
0
 62
    18
420
        0
370
    25
100
AcDbLine
 10
56.67651140138345
 20
105.9932556808735
 30
0.0
 11
56.67651140138345
 21
106.0092974017734
 31
0.0
  0
LINE
  5
CA
330
70
100
AcDbEntity
  8
0
 62
    18
420
        0
370
    25
100
AcDbLine
 10
56.67651140138345
 20
105.9932556808735
 30
0.0
 11
48.67638094668348
 21
105.9932556808735
 31
0.0
  0
LWPOLYLINE
  5
CB
330
70
100
AcDbEntity
  8
0
 62
    18
420
        0
370
    25
100
AcDbPolyline
 90
        5
 70
     0
 43
0.0
 10
64.67663937258365
 20
106.0072863658736
 10
64.00997383838357
 20
106.0075508614735
 10
61.3433067345834
 20
106.0085008105737
 10
59.00990906798359
 20
106.0090813349735
 10
56.67651140138345
 20
106.0092974017734
  0
LINE
  5
CC
330
70
100
AcDbEntity
  8
0
 62
    18
420
        0
370
    25
100
AcDbLine
 10
64.67664433958351
 20
105.9932556808735
 30
0.0
 11
56.67651140138345
 21
105.9932556808735
 31
0.0
  0
LINE
  5
CD
330
70
100
AcDbEntity
  8
0
 62
    18
420
        0
370
    25
100
AcDbLine
 10
56.67651140138345
 20
106.3264568210736
 30
0.0
 11
64.67651271268351
 21
106.3264568210736
 31
0.0
  0
SPLINE
  5
CE
330
70
100
AcDbEntity
  8
0
 62
    18
420
        0
370
    25
100
AcDbSpline
210
0.0
220
0.0
230
1.0
 70
     8
 71
     3
 72
     8
 73
     4
 74
     0
 42
0.0000000001
 43
0.0000000001
 40
0.0
 40
0.0
 40
0.0
 40
0.0
 40
1.0
 40
1.0
 40
1.0
 40
1.0
 10
64.67663937256182
 20
106.0072863660296
 30
0.0
 10
64.67668017643008
 20
106.1136765344349
 30
0.0
 10
64.67663795646038
 20
106.2200667184735
 30
0.0
 10
64.67651271269154
 20
106.3264568209844
 30
0.0
  0
SPLINE
  5
CF
330
70
100
AcDbEntity
  8
0
 62
    18
420
        0
370
    25
100
AcDbSpline
210
0.0
220
0.0
230
1.0
 70
     8
 71
     3
 72
     8
 73
     4
 74
     0
 42
0.0000000001
 43
0.0000000001
 40
0.0
 40
0.0
 40
0.0
 40
0.0
 40
1.0
 40
1.0
 40
1.0
 40
1.0
 10
65.00984592681678
 20
105.9931233636526
 30
0.0
 10
65.00984592677315
 20
106.1772182802319
 30
0.0
 10
64.86060751006274
 20
106.3264566969067
 30
0.0
 10
64.67651259348343
 20
106.3264566969067
 30
0.0
  0
SPLINE
  5
D0
330
70
100
AcDbEntity
  8
0
 62
    18
420
        0
370
    25
100
AcDbSpline
210
0.0
220
0.0
230
1.0
 70
     8
 71
     3
 72
     8
 73
     4
 74
     0
 42
0.0000000001
 43
0.0000000001
 40
0.0
 40
0.0
 40
0.0
 40
0.0
 40
1.0
 40
1.0
 40
1.0
 40
1.0
 10
48.67651259348352
 20
106.3264566969067
 30
0.0
 10
48.49241767687309
 20
106.3264566969067
 30
0.0
 10
48.34317926015017
 20
106.1772182801838
 30
0.0
 10
48.34317926015017
 20
105.9931233635734
 30
0.0
  0
CIRCLE
  5
D1
330
70
100
AcDbEntity
  8
0
 62
    18
420
        0
370
    25
100
AcDbCircle
 10
56.67651259348347
 20
97.99312336357344
 30
0.0
 40
0.8666666666666971
  0
SPLINE
  5
D2
330
70
100
AcDbEntity
  8
0
 62
    18
420
        0
370
    25
100
AcDbSpline
210
0.0
220
0.0
230
1.0
 70
     8
 71
     3
 72
    11
 73
     7
 74
     0
 42
0.0000000001
 43
0.0000000001
 40
0.0
 40
0.0
 40
0.0
 40
0.0
 40
1.0
 40
1.0
 40
1.0
 40
2.0
 40
2.0
 40
2.0
 40
2.0
 10
24.34317926800949
 20
99.65978999293049
 30
0.0
 10
24.25113186565643
 20
99.65979005325436
 30
0.0
 10
24.17651265375038
 20
99.5851709391529
 30
0.0
 10
24.1765125934265
 20
99.4931235367995
 30
0.0
 10
24.1765125934265
 20
99.49312345751277
 30
0.0
 10
24.1765125934265
 20
99.49312337823181
 30
0.0
 10
24.1765125934265
 20
99.49312329894477
 30
0.0
  0
LINE
  5
D3
330
70
100
AcDbEntity
  8
0
 62
    18
420
        0
370
    25
100
AcDbLine
 10
24.34317926808361
 20
99.65978999297348
 30
0.0
 11
25.84317922288335
 21
99.65978999297348
 31
0.0
  0
SPLINE
  5
D4
330
70
100
AcDbEntity
  8
0
 62
    18
420
        0
370
    25
100
AcDbSpline
210
0.0
220
0.0
230
1.0
 70
     8
 71
     3
 72
     8
 73
     4
 74
     0
 42
0.0000000001
 43
0.0000000001
 40
0.0
 40
0.0
 40
0.0
 40
0.0
 40
1.0
 40
1.0
 40
1.0
 40
1.0
 10
26.00984591689185
 20
99.49312329899642
 30
0.0
 10
26.00984588981729
 20
99.58517076117477
 30
0.0
 10
25.93522668508447
 20
99.65978996590727
 30
0.0
 10
25.84317922290645
 20
99.65978999298183
 30
0.0
  0
SPLINE
  5
D5
330
70
100
AcDbEntity
  8
0
 62
    18
420
        0
370
    25
100
AcDbSpline
210
0.0
220
0.0
230
1.0
 70
     8
 71
     3
 72
    11
 73
     7
 74
     0
 42
0.0000000001
 43
0.0000000001
 40
0.0
 40
0.0
 40
0.0
 40
0.0
 40
1.0
 40
1.0
 40
1.0
 40
2.0
 40
2.0
 40
2.0
 40
2.0
 10
25.8431792228888
 20
96.32645673408291
 30
0.0
 10
25.93522663072839
 20
96.32645666852949
 30
0.0
 10
26.0098458513208
 20
96.4010757828392
 30
0.0
 10
26.0098459168742
 20
96.49312319067881
 30
0.0
 10
26.0098459168742
 20
96.49312326981119
 30
0.0
 10
26.0098459168742
 20
96.49312334893558
 30
0.0
 10
26.0098459168742
 20
96.4931234280683
 30
0.0
  0
LINE
  5
D6
330
70
100
AcDbEntity
  8
0
 62
    18
420
        0
370
    25
100
AcDbLine
 10
25.84317922288335
 20
96.3264567340736
 30
0.0
 11
24.34317926808361
 21
96.3264567340736
 31
0.0
  0
SPLINE
  5
D7
330
70
100
AcDbEntity
  8
0
 62
    18
420
        0
370
    25
100
AcDbSpline
210
0.0
220
0.0
230
1.0
 70
     8
 71
     3
 72
     8
 73
     4
 74
     0
 42
0.0000000001
 43
0.0000000001
 40
0.0
 40
0.0
 40
0.0
 40
0.0
 40
1.0
 40
1.0
 40
1.0
 40
1.0
 10
24.17651259347078
 20
96.49312342814626
 30
0.0
 10
24.17651260762409
 20
96.40107596819301
 30
0.0
 10
24.25113180810051
 20
96.32645675902992
 30
0.0
 10
24.34317926805377
 20
96.32645673416085
 30
0.0
  0
LINE
  5
D8
330
70
100
AcDbEntity
  8
0
 62
    18
420
        0
370
    25
100
AcDbLine
 10
24.17651259348361
 20
99.49312329897365
 30
0.0
 11
24.17651259348361
 21
96.49312342807343
 31
0.0
  0
LINE
  5
D9
330
70
100
AcDbEntity
  8
0
 62
    18
420
        0
370
    25
100
AcDbLine
 10
26.00984591688351
 20
99.49312329897365
 30
0.0
 11
26.00984591688351
 21
96.49312342807343
 31
0.0
  0
LINE
  5
DA
330
70
100
AcDbEntity
  8
0
 62
    18
420
        0
370
    25
100
AcDbLine
 10
29.17651248168346
 20
99.65978999297348
 30
0.0
 11
29.17651248168346
 21
99.49312329897365
 31
0.0
  0
LINE
  5
DB
330
70
100
AcDbEntity
  8
0
 62
    18
420
        0
370
    25
100
AcDbLine
 10
29.17651248168346
 20
99.49312329897365
 30
0.0
 11
26.00984591688351
 21
99.49312329897365
 31
0.0
  0
LINE
  5
DC
330
70
100
AcDbEntity
  8
0
 62
    18
420
        0
370
    25
100
AcDbLine
 10
25.84317922288335
 20
99.65978999297348
 30
0.0
 11
29.17651248168346
 21
99.65978999297348
 31
0.0
  0
LINE
  5
DD
330
70
100
AcDbEntity
  8
0
 62
    18
420
        0
370
    25
100
AcDbLine
 10
29.17651248168346
 20
99.49312329897365
 30
0.0
 11
29.17651248168346
 21
96.49312342807343
 31
0.0
  0
LINE
  5
DE
330
70
100
AcDbEntity
  8
0
 62
    18
420
        0
370
    25
100
AcDbLine
 10
26.00984591688351
 20
96.49312342807343
 30
0.0
 11
29.17651248168346
 21
96.49312342807343
 31
0.0
  0
LINE
  5
DF
330
70
100
AcDbEntity
  8
0
 62
    18
420
        0
370
    25
100
AcDbLine
 10
29.17651248168346
 20
96.49312342807343
 30
0.0
 11
29.17651248168346
 21
96.3264567340736
 31
0.0
  0
LINE
  5
E0
330
70
100
AcDbEntity
  8
0
 62
    18
420
        0
370
    25
100
AcDbLine
 10
29.17651248168346
 20
96.3264567340736
 30
0.0
 11
25.84317922288335
 21
96.3264567340736
 31
0.0
  0
LINE
  5
E1
330
70
100
AcDbEntity
  8
0
 62
    18
420
        0
370
    25
100
AcDbLine
 10
90.57528221058349
 20
99.49312329897365
 30
0.0
 11
29.17651248168346
 21
99.49312329897365
 31
0.0
  0
LINE
  5
E2
330
70
100
AcDbEntity
  8
0
 62
    18
420
        0
370
    25
100
AcDbLine
 10
29.17651248168346
 20
96.49312342807343
 30
0.0
 11
90.57528221058349
 21
96.49312342807343
 31
0.0
  0
CIRCLE
  5
E3
330
70
100
AcDbEntity
  8
0
 62
    18
420
        0
370
    25
100
AcDbCircle
 10
56.67651259348356
 20
97.99312336357351
 30
0.0
 40
1.416666666666716
  0
SPLINE
  5
E4
330
70
100
AcDbEntity
  8
0
 62
    18
420
        0
370
    25
100
AcDbSpline
210
0.0
220
0.0
230
1.0
 70
     8
 71
     3
 72
     8
 73
     4
 74
     0
 42
0.0000000001
 43
0.0000000001
 40
0.0
 40
0.0
 40
0.0
 40
0.0
 40
1.0
 40
1.0
 40
1.0
 40
1.0
 10
90.57528289933319
 20
96.49312336357274
 30
0.0
 10
90.93247804704473
 20
97.46122627018605
 30
0.0
 10
90.93247804704473
 20
98.52502045696082
 30
0.0
 10
90.57528289933319
 20
99.49312336357444
 30
0.0
  0
LINE
  5
E5
330
70
100
AcDbEntity
  8
0
 62
    18
420
        0
370
    25
100
AcDbLine
 10
29.17651248168346
 20
99.65978999297348
 30
0.0
 11
90.50984624468361
 21
99.65978999297348
 31
0.0
  0
SPLINE
  5
E6
330
70
100
AcDbEntity
  8
0
 62
    18
420
        0
370
    25
100
AcDbSpline
210
0.0
220
0.0
230
1.0
 70
     8
 71
     3
 72
     8
 73
     4
 74
     0
 42
0.0000000001
 43
0.0000000001
 40
0.0
 40
0.0
 40
0.0
 40
0.0
 40
1.0
 40
1.0
 40
1.0
 40
1.0
 10
90.57528221057003
 20
99.49312329891654
 30
0.0
 10
90.55462366396865
 20
99.54912484128245
 30
0.0
 10
90.53280699329063
 20
99.60469233124262
 30
0.0
 10
90.50984624471571
 20
99.65978999289809
 30
0.0
  0
LINE
  5
E7
330
70
100
AcDbEntity
  8
0
 62
    18
420
        0
370
    25
100
AcDbLine
 10
90.50984624468361
 20
96.3264567340736
 30
0.0
 11
29.17651248168346
 21
96.3264567340736
 31
0.0
  0
SPLINE
  5
E8
330
70
100
AcDbEntity
  8
0
 62
    18
420
        0
370
    25
100
AcDbSpline
210
0.0
220
0.0
230
1.0
 70
     8
 71
     3
 72
     8
 73
     4
 74
     0
 42
0.0000000001
 43
0.0000000001
 40
0.0
 40
0.0
 40
0.0
 40
0.0
 40
1.0
 40
1.0
 40
1.0
 40
1.0
 10
90.50984624469132
 20
96.32645673414032
 30
0.0
 10
90.53281300855816
 20
96.38155196169016
 30
0.0
 10
90.55462972849943
 20
96.43711957712463
 30
0.0
 10
90.57528221054564
 20
96.49312342812285
 30
0.0
  0
CIRCLE
  5
E9
330
70
100
AcDbEntity
  8
0
 62
    18
420
        0
370
    25
100
AcDbCircle
 10
56.67651259348347
 20
97.99312336357351
 30
0.0
 40
1.250000000000003
  0
LWPOLYLINE
  5
EA
330
70
100
AcDbEntity
  8
0
 62
    18
420
        0
370
    25
100
AcDbPolyline
 90
        4
 70
     0
 43
0.0
 10
23.67028304998346
 20
89.99312329397351
 10
23.6718940828836
 20
95.29517779107361
 10
23.67190758708342
 20
100.5972321329736
 10
23.67028304998346
 20
105.9931234330735
  0
LWPOLYLINE
  5
EB
330
70
100
AcDbEntity
  8
0
 62
    18
420
        0
370
    25
100
AcDbPolyline
 90
        9
 70
     0
 43
0.0
 10
23.67028304998346
 20
105.9931234330735
 10
23.73357534418348
 20
105.9931476474735
 10
23.79456482678365
 20
105.9931706200736
 10
23.85103240848358
 20
105.9931923509735
 10
23.90092355278336
 20
105.9932109773735
 10
23.94242303448343
 20
105.9932271202735
 10
23.97402092738335
 20
105.9932389170736
 10
23.99456755268363
 20
105.9932469885736
 10
24.00331532978349
 20
105.9932500929737
  0
LWPOLYLINE
  5
EC
330
70
100
AcDbEntity
  8
0
 62
    18
420
        0
370
    25
100
AcDbPolyline
 90
        7
 70
     0
 43
0.0
 10
24.00331532978349
 20
105.9932500929737
 10
24.00355386478363
 20
105.3265833169736
 10
24.00439678928342
 20
102.6599171445736
 10
24.00508003078349
 20
97.3265838683735
 10
24.00484844198358
 20
95.29511570297355
 10
24.00331534918365
 20
89.9929966341735
 10
24.00331278798343
 20
89.98598563777347
  0
LWPOLYLINE
  5
ED
330
70
100
AcDbEntity
  8
0
 62
    18
420
        0
370
    25
100
AcDbPolyline
 90
        7
 70
     0
 43
0.0
 10
23.67028304998346
 20
89.99312329397351
 10
23.6805542962836
 20
89.99290288097359
 10
23.72963887648343
 20
89.99185048647346
 10
23.8348612531835
 20
89.98959482317344
 10
23.92151843218363
 20
89.98773776597351
 10
23.97985917518345
 20
89.98648793107353
 10
24.00331278798343
 20
89.98598563777347
  0
LWPOLYLINE
  5
EE
330
70
100
AcDbEntity
  8
0
 62
    18
420
        0
370
    25
100
AcDbPolyline
 90
        9
 70
     0
 43
0.0
 10
23.67028304998346
 20
89.99312329397351
 10
23.73523891908364
 20
89.99036099127353
 10
23.79769973618361
 20
89.98770485927362
 10
23.85526637548361
 20
89.98525672267337
 10
23.90572766388344
 20
89.98311033457357
 10
23.94714530558339
 20
89.98134889317368
 10
23.97792840768359
 20
89.98004007447358
 10
23.99689459788342
 20
89.97923354907353
 10
24.00331534918365
 20
89.97896036117372
  0
SPLINE
  5
EF
330
70
100
AcDbEntity
  8
0
 62
    18
420
        0
370
    25
100
AcDbSpline
210
0.0
220
0.0
230
1.0
 70
     8
 71
     3
 72
     8
 73
     4
 74
     0
 42
0.0000000001
 43
0.0000000001
 40
0.0
 40
0.0
 40
0.0
 40
0.0
 40
1.0
 40
1.0
 40
1.0
 40
1.0
 10
24.00331278805498
 20
89.98598563778534
 30
0.0
 10
24.00371891654072
 20
89.98829849968709
 30
0.0
 10
24.0039192169377
 20
89.99064281101652
 30
0.0
 10
24.00391133743209
 20
89.99299104619153
 30
0.0
  0
LINE
  5
F0
330
70
100
AcDbEntity
  8
0
 62
    18
420
        0
370
    25
100
AcDbLine
 10
24.00391133738365
 20
89.99299104617355
 30
0.0
 11
24.00331534918365
 21
89.97896036117372
 31
0.0
  0
LINE
  5
F1
330
70
100
AcDbEntity
  8
0
 62
    18
420
        0
370
    25
100
AcDbLine
 10
22.17651257608355
 20
89.65978990607329
 30
0.0
 11
22.17651257608355
 21
89.99312329397351
 31
0.0
  0
LINE
  5
F2
330
70
100
AcDbEntity
  8
0
 62
    18
420
        0
370
    25
100
AcDbLine
 10
22.17651257608355
 20
89.99312329397351
 30
0.0
 11
23.67028304998346
 21
89.99312329397351
 31
0.0
  0
LINE
  5
F3
330
70
100
AcDbEntity
  8
0
 62
    18
420
        0
370
    25
100
AcDbLine
 10
23.67028304998346
 20
89.65978990607329
 30
0.0
 11
23.67028304998346
 21
89.99312329397351
 31
0.0
  0
LINE
  5
F4
330
70
100
AcDbEntity
  8
0
 62
    18
420
        0
370
    25
100
AcDbLine
 10
23.67028304998346
 20
89.65978990607329
 30
0.0
 11
22.17651257608355
 21
89.65978990607329
 31
0.0
  0
SPLINE
  5
F5
330
70
100
AcDbEntity
  8
0
 62
    18
420
        0
370
    25
100
AcDbSpline
210
0.0
220
0.0
230
1.0
 70
     8
 71
     3
 72
     8
 73
     4
 74
     0
 42
0.0000000001
 43
0.0000000001
 40
0.0
 40
0.0
 40
0.0
 40
0.0
 40
1.0
 40
1.0
 40
1.0
 40
1.0
 10
23.67028305001105
 20
89.6597899060104
 30
0.0
 10
23.84886932371904
 20
89.65979006343136
 30
0.0
 10
23.99572731436856
 20
89.80053536602412
 30
0.0
 10
24.00331534915477
 20
89.97896036114836
 30
0.0
  0
LINE
  5
F6
330
70
100
AcDbEntity
  8
0
 62
    18
420
        0
370
    25
100
AcDbLine
 10
23.67028304998346
 20
105.9931234330735
 30
0.0
 11
22.17651257608355
 21
105.9931234330735
 31
0.0
  0
LINE
  5
F7
330
70
100
AcDbEntity
  8
0
 62
    18
420
        0
370
    25
100
AcDbLine
 10
22.17651257608355
 20
105.9931234330735
 30
0.0
 11
22.17651257608355
 21
89.99312329397351
 31
0.0
  0
SPLINE
  5
F8
330
70
100
AcDbEntity
  8
0
 62
    18
420
        0
370
    25
100
AcDbSpline
210
0.0
220
0.0
230
1.0
 70
     8
 71
     3
 72
     8
 73
     4
 74
     0
 42
0.0000000001
 43
0.0000000001
 40
0.0
 40
0.0
 40
0.0
 40
0.0
 40
1.0
 40
1.0
 40
1.0
 40
1.0
 10
24.0033153297899
 20
105.9932500929419
 30
0.0
 10
24.00332824457792
 20
106.1772123194074
 30
0.0
 10
23.8542452580521
 20
106.3263733983102
 30
0.0
 10
23.67028305004859
 20
106.3264568210428
 30
0.0
  0
LINE
  5
F9
330
70
100
AcDbEntity
  8
0
 62
    18
420
        0
370
    25
100
AcDbLine
 10
23.67028304998346
 20
105.9931234330735
 30
0.0
 11
23.67028304998346
 21
106.3264568210736
 31
0.0
  0
LINE
  5
FA
330
70
100
AcDbEntity
  8
0
 62
    18
420
        0
370
    25
100
AcDbLine
 10
22.17651257608355
 20
106.3264568210736
 30
0.0
 11
23.67028304998346
 21
106.3264568210736
 31
0.0
  0
LINE
  5
FB
330
70
100
AcDbEntity
  8
0
 62
    18
420
        0
370
    25
100
AcDbLine
 10
22.17651257608355
 20
105.9931234330735
 30
0.0
 11
22.17651257608355
 21
106.3264568210736
 31
0.0
  0
LINE
  5
FC
330
70
100
AcDbEntity
  8
0
 62
    18
420
        0
370
    25
100
AcDbLine
 10
24.00391133738365
 20
105.9932556808735
 30
0.0
 11
24.00331532978349
 21
105.9932500929737
 31
0.0
  0
SPLINE
  5
FD
330
70
100
AcDbEntity
  8
0
 62
    18
420
        0
370
    25
100
AcDbSpline
210
0.0
220
0.0
230
1.0
 70
     8
 71
     3
 72
     8
 73
     4
 74
     0
 42
0.0000000001
 43
0.0000000001
 40
0.0
 40
0.0
 40
0.0
 40
0.0
 40
1.0
 40
1.0
 40
1.0
 40
1.0
 10
24.1775104730707
 20
99.45234704756668
 30
0.0
 10
24.16298447583584
 20
101.6335847252416
 30
0.0
 10
24.10510666760892
 20
103.8143182526741
 30
0.0
 10
24.00391133739038
 20
105.9932556809284
 30
0.0
  0
SPLINE
  5
FE
330
70
100
AcDbEntity
  8
0
 62
    18
420
        0
370
    25
100
AcDbSpline
210
0.0
220
0.0
230
1.0
 70
     8
 71
     3
 72
     8
 73
     4
 74
     0
 42
0.0000000001
 43
0.0000000001
 40
0.0
 40
0.0
 40
0.0
 40
0.0
 40
1.0
 40
1.0
 40
1.0
 40
1.0
 10
24.00391133740515
 20
89.99299104629901
 30
0.0
 10
24.10510670453677
 20
92.17192847319857
 30
0.0
 10
24.16298451576043
 20
94.35266200124816
 30
0.0
 10
24.17751048202016
 20
96.53389967948873
 30
0.0
  0
LWPOLYLINE
  5
FF
330
70
100
AcDbEntity
  8
0
 62
    18
420
        0
370
    25
100
AcDbPolyline
 90
        4
 70
     0
 43
0.0
 10
24.00331278798343
 20
106.0072832614736
 10
24.00353102798346
 20
106.0021572620736
 10
24.00378378498348
 20
105.9962365339736
 10
24.00391133738365
 20
105.9932556808735
  0
LWPOLYLINE
  5
100
330
70
100
AcDbEntity
  8
0
 62
    18
420
        0
370
    25
100
AcDbPolyline
 90
        6
 70
     0
 43
0.0
 10
24.17844925758354
 20
95.90978999917361
 10
24.17842559448355
 20
95.93797554557362
 10
24.17835341918356
 20
96.01935466737337
 10
24.17824534818356
 20
96.14475228497372
 10
24.17811491698353
 20
96.30003092177352
 10
24.17802058028348
 20
96.40979008107366
  0
LWPOLYLINE
  5
101
330
70
100
AcDbEntity
  8
0
 62
    18
420
        0
370
    25
100
AcDbPolyline
 90
        3
 70
     0
 43
0.0
 10
24.17844925758354
 20
95.90978999917361
 10
24.11138119438337
 20
92.58656236637346
 10
24.00509400068356
 20
89.97694932527361
  0
LINE
  5
102
330
70
100
AcDbEntity
  8
0
 62
    18
420
        0
370
    25
100
AcDbLine
 10
24.0050940006996
 20
89.97694932526945
 30
0.0
 11
24.00391611598581
 21
89.97829702941402
 31
0.0
  0
SPLINE
  5
103
330
70
100
AcDbEntity
  8
0
 62
    18
420
        0
370
    25
100
AcDbSpline
210
0.0
220
0.0
230
1.0
 70
     8
 71
     3
 72
     8
 73
     4
 74
     0
 42
0.0000000001
 43
0.0000000001
 40
0.0
 40
0.0
 40
0.0
 40
0.0
 40
1.0
 40
1.0
 40
1.0
 40
1.0
 10
24.00331278807551
 20
106.0072832615108
 30
0.0
 10
23.99572715353407
 20
106.185708823786
 30
0.0
 10
23.84886978844487
 20
106.3264559782044
 30
0.0
 10
23.6702830500688
 20
106.3264568210575
 30
0.0
  0
SPLINE
  5
104
330
70
100
AcDbEntity
  8
0
 62
    18
420
        0
370
    25
100
AcDbSpline
210
0.0
220
0.0
230
1.0
 70
     8
 71
     3
 72
     8
 73
     4
 74
     0
 42
0.0000000001
 43
0.0000000001
 40
0.0
 40
0.0
 40
0.0
 40
0.0
 40
1.0
 40
1.0
 40
1.0
 40
1.0
 10
23.67215331398362
 20
89.65979003024012
 30
0.0
 10
23.84996061607699
 20
89.65979003024012
 30
0.0
 10
23.99646631798278
 20
89.79935127263757
 30
0.0
 10
24.00509400741755
 20
89.97694913200733
 30
0.0
  0
LWPOLYLINE
  5
105
330
70
100
AcDbEntity
  8
0
 62
     8
420
  8421504
370
    25
100
AcDbPolyline
 90
        4
 70
     0
 43
0.0
 10
48.66234901988338
 20
105.9932500929737
 10
48.66208576598364
 20
105.3265833169736
 10
48.66113705878358
 20
102.6599171445736
 10
48.66069747448356
 20
99.65978999297348
  0
LWPOLYLINE
  5
106
330
70
100
AcDbEntity
  8
0
 62
     8
420
  8421504
370
    25
100
AcDbPolyline
 90
        3
 70
     0
 43
0.0
 10
48.66048637468352
 20
96.3264567340736
 10
48.66062296868347
 20
95.29511570297355
 10
48.66213295308346
 20
90.65979006997352
  0
LWPOLYLINE
  5
107
330
70
100
AcDbEntity
  8
0
 62
     8
420
  8421504
370
    25
100
AcDbPolyline
 90
        3
 70
     0
 43
0.0
 10
64.69093952028335
 20
90.65979006997352
 10
64.6918882274834
 20
93.32632958247341
 10
64.69232781178341
 20
96.3264567340736
  0
LWPOLYLINE
  5
108
330
70
100
AcDbEntity
  8
0
 62
     8
420
  8421504
370
    25
100
AcDbPolyline
 90
        4
 70
     0
 43
0.0
 10
64.69253891158347
 20
99.65978999297348
 10
64.69240231758352
 20
100.6911310241736
 10
64.6906762663836
 20
105.9932500929737
 10
64.6906737828835
 20
106.0002610892736
  0
LINE
  5
109
330
70
100
AcDbEntity
  8
0
 62
     8
420
  8421504
370
    25
100
AcDbLine
 10
25.59317933708347
 20
91.65979023387343
 30
0.0
 11
24.59317925078357
 21
91.65979023387343
 31
0.0
  0
LWPOLYLINE
  5
10A
330
70
100
AcDbEntity
  8
0
 62
     8
420
  8421504
370
    25
100
AcDbPolyline
 90
       10
 70
     0
 43
0.0
 10
26.15393719638344
 20
90.65979006997352
 10
26.28913838108352
 20
90.62173002067355
 10
26.40383944848365
 20
90.51334332037358
 10
26.48048015628349
 20
90.35113176317365
 10
26.50739289518347
 20
90.15979029837344
 10
26.48048015628349
 20
89.96844821277369
 10
26.40383944848365
 20
89.80623665557343
 10
26.28913838108352
 20
89.69784995527346
 10
26.15383940758351
 20
89.65978990607329
 10
26.15354340218359
 20
89.65978990607329
  0
LWPOLYLINE
  5
10B
330
70
100
AcDbEntity
  8
0
 62
     8
420
  8421504
370
    25
100
AcDbPolyline
 90
        9
 70
     0
 43
0.0
 10
86.17500407938385
 20
90.65979006997352
 10
86.31030165598335
 20
90.62173002067355
 10
86.42500582778353
 20
90.51334332037358
 10
86.50164249978349
 20
90.35113176317365
 10
86.52855896398348
 20
90.15979029837344
 10
86.50164249978349
 20
89.96844821277369
 10
86.42500582778353
 20
89.80623665557343
 10
86.31030165598335
 20
89.69784995527346
 10
86.17500407938385
 20
89.65978990607329
  0
LINE
  5
10C
330
70
100
AcDbEntity
  8
0
 62
     8
420
  8421504
370
    25
100
AcDbLine
 10
86.73566523638337
 20
91.65979023387343
 30
0.0
 11
87.73566229588354
 21
91.65979023387343
 31
0.0
  0
LINE
  5
10D
330
70
100
AcDbEntity
  8
0
 62
     8
420
  8421504
370
    25
100
AcDbLine
 10
25.59317933708347
 20
81.65979045737397
 30
0.0
 11
24.59317925078357
 21
81.65979045737397
 31
0.0
  0
LWPOLYLINE
  5
10E
330
70
100
AcDbEntity
  8
0
 62
     8
420
  8421504
370
    25
100
AcDbPolyline
 90
       10
 70
     0
 43
0.0
 10
26.15393719638344
 20
80.65978967257343
 10
26.28913838108352
 20
80.62172962337326
 10
26.40383944848365
 20
80.51334354387348
 10
26.48048015628349
 20
80.35113198667323
 10
26.50739289518347
 20
80.15978990107379
 10
26.48048015628349
 20
79.96844781547308
 10
26.40383944848365
 20
79.80623625827345
 10
26.28913838108352
 20
79.69785017877303
 10
26.15383940758351
 20
79.65979012957349
 10
26.15354340218359
 20
79.65979012957349
  0
LWPOLYLINE
  5
10F
330
70
100
AcDbEntity
  8
0
 62
     8
420
  8421504
370
    25
100
AcDbPolyline
 90
        9
 70
     0
 43
0.0
 10
77.45402001778352
 20
80.65978967257343
 10
77.58931759438365
 20
80.62172962337326
 10
77.7040217661832
 20
80.51334354387348
 10
77.78065843828326
 20
80.35113198667323
 10
77.80757490238379
 20
80.15978990107379
 10
77.78065843828326
 20
79.96844781547308
 10
77.7040217661832
 20
79.80623625827345
 10
77.58931759438365
 20
79.69785017877303
 10
77.45402001778352
 20
79.65979012957349
  0
LINE
  5
110
330
70
100
AcDbEntity
  8
0
 62
     8
420
  8421504
370
    25
100
AcDbLine
 10
78.01468117478368
 20
81.65979045737397
 30
0.0
 11
79.01467823428321
 21
81.65979045737397
 31
0.0
  0
LINE
  5
111
330
70
100
AcDbEntity
  8
0
 62
     8
420
  8421504
370
    25
100
AcDbLine
 10
43.13074492858349
 20
81.65979045737397
 30
0.0
 11
44.13074571338337
 21
81.65979045737397
 31
0.0
  0
LINE
  5
112
330
70
100
AcDbEntity
  8
0
 62
     8
420
  8421504
370
    25
100
AcDbLine
 10
34.40976148788344
 20
91.65979023387343
 30
0.0
 11
35.40976165178336
 21
91.65979023387343
 31
0.0
  0
LINE
  5
113
330
70
100
AcDbEntity
  8
0
 62
     8
420
  8421504
370
    25
100
AcDbLine
 10
51.85172899008341
 20
81.65979045737397
 30
0.0
 11
52.85172853318345
 21
81.65979045737397
 31
0.0
  0
LINE
  5
114
330
70
100
AcDbEntity
  8
0
 62
     8
420
  8421504
370
    25
100
AcDbLine
 10
60.57271305168342
 20
81.65979045737397
 30
0.0
 11
61.57271259468337
 21
81.65979045737397
 31
0.0
  0
LINE
  5
115
330
70
100
AcDbEntity
  8
0
 62
     8
420
  8421504
370
    25
100
AcDbLine
 10
69.29369711318333
 20
81.65979045737397
 30
0.0
 11
70.29369417278362
 21
81.65979045737397
 31
0.0
  0
LWPOLYLINE
  5
116
330
70
100
AcDbEntity
  8
0
 62
     8
420
  8421504
370
    25
100
AcDbPolyline
 90
        5
 70
     0
 43
0.0
 10
24.0049963087834
 20
106.0091850221735
 10
24.00508003078349
 20
106.0092812588735
 10
24.00484844198358
 20
106.0090136588735
 10
24.00331534918365
 20
106.0072863658736
 10
24.00331278798343
 20
106.0072832614736
  0
LWPOLYLINE
  5
117
330
70
100
AcDbEntity
  8
0
 62
    18
420
        0
370
    25
100
AcDbPolyline
 90
        3
 70
     0
 43
0.0
 10
58.7672833943834
 20
39.46560367047363
 10
61.27678050048366
 20
39.50613891557359
 10
64.69254636208344
 20
39.63781664257345
  0
LWPOLYLINE
  5
118
330
70
100
AcDbEntity
  8
0
 62
    18
420
        0
370
    25
100
AcDbPolyline
 90
        3
 70
     0
 43
0.0
 10
48.66047644058336
 20
39.63781664257345
 10
52.07622491758334
 20
39.50613945157324
 10
54.58570960608334
 20
39.46560367047363
  0
SPLINE
  5
119
330
70
100
AcDbEntity
  8
0
 62
    18
420
        0
370
    25
100
AcDbSpline
210
0.0
220
0.0
230
1.0
 70
     8
 71
     3
 72
     8
 73
     4
 74
     0
 42
0.0000000001
 43
0.0000000001
 40
0.0
 40
0.0
 40
0.0
 40
0.0
 40
1.0
 40
1.0
 40
1.0
 40
1.0
 10
64.6924196130019
 20
39.63700783267894
 30
0.0
 10
64.87013157423056
 20
39.64549810854697
 30
0.0
 10
65.00985131202217
 20
39.79205683046114
 30
0.0
 10
65.00984592666405
 20
39.96997148955106
 30
0.0
  0
SPLINE
  5
11A
330
70
100
AcDbEntity
  8
0
 62
    18
420
        0
370
    25
100
AcDbSpline
210
0.0
220
0.0
230
1.0
 70
     8
 71
     3
 72
     8
 73
     4
 74
     0
 42
0.0000000001
 43
0.0000000001
 40
0.0
 40
0.0
 40
0.0
 40
0.0
 40
1.0
 40
1.0
 40
1.0
 40
1.0
 10
48.34317926030289
 20
39.96997148955042
 30
0.0
 10
48.343173876284
 20
39.79210106643233
 30
0.0
 10
48.48282646973299
 20
39.64556244165744
 30
0.0
 10
48.6604913222229
 20
39.63701331075905
 30
0.0
  0
LWPOLYLINE
  5
11B
330
70
100
AcDbEntity
  8
0
 62
    18
420
        0
370
    25
100
AcDbPolyline
 90
        4
 70
     0
 43
0.0
 10
86.52855896398348
 20
37.13472336877313
 10
86.73548145538337
 20
37.34164803327333
 10
86.93445169368377
 20
37.54062044467342
 10
87.02610376918343
 20
37.63227034707341
  0
LWPOLYLINE
  5
11C
330
70
100
AcDbEntity
  8
0
 62
    18
420
        0
370
    25
100
AcDbPolyline
 90
        4
 70
     0
 43
0.0
 10
26.00984591688351
 20
-23.38398750522621
 10
26.10149581918339
 20
-23.29233542982665
 10
26.30046823068358
 20
-23.09336519142677
 10
26.50739289518347
 20
-22.88644270002625
  0
LINE
  5
11D
330
70
100
AcDbEntity
  8
0
 62
    18
420
        0
370
    25
100
AcDbLine
 10
85.61188919788332
 20
37.63227034707341
 30
0.0
 11
26.00984591688351
 21
-21.96977293392672
 31
0.0
  0
LINE
  5
11E
330
70
100
AcDbEntity
  8
0
 62
    18
420
        0
370
    25
100
AcDbLine
 10
26.50739289518347
 20
-22.88644270002625
 30
0.0
 11
86.52855896398348
 21
37.13472336877313
 31
0.0
  0
LWPOLYLINE
  5
11F
330
70
100
AcDbEntity
  8
0
 62
    18
420
        0
370
    25
100
AcDbPolyline
 90
        4
 70
     0
 43
0.0
 10
77.80757490238379
 20
37.13472336877313
 10
78.01449739378303
 20
37.34164803327333
 10
78.21347259918309
 20
37.54062044467342
 10
78.3051197075831
 20
37.63227034707341
  0
LWPOLYLINE
  5
120
330
70
100
AcDbEntity
  8
0
 62
    18
420
        0
370
    25
100
AcDbPolyline
 90
        4
 70
     0
 43
0.0
 10
26.00984591688351
 20
-14.66300344372661
 10
26.10149581918339
 20
-14.5713563353266
 10
26.30046823068358
 20
-14.37238112982643
 10
26.50739289518347
 20
-14.16545863842655
  0
LINE
  5
121
330
70
100
AcDbEntity
  8
0
 62
    18
420
        0
370
    25
100
AcDbLine
 10
76.89090513628362
 20
37.63227034707341
 30
0.0
 11
26.00984591688351
 21
-13.24878887232638
 31
0.0
  0
LINE
  5
122
330
70
100
AcDbEntity
  8
0
 62
    18
420
        0
370
    25
100
AcDbLine
 10
26.50739289518347
 20
-14.16545863842655
 30
0.0
 11
77.80757490238379
 21
37.13472336877313
 31
0.0
  0
LWPOLYLINE
  5
123
330
70
100
AcDbEntity
  8
0
 62
    18
420
        0
370
    25
100
AcDbPolyline
 90
        4
 70
     0
 43
0.0
 10
42.92363865618361
 20
37.13472336877313
 10
43.13056363108358
 20
37.34164803327333
 10
43.3295351111836
 20
37.54062044467342
 10
43.42118594488334
 20
37.63227034707341
  0
LWPOLYLINE
  5
124
330
70
100
AcDbEntity
  8
0
 62
    18
420
        0
370
    25
100
AcDbPolyline
 90
        4
 70
     0
 43
0.0
 10
26.00984591688351
 20
20.22093031907358
 10
26.10149581918339
 20
20.31258115267384
 10
26.30046823068358
 20
20.51155263287365
 10
26.50739289518347
 20
20.7184776077733
  0
LINE
  5
125
330
70
100
AcDbEntity
  8
0
 62
    18
420
        0
370
    25
100
AcDbLine
 10
42.00697137358353
 20
37.63227034707341
 30
0.0
 11
26.00984591688351
 21
21.6351448903737
 31
0.0
  0
LINE
  5
126
330
70
100
AcDbEntity
  8
0
 62
    18
420
        0
370
    25
100
AcDbLine
 10
26.50739289518347
 20
20.7184776077733
 30
0.0
 11
42.92363865618361
 21
37.13472336877313
 31
0.0
  0
LINE
  5
127
330
70
100
AcDbEntity
  8
0
 62
    18
420
        0
370
    25
100
AcDbLine
 10
90.8431802535836
 20
37.63227034707341
 30
0.0
 11
90.8431802535836
 21
39.46560367047363
 31
0.0
  0
LINE
  5
128
330
70
100
AcDbEntity
  8
0
 62
    18
420
        0
370
    25
100
AcDbLine
 10
24.17651259348361
 20
-27.20106398962637
 30
0.0
 11
26.00984591688351
 21
-27.20106398962637
 31
0.0
  0
LWPOLYLINE
  5
129
330
70
100
AcDbEntity
  8
0
 62
    18
420
        0
370
    25
100
AcDbPolyline
 90
        4
 70
     0
 43
0.0
 10
34.20265521548356
 20
37.13472336877313
 10
34.40957956948357
 20
37.34164803327333
 10
34.60855229138353
 20
37.54062044467342
 10
34.70020188338343
 20
37.63227034707341
  0
LWPOLYLINE
  5
12A
330
70
100
AcDbEntity
  8
0
 62
    18
420
        0
370
    25
100
AcDbPolyline
 90
        4
 70
     0
 43
0.0
 10
26.00984591688351
 20
28.94191438057381
 10
26.10149581918339
 20
29.03356397247359
 10
26.30046823068358
 20
29.23253669437388
 10
26.50739289518347
 20
29.439461048474
  0
LINE
  5
12B
330
70
100
AcDbEntity
  8
0
 62
    18
420
        0
370
    25
100
AcDbLine
 10
33.28598855378345
 20
37.63227034707341
 30
0.0
 11
26.00984591688351
 21
30.35612771017346
 31
0.0
  0
LINE
  5
12C
330
70
100
AcDbEntity
  8
0
 62
    18
420
        0
370
    25
100
AcDbLine
 10
26.50739289518347
 20
29.439461048474
 30
0.0
 11
34.20265521548356
 21
37.13472336877313
 31
0.0
  0
LWPOLYLINE
  5
12D
330
70
100
AcDbEntity
  8
0
 62
    18
420
        0
370
    25
100
AcDbPolyline
 90
        4
 70
     0
 43
0.0
 10
51.64462271768353
 20
37.13472336877313
 10
51.8515476926836
 20
37.34164803327333
 10
52.05052041458356
 20
37.54062044467342
 10
52.14217000648336
 20
37.63227034707341
  0
LWPOLYLINE
  5
12E
330
70
100
AcDbEntity
  8
0
 62
    18
420
        0
370
    25
100
AcDbPolyline
 90
        4
 70
     0
 43
0.0
 10
26.00984591688351
 20
11.49994625747324
 10
26.10149581918339
 20
11.59159584937366
 10
26.30046823068358
 20
11.79056857127331
 10
26.50739289518347
 20
11.9974935461736
  0
LINE
  5
12F
330
70
100
AcDbEntity
  8
0
 62
    18
420
        0
370
    25
100
AcDbLine
 10
50.72795543518354
 20
37.63227034707341
 30
0.0
 11
26.00984591688351
 21
12.91416082877336
 31
0.0
  0
LINE
  5
130
330
70
100
AcDbEntity
  8
0
 62
    18
420
        0
370
    25
100
AcDbLine
 10
26.50739289518347
 20
11.9974935461736
 30
0.0
 11
51.64462271768353
 21
37.13472336877313
 31
0.0
  0
LWPOLYLINE
  5
131
330
70
100
AcDbEntity
  8
0
 62
    18
420
        0
370
    25
100
AcDbPolyline
 90
        4
 70
     0
 43
0.0
 10
60.36560677928354
 20
37.13472336877313
 10
60.57252927068342
 20
37.34164803327333
 10
60.77150199258339
 20
37.54062044467342
 10
60.8631515844835
 20
37.63227034707341
  0
LWPOLYLINE
  5
132
330
70
100
AcDbEntity
  8
0
 62
    18
420
        0
370
    25
100
AcDbPolyline
 90
        4
 70
     0
 43
0.0
 10
26.00984591688351
 20
2.778964679473419
 10
26.10149581918339
 20
2.870614271373848
 10
26.30046823068358
 20
3.069586993273494
 10
26.50739289518347
 20
3.276509484673375
  0
LINE
  5
133
330
70
100
AcDbEntity
  8
0
 62
    18
420
        0
370
    25
100
AcDbLine
 10
59.44893949668346
 20
37.63227034707341
 30
0.0
 11
26.00984591688351
 21
4.193176767273775
 31
0.0
  0
LINE
  5
134
330
70
100
AcDbEntity
  8
0
 62
    18
420
        0
370
    25
100
AcDbLine
 10
26.50739289518347
 20
3.276509484673375
 30
0.0
 11
60.36560677928354
 21
37.13472336877313
 31
0.0
  0
LWPOLYLINE
  5
135
330
70
100
AcDbEntity
  8
0
 62
    18
420
        0
370
    25
100
AcDbPolyline
 90
        4
 70
     0
 43
0.0
 10
69.08659084088355
 20
37.13472336877313
 10
69.29351333228344
 20
37.34164803327333
 10
69.4924885376835
 20
37.54062044467342
 10
69.58413564608351
 20
37.63227034707341
  0
LWPOLYLINE
  5
136
330
70
100
AcDbEntity
  8
0
 62
    18
420
        0
370
    25
100
AcDbPolyline
 90
        4
 70
     0
 43
0.0
 10
26.00984591688351
 20
-5.942019382126276
 10
26.10149581918339
 20
-5.850372273726261
 10
26.30046823068358
 20
-5.651397068326201
 10
26.50739289518347
 20
-5.444474576926319
  0
LINE
  5
137
330
70
100
AcDbEntity
  8
0
 62
    18
420
        0
370
    25
100
AcDbLine
 10
68.16992107478339
 20
37.63227034707341
 30
0.0
 11
26.00984591688351
 21
-4.52780481082679
 31
0.0
  0
LINE
  5
138
330
70
100
AcDbEntity
  8
0
 62
    18
420
        0
370
    25
100
AcDbLine
 10
26.50739289518347
 20
-5.444474576926319
 30
0.0
 11
69.08659084088355
 21
37.13472336877313
 31
0.0
  0
LWPOLYLINE
  5
139
330
70
100
AcDbEntity
  8
0
 62
    18
420
        0
370
    25
100
AcDbPolyline
 90
        9
 70
     0
 43
0.0
 10
24.17828431048338
 20
5.478898625573598
 10
24.17837845978358
 20
5.881003976873538
 10
24.17844790088353
 20
6.319150269973524
 10
24.17847141128353
 20
6.726962766073677
 10
24.17846547598355
 20
7.063835800673417
 10
24.1784527391836
 20
7.373571337273689
 10
24.17842445748365
 20
7.73561988377349
 10
24.17836521898357
 20
8.11316067077367
 10
24.17828431048338
 20
8.452308616073562
  0
LWPOLYLINE
  5
13A
330
70
100
AcDbEntity
  8
0
 62
    18
420
        0
370
    25
100
AcDbPolyline
 90
        3
 70
     0
 43
0.0
 10
24.00429962128336
 20
-1.050430098226301
 10
24.13597734838365
 20
2.365335763473578
 10
24.17651259348361
 20
4.874832869573507
  0
LWPOLYLINE
  5
13B
330
70
100
AcDbEntity
  8
0
 62
    18
420
        0
370
    25
100
AcDbPolyline
 90
        3
 70
     0
 43
0.0
 10
24.17651259348361
 20
9.056406657873575
 10
24.13597681238335
 20
11.56589134637325
 10
24.00429962128336
 20
14.98163982327377
  0
SPLINE
  5
13C
330
70
100
AcDbEntity
  8
0
 62
    18
420
        0
370
    25
100
AcDbSpline
210
0.0
220
0.0
230
1.0
 70
     8
 71
     3
 72
     8
 73
     4
 74
     0
 42
0.0000000001
 43
0.0000000001
 40
0.0
 40
0.0
 40
0.0
 40
0.0
 40
1.0
 40
1.0
 40
1.0
 40
1.0
 10
24.00510843117819
 20
14.98151068999283
 30
0.0
 10
23.99661815530984
 20
15.15922265122116
 30
0.0
 10
23.85005943339567
 20
15.29894238901214
 30
0.0
 10
23.67214477430607
 20
15.29893700365434
 30
0.0
  0
SPLINE
  5
13D
330
70
100
AcDbEntity
  8
0
 62
    18
420
        0
370
    25
100
AcDbSpline
210
0.0
220
0.0
230
1.0
 70
     8
 71
     3
 72
     8
 73
     4
 74
     0
 42
0.0000000001
 43
0.0000000001
 40
0.0
 40
0.0
 40
0.0
 40
0.0
 40
1.0
 40
1.0
 40
1.0
 40
1.0
 10
23.67214477430607
 20
-1.367729662706821
 30
0.0
 10
23.85001519742449
 20
-1.367735046726037
 30
0.0
 10
23.99655382219905
 20
-1.228082453278324
 30
0.0
 10
24.00510295309777
 20
-1.050417600788424
 30
0.0
  0
LINE
  5
13E
330
70
100
AcDbEntity
  8
0
 62
    18
420
        0
370
    25
100
AcDbLine
 10
48.67638094668348
 20
39.6382049265736
 30
0.0
 11
48.66234901988338
 21
39.63880093417343
 31
0.0
  0
LWPOLYLINE
  5
13F
330
70
100
AcDbEntity
  8
0
 62
    18
420
        0
370
    25
100
AcDbPolyline
 90
        9
 70
     0
 43
0.0
 10
48.66234901988338
 20
39.63880093417343
 10
48.66262220788362
 20
39.64522166607349
 10
48.66342935408353
 20
39.66418785627396
 10
48.66473817268352
 20
39.69497095827342
 10
48.66649899328356
 20
39.73638859997369
 10
48.66864476048339
 20
39.786849868974
 10
48.67109351798361
 20
39.84441652777363
 10
48.67375089168335
 20
39.90687734487359
 10
48.67651257358346
 20
39.97183321387367
  0
LWPOLYLINE
  5
140
330
70
100
AcDbEntity
  8
0
 62
    18
420
        0
370
    25
100
AcDbPolyline
 90
        7
 70
     0
 43
0.0
 10
48.66937491738343
 20
39.63880347587338
 10
48.66987658978351
 20
39.66225708867368
 10
48.6711282873834
 20
39.7205978317736
 10
48.67298348188342
 20
39.80725501077309
 10
48.67524100788337
 20
39.91247738747317
 10
48.67629153968357
 20
39.96156196767363
 10
48.67651257358346
 20
39.97183321387367
  0
SPLINE
  5
141
330
70
100
AcDbEntity
  8
0
 62
    18
420
        0
370
    25
100
AcDbSpline
210
0.0
220
0.0
230
1.0
 70
     8
 71
     3
 72
     8
 73
     4
 74
     0
 42
0.0000000001
 43
0.0000000001
 40
0.0
 40
0.0
 40
0.0
 40
0.0
 40
1.0
 40
1.0
 40
1.0
 40
1.0
 10
48.66937491734974
 20
39.63880347592793
 30
0.0
 10
48.67168797771199
 20
39.63839726696157
 30
0.0
 10
48.67403250234508
 20
39.63819696609166
 30
0.0
 10
48.6763809466376
 20
39.63820492655049
 30
0.0
  0
LWPOLYLINE
  5
142
330
70
100
AcDbEntity
  8
0
 62
    18
420
        0
370
    25
100
AcDbPolyline
 90
        6
 70
     0
 43
0.0
 10
56.67651140138345
 20
39.63702226327368
 10
56.00984586718337
 20
39.63703813457388
 10
53.34317876338353
 20
39.63739296847343
 10
51.00978358038358
 20
39.63800818467307
 10
48.67638591368335
 20
39.63880091477359
 10
48.66937491738343
 20
39.63880347587338
  0
LWPOLYLINE
  5
143
330
70
100
AcDbEntity
  8
0
 62
    18
420
        0
370
    25
100
AcDbPolyline
 90
        4
 70
     0
 43
0.0
 10
48.67651257358346
 20
39.97183321387367
 10
52.47288389448336
 20
39.97056715847306
 10
54.57469764788335
 20
39.97012419817322
 10
56.67651140138345
 20
39.96996296297315
  0
LINE
  5
144
330
70
100
AcDbEntity
  8
0
 62
    18
420
        0
370
    25
100
AcDbLine
 10
56.67651140138345
 20
39.63702226327368
 30
0.0
 11
56.67651140138345
 21
39.96996296297315
 31
0.0
  0
LINE
  5
145
330
70
100
AcDbEntity
  8
0
 62
    18
420
        0
370
    25
100
AcDbLine
 10
65.0098467214834
 20
41.465603687874
 30
0.0
 11
65.0098467214834
 21
39.97183321387367
 31
0.0
  0
LINE
  5
146
330
70
100
AcDbEntity
  8
0
 62
    18
420
        0
370
    25
100
AcDbLine
 10
64.67651271268351
 20
39.97183321387367
 30
0.0
 11
65.0098467214834
 21
39.97183321387367
 31
0.0
  0
LINE
  5
147
330
70
100
AcDbEntity
  8
0
 62
    18
420
        0
370
    25
100
AcDbLine
 10
64.67651271268351
 20
39.97183321387367
 30
0.0
 11
64.67651271268351
 21
41.465603687874
 31
0.0
  0
LINE
  5
148
330
70
100
AcDbEntity
  8
0
 62
    18
420
        0
370
    25
100
AcDbLine
 10
64.67651271268351
 20
41.465603687874
 30
0.0
 11
65.0098467214834
 21
41.465603687874
 31
0.0
  0
LWPOLYLINE
  5
149
330
70
100
AcDbEntity
  8
0
 62
    18
420
        0
370
    25
100
AcDbPolyline
 90
        4
 70
     0
 43
0.0
 10
56.67651140138345
 20
39.96996296297315
 10
60.47289762338337
 20
39.97046273397342
 10
62.5747064097835
 20
39.97107775607322
 10
64.67651271268351
 20
39.97183321387367
  0
LINE
  5
14A
330
70
100
AcDbEntity
  8
0
 62
    18
420
        0
370
    25
100
AcDbLine
 10
48.67651257358346
 20
41.465603687874
 30
0.0
 11
48.67651257358346
 21
39.97183321387367
 31
0.0
  0
LINE
  5
14B
330
70
100
AcDbEntity
  8
0
 62
    18
420
        0
370
    25
100
AcDbLine
 10
64.67651271268351
 20
41.465603687874
 30
0.0
 11
48.67651257358346
 21
41.465603687874
 31
0.0
  0
LINE
  5
14C
330
70
100
AcDbEntity
  8
0
 62
    18
420
        0
370
    25
100
AcDbLine
 10
48.34317856478359
 20
39.97183321387367
 30
0.0
 11
48.67651257358346
 21
39.97183321387367
 31
0.0
  0
LINE
  5
14D
330
70
100
AcDbEntity
  8
0
 62
    18
420
        0
370
    25
100
AcDbLine
 10
48.34317856478359
 20
39.97183321387367
 30
0.0
 11
48.34317856478359
 21
41.465603687874
 31
0.0
  0
LINE
  5
14E
330
70
100
AcDbEntity
  8
0
 62
    18
420
        0
370
    25
100
AcDbLine
 10
48.34317856478359
 20
41.465603687874
 30
0.0
 11
48.67651257358346
 21
41.465603687874
 31
0.0
  0
LWPOLYLINE
  5
14F
330
70
100
AcDbEntity
  8
0
 62
    18
420
        0
370
    25
100
AcDbPolyline
 90
        5
 70
     0
 43
0.0
 10
64.67663937258365
 20
39.63880091477359
 10
64.00997383838357
 20
39.63856212757385
 10
61.3433067345834
 20
39.63771679707324
 10
59.00990906798359
 20
39.63720930387315
 10
56.67651140138345
 20
39.63702226327368
  0
LWPOLYLINE
  5
150
330
70
100
AcDbEntity
  8
0
 62
    18
420
        0
370
    25
100
AcDbPolyline
 90
        9
 70
     0
 43
0.0
 10
64.67663937258365
 20
39.63880091477359
 10
64.67663688898345
 20
39.64754871127393
 10
64.67662943848349
 20
39.66809533647378
 10
64.67661702078345
 20
39.69969320997321
 10
64.67659963608355
 20
39.7411926916736
 10
64.67658225138364
 20
39.79108385547334
 10
64.67655989968356
 20
39.84755143717359
 10
64.67653754798348
 20
39.90854088097343
 10
64.67651271268351
 20
39.97183321387367
  0
SPLINE
  5
151
330
70
100
AcDbEntity
  8
0
 62
    18
420
        0
370
    25
100
AcDbSpline
210
0.0
220
0.0
230
1.0
 70
     8
 71
     3
 72
     8
 73
     4
 74
     0
 42
0.0000000001
 43
0.0000000001
 40
0.0
 40
0.0
 40
0.0
 40
0.0
 40
1.0
 40
1.0
 40
1.0
 40
1.0
 10
64.67663937253873
 20
39.6388009147877
 30
0.0
 10
64.86060156040122
 20
39.63878835429263
 30
0.0
 10
65.00976261244797
 20
39.78787104486815
 30
0.0
 10
65.00984672152125
 20
39.97183321393207
 30
0.0
  0
SPLINE
  5
152
330
70
100
AcDbEntity
  8
0
 62
    18
420
        0
370
    25
100
AcDbSpline
210
0.0
220
0.0
230
1.0
 70
     8
 71
     3
 72
     8
 73
     4
 74
     0
 42
0.0000000001
 43
0.0000000001
 40
0.0
 40
0.0
 40
0.0
 40
0.0
 40
1.0
 40
1.0
 40
1.0
 40
1.0
 10
48.34317856474509
 20
39.97183321390576
 30
0.0
 10
48.34317851838458
 20
39.79324686164932
 30
0.0
 10
48.48392393718134
 20
39.64638875830558
 30
0.0
 10
48.66234901988306
 20
39.63880093416445
 30
0.0
  0
SPLINE
  5
153
330
70
100
AcDbEntity
  8
0
 62
    18
420
        0
370
    25
100
AcDbSpline
210
0.0
220
0.0
230
1.0
 70
     8
 71
     3
 72
     8
 73
     4
 74
     0
 42
0.0000000001
 43
0.0000000001
 40
0.0
 40
0.0
 40
0.0
 40
0.0
 40
1.0
 40
1.0
 40
1.0
 40
1.0
 10
58.19224261693491
 20
39.46383121866685
 30
0.0
 10
60.35462597020346
 20
39.48048950320446
 30
0.0
 10
62.51649085985284
 20
39.53862476575469
 30
0.0
 10
64.67664433970639
 20
39.63820492649658
 30
0.0
  0
LWPOLYLINE
  5
154
330
70
100
AcDbEntity
  8
0
 62
    18
420
        0
370
    25
100
AcDbPolyline
 90
        4
 70
     0
 43
0.0
 10
64.6906737828835
 20
39.63880347587338
 10
64.68554529988336
 20
39.63858523597378
 10
64.67962457188341
 20
39.63833247887366
 10
64.67664433958351
 20
39.6382049265736
  0
SPLINE
  5
155
330
70
100
AcDbEntity
  8
0
 62
    18
420
        0
370
    25
100
AcDbSpline
210
0.0
220
0.0
230
1.0
 70
     8
 71
     3
 72
     8
 73
     4
 74
     0
 42
0.0000000001
 43
0.0000000001
 40
0.0
 40
0.0
 40
0.0
 40
0.0
 40
1.0
 40
1.0
 40
1.0
 40
1.0
 10
48.67638094671267
 20
39.63820492648504
 30
0.0
 10
50.8365840781138
 20
39.53999132400046
 30
0.0
 10
52.99842318019113
 20
39.48185675491192
 30
0.0
 10
55.16078266942319
 20
39.463831218663
 30
0.0
  0
LWPOLYLINE
  5
156
330
70
100
AcDbEntity
  8
0
 62
    18
420
        0
370
    25
100
AcDbPolyline
 90
        3
 70
     0
 43
0.0
 10
55.16078266938341
 20
39.46383121867326
 10
55.1101187213836
 20
39.46383012987363
 10
55.04377875168352
 20
39.46383805277317
  0
LINE
  5
157
330
70
100
AcDbEntity
  8
0
 62
    18
420
        0
370
    25
100
AcDbLine
 10
56.67651140138345
 20
39.63624371637367
 30
0.0
 11
56.67651140138345
 21
39.63702226327368
 31
0.0
  0
LWPOLYLINE
  5
158
330
70
100
AcDbEntity
  8
0
 62
    18
420
        0
370
    25
100
AcDbPolyline
 90
        4
 70
     0
 43
0.0
 10
56.67651140138345
 20
39.63624371637367
 10
54.59318005488358
 20
39.63641055897353
 10
52.50984622478352
 20
39.63686876967327
 10
48.67638094668348
 20
39.6382049265736
  0
LINE
  5
159
330
70
100
AcDbEntity
  8
0
 62
    18
420
        0
370
    25
100
AcDbLine
 10
64.67664433958351
 20
39.6382049265736
 30
0.0
 11
64.67663937258365
 21
39.63880091477359
 31
0.0
  0
LWPOLYLINE
  5
15A
330
70
100
AcDbEntity
  8
0
 62
    18
420
        0
370
    25
100
AcDbPolyline
 90
        4
 70
     0
 43
0.0
 10
64.67664433958351
 20
39.6382049265736
 10
62.59331299308364
 20
39.63742112157368
 10
60.50997916308336
 20
39.63677903287343
 10
56.67651140138345
 20
39.63624371637367
  0
SPLINE
  5
15B
330
70
100
AcDbEntity
  8
0
 62
    18
420
        0
370
    25
100
AcDbSpline
210
0.0
220
0.0
230
1.0
 70
     8
 71
     3
 72
     8
 73
     4
 74
     0
 42
0.0000000001
 43
0.0000000001
 40
0.0
 40
0.0
 40
0.0
 40
0.0
 40
1.0
 40
1.0
 40
1.0
 40
1.0
 10
64.69067378289345
 20
39.63880347587018
 30
0.0
 10
64.86909721204168
 20
39.6463936114491
 30
0.0
 10
65.00984163821633
 20
39.79324841552802
 30
0.0
 10
65.00984672155848
 20
39.97183321387688
 30
0.0
  0
LWPOLYLINE
  5
15C
330
70
100
AcDbEntity
  8
0
 62
    18
420
        0
370
    25
100
AcDbPolyline
 90
        5
 70
     0
 43
0.0
 10
57.17237485888343
 20
39.4640401020734
 10
57.58100195168346
 20
39.46394065047372
 10
58.02793247938343
 20
39.46383746177349
 10
58.11529798748361
 20
39.46383020827321
 10
58.16735519408346
 20
39.46383112097331
  0
SPLINE
  5
15D
330
70
100
AcDbEntity
  8
0
 62
    18
420
        0
370
    25
100
AcDbSpline
210
0.0
220
0.0
230
1.0
 70
     8
 71
     3
 72
     8
 73
     4
 74
     0
 42
0.0000000001
 43
0.0000000001
 40
0.0
 40
0.0
 40
0.0
 40
0.0
 40
1.0
 40
1.0
 40
1.0
 40
1.0
 10
57.17237485885071
 20
39.46404010204452
 30
0.0
 10
56.84182471349458
 20
39.46975103158695
 30
0.0
 10
56.5112005726723
 20
39.46975103158695
 30
0.0
 10
56.18065042731617
 20
39.46404010204452
 30
0.0
  0
LWPOLYLINE
  5
15E
330
70
100
AcDbEntity
  8
0
 62
    18
420
        0
370
    25
100
AcDbPolyline
 90
        4
 70
     0
 43
0.0
 10
55.18567009218354
 20
39.46383112097331
 10
55.23772729878338
 20
39.46383020827321
 10
55.77595227408348
 20
39.46394170927329
 10
56.18065042738354
 20
39.4640401020734
  0
SPLINE
  5
15F
330
70
100
AcDbEntity
  8
0
 62
    18
420
        0
370
    25
100
AcDbSpline
210
0.0
220
0.0
230
1.0
 70
     8
 71
     3
 72
     8
 73
     4
 74
     0
 42
0.0000000001
 43
0.0000000001
 40
0.0
 40
0.0
 40
0.0
 40
0.0
 40
1.0
 40
1.0
 40
1.0
 40
1.0
 10
29.17651259348346
 20
39.29893700380727
 30
0.0
 10
26.50713630263471
 20
39.29893700380727
 30
0.0
 10
24.34317926015028
 20
37.13497996132253
 30
0.0
 10
24.34317926015028
 20
34.46560367047345
 30
0.0
  0
LINE
  5
160
330
70
100
AcDbEntity
  8
0
 62
    18
420
        0
370
    25
100
AcDbLine
 10
24.34317926808361
 20
34.46560378227346
 30
0.0
 11
24.17651259348361
 21
34.46560378227346
 31
0.0
  0
SPLINE
  5
161
330
70
100
AcDbEntity
  8
0
 62
    18
420
        0
370
    25
100
AcDbSpline
210
0.0
220
0.0
230
1.0
 70
     8
 71
     3
 72
     8
 73
     4
 74
     0
 42
0.0000000001
 43
0.0000000001
 40
0.0
 40
0.0
 40
0.0
 40
0.0
 40
1.0
 40
1.0
 40
1.0
 40
1.0
 10
29.17651259348346
 20
39.46560367047363
 30
0.0
 10
26.41508884432965
 20
39.46560367047363
 30
0.0
 10
24.17651259348361
 20
37.22702741962758
 30
0.0
 10
24.17651259348361
 20
34.46560367047345
 30
0.0
  0
LINE
  5
162
330
70
100
AcDbEntity
  8
0
 62
    18
420
        0
370
    25
100
AcDbLine
 10
29.17651248168346
 20
39.29893699587331
 30
0.0
 11
29.17651248168346
 21
39.46560367047363
 31
0.0
  0
LINE
  5
163
330
70
100
AcDbEntity
  8
0
 62
    18
420
        0
370
    25
100
AcDbLine
 10
90.50984624468361
 20
39.29893699587331
 30
0.0
 11
29.17651248168346
 21
39.29893699587331
 31
0.0
  0
LINE
  5
164
330
70
100
AcDbEntity
  8
0
 62
    18
420
        0
370
    25
100
AcDbLine
 10
29.17651248168346
 20
39.46560367047363
 30
0.0
 11
55.04036886938365
 21
39.46560367047363
 31
0.0
  0
LINE
  5
165
330
70
100
AcDbEntity
  8
0
 62
    18
420
        0
370
    25
100
AcDbLine
 10
55.21169745368336
 20
39.46560367047363
 30
0.0
 11
56.1659280800834
 21
39.46560367047363
 31
0.0
  0
LINE
  5
166
330
70
100
AcDbEntity
  8
0
 62
    18
420
        0
370
    25
100
AcDbLine
 10
57.18709720618358
 20
39.46560367047363
 30
0.0
 11
58.41304553988347
 21
39.46560367047363
 31
0.0
  0
LINE
  5
167
330
70
100
AcDbEntity
  8
0
 62
    18
420
        0
370
    25
100
AcDbLine
 10
58.56729987708353
 20
39.46560367047363
 30
0.0
 11
90.57528221058349
 21
39.46560367047363
 31
0.0
  0
LWPOLYLINE
  5
168
330
70
100
AcDbEntity
  8
0
 62
    18
420
        0
370
    25
100
AcDbPolyline
 90
        6
 70
     0
 43
0.0
 10
90.57528221058349
 20
39.46560367047363
 10
90.55326326138391
 20
39.45504545557312
 10
90.53303741858334
 20
39.42425121167367
 10
90.51798227868363
 20
39.37746679447374
 10
90.51060620388348
 20
39.32351758667331
 10
90.50984624468361
 20
39.29893699587331
  0
LWPOLYLINE
  5
169
330
70
100
AcDbEntity
  8
0
 62
    18
420
        0
370
    25
100
AcDbPolyline
 90
        6
 70
     0
 43
0.0
 10
90.50984624468361
 20
37.79893704107357
 10
90.51331821528313
 20
37.74683357877375
 10
90.52305364058359
 20
37.70065363847351
 10
90.53803924168304
 20
37.66363791227341
 10
90.5573660477834
 20
37.6392395890737
 10
90.57528221058349
 20
37.63227034707341
  0
LINE
  5
16A
330
70
100
AcDbEntity
  8
0
 62
    18
420
        0
370
    25
100
AcDbLine
 10
90.50984624468361
 20
37.79893704107357
 30
0.0
 11
90.50984624468361
 21
39.29893699587331
 31
0.0
  0
LINE
  5
16B
330
70
100
AcDbEntity
  8
0
 62
    18
420
        0
370
    25
100
AcDbLine
 10
90.57528221058349
 20
39.46560367047363
 30
0.0
 11
90.8431802535836
 21
39.46560367047363
 31
0.0
  0
LINE
  5
16C
330
70
100
AcDbEntity
  8
0
 62
    18
420
        0
370
    25
100
AcDbLine
 10
90.57528221058349
 20
37.63227034707341
 30
0.0
 11
90.8431802535836
 21
37.63227034707341
 31
0.0
  0
SPLINE
  5
16D
330
70
100
AcDbEntity
  8
0
 62
    18
420
        0
370
    25
100
AcDbSpline
210
0.0
220
0.0
230
1.0
 70
     8
 71
     3
 72
     8
 73
     4
 74
     0
 42
0.0000000001
 43
0.0000000001
 40
0.0
 40
0.0
 40
0.0
 40
0.0
 40
1.0
 40
1.0
 40
1.0
 40
1.0
 10
29.17651259348346
 20
37.7989370038069
 30
0.0
 10
27.33556342738082
 20
37.7989370038069
 30
0.0
 10
25.84317926015002
 20
36.30655283657642
 30
0.0
 10
25.84317926015002
 20
34.46560367047345
 30
0.0
  0
LINE
  5
16E
330
70
100
AcDbEntity
  8
0
 62
    18
420
        0
370
    25
100
AcDbLine
 10
25.84317922288335
 20
34.46560378227346
 30
0.0
 11
24.34317926808361
 21
34.46560378227346
 31
0.0
  0
LINE
  5
16F
330
70
100
AcDbEntity
  8
0
 62
    18
420
        0
370
    25
100
AcDbLine
 10
29.17651248168346
 20
39.29893699587331
 30
0.0
 11
29.17651248168346
 21
37.79893704107357
 31
0.0
  0
LINE
  5
170
330
70
100
AcDbEntity
  8
0
 62
    18
420
        0
370
    25
100
AcDbLine
 10
29.17651248168346
 20
37.79893704107357
 30
0.0
 11
90.50984624468361
 21
37.79893704107357
 31
0.0
  0
LINE
  5
171
330
70
100
AcDbEntity
  8
0
 62
    18
420
        0
370
    25
100
AcDbLine
 10
29.17651248168346
 20
37.79893704107357
 30
0.0
 11
29.17651248168346
 21
37.63227034707341
 31
0.0
  0
SPLINE
  5
172
330
70
100
AcDbEntity
  8
0
 62
    18
420
        0
370
    25
100
AcDbSpline
210
0.0
220
0.0
230
1.0
 70
     8
 71
     3
 72
     8
 73
     4
 74
     0
 42
0.0000000001
 43
0.0000000001
 40
0.0
 40
0.0
 40
0.0
 40
0.0
 40
1.0
 40
1.0
 40
1.0
 40
1.0
 10
29.17651259348346
 20
37.63227033713991
 30
0.0
 10
27.42761088568587
 20
37.63227033713991
 30
0.0
 10
26.00984592681669
 20
36.21450537827137
 30
0.0
 10
26.00984592681669
 20
34.46560367047345
 30
0.0
  0
LINE
  5
173
330
70
100
AcDbEntity
  8
0
 62
    18
420
        0
370
    25
100
AcDbLine
 10
25.84317922288335
 20
34.46560378227346
 30
0.0
 11
26.00984591688351
 21
34.46560378227346
 31
0.0
  0
LINE
  5
174
330
70
100
AcDbEntity
  8
0
 62
    18
420
        0
370
    25
100
AcDbLine
 10
90.57528221058349
 20
37.63227034707341
 30
0.0
 11
29.17651248168346
 21
37.63227034707341
 31
0.0
  0
LINE
  5
175
330
70
100
AcDbEntity
  8
0
 62
    18
420
        0
370
    25
100
AcDbLine
 10
25.84317922288335
 20
-26.86772998072639
 30
0.0
 11
25.84317922288335
 21
34.46560378227346
 31
0.0
  0
LINE
  5
176
330
70
100
AcDbEntity
  8
0
 62
    18
420
        0
370
    25
100
AcDbLine
 10
26.00984591688351
 20
34.46560378227346
 30
0.0
 11
26.00984591688351
 21
-26.93316594662626
 31
0.0
  0
LWPOLYLINE
  5
177
330
70
100
AcDbEntity
  8
0
 62
    18
420
        0
370
    25
100
AcDbPolyline
 90
        6
 70
     0
 43
0.0
 10
26.00984591688351
 20
-26.93316594662626
 10
25.99928766808365
 20
-26.91114699742668
 10
25.96849348708354
 20
-26.89092115462675
 10
25.92170911848365
 20
-26.8758660147264
 10
25.86775977478355
 20
-26.86848993992625
 10
25.84317922288335
 20
-26.86772998072639
  0
LINE
  5
178
330
70
100
AcDbEntity
  8
0
 62
    18
420
        0
370
    25
100
AcDbLine
 10
24.17651259348361
 20
-26.93316594662626
 30
0.0
 11
24.17651259348361
 21
5.092926264773309
 31
0.0
  0
LINE
  5
179
330
70
100
AcDbEntity
  8
0
 62
    18
420
        0
370
    25
100
AcDbLine
 10
24.17651259348361
 20
5.496730348473433
 30
0.0
 11
24.17651259348361
 21
8.435289006473288
 31
0.0
  0
LINE
  5
17A
330
70
100
AcDbEntity
  8
0
 62
    18
420
        0
370
    25
100
AcDbLine
 10
24.17651259348361
 20
8.838280976773747
 30
0.0
 11
24.17651259348361
 21
34.46560378227346
 31
0.0
  0
LINE
  5
17B
330
70
100
AcDbEntity
  8
0
 62
    18
420
        0
370
    25
100
AcDbLine
 10
24.34317926808361
 20
34.46560378227346
 30
0.0
 11
24.34317926808361
 21
-26.86772998072639
 31
0.0
  0
LWPOLYLINE
  5
17C
330
70
100
AcDbEntity
  8
0
 62
    18
420
        0
370
    25
100
AcDbPolyline
 90
        6
 70
     0
 43
0.0
 10
24.34317926808361
 20
-26.86772998072639
 10
24.29107580568336
 20
-26.87120195132654
 10
24.24489582658343
 20
-26.88093737662635
 10
24.20788016348352
 20
-26.89592297772646
 10
24.18348183128335
 20
-26.91524978382617
 10
24.17651259348361
 20
-26.93316594662626
  0
LINE
  5
17D
330
70
100
AcDbEntity
  8
0
 62
    18
420
        0
370
    25
100
AcDbLine
 10
24.34317926808361
 20
-26.86772998072639
 30
0.0
 11
25.84317922288335
 21
-26.86772998072639
 31
0.0
  0
LINE
  5
17E
330
70
100
AcDbEntity
  8
0
 62
    18
420
        0
370
    25
100
AcDbLine
 10
26.00984591688351
 20
-26.93316594662626
 30
0.0
 11
26.00984591688351
 21
-27.20106398962637
 31
0.0
  0
LINE
  5
17F
330
70
100
AcDbEntity
  8
0
 62
    18
420
        0
370
    25
100
AcDbLine
 10
24.17651259348361
 20
-26.93316594662626
 30
0.0
 11
24.17651259348361
 21
-27.20106398962637
 31
0.0
  0
LWPOLYLINE
  5
180
330
70
100
AcDbEntity
  8
0
 62
    18
420
        0
370
    25
100
AcDbPolyline
 90
        4
 70
     0
 43
0.0
 10
23.67028304998346
 20
-1.034396448726289
 10
23.6718940828836
 20
4.267657737973724
 10
23.67190758708342
 20
9.569711924573633
 10
23.67028304998346
 20
14.96560369037345
  0
LWPOLYLINE
  5
181
330
70
100
AcDbEntity
  8
0
 62
    18
420
        0
370
    25
100
AcDbPolyline
 90
        9
 70
     0
 43
0.0
 10
23.67028304998346
 20
14.96560369037345
 10
23.73357534418348
 20
14.96562852557331
 10
23.79456482678365
 20
14.9656508773735
 10
23.85103240848358
 20
14.96567322907358
 10
23.90092355278336
 20
14.96569061377348
 10
23.94242303448343
 20
14.96570799847338
 10
23.97402092738335
 20
14.96572041607363
 10
23.99456755268363
 20
14.96572786667369
 10
24.00331532978349
 20
14.96573035017346
  0
LWPOLYLINE
  5
182
330
70
100
AcDbEntity
  8
0
 62
    18
420
        0
370
    25
100
AcDbPolyline
 90
        7
 70
     0
 43
0.0
 10
24.00331532978349
 20
14.96573035017346
 10
24.00355386478363
 20
14.29906481607349
 10
24.00439678928342
 20
11.63239771227364
 10
24.00508003078349
 20
6.299063504773417
 10
24.00484844198358
 20
4.267595649773551
 10
24.00331534918365
 20
-1.034523108626408
 10
24.00331278798343
 20
-1.041534104926323
  0
LWPOLYLINE
  5
183
330
70
100
AcDbEntity
  8
0
 62
    18
420
        0
370
    25
100
AcDbPolyline
 90
        7
 70
     0
 43
0.0
 10
23.67028304998346
 20
-1.034396448726289
 10
23.6805542962836
 20
-1.034617482626502
 10
23.72963887648343
 20
-1.035668014526174
 10
23.8348612531835
 20
-1.037925540426322
 10
23.92151843218363
 20
-1.039780735026774
 10
23.97985917518345
 20
-1.041032432526242
 10
24.00331278798343
 20
-1.041534104926323
  0
LWPOLYLINE
  5
184
330
70
100
AcDbEntity
  8
0
 62
    18
420
        0
370
    25
100
AcDbPolyline
 90
        9
 70
     0
 43
0.0
 10
23.67028304998346
 20
-1.034396448726289
 10
23.73523891908364
 20
-1.037158130626395
 10
23.79769973618361
 20
-1.039815504326467
 10
23.85526639488345
 20
-1.04226426182668
 10
23.90572766388344
 20
-1.044410029026194
 10
23.94714530558339
 20
-1.046170849626552
 10
23.97792840768359
 20
-1.047479668226544
 10
23.99689459788342
 20
-1.04828681452656
 10
24.00331532978349
 20
-1.048560002426364
  0
SPLINE
  5
185
330
70
100
AcDbEntity
  8
0
 62
    18
420
        0
370
    25
100
AcDbSpline
210
0.0
220
0.0
230
1.0
 70
     8
 71
     3
 72
     8
 73
     4
 74
     0
 42
0.0000000001
 43
0.0000000001
 40
0.0
 40
0.0
 40
0.0
 40
0.0
 40
1.0
 40
1.0
 40
1.0
 40
1.0
 10
24.00331278803316
 20
-1.041534104960333
 30
0.0
 10
24.00371899699951
 20
-1.039221044598396
 30
0.0
 10
24.0039192978691
 20
-1.036876519965317
 30
0.0
 10
24.00391133741028
 20
-1.034528075672797
 30
0.0
  0
LINE
  5
186
330
70
100
AcDbEntity
  8
0
 62
    18
420
        0
370
    25
100
AcDbLine
 10
24.00391133738365
 20
-1.034528075626594
 30
0.0
 11
24.00331532978349
 21
-1.048560002426364
 31
0.0
  0
LINE
  5
187
330
70
100
AcDbEntity
  8
0
 62
    18
420
        0
370
    25
100
AcDbLine
 10
23.67028304998346
 20
14.96560369037345
 30
0.0
 11
22.17651257608355
 21
14.96560369037345
 31
0.0
  0
LINE
  5
188
330
70
100
AcDbEntity
  8
0
 62
    18
420
        0
370
    25
100
AcDbLine
 10
22.17651257608355
 20
-1.034396448726289
 30
0.0
 11
23.67028304998346
 21
-1.034396448726289
 31
0.0
  0
LINE
  5
189
330
70
100
AcDbEntity
  8
0
 62
    18
420
        0
370
    25
100
AcDbLine
 10
22.17651257608355
 20
14.96560369037345
 30
0.0
 11
22.17651257608355
 21
-1.034396448726289
 31
0.0
  0
SPLINE
  5
18A
330
70
100
AcDbEntity
  8
0
 62
    18
420
        0
370
    25
100
AcDbSpline
210
0.0
220
0.0
230
1.0
 70
     8
 71
     3
 72
     8
 73
     4
 74
     0
 42
0.0000000001
 43
0.0000000001
 40
0.0
 40
0.0
 40
0.0
 40
0.0
 40
1.0
 40
1.0
 40
1.0
 40
1.0
 10
24.00331532974819
 20
14.96573035021902
 30
0.0
 10
24.00332791156243
 20
15.14969253933348
 30
0.0
 10
23.85424522032853
 20
15.29885360072946
 30
0.0
 10
23.6702830500072
 20
15.29893769920156
 30
0.0
  0
LINE
  5
18B
330
70
100
AcDbEntity
  8
0
 62
    18
420
        0
370
    25
100
AcDbLine
 10
23.67028304998346
 20
14.96560369037345
 30
0.0
 11
23.67028304998346
 21
15.29893769917332
 31
0.0
  0
LINE
  5
18C
330
70
100
AcDbEntity
  8
0
 62
    18
420
        0
370
    25
100
AcDbLine
 10
22.17651257608355
 20
15.29893769917332
 30
0.0
 11
23.67028304998346
 21
15.29893769917332
 31
0.0
  0
LINE
  5
18D
330
70
100
AcDbEntity
  8
0
 62
    18
420
        0
370
    25
100
AcDbLine
 10
22.17651257608355
 20
14.96560369037345
 30
0.0
 11
22.17651257608355
 21
15.29893769917332
 31
0.0
  0
LINE
  5
18E
330
70
100
AcDbEntity
  8
0
 62
    18
420
        0
370
    25
100
AcDbLine
 10
23.67028304998346
 20
-1.367730457626265
 30
0.0
 11
23.67028304998346
 21
-1.034396448726289
 31
0.0
  0
LINE
  5
18F
330
70
100
AcDbEntity
  8
0
 62
    18
420
        0
370
    25
100
AcDbLine
 10
23.67028304998346
 20
-1.367730457626265
 30
0.0
 11
22.17651257608355
 21
-1.367730457626265
 31
0.0
  0
LINE
  5
190
330
70
100
AcDbEntity
  8
0
 62
    18
420
        0
370
    25
100
AcDbLine
 10
22.17651257608355
 20
-1.367730457626265
 30
0.0
 11
22.17651257608355
 21
-1.034396448726289
 31
0.0
  0
SPLINE
  5
191
330
70
100
AcDbEntity
  8
0
 62
    18
420
        0
370
    25
100
AcDbSpline
210
0.0
220
0.0
230
1.0
 70
     8
 71
     3
 72
     8
 73
     4
 74
     0
 42
0.0000000001
 43
0.0000000001
 40
0.0
 40
0.0
 40
0.0
 40
0.0
 40
1.0
 40
1.0
 40
1.0
 40
1.0
 10
23.6702830499979
 20
-1.367730457612148
 30
0.0
 10
23.84886908203978
 20
-1.367729707064267
 30
0.0
 10
23.99572672301466
 20
-1.226984731391496
 30
0.0
 10
24.00331532973857
 20
-1.048560002474491
 30
0.0
  0
SPLINE
  5
192
330
70
100
AcDbEntity
  8
0
 62
    18
420
        0
370
    25
100
AcDbSpline
210
0.0
220
0.0
230
1.0
 70
     8
 71
     3
 72
     8
 73
     4
 74
     0
 42
0.0000000001
 43
0.0000000001
 40
0.0
 40
0.0
 40
0.0
 40
0.0
 40
1.0
 40
1.0
 40
1.0
 40
1.0
 10
24.00391133744332
 20
-1.034528075765201
 30
0.0
 10
24.10464354728393
 20
1.135239726467931
 30
0.0
 10
24.16250432533204
 20
3.306785700541209
 30
0.0
 10
24.17745981048267
 20
5.47883902105929
 30
0.0
  0
LINE
  5
193
330
70
100
AcDbEntity
  8
0
 62
    18
420
        0
370
    25
100
AcDbLine
 10
24.00391133738365
 20
14.96573531727375
 30
0.0
 11
24.00331532978349
 21
14.96573035017346
 31
0.0
  0
SPLINE
  5
194
330
70
100
AcDbEntity
  8
0
 62
    18
420
        0
370
    25
100
AcDbSpline
210
0.0
220
0.0
230
1.0
 70
     8
 71
     3
 72
     8
 73
     4
 74
     0
 42
0.0000000001
 43
0.0000000001
 40
0.0
 40
0.0
 40
0.0
 40
0.0
 40
1.0
 40
1.0
 40
1.0
 40
1.0
 10
24.17745685582757
 20
8.453972578894916
 30
0.0
 10
24.16247622607612
 20
10.6254908848891
 30
0.0
 10
24.10461644127064
 20
12.79650166109352
 30
0.0
 10
24.00391133736696
 20
14.96573531715376
 30
0.0
  0
LWPOLYLINE
  5
195
330
70
100
AcDbEntity
  8
0
 62
    18
420
        0
370
    25
100
AcDbPolyline
 90
        4
 70
     0
 43
0.0
 10
24.00331278798343
 20
14.97976476057375
 10
24.00353102798346
 20
14.97463876107369
 10
24.00378378498348
 20
14.96871554947355
 10
24.00391133738365
 20
14.96573531727375
  0
SPLINE
  5
196
330
70
100
AcDbEntity
  8
0
 62
    18
420
        0
370
    25
100
AcDbSpline
210
0.0
220
0.0
230
1.0
 70
     8
 71
     3
 72
     8
 73
     4
 74
     0
 42
0.0000000001
 43
0.0000000001
 40
0.0
 40
0.0
 40
0.0
 40
0.0
 40
1.0
 40
1.0
 40
1.0
 40
1.0
 10
24.00331278798696
 20
14.97976476048391
 30
0.0
 10
23.99572265240771
 20
15.15818818963181
 30
0.0
 10
23.8488678483291
 20
15.29893261580679
 30
0.0
 10
23.67028304998057
 20
15.29893769914894
 30
0.0
  0
LINE
  5
197
330
70
100
AcDbEntity
  8
0
 62
    18
420
        0
370
    25
100
AcDbLine
 10
23.67028304998346
 20
15.29893769917332
 30
0.0
 11
23.67190091258337
 21
15.29893769917332
 31
0.0
  0
LWPOLYLINE
  5
198
330
70
100
AcDbEntity
  8
0
 62
     8
420
  8421504
370
    25
100
AcDbPolyline
 90
        5
 70
     0
 43
0.0
 10
64.69257368088348
 20
39.63711995517352
 10
64.69267053848345
 20
39.63703623307332
 10
64.69240231758352
 20
39.63726782197366
 10
64.6906762663836
 20
39.63880091477359
 10
64.6906737828835
 20
39.63880347587338
  0
LINE
  5
199
330
70
100
AcDbEntity
  8
0
 62
     8
420
  8421504
370
    25
100
AcDbLine
 10
48.66045160540403
 20
39.63711995509395
 30
0.0
 11
48.6617228820354
 21
39.63823349912747
 31
0.0
  0
LWPOLYLINE
  5
19A
330
70
100
AcDbEntity
  8
0
 62
     8
420
  8421504
370
    25
100
AcDbPolyline
 90
        7
 70
     0
 43
0.0
 10
86.03100919168388
 20
37.63227034707341
 10
86.03970650278309
 20
37.62357582997353
 10
86.17500407938385
 20
37.48827685637341
 10
86.31030165598335
 20
37.35297788277394
 10
86.42500582778353
 20
37.2382768153738
 10
86.50164249978349
 20
37.16163610767342
 10
86.52855896398348
 20
37.13472336877313
  0
LWPOLYLINE
  5
19B
330
70
100
AcDbEntity
  8
0
 62
     8
420
  8421504
370
    25
100
AcDbPolyline
 90
        7
 70
     0
 43
0.0
 10
26.00984591688351
 20
-22.38889292772664
 10
26.01854043398339
 20
-22.39759023882649
 10
26.15383940758351
 20
-22.53288781542662
 10
26.28913838108352
 20
-22.66818539202676
 10
26.40383944848365
 20
-22.78288956382631
 10
26.48048015628349
 20
-22.85952623582625
 10
26.50739289518347
 20
-22.88644270002625
  0
LWPOLYLINE
  5
19C
330
70
100
AcDbEntity
  8
0
 62
     8
420
  8421504
370
    25
100
AcDbPolyline
 90
        7
 70
     0
 43
0.0
 10
77.31002513018364
 20
37.63227034707341
 10
77.31872244118339
 20
37.62357582997353
 10
77.45402001778352
 20
37.48827685637341
 10
77.58931759438365
 20
37.35297788277394
 10
77.7040217661832
 20
37.2382768153738
 10
77.78065843828326
 20
37.16163610767342
 10
77.80757490238379
 20
37.13472336877313
  0
LWPOLYLINE
  5
19D
330
70
100
AcDbEntity
  8
0
 62
     8
420
  8421504
370
    25
100
AcDbPolyline
 90
        7
 70
     0
 43
0.0
 10
26.00984591688351
 20
-13.66790886622641
 10
26.01854043398339
 20
-13.67660617732626
 10
26.15383940758351
 20
-13.81190375392639
 10
26.28913838108352
 20
-13.94720133042642
 10
26.40383944848365
 20
-14.06190550232671
 10
26.48048015628349
 20
-14.13854217432665
 10
26.50739289518347
 20
-14.16545863842655
  0
LWPOLYLINE
  5
19E
330
70
100
AcDbEntity
  8
0
 62
     8
420
  8421504
370
    25
100
AcDbPolyline
 90
        7
 70
     0
 43
0.0
 10
42.42609136748355
 20
37.63227034707341
 10
42.43478619498353
 20
37.62357582997353
 10
42.5700850133836
 20
37.48827685637341
 10
42.70538383168356
 20
37.35297788277394
 10
42.82008551998334
 20
37.2382768153738
 10
42.89672591728364
 20
37.16163610767342
 10
42.92363865618361
 20
37.13472336877313
  0
LWPOLYLINE
  5
19F
330
70
100
AcDbEntity
  8
0
 62
     8
420
  8421504
370
    25
100
AcDbPolyline
 90
        7
 70
     0
 43
0.0
 10
26.00984591688351
 20
21.21602489647368
 10
26.01854043398339
 20
21.20733006897371
 10
26.15383940758351
 20
21.07203125057363
 10
26.28913838108352
 20
20.93673243227367
 10
26.40383944848365
 20
20.82203074397325
 10
26.48048015628349
 20
20.7453903466736
 10
26.50739289518347
 20
20.7184776077733
  0
LWPOLYLINE
  5
1A0
330
70
100
AcDbEntity
  8
0
 62
     8
420
  8421504
370
    25
100
AcDbPolyline
 90
        7
 70
     0
 43
0.0
 10
33.70510792678351
 20
37.63227034707341
 10
33.71380275428349
 20
37.62357582997353
 10
33.84910157268356
 20
37.48827685637341
 10
33.98440039098352
 20
37.35297788277394
 10
34.09910145838365
 20
37.2382768153738
 10
34.1757424765836
 20
37.16163610767342
 10
34.20265521548356
 20
37.13472336877313
  0
LWPOLYLINE
  5
1A1
330
70
100
AcDbEntity
  8
0
 62
     8
420
  8421504
370
    25
100
AcDbPolyline
 90
        7
 70
     0
 43
0.0
 10
26.00984591688351
 20
29.93700833717308
 10
26.01854043398339
 20
29.92831350957365
 10
26.15383940758351
 20
29.79301469127368
 10
26.28913838108352
 20
29.65771587287361
 10
26.40383944848365
 20
29.54301480547348
 10
26.48048015628349
 20
29.46637378727354
 10
26.50739289518347
 20
29.439461048474
  0
LWPOLYLINE
  5
1A2
330
70
100
AcDbEntity
  8
0
 62
     8
420
  8421504
370
    25
100
AcDbPolyline
 90
        7
 70
     0
 43
0.0
 10
51.14707542898347
 20
37.63227034707341
 10
51.15577025658355
 20
37.62357582997353
 10
51.29106783318336
 20
37.48827685637341
 10
51.42636789328359
 20
37.35297788277394
 10
51.54106958158337
 20
37.2382768153738
 10
51.6177087370834
 20
37.16163610767342
 10
51.64462271768353
 20
37.13472336877313
  0
LWPOLYLINE
  5
1A3
330
70
100
AcDbEntity
  8
0
 62
     8
420
  8421504
370
    25
100
AcDbPolyline
 90
        7
 70
     0
 43
0.0
 10
26.00984591688351
 20
12.49504083497344
 10
26.01854043398339
 20
12.48634600737336
 10
26.15383940758351
 20
12.35104843077323
 10
26.28913838108352
 20
12.21574837067333
 10
26.40383944848365
 20
12.10104668237355
 10
26.48048015628349
 20
12.02440752687383
 10
26.50739289518347
 20
11.9974935461736
  0
LWPOLYLINE
  5
1A4
330
70
100
AcDbEntity
  8
0
 62
     8
420
  8421504
370
    25
100
AcDbPolyline
 90
        7
 70
     0
 43
0.0
 10
59.86805949058349
 20
37.63227034707341
 10
59.87675431808346
 20
37.62357582997353
 10
60.01205189468359
 20
37.48827685637341
 10
60.14735195478349
 20
37.35297788277394
 10
60.2620536430836
 20
37.2382768153738
 10
60.33869279868341
 20
37.16163610767342
 10
60.36560677928354
 20
37.13472336877313
  0
LWPOLYLINE
  5
1A5
330
70
100
AcDbEntity
  8
0
 62
     8
420
  8421504
370
    25
100
AcDbPolyline
 90
        7
 70
     0
 43
0.0
 10
26.00984591688351
 20
3.774056773373746
 10
26.01854043398339
 20
3.765361945773668
 10
26.15383940758351
 20
3.630064369273641
 10
26.28913838108352
 20
3.494764309073631
 10
26.40383944848365
 20
3.380062620873317
 10
26.48048015628349
 20
3.3034234652735
 10
26.50739289518347
 20
3.276509484673375
  0
LWPOLYLINE
  5
1A6
330
70
100
AcDbEntity
  8
0
 62
     8
420
  8421504
370
    25
100
AcDbPolyline
 90
        7
 70
     0
 43
0.0
 10
68.58904106858331
 20
37.63227034707341
 10
68.5977383796838
 20
37.62357582997353
 10
68.73303595628328
 20
37.48827685637341
 10
68.86833353288342
 20
37.35297788277394
 10
68.98303770468361
 20
37.2382768153738
 10
69.05967437668356
 20
37.16163610767342
 10
69.08659084088355
 20
37.13472336877313
  0
LWPOLYLINE
  5
1A7
330
70
100
AcDbEntity
  8
0
 62
     8
420
  8421504
370
    25
100
AcDbPolyline
 90
        7
 70
     0
 43
0.0
 10
26.00984591688351
 20
-4.946924804626713
 10
26.01854043398339
 20
-4.955622115726563
 10
26.15383940758351
 20
-5.090919692326695
 10
26.28913838108352
 20
-5.226217268926187
 10
26.40383944848365
 20
-5.340921440726377
 10
26.48048015628349
 20
-5.417558112726318
 10
26.50739289518347
 20
-5.444474576926319
  0
LINE
  5
1A8
330
70
100
AcDbEntity
  8
0
 62
     8
420
  8421504
370
    25
100
AcDbLine
 10
24.00499630882318
 20
-1.050457416953523
 30
0.0
 11
24.00388276478933
 21
-1.049186140322476
 31
0.0
  0
LWPOLYLINE
  5
1A9
330
70
100
AcDbEntity
  8
0
 62
     8
420
  8421504
370
    25
100
AcDbPolyline
 90
        5
 70
     0
 43
0.0
 10
24.0049963087834
 20
14.98166465857373
 10
24.00508003078349
 20
14.9817615161737
 10
24.00484844198358
 20
14.98149329527344
 10
24.00331534918365
 20
14.97976724407353
 10
24.00331278798343
 20
14.97976476057375
  0
LINE
  5
1AA
330
70
100
AcDbEntity
  8
0
 62
    18
420
        0
370
    25
100
AcDbLine
 10
162.4689822619836
 20
-38.33619898802644
 30
0.0
 11
162.7837855659836
 21
-38.15446690892655
 31
0.0
  0
SPLINE
  5
1AB
330
70
100
AcDbEntity
  8
0
 62
    18
420
        0
370
    25
100
AcDbSpline
210
0.0
220
0.0
230
1.0
 70
     8
 71
     3
 72
     8
 73
     4
 74
     0
 42
0.0000000001
 43
0.0000000001
 40
0.0
 40
0.0
 40
0.0
 40
0.0
 40
1.0
 40
1.0
 40
1.0
 40
1.0
 10
168.5936541910062
 20
-49.65676128161042
 30
0.0
 10
168.6950760281266
 20
-49.71053407482962
 30
0.0
 10
168.8170306419406
 20
-49.70833588876218
 30
0.0
 10
168.9164487599895
 20
-49.6509430308529
 30
0.0
  0
SPLINE
  5
1AC
330
70
100
AcDbEntity
  8
0
 62
    18
420
        0
370
    25
100
AcDbSpline
210
0.0
220
0.0
230
1.0
 70
     8
 71
     3
 72
     8
 73
     4
 74
     0
 42
0.0000000001
 43
0.0000000001
 40
0.0
 40
0.0
 40
0.0
 40
0.0
 40
1.0
 40
1.0
 40
1.0
 40
1.0
 10
157.2694340167769
 20
-29.47765923789995
 30
0.0
 10
157.1663266933567
 20
-29.53718182873624
 30
0.0
 10
157.1027930737492
 20
-29.64717744799522
 30
0.0
 10
157.1027538236653
 20
-29.76623229847257
 30
0.0
  0
LINE
  5
1AD
330
70
100
AcDbEntity
  8
0
 62
    18
420
        0
370
    25
100
AcDbLine
 10
157.2693697110837
 20
-43.1196119337264
 30
0.0
 11
158.5287187930836
 21
-43.8471180529262
 31
0.0
  0
LWPOLYLINE
  5
1AE
330
70
100
AcDbEntity
  8
0
 62
    18
420
        0
370
    25
100
AcDbPolyline
 90
        3
 70
     0
 43
0.0
 10
159.5287181345836
 20
-44.42480234572637
 10
159.9161855825835
 20
-44.64863606752619
 10
164.6953852265837
 20
-47.40665847872636
  0
LINE
  5
1AF
330
70
100
AcDbEntity
  8
0
 62
    18
420
        0
370
    25
100
AcDbLine
 10
165.6953845543834
 20
-47.98374718072627
 30
0.0
 11
168.5872972600838
 21
-49.65263740202642
 31
0.0
  0
LINE
  5
1B0
330
70
100
AcDbEntity
  8
0
 62
    18
420
        0
370
    25
100
AcDbLine
 10
168.5912504616835
 20
-49.6541160181265
 30
0.0
 11
168.5947685024835
 21
-49.65600287172616
 31
0.0
  0
LWPOLYLINE
  5
1B1
330
70
100
AcDbEntity
  8
0
 62
    18
420
        0
370
    25
100
AcDbPolyline
 90
        3
 70
     0
 43
0.0
 10
157.1027791474837
 20
-29.76622460992665
 10
157.1018696563838
 20
-32.82424393382646
 10
157.1022290981836
 20
-35.23803836272636
  0
LINE
  5
1B2
330
70
100
AcDbEntity
  8
0
 62
    18
420
        0
370
    25
100
AcDbLine
 10
157.1028358371834
 20
-39.29751309552651
 30
0.0
 11
157.1033628099837
 21
-42.83473750712644
 31
0.0
  0
LINE
  5
1B3
330
70
100
AcDbEntity
  8
0
 62
    18
420
        0
370
    25
100
AcDbLine
 10
168.9164496315837
 20
-49.65094363352637
 30
0.0
 11
169.9727048632838
 21
-49.04118046742627
 31
0.0
  0
LINE
  5
1B4
330
70
100
AcDbEntity
  8
0
 62
    18
420
        0
370
    25
100
AcDbLine
 10
158.3256884511833
 20
-28.86789550732672
 30
0.0
 11
157.2694332194832
 21
-29.47765867342618
 31
0.0
  0
LINE
  5
1B5
330
70
100
AcDbEntity
  8
0
 62
    18
420
        0
370
    25
100
AcDbLine
 10
157.1040721035837
 20
-42.83867567862664
 30
0.0
 11
157.1042033734838
 21
-42.84270943902619
 31
0.0
  0
SPLINE
  5
1B6
330
70
100
AcDbEntity
  8
0
 62
    18
420
        0
370
    25
100
AcDbSpline
210
0.0
220
0.0
230
1.0
 70
     8
 71
     3
 72
     8
 73
     4
 74
     0
 42
0.0000000001
 43
0.0000000001
 40
0.0
 40
0.0
 40
0.0
 40
0.0
 40
1.0
 40
1.0
 40
1.0
 40
1.0
 10
157.1029895312243
 20
-42.84352893187176
 30
0.0
 10
157.1072981530645
 20
-42.95803509774754
 30
0.0
 10
157.1701196024501
 20
-43.06230148753195
 30
0.0
 10
157.269338816409
 20
-43.11962315731789
 30
0.0
  0
LINE
  5
1B7
330
70
100
AcDbEntity
  8
0
 62
    18
420
        0
370
    25
100
AcDbLine
 10
182.1953857617834
 20
-58.51573953652653
 30
0.0
 11
97.31263955588342
 21
-58.51573953652653
 31
0.0
  0
LINE
  5
1B8
330
70
100
AcDbEntity
  8
0
 62
    18
420
        0
370
    25
100
AcDbLine
 10
97.31264065348396
 20
-59.51573881042677
 30
0.0
 11
182.1953846642836
 21
-59.51573881042677
 31
0.0
  0
LINE
  5
1B9
330
70
100
AcDbEntity
  8
0
 62
    18
420
        0
370
    25
100
AcDbLine
 10
95.3126394186836
 20
-54.93770918442642
 30
0.0
 11
95.3126394186836
 21
-57.79092818262641
 31
0.0
  0
LINE
  5
1BA
330
70
100
AcDbEntity
  8
0
 62
    18
420
        0
370
    25
100
AcDbLine
 10
96.3126415314835
 20
-57.79092696282648
 30
0.0
 11
96.3126415314835
 21
-54.36042030502655
 31
0.0
  0
LINE
  5
1BB
330
70
100
AcDbEntity
  8
0
 62
    18
420
        0
370
    25
100
AcDbLine
 10
183.1953837861833
 20
-54.36042030502655
 30
0.0
 11
183.1953837861833
 21
-57.79092696282648
 31
0.0
  0
LINE
  5
1BC
330
70
100
AcDbEntity
  8
0
 62
    18
420
        0
370
    25
100
AcDbLine
 10
184.1953858989832
 20
-57.79092818262641
 30
0.0
 11
184.1953858989832
 21
-54.93770918442642
 31
0.0
  0
SPLINE
  5
1BD
330
70
100
AcDbEntity
  8
0
 62
    18
420
        0
370
    25
100
AcDbSpline
210
0.0
220
0.0
230
1.0
 70
     8
 71
     3
 72
     8
 73
     4
 74
     0
 42
0.0000000001
 43
0.0000000001
 40
0.0
 40
0.0
 40
0.0
 40
0.0
 40
1.0
 40
1.0
 40
1.0
 40
1.0
 10
95.31263941866434
 20
-57.79092818259946
 30
0.0
 10
95.39067086296338
 20
-58.81847829601067
 30
0.0
 10
96.28477963042495
 20
-59.58956197223741
 30
0.0
 10
97.31264065344994
 20
-59.51573881045629
 30
0.0
  0
SPLINE
  5
1BE
330
70
100
AcDbEntity
  8
0
 62
    18
420
        0
370
    25
100
AcDbSpline
210
0.0
220
0.0
230
1.0
 70
     8
 71
     3
 72
     8
 73
     4
 74
     0
 42
0.0000000001
 43
0.0000000001
 40
0.0
 40
0.0
 40
0.0
 40
0.0
 40
1.0
 40
1.0
 40
1.0
 40
1.0
 10
96.31264153150468
 20
-57.79092696289899
 30
0.0
 10
96.40868351600104
 20
-58.25458266100154
 30
0.0
 10
96.84211699484528
 20
-58.56874131697061
 30
0.0
 10
97.31263955587829
 20
-58.51573953655412
 30
0.0
  0
SPLINE
  5
1BF
330
70
100
AcDbEntity
  8
0
 62
    18
420
        0
370
    25
100
AcDbSpline
210
0.0
220
0.0
230
1.0
 70
     8
 71
     3
 72
     8
 73
     4
 74
     0
 42
0.0000000001
 43
0.0000000001
 40
0.0
 40
0.0
 40
0.0
 40
0.0
 40
1.0
 40
1.0
 40
1.0
 40
1.0
 10
182.1953846642008
 20
-59.51573881044025
 30
0.0
 10
183.2224068063884
 20
-59.58703542140607
 30
0.0
 10
184.114978616363
 20
-58.8172772246658
 30
0.0
 10
184.1953858989884
 20
-57.79092818258598
 30
0.0
  0
SPLINE
  5
1C0
330
70
100
AcDbEntity
  8
0
 62
    18
420
        0
370
    25
100
AcDbSpline
210
0.0
220
0.0
230
1.0
 70
     8
 71
     3
 72
     8
 73
     4
 74
     0
 42
0.0000000001
 43
0.0000000001
 40
0.0
 40
0.0
 40
0.0
 40
0.0
 40
1.0
 40
1.0
 40
1.0
 40
1.0
 10
182.1953857618098
 20
-58.51573953654707
 30
0.0
 10
182.6638036268716
 20
-58.56087792687967
 30
0.0
 10
183.092523713114
 20
-58.25013560388237
 30
0.0
 10
183.195383786184
 20
-57.79092696289257
 30
0.0
  0
LINE
  5
1C1
330
70
100
AcDbEntity
  8
0
 62
    18
420
        0
370
    25
100
AcDbLine
 10
176.0287187932835
 20
-63.12120640742664
 30
0.0
 11
103.4793065244835
 21
-63.12120640742664
 31
0.0
  0
LINE
  5
1C2
330
70
100
AcDbEntity
  8
0
 62
    18
420
        0
370
    25
100
AcDbLine
 10
103.4793076219839
 20
-64.12120618832624
 30
0.0
 11
176.0287176956835
 21
-64.12120618832624
 31
0.0
  0
LINE
  5
1C3
330
70
100
AcDbEntity
  8
0
 62
    18
420
        0
370
    25
100
AcDbLine
 10
177.0287168176834
 20
-50.80047923952622
 30
0.0
 11
177.0287168176834
 21
-58.51573851852619
 31
0.0
  0
LINE
  5
1C4
330
70
100
AcDbEntity
  8
0
 62
    18
420
        0
370
    25
100
AcDbLine
 10
177.0287168176834
 20
-59.51573809492657
 30
0.0
 11
177.0287168176834
 21
-62.39639383372659
 31
0.0
  0
LINE
  5
1C5
330
70
100
AcDbEntity
  8
0
 62
    18
420
        0
370
    25
100
AcDbLine
 10
178.0287189304833
 20
-62.39639505342641
 30
0.0
 11
178.0287189304833
 21
-59.5157393146264
 31
0.0
  0
LINE
  5
1C6
330
70
100
AcDbEntity
  8
0
 62
    18
420
        0
370
    25
100
AcDbLine
 10
178.0287189304833
 20
-58.51573973832675
 30
0.0
 11
178.0287189304833
 21
-51.37776811892671
 31
0.0
  0
LINE
  5
1C7
330
70
100
AcDbEntity
  8
0
 62
    18
420
        0
370
    25
100
AcDbLine
 10
101.479306387283
 20
-51.37776811892671
 30
0.0
 11
101.479306387283
 21
-58.51573973832675
 31
0.0
  0
LINE
  5
1C8
330
70
100
AcDbEntity
  8
0
 62
    18
420
        0
370
    25
100
AcDbLine
 10
101.479306387283
 20
-59.5157393146264
 30
0.0
 11
101.479306387283
 21
-62.39639505342641
 31
0.0
  0
LINE
  5
1C9
330
70
100
AcDbEntity
  8
0
 62
    18
420
        0
370
    25
100
AcDbLine
 10
102.4793085000835
 20
-62.39639383372659
 30
0.0
 11
102.4793085000835
 21
-59.51573809492657
 31
0.0
  0
LINE
  5
1CA
330
70
100
AcDbEntity
  8
0
 62
    18
420
        0
370
    25
100
AcDbLine
 10
102.4793085000835
 20
-58.51573851852619
 30
0.0
 11
102.4793085000835
 21
-50.80047923952622
 31
0.0
  0
SPLINE
  5
1CB
330
70
100
AcDbEntity
  8
0
 62
    18
420
        0
370
    25
100
AcDbSpline
210
0.0
220
0.0
230
1.0
 70
     8
 71
     3
 72
     8
 73
     4
 74
     0
 42
0.0000000001
 43
0.0000000001
 40
0.0
 40
0.0
 40
0.0
 40
0.0
 40
1.0
 40
1.0
 40
1.0
 40
1.0
 10
176.0287176957343
 20
-64.12120618833073
 30
0.0
 10
177.0557398224729
 20
-64.1925021943322
 30
0.0
 10
177.9483113501725
 20
-63.42274401477087
 30
0.0
 10
178.0287189305218
 20
-62.39639505349892
 30
0.0
  0
SPLINE
  5
1CC
330
70
100
AcDbEntity
  8
0
 62
    18
420
        0
370
    25
100
AcDbSpline
210
0.0
220
0.0
230
1.0
 70
     8
 71
     3
 72
     8
 73
     4
 74
     0
 42
0.0000000001
 43
0.0000000001
 40
0.0
 40
0.0
 40
0.0
 40
0.0
 40
1.0
 40
1.0
 40
1.0
 40
1.0
 10
176.0287187933098
 20
-63.12120640744717
 30
0.0
 10
176.4971366583716
 20
-63.16634479777913
 30
0.0
 10
176.925856744614
 20
-62.85560247478247
 30
0.0
 10
177.028716817684
 20
-62.39639383379269
 30
0.0
  0
SPLINE
  5
1CD
330
70
100
AcDbEntity
  8
0
 62
    18
420
        0
370
    25
100
AcDbSpline
210
0.0
220
0.0
230
1.0
 70
     8
 71
     3
 72
     8
 73
     4
 74
     0
 42
0.0000000001
 43
0.0000000001
 40
0.0
 40
0.0
 40
0.0
 40
0.0
 40
1.0
 40
1.0
 40
1.0
 40
1.0
 10
101.4793063872561
 20
-62.39639505344502
 30
0.0
 10
101.5573382807297
 20
-63.42394500982092
 30
0.0
 10
102.4514466668763
 20
-64.1950285838449
 30
0.0
 10
103.4793076220442
 20
-64.12120618827747
 30
0.0
  0
SPLINE
  5
1CE
330
70
100
AcDbEntity
  8
0
 62
    18
420
        0
370
    25
100
AcDbSpline
210
0.0
220
0.0
230
1.0
 70
     8
 71
     3
 72
     8
 73
     4
 74
     0
 42
0.0000000001
 43
0.0000000001
 40
0.0
 40
0.0
 40
0.0
 40
0.0
 40
1.0
 40
1.0
 40
1.0
 40
1.0
 10
102.4793085001047
 20
-62.39639383369899
 30
0.0
 10
102.5753504846011
 20
-62.86004953180155
 30
0.0
 10
103.0087839634453
 20
-63.17420818777062
 30
0.0
 10
103.4793065244783
 20
-63.12120640735413
 30
0.0
  0
LINE
  5
1CF
330
70
100
AcDbEntity
  8
0
 62
    18
420
        0
370
    25
100
AcDbLine
 10
152.3620515775834
 20
-36.56071649832656
 30
0.0
 11
152.3620515775834
 21
-48.15663109252628
 31
0.0
  0
LINE
  5
1D0
330
70
100
AcDbEntity
  8
0
 62
    18
420
        0
370
    25
100
AcDbLine
 10
153.3620510562831
 20
-48.15663079162654
 30
0.0
 11
153.3620510562831
 21
-37.13800385712622
 31
0.0
  0
LINE
  5
1D1
330
70
100
AcDbEntity
  8
0
 62
    18
420
        0
370
    25
100
AcDbLine
 10
126.1459742614838
 20
-37.13800385712622
 30
0.0
 11
126.1459742614838
 21
-48.15663079162654
 31
0.0
  0
LINE
  5
1D2
330
70
100
AcDbEntity
  8
0
 62
    18
420
        0
370
    25
100
AcDbLine
 10
127.1459737400834
 20
-48.15663109252628
 30
0.0
 11
127.1459737400834
 21
-36.56071649832656
 31
0.0
  0
LINE
  5
1D3
330
70
100
AcDbEntity
  8
0
 62
    18
420
        0
370
    25
100
AcDbLine
 10
151.3620509190833
 20
-48.88144214552667
 30
0.0
 11
128.1459743986836
 21
-48.88144214552667
 31
0.0
  0
LINE
  5
1D4
330
70
100
AcDbEntity
  8
0
 62
    18
420
        0
370
    25
100
AcDbLine
 10
128.1459737400835
 20
-49.88144294022668
 30
0.0
 11
151.3620515775834
 21
-49.88144294022668
 31
0.0
  0
SPLINE
  5
1D5
330
70
100
AcDbEntity
  8
0
 62
    18
420
        0
370
    25
100
AcDbSpline
210
0.0
220
0.0
230
1.0
 70
     8
 71
     3
 72
     8
 73
     4
 74
     0
 42
0.0000000001
 43
0.0000000001
 40
0.0
 40
0.0
 40
0.0
 40
0.0
 40
1.0
 40
1.0
 40
1.0
 40
1.0
 10
151.362051577636
 20
-49.88144294017985
 30
0.0
 10
152.3890738019173
 20
-49.95273910201088
 30
0.0
 10
153.2816451038717
 20
-49.18297998880245
 30
0.0
 10
153.3620510563056
 20
-48.15663079156365
 30
0.0
  0
SPLINE
  5
1D6
330
70
100
AcDbEntity
  8
0
 62
    18
420
        0
370
    25
100
AcDbSpline
210
0.0
220
0.0
230
1.0
 70
     8
 71
     3
 72
     8
 73
     4
 74
     0
 42
0.0000000001
 43
0.0000000001
 40
0.0
 40
0.0
 40
0.0
 40
0.0
 40
1.0
 40
1.0
 40
1.0
 40
1.0
 10
151.3620509190423
 20
-48.88144214555939
 30
0.0
 10
151.830469033924
 20
-48.92658119651795
 30
0.0
 10
152.2591899894292
 20
-48.61583971396416
 30
0.0
 10
152.3620515775949
 20
-48.15663109258339
 30
0.0
  0
SPLINE
  5
1D7
330
70
100
AcDbEntity
  8
0
 62
    18
420
        0
370
    25
100
AcDbSpline
210
0.0
220
0.0
230
1.0
 70
     8
 71
     3
 72
     8
 73
     4
 74
     0
 42
0.0000000001
 43
0.0000000001
 40
0.0
 40
0.0
 40
0.0
 40
0.0
 40
1.0
 40
1.0
 40
1.0
 40
1.0
 10
126.1459742614343
 20
-48.15663079155531
 30
0.0
 10
126.2240034997248
 20
-49.18418149898797
 30
0.0
 10
127.1181123251934
 20
-49.95526658216167
 30
0.0
 10
128.1459737401021
 20
-49.88144294017278
 30
0.0
  0
SPLINE
  5
1D8
330
70
100
AcDbEntity
  8
0
 62
    18
420
        0
370
    25
100
AcDbSpline
210
0.0
220
0.0
230
1.0
 70
     8
 71
     3
 72
     8
 73
     4
 74
     0
 42
0.0000000001
 43
0.0000000001
 40
0.0
 40
0.0
 40
0.0
 40
0.0
 40
1.0
 40
1.0
 40
1.0
 40
1.0
 10
127.1459737401277
 20
-48.15663109259688
 30
0.0
 10
127.2420161194005
 20
-48.62028752160041
 30
0.0
 10
127.6754512585563
 20
-48.93444589431902
 30
0.0
 10
128.1459743986797
 20
-48.88144214557287
 30
0.0
  0
LINE
  5
1D9
330
70
100
AcDbEntity
  8
0
 62
    18
420
        0
370
    25
100
AcDbLine
 10
186.6387085506834
 20
-52.28908504692619
 30
0.0
 11
143.2550219160834
 21
-27.24421584782662
 31
0.0
  0
LINE
  5
1DA
330
70
100
AcDbEntity
  8
0
 62
    18
420
        0
370
    25
100
AcDbLine
 10
136.2530034016835
 20
-27.24421584782662
 30
0.0
 11
92.86927110798307
 21
-52.28911140532642
 31
0.0
  0
LINE
  5
1DB
330
70
100
AcDbEntity
  8
0
 62
    18
420
        0
370
    25
100
AcDbLine
 10
142.0277085856835
 20
-30.59482728212672
 30
0.0
 11
185.4113952202834
 21
-55.6396964812263
 31
0.0
  0
LINE
  5
1DC
330
70
100
AcDbEntity
  8
0
 62
    18
420
        0
370
    25
100
AcDbLine
 10
94.09658443838365
 20
-55.63972283962652
 30
0.0
 11
137.4803167319833
 21
-30.59482728212672
 31
0.0
  0
SPLINE
  5
1DD
330
70
100
AcDbEntity
  8
0
 62
    18
420
        0
370
    25
100
AcDbSpline
210
0.0
220
0.0
230
1.0
 70
     8
 71
     3
 72
     8
 73
     4
 74
     0
 42
0.0000000001
 43
0.0000000001
 40
0.0
 40
0.0
 40
0.0
 40
0.0
 40
1.0
 40
1.0
 40
1.0
 40
1.0
 10
140.0644198078379
 20
-26.41525381559907
 30
0.0
 10
138.7415931117686
 20
-26.33193623488514
 30
0.0
 10
137.4217279075862
 20
-26.61899963211841
 30
0.0
 10
136.2530034016431
 20
-27.24421584775796
 30
0.0
  0
SPLINE
  5
1DE
330
70
100
AcDbEntity
  8
0
 62
    18
420
        0
370
    25
100
AcDbSpline
210
0.0
220
0.0
230
1.0
 70
     8
 71
     3
 72
     8
 73
     4
 74
     0
 42
0.0000000001
 43
0.0000000001
 40
0.0
 40
0.0
 40
0.0
 40
0.0
 40
1.0
 40
1.0
 40
1.0
 40
1.0
 10
143.2550219160796
 20
-27.24421584778684
 30
0.0
 10
142.2756051666275
 20
-26.71031428038506
 30
0.0
 10
141.179857171637
 20
-26.42562397621969
 30
0.0
 10
140.0644198078424
 20
-26.41525381562474
 30
0.0
  0
LINE
  5
1DF
330
70
100
AcDbEntity
  8
0
 62
    18
420
        0
370
    25
100
AcDbLine
 10
141.8524454162837
 20
-30.50839447012648
 30
0.0
 11
142.0277085856835
 21
-30.59482728212672
 31
0.0
  0
LWPOLYLINE
  5
1E0
330
70
100
AcDbEntity
  8
0
 62
    18
420
        0
370
    25
100
AcDbPolyline
 90
        3
 70
     0
 43
0.0
 10
137.4803167319833
 20
-30.59482728212672
 10
137.6823755286834
 20
-30.4878772966268
 10
138.0260951516837
 20
-30.34746433732621
  0
LINE
  5
1E1
330
70
100
AcDbEntity
  8
0
 62
    18
420
        0
370
    25
100
AcDbLine
 10
145.1953848285836
 20
-37.15609365062652
 30
0.0
 11
134.3126404891833
 21
-37.15609365062652
 31
0.0
  0
LINE
  5
1E2
330
70
100
AcDbEntity
  8
0
 62
    18
420
        0
370
    25
100
AcDbLine
 10
134.3126407086836
 20
-38.15609343142665
 30
0.0
 11
145.1953846090834
 21
-38.15609343142665
 31
0.0
  0
LINE
  5
1E3
330
70
100
AcDbEntity
  8
0
 62
    18
420
        0
370
    25
100
AcDbLine
 10
146.1953846090834
 20
-33.00077543292633
 30
0.0
 11
146.1953846090834
 21
-36.43128209072624
 31
0.0
  0
LINE
  5
1E4
330
70
100
AcDbEntity
  8
0
 62
    18
420
        0
370
    25
100
AcDbLine
 10
147.1953849657834
 20
-36.43128229662629
 30
0.0
 11
147.1953849657834
 21
-33.5780632985264
 31
0.0
  0
LINE
  5
1E5
330
70
100
AcDbEntity
  8
0
 62
    18
420
        0
370
    25
100
AcDbLine
 10
132.3126403518834
 20
-33.5780632985264
 30
0.0
 11
132.3126403518834
 21
-36.43128229662629
 31
0.0
  0
LINE
  5
1E6
330
70
100
AcDbEntity
  8
0
 62
    18
420
        0
370
    25
100
AcDbLine
 10
133.3126407086835
 20
-36.43128209072624
 30
0.0
 11
133.3126407086835
 21
-33.00077543292633
 31
0.0
  0
SPLINE
  5
1E7
330
70
100
AcDbEntity
  8
0
 62
    18
420
        0
370
    25
100
AcDbSpline
210
0.0
220
0.0
230
1.0
 70
     8
 71
     3
 72
     8
 73
     4
 74
     0
 42
0.0000000001
 43
0.0000000001
 40
0.0
 40
0.0
 40
0.0
 40
0.0
 40
1.0
 40
1.0
 40
1.0
 40
1.0
 10
145.1953846090166
 20
-38.15609343139777
 30
0.0
 10
146.2224067264737
 20
-38.22738989934428
 30
0.0
 10
147.1149782893461
 20
-37.45763135154009
 30
0.0
 10
147.1953849657436
 20
-36.43128229664747
 30
0.0
  0
SPLINE
  5
1E8
330
70
100
AcDbEntity
  8
0
 62
    18
420
        0
370
    25
100
AcDbSpline
210
0.0
220
0.0
230
1.0
 70
     8
 71
     3
 72
     8
 73
     4
 74
     0
 42
0.0000000001
 43
0.0000000001
 40
0.0
 40
0.0
 40
0.0
 40
0.0
 40
1.0
 40
1.0
 40
1.0
 40
1.0
 10
145.1953848286189
 20
-37.15609365063871
 30
0.0
 10
145.66380250649
 20
-37.20123118080263
 30
0.0
 10
146.092522400036
 20
-36.89048997780437
 30
0.0
 10
146.1953846091117
 20
-36.43128209076924
 30
0.0
  0
SPLINE
  5
1E9
330
70
100
AcDbEntity
  8
0
 62
    18
420
        0
370
    25
100
AcDbSpline
210
0.0
220
0.0
230
1.0
 70
     8
 71
     3
 72
     8
 73
     4
 74
     0
 42
0.0000000001
 43
0.0000000001
 40
0.0
 40
0.0
 40
0.0
 40
0.0
 40
1.0
 40
1.0
 40
1.0
 40
1.0
 10
132.3126403519219
 20
-36.43128229664875
 30
0.0
 10
132.3906699533999
 20
-37.45883304566927
 30
0.0
 10
133.2847792742146
 20
-38.22991776424755
 30
0.0
 10
134.3126407086495
 20
-38.15609343139713
 30
0.0
  0
SPLINE
  5
1EA
330
70
100
AcDbEntity
  8
0
 62
    18
420
        0
370
    25
100
AcDbSpline
210
0.0
220
0.0
230
1.0
 70
     8
 71
     3
 72
     8
 73
     4
 74
     0
 42
0.0000000001
 43
0.0000000001
 40
0.0
 40
0.0
 40
0.0
 40
0.0
 40
1.0
 40
1.0
 40
1.0
 40
1.0
 10
133.3126407086084
 20
-36.43128209077758
 30
0.0
 10
133.4086831755701
 20
-36.89493813437539
 30
0.0
 10
133.8421176085072
 20
-37.20909649077368
 30
0.0
 10
134.3126404891025
 20
-37.1560936506464
 30
0.0
  0
LINE
  5
1EB
330
70
100
AcDbEntity
  8
0
 62
    18
420
        0
370
    25
100
AcDbLine
 10
157.5287178875833
 20
-52.44138321102636
 30
0.0
 11
121.9793074300835
 21
-52.44138321102636
 31
0.0
  0
LINE
  5
1EC
330
70
100
AcDbEntity
  8
0
 62
    18
420
        0
370
    25
100
AcDbLine
 10
121.9793067715835
 20
-53.44138400562627
 30
0.0
 11
157.5287185461834
 21
-53.44138400562627
 31
0.0
  0
LINE
  5
1ED
330
70
100
AcDbEntity
  8
0
 62
    18
420
        0
370
    25
100
AcDbLine
 10
158.5287176680838
 20
-40.12065705692637
 30
0.0
 11
158.5287176680838
 21
-51.71657165112673
 31
0.0
  0
LINE
  5
1EE
330
70
100
AcDbEntity
  8
0
 62
    18
420
        0
370
    25
100
AcDbLine
 10
159.5287180247838
 20
-51.71657185702677
 30
0.0
 11
159.5287180247838
 21
-40.69794492252644
 31
0.0
  0
LINE
  5
1EF
330
70
100
AcDbEntity
  8
0
 62
    18
420
        0
370
    25
100
AcDbLine
 10
119.9793072928837
 20
-40.69794492252644
 30
0.0
 11
119.9793072928837
 21
-51.71657185702677
 31
0.0
  0
LINE
  5
1F0
330
70
100
AcDbEntity
  8
0
 62
    18
420
        0
370
    25
100
AcDbLine
 10
120.9793076495837
 20
-51.71657165112673
 30
0.0
 11
120.9793076495837
 21
-40.12065705692637
 31
0.0
  0
SPLINE
  5
1F1
330
70
100
AcDbEntity
  8
0
 62
    18
420
        0
370
    25
100
AcDbSpline
210
0.0
220
0.0
230
1.0
 70
     8
 71
     3
 72
     8
 73
     4
 74
     0
 42
0.0000000001
 43
0.0000000001
 40
0.0
 40
0.0
 40
0.0
 40
0.0
 40
1.0
 40
1.0
 40
1.0
 40
1.0
 10
157.5287185461892
 20
-53.44138400571419
 30
0.0
 10
158.5557408042862
 20
-53.51268026918908
 30
0.0
 10
159.4483121679951
 20
-52.7429211027222
 30
0.0
 10
159.5287180248556
 20
-51.71657185709737
 30
0.0
  0
SPLINE
  5
1F2
330
70
100
AcDbEntity
  8
0
 62
    18
420
        0
370
    25
100
AcDbSpline
210
0.0
220
0.0
230
1.0
 70
     8
 71
     3
 72
     8
 73
     4
 74
     0
 42
0.0000000001
 43
0.0000000001
 40
0.0
 40
0.0
 40
0.0
 40
0.0
 40
1.0
 40
1.0
 40
1.0
 40
1.0
 10
157.5287178876449
 20
-52.44138321104882
 30
0.0
 10
157.9971358428699
 20
-52.48652176095786
 30
0.0
 10
158.4258563418757
 20
-52.17578011911511
 30
0.0
 10
158.5287176681377
 20
-51.71657165117935
 30
0.0
  0
SPLINE
  5
1F3
330
70
100
AcDbEntity
  8
0
 62
    18
420
        0
370
    25
100
AcDbSpline
210
0.0
220
0.0
230
1.0
 70
     8
 71
     3
 72
     8
 73
     4
 74
     0
 42
0.0000000001
 43
0.0000000001
 40
0.0
 40
0.0
 40
0.0
 40
0.0
 40
1.0
 40
1.0
 40
1.0
 40
1.0
 10
119.9793072929196
 20
-51.71657185703962
 30
0.0
 10
120.0573375616549
 20
-52.74412204431937
 30
0.0
 10
120.9514457197526
 20
-53.51520655194743
 30
0.0
 10
121.9793067715867
 20
-53.44138400565643
 30
0.0
  0
SPLINE
  5
1F4
330
70
100
AcDbEntity
  8
0
 62
    18
420
        0
370
    25
100
AcDbSpline
210
0.0
220
0.0
230
1.0
 70
     8
 71
     3
 72
     8
 73
     4
 74
     0
 42
0.0000000001
 43
0.0000000001
 40
0.0
 40
0.0
 40
0.0
 40
0.0
 40
1.0
 40
1.0
 40
1.0
 40
1.0
 10
120.9793076496209
 20
-51.71657165114471
 30
0.0
 10
121.075350219418
 20
-52.18022762825736
 30
0.0
 10
121.5087845807049
 20
-52.49438593272294
 30
0.0
 10
121.9793074301143
 20
-52.44138321101481
 30
0.0
  0
LINE
  5
1F5
330
70
100
AcDbEntity
  8
0
 62
    18
420
        0
370
    25
100
AcDbLine
 10
163.6953848561834
 20
-56.0013242764266
 30
0.0
 11
115.8126404615835
 21
-56.0013242764266
 31
0.0
  0
LINE
  5
1F6
330
70
100
AcDbEntity
  8
0
 62
    18
420
        0
370
    25
100
AcDbLine
 10
115.8126398029834
 20
-57.00132507112662
 30
0.0
 11
163.6953855146834
 21
-57.00132507112662
 31
0.0
  0
LINE
  5
1F7
330
70
100
AcDbEntity
  8
0
 62
    18
420
        0
370
    25
100
AcDbLine
 10
164.6953846366832
 20
-43.68059812242671
 30
0.0
 11
164.6953846366832
 21
-55.27651271662644
 31
0.0
  0
LINE
  5
1F8
330
70
100
AcDbEntity
  8
0
 62
    18
420
        0
370
    25
100
AcDbLine
 10
165.6953849933832
 20
-55.27651292252648
 30
0.0
 11
165.6953849933832
 21
-44.25788598802678
 31
0.0
  0
LINE
  5
1F9
330
70
100
AcDbEntity
  8
0
 62
    18
420
        0
370
    25
100
AcDbLine
 10
113.8126403243837
 20
-44.25788598802678
 30
0.0
 11
113.8126403243837
 21
-55.27651292252648
 31
0.0
  0
LINE
  5
1FA
330
70
100
AcDbEntity
  8
0
 62
    18
420
        0
370
    25
100
AcDbLine
 10
114.8126406810837
 20
-55.27651271662644
 30
0.0
 11
114.8126406810837
 21
-43.68059812242671
 31
0.0
  0
SPLINE
  5
1FB
330
70
100
AcDbEntity
  8
0
 62
    18
420
        0
370
    25
100
AcDbSpline
210
0.0
220
0.0
230
1.0
 70
     8
 71
     3
 72
     8
 73
     4
 74
     0
 42
0.0000000001
 43
0.0000000001
 40
0.0
 40
0.0
 40
0.0
 40
0.0
 40
1.0
 40
1.0
 40
1.0
 40
1.0
 10
163.6953855147546
 20
-57.00132507109197
 30
0.0
 10
164.7224074112067
 20
-57.07262024753702
 30
0.0
 10
165.614978114479
 20
-56.30286165063644
 30
0.0
 10
165.695384993423
 20
-55.27651292247643
 30
0.0
  0
SPLINE
  5
1FC
330
70
100
AcDbEntity
  8
0
 62
    18
420
        0
370
    25
100
AcDbSpline
210
0.0
220
0.0
230
1.0
 70
     8
 71
     3
 72
     8
 73
     4
 74
     0
 42
0.0000000001
 43
0.0000000001
 40
0.0
 40
0.0
 40
0.0
 40
0.0
 40
1.0
 40
1.0
 40
1.0
 40
1.0
 10
163.6953848561449
 20
-56.00132427644906
 30
0.0
 10
164.1638028113699
 20
-56.04646282635745
 30
0.0
 10
164.5925233103757
 20
-55.73572118451535
 30
0.0
 10
164.6953846366377
 20
-55.27651271657894
 30
0.0
  0
SPLINE
  5
1FD
330
70
100
AcDbEntity
  8
0
 62
    18
420
        0
370
    25
100
AcDbSpline
210
0.0
220
0.0
230
1.0
 70
     8
 71
     3
 72
     8
 73
     4
 74
     0
 42
0.0000000001
 43
0.0000000001
 40
0.0
 40
0.0
 40
0.0
 40
0.0
 40
1.0
 40
1.0
 40
1.0
 40
1.0
 10
113.8126403243195
 20
-55.27651292253931
 30
0.0
 10
113.8906705930554
 20
-56.30406310981907
 30
0.0
 10
114.7847787511532
 20
-57.07514761744713
 30
0.0
 10
115.8126398029866
 20
-57.00132507115678
 30
0.0
  0
SPLINE
  5
1FE
330
70
100
AcDbEntity
  8
0
 62
    18
420
        0
370
    25
100
AcDbSpline
210
0.0
220
0.0
230
1.0
 70
     8
 71
     3
 72
     8
 73
     4
 74
     0
 42
0.0000000001
 43
0.0000000001
 40
0.0
 40
0.0
 40
0.0
 40
0.0
 40
1.0
 40
1.0
 40
1.0
 40
1.0
 10
114.8126406810208
 20
-55.27651271664504
 30
0.0
 10
114.9086832508179
 20
-55.74016869375705
 30
0.0
 10
115.3421176121049
 20
-56.05432699822263
 30
0.0
 10
115.8126404615142
 20
-56.00132427651516
 30
0.0
  0
LINE
  5
1FF
330
70
100
AcDbEntity
  8
0
 62
    18
420
        0
370
    25
100
AcDbLine
 10
169.8620518246834
 20
-59.5612653419263
 30
0.0
 11
109.6459734929835
 21
-59.5612653419263
 31
0.0
  0
LINE
  5
200
330
70
100
AcDbEntity
  8
0
 62
    18
420
        0
370
    25
100
AcDbLine
 10
109.6459745905833
 20
-60.56126512282654
 30
0.0
 11
169.8620507271836
 21
-60.56126512282654
 31
0.0
  0
LINE
  5
201
330
70
100
AcDbEntity
  8
0
 62
    18
420
        0
370
    25
100
AcDbLine
 10
170.8620498490833
 20
-47.24053817402651
 30
0.0
 11
170.8620498490833
 21
-58.51573819042675
 31
0.0
  0
LINE
  5
202
330
70
100
AcDbEntity
  8
0
 62
    18
420
        0
370
    25
100
AcDbLine
 10
171.8620519618832
 20
-58.51573941012658
 30
0.0
 11
171.8620519618832
 21
-47.81782705352648
 31
0.0
  0
LINE
  5
203
330
70
100
AcDbEntity
  8
0
 62
    18
420
        0
370
    25
100
AcDbLine
 10
107.6459733557836
 20
-47.81782705352648
 30
0.0
 11
107.6459733557836
 21
-58.51573941012658
 31
0.0
  0
LINE
  5
204
330
70
100
AcDbEntity
  8
0
 62
    18
420
        0
370
    25
100
AcDbLine
 10
108.6459754685835
 20
-58.51573819042675
 30
0.0
 11
108.6459754685835
 21
-47.24053817402651
 31
0.0
  0
SPLINE
  5
205
330
70
100
AcDbEntity
  8
0
 62
    18
420
        0
370
    25
100
AcDbSpline
210
0.0
220
0.0
230
1.0
 70
     8
 71
     3
 72
     8
 73
     4
 74
     0
 42
0.0000000001
 43
0.0000000001
 40
0.0
 40
0.0
 40
0.0
 40
0.0
 40
1.0
 40
1.0
 40
1.0
 40
1.0
 10
169.862050727165
 20
-60.56126512286568
 30
0.0
 10
170.6221419669419
 20
-60.59304816142073
 30
0.0
 10
171.3332780863786
 20
-60.1867068209455
 30
0.0
 10
171.6918197706817
 20
-59.51573982105464
 30
0.0
  0
SPLINE
  5
206
330
70
100
AcDbEntity
  8
0
 62
    18
420
        0
370
    25
100
AcDbSpline
210
0.0
220
0.0
230
1.0
 70
     8
 71
     3
 72
     8
 73
     4
 74
     0
 42
0.0000000001
 43
0.0000000001
 40
0.0
 40
0.0
 40
0.0
 40
0.0
 40
1.0
 40
1.0
 40
1.0
 40
1.0
 10
169.8620518247289
 20
-59.56126534189485
 30
0.0
 10
169.9760468886554
 20
-59.5657973456621
 30
0.0
 10
170.0899578485007
 20
-59.55039039847356
 30
0.0
 10
170.1986531303079
 20
-59.51573856777662
 30
0.0
  0
SPLINE
  5
207
330
70
100
AcDbEntity
  8
0
 62
    18
420
        0
370
    25
100
AcDbSpline
210
0.0
220
0.0
230
1.0
 70
     8
 71
     3
 72
     8
 73
     4
 74
     0
 42
0.0000000001
 43
0.0000000001
 40
0.0
 40
0.0
 40
0.0
 40
0.0
 40
1.0
 40
1.0
 40
1.0
 40
1.0
 10
107.8159829590471
 20
-59.51573905966268
 30
0.0
 10
108.1730007355684
 20
-60.18829431427432
 30
0.0
 10
108.8852923196654
 20
-60.5952466756319
 30
0.0
 10
109.6459745906071
 20
-60.56126512280215
 30
0.0
  0
LWPOLYLINE
  5
208
330
70
100
AcDbEntity
  8
0
 62
    18
420
        0
370
    25
100
AcDbPolyline
 90
        3
 70
     0
 43
0.0
 10
109.6459734929835
 20
-59.5612653419263
 10
109.5062542754833
 20
-59.55393090822621
 10
109.3326723701833
 20
-59.51573856322633
  0
LINE
  5
209
330
70
100
AcDbEntity
  8
0
 62
    18
420
        0
370
    25
100
AcDbLine
 10
116.7242397516833
 20
-38.15446690892655
 30
0.0
 11
117.0390430556832
 21
-38.33619898802644
 31
0.0
  0
SPLINE
  5
20A
330
70
100
AcDbEntity
  8
0
 62
    18
420
        0
370
    25
100
AcDbSpline
210
0.0
220
0.0
230
1.0
 70
     8
 71
     3
 72
     8
 73
     4
 74
     0
 42
0.0000000001
 43
0.0000000001
 40
0.0
 40
0.0
 40
0.0
 40
0.0
 40
1.0
 40
1.0
 40
1.0
 40
1.0
 10
110.5915765577774
 20
-49.65094303095365
 30
0.0
 10
110.6946693630045
 20
-49.71045724061525
 30
0.0
 10
110.8216751938079
 20
-49.71047817732532
 30
0.0
 10
110.9247876150777
 20
-49.65099796026886
 30
0.0
  0
SPLINE
  5
20B
330
70
100
AcDbEntity
  8
0
 62
    18
420
        0
370
    25
100
AcDbSpline
210
0.0
220
0.0
230
1.0
 70
     8
 71
     3
 72
     8
 73
     4
 74
     0
 42
0.0000000001
 43
0.0000000001
 40
0.0
 40
0.0
 40
0.0
 40
0.0
 40
1.0
 40
1.0
 40
1.0
 40
1.0
 10
122.405054988146
 20
-29.75432959734057
 30
0.0
 10
122.4009174289239
 20
-29.63959247660867
 30
0.0
 10
122.3380238423587
 20
-29.53506042227137
 30
0.0
 10
122.2385913008899
 20
-29.47765923789995
 30
0.0
  0
LINE
  5
20C
330
70
100
AcDbEntity
  8
0
 62
    18
420
        0
370
    25
100
AcDbLine
 10
122.4039654520833
 20
-29.75773575252665
 30
0.0
 11
122.4038419886831
 21
-29.75374302572618
 31
0.0
  0
LWPOLYLINE
  5
20D
330
70
100
AcDbEntity
  8
0
 62
    18
420
        0
370
    25
100
AcDbPolyline
 90
        3
 70
     0
 43
0.0
 10
122.4052457860833
 20
-42.83108432792641
 10
122.4061564021836
 20
-39.77411370202615
 10
122.4060836741835
 20
-39.29699684322629
  0
LINE
  5
20E
330
70
100
AcDbEntity
  8
0
 62
    18
420
        0
370
    25
100
AcDbLine
 10
122.4054791165837
 20
-35.23822146172669
 30
0.0
 11
122.4046620000838
 21
-29.76189595652626
 31
0.0
  0
LINE
  5
20F
330
70
100
AcDbEntity
  8
0
 62
    18
420
        0
370
    25
100
AcDbLine
 10
109.5353204544831
 20
-49.04118046742627
 30
0.0
 11
110.5915756861833
 21
-49.65094363352637
 31
0.0
  0
LINE
  5
210
330
70
100
AcDbEntity
  8
0
 62
    18
420
        0
370
    25
100
AcDbLine
 10
122.2385920981836
 20
-29.47765867342618
 30
0.0
 11
121.1823368665836
 21
-28.86789550732672
 31
0.0
  0
LWPOLYLINE
  5
211
330
70
100
AcDbEntity
  8
0
 62
    18
420
        0
370
    25
100
AcDbPolyline
 90
        3
 70
     0
 43
0.0
 10
110.9247866947838
 20
-49.65099470852635
 10
112.1752858852834
 20
-48.9296255809262
 10
113.8126414493835
 20
-47.98467874292668
  0
LINE
  5
212
330
70
100
AcDbEntity
  8
0
 62
    18
420
        0
370
    25
100
AcDbLine
 10
114.8126414904837
 20
-47.40756105292667
 30
0.0
 11
116.5828325199832
 21
-46.38595225192659
 31
0.0
  0
LINE
  5
213
330
70
100
AcDbEntity
  8
0
 62
    18
420
        0
370
    25
100
AcDbLine
 10
116.5828940390836
 20
-46.3859745850264
 30
0.0
 11
119.9793075398833
 21
-44.42433925302654
 31
0.0
  0
LINE
  5
214
330
70
100
AcDbEntity
  8
0
 62
    18
420
        0
370
    25
100
AcDbLine
 10
120.9793071556833
 20
-43.84677880022626
 30
0.0
 11
122.2419714741837
 21
-43.11751307302617
 31
0.0
  0
LINE
  5
215
330
70
100
AcDbEntity
  8
0
 62
    18
420
        0
370
    25
100
AcDbLine
 10
122.2445850864837
 20
-43.11469536922647
 30
0.0
 11
122.2480049492833
 21
-43.11257037072674
 31
0.0
  0
SPLINE
  5
216
330
70
100
AcDbEntity
  8
0
 62
    18
420
        0
370
    25
100
AcDbSpline
210
0.0
220
0.0
230
1.0
 70
     8
 71
     3
 72
     8
 73
     4
 74
     0
 42
0.0000000001
 43
0.0000000001
 40
0.0
 40
0.0
 40
0.0
 40
0.0
 40
1.0
 40
1.0
 40
1.0
 40
1.0
 10
122.2493283620824
 20
-43.1132075737397
 30
0.0
 10
122.3463421182102
 20
-43.05222765757213
 30
0.0
 10
122.4052337024303
 20
-42.94569227922148
 30
0.0
 10
122.405271493988
 20
-42.83110511752569
 30
0.0
  0
SPLINE
  5
217
330
70
100
AcDbEntity
  8
0
 62
    18
420
        0
370
    25
100
AcDbSpline
210
0.0
220
0.0
230
1.0
 70
     8
 71
     3
 72
     8
 73
     4
 74
     0
 42
0.0000000001
 43
0.0000000001
 40
0.0
 40
0.0
 40
0.0
 40
0.0
 40
1.0
 40
1.0
 40
1.0
 40
1.0
 10
168.9854984622469
 20
-36.43367537162282
 30
0.0
 10
168.9779304109727
 20
-36.26737864293379
 30
0.0
 10
168.8900289868596
 20
-36.1151290998276
 30
0.0
 10
168.7497957241863
 20
-36.02542676199308
 30
0.0
  0
SPLINE
  5
218
330
70
100
AcDbEntity
  8
0
 62
    18
420
        0
370
    25
100
AcDbSpline
210
0.0
220
0.0
230
1.0
 70
     8
 71
     3
 72
     8
 73
     4
 74
     0
 42
0.0000000001
 43
0.0000000001
 40
0.0
 40
0.0
 40
0.0
 40
0.0
 40
1.0
 40
1.0
 40
1.0
 40
1.0
 10
168.5143958892145
 20
-36.42203930292992
 30
0.0
 10
168.6610709308214
 20
-36.49898734188575
 30
0.0
 10
168.835203414761
 20
-36.50328835331458
 30
0.0
 10
168.9854984622988
 20
-36.43367537165811
 30
0.0
  0
SPLINE
  5
219
330
70
100
AcDbEntity
  8
0
 62
    18
420
        0
370
    25
100
AcDbSpline
210
0.0
220
0.0
230
1.0
 70
     8
 71
     3
 72
     8
 73
     4
 74
     0
 42
0.0000000001
 43
0.0000000001
 40
0.0
 40
0.0
 40
0.0
 40
0.0
 40
1.0
 40
1.0
 40
1.0
 40
1.0
 10
168.749795724171
 20
-36.02542676202388
 30
0.0
 10
168.6132630037915
 20
-36.11319671353444
 30
0.0
 10
168.5260441028664
 20
-36.26014715598837
 30
0.0
 10
168.5143958891458
 20
-36.42203930292478
 30
0.0
  0
SPLINE
  5
21A
330
70
100
AcDbEntity
  8
0
 62
    18
420
        0
370
    25
100
AcDbSpline
210
0.0
220
0.0
230
1.0
 70
     8
 71
     3
 72
     8
 73
     4
 74
     0
 42
0.0000000001
 43
0.0000000001
 40
0.0
 40
0.0
 40
0.0
 40
0.0
 40
1.0
 40
1.0
 40
1.0
 40
1.0
 10
168.5243215268743
 20
-36.433503585722
 30
0.0
 10
168.669215436484
 20
-36.5071361244346
 30
0.0
 10
168.8405497374218
 20
-36.50719994553212
 30
0.0
 10
168.9854984622571
 20
-36.43367537162667
 30
0.0
  0
SPLINE
  5
21B
330
70
100
AcDbEntity
  8
0
 62
    18
420
        0
370
    25
100
AcDbSpline
210
0.0
220
0.0
230
1.0
 70
     8
 71
     3
 72
     8
 73
     4
 74
     0
 42
0.0000000001
 43
0.0000000001
 40
0.0
 40
0.0
 40
0.0
 40
0.0
 40
1.0
 40
1.0
 40
1.0
 40
1.0
 10
168.5243215268749
 20
-36.43350358580607
 30
0.0
 10
168.5210867496
 20
-36.43169694254894
 30
0.0
 10
168.5171263616885
 20
-36.4317879375852
 30
0.0
 10
168.5139779740836
 20
-36.43374124231413
 30
0.0
  0
LWPOLYLINE
  5
21C
330
70
100
AcDbEntity
  8
0
 62
    18
420
        0
370
    25
100
AcDbPolyline
 90
        3
 70
     0
 43
0.0
 10
168.5139779740836
 20
-36.43374124222622
 10
168.5139785777838
 20
-36.43372467052627
 10
168.5143958891837
 20
-36.42203930292671
  0
SPLINE
  5
21D
330
70
100
AcDbEntity
  8
0
 62
    18
420
        0
370
    25
100
AcDbSpline
210
0.0
220
0.0
230
1.0
 70
     8
 71
     3
 72
     8
 73
     4
 74
     0
 42
0.0000000001
 43
0.0000000001
 40
0.0
 40
0.0
 40
0.0
 40
0.0
 40
1.0
 40
1.0
 40
1.0
 40
1.0
 10
168.5243214856913
 20
-49.50409035140419
 30
0.0
 10
168.6703716404643
 20
-49.57492550154999
 30
0.0
 10
168.8412636273529
 20
-49.57279040269582
 30
0.0
 10
168.9854984622321
 20
-49.49832847542555
 30
0.0
  0
LWPOLYLINE
  5
21E
330
70
100
AcDbEntity
  8
0
 62
    18
420
        0
370
    25
100
AcDbPolyline
 90
        5
 70
     0
 43
0.0
 10
163.8444641759838
 20
-39.13024786402675
 10
163.8934477814837
 20
-39.10196168912664
 10
165.4515559583837
 20
-38.20219641872633
 10
167.0275826392836
 20
-37.29208821392656
 10
168.5139779740836
 20
-36.43374124222622
  0
LINE
  5
21F
330
70
100
AcDbEntity
  8
0
 62
    18
420
        0
370
    25
100
AcDbLine
 10
168.5139779740836
 20
-49.49861031742618
 30
0.0
 11
168.5243214856836
 21
-49.50409035132655
 31
0.0
  0
LWPOLYLINE
  5
220
330
70
100
AcDbEntity
  8
0
 62
    18
420
        0
370
    25
100
AcDbPolyline
 90
        3
 70
     0
 43
0.0
 10
165.6953847601834
 20
-44.82890201792642
 10
166.1808037306836
 20
-45.64177069232622
 10
168.5139779740836
 20
-49.49861031742618
  0
LWPOLYLINE
  5
221
330
70
100
AcDbEntity
  8
0
 62
    18
420
        0
370
    25
100
AcDbPolyline
 90
        5
 70
     0
 43
0.0
 10
168.5143958891837
 20
-36.42203930292671
 10
168.0428233210832
 20
-36.1497852304266
 10
166.1566071899837
 20
-35.06081029802617
 10
164.5062870247838
 20
-34.10804104542638
 10
162.8561934538833
 20
-33.15543857712616
  0
SPLINE
  5
222
330
70
100
AcDbEntity
  8
0
 62
    18
420
        0
370
    25
100
AcDbSpline
210
0.0
220
0.0
230
1.0
 70
     8
 71
     3
 72
     8
 73
     4
 74
     0
 42
0.0000000001
 43
0.0000000001
 40
0.0
 40
0.0
 40
0.0
 40
0.0
 40
1.0
 40
1.0
 40
1.0
 40
1.0
 10
163.0916180803623
 20
-32.76055722346814
 30
0.0
 10
162.9555663427803
 20
-32.84798767401375
 30
0.0
 10
162.8684089552984
 20
-32.99417810305836
 30
0.0
 10
162.8561934538807
 20
-33.1554385771576
 30
0.0
  0
LWPOLYLINE
  5
223
330
70
100
AcDbEntity
  8
0
 62
    18
420
        0
370
    25
100
AcDbPolyline
 90
        4
 70
     0
 43
0.0
 10
163.0916180803835
 20
-32.76055722352654
 10
165.7764219133835
 20
-34.31005346862624
 10
167.2630600453836
 20
-35.16776928542653
 10
168.7497957241838
 20
-36.02542676202645
  0
SPLINE
  5
224
330
70
100
AcDbEntity
  8
0
 62
    18
420
        0
370
    25
100
AcDbSpline
210
0.0
220
0.0
230
1.0
 70
     8
 71
     3
 72
     8
 73
     4
 74
     0
 42
0.0000000001
 43
0.0000000001
 40
0.0
 40
0.0
 40
0.0
 40
0.0
 40
1.0
 40
1.0
 40
1.0
 40
1.0
 10
170.041753693947
 20
-35.82391220562282
 30
0.0
 10
170.0341856426728
 20
-35.65761547693379
 30
0.0
 10
169.9462842185598
 20
-35.50536593382761
 30
0.0
 10
169.8060509558865
 20
-35.41566359599308
 30
0.0
  0
LINE
  5
225
330
70
100
AcDbEntity
  8
0
 62
    18
420
        0
370
    25
100
AcDbLine
 10
170.0417536938835
 20
-35.82391220562667
 30
0.0
 11
168.9854984622834
 21
-36.43367537162667
 31
0.0
  0
LINE
  5
226
330
70
100
AcDbEntity
  8
0
 62
    18
420
        0
370
    25
100
AcDbLine
 10
168.7497957241838
 20
-36.02542676202645
 30
0.0
 11
169.8060509558833
 21
-35.41566359592635
 31
0.0
  0
LWPOLYLINE
  5
227
330
70
100
AcDbEntity
  8
0
 62
    18
420
        0
370
    25
100
AcDbPolyline
 90
       10
 70
     0
 43
0.0
 10
162.3832499373832
 20
-38.22389783682636
 10
162.4005886749838
 20
-38.15080316132642
 10
162.4589939391838
 20
-38.06361847662639
 10
162.5485875457838
 20
-38.02311600762677
 10
162.6589627097835
 20
-38.03404639342667
 10
162.7775871883834
 20
-38.09521617752674
 10
162.8910853881832
 20
-38.19972839302659
 10
162.9867089860834
 20
-38.33577806612676
 10
163.0539155776833
 20
-38.48790628182618
 10
163.0845050079836
 20
-38.62872377212651
  0
SPLINE
  5
228
330
70
100
AcDbEntity
  8
0
 62
    18
420
        0
370
    25
100
AcDbSpline
210
0.0
220
0.0
230
1.0
 70
     8
 71
     3
 72
     8
 73
     4
 74
     0
 42
0.0000000001
 43
0.0000000001
 40
0.0
 40
0.0
 40
0.0
 40
0.0
 40
1.0
 40
1.0
 40
1.0
 40
1.0
 10
157.2000832279814
 20
-29.90236882926151
 30
0.0
 10
158.6498003908194
 20
-32.56482667144803
 30
0.0
 10
160.1244884002812
 20
-35.21361169975551
 30
0.0
 10
161.6239521891025
 20
-37.84837354092115
 30
0.0
  0
LWPOLYLINE
  5
229
330
70
100
AcDbEntity
  8
0
 62
    18
420
        0
370
    25
100
AcDbPolyline
 90
        3
 70
     0
 43
0.0
 10
162.8556429380834
 20
-33.1688551030267
 10
162.8559510957837
 20
-33.16134178232648
 10
162.8561934538833
 20
-33.15543857712616
  0
LWPOLYLINE
  5
22A
330
70
100
AcDbEntity
  8
0
 62
    18
420
        0
370
    25
100
AcDbPolyline
 90
        4
 70
     0
 43
0.0
 10
168.5139779740836
 20
-36.43374124222622
 10
167.0402860176834
 20
-35.58363688922642
 10
165.5666925137833
 20
-34.73347367312624
 10
162.8556429380834
 20
-33.1688551030267
  0
LINE
  5
22B
330
70
100
AcDbEntity
  8
0
 62
    18
420
        0
370
    25
100
AcDbLine
 10
170.0417536938835
 20
-48.88856530932672
 30
0.0
 11
170.0417536938835
 21
-46.76699146112624
 31
0.0
  0
LINE
  5
22C
330
70
100
AcDbEntity
  8
0
 62
    18
420
        0
370
    25
100
AcDbLine
 10
170.0417536938835
 20
-42.70786691232618
 30
0.0
 11
170.0417536938835
 21
-35.82391220562667
 31
0.0
  0
LINE
  5
22D
330
70
100
AcDbEntity
  8
0
 62
    18
420
        0
370
    25
100
AcDbLine
 10
168.9854984622834
 20
-49.49832847542618
 30
0.0
 11
170.0417536938835
 21
-48.88856530932672
 31
0.0
  0
LINE
  5
22E
330
70
100
AcDbEntity
  8
0
 62
    18
420
        0
370
    25
100
AcDbLine
 10
169.8060509558833
 20
-35.41566359592635
 30
0.0
 11
158.4923423585832
 21
-28.88439864462668
 31
0.0
  0
LWPOLYLINE
  5
22F
330
70
100
AcDbEntity
  8
0
 62
    18
420
        0
370
    25
100
AcDbPolyline
 90
        4
 70
     0
 43
0.0
 10
157.4360871268837
 20
-29.49416181072678
 10
160.1196317953835
 20
-31.04437279052677
 10
161.6055253329832
 20
-31.90252250772649
 10
163.0916180803835
 20
-32.76055722352654
  0
LINE
  5
230
330
70
100
AcDbEntity
  8
0
 62
    18
420
        0
370
    25
100
AcDbLine
 10
158.4923423585832
 20
-28.88439864462668
 30
0.0
 11
157.4360871268837
 21
-29.49416181072678
 31
0.0
  0
LWPOLYLINE
  5
231
330
70
100
AcDbEntity
  8
0
 62
    18
420
        0
370
    25
100
AcDbPolyline
 90
        6
 70
     0
 43
0.0
 10
162.8561934538833
 20
-33.15543857712616
 10
162.3848009565835
 20
-32.8833112257263
 10
160.4994334697833
 20
-31.79495615032632
 10
158.8499089361832
 20
-30.84277449292661
 10
157.2005081677834
 20
-29.89067094542677
 10
157.1955524556834
 20
-29.88781051772663
  0
SPLINE
  5
232
330
70
100
AcDbEntity
  8
0
 62
    18
420
        0
370
    25
100
AcDbSpline
210
0.0
220
0.0
230
1.0
 70
     8
 71
     3
 72
     8
 73
     4
 74
     0
 42
0.0000000001
 43
0.0000000001
 40
0.0
 40
0.0
 40
0.0
 40
0.0
 40
1.0
 40
1.0
 40
1.0
 40
1.0
 10
157.4360871269196
 20
-29.4941618107024
 30
0.0
 10
157.2956606128966
 20
-29.57744176475402
 30
0.0
 10
157.2055853852294
 20
-29.7248550117939
 30
0.0
 10
157.1955524557296
 20
-29.88781051772535
 30
0.0
  0
SPLINE
  5
233
330
70
100
AcDbEntity
  8
0
 62
    18
420
        0
370
    25
100
AcDbSpline
210
0.0
220
0.0
230
1.0
 70
     8
 71
     3
 72
     8
 73
     4
 74
     0
 42
0.0000000001
 43
0.0000000001
 40
0.0
 40
0.0
 40
0.0
 40
0.0
 40
1.0
 40
1.0
 40
1.0
 40
1.0
 10
157.1955524557129
 20
-29.88781051772278
 30
0.0
 10
157.1958383282958
 20
-29.89296279684103
 30
0.0
 10
157.1973948566884
 20
-29.89796424546251
 30
0.0
 10
157.2000832282086
 20
-29.9023688296446
 30
0.0
  0
LWPOLYLINE
  5
234
330
70
100
AcDbEntity
  8
0
 62
    18
420
        0
370
    25
100
AcDbPolyline
 90
        4
 70
     0
 43
0.0
 10
162.8556429380834
 20
-33.1688551030267
 10
161.3826231909837
 20
-32.31836269172643
 10
159.9098077161838
 20
-31.46775032902619
 10
157.2000832281836
 20
-29.90236882962663
  0
LWPOLYLINE
  5
235
330
70
100
AcDbEntity
  8
0
 62
    18
420
        0
370
    25
100
AcDbPolyline
 90
        3
 70
     0
 43
0.0
 10
160.3293529152835
 20
-41.16014153292648
 10
160.0724530545833
 20
-41.3084956234264
 10
159.5287183986832
 20
-41.62249243282626
  0
LINE
  5
236
330
70
100
AcDbEntity
  8
0
 62
    18
420
        0
370
    25
100
AcDbLine
 10
158.5287183746836
 20
-42.19997466392665
 30
0.0
 11
157.2000832281836
 21
-42.96723790482659
 31
0.0
  0
SPLINE
  5
237
330
70
100
AcDbEntity
  8
0
 62
    18
420
        0
370
    25
100
AcDbSpline
210
0.0
220
0.0
230
1.0
 70
     8
 71
     3
 72
     8
 73
     4
 74
     0
 42
0.0000000001
 43
0.0000000001
 40
0.0
 40
0.0
 40
0.0
 40
0.0
 40
1.0
 40
1.0
 40
1.0
 40
1.0
 10
157.1905861520437
 20
-42.96698690073852
 30
0.0
 10
157.1934225155357
 20
-42.9689447970538
 30
0.0
 10
157.1971474038225
 20
-42.96904324441373
 30
0.0
 10
157.2000832281887
 20
-42.96723790479644
 30
0.0
  0
LWPOLYLINE
  5
238
330
70
100
AcDbEntity
  8
0
 62
    18
420
        0
370
    25
100
AcDbPolyline
 90
        3
 70
     0
 43
0.0
 10
157.2000832281836
 20
-29.90236882962663
 10
157.2000697828837
 20
-29.90236037082626
 10
157.1905825986834
 20
-29.89640221022631
  0
SPLINE
  5
239
330
70
100
AcDbEntity
  8
0
 62
    18
420
        0
370
    25
100
AcDbSpline
210
0.0
220
0.0
230
1.0
 70
     8
 71
     3
 72
     8
 73
     4
 74
     0
 42
0.0000000001
 43
0.0000000001
 40
0.0
 40
0.0
 40
0.0
 40
0.0
 40
1.0
 40
1.0
 40
1.0
 40
1.0
 10
168.51935522325
 20
-49.51267996878587
 30
0.0
 10
168.5186799333006
 20
-49.50763608991697
 30
0.0
 10
168.5168388578662
 20
-49.5028188890032
 30
0.0
 10
168.513977974108
 20
-49.49861031743068
 30
0.0
  0
LINE
  5
23A
330
70
100
AcDbEntity
  8
0
 62
    18
420
        0
370
    25
100
AcDbLine
 10
157.2000832281836
 20
-42.96723790482659
 30
0.0
 11
157.2005081814837
 21
-42.97845326662621
 31
0.0
  0
LINE
  5
23B
330
70
100
AcDbEntity
  8
0
 62
    18
420
        0
370
    25
100
AcDbLine
 10
163.0845050079836
 20
-38.62872377212651
 30
0.0
 11
163.0874700038836
 21
-38.68280736342642
 31
0.0
  0
LINE
  5
23C
330
70
100
AcDbEntity
  8
0
 62
    18
420
        0
370
    25
100
AcDbLine
 10
162.3803635457833
 20
-38.27460349402652
 30
0.0
 11
162.3832499373832
 21
-38.22389783682636
 31
0.0
  0
LWPOLYLINE
  5
23D
330
70
100
AcDbEntity
  8
0
 62
    18
420
        0
370
    25
100
AcDbPolyline
 90
        4
 70
     0
 43
0.0
 10
162.8133638730832
 20
-38.12984465432638
 10
162.8131109919837
 20
-38.13013530162627
 10
162.7837978587836
 20
-38.15445841592618
 10
162.7837855659836
 20
-38.15446690892655
  0
SPLINE
  5
23E
330
70
100
AcDbEntity
  8
0
 62
    18
420
        0
370
    25
100
AcDbSpline
210
0.0
220
0.0
230
1.0
 70
     8
 71
     3
 72
     8
 73
     4
 74
     0
 42
0.0000000001
 43
0.0000000001
 40
0.0
 40
0.0
 40
0.0
 40
0.0
 40
1.0
 40
1.0
 40
1.0
 40
1.0
 10
157.4360871269293
 20
-29.49416181066133
 30
0.0
 10
157.2915001021707
 20
-29.57810222486656
 30
0.0
 10
157.1991355953533
 20
-29.72943440759302
 30
0.0
 10
157.1905825986936
 20
-29.89640221021861
 30
0.0
  0
SPLINE
  5
23F
330
70
100
AcDbEntity
  8
0
 62
    18
420
        0
370
    25
100
AcDbSpline
210
0.0
220
0.0
230
1.0
 70
     8
 71
     3
 72
     8
 73
     4
 74
     0
 42
0.0000000001
 43
0.0000000001
 40
0.0
 40
0.0
 40
0.0
 40
0.0
 40
1.0
 40
1.0
 40
1.0
 40
1.0
 10
168.5243214856817
 20
-49.50409035133233
 30
0.0
 10
168.5169408022773
 20
-49.56396077622446
 30
0.0
 10
168.5437163433799
 20
-49.62292088213637
 30
0.0
 10
168.5936539432609
 20
-49.65676136650657
 30
0.0
  0
LWPOLYLINE
  5
240
330
70
100
AcDbEntity
  8
0
 62
    18
420
        0
370
    25
100
AcDbPolyline
 90
        4
 70
     0
 43
0.0
 10
168.5884213544838
 20
-49.65040012272623
 10
168.5759527470832
 20
-49.64589147962623
 10
168.5355846958838
 20
-49.59224810932653
 10
168.5193552232833
 20
-49.5126799688263
  0
LWPOLYLINE
  5
241
330
70
100
AcDbEntity
  8
0
 62
    18
420
        0
370
    25
100
AcDbPolyline
 90
        4
 70
     0
 43
0.0
 10
157.1905861520835
 20
-42.96698690072632
 10
157.1297992835833
 20
-42.9123375258263
 10
157.1035314110834
 20
-42.84852300872655
 10
157.1058571982836
 20
-42.83488258132616
  0
SPLINE
  5
242
330
70
100
AcDbEntity
  8
0
 62
    18
420
        0
370
    25
100
AcDbSpline
210
0.0
220
0.0
230
1.0
 70
     8
 71
     3
 72
     8
 73
     4
 74
     0
 42
0.0000000001
 43
0.0000000001
 40
0.0
 40
0.0
 40
0.0
 40
0.0
 40
1.0
 40
1.0
 40
1.0
 40
1.0
 10
169.9727048632594
 20
-49.04118046745772
 30
0.0
 10
170.0214262101787
 20
-49.0063739197297
 30
0.0
 10
170.0477738826674
 20
-48.94813898420967
 30
0.0
 10
170.0417536939515
 20
-48.88856530933442
 30
0.0
  0
SPLINE
  5
243
330
70
100
AcDbEntity
  8
0
 62
    18
420
        0
370
    25
100
AcDbSpline
210
0.0
220
0.0
230
1.0
 70
     8
 71
     3
 72
     8
 73
     4
 74
     0
 42
0.0000000001
 43
0.0000000001
 40
0.0
 40
0.0
 40
0.0
 40
0.0
 40
1.0
 40
1.0
 40
1.0
 40
1.0
 10
158.492342358578
 20
-28.88439864464786
 30
0.0
 10
158.4437128422411
 20
-28.84956150332457
 30
0.0
 10
158.3802060767796
 20
-28.84327265666964
 30
0.0
 10
158.3256884512103
 20
-28.86789550738062
 30
0.0
  0
SPLINE
  5
244
330
70
100
AcDbEntity
  8
0
 62
    18
420
        0
370
    25
100
AcDbSpline
210
0.0
220
0.0
230
1.0
 70
     8
 71
     3
 72
     8
 73
     4
 74
     0
 42
0.0000000001
 43
0.0000000001
 40
0.0
 40
0.0
 40
0.0
 40
0.0
 40
1.0
 40
1.0
 40
1.0
 40
1.0
 10
185.4802514267217
 20
-52.90128886274963
 30
0.0
 10
185.410393154077
 20
-52.95564322049994
 30
0.0
 10
185.3818215324171
 20
-53.04778146810164
 30
0.0
 10
185.4086704923962
 20
-53.13212426750607
 30
0.0
  0
LINE
  5
245
330
70
100
AcDbEntity
  8
0
 62
    18
420
        0
370
    25
100
AcDbLine
 10
185.4802514266832
 20
-52.90128886272652
 30
0.0
 11
186.5409115665837
 21
-52.2889827973262
 31
0.0
  0
LWPOLYLINE
  5
246
330
70
100
AcDbEntity
  8
0
 62
    18
420
        0
370
    25
100
AcDbPolyline
 90
        6
 70
     0
 43
0.0
 10
186.7050329175833
 20
-52.38375016902645
 10
186.6819973838834
 20
-52.33140426232619
 10
186.6459207345837
 20
-52.29366244732621
 10
186.6021935644837
 20
-52.27630127542666
 10
186.5588300412836
 20
-52.28074734482663
 10
186.5409115665837
 20
-52.2889827973262
  0
SPLINE
  5
247
330
70
100
AcDbEntity
  8
0
 62
    18
420
        0
370
    25
100
AcDbSpline
210
0.0
220
0.0
230
1.0
 70
     8
 71
     3
 72
     8
 73
     4
 74
     0
 42
0.0000000001
 43
0.0000000001
 40
0.0
 40
0.0
 40
0.0
 40
0.0
 40
1.0
 40
1.0
 40
1.0
 40
1.0
 10
186.7050329175178
 20
-54.83337249922726
 30
0.0
 10
186.9595896136018
 20
-54.03667124348484
 30
0.0
 10
186.9595896136018
 20
-53.18045142476822
 30
0.0
 10
186.7050329175178
 20
-52.3837501690258
 30
0.0
  0
SPLINE
  5
248
330
70
100
AcDbEntity
  8
0
 62
    18
420
        0
370
    25
100
AcDbSpline
210
0.0
220
0.0
230
1.0
 70
     8
 71
     3
 72
     8
 73
     4
 74
     0
 42
0.0000000001
 43
0.0000000001
 40
0.0
 40
0.0
 40
0.0
 40
0.0
 40
1.0
 40
1.0
 40
1.0
 40
1.0
 10
186.5409115665817
 20
-55.01078544276477
 30
0.0
 10
186.6122399018768
 20
-54.96952903204927
 30
0.0
 10
186.6694447047676
 20
-54.90769141980273
 30
0.0
 10
186.7050329175679
 20
-54.8333724992587
 30
0.0
  0
LINE
  5
249
330
70
100
AcDbEntity
  8
0
 62
    18
420
        0
370
    25
100
AcDbLine
 10
186.5409115665837
 20
-55.01078544272627
 30
0.0
 11
185.4802514266832
 21
-55.62309150822671
 31
0.0
  0
LWPOLYLINE
  5
24A
330
70
100
AcDbEntity
  8
0
 62
    18
420
        0
370
    25
100
AcDbPolyline
 90
        6
 70
     0
 43
0.0
 10
185.4086704923833
 20
-55.58174659772614
 10
185.4005665533837
 20
-55.61611604172647
 10
185.4080394969834
 20
-55.6373453404265
 10
185.4304754497836
 20
-55.64241539382638
 10
185.4634077240834
 20
-55.63194738172629
 10
185.4802514266832
 20
-55.62309150822671
  0
SPLINE
  5
24B
330
70
100
AcDbEntity
  8
0
 62
    18
420
        0
370
    25
100
AcDbSpline
210
0.0
220
0.0
230
1.0
 70
     8
 71
     3
 72
     8
 73
     4
 74
     0
 42
0.0000000001
 43
0.0000000001
 40
0.0
 40
0.0
 40
0.0
 40
0.0
 40
1.0
 40
1.0
 40
1.0
 40
1.0
 10
185.4086704924193
 20
-55.58174659772806
 30
0.0
 10
185.6632271885033
 20
-54.785045341985
 30
0.0
 10
185.6632271885033
 20
-53.92882552326774
 30
0.0
 10
185.4086704924193
 20
-53.13212426752532
 30
0.0
  0
LWPOLYLINE
  5
24C
330
70
100
AcDbEntity
  8
0
 62
    18
420
        0
370
    25
100
AcDbPolyline
 90
        6
 70
     0
 43
0.0
 10
92.96711375118331
 20
-52.2889827973262
 10
92.92781598568307
 20
-52.27595232372616
 10
92.88827782408318
 20
-52.28043511992617
 10
92.85150737748375
 20
-52.3018828015265
 10
92.82058903568366
 20
-52.34033917242634
 10
92.80299240018305
 20
-52.38375016902645
  0
LINE
  5
24D
330
70
100
AcDbEntity
  8
0
 62
    18
420
        0
370
    25
100
AcDbLine
 10
92.96711375118331
 20
-52.2889827973262
 30
0.0
 11
94.02777389098366
 21
-52.90128886272652
 31
0.0
  0
SPLINE
  5
24E
330
70
100
AcDbEntity
  8
0
 62
    18
420
        0
370
    25
100
AcDbSpline
210
0.0
220
0.0
230
1.0
 70
     8
 71
     3
 72
     8
 73
     4
 74
     0
 42
0.0000000001
 43
0.0000000001
 40
0.0
 40
0.0
 40
0.0
 40
0.0
 40
1.0
 40
1.0
 40
1.0
 40
1.0
 10
94.09935482536308
 20
-53.13212426747142
 30
0.0
 10
94.12906690380573
 20
-53.04781418305127
 30
0.0
 10
94.09997444651025
 20
-52.95399633590367
 30
0.0
 10
94.02777389103819
 20
-52.90128886271562
 30
0.0
  0
SPLINE
  5
24F
330
70
100
AcDbEntity
  8
0
 62
    18
420
        0
370
    25
100
AcDbSpline
210
0.0
220
0.0
230
1.0
 70
     8
 71
     3
 72
     8
 73
     4
 74
     0
 42
0.0000000001
 43
0.0000000001
 40
0.0
 40
0.0
 40
0.0
 40
0.0
 40
1.0
 40
1.0
 40
1.0
 40
1.0
 10
94.09935482534832
 20
-53.13212426752532
 30
0.0
 10
93.84479812926434
 20
-53.92882552326838
 30
0.0
 10
93.84479812926434
 20
-54.785045341985
 30
0.0
 10
94.09935482534832
 20
-55.58174659772742
 30
0.0
  0
LWPOLYLINE
  5
250
330
70
100
AcDbEntity
  8
0
 62
    18
420
        0
370
    25
100
AcDbPolyline
 90
        6
 70
     0
 43
0.0
 10
94.02777389098366
 20
-55.62309150822671
 10
94.06216154858322
 20
-55.6389565266263
 10
94.08793171228344
 20
-55.64242179492639
 10
94.10350936308381
 20
-55.63320850522637
 10
94.10709546718312
 20
-55.61053069192629
 10
94.09935482528352
 20
-55.58174659772678
  0
LINE
  5
251
330
70
100
AcDbEntity
  8
0
 62
    18
420
        0
370
    25
100
AcDbLine
 10
94.02777389098366
 20
-55.62309150822671
 30
0.0
 11
92.96711375118331
 21
-55.01078544272627
 31
0.0
  0
SPLINE
  5
252
330
70
100
AcDbEntity
  8
0
 62
    18
420
        0
370
    25
100
AcDbSpline
210
0.0
220
0.0
230
1.0
 70
     8
 71
     3
 72
     8
 73
     4
 74
     0
 42
0.0000000001
 43
0.0000000001
 40
0.0
 40
0.0
 40
0.0
 40
0.0
 40
1.0
 40
1.0
 40
1.0
 40
1.0
 10
92.80299240016637
 20
-54.83337249925806
 30
0.0
 10
92.838906106366
 20
-54.90746982191644
 30
0.0
 10
92.89603163984846
 20
-54.969221745012
 30
0.0
 10
92.96711375115121
 20
-55.01078544276413
 30
0.0
  0
SPLINE
  5
253
330
70
100
AcDbEntity
  8
0
 62
    18
420
        0
370
    25
100
AcDbSpline
210
0.0
220
0.0
230
1.0
 70
     8
 71
     3
 72
     8
 73
     4
 74
     0
 42
0.0000000001
 43
0.0000000001
 40
0.0
 40
0.0
 40
0.0
 40
0.0
 40
1.0
 40
1.0
 40
1.0
 40
1.0
 10
92.80299240014839
 20
-52.38375016902516
 30
0.0
 10
92.54843570406441
 20
-53.18045142476822
 30
0.0
 10
92.54843570406441
 20
-54.03667124348484
 30
0.0
 10
92.80299240014839
 20
-54.83337249922726
 30
0.0
  0
LINE
  5
254
330
70
100
AcDbEntity
  8
0
 62
    18
420
        0
370
    25
100
AcDbLine
 10
185.4086704923833
 20
-53.1321242675266
 30
0.0
 11
141.9931840605835
 21
-28.06889743622626
 31
0.0
  0
LINE
  5
255
330
70
100
AcDbEntity
  8
0
 62
    18
420
        0
370
    25
100
AcDbLine
 10
141.9931840605835
 20
-30.51851976642644
 30
0.0
 11
185.4086704923833
 21
-55.58174659772614
 31
0.0
  0
LINE
  5
256
330
70
100
AcDbEntity
  8
0
 62
    18
420
        0
370
    25
100
AcDbLine
 10
141.9931840605835
 20
-28.06889743622626
 30
0.0
 11
141.9931840605835
 21
-30.51851976642644
 31
0.0
  0
LWPOLYLINE
  5
257
330
70
100
AcDbEntity
  8
0
 62
    18
420
        0
370
    25
100
AcDbPolyline
 90
       24
 70
     0
 43
0.0
 10
160.4368857767837
 20
-39.94103096742636
 10
160.4740329553837
 20
-39.65038379292659
 10
160.5827191409838
 20
-39.42418167062621
 10
160.7548837487834
 20
-39.27920100982669
 10
160.9777580397837
 20
-39.22619433792644
 10
161.2348116688835
 20
-39.26909245442666
 10
161.5069819675836
 20
-39.40471486422634
 10
161.7740805955834
 20
-39.62300158722659
 10
162.0163020461834
 20
-39.90776543082635
 10
162.2156777130838
 20
-40.23788451312625
 10
162.3574228329833
 20
-40.58887651682621
 10
162.4310252794832
 20
-40.9347102309268
 10
162.4310252794832
 20
-41.24973616612624
 10
162.3574228329833
 20
-41.51059030432626
 10
162.2156777130838
 20
-41.69792687602632
 10
162.0163020461834
 20
-41.79785171332661
 10
161.7740805955834
 20
-41.80295262272664
 10
161.5069819675836
 20
-41.71285383402616
 10
161.2348116688835
 20
-41.53423510582648
 10
160.9777580397837
 20
-41.28034541942621
 10
160.7548837487834
 20
-40.97001356842658
 10
160.5827191409838
 20
-40.62625588252672
 10
160.4740329553837
 20
-40.27456736142638
 10
160.4368857767837
 20
-39.94103096742636
  0
LINE
  5
258
330
70
100
AcDbEntity
  8
0
 62
    18
420
        0
370
    25
100
AcDbLine
 10
137.5148412570833
 20
-28.06889743622626
 30
0.0
 11
94.09935482528352
 21
-53.1321242675266
 31
0.0
  0
LINE
  5
259
330
70
100
AcDbEntity
  8
0
 62
    18
420
        0
370
    25
100
AcDbLine
 10
137.5148412570833
 20
-28.06889743622626
 30
0.0
 11
137.5148412570833
 21
-30.51851976642644
 31
0.0
  0
LINE
  5
25A
330
70
100
AcDbEntity
  8
0
 62
    18
420
        0
370
    25
100
AcDbLine
 10
94.09935482528352
 20
-55.58174659772614
 30
0.0
 11
137.5148412570833
 21
-30.51851976642644
 31
0.0
  0
LWPOLYLINE
  5
25B
330
70
100
AcDbEntity
  8
0
 62
    18
420
        0
370
    25
100
AcDbPolyline
 90
       24
 70
     0
 43
0.0
 10
117.0676697796835
 20
-41.09760944212619
 10
117.1048169582834
 20
-40.76407304812616
 10
117.2135031438835
 20
-40.41238452702647
 10
117.3856677516837
 20
-40.0686268411266
 10
117.6085420427835
 20
-39.75829499012634
 10
117.8655956717832
 20
-39.50440530372672
 10
118.1377659705834
 20
-39.32578657552639
 10
118.4048645984832
 20
-39.23568778682655
 10
118.6470860491832
 20
-39.24078869622658
 10
118.8464617159835
 20
-39.34071353352623
 10
118.9882068358837
 20
-39.52805010522629
 10
119.0618092823836
 20
-39.7889042434263
 10
119.0618092823836
 20
-40.10393017862639
 10
118.9882068358837
 20
-40.44976389262623
 10
118.8464617159835
 20
-40.80075589632619
 10
118.6470860491832
 20
-41.13087497872619
 10
118.4048645984832
 20
-41.41563882232659
 10
118.1377659705834
 20
-41.63392554522675
 10
117.8655956717832
 20
-41.76954795512653
 10
117.6085420427835
 20
-41.81244607162676
 10
117.3856677516837
 20
-41.75943939972651
 10
117.2135031438835
 20
-41.61445873892634
 10
117.1048169582834
 20
-41.3882566166266
 10
117.0676697796835
 20
-41.09760944212619
  0
LINE
  5
25C
330
70
100
AcDbEntity
  8
0
 62
    18
420
        0
370
    25
100
AcDbLine
 10
94.02777389098366
 20
-52.90128886272652
 30
0.0
 11
137.3969901075835
 21
-27.86477325812642
 31
0.0
  0
SPLINE
  5
25D
330
70
100
AcDbEntity
  8
0
 62
    18
420
        0
370
    25
100
AcDbSpline
210
0.0
220
0.0
230
1.0
 70
     8
 71
     3
 72
     8
 73
     4
 74
     0
 42
0.0000000001
 43
0.0000000001
 40
0.0
 40
0.0
 40
0.0
 40
0.0
 40
1.0
 40
1.0
 40
1.0
 40
1.0
 10
137.5148412571135
 20
-28.06889743621022
 30
0.0
 10
137.5110575945087
 20
-27.98574905519469
 30
0.0
 10
137.4671068866527
 20
-27.90962419638336
 30
0.0
 10
137.3969901075982
 20
-27.86477325811872
 30
0.0
  0
LINE
  5
25E
330
70
100
AcDbEntity
  8
0
 62
    18
420
        0
370
    25
100
AcDbLine
 10
142.1110352100833
 20
-27.86477325812642
 30
0.0
 11
185.4802514266832
 21
-52.90128886272652
 31
0.0
  0
SPLINE
  5
25F
330
70
100
AcDbEntity
  8
0
 62
    18
420
        0
370
    25
100
AcDbSpline
210
0.0
220
0.0
230
1.0
 70
     8
 71
     3
 72
     8
 73
     4
 74
     0
 42
0.0000000001
 43
0.0000000001
 40
0.0
 40
0.0
 40
0.0
 40
0.0
 40
1.0
 40
1.0
 40
1.0
 40
1.0
 10
142.1110352101687
 20
-27.86477325811872
 30
0.0
 10
142.0409184311136
 20
-27.90962419638272
 30
0.0
 10
141.9969677232576
 20
-27.98574905519469
 30
0.0
 10
141.9931840606534
 20
-28.06889743621022
 30
0.0
  0
LINE
  5
260
330
70
100
AcDbEntity
  8
0
 62
    18
420
        0
370
    25
100
AcDbLine
 10
186.5409115665837
 20
-52.2889827973262
 30
0.0
 11
143.1716953499838
 21
-27.25246719272673
 31
0.0
  0
LINE
  5
261
330
70
100
AcDbEntity
  8
0
 62
    18
420
        0
370
    25
100
AcDbLine
 10
143.1716953499838
 20
-27.25246719272673
 30
0.0
 11
142.1110352100833
 21
-27.86477325812642
 31
0.0
  0
LINE
  5
262
330
70
100
AcDbEntity
  8
0
 62
    18
420
        0
370
    25
100
AcDbLine
 10
136.3363299677837
 20
-27.25246719272673
 30
0.0
 11
92.96711375118331
 21
-52.2889827973262
 31
0.0
  0
LINE
  5
263
330
70
100
AcDbEntity
  8
0
 62
    18
420
        0
370
    25
100
AcDbLine
 10
137.3969901075835
 20
-27.86477325812642
 30
0.0
 11
136.3363299677837
 21
-27.25246719272673
 31
0.0
  0
LWPOLYLINE
  5
264
330
70
100
AcDbEntity
  8
0
 62
    18
420
        0
370
    25
100
AcDbPolyline
 90
       12
 70
     0
 43
0.0
 10
160.6725882952837
 20
-39.94103109412662
 10
160.7083920430835
 20
-40.24925782482643
 10
160.8129021784838
 20
-40.57385169852673
 10
160.9776506970832
 20
-40.8885153404263
 10
161.1892928529832
 20
-41.16775786072676
 10
161.4306819033837
 20
-41.3889562103264
 10
161.6822617104833
 20
-41.53419014152624
 10
161.9236507608837
 20
-41.59169365722638
 10
162.1352929167838
 20
-41.55680796882641
 10
162.3000414353832
 20
-41.43235891762645
 10
162.4045515706834
 20
-41.22842987782635
 10
162.4385113938838
 20
-41.02638057712664
  0
LWPOLYLINE
  5
265
330
70
100
AcDbEntity
  8
0
 62
    18
420
        0
370
    25
100
AcDbPolyline
 90
        7
 70
     0
 43
0.0
 10
161.4995445854835
 20
-39.39986596342622
 10
161.4306819033837
 20
-39.36838222702652
 10
161.1892928529832
 20
-39.31087871132639
 10
160.9776506970832
 20
-39.34576439972634
 10
160.8129021784838
 20
-39.47021345092632
 10
160.7083920430835
 20
-39.67414249072641
 10
160.6725882952837
 20
-39.94103109412662
  0
LWPOLYLINE
  5
266
330
70
100
AcDbEntity
  8
0
 62
    18
420
        0
370
    25
100
AcDbPolyline
 90
       18
 70
     0
 43
0.0
 10
117.0695139237837
 20
-41.02638057712664
 10
117.1034737469835
 20
-41.22842987782635
 10
117.2079838823838
 20
-41.43235891762645
 10
117.3727324009832
 20
-41.55680796882641
 10
117.5843745568832
 20
-41.59169365722638
 10
117.8257636072836
 20
-41.53419014152624
 10
118.0773434143832
 20
-41.3889562103264
 10
118.3187324647837
 20
-41.16775786072676
 10
118.5303746206837
 20
-40.8885153404263
 10
118.6951231392838
 20
-40.57385169852673
 10
118.7996332745834
 20
-40.24925782482643
 10
118.8354370223838
 20
-39.94103109412662
 10
118.7996332745834
 20
-39.67414249072641
 10
118.6951231392838
 20
-39.47021345092632
 10
118.5303746206837
 20
-39.34576439972634
 10
118.3187324647837
 20
-39.31087871132639
 10
118.0773434143832
 20
-39.36838222702652
 10
118.0084807322834
 20
-39.39986596342622
  0
SPLINE
  5
267
330
70
100
AcDbEntity
  8
0
 62
    18
420
        0
370
    25
100
AcDbSpline
210
0.0
220
0.0
230
1.0
 70
     8
 71
     3
 72
     8
 73
     4
 74
     0
 42
0.0000000001
 43
0.0000000001
 40
0.0
 40
0.0
 40
0.0
 40
0.0
 40
1.0
 40
1.0
 40
1.0
 40
1.0
 10
161.973878608974
 20
-39.85053193492321
 30
0.0
 10
162.0507537345672
 20
-40.04471981314102
 30
0.0
 10
162.1557306505611
 20
-40.22656509662147
 30
0.0
 10
162.2854491865897
 20
-40.39024716158984
 30
0.0
  0
SPLINE
  5
268
330
70
100
AcDbEntity
  8
0
 62
    18
420
        0
370
    25
100
AcDbSpline
210
0.0
220
0.0
230
1.0
 70
     8
 71
     3
 72
     8
 73
     4
 74
     0
 42
0.0000000001
 43
0.0000000001
 40
0.0
 40
0.0
 40
0.0
 40
0.0
 40
1.0
 40
1.0
 40
1.0
 40
1.0
 10
117.2331058187502
 20
-40.3768714172797
 30
0.0
 10
117.3579947699084
 20
-40.21664875008744
 30
0.0
 10
117.4593648452382
 20
-40.039413448335
 30
0.0
 10
117.5341467087146
 20
-39.85053193494952
 30
0.0
  0
SPLINE
  5
269
330
70
100
AcDbEntity
  8
0
 62
    18
420
        0
370
    25
100
AcDbSpline
210
0.0
220
0.0
230
1.0
 70
     8
 71
     3
 72
     8
 73
     4
 74
     0
 42
0.0000000001
 43
0.0000000001
 40
0.0
 40
0.0
 40
0.0
 40
0.0
 40
1.0
 40
1.0
 40
1.0
 40
1.0
 10
143.1716953499973
 20
-27.25246719271005
 30
0.0
 10
141.0307943474965
 20
-26.13280492006977
 30
0.0
 10
138.4772309702705
 20
-26.13280492006977
 30
0.0
 10
136.3363299677696
 20
-27.25246719271005
 30
0.0
  0
SPLINE
  5
26A
330
70
100
AcDbEntity
  8
0
 62
    18
420
        0
370
    25
100
AcDbSpline
210
0.0
220
0.0
230
1.0
 70
     8
 71
     3
 72
     8
 73
     4
 74
     0
 42
0.0000000001
 43
0.0000000001
 40
0.0
 40
0.0
 40
0.0
 40
0.0
 40
1.0
 40
1.0
 40
1.0
 40
1.0
 10
142.1110352101527
 20
-27.86477325811166
 30
0.0
 10
140.6339134499945
 20
-27.09519460548996
 30
0.0
 10
138.8741118677724
 20
-27.09519460548996
 30
0.0
 10
137.3969901076143
 20
-27.86477325811166
 30
0.0
  0
SPLINE
  5
26B
330
70
100
AcDbEntity
  8
0
 62
    18
420
        0
370
    25
100
AcDbSpline
210
0.0
220
0.0
230
1.0
 70
     8
 71
     3
 72
     8
 73
     4
 74
     0
 42
0.0000000001
 43
0.0000000001
 40
0.0
 40
0.0
 40
0.0
 40
0.0
 40
1.0
 40
1.0
 40
1.0
 40
1.0
 10
141.9931840606419
 20
-28.06889743616466
 30
0.0
 10
140.5890474920157
 20
-27.3413629164723
 30
0.0
 10
138.9189778257513
 20
-27.3413629164723
 30
0.0
 10
137.5148412571251
 20
-28.06889743616466
 30
0.0
  0
SPLINE
  5
26C
330
70
100
AcDbEntity
  8
0
 62
    18
420
        0
370
    25
100
AcDbSpline
210
0.0
220
0.0
230
1.0
 70
     8
 71
     3
 72
     8
 73
     4
 74
     0
 42
0.0000000001
 43
0.0000000001
 40
0.0
 40
0.0
 40
0.0
 40
0.0
 40
1.0
 40
1.0
 40
1.0
 40
1.0
 10
141.9931840606419
 20
-30.5185197664643
 30
0.0
 10
140.5890474920157
 20
-29.79098524677194
 30
0.0
 10
138.9189778257513
 20
-29.79098524677194
 30
0.0
 10
137.5148412571251
 20
-30.5185197664643
 30
0.0
  0
SPLINE
  5
26D
330
70
100
AcDbEntity
  8
0
 62
    18
420
        0
370
    25
100
AcDbSpline
210
0.0
220
0.0
230
1.0
 70
     8
 71
     3
 72
     8
 73
     4
 74
     0
 42
0.0000000001
 43
0.0000000001
 40
0.0
 40
0.0
 40
0.0
 40
0.0
 40
1.0
 40
1.0
 40
1.0
 40
1.0
 10
141.9247551398269
 20
-30.48693635233789
 30
0.0
 10
140.6797409432327
 20
-29.92366466056732
 30
0.0
 10
139.2651565829949
 20
-29.86358317076975
 30
0.0
 10
137.9768647789008
 20
-30.319258028508
 30
0.0
  0
SPLINE
  5
26E
330
70
100
AcDbEntity
  8
0
 62
    18
420
        0
370
    25
100
AcDbSpline
210
0.0
220
0.0
230
1.0
 70
     8
 71
     3
 72
     8
 73
     4
 74
     0
 42
0.0000000001
 43
0.0000000001
 40
0.0
 40
0.0
 40
0.0
 40
0.0
 40
1.0
 40
1.0
 40
1.0
 40
1.0
 10
110.9837038319569
 20
-36.43923040171066
 30
0.0
 10
110.9770174913067
 20
-36.27372899552338
 30
0.0
 10
110.8936731983546
 20
-36.1207706265131
 30
0.0
 10
110.7582295934753
 20
-36.02542676200913
 30
0.0
  0
SPLINE
  5
26F
330
70
100
AcDbEntity
  8
0
 62
    18
420
        0
370
    25
100
AcDbSpline
210
0.0
220
0.0
230
1.0
 70
     8
 71
     3
 72
     8
 73
     4
 74
     0
 42
0.0000000001
 43
0.0000000001
 40
0.0
 40
0.0
 40
0.0
 40
0.0
 40
1.0
 40
1.0
 40
1.0
 40
1.0
 10
110.5225268554796
 20
-36.43367537168635
 30
0.0
 10
110.6668074468198
 20
-36.50801929065536
 30
0.0
 10
110.8376743673154
 20
-36.51007743954419
 30
0.0
 10
110.9837038320211
 20
-36.43923040175879
 30
0.0
  0
SPLINE
  5
270
330
70
100
AcDbEntity
  8
0
 62
    18
420
        0
370
    25
100
AcDbSpline
210
0.0
220
0.0
230
1.0
 70
     8
 71
     3
 72
     8
 73
     4
 74
     0
 42
0.0000000001
 43
0.0000000001
 40
0.0
 40
0.0
 40
0.0
 40
0.0
 40
1.0
 40
1.0
 40
1.0
 40
1.0
 10
110.7582295934805
 20
-36.02542676199372
 30
0.0
 10
110.6179963308072
 20
-36.1151290998276
 30
0.0
 10
110.5300949066948
 20
-36.26737864293379
 30
0.0
 10
110.5225268554206
 20
-36.43367537162346
 30
0.0
  0
LWPOLYLINE
  5
271
330
70
100
AcDbEntity
  8
0
 62
    18
420
        0
370
    25
100
AcDbPolyline
 90
        4
 70
     0
 43
0.0
 10
110.7582295934837
 20
-36.02542676202645
 10
114.5084872353836
 20
-33.86176436852622
 10
118.2576152538834
 20
-31.69744985732631
 10
122.0719381908832
 20
-29.49416181072678
  0
SPLINE
  5
272
330
70
100
AcDbEntity
  8
0
 62
    18
420
        0
370
    25
100
AcDbSpline
210
0.0
220
0.0
230
1.0
 70
     8
 71
     3
 72
     8
 73
     4
 74
     0
 42
0.0000000001
 43
0.0000000001
 40
0.0
 40
0.0
 40
0.0
 40
0.0
 40
1.0
 40
1.0
 40
1.0
 40
1.0
 10
122.3075171362127
 20
-29.89067093751141
 30
0.0
 10
122.2958490153374
 20
-29.72876658626076
 30
0.0
 10
122.2085507665602
 20
-29.58183260480277
 30
0.0
 10
122.0719381908005
 20
-29.49416181067609
 30
0.0
  0
LWPOLYLINE
  5
273
330
70
100
AcDbEntity
  8
0
 62
    18
420
        0
370
    25
100
AcDbPolyline
 90
        7
 70
     0
 43
0.0
 10
122.3075171362833
 20
-29.89067093752617
 10
121.8362820859832
 20
-30.16268791202675
 10
119.9512597313836
 20
-31.25080318742633
 10
116.1805060715834
 20
-33.4275309417263
 10
114.7438776174837
 20
-34.25690833032652
 10
110.9936294284838
 20
-36.42203930292671
 10
110.9886700944836
 20
-36.42490270952663
  0
SPLINE
  5
274
330
70
100
AcDbEntity
  8
0
 62
    18
420
        0
370
    25
100
AcDbSpline
210
0.0
220
0.0
230
1.0
 70
     8
 71
     3
 72
     8
 73
     4
 74
     0
 42
0.0000000001
 43
0.0000000001
 40
0.0
 40
0.0
 40
0.0
 40
0.0
 40
1.0
 40
1.0
 40
1.0
 40
1.0
 10
110.988670094483
 20
-36.42490270947208
 30
0.0
 10
110.9800025439427
 20
-36.26260118081162
 30
0.0
 10
110.8943874175646
 20
-36.11418463258273
 30
0.0
 10
110.7582295935113
 20
-36.02542676201875
 30
0.0
  0
SPLINE
  5
275
330
70
100
AcDbEntity
  8
0
 62
    18
420
        0
370
    25
100
AcDbSpline
210
0.0
220
0.0
230
1.0
 70
     8
 71
     3
 72
     8
 73
     4
 74
     0
 42
0.0000000001
 43
0.0000000001
 40
0.0
 40
0.0
 40
0.0
 40
0.0
 40
1.0
 40
1.0
 40
1.0
 40
1.0
 10
110.9886700944688
 20
-36.4249027095016
 30
0.0
 10
110.9887231733095
 20
-36.42860714688552
 30
0.0
 10
110.9907819488168
 20
-36.43199113641739
 30
0.0
 10
110.9940473436115
 20
-36.43374124228076
 30
0.0
  0
LWPOLYLINE
  5
276
330
70
100
AcDbEntity
  8
0
 62
    18
420
        0
370
    25
100
AcDbPolyline
 90
        3
 70
     0
 43
0.0
 10
110.9940473435832
 20
-36.43374124222622
 10
110.9940326909837
 20
-36.43374900402657
 10
110.9837038319832
 20
-36.4392304017267
  0
SPLINE
  5
277
330
70
100
AcDbEntity
  8
0
 62
    18
420
        0
370
    25
100
AcDbSpline
210
0.0
220
0.0
230
1.0
 70
     8
 71
     3
 72
     8
 73
     4
 74
     0
 42
0.0000000001
 43
0.0000000001
 40
0.0
 40
0.0
 40
0.0
 40
0.0
 40
1.0
 40
1.0
 40
1.0
 40
1.0
 10
110.5225268554938
 20
-49.49832847541528
 30
0.0
 10
110.6648677160662
 20
-49.57828289242694
 30
0.0
 10
110.8375596588288
 20
-49.5825834024578
 30
0.0
 10
110.983703790876
 20
-49.50981306470673
 30
0.0
  0
SPLINE
  5
278
330
70
100
AcDbEntity
  8
0
 62
    18
420
        0
370
    25
100
AcDbSpline
210
0.0
220
0.0
230
1.0
 70
     8
 71
     3
 72
     8
 73
     4
 74
     0
 42
0.0000000001
 43
0.0000000001
 40
0.0
 40
0.0
 40
0.0
 40
0.0
 40
1.0
 40
1.0
 40
1.0
 40
1.0
 10
110.9837037908124
 20
-49.50981306465924
 30
0.0
 10
110.9880232475413
 20
-49.50698955771332
 30
0.0
 10
110.9915767460635
 20
-49.5031408853546
 30
0.0
 10
110.9940473436038
 20
-49.4986103174326
 30
0.0
  0
LWPOLYLINE
  5
279
330
70
100
AcDbEntity
  8
0
 62
    18
420
        0
370
    25
100
AcDbPolyline
 90
        6
 70
     0
 43
0.0
 10
115.6635604563837
 20
-39.13024822462632
 10
115.4622733103834
 20
-39.01400966982675
 10
114.7903745246837
 20
-38.62600710382645
 10
114.0626726975832
 20
-38.20577942812678
 10
113.3272215869832
 20
-37.78107820852618
 10
110.9940473435832
 20
-36.43374124222622
  0
LWPOLYLINE
  5
27A
330
70
100
AcDbEntity
  8
0
 62
    18
420
        0
370
    25
100
AcDbPolyline
 90
        3
 70
     0
 43
0.0
 10
113.8126405541832
 20
-44.82890201592624
 10
113.3272251746834
 20
-45.6417656664264
 10
110.9940473435832
 20
-49.49861031742618
  0
LWPOLYLINE
  5
27B
330
70
100
AcDbEntity
  8
0
 62
    18
420
        0
370
    25
100
AcDbPolyline
 90
       11
 70
     0
 43
0.0
 10
116.4205553938834
 20
-38.68280740962618
 10
116.4405853602833
 20
-38.53621972192625
 10
116.4982165253835
 20
-38.3831461914265
 10
116.5869519525833
 20
-38.2408483625262
 10
116.6967889840832
 20
-38.1253650939265
 10
116.8153424285836
 20
-38.04971919712658
 10
116.9292489021833
 20
-38.02243878172664
 10
117.0256621524837
 20
-38.04659819342629
 10
117.0937163373832
 20
-38.11947492312627
 10
117.1257376799835
 20
-38.23285158772621
 10
117.1276617489832
 20
-38.27460348082678
  0
LINE
  5
27C
330
70
100
AcDbEntity
  8
0
 62
    18
420
        0
370
    25
100
AcDbLine
 10
122.3079420894833
 20
-29.90236882962663
 30
0.0
 11
122.3075171362833
 21
-29.89067093752617
 31
0.0
  0
SPLINE
  5
27D
330
70
100
AcDbEntity
  8
0
 62
    18
420
        0
370
    25
100
AcDbSpline
210
0.0
220
0.0
230
1.0
 70
     8
 71
     3
 72
     8
 73
     4
 74
     0
 42
0.0000000001
 43
0.0000000001
 40
0.0
 40
0.0
 40
0.0
 40
0.0
 40
1.0
 40
1.0
 40
1.0
 40
1.0
 10
117.8836474577953
 20
-37.84861927890542
 30
0.0
 10
119.3879960800905
 20
-35.21644924741331
 30
0.0
 10
120.8628532294238
 20
-32.56753337242685
 30
0.0
 10
122.3079420893613
 20
-29.902368829857
 30
0.0
  0
SPLINE
  5
27E
330
70
100
AcDbEntity
  8
0
 62
    18
420
        0
370
    25
100
AcDbSpline
210
0.0
220
0.0
230
1.0
 70
     8
 71
     3
 72
     8
 73
     4
 74
     0
 42
0.0000000001
 43
0.0000000001
 40
0.0
 40
0.0
 40
0.0
 40
0.0
 40
1.0
 40
1.0
 40
1.0
 40
1.0
 10
109.7019743618804
 20
-35.41566359599308
 30
0.0
 10
109.5617410992072
 20
-35.50536593382761
 30
0.0
 10
109.4738396750948
 20
-35.65761547693379
 30
0.0
 10
109.4662716238206
 20
-35.82391220562282
 30
0.0
  0
LINE
  5
27F
330
70
100
AcDbEntity
  8
0
 62
    18
420
        0
370
    25
100
AcDbLine
 10
109.7019743618837
 20
-35.41566359592635
 30
0.0
 11
110.7582295934837
 21
-36.02542676202645
 31
0.0
  0
LINE
  5
280
330
70
100
AcDbEntity
  8
0
 62
    18
420
        0
370
    25
100
AcDbLine
 10
110.5225268554835
 20
-36.43367537162667
 30
0.0
 11
109.4662716237834
 21
-35.82391220562667
 31
0.0
  0
LINE
  5
281
330
70
100
AcDbEntity
  8
0
 62
    18
420
        0
370
    25
100
AcDbLine
 10
109.4662716237834
 20
-35.82391220562667
 30
0.0
 11
109.4662716237834
 21
-42.70786691232618
 31
0.0
  0
LINE
  5
282
330
70
100
AcDbEntity
  8
0
 62
    18
420
        0
370
    25
100
AcDbLine
 10
109.4662716237834
 20
-46.76699146112624
 30
0.0
 11
109.4662716237834
 21
-48.88856530932672
 31
0.0
  0
LINE
  5
283
330
70
100
AcDbEntity
  8
0
 62
    18
420
        0
370
    25
100
AcDbLine
 10
109.4662716237834
 20
-48.88856530932672
 30
0.0
 11
110.5225268554835
 21
-49.49832847542618
 31
0.0
  0
LINE
  5
284
330
70
100
AcDbEntity
  8
0
 62
    18
420
        0
370
    25
100
AcDbLine
 10
121.0156829591837
 20
-28.88439864462668
 30
0.0
 11
109.7019743618837
 21
-35.41566359592635
 31
0.0
  0
LINE
  5
285
330
70
100
AcDbEntity
  8
0
 62
    18
420
        0
370
    25
100
AcDbLine
 10
122.0719381908832
 20
-29.49416181072678
 30
0.0
 11
121.0156829591837
 21
-28.88439864462668
 31
0.0
  0
SPLINE
  5
286
330
70
100
AcDbEntity
  8
0
 62
    18
420
        0
370
    25
100
AcDbSpline
210
0.0
220
0.0
230
1.0
 70
     8
 71
     3
 72
     8
 73
     4
 74
     0
 42
0.0000000001
 43
0.0000000001
 40
0.0
 40
0.0
 40
0.0
 40
0.0
 40
1.0
 40
1.0
 40
1.0
 40
1.0
 10
122.3174391657001
 20
-29.89067742185518
 30
0.0
 10
122.3134084261951
 20
-29.89378407879679
 30
0.0
 10
122.3101568071271
 20
-29.89778699547705
 30
0.0
 10
122.3079420895551
 20
-29.90236882964909
 30
0.0
  0
LINE
  5
287
330
70
100
AcDbEntity
  8
0
 62
    18
420
        0
370
    25
100
AcDbLine
 10
122.3079420894833
 20
-42.96723790482659
 30
0.0
 11
122.3174427190836
 21
-42.96126215992627
 31
0.0
  0
LWPOLYLINE
  5
288
330
70
100
AcDbEntity
  8
0
 62
    18
420
        0
370
    25
100
AcDbPolyline
 90
        3
 70
     0
 43
0.0
 10
119.1786724041833
 20
-41.16014153392625
 10
119.4355688331835
 20
-41.3084936427267
 10
119.9793069224835
 20
-41.62249243482643
  0
LINE
  5
289
330
70
100
AcDbEntity
  8
0
 62
    18
420
        0
370
    25
100
AcDbLine
 10
120.9793069292836
 20
-42.19997465602669
 30
0.0
 11
122.3079420894833
 21
-42.96723790482659
 31
0.0
  0
LWPOLYLINE
  5
28A
330
70
100
AcDbEntity
  8
0
 62
    18
420
        0
370
    25
100
AcDbPolyline
 90
        3
 70
     0
 43
0.0
 10
110.9940473435832
 20
-49.49861031742618
 10
110.9940467399838
 20
-49.49862619222621
 10
110.9936294284838
 20
-49.50982163202675
  0
SPLINE
  5
28B
330
70
100
AcDbEntity
  8
0
 62
    18
420
        0
370
    25
100
AcDbSpline
210
0.0
220
0.0
230
1.0
 70
     8
 71
     3
 72
     8
 73
     4
 74
     0
 42
0.0000000001
 43
0.0000000001
 40
0.0
 40
0.0
 40
0.0
 40
0.0
 40
1.0
 40
1.0
 40
1.0
 40
1.0
 10
116.6944278808256
 20
-38.12957162629113
 30
0.0
 10
116.703351553084
 20
-38.13901356720998
 30
0.0
 10
116.7133580019534
 20
-38.14736974767765
 30
0.0
 10
116.7242397516717
 20
-38.15446690893746
 30
0.0
  0
SPLINE
  5
28C
330
70
100
AcDbEntity
  8
0
 62
    18
420
        0
370
    25
100
AcDbSpline
210
0.0
220
0.0
230
1.0
 70
     8
 71
     3
 72
     8
 73
     4
 74
     0
 42
0.0000000001
 43
0.0000000001
 40
0.0
 40
0.0
 40
0.0
 40
0.0
 40
1.0
 40
1.0
 40
1.0
 40
1.0
 10
110.5225268554739
 20
-49.49832847536587
 30
0.0
 10
110.6675182758587
 20
-49.58156205308032
 30
0.0
 10
110.8447517313667
 20
-49.58588589247057
 30
0.0
 10
110.9936294285588
 20
-49.50982163198569
 30
0.0
  0
SPLINE
  5
28D
330
70
100
AcDbEntity
  8
0
 62
    18
420
        0
370
    25
100
AcDbSpline
210
0.0
220
0.0
230
1.0
 70
     8
 71
     3
 72
     8
 73
     4
 74
     0
 42
0.0000000001
 43
0.0000000001
 40
0.0
 40
0.0
 40
0.0
 40
0.0
 40
1.0
 40
1.0
 40
1.0
 40
1.0
 10
122.30751713623
 20
-29.89067093752617
 30
0.0
 10
122.3630454815914
 20
-29.86713652638938
 30
0.0
 10
122.4007135404231
 20
-29.81448295535658
 30
0.0
 10
122.4050548904499
 20
-29.75432966512196
 30
0.0
  0
LWPOLYLINE
  5
28E
330
70
100
AcDbEntity
  8
0
 62
    18
420
        0
370
    25
100
AcDbPolyline
 90
        4
 70
     0
 43
0.0
 10
122.3174391656835
 20
-29.8906774218263
 10
122.3782260341836
 20
-29.83684833282652
 10
122.4044939065834
 20
-29.77507489822667
 10
122.4014297538835
 20
-29.75793200712669
  0
SPLINE
  5
28F
330
70
100
AcDbEntity
  8
0
 62
    18
420
        0
370
    25
100
AcDbSpline
210
0.0
220
0.0
230
1.0
 70
     8
 71
     3
 72
     8
 73
     4
 74
     0
 42
0.0000000001
 43
0.0000000001
 40
0.0
 40
0.0
 40
0.0
 40
0.0
 40
1.0
 40
1.0
 40
1.0
 40
1.0
 10
109.4662716237744
 20
-48.8885653093479
 30
0.0
 10
109.4611856934453
 20
-48.94798254303402
 30
0.0
 10
109.4873333781972
 20
-49.0057754557162
 30
0.0
 10
109.5353204544658
 20
-49.04118046747118
 30
0.0
  0
SPLINE
  5
290
330
70
100
AcDbEntity
  8
0
 62
    18
420
        0
370
    25
100
AcDbSpline
210
0.0
220
0.0
230
1.0
 70
     8
 71
     3
 72
     8
 73
     4
 74
     0
 42
0.0000000001
 43
0.0000000001
 40
0.0
 40
0.0
 40
0.0
 40
0.0
 40
1.0
 40
1.0
 40
1.0
 40
1.0
 10
121.1823368665567
 20
-28.86789550738062
 30
0.0
 10
121.1278192409873
 20
-28.84327265666964
 30
0.0
 10
121.0643124755259
 20
-28.84956150332457
 30
0.0
 10
121.0156829591889
 20
-28.88439864464786
 30
0.0
  0
SPLINE
  5
291
330
70
100
AcDbEntity
  8
0
 62
    18
420
        0
370
    25
100
AcDbSpline
210
0.0
220
0.0
230
1.0
 70
     8
 71
     3
 72
     8
 73
     4
 74
     0
 42
0.0000000001
 43
0.0000000001
 40
0.0
 40
0.0
 40
0.0
 40
0.0
 40
1.0
 40
1.0
 40
1.0
 40
1.0
 10
122.3124728620668
 20
-42.97558777699999
 30
0.0
 10
122.3127505584927
 20
-42.97215259573474
 30
0.0
 10
122.3109734587315
 20
-42.96887753481951
 30
0.0
 10
122.3079420895712
 20
-42.96723790478681
 30
0.0
  0
LWPOLYLINE
  5
292
330
70
100
AcDbEntity
  8
0
 62
    18
420
        0
370
    25
100
AcDbPolyline
 90
        4
 70
     0
 43
0.0
 10
122.3124728619834
 20
-42.97558777702629
 10
122.2955339173836
 20
-43.05556548692638
 10
122.2533956985834
 20
-43.11023075332664
 10
122.2406785592833
 20
-43.11494411272627
  0
LWPOLYLINE
  5
293
330
70
100
AcDbEntity
  8
0
 62
     8
420
  8421504
370
    25
100
AcDbPolyline
 90
        3
 70
     0
 43
0.0
 10
168.9854984622834
 20
-36.43367537162667
 10
168.9843592899832
 20
-40.76367688552617
 10
168.9843563539836
 20
-42.0974444325262
  0
LINE
  5
294
330
70
100
AcDbEntity
  8
0
 62
     8
420
  8421504
370
    25
100
AcDbLine
 10
168.9846270980836
 20
-46.15672510762659
 30
0.0
 11
168.9854984622834
 21
-49.49832847542618
 31
0.0
  0
LWPOLYLINE
  5
295
330
70
100
AcDbEntity
  8
0
 62
     8
420
  8421504
370
    25
100
AcDbPolyline
 90
        4
 70
     0
 43
0.0
 10
168.5243214856836
 20
-49.50409035132655
 10
168.5243389645837
 20
-48.9599345531262
 10
168.5244137642835
 20
-46.78322414302657
 10
168.5244271546834
 20
-45.89105729752642
  0
LWPOLYLINE
  5
296
330
70
100
AcDbEntity
  8
0
 62
     8
420
  8421504
370
    25
100
AcDbPolyline
 90
        4
 70
     0
 43
0.0
 10
168.5244742542835
 20
-41.83196011542635
 10
168.5244579141836
 20
-40.76995741462638
 10
168.5243214719833
 20
-36.43923040962665
 10
168.5243215268832
 20
-36.43350358572649
  0
LWPOLYLINE
  5
297
330
70
100
AcDbEntity
  8
0
 62
     8
420
  8421504
370
    25
100
AcDbPolyline
 90
        3
 70
     0
 43
0.0
 10
163.0845050079836
 20
-38.62872377212651
 10
163.3733776734832
 20
-38.8253246450266
 10
163.5378405990834
 20
-38.95323782462661
  0
LWPOLYLINE
  5
298
330
70
100
AcDbEntity
  8
0
 62
     8
420
  8421504
370
    25
100
AcDbPolyline
 90
        3
 70
     0
 43
0.0
 10
161.9466448449832
 20
-38.03466005722671
 10
162.0970155546837
 20
-38.08811183292617
 10
162.3832499373832
 20
-38.22389783682636
  0
LWPOLYLINE
  5
299
330
70
100
AcDbEntity
  8
0
 62
     8
420
  8421504
370
    25
100
AcDbPolyline
 90
        4
 70
     0
 43
0.0
 10
157.1905825986834
 20
-29.89640221022631
 10
157.1902277803835
 20
-30.44075275042657
 10
157.1889609053837
 20
-32.61815133092621
 10
157.1883258077834
 20
-35.28774100222668
  0
LWPOLYLINE
  5
29A
330
70
100
AcDbEntity
  8
0
 62
     8
420
  8421504
370
    25
100
AcDbPolyline
 90
        3
 70
     0
 43
0.0
 10
157.1886590724835
 20
-39.34705766892676
 10
157.1905825848836
 20
-42.96126216782623
 10
157.1905861520835
 20
-42.96698690072632
  0
LWPOLYLINE
  5
29B
330
70
100
AcDbEntity
  8
0
 62
     8
420
  8421504
370
    25
100
AcDbPolyline
 90
        3
 70
     0
 43
0.0
 10
157.2005081814837
 20
-42.97845326662621
 10
157.6717432317837
 20
-43.25090218402651
 10
158.5287180796837
 20
-43.74628793792637
  0
LWPOLYLINE
  5
29C
330
70
100
AcDbEntity
  8
0
 62
     8
420
  8421504
370
    25
100
AcDbPolyline
 90
        4
 70
     0
 43
0.0
 10
159.5287186970835
 20
-44.32435122312673
 10
159.5567655863833
 20
-44.3405637340263
 10
163.3275192460834
 20
-46.51857109382647
 10
164.6953843073832
 20
-47.30783439242626
  0
LWPOLYLINE
  5
29D
330
70
100
AcDbEntity
  8
0
 62
     8
420
  8421504
370
    25
100
AcDbPolyline
 90
        3
 70
     0
 43
0.0
 10
165.6953845817833
 20
-47.8844419541263
 10
168.5143958891837
 20
-49.50982163202675
 10
168.5193552232833
 20
-49.5126799688263
  0
LINE
  5
29E
330
70
100
AcDbEntity
  8
0
 62
     8
420
  8421504
370
    25
100
AcDbLine
 10
162.3803635457833
 20
-38.27460349402652
 30
0.0
 11
162.7319078717834
 21
-38.07166127442672
 31
0.0
  0
SPLINE
  5
29F
330
70
100
AcDbEntity
  8
0
 62
     8
420
  8421504
370
    25
100
AcDbSpline
210
0.0
220
0.0
230
1.0
 70
     8
 71
     3
 72
     8
 73
     4
 74
     0
 42
0.0000000001
 43
0.0000000001
 40
0.0
 40
0.0
 40
0.0
 40
0.0
 40
1.0
 40
1.0
 40
1.0
 40
1.0
 10
168.9164496315355
 20
-49.65094363349172
 30
0.0
 10
168.9651709784426
 20
-49.61613708575408
 30
0.0
 10
168.9915186509281
 20
-49.55790215024111
 30
0.0
 10
168.9854984622276
 20
-49.49832847536843
 30
0.0
  0
SPLINE
  5
2A0
330
70
100
AcDbEntity
  8
0
 62
     8
420
  8421504
370
    25
100
AcDbSpline
210
0.0
220
0.0
230
1.0
 70
     8
 71
     3
 72
     8
 73
     4
 74
     0
 42
0.0000000001
 43
0.0000000001
 40
0.0
 40
0.0
 40
0.0
 40
0.0
 40
1.0
 40
1.0
 40
1.0
 40
1.0
 10
157.1027543834547
 20
-29.76623282316036
 30
0.0
 10
157.1075149019597
 20
-29.82190377728099
 30
0.0
 10
157.140741280482
 20
-29.8711482862118
 30
0.0
 10
157.1905825986083
 20
-29.89640221019359
 30
0.0
  0
SPLINE
  5
2A1
330
70
100
AcDbEntity
  8
0
 62
     8
420
  8421504
370
    25
100
AcDbSpline
210
0.0
220
0.0
230
1.0
 70
     8
 71
     3
 72
     8
 73
     4
 74
     0
 42
0.0000000001
 43
0.0000000001
 40
0.0
 40
0.0
 40
0.0
 40
0.0
 40
1.0
 40
1.0
 40
1.0
 40
1.0
 10
157.4360871268786
 20
-29.49416181064786
 30
0.0
 10
157.3874576105409
 20
-29.45932466932457
 30
0.0
 10
157.3239508450795
 20
-29.45303582266964
 30
0.0
 10
157.2694332195102
 20
-29.47765867338062
 30
0.0
  0
LINE
  5
2A2
330
70
100
AcDbEntity
  8
0
 62
     8
420
  8421504
370
    25
100
AcDbLine
 10
162.1103016877835
 20
-40.13241902752652
 30
0.0
 11
162.1473807481836
 21
-40.11101374152635
 31
0.0
  0
SPLINE
  5
2A3
330
70
100
AcDbEntity
  8
0
 62
     8
420
  8421504
370
    25
100
AcDbSpline
210
0.0
220
0.0
230
1.0
 70
     8
 71
     3
 72
     8
 73
     4
 74
     0
 42
0.0000000001
 43
0.0000000001
 40
0.0
 40
0.0
 40
0.0
 40
0.0
 40
1.0
 40
1.0
 40
1.0
 40
1.0
 10
157.2005081815055
 20
-42.97845326656332
 30
0.0
 10
157.1974745196077
 20
-43.03424645226906
 30
0.0
 10
157.2235057100061
 20
-43.08764174233551
 30
0.0
 10
157.2693279896249
 20
-43.11961675392574
 30
0.0
  0
LINE
  5
2A4
330
70
100
AcDbEntity
  8
0
 62
     8
420
  8421504
370
    25
100
AcDbLine
 10
162.2749188952832
 20
-40.37687104232661
 30
0.0
 11
162.2788710815834
 21
-40.37458949372668
 31
0.0
  0
LINE
  5
2A5
330
70
100
AcDbEntity
  8
0
 62
     8
420
  8421504
370
    25
100
AcDbLine
 10
162.1593224786832
 20
-40.21314603322667
 30
0.0
 11
162.1929879461832
 21
-40.1937113725265
 31
0.0
  0
SPLINE
  5
2A6
330
70
100
AcDbEntity
  8
0
 62
     8
420
  8421504
370
    25
100
AcDbSpline
210
0.0
220
0.0
230
1.0
 70
     8
 71
     3
 72
     8
 73
     4
 74
     0
 42
0.0000000001
 43
0.0000000001
 40
0.0
 40
0.0
 40
0.0
 40
0.0
 40
1.0
 40
1.0
 40
1.0
 40
1.0
 10
157.102966448518
 20
-42.84289025456039
 30
0.0
 10
157.1096611682156
 20
-42.90197826664821
 30
0.0
 10
157.1466100098406
 20
-42.95332958175249
 30
0.0
 10
157.2005081814445
 20
-42.97845326663519
 30
0.0
  0
LWPOLYLINE
  5
2A7
330
70
100
AcDbEntity
  8
0
 62
     8
420
  8421504
370
    25
100
AcDbPolyline
 90
       10
 70
     0
 43
0.0
 10
182.1953857617834
 20
-58.51573953652653
 10
182.1953862008833
 20
-58.52808767482618
 10
182.1953852129838
 20
-58.60746870062675
 10
182.1953842251837
 20
-58.74900489342643
 10
182.1953864203835
 20
-58.93115120682662
 10
182.1953835666837
 20
-59.12617201152635
 10
182.1953862008833
 20
-59.30438342552678
 10
182.1953835666837
 20
-59.43864874842631
 10
182.1953864203835
 20
-59.5085326569265
 10
182.1953846642836
 20
-59.51573881042677
  0
LWPOLYLINE
  5
2A8
330
70
100
AcDbEntity
  8
0
 62
     8
420
  8421504
370
    25
100
AcDbPolyline
 90
       10
 70
     0
 43
0.0
 10
97.31263955588342
 20
-58.51573953652653
 10
97.31263911688364
 20
-58.52808767482618
 10
97.3126401046837
 20
-58.60746870062675
 10
97.31264109248311
 20
-58.74900489342643
 10
97.31263889738341
 20
-58.93115120682662
 10
97.31264175108321
 20
-59.12617201152635
 10
97.31263911688364
 20
-59.30438342552678
 10
97.31264175108321
 20
-59.43864874842631
 10
97.31263889738341
 20
-59.5085326569265
 10
97.31264065348396
 20
-59.51573881042677
  0
LWPOLYLINE
  5
2A9
330
70
100
AcDbEntity
  8
0
 62
     8
420
  8421504
370
    25
100
AcDbPolyline
 90
        9
 70
     0
 43
0.0
 10
96.3126415314835
 20
-57.79092696282648
 10
96.27457957968353
 20
-57.90138712452652
 10
96.16619390998366
 20
-57.99502962622637
 10
96.00398276338353
 20
-58.05759934152646
 10
95.8126394186833
 20
-58.0795720386263
 10
95.62129788508364
 20
-58.05760019692668
 10
95.45908811038342
 20
-57.99502899262622
 10
95.3506998613839
 20
-57.90138728292672
 10
95.3126394186836
 20
-57.79092818262641
  0
LWPOLYLINE
  5
2AA
330
70
100
AcDbEntity
  8
0
 62
     8
420
  8421504
370
    25
100
AcDbPolyline
 90
        9
 70
     0
 43
0.0
 10
183.1953837861833
 20
-57.79092696282648
 10
183.2334457379833
 20
-57.90138712452652
 10
183.3418314077833
 20
-57.99502962622637
 10
183.5040425543834
 20
-58.05759934152646
 10
183.6953858989835
 20
-58.0795720386263
 10
183.8867274326833
 20
-58.05760019692668
 10
184.0489372072834
 20
-57.99502899262622
 10
184.1573254563837
 20
-57.90138728292672
 10
184.1953858989832
 20
-57.79092818262641
  0
LWPOLYLINE
  5
2AB
330
70
100
AcDbEntity
  8
0
 62
     8
420
  8421504
370
    25
100
AcDbPolyline
 90
       10
 70
     0
 43
0.0
 10
176.0287187932835
 20
-63.12120640742664
 10
176.0287192322832
 20
-63.13355505262618
 10
176.0287182444832
 20
-63.21293607842674
 10
176.0287172566838
 20
-63.35447227122642
 10
176.0287194517834
 20
-63.53661807762662
 10
176.0287165980837
 20
-63.73163888242647
 10
176.0287192322832
 20
-63.90985080332677
 10
176.0287165980837
 20
-64.04411612622631
 10
176.0287194517834
 20
-64.1140000348266
 10
176.0287176956835
 20
-64.12120618832624
  0
LWPOLYLINE
  5
2AC
330
70
100
AcDbEntity
  8
0
 62
     8
420
  8421504
370
    25
100
AcDbPolyline
 90
       10
 70
     0
 43
0.0
 10
103.4793065244835
 20
-63.12120640742664
 10
103.4793060853836
 20
-63.13355505262618
 10
103.4793070732837
 20
-63.21293607842674
 10
103.4793080610832
 20
-63.35447227122642
 10
103.4793058658834
 20
-63.53661807762662
 10
103.4793087195832
 20
-63.73163888242647
 10
103.4793060853836
 20
-63.90985080332677
 10
103.4793087195832
 20
-64.04411612622631
 10
103.4793058658834
 20
-64.1140000348266
 10
103.4793076219839
 20
-64.12120618832624
  0
LWPOLYLINE
  5
2AD
330
70
100
AcDbEntity
  8
0
 62
     8
420
  8421504
370
    25
100
AcDbPolyline
 90
        9
 70
     0
 43
0.0
 10
177.0287168176834
 20
-62.39639383372659
 10
177.0667787694833
 20
-62.50685399542663
 10
177.1751644391832
 20
-62.60049649712648
 10
177.3373755857833
 20
-62.66306621242657
 10
177.5287189304836
 20
-62.68503890952641
 10
177.7200604640832
 20
-62.66306706782678
 10
177.8822702387834
 20
-62.60049586352633
 10
177.9906584877836
 20
-62.50685415382619
 10
178.0287189304833
 20
-62.39639505342641
  0
LWPOLYLINE
  5
2AE
330
70
100
AcDbEntity
  8
0
 62
     8
420
  8421504
370
    25
100
AcDbPolyline
 90
        9
 70
     0
 43
0.0
 10
102.4793085000835
 20
-62.39639383372659
 10
102.4412465482836
 20
-62.50685399542663
 10
102.3328608784836
 20
-62.60049649712648
 10
102.1706497318835
 20
-62.66306621242657
 10
101.9793063872833
 20
-62.68503890952641
 10
101.7879648535836
 20
-62.66306706782678
 10
101.6257550789835
 20
-62.60049586352633
 10
101.5173668298839
 20
-62.50685415382619
 10
101.479306387283
 20
-62.39639505342641
  0
LWPOLYLINE
  5
2AF
330
70
100
AcDbEntity
  8
0
 62
     8
420
  8421504
370
    25
100
AcDbPolyline
 90
       10
 70
     0
 43
0.0
 10
152.3620515775834
 20
-48.15663109252628
 10
152.4001117732835
 20
-48.26709024042655
 10
152.5084983211838
 20
-48.36073324902629
 10
152.6707094677833
 20
-48.42330296432638
 10
152.8620510562835
 20
-48.44527464762644
 10
153.0533934679834
 20
-48.42330331282671
 10
153.2156049986835
 20
-48.36073312232667
 10
153.3239914916832
 20
-48.26709039882675
 10
153.3620510562831
 20
-48.15663079162654
 10
153.3620510562831
 20
-48.15663079162654
  0
LWPOLYLINE
  5
2B0
330
70
100
AcDbEntity
  8
0
 62
     8
420
  8421504
370
    25
100
AcDbPolyline
 90
       10
 70
     0
 43
0.0
 10
127.1459737400834
 20
-48.15663109252628
 10
127.1079135443833
 20
-48.26709024042655
 10
126.9995269965832
 20
-48.36073324902629
 10
126.8373158499837
 20
-48.42330296432638
 10
126.6459742614835
 20
-48.44527464762644
 10
126.4546318497835
 20
-48.42330331282671
 10
126.2924203189834
 20
-48.36073312232667
 10
126.1840338259836
 20
-48.26709039882675
 10
126.1459742614838
 20
-48.15663079162654
 10
126.1459742614838
 20
-48.15663079162654
  0
LWPOLYLINE
  5
2B1
330
70
100
AcDbEntity
  8
0
 62
     8
420
  8421504
370
    25
100
AcDbPolyline
 90
       10
 70
     0
 43
0.0
 10
151.3620509190833
 20
-48.88144214552667
 10
151.3620513580831
 20
-48.89379079082631
 10
151.3620512483834
 20
-48.97317232352676
 10
151.3620511385836
 20
-49.11470902312623
 10
151.3620515775834
 20
-49.29685381582676
 10
151.3620513580831
 20
-49.49187614122616
 10
151.3620513580831
 20
-49.67008654152627
 10
151.3620513580831
 20
-49.80435338502665
 10
151.3620515775834
 20
-49.87423577292664
 10
151.3620515775834
 20
-49.88144294022668
  0
LWPOLYLINE
  5
2B2
330
70
100
AcDbEntity
  8
0
 62
     8
420
  8421504
370
    25
100
AcDbPolyline
 90
       10
 70
     0
 43
0.0
 10
128.1459743986836
 20
-48.88144214552667
 10
128.1459739595837
 20
-48.89379079082631
 10
128.1459740693835
 20
-48.97317232352676
 10
128.1459741790833
 20
-49.11470902312623
 10
128.1459737400835
 20
-49.29685381582676
 10
128.1459739595837
 20
-49.49187614122616
 10
128.1459739595837
 20
-49.67008654152627
 10
128.1459739595837
 20
-49.80435338502665
 10
128.1459737400835
 20
-49.87423577292664
 10
128.1459737400835
 20
-49.88144294022668
  0
SPLINE
  5
2B3
330
70
100
AcDbEntity
  8
0
 62
     8
420
  8421504
370
    25
100
AcDbSpline
210
0.0
220
0.0
230
1.0
 70
     8
 71
     3
 72
     8
 73
     4
 74
     0
 42
0.0000000001
 43
0.0000000001
 40
0.0
 40
0.0
 40
0.0
 40
0.0
 40
1.0
 40
1.0
 40
1.0
 40
1.0
 10
143.2550219160487
 20
-27.2442158477509
 30
0.0
 10
143.2277633419293
 20
-27.23190394240357
 30
0.0
 10
143.1960098566907
 20
-27.23504830524448
 30
0.0
 10
143.1716953499459
 20
-27.25246719263882
 30
0.0
  0
SPLINE
  5
2B4
330
70
100
AcDbEntity
  8
0
 62
     8
420
  8421504
370
    25
100
AcDbSpline
210
0.0
220
0.0
230
1.0
 70
     8
 71
     3
 72
     8
 73
     4
 74
     0
 42
0.0000000001
 43
0.0000000001
 40
0.0
 40
0.0
 40
0.0
 40
0.0
 40
1.0
 40
1.0
 40
1.0
 40
1.0
 10
136.3363299677215
 20
-27.25246719263882
 30
0.0
 10
136.3120154609761
 20
-27.23504830524384
 30
0.0
 10
136.2802619757375
 20
-27.23190394240357
 30
0.0
 10
136.2530034016181
 20
-27.2442158477509
 30
0.0
  0
SPLINE
  5
2B5
330
70
100
AcDbEntity
  8
0
 62
     8
420
  8421504
370
    25
100
AcDbSpline
210
0.0
220
0.0
230
1.0
 70
     8
 71
     3
 72
     8
 73
     4
 74
     0
 42
0.0000000001
 43
0.0000000001
 40
0.0
 40
0.0
 40
0.0
 40
0.0
 40
1.0
 40
1.0
 40
1.0
 40
1.0
 10
141.9931840606136
 20
-30.51851976638858
 30
0.0
 10
141.9893762978784
 20
-30.54843173683619
 30
0.0
 10
142.0027272788814
 20
-30.57794062043161
 30
0.0
 10
142.0277085857168
 20
-30.59482728208822
 30
0.0
  0
SPLINE
  5
2B6
330
70
100
AcDbEntity
  8
0
 62
     8
420
  8421504
370
    25
100
AcDbSpline
210
0.0
220
0.0
230
1.0
 70
     8
 71
     3
 72
     8
 73
     4
 74
     0
 42
0.0000000001
 43
0.0000000001
 40
0.0
 40
0.0
 40
0.0
 40
0.0
 40
1.0
 40
1.0
 40
1.0
 40
1.0
 10
137.4803167319904
 20
-30.59482728216137
 30
0.0
 10
137.5052980388361
 20
-30.57794062051374
 30
0.0
 10
137.5186490198423
 20
-30.54843173691127
 30
0.0
 10
137.5148412570943
 20
-30.51851976646109
 30
0.0
  0
LWPOLYLINE
  5
2B7
330
70
100
AcDbEntity
  8
0
 62
     8
420
  8421504
370
    25
100
AcDbPolyline
 90
       10
 70
     0
 43
0.0
 10
145.1953848285836
 20
-37.15609365062652
 10
145.1953848285836
 20
-37.16844153542617
 10
145.1953847187837
 20
-37.24782306812663
 10
145.1953846090834
 20
-37.38935976782619
 10
145.1953846090834
 20
-37.57150481402673
 10
145.1953848285836
 20
-37.76652739282666
 10
145.1953848285836
 20
-37.94473728612677
 10
145.1953848285836
 20
-38.07900412972661
 10
145.1953846090834
 20
-38.1488862641266
 10
145.1953846090834
 20
-38.15609343142665
  0
LWPOLYLINE
  5
2B8
330
70
100
AcDbEntity
  8
0
 62
     8
420
  8421504
370
    25
100
AcDbPolyline
 90
       10
 70
     0
 43
0.0
 10
134.3126404891833
 20
-37.15609365062652
 10
134.3126404891833
 20
-37.16844153542617
 10
134.3126405988837
 20
-37.24782306812663
 10
134.3126407086836
 20
-37.38935976782619
 10
134.3126407086836
 20
-37.57150481402673
 10
134.3126404891833
 20
-37.76652739282666
 10
134.3126404891833
 20
-37.94473728612677
 10
134.3126404891833
 20
-38.07900412972661
 10
134.3126407086836
 20
-38.1488862641266
 10
134.3126407086836
 20
-38.15609343142665
  0
LWPOLYLINE
  5
2B9
330
70
100
AcDbEntity
  8
0
 62
     8
420
  8421504
370
    25
100
AcDbPolyline
 90
        9
 70
     0
 43
0.0
 10
146.1953846090834
 20
-36.43128209072624
 10
146.2334448047835
 20
-36.54174123862651
 10
146.3418313525837
 20
-36.63538424722626
 10
146.5040433772835
 20
-36.69795446942622
 10
146.6953849657837
 20
-36.71992615272629
 10
146.8867264993834
 20
-36.69795431102667
 10
147.0489380301835
 20
-36.63538412042652
 10
147.1573245231832
 20
-36.54174139702671
 10
147.1953849657834
 20
-36.43128229662629
  0
LWPOLYLINE
  5
2BA
330
70
100
AcDbEntity
  8
0
 62
     8
420
  8421504
370
    25
100
AcDbPolyline
 90
        9
 70
     0
 43
0.0
 10
133.3126407086835
 20
-36.43128209072624
 10
133.2745805129834
 20
-36.54174123862651
 10
133.1661939650838
 20
-36.63538424722626
 10
133.0039819404834
 20
-36.69795446942622
 10
132.8126403518838
 20
-36.71992615272629
 10
132.6212988182835
 20
-36.69795431102667
 10
132.4590872874833
 20
-36.63538412042652
 10
132.3507007945837
 20
-36.54174139702671
 10
132.3126403518834
 20
-36.43128229662629
  0
LWPOLYLINE
  5
2BB
330
70
100
AcDbEntity
  8
0
 62
     8
420
  8421504
370
    25
100
AcDbPolyline
 90
       10
 70
     0
 43
0.0
 10
157.5287178875833
 20
-52.44138321102636
 10
157.5287183266832
 20
-52.45373185622654
 10
157.5287173387837
 20
-52.53311288202647
 10
157.5287181070835
 20
-52.67465008862657
 10
157.5287185461834
 20
-52.85679488122635
 10
157.5287174485835
 20
-53.05181669982662
 10
157.5287183266832
 20
-53.2300276069265
 10
157.5287174485835
 20
-53.36429394362646
 10
157.5287185461834
 20
-53.43417683842634
 10
157.5287185461834
 20
-53.44138400562627
  0
LWPOLYLINE
  5
2BC
330
70
100
AcDbEntity
  8
0
 62
     8
420
  8421504
370
    25
100
AcDbPolyline
 90
       10
 70
     0
 43
0.0
 10
121.9793074300835
 20
-52.44138321102636
 10
121.9793069910837
 20
-52.45373185622654
 10
121.9793079788838
 20
-52.53311288202647
 10
121.9793072105833
 20
-52.67465008862657
 10
121.9793067715835
 20
-52.85679488122635
 10
121.9793078690833
 20
-53.05181669982662
 10
121.9793069910837
 20
-53.2300276069265
 10
121.9793078690833
 20
-53.36429394362646
 10
121.9793067715835
 20
-53.43417683842634
 10
121.9793067715835
 20
-53.44138400562627
  0
LWPOLYLINE
  5
2BD
330
70
100
AcDbEntity
  8
0
 62
     8
420
  8421504
370
    25
100
AcDbPolyline
 90
       10
 70
     0
 43
0.0
 10
158.5287176680838
 20
-51.71657165112673
 10
158.5667778637832
 20
-51.82703079902636
 10
158.6751652896837
 20
-51.92067431452663
 10
158.8373764362832
 20
-51.98324402982671
 10
159.0287180247834
 20
-52.00521571312678
 10
159.2200595584832
 20
-51.98324387142651
 10
159.3822710891832
 20
-51.92067368082637
 10
159.4906575821836
 20
-51.82703095742656
 10
159.5287180247838
 20
-51.71657185702677
 10
159.5287180247838
 20
-51.71657185702677
  0
LWPOLYLINE
  5
2BE
330
70
100
AcDbEntity
  8
0
 62
     8
420
  8421504
370
    25
100
AcDbPolyline
 90
       10
 70
     0
 43
0.0
 10
120.9793076495837
 20
-51.71657165112673
 10
120.9412474538836
 20
-51.82703079902636
 10
120.8328600279837
 20
-51.92067431452663
 10
120.6706488813836
 20
-51.98324402982671
 10
120.4793072928834
 20
-52.00521571312678
 10
120.2879657592837
 20
-51.98324387142651
 10
120.1257542284836
 20
-51.92067368082637
 10
120.0173677354832
 20
-51.82703095742656
 10
119.9793072928837
 20
-51.71657185702677
 10
119.9793072928837
 20
-51.71657185702677
  0
LWPOLYLINE
  5
2BF
330
70
100
AcDbEntity
  8
0
 62
     8
420
  8421504
370
    25
100
AcDbPolyline
 90
       10
 70
     0
 43
0.0
 10
163.6953848561834
 20
-56.0013242764266
 10
163.6953852951832
 20
-56.01367292172625
 10
163.6953843073838
 20
-56.09305394752617
 10
163.6953850756836
 20
-56.23459115412627
 10
163.6953855146834
 20
-56.4167359467267
 10
163.6953844171836
 20
-56.61175776522621
 10
163.6953852951832
 20
-56.7899686724262
 10
163.6953844171836
 20
-56.9242350091268
 10
163.6953855146834
 20
-56.99411790382657
 10
163.6953855146834
 20
-57.00132507112662
  0
LWPOLYLINE
  5
2C0
330
70
100
AcDbEntity
  8
0
 62
     8
420
  8421504
370
    25
100
AcDbPolyline
 90
       10
 70
     0
 43
0.0
 10
115.8126404615835
 20
-56.0013242764266
 10
115.8126400224836
 20
-56.01367292172625
 10
115.8126410103831
 20
-56.09305394752617
 10
115.8126402420833
 20
-56.23459115412627
 10
115.8126398029834
 20
-56.4167359467267
 10
115.8126409005833
 20
-56.61175776522621
 10
115.8126400224836
 20
-56.7899686724262
 10
115.8126409005833
 20
-56.9242350091268
 10
115.8126398029834
 20
-56.99411790382657
 10
115.8126398029834
 20
-57.00132507112662
  0
LWPOLYLINE
  5
2C1
330
70
100
AcDbEntity
  8
0
 62
     8
420
  8421504
370
    25
100
AcDbPolyline
 90
       10
 70
     0
 43
0.0
 10
164.6953846366832
 20
-55.27651271662644
 10
164.7334448323833
 20
-55.38697186442659
 10
164.8418305020838
 20
-55.48061436612645
 10
165.0040434048833
 20
-55.54318509532642
 10
165.1953849933835
 20
-55.56515677852637
 10
165.3867265269832
 20
-55.54318493682675
 10
165.5489380577833
 20
-55.48061474632671
 10
165.6573245507837
 20
-55.38697202282615
 10
165.6953849933832
 20
-55.27651292252648
 10
165.6953849933832
 20
-55.27651292252648
  0
LWPOLYLINE
  5
2C2
330
70
100
AcDbEntity
  8
0
 62
     8
420
  8421504
370
    25
100
AcDbPolyline
 90
       10
 70
     0
 43
0.0
 10
114.8126406810837
 20
-55.27651271662644
 10
114.7745804853836
 20
-55.38697186442659
 10
114.6661948155837
 20
-55.48061436612645
 10
114.5039819128836
 20
-55.54318509532642
 10
114.3126403243834
 20
-55.56515677852637
 10
114.1212987906837
 20
-55.54318493682675
 10
113.9590872599836
 20
-55.48061474632671
 10
113.8507007669833
 20
-55.38697202282615
 10
113.8126403243837
 20
-55.27651292252648
 10
113.8126403243837
 20
-55.27651292252648
  0
LWPOLYLINE
  5
2C3
330
70
100
AcDbEntity
  8
0
 62
     8
420
  8421504
370
    25
100
AcDbPolyline
 90
       10
 70
     0
 43
0.0
 10
169.8620518246834
 20
-59.5612653419263
 10
169.8620522637833
 20
-59.57361398722659
 10
169.8620512758838
 20
-59.65299501302651
 10
169.8620502880837
 20
-59.79453120582618
 10
169.8620524832835
 20
-59.97667701222639
 10
169.8620496295837
 20
-60.17169781692676
 10
169.8620522637833
 20
-60.34990973792654
 10
169.8620496295837
 20
-60.48417506082671
 10
169.8620524832835
 20
-60.55405896932627
 10
169.8620507271836
 20
-60.56126512282654
  0
LWPOLYLINE
  5
2C4
330
70
100
AcDbEntity
  8
0
 62
     8
420
  8421504
370
    25
100
AcDbPolyline
 90
       10
 70
     0
 43
0.0
 10
109.6459734929835
 20
-59.5612653419263
 10
109.6459730539837
 20
-59.57361398722659
 10
109.6459740417837
 20
-59.65299501302651
 10
109.6459750295838
 20
-59.79453120582618
 10
109.6459728344834
 20
-59.97667701222639
 10
109.6459756881833
 20
-60.17169781692676
 10
109.6459730539837
 20
-60.34990973792654
 10
109.6459756881833
 20
-60.48417506082671
 10
109.6459728344834
 20
-60.55405896932627
 10
109.6459745905833
 20
-60.56126512282654
  0
LINE
  5
2C5
330
70
100
AcDbEntity
  8
0
 62
     8
420
  8421504
370
    25
100
AcDbLine
 10
110.5225268554835
 20
-49.49832847542618
 30
0.0
 11
110.5234062592836
 21
-46.15672036982655
 31
0.0
  0
LWPOLYLINE
  5
2C6
330
70
100
AcDbEntity
  8
0
 62
     8
420
  8421504
370
    25
100
AcDbPolyline
 90
        3
 70
     0
 43
0.0
 10
110.5236728051838
 20
-42.09744221422652
 10
110.5236755765837
 20
-40.84030397732651
 10
110.5225268554835
 20
-36.43367537162667
  0
LWPOLYLINE
  5
2C7
330
70
100
AcDbEntity
  8
0
 62
     8
420
  8421504
370
    25
100
AcDbPolyline
 90
        4
 70
     0
 43
0.0
 10
110.9837038319832
 20
-36.4392304017267
 10
110.9836863530832
 20
-36.9837958644267
 10
110.9836115534834
 20
-39.16196897732635
 10
110.9835687891835
 20
-41.83194996992647
  0
LWPOLYLINE
  5
2C8
330
70
100
AcDbEntity
  8
0
 62
     8
420
  8421504
370
    25
100
AcDbPolyline
 90
        3
 70
     0
 43
0.0
 10
110.9835902604834
 20
-45.89106185182621
 10
110.9837038456835
 20
-49.50409035932661
 10
110.9837037907835
 20
-49.50981306472662
  0
LWPOLYLINE
  5
2C9
330
70
100
AcDbEntity
  8
0
 62
     8
420
  8421504
370
    25
100
AcDbPolyline
 90
        4
 70
     0
 43
0.0
 10
122.3174427190836
 20
-42.96126215992627
 10
122.3177975373834
 20
-42.4168914390266
 10
122.3190644123832
 20
-40.23940649662643
 10
122.3192758051834
 20
-39.34710988662653
  0
LWPOLYLINE
  5
2CA
330
70
100
AcDbEntity
  8
0
 62
     8
420
  8421504
370
    25
100
AcDbPolyline
 90
        4
 70
     0
 43
0.0
 10
122.3199732997836
 20
-35.28758285932678
 10
122.3197472955836
 20
-34.22572006092617
 10
122.3174427327832
 20
-29.89640221812627
 10
122.3174391656835
 20
-29.8906774218263
  0
LWPOLYLINE
  5
2CB
330
70
100
AcDbEntity
  8
0
 62
     8
420
  8421504
370
    25
100
AcDbPolyline
 90
        3
 70
     0
 43
0.0
 10
116.7552339585833
 20
-42.55916296322662
 10
116.7269882592833
 20
-44.15903640422668
 10
116.6518318638837
 20
-46.24650509202669
  0
LWPOLYLINE
  5
2CC
330
70
100
AcDbEntity
  8
0
 62
     8
420
  8421504
370
    25
100
AcDbPolyline
 90
        4
 70
     0
 43
0.0
 10
110.9936294284838
 20
-49.50982163202675
 10
111.4652019965836
 20
-49.23799950242637
 10
113.3514181277833
 20
-48.15057591432641
 10
113.8126400636832
 20
-47.88456627212652
  0
LWPOLYLINE
  5
2CD
330
70
100
AcDbEntity
  8
0
 62
     8
420
  8421504
370
    25
100
AcDbPolyline
 90
        3
 70
     0
 43
0.0
 10
114.8126404615835
 20
-47.30781683982645
 10
115.0017382928837
 20
-47.19875470542655
 10
116.6518318638837
 20
-46.24650509202669
  0
LINE
  5
2CE
330
70
100
AcDbEntity
  8
0
 62
     8
420
  8421504
370
    25
100
AcDbLine
 10
117.1276617489832
 20
-38.27460348082678
 30
0.0
 11
116.7786569307833
 21
-38.07312728782654
 31
0.0
  0
SPLINE
  5
2CF
330
70
100
AcDbEntity
  8
0
 62
     8
420
  8421504
370
    25
100
AcDbSpline
210
0.0
220
0.0
230
1.0
 70
     8
 71
     3
 72
     8
 73
     4
 74
     0
 42
0.0000000001
 43
0.0000000001
 40
0.0
 40
0.0
 40
0.0
 40
0.0
 40
1.0
 40
1.0
 40
1.0
 40
1.0
 10
110.5225268553988
 20
-49.49832847538255
 30
0.0
 10
110.5174409250838
 20
-49.55774570906611
 30
0.0
 10
110.5435886098325
 20
-49.61553862174123
 30
0.0
 10
110.5915756860902
 20
-49.6509436335052
 30
0.0
  0
SPLINE
  5
2D0
330
70
100
AcDbEntity
  8
0
 62
     8
420
  8421504
370
    25
100
AcDbSpline
210
0.0
220
0.0
230
1.0
 70
     8
 71
     3
 72
     8
 73
     4
 74
     0
 42
0.0000000001
 43
0.0000000001
 40
0.0
 40
0.0
 40
0.0
 40
0.0
 40
1.0
 40
1.0
 40
1.0
 40
1.0
 10
110.9247877650017
 20
-49.65099786111288
 30
0.0
 10
110.9706321853057
 20
-49.61903391445533
 30
0.0
 10
110.9966754527494
 20
-49.56562599109048
 30
0.0
 10
110.9936294285672
 20
-49.50982163198055
 30
0.0
  0
SPLINE
  5
2D1
330
70
100
AcDbEntity
  8
0
 62
     8
420
  8421504
370
    25
100
AcDbSpline
210
0.0
220
0.0
230
1.0
 70
     8
 71
     3
 72
     8
 73
     4
 74
     0
 42
0.0000000001
 43
0.0000000001
 40
0.0
 40
0.0
 40
0.0
 40
0.0
 40
1.0
 40
1.0
 40
1.0
 40
1.0
 10
122.2385920981567
 20
-29.47765867338062
 30
0.0
 10
122.1840744725874
 20
-29.45303582266964
 30
0.0
 10
122.1205677071259
 20
-29.45932466932457
 30
0.0
 10
122.0719381907889
 20
-29.49416181064786
 30
0.0
  0
LINE
  5
2D2
330
70
100
AcDbEntity
  8
0
 62
     8
420
  8421504
370
    25
100
AcDbLine
 10
117.3983249771835
 20
-40.13137744582622
 30
0.0
 11
117.3612457932832
 21
-40.10997208862634
 31
0.0
  0
SPLINE
  5
2D3
330
70
100
AcDbEntity
  8
0
 62
     8
420
  8421504
370
    25
100
AcDbSpline
210
0.0
220
0.0
230
1.0
 70
     8
 71
     3
 72
     8
 73
     4
 74
     0
 42
0.0000000001
 43
0.0000000001
 40
0.0
 40
0.0
 40
0.0
 40
0.0
 40
1.0
 40
1.0
 40
1.0
 40
1.0
 10
122.3174427190874
 20
-42.96126215983835
 30
0.0
 10
122.3673082894178
 20
-42.93598547927648
 30
0.0
 10
122.4005380409817
 20
-42.88669940483647
 30
0.0
 10
122.4052722513302
 20
-42.83099417225495
 30
0.0
  0
SPLINE
  5
2D4
330
70
100
AcDbEntity
  8
0
 62
     8
420
  8421504
370
    25
100
AcDbSpline
210
0.0
220
0.0
230
1.0
 70
     8
 71
     3
 72
     8
 73
     4
 74
     0
 42
0.0000000001
 43
0.0000000001
 40
0.0
 40
0.0
 40
0.0
 40
0.0
 40
1.0
 40
1.0
 40
1.0
 40
1.0
 10
116.5828767522614
 20
-46.38617956316617
 30
0.0
 10
116.6284327711832
 20
-46.35464712576737
 30
0.0
 10
116.6545002708235
 20
-46.30184517761944
 30
0.0
 10
116.6518318638374
 20
-46.2465050920344
 30
0.0
  0
LWPOLYLINE
  5
2D5
330
70
100
AcDbEntity
  8
0
 62
     8
420
  8421504
370
    25
100
AcDbPolyline
 90
        4
 70
     0
 43
0.0
 10
116.6518318638837
 20
-46.24650509202669
 10
117.1232243611834
 20
-45.97434833602672
 10
119.0085918478836
 20
-44.88532506712636
 10
119.9793079239838
 20
-44.32431091382619
  0
LWPOLYLINE
  5
2D6
330
70
100
AcDbEntity
  8
0
 62
     8
420
  8421504
370
    25
100
AcDbPolyline
 90
        3
 70
     0
 43
0.0
 10
120.9793067029833
 20
-43.74631551032621
 10
122.3075171499836
 20
-42.97845327452617
 10
122.3124728619834
 20
-42.97558777702629
  0
LINE
  5
2D7
330
70
100
AcDbEntity
  8
0
 62
     8
420
  8421504
370
    25
100
AcDbLine
 10
117.2331064223836
 20
-40.37687104232661
 30
0.0
 11
117.2291542361835
 21
-40.37458949372668
 31
0.0
  0
LINE
  5
2D8
330
70
100
AcDbEntity
  8
0
 62
     8
420
  8421504
370
    25
100
AcDbLine
 10
117.3495016397835
 20
-40.21189206352673
 30
0.0
 11
117.3157302700832
 21
-40.1923962667268
 31
0.0
  0
SPLINE
  5
2D9
330
70
100
AcDbEntity
  8
0
 62
     8
420
  8421504
370
    25
100
AcDbSpline
210
0.0
220
0.0
230
1.0
 70
     8
 71
     3
 72
     8
 73
     4
 74
     0
 42
0.0000000001
 43
0.0000000001
 40
0.0
 40
0.0
 40
0.0
 40
0.0
 40
1.0
 40
1.0
 40
1.0
 40
1.0
 10
122.2487115400226
 20
-43.11359273694693
 30
0.0
 10
122.2965970258067
 20
-43.07825850211263
 30
0.0
 10
122.3226368584722
 20
-43.02054579016162
 30
0.0
 10
122.3174427190271
 20
-42.96126215991279
 30
0.0
  0
LWPOLYLINE
  5
2DA
330
70
100
AcDbEntity
  8
0
 62
    18
420
        0
370
    25
100
AcDbPolyline
 90
        7
 70
     0
 43
0.0
 10
188.6991534785835
 20
99.18023927117356
 10
188.6991182368836
 20
98.91746210537348
 10
188.6990626581837
 20
98.19327859347348
 10
188.6990621007834
 20
97.77657173397351
 10
188.6990871338833
 20
97.34345586337356
 10
188.6991341827832
 20
96.91933233897342
 10
188.6991899716832
 20
96.53389890347341
  0
LWPOLYLINE
  5
2DB
330
70
100
AcDbEntity
  8
0
 62
    18
420
        0
370
    25
100
AcDbPolyline
 90
        5
 70
     0
 43
0.0
 10
188.6992085306833
 20
96.56335135907355
 10
188.6991325676832
 20
96.26801500077348
 10
188.6990460537834
 20
96.02314189057368
 10
188.6989800429835
 20
95.8424775735734
 10
188.6989694020837
 20
95.74075200267335
  0
LWPOLYLINE
  5
2DC
330
70
100
AcDbEntity
  8
0
 62
    18
420
        0
370
    25
100
AcDbPolyline
 90
        3
 70
     0
 43
0.0
 10
188.6989689763837
 20
95.74154750737367
 10
188.7459108375835
 20
93.23801350457369
 10
188.8731097979838
 20
89.97708654017353
  0
SPLINE
  5
2DD
330
70
100
AcDbEntity
  8
0
 62
    18
420
        0
370
    25
100
AcDbSpline
210
0.0
220
0.0
230
1.0
 70
     8
 71
     3
 72
     8
 73
     4
 74
     0
 42
0.0000000001
 43
0.0000000001
 40
0.0
 40
0.0
 40
0.0
 40
0.0
 40
1.0
 40
1.0
 40
1.0
 40
1.0
 10
188.8723552957887
 20
89.97721634405435
 30
0.0
 10
188.8808455716574
 20
89.79950438282603
 30
0.0
 10
189.0274042935715
 20
89.65978464503505
 30
0.0
 10
189.2053189526608
 20
89.65979003039285
 30
0.0
  0
LINE
  5
2DE
330
70
100
AcDbEntity
  8
0
 62
    18
420
        0
370
    25
100
AcDbLine
 10
188.6992426912834
 20
99.39376033827345
 30
0.0
 11
188.6992530910834
 21
99.36656137287336
 31
0.0
  0
LINE
  5
2DF
330
70
100
AcDbEntity
  8
0
 62
    18
420
        0
370
    25
100
AcDbLine
 10
187.2842843898834
 20
96.3264567340736
 30
0.0
 11
187.2842843898834
 21
91.65979023387343
 31
0.0
  0
LINE
  5
2E0
330
70
100
AcDbEntity
  8
0
 62
    18
420
        0
370
    25
100
AcDbLine
 10
188.2842844761836
 20
91.65979023387343
 30
0.0
 11
188.2842844761836
 21
96.3264567340736
 31
0.0
  0
LWPOLYLINE
  5
2E1
330
70
100
AcDbEntity
  8
0
 62
    18
420
        0
370
    25
100
AcDbPolyline
 90
        9
 70
     0
 43
0.0
 10
186.7236243194838
 20
89.65978990607329
 10
186.9493610790836
 20
89.68029017857359
 10
187.2690055773837
 20
89.78298090997313
 10
187.5584888836834
 20
89.96400021617343
 10
187.8117099037833
 20
90.21758072677361
 10
188.0202433503835
 20
90.5376272460737
 10
188.1735189839835
 20
90.91240324687348
 10
188.2626254443836
 20
91.32407824807343
 10
188.2842844761836
 20
91.65979023387343
  0
LWPOLYLINE
  5
2E2
330
70
100
AcDbEntity
  8
0
 62
    18
420
        0
370
    25
100
AcDbPolyline
 90
        8
 70
     0
 43
0.0
 10
187.2842843898834
 20
91.65979023387343
 10
187.2776172067833
 20
91.51310382397355
 10
187.2246369042833
 20
91.22950306147352
 10
187.1271808265837
 20
90.98797821117344
 10
187.0036188456835
 20
90.81076180547359
 10
186.8776368231835
 20
90.70589240007359
 10
186.7666807590833
 20
90.66348493707369
 10
186.7236243194838
 20
90.65979006997352
  0
LINE
  5
2E3
330
70
100
AcDbEntity
  8
0
 62
    18
420
        0
370
    25
100
AcDbLine
 10
186.7236243194838
 20
90.65979006997352
 30
0.0
 11
126.7024596476838
 21
90.65979006997352
 31
0.0
  0
LINE
  5
2E4
330
70
100
AcDbEntity
  8
0
 62
    18
420
        0
370
    25
100
AcDbLine
 10
126.7024596476838
 20
89.65978990607329
 30
0.0
 11
186.7236243194838
 21
89.65978990607329
 31
0.0
  0
LWPOLYLINE
  5
2E5
330
70
100
AcDbEntity
  8
0
 62
    18
420
        0
370
    25
100
AcDbPolyline
 90
        9
 70
     0
 43
0.0
 10
125.1418014311834
 20
91.65979023387343
 10
125.1526147071833
 20
91.42214154807366
 10
125.2269516332832
 20
91.00150660287354
 10
125.3713091158836
 20
90.60685555747356
 10
125.5835761570832
 20
90.25684218217358
 10
125.8577128195838
 20
89.97197792537338
 10
126.1427919013833
 20
89.78977087247358
 10
126.4848480565836
 20
89.67883359007387
 10
126.7024596476838
 20
89.65978990607329
  0
LWPOLYLINE
  5
2E6
330
70
100
AcDbEntity
  8
0
 62
    18
420
        0
370
    25
100
AcDbPolyline
 90
        8
 70
     0
 43
0.0
 10
126.7024596476838
 20
90.65979006997352
 10
126.6564299606836
 20
90.66401020297346
 10
126.5416761183836
 20
90.70996538407346
 10
126.4182448331834
 20
90.81542028097361
 10
126.2899607363836
 20
91.00494007877355
 10
126.1947671516837
 20
91.25330269937366
 10
126.1462738060833
 20
91.53953227507356
 10
126.1417984906836
 20
91.65979023387343
  0
LINE
  5
2E7
330
70
100
AcDbEntity
  8
0
 62
    18
420
        0
370
    25
100
AcDbLine
 10
125.1418014311834
 20
96.3264567340736
 30
0.0
 11
125.1418014311834
 21
91.65979023387343
 31
0.0
  0
LINE
  5
2E8
330
70
100
AcDbEntity
  8
0
 62
    18
420
        0
370
    25
100
AcDbLine
 10
126.1417984906836
 20
91.65979023387343
 30
0.0
 11
126.1417984906836
 21
96.3264567340736
 31
0.0
  0
LWPOLYLINE
  5
2E9
330
70
100
AcDbEntity
  8
0
 62
    18
420
        0
370
    25
100
AcDbPolyline
 90
        9
 70
     0
 43
0.0
 10
186.7236243194838
 20
79.65979012957349
 10
186.9493610790836
 20
79.68029040207318
 10
187.2690055773837
 20
79.78298051267316
 10
187.5584888836834
 20
79.96400106057362
 10
187.8117099037833
 20
80.21758032947332
 10
188.0202433503835
 20
80.5376274695739
 10
188.1735189839835
 20
80.91240284947373
 10
188.2626254443836
 20
81.32407847157395
 10
188.2842844761836
 20
81.65979045737397
  0
LWPOLYLINE
  5
2EA
330
70
100
AcDbEntity
  8
0
 62
    18
420
        0
370
    25
100
AcDbPolyline
 90
        8
 70
     0
 43
0.0
 10
187.2842843898834
 20
81.65979045737397
 10
187.2776172067833
 20
81.51310466837342
 10
187.2246369042833
 20
81.22950328497308
 10
187.1271808265837
 20
80.98797781377369
 10
187.0036188456835
 20
80.81076202897348
 10
186.8776368231835
 20
80.7058926235735
 10
186.7666807590833
 20
80.66348516057358
 10
186.7236243194838
 20
80.65978967257343
  0
LINE
  5
2EB
330
70
100
AcDbEntity
  8
0
 62
    18
420
        0
370
    25
100
AcDbLine
 10
187.2842843898834
 20
89.79253503787345
 30
0.0
 11
187.2842843898834
 21
81.65979045737397
 31
0.0
  0
LINE
  5
2EC
330
70
100
AcDbEntity
  8
0
 62
    18
420
        0
370
    25
100
AcDbLine
 10
188.2842844761836
 20
81.65979045737397
 30
0.0
 11
188.2842844761836
 21
91.65979023387343
 31
0.0
  0
LINE
  5
2ED
330
70
100
AcDbEntity
  8
0
 62
    18
420
        0
370
    25
100
AcDbLine
 10
186.7236243194838
 20
80.65978967257343
 30
0.0
 11
135.4234437091833
 21
80.65978967257343
 31
0.0
  0
LINE
  5
2EE
330
70
100
AcDbEntity
  8
0
 62
    18
420
        0
370
    25
100
AcDbLine
 10
135.4234437091833
 20
79.65979012957349
 30
0.0
 11
186.7236243194838
 21
79.65979012957349
 31
0.0
  0
LWPOLYLINE
  5
2EF
330
70
100
AcDbEntity
  8
0
 62
    18
420
        0
370
    25
100
AcDbPolyline
 90
        9
 70
     0
 43
0.0
 10
133.8627854926837
 20
81.65979045737397
 10
133.8735987686835
 20
81.42214177157354
 10
133.9479356948836
 20
81.00150682637345
 10
134.0922931774833
 20
80.60685578097377
 10
134.3045602186835
 20
80.25684240567379
 10
134.5786968810833
 20
79.97197814887359
 10
134.8637759629836
 20
79.78977047507351
 10
135.2058321181833
 20
79.67883381357346
 10
135.4234437091833
 20
79.65979012957349
  0
LWPOLYLINE
  5
2F0
330
70
100
AcDbEntity
  8
0
 62
    18
420
        0
370
    25
100
AcDbPolyline
 90
        8
 70
     0
 43
0.0
 10
135.4234437091833
 20
80.65978967257343
 10
135.3774140222833
 20
80.66401042647305
 10
135.2626601798831
 20
80.70996560757334
 10
135.1392288946836
 20
80.8154198835732
 10
135.0109447979833
 20
81.00494030227343
 10
134.9157512131833
 20
81.25330292297396
 10
134.8672578676836
 20
81.53953187767347
 10
134.8627825521832
 20
81.65979045737397
  0
LINE
  5
2F1
330
70
100
AcDbEntity
  8
0
 62
    18
420
        0
370
    25
100
AcDbLine
 10
133.8627854926837
 20
96.3264567340736
 30
0.0
 11
133.8627854926837
 21
90.65979006997352
 31
0.0
  0
LINE
  5
2F2
330
70
100
AcDbEntity
  8
0
 62
    18
420
        0
370
    25
100
AcDbLine
 10
133.8627854926837
 20
89.65978990607329
 30
0.0
 11
133.8627854926837
 21
81.65979045737397
 31
0.0
  0
LINE
  5
2F3
330
70
100
AcDbEntity
  8
0
 62
    18
420
        0
370
    25
100
AcDbLine
 10
134.8627825521832
 20
81.65979045737397
 30
0.0
 11
134.8627825521832
 21
89.65978990607329
 31
0.0
  0
LINE
  5
2F4
330
70
100
AcDbEntity
  8
0
 62
    18
420
        0
370
    25
100
AcDbLine
 10
134.8627825521832
 20
90.65979006997352
 30
0.0
 11
134.8627825521832
 21
96.3264567340736
 31
0.0
  0
SPLINE
  5
2F5
330
70
100
AcDbEntity
  8
0
 62
    18
420
        0
370
    25
100
AcDbSpline
210
0.0
220
0.0
230
1.0
 70
     8
 71
     3
 72
     8
 73
     4
 74
     0
 42
0.0000000001
 43
0.0000000001
 40
0.0
 40
0.0
 40
0.0
 40
0.0
 40
1.0
 40
1.0
 40
1.0
 40
1.0
 10
168.7467180136717
 20
81.65979045736369
 30
0.0
 10
168.7436632301051
 20
81.31518554118947
 30
0.0
 10
168.8153596480966
 20
80.97401516594636
 30
0.0
 10
168.9568666064613
 20
80.65978967256766
 30
0.0
  0
LWPOLYLINE
  5
2F6
330
70
100
AcDbEntity
  8
0
 62
    18
420
        0
370
    25
100
AcDbPolyline
 90
        8
 70
     0
 43
0.0
 10
170.3073787136834
 20
80.65978967257343
 10
170.2613502684838
 20
80.66401042647305
 10
170.1465939425832
 20
80.70996560757334
 10
170.0231651409836
 20
80.8154198835732
 10
169.8948810441838
 20
81.00494030227343
 10
169.7996837341836
 20
81.25330292297396
 10
169.7511928720835
 20
81.53953187767347
 10
169.7467187984838
 20
81.65979045737397
  0
LINE
  5
2F7
330
70
100
AcDbEntity
  8
0
 62
    18
420
        0
370
    25
100
AcDbLine
 10
168.7467180136833
 20
96.3264567340736
 30
0.0
 11
168.7467180136833
 21
90.65979006997352
 31
0.0
  0
LINE
  5
2F8
330
70
100
AcDbEntity
  8
0
 62
    18
420
        0
370
    25
100
AcDbLine
 10
168.7467180136833
 20
89.65978990607329
 30
0.0
 11
168.7467180136833
 21
81.65979045737397
 31
0.0
  0
LINE
  5
2F9
330
70
100
AcDbEntity
  8
0
 62
    18
420
        0
370
    25
100
AcDbLine
 10
169.7467187984838
 20
81.65979045737397
 30
0.0
 11
169.7467187984838
 21
89.65978990607329
 31
0.0
  0
LINE
  5
2FA
330
70
100
AcDbEntity
  8
0
 62
    18
420
        0
370
    25
100
AcDbLine
 10
169.7467187984838
 20
90.65979006997352
 30
0.0
 11
169.7467187984838
 21
96.3264567340736
 31
0.0
  0
SPLINE
  5
2FB
330
70
100
AcDbEntity
  8
0
 62
    18
420
        0
370
    25
100
AcDbSpline
210
0.0
220
0.0
230
1.0
 70
     8
 71
     3
 72
     8
 73
     4
 74
     0
 42
0.0000000001
 43
0.0000000001
 40
0.0
 40
0.0
 40
0.0
 40
0.0
 40
1.0
 40
1.0
 40
1.0
 40
1.0
 10
177.4677020752702
 20
91.65979023383526
 30
0.0
 10
177.4646472045756
 20
91.31518550905964
 30
0.0
 10
177.5363436284483
 20
90.97401531765656
 30
0.0
 10
177.6778506680591
 20
90.6597900699225
 30
0.0
  0
LWPOLYLINE
  5
2FC
330
70
100
AcDbEntity
  8
0
 62
    18
420
        0
370
    25
100
AcDbPolyline
 90
        8
 70
     0
 43
0.0
 10
179.0283621543834
 20
90.65979006997352
 10
178.9823337091832
 20
90.66401020297346
 10
178.8675767623836
 20
90.70996538407346
 10
178.7441485815835
 20
90.81542028097361
 10
178.6158644848838
 20
91.00494007877355
 10
178.5206671748836
 20
91.25330269937366
 10
178.4721763127836
 20
91.53953227507356
 10
178.4677022391832
 20
91.65979023387343
  0
LINE
  5
2FD
330
70
100
AcDbEntity
  8
0
 62
    18
420
        0
370
    25
100
AcDbLine
 10
177.4677020752836
 20
96.3264567340736
 30
0.0
 11
177.4677020752836
 21
91.65979023387343
 31
0.0
  0
LINE
  5
2FE
330
70
100
AcDbEntity
  8
0
 62
    18
420
        0
370
    25
100
AcDbLine
 10
178.4677022391832
 20
91.65979023387343
 30
0.0
 11
178.4677022391832
 21
96.3264567340736
 31
0.0
  0
SPLINE
  5
2FF
330
70
100
AcDbEntity
  8
0
 62
    18
420
        0
370
    25
100
AcDbSpline
210
0.0
220
0.0
230
1.0
 70
     8
 71
     3
 72
     8
 73
     4
 74
     0
 42
0.0000000001
 43
0.0000000001
 40
0.0
 40
0.0
 40
0.0
 40
0.0
 40
1.0
 40
1.0
 40
1.0
 40
1.0
 10
160.0257351938617
 20
81.6597904574022
 30
0.0
 10
160.0226795836205
 20
81.31518545900709
 30
0.0
 10
160.0943760384437
 20
80.97401490849927
 30
0.0
 10
160.2358837866507
 20
80.65978967260937
 30
0.0
  0
LWPOLYLINE
  5
300
330
70
100
AcDbEntity
  8
0
 62
    18
420
        0
370
    25
100
AcDbPolyline
 90
        8
 70
     0
 43
0.0
 10
161.5863958938836
 20
80.65978967257343
 10
161.5403662069835
 20
80.66401042647305
 10
161.4256098810836
 20
80.70996560757334
 10
161.3021810793832
 20
80.8154198835732
 10
161.1738969826835
 20
81.00494030227343
 10
161.0787009143832
 20
81.25330292297396
 10
161.0302100522831
 20
81.53953187767347
 10
161.0257347368835
 20
81.65979045737397
  0
LINE
  5
301
330
70
100
AcDbEntity
  8
0
 62
    18
420
        0
370
    25
100
AcDbLine
 10
160.0257351938835
 20
96.3264567340736
 30
0.0
 11
160.0257351938835
 21
90.65979006997352
 31
0.0
  0
LINE
  5
302
330
70
100
AcDbEntity
  8
0
 62
    18
420
        0
370
    25
100
AcDbLine
 10
160.0257351938835
 20
89.65978990607329
 30
0.0
 11
160.0257351938835
 21
81.65979045737397
 31
0.0
  0
LINE
  5
303
330
70
100
AcDbEntity
  8
0
 62
    18
420
        0
370
    25
100
AcDbLine
 10
161.0257347368835
 20
81.65979045737397
 30
0.0
 11
161.0257347368835
 21
89.65978990607329
 31
0.0
  0
LINE
  5
304
330
70
100
AcDbEntity
  8
0
 62
    18
420
        0
370
    25
100
AcDbLine
 10
161.0257347368835
 20
90.65979006997352
 30
0.0
 11
161.0257347368835
 21
96.3264567340736
 31
0.0
  0
SPLINE
  5
305
330
70
100
AcDbEntity
  8
0
 62
    18
420
        0
370
    25
100
AcDbSpline
210
0.0
220
0.0
230
1.0
 70
     8
 71
     3
 72
     8
 73
     4
 74
     0
 42
0.0000000001
 43
0.0000000001
 40
0.0
 40
0.0
 40
0.0
 40
0.0
 40
1.0
 40
1.0
 40
1.0
 40
1.0
 10
151.3047511322761
 20
81.65979045736948
 30
0.0
 10
151.3016971754046
 20
81.31518562342
 30
0.0
 10
151.3733935565639
 20
80.97401542344607
 30
0.0
 10
151.5148997250657
 20
80.65978967257537
 30
0.0
  0
LWPOLYLINE
  5
306
330
70
100
AcDbEntity
  8
0
 62
    18
420
        0
370
    25
100
AcDbPolyline
 90
        8
 70
     0
 43
0.0
 10
152.8654118322833
 20
80.65978967257343
 10
152.8193821453832
 20
80.66401042647305
 10
152.7046258194833
 20
80.70996560757334
 10
152.5811970177835
 20
80.8154198835732
 10
152.4529129210832
 20
81.00494030227343
 10
152.3577168527834
 20
81.25330292297396
 10
152.3092259907835
 20
81.53953187767347
 10
152.3047506753832
 20
81.65979045737397
  0
LINE
  5
307
330
70
100
AcDbEntity
  8
0
 62
    18
420
        0
370
    25
100
AcDbLine
 10
151.3047511322832
 20
96.3264567340736
 30
0.0
 11
151.3047511322832
 21
90.65979006997352
 31
0.0
  0
LINE
  5
308
330
70
100
AcDbEntity
  8
0
 62
    18
420
        0
370
    25
100
AcDbLine
 10
151.3047511322832
 20
89.65978990607329
 30
0.0
 11
151.3047511322832
 21
81.65979045737397
 31
0.0
  0
LINE
  5
309
330
70
100
AcDbEntity
  8
0
 62
    18
420
        0
370
    25
100
AcDbLine
 10
152.3047506753832
 20
81.65979045737397
 30
0.0
 11
152.3047506753832
 21
89.65978990607329
 31
0.0
  0
LINE
  5
30A
330
70
100
AcDbEntity
  8
0
 62
    18
420
        0
370
    25
100
AcDbLine
 10
152.3047506753832
 20
90.65979006997352
 30
0.0
 11
152.3047506753832
 21
96.3264567340736
 31
0.0
  0
SPLINE
  5
30B
330
70
100
AcDbEntity
  8
0
 62
    18
420
        0
370
    25
100
AcDbSpline
210
0.0
220
0.0
230
1.0
 70
     8
 71
     3
 72
     8
 73
     4
 74
     0
 42
0.0000000001
 43
0.0000000001
 40
0.0
 40
0.0
 40
0.0
 40
0.0
 40
1.0
 40
1.0
 40
1.0
 40
1.0
 10
142.5837695543334
 20
81.65979045737334
 30
0.0
 10
142.5807147276016
 20
81.31518579778632
 30
0.0
 10
142.652410263762
 20
80.97401558684126
 30
0.0
 10
142.7939156635963
 20
80.6597896725805
 30
0.0
  0
LWPOLYLINE
  5
30C
330
70
100
AcDbEntity
  8
0
 62
    18
420
        0
370
    25
100
AcDbPolyline
 90
        8
 70
     0
 43
0.0
 10
144.1444277707837
 20
80.65978967257343
 10
144.0983980838836
 20
80.66401042647305
 10
143.9836442414835
 20
80.70996560757334
 10
143.8602129562833
 20
80.8154198835732
 10
143.7319288595836
 20
81.00494030227343
 10
143.6367303076834
 20
81.25330292297396
 10
143.5882419291832
 20
81.53953187767347
 10
143.5837666137835
 20
81.65979045737397
  0
LINE
  5
30D
330
70
100
AcDbEntity
  8
0
 62
    18
420
        0
370
    25
100
AcDbLine
 10
142.5837695542834
 20
96.3264567340736
 30
0.0
 11
142.5837695542834
 21
90.65979006997352
 31
0.0
  0
LINE
  5
30E
330
70
100
AcDbEntity
  8
0
 62
    18
420
        0
370
    25
100
AcDbLine
 10
142.5837695542834
 20
89.65978990607329
 30
0.0
 11
142.5837695542834
 21
81.65979045737397
 31
0.0
  0
LINE
  5
30F
330
70
100
AcDbEntity
  8
0
 62
    18
420
        0
370
    25
100
AcDbLine
 10
143.5837666137835
 20
81.65979045737397
 30
0.0
 11
143.5837666137835
 21
89.65978990607329
 31
0.0
  0
LINE
  5
310
330
70
100
AcDbEntity
  8
0
 62
    18
420
        0
370
    25
100
AcDbLine
 10
143.5837666137835
 20
90.65979006997352
 30
0.0
 11
143.5837666137835
 21
96.3264567340736
 31
0.0
  0
LWPOLYLINE
  5
311
330
70
100
AcDbEntity
  8
0
 62
    18
420
        0
370
    25
100
AcDbPolyline
 90
        9
 70
     0
 43
0.0
 10
189.2071806769834
 20
105.9931234330735
 10
189.1422248078832
 20
105.9958857358736
 10
189.0797639908834
 20
105.9985418677734
 10
189.0221973514836
 20
106.0009900043737
 10
188.9717360630834
 20
106.0031363924735
 10
188.9303184213832
 20
106.0048978339735
 10
188.8995353192836
 20
106.0062066525735
 10
188.8805691290832
 20
106.0070131779735
 10
188.8741483778833
 20
106.0072863658736
  0
LWPOLYLINE
  5
312
330
70
100
AcDbEntity
  8
0
 62
    18
420
        0
370
    25
100
AcDbPolyline
 90
        7
 70
     0
 43
0.0
 10
189.2071806769834
 20
105.9931234330735
 10
189.1969094307834
 20
105.9933438460735
 10
189.1478248505836
 20
105.9943962405736
 10
189.0426024738835
 20
105.9966519038736
 10
188.9559452947833
 20
105.9985089610735
 10
188.8976045517834
 20
105.9997587959735
 10
188.8741509389838
 20
106.0002610892736
  0
SPLINE
  5
313
330
70
100
AcDbEntity
  8
0
 62
    18
420
        0
370
    25
100
AcDbSpline
210
0.0
220
0.0
230
1.0
 70
     8
 71
     3
 72
     8
 73
     4
 74
     0
 42
0.0000000001
 43
0.0000000001
 40
0.0
 40
0.0
 40
0.0
 40
0.0
 40
1.0
 40
1.0
 40
1.0
 40
1.0
 10
188.8741509390062
 20
106.0002610892623
 30
0.0
 10
188.8737448105205
 20
105.9979482273606
 30
0.0
 10
188.8735445101235
 20
105.9956039160312
 30
0.0
 10
188.8735523896288
 20
105.9932556808562
 30
0.0
  0
LINE
  5
314
330
70
100
AcDbEntity
  8
0
 62
    18
420
        0
370
    25
100
AcDbLine
 10
188.8735523895832
 20
105.9932556808735
 30
0.0
 11
188.8741483778833
 21
106.0072863658736
 31
0.0
  0
LWPOLYLINE
  5
315
330
70
100
AcDbEntity
  8
0
 62
    18
420
        0
370
    25
100
AcDbPolyline
 90
        4
 70
     0
 43
0.0
 10
189.2071806769834
 20
105.9931234330735
 10
189.2055696441837
 20
100.6910689359734
 10
189.2055561399836
 20
95.38901459407339
 10
189.2071806769834
 20
89.99312329397351
  0
LWPOLYLINE
  5
316
330
70
100
AcDbEntity
  8
0
 62
    18
420
        0
370
    25
100
AcDbPolyline
 90
        9
 70
     0
 43
0.0
 10
189.2071806769834
 20
89.99312329397351
 10
189.1438883828835
 20
89.99309907957352
 10
189.0828989002834
 20
89.99307610697346
 10
189.0264313185837
 20
89.99305437617366
 10
188.9765401741832
 20
89.99303574967351
 10
188.9350406924834
 20
89.99301960677355
 10
188.9034427995835
 20
89.99300780997348
 10
188.8828961743837
 20
89.99299973857356
 10
188.8741483972832
 20
89.9929966341735
  0
LWPOLYLINE
  5
317
330
70
100
AcDbEntity
  8
0
 62
    18
420
        0
370
    25
100
AcDbPolyline
 90
        7
 70
     0
 43
0.0
 10
188.8741483972832
 20
89.9929966341735
 10
188.8739098622833
 20
90.65966341007341
 10
188.8730669376838
 20
93.32632958247341
 10
188.8723836961837
 20
98.65966285877336
 10
188.8726152850834
 20
100.6911310241736
 10
188.8741483778833
 20
105.9932500929737
 10
188.8741509389838
 20
106.0002610892736
  0
LINE
  5
318
330
70
100
AcDbEntity
  8
0
 62
    18
420
        0
370
    25
100
AcDbLine
 10
190.7009511509837
 20
89.99312329397351
 30
0.0
 11
190.7009511509837
 21
89.65978990607329
 31
0.0
  0
LINE
  5
319
330
70
100
AcDbEntity
  8
0
 62
    18
420
        0
370
    25
100
AcDbLine
 10
190.7009511509837
 20
89.65978990607329
 30
0.0
 11
189.2071806769834
 21
89.65978990607329
 31
0.0
  0
LINE
  5
31A
330
70
100
AcDbEntity
  8
0
 62
    18
420
        0
370
    25
100
AcDbLine
 10
189.2071806769834
 20
89.99312329397351
 30
0.0
 11
189.2071806769834
 21
89.65978990607329
 31
0.0
  0
LINE
  5
31B
330
70
100
AcDbEntity
  8
0
 62
    18
420
        0
370
    25
100
AcDbLine
 10
189.2071806769834
 20
89.99312329397351
 30
0.0
 11
190.7009511509837
 21
89.99312329397351
 31
0.0
  0
LINE
  5
31C
330
70
100
AcDbEntity
  8
0
 62
    18
420
        0
370
    25
100
AcDbLine
 10
190.7009511509837
 20
106.3264568210736
 30
0.0
 11
190.7009511509837
 21
105.9931234330735
 31
0.0
  0
LINE
  5
31D
330
70
100
AcDbEntity
  8
0
 62
    18
420
        0
370
    25
100
AcDbLine
 10
190.7009511509837
 20
105.9931234330735
 30
0.0
 11
189.2071806769834
 21
105.9931234330735
 31
0.0
  0
LINE
  5
31E
330
70
100
AcDbEntity
  8
0
 62
    18
420
        0
370
    25
100
AcDbLine
 10
189.2071806769834
 20
106.3264568210736
 30
0.0
 11
189.2071806769834
 21
105.9931234330735
 31
0.0
  0
LINE
  5
31F
330
70
100
AcDbEntity
  8
0
 62
    18
420
        0
370
    25
100
AcDbLine
 10
189.2071806769834
 20
106.3264568210736
 30
0.0
 11
190.7009511509837
 21
106.3264568210736
 31
0.0
  0
LINE
  5
320
330
70
100
AcDbEntity
  8
0
 62
    18
420
        0
370
    25
100
AcDbLine
 10
190.7009511509837
 20
89.99312329397351
 30
0.0
 11
190.7009511509837
 21
105.9931234330735
 31
0.0
  0
SPLINE
  5
321
330
70
100
AcDbEntity
  8
0
 62
    18
420
        0
370
    25
100
AcDbSpline
210
0.0
220
0.0
230
1.0
 70
     8
 71
     3
 72
     8
 73
     4
 74
     0
 42
0.0000000001
 43
0.0000000001
 40
0.0
 40
0.0
 40
0.0
 40
0.0
 40
1.0
 40
1.0
 40
1.0
 40
1.0
 10
188.8741483972774
 20
89.99299663410516
 30
0.0
 10
188.8741354824887
 20
89.80903440763965
 30
0.0
 10
189.0232184690145
 20
89.65987332873618
 30
0.0
 10
189.2071806770181
 20
89.65978990600397
 30
0.0
  0
SPLINE
  5
322
330
70
100
AcDbEntity
  8
0
 62
    18
420
        0
370
    25
100
AcDbSpline
210
0.0
220
0.0
230
1.0
 70
     8
 71
     3
 72
     8
 73
     4
 74
     0
 42
0.0000000001
 43
0.0000000001
 40
0.0
 40
0.0
 40
0.0
 40
0.0
 40
1.0
 40
1.0
 40
1.0
 40
1.0
 10
189.2071806769558
 20
106.3264568210363
 30
0.0
 10
189.0285944032478
 20
106.3264566636157
 30
0.0
 10
188.8817364125986
 20
106.1857113610226
 30
0.0
 10
188.8741483778121
 20
106.0072863658987
 30
0.0
  0
SPLINE
  5
323
330
70
100
AcDbEntity
  8
0
 62
    18
420
        0
370
    25
100
AcDbSpline
210
0.0
220
0.0
230
1.0
 70
     8
 71
     3
 72
     8
 73
     4
 74
     0
 42
0.0000000001
 43
0.0000000001
 40
0.0
 40
0.0
 40
0.0
 40
0.0
 40
1.0
 40
1.0
 40
1.0
 40
1.0
 10
188.8735523896436
 20
105.9932556809791
 30
0.0
 10
188.7739722300233
 20
103.8331019422009
 30
0.0
 10
188.7158369674763
 20
101.6712367938936
 30
0.0
 10
188.6991786818145
 20
99.5088531820277
 30
0.0
  0
LINE
  5
324
330
70
100
AcDbEntity
  8
0
 62
    18
420
        0
370
    25
100
AcDbLine
 10
188.8735523895832
 20
89.99299104617355
 30
0.0
 11
188.8741483972832
 21
89.9929966341735
 31
0.0
  0
SPLINE
  5
325
330
70
100
AcDbEntity
  8
0
 62
    18
420
        0
370
    25
100
AcDbSpline
210
0.0
220
0.0
230
1.0
 70
     8
 71
     3
 72
     8
 73
     4
 74
     0
 42
0.0000000001
 43
0.0000000001
 40
0.0
 40
0.0
 40
0.0
 40
0.0
 40
1.0
 40
1.0
 40
1.0
 40
1.0
 10
188.700039739036
 20
96.48688651619252
 30
0.0
 10
188.7153015104258
 20
94.32132654422932
 30
0.0
 10
188.7731502452942
 20
92.1562761229917
 30
0.0
 10
188.8735523896506
 20
89.99299104625185
 30
0.0
  0
LWPOLYLINE
  5
326
330
70
100
AcDbEntity
  8
0
 62
    18
420
        0
370
    25
100
AcDbPolyline
 90
        4
 70
     0
 43
0.0
 10
188.6994457342835
 20
99.17645134947358
 10
188.6991927968832
 20
99.44716035677371
 10
188.6991775976832
 20
99.49240416267356
 10
188.6991786817836
 20
99.50885318207358
  0
LWPOLYLINE
  5
327
330
70
100
AcDbEntity
  8
0
 62
    18
420
        0
370
    25
100
AcDbPolyline
 90
        4
 70
     0
 43
0.0
 10
188.8741509389838
 20
89.97896346557345
 10
188.8739326990835
 20
89.98408946497342
 10
188.8736799419834
 20
89.99001019307346
 10
188.8735523895832
 20
89.99299104617355
  0
SPLINE
  5
328
330
70
100
AcDbEntity
  8
0
 62
    18
420
        0
370
    25
100
AcDbSpline
210
0.0
220
0.0
230
1.0
 70
     8
 71
     3
 72
     8
 73
     4
 74
     0
 42
0.0000000001
 43
0.0000000001
 40
0.0
 40
0.0
 40
0.0
 40
0.0
 40
1.0
 40
1.0
 40
1.0
 40
1.0
 10
188.8741509389915
 20
89.97896346553593
 30
0.0
 10
188.8817365735329
 20
89.80053790326106
 30
0.0
 10
189.0285939386218
 20
89.65979074884229
 30
0.0
 10
189.2071806769982
 20
89.65978990598987
 30
0.0
  0
LWPOLYLINE
  5
329
330
70
100
AcDbEntity
  8
0
 62
    18
420
        0
370
    25
100
AcDbPolyline
 90
        3
 70
     0
 43
0.0
 10
188.8715911794834
 20
105.9932556808735
 10
188.8720269802836
 20
106.0022392184735
 10
188.8723697263834
 20
106.0092974017734
  0
LINE
  5
32A
330
70
100
AcDbEntity
  8
0
 62
    18
420
        0
370
    25
100
AcDbLine
 10
188.8723697263443
 20
106.0092974017802
 30
0.0
 11
188.8735476110577
 21
106.0079496976356
 31
0.0
  0
LINE
  5
32B
330
70
100
AcDbEntity
  8
0
 62
    18
420
        0
370
    25
100
AcDbLine
 10
188.8735523895832
 20
105.9932556808735
 30
0.0
 11
188.8715911794834
 21
105.9932556808735
 31
0.0
  0
SPLINE
  5
32C
330
70
100
AcDbEntity
  8
0
 62
    18
420
        0
370
    25
100
AcDbSpline
210
0.0
220
0.0
230
1.0
 70
     8
 71
     3
 72
     8
 73
     4
 74
     0
 42
0.0000000001
 43
0.0000000001
 40
0.0
 40
0.0
 40
0.0
 40
0.0
 40
1.0
 40
1.0
 40
1.0
 40
1.0
 10
189.2053104129833
 20
106.3264566969067
 30
0.0
 10
189.0275031108902
 20
106.3264566969067
 30
0.0
 10
188.8809974089838
 20
106.1868954545096
 30
0.0
 10
188.8723697195493
 20
106.0092975951395
 30
0.0
  0
SPLINE
  5
32D
330
70
100
AcDbEntity
  8
0
 62
    18
420
        0
370
    25
100
AcDbSpline
210
0.0
220
0.0
230
1.0
 70
     8
 71
     3
 72
     8
 73
     4
 74
     0
 42
0.0000000001
 43
0.0000000001
 40
0.0
 40
0.0
 40
0.0
 40
0.0
 40
1.0
 40
1.0
 40
1.0
 40
1.0
 10
188.7032906425633
 20
100.0700627327043
 30
0.0
 10
188.7013353070179
 20
99.9269321847343
 30
0.0
 10
188.7000342676206
 20
99.78379344616202
 30
0.0
 10
188.6993875651504
 20
99.64065100355593
 30
0.0
  0
SPLINE
  5
32E
330
70
100
AcDbEntity
  8
0
 62
    18
420
        0
370
    25
100
AcDbSpline
210
0.0
220
0.0
230
1.0
 70
     8
 71
     3
 72
    11
 73
     7
 74
     0
 42
0.0000000001
 43
0.0000000001
 40
0.0
 40
0.0
 40
0.0
 40
0.0
 40
1.0
 40
1.0
 40
1.0
 40
2.0
 40
2.0
 40
2.0
 40
2.0
 10
187.0342845041782
 20
99.65978999296417
 30
0.0
 10
186.9422370963389
 20
99.65979005851758
 30
0.0
 10
186.8676178757462
 20
99.58517094420788
 30
0.0
 10
186.8676178101928
 20
99.49312353636827
 30
0.0
 10
186.8676178101928
 20
99.49312345723587
 30
0.0
 10
186.8676178101928
 20
99.49312337811118
 30
0.0
 10
186.8676178101928
 20
99.49312329897878
 30
0.0
  0
LINE
  5
32F
330
70
100
AcDbEntity
  8
0
 62
    18
420
        0
370
    25
100
AcDbLine
 10
187.0342845041833
 20
99.65978999297348
 30
0.0
 11
188.5342844589837
 21
99.65978999297348
 31
0.0
  0
SPLINE
  5
330
330
70
100
AcDbEntity
  8
0
 62
    18
420
        0
370
    25
100
AcDbSpline
210
0.0
220
0.0
230
1.0
 70
     8
 71
     3
 72
     8
 73
     4
 74
     0
 42
0.0000000001
 43
0.0000000001
 40
0.0
 40
0.0
 40
0.0
 40
0.0
 40
1.0
 40
1.0
 40
1.0
 40
1.0
 10
188.7009511335962
 20
99.49312329900092
 30
0.0
 10
188.7009511194429
 20
99.58517075895386
 30
0.0
 10
188.6263319189662
 20
99.65978996811696
 30
0.0
 10
188.5342844590132
 20
99.65978999298632
 30
0.0
  0
SPLINE
  5
331
330
70
100
AcDbEntity
  8
0
 62
    18
420
        0
370
    25
100
AcDbSpline
210
0.0
220
0.0
230
1.0
 70
     8
 71
     3
 72
    11
 73
     7
 74
     0
 42
0.0000000001
 43
0.0000000001
 40
0.0
 40
0.0
 40
0.0
 40
0.0
 40
1.0
 40
1.0
 40
1.0
 40
2.0
 40
2.0
 40
2.0
 40
2.0
 10
188.5342844589574
 20
96.32645673411659
 30
0.0
 10
188.6263318613108
 20
96.32645667379271
 30
0.0
 10
188.7009510732168
 20
96.40107578789452
 30
0.0
 10
188.7009511335404
 20
96.49312319024758
 30
0.0
 10
188.7009511335404
 20
96.49312326953463
 30
0.0
 10
188.7009511335404
 20
96.49312334881527
 30
0.0
 10
188.7009511335404
 20
96.49312342810231
 30
0.0
  0
LINE
  5
332
330
70
100
AcDbEntity
  8
0
 62
    18
420
        0
370
    25
100
AcDbLine
 10
188.5342844589837
 20
96.3264567340736
 30
0.0
 11
187.0342845041833
 21
96.3264567340736
 31
0.0
  0
SPLINE
  5
333
330
70
100
AcDbEntity
  8
0
 62
    18
420
        0
370
    25
100
AcDbSpline
210
0.0
220
0.0
230
1.0
 70
     8
 71
     3
 72
     8
 73
     4
 74
     0
 42
0.0000000001
 43
0.0000000001
 40
0.0
 40
0.0
 40
0.0
 40
0.0
 40
1.0
 40
1.0
 40
1.0
 40
1.0
 10
186.8676178101755
 20
96.49312342815075
 30
0.0
 10
186.86761783725
 20
96.40107596597241
 30
0.0
 10
186.9422370419825
 20
96.32645676123992
 30
0.0
 10
187.0342845041609
 20
96.32645673416535
 30
0.0
  0
LINE
  5
334
330
70
100
AcDbEntity
  8
0
 62
    18
420
        0
370
    25
100
AcDbLine
 10
186.8676178101832
 20
99.49312329897365
 30
0.0
 11
186.8676178101832
 21
96.49312342807343
 31
0.0
  0
LINE
  5
335
330
70
100
AcDbEntity
  8
0
 62
    18
420
        0
370
    25
100
AcDbLine
 10
188.7009511335834
 20
99.49312329897365
 30
0.0
 11
188.7009511335834
 21
96.49312342807343
 31
0.0
  0
LINE
  5
336
330
70
100
AcDbEntity
  8
0
 62
    18
420
        0
370
    25
100
AcDbLine
 10
186.8676178101832
 20
99.49312329897365
 30
0.0
 11
183.7009512452837
 21
99.49312329897365
 31
0.0
  0
LINE
  5
337
330
70
100
AcDbEntity
  8
0
 62
    18
420
        0
370
    25
100
AcDbLine
 10
183.7009512452837
 20
99.65978999297348
 30
0.0
 11
183.7009512452837
 21
99.49312329897365
 31
0.0
  0
LINE
  5
338
330
70
100
AcDbEntity
  8
0
 62
    18
420
        0
370
    25
100
AcDbLine
 10
183.7009512452837
 20
99.65978999297348
 30
0.0
 11
187.0342845041833
 21
99.65978999297348
 31
0.0
  0
LINE
  5
339
330
70
100
AcDbEntity
  8
0
 62
    18
420
        0
370
    25
100
AcDbLine
 10
183.7009512452837
 20
96.49312342807343
 30
0.0
 11
186.8676178101832
 21
96.49312342807343
 31
0.0
  0
LINE
  5
33A
330
70
100
AcDbEntity
  8
0
 62
    18
420
        0
370
    25
100
AcDbLine
 10
183.7009512452837
 20
96.49312342807343
 30
0.0
 11
183.7009512452837
 21
96.3264567340736
 31
0.0
  0
LINE
  5
33B
330
70
100
AcDbEntity
  8
0
 62
    18
420
        0
370
    25
100
AcDbLine
 10
187.0342845041833
 20
96.3264567340736
 30
0.0
 11
183.7009512452837
 21
96.3264567340736
 31
0.0
  0
LINE
  5
33C
330
70
100
AcDbEntity
  8
0
 62
    18
420
        0
370
    25
100
AcDbLine
 10
183.7009512452837
 20
99.49312329897365
 30
0.0
 11
183.7009512452837
 21
96.49312342807343
 31
0.0
  0
LINE
  5
33D
330
70
100
AcDbEntity
  8
0
 62
    18
420
        0
370
    25
100
AcDbLine
 10
183.7009512452837
 20
99.49312329897365
 30
0.0
 11
122.3021815164835
 21
99.49312329897365
 31
0.0
  0
LINE
  5
33E
330
70
100
AcDbEntity
  8
0
 62
    18
420
        0
370
    25
100
AcDbLine
 10
122.3021815164835
 20
96.49312342807343
 30
0.0
 11
183.7009512452837
 21
96.49312342807343
 31
0.0
  0
SPLINE
  5
33F
330
70
100
AcDbEntity
  8
0
 62
    18
420
        0
370
    25
100
AcDbSpline
210
0.0
220
0.0
230
1.0
 70
     8
 71
     3
 72
     8
 73
     4
 74
     0
 42
0.0000000001
 43
0.0000000001
 40
0.0
 40
0.0
 40
0.0
 40
0.0
 40
1.0
 40
1.0
 40
1.0
 40
1.0
 10
122.3021808276337
 20
99.49312336357444
 30
0.0
 10
121.9449856799221
 20
98.52502045696082
 30
0.0
 10
121.9449856799221
 20
97.46122627018605
 30
0.0
 10
122.3021808276337
 20
96.49312336357274
 30
0.0
  0
CIRCLE
  5
340
330
70
100
AcDbEntity
  8
0
 62
    18
420
        0
370
    25
100
AcDbCircle
 10
156.2009511335834
 20
97.99312336357351
 30
0.0
 40
1.416666666666756
  0
LINE
  5
341
330
70
100
AcDbEntity
  8
0
 62
    18
420
        0
370
    25
100
AcDbLine
 10
122.3676174823834
 20
99.65978999297348
 30
0.0
 11
183.7009512452837
 21
99.65978999297348
 31
0.0
  0
SPLINE
  5
342
330
70
100
AcDbEntity
  8
0
 62
    18
420
        0
370
    25
100
AcDbSpline
210
0.0
220
0.0
230
1.0
 70
     8
 71
     3
 72
     8
 73
     4
 74
     0
 42
0.0000000001
 43
0.0000000001
 40
0.0
 40
0.0
 40
0.0
 40
0.0
 40
1.0
 40
1.0
 40
1.0
 40
1.0
 10
122.3676174822999
 20
99.65978999289681
 30
0.0
 10
122.3446507184331
 20
99.60469476534729
 30
0.0
 10
122.3228339984912
 20
99.54912714991314
 30
0.0
 10
122.3021815164456
 20
99.49312329891526
 30
0.0
  0
LINE
  5
343
330
70
100
AcDbEntity
  8
0
 62
    18
420
        0
370
    25
100
AcDbLine
 10
183.7009512452837
 20
96.3264567340736
 30
0.0
 11
122.3676174823834
 21
96.3264567340736
 31
0.0
  0
SPLINE
  5
344
330
70
100
AcDbEntity
  8
0
 62
    18
420
        0
370
    25
100
AcDbSpline
210
0.0
220
0.0
230
1.0
 70
     8
 71
     3
 72
     8
 73
     4
 74
     0
 42
0.0000000001
 43
0.0000000001
 40
0.0
 40
0.0
 40
0.0
 40
0.0
 40
1.0
 40
1.0
 40
1.0
 40
1.0
 10
122.3021815165278
 20
96.49312342814177
 30
0.0
 10
122.3228400631291
 20
96.43712188577618
 30
0.0
 10
122.3446567338072
 20
96.38155439581666
 30
0.0
 10
122.3676174823821
 20
96.32645673416149
 30
0.0
  0
CIRCLE
  5
345
330
70
100
AcDbEntity
  8
0
 62
    18
420
        0
370
    25
100
AcDbCircle
 10
156.2009511335834
 20
97.99312336357351
 30
0.0
 40
1.249999999999923
  0
LWPOLYLINE
  5
346
330
70
100
AcDbEntity
  8
0
 62
    18
420
        0
370
    25
100
AcDbPolyline
 90
        6
 70
     0
 43
0.0
 10
157.8676174028835
 20
99.65978999297348
 10
158.0549299660833
 20
99.84710178007357
 10
158.9915300352835
 20
100.7837010731736
 10
160.0001648012832
 20
101.7923364600737
 10
161.0143626673836
 20
102.8065340156736
 10
164.2010827803835
 20
105.9932556808735
  0
SPLINE
  5
347
330
70
100
AcDbEntity
  8
0
 62
    18
420
        0
370
    25
100
AcDbSpline
210
0.0
220
0.0
230
1.0
 70
     8
 71
     3
 72
     8
 73
     4
 74
     0
 42
0.0000000001
 43
0.0000000001
 40
0.0
 40
0.0
 40
0.0
 40
0.0
 40
1.0
 40
1.0
 40
1.0
 40
1.0
 10
164.2151122236046
 20
106.0002610892412
 30
0.0
 10
164.2097042959282
 20
105.9998334109314
 30
0.0
 10
164.2046740013242
 20
105.9973216029119
 30
0.0
 10
164.2010827803405
 20
105.993255680835
 30
0.0
  0
LWPOLYLINE
  5
348
330
70
100
AcDbEntity
  8
0
 62
    18
420
        0
370
    25
100
AcDbPolyline
 90
        5
 70
     0
 43
0.0
 10
157.8676174028835
 20
96.3264567340736
 10
158.0549225155834
 20
96.13915084537353
 10
158.9915225847835
 20
95.20255155227344
 10
160.0001598341835
 20
94.19391523407368
 10
160.0257351938835
 20
94.16833987447347
  0
LINE
  5
349
330
70
100
AcDbEntity
  8
0
 62
    18
420
        0
370
    25
100
AcDbLine
 10
161.0257347368835
 20
93.16833971047344
 30
0.0
 11
163.5342856192838
 21
90.65979006997352
 31
0.0
  0
LINE
  5
34A
330
70
100
AcDbEntity
  8
0
 62
    18
420
        0
370
    25
100
AcDbLine
 10
157.3842833383837
 20
98.30991473577345
 30
0.0
 11
157.3842833383837
 21
97.60614932657368
 31
0.0
  0
SPLINE
  5
34B
330
70
100
AcDbEntity
  8
0
 62
    18
420
        0
370
    25
100
AcDbSpline
210
0.0
220
0.0
230
1.0
 70
     8
 71
     3
 72
    11
 73
     7
 74
     0
 42
0.0000000001
 43
0.0000000001
 40
0.0
 40
0.0
 40
0.0
 40
0.0
 40
1.0
 40
1.0
 40
1.0
 40
2.0
 40
2.0
 40
2.0
 40
2.0
 10
156.6895291153162
 20
99.65978999298183
 30
0.0
 10
156.6490821180555
 20
99.92885951404728
 30
0.0
 10
156.3981694041401
 20
100.1141946884671
 30
0.0
 10
156.1290998830753
 20
100.0737476912064
 30
0.0
 10
155.9152034300877
 20
100.0415944052679
 30
0.0
 10
155.7472954707889
 20
99.87368644596935
 30
0.0
 10
155.7151421848504
 20
99.65978999298183
 30
0.0
  0
LWPOLYLINE
  5
34C
330
70
100
AcDbEntity
  8
0
 62
    18
420
        0
370
    25
100
AcDbPolyline
 90
        6
 70
     0
 43
0.0
 10
154.5342847648836
 20
99.65978999297348
 10
154.3469722016832
 20
99.84710178007357
 10
153.4103721324837
 20
100.7837010731736
 10
152.4017373664834
 20
101.7923364600737
 10
151.3875395003835
 20
102.8065340156736
 10
148.2008193873837
 20
105.9932556808735
  0
SPLINE
  5
34D
330
70
100
AcDbEntity
  8
0
 62
    18
420
        0
370
    25
100
AcDbSpline
210
0.0
220
0.0
230
1.0
 70
     8
 71
     3
 72
     8
 73
     4
 74
     0
 42
0.0000000001
 43
0.0000000001
 40
0.0
 40
0.0
 40
0.0
 40
0.0
 40
1.0
 40
1.0
 40
1.0
 40
1.0
 10
148.1938133581186
 20
106.0072832615304
 30
0.0
 10
148.1942410751651
 20
106.0018757390382
 30
0.0
 10
148.1967531769805
 20
105.9968459697788
 30
0.0
 10
148.2008193874061
 20
105.9932556809117
 30
0.0
  0
LWPOLYLINE
  5
34E
330
70
100
AcDbEntity
  8
0
 62
    18
420
        0
370
    25
100
AcDbPolyline
 90
        7
 70
     0
 43
0.0
 10
164.2010778132832
 20
106.0072863658736
 10
163.5344122790838
 20
106.0075508614735
 10
160.8677451753834
 20
106.0084977061736
 10
155.5344109677837
 20
106.0092812588735
 10
153.5029431128833
 20
106.0090136588735
 10
148.2008243544833
 20
106.0072863658736
 10
148.1938133581834
 20
106.0072832614736
  0
LINE
  5
34F
330
70
100
AcDbEntity
  8
0
 62
    18
420
        0
370
    25
100
AcDbLine
 10
164.2010827803835
 20
105.9932556808735
 30
0.0
 11
164.2010778132832
 21
106.0072863658736
 31
0.0
  0
LINE
  5
350
330
70
100
AcDbEntity
  8
0
 62
    18
420
        0
370
    25
100
AcDbLine
 10
148.2008193873837
 20
105.9932556808735
 30
0.0
 11
148.1867874606834
 21
105.9932500929737
 31
0.0
  0
LINE
  5
351
330
70
100
AcDbEntity
  8
0
 62
    18
420
        0
370
    25
100
AcDbLine
 10
155.0176188293835
 20
97.66481100717347
 30
0.0
 11
155.0176188293835
 21
98.36999410277348
 31
0.0
  0
LWPOLYLINE
  5
352
330
70
100
AcDbEntity
  8
0
 62
    18
420
        0
370
    25
100
AcDbPolyline
 90
        5
 70
     0
 43
0.0
 10
154.5342847648836
 20
96.3264567340736
 10
154.3469796522833
 20
96.13915084537353
 10
153.4103795829837
 20
95.20255155227344
 10
152.4017423335837
 20
94.19391523407368
 10
152.3047506753832
 20
94.09692326547348
  0
LINE
  5
353
330
70
100
AcDbEntity
  8
0
 62
    18
420
        0
370
    25
100
AcDbLine
 10
151.3047511322832
 20
93.09692341197333
 30
0.0
 11
148.8676190320833
 21
90.65979006997352
 31
0.0
  0
SPLINE
  5
354
330
70
100
AcDbEntity
  8
0
 62
    18
420
        0
370
    25
100
AcDbSpline
210
0.0
220
0.0
230
1.0
 70
     8
 71
     3
 72
     8
 73
     4
 74
     0
 42
0.0000000001
 43
0.0000000001
 40
0.0
 40
0.0
 40
0.0
 40
0.0
 40
1.0
 40
1.0
 40
1.0
 40
1.0
 10
156.2009523256624
 20
95.90978999911071
 30
0.0
 10
156.4459532066562
 20
95.90305358645927
 30
0.0
 10
156.6560965193414
 20
96.08328896699653
 30
0.0
 10
156.6867599829046
 20
96.32645673407392
 30
0.0
  0
SPLINE
  5
355
330
70
100
AcDbEntity
  8
0
 62
    18
420
        0
370
    25
100
AcDbSpline
210
0.0
220
0.0
230
1.0
 70
     8
 71
     3
 72
     8
 73
     4
 74
     0
 42
0.0000000001
 43
0.0000000001
 40
0.0
 40
0.0
 40
0.0
 40
0.0
 40
1.0
 40
1.0
 40
1.0
 40
1.0
 10
155.7102099004957
 20
96.32645673412621
 30
0.0
 10
155.7430798114368
 20
96.08245972791621
 30
0.0
 10
155.9548547628321
 20
95.90265139460816
 30
0.0
 10
156.2009523256194
 20
95.90978999916236
 30
0.0
  0
LINE
  5
356
330
70
100
AcDbEntity
  8
0
 62
    18
420
        0
370
    25
100
AcDbLine
 10
147.8676170054835
 20
90.65979006997352
 30
0.0
 11
147.8676170054835
 21
96.3264567340736
 31
0.0
  0
LINE
  5
357
330
70
100
AcDbEntity
  8
0
 62
    18
420
        0
370
    25
100
AcDbLine
 10
147.8676170054835
 20
99.65978999297348
 30
0.0
 11
147.8676170054835
 21
105.9931234330735
 31
0.0
  0
SPLINE
  5
358
330
70
100
AcDbEntity
  8
0
 62
    18
420
        0
370
    25
100
AcDbSpline
210
0.0
220
0.0
230
1.0
 70
     8
 71
     3
 72
     8
 73
     4
 74
     0
 42
0.0000000001
 43
0.0000000001
 40
0.0
 40
0.0
 40
0.0
 40
0.0
 40
1.0
 40
1.0
 40
1.0
 40
1.0
 10
148.1867874607187
 20
105.9932500929669
 30
0.0
 10
148.080397292271
 20
105.9932898732873
 30
0.0
 10
147.9740071089783
 20
105.993247653318
 30
0.0
 10
147.8676170056125
 20
105.993123433097
 30
0.0
  0
SPLINE
  5
359
330
70
100
AcDbEntity
  8
0
 62
    18
420
        0
370
    25
100
AcDbSpline
210
0.0
220
0.0
230
1.0
 70
     8
 71
     3
 72
     8
 73
     4
 74
     0
 42
0.0000000001
 43
0.0000000001
 40
0.0
 40
0.0
 40
0.0
 40
0.0
 40
1.0
 40
1.0
 40
1.0
 40
1.0
 10
164.5342851622664
 20
105.9931234331185
 30
0.0
 10
164.4238149424813
 20
106.0072414363621
 30
0.0
 10
164.3123475911264
 20
106.0119793408986
 30
0.0
 10
164.2010778132839
 20
106.0072863659516
 30
0.0
  0
SPLINE
  5
35A
330
70
100
AcDbEntity
  8
0
 62
    18
420
        0
370
    25
100
AcDbSpline
210
0.0
220
0.0
230
1.0
 70
     8
 71
     3
 72
     8
 73
     4
 74
     0
 42
0.0000000001
 43
0.0000000001
 40
0.0
 40
0.0
 40
0.0
 40
0.0
 40
1.0
 40
1.0
 40
1.0
 40
1.0
 10
164.5342851622747
 20
105.9931234331011
 30
0.0
 10
164.4281170927732
 20
106.0015822525142
 30
0.0
 10
164.321552295945
 20
106.0039653583228
 30
0.0
 10
164.2151122236103
 20
106.0002610893127
 30
0.0
  0
LINE
  5
35B
330
70
100
AcDbEntity
  8
0
 62
    18
420
        0
370
    25
100
AcDbLine
 10
164.5342851622837
 20
105.9931234330735
 30
0.0
 11
164.5342851622837
 21
99.65978999297348
 31
0.0
  0
LINE
  5
35C
330
70
100
AcDbEntity
  8
0
 62
    18
420
        0
370
    25
100
AcDbLine
 10
164.5342851622837
 20
96.3264567340736
 30
0.0
 11
164.5342851622837
 21
90.65979006997352
 31
0.0
  0
LINE
  5
35D
330
70
100
AcDbEntity
  8
0
 62
    18
420
        0
370
    25
100
AcDbLine
 10
148.2009510143835
 20
106.3264568210736
 30
0.0
 11
164.2009511533837
 21
106.3264568210736
 31
0.0
  0
SPLINE
  5
35E
330
70
100
AcDbEntity
  8
0
 62
    18
420
        0
370
    25
100
AcDbSpline
210
0.0
220
0.0
230
1.0
 70
     8
 71
     3
 72
     8
 73
     4
 74
     0
 42
0.0000000001
 43
0.0000000001
 40
0.0
 40
0.0
 40
0.0
 40
0.0
 40
1.0
 40
1.0
 40
1.0
 40
1.0
 10
164.2010778132774
 20
106.0072863657947
 30
0.0
 10
164.2011186171457
 20
106.1136765342918
 30
0.0
 10
164.201076397176
 20
106.2200667184142
 30
0.0
 10
164.2009511534075
 20
106.3264568210168
 30
0.0
  0
SPLINE
  5
35F
330
70
100
AcDbEntity
  8
0
 62
    18
420
        0
370
    25
100
AcDbSpline
210
0.0
220
0.0
230
1.0
 70
     8
 71
     3
 72
     8
 73
     4
 74
     0
 42
0.0000000001
 43
0.0000000001
 40
0.0
 40
0.0
 40
0.0
 40
0.0
 40
1.0
 40
1.0
 40
1.0
 40
1.0
 10
148.2009510143931
 20
106.326456821045
 30
0.0
 10
148.1924897522958
 20
106.2202886686831
 30
0.0
 10
148.1901066433769
 20
106.1137235254866
 30
0.0
 10
148.1938133581815
 20
106.0072832614999
 30
0.0
  0
SPLINE
  5
360
330
70
100
AcDbEntity
  8
0
 62
    18
420
        0
370
    25
100
AcDbSpline
210
0.0
220
0.0
230
1.0
 70
     8
 71
     3
 72
     8
 73
     4
 74
     0
 42
0.0000000001
 43
0.0000000001
 40
0.0
 40
0.0
 40
0.0
 40
0.0
 40
1.0
 40
1.0
 40
1.0
 40
1.0
 10
148.2009510143013
 20
106.3264568210835
 30
0.0
 10
148.1868327393411
 20
106.215986832439
 30
0.0
 10
148.182094626804
 20
106.1045196817752
 30
0.0
 10
148.1867874605865
 20
105.9932500929826
 30
0.0
  0
SPLINE
  5
361
330
70
100
AcDbEntity
  8
0
 62
    18
420
        0
370
    25
100
AcDbSpline
210
0.0
220
0.0
230
1.0
 70
     8
 71
     3
 72
     8
 73
     4
 74
     0
 42
0.0000000001
 43
0.0000000001
 40
0.0
 40
0.0
 40
0.0
 40
0.0
 40
1.0
 40
1.0
 40
1.0
 40
1.0
 10
164.5342844669168
 20
105.9931233640466
 30
0.0
 10
164.5342844666556
 20
106.1772182804719
 30
0.0
 10
164.3850460500088
 20
106.3264566969067
 30
0.0
 10
164.2009511335835
 20
106.3264566969067
 30
0.0
  0
SPLINE
  5
362
330
70
100
AcDbEntity
  8
0
 62
    18
420
        0
370
    25
100
AcDbSpline
210
0.0
220
0.0
230
1.0
 70
     8
 71
     3
 72
     8
 73
     4
 74
     0
 42
0.0000000001
 43
0.0000000001
 40
0.0
 40
0.0
 40
0.0
 40
0.0
 40
1.0
 40
1.0
 40
1.0
 40
1.0
 10
148.2009511335836
 20
106.3264566969067
 30
0.0
 10
148.0168562169735
 20
106.3264566969067
 30
0.0
 10
147.8676178002502
 20
106.1772182801838
 30
0.0
 10
147.8676178002502
 20
105.9931233635734
 30
0.0
  0
CIRCLE
  5
363
330
70
100
AcDbEntity
  8
0
 62
    18
420
        0
370
    25
100
AcDbCircle
 10
156.2009511335834
 20
97.99312336357344
 30
0.0
 40
0.8666666666664566
  0
LWPOLYLINE
  5
364
330
70
100
AcDbEntity
  8
0
 62
     8
420
  8421504
370
    25
100
AcDbPolyline
 90
        5
 70
     0
 43
0.0
 10
188.8724674181832
 20
89.97706170487358
 10
188.8723836961837
 20
89.97696546817357
 10
188.8726152850834
 20
89.97723306827365
 10
188.8741483778833
 20
89.97896036117341
 10
188.8741509389838
 20
89.97896346557345
  0
LINE
  5
365
330
70
100
AcDbEntity
  8
0
 62
     8
420
  8421504
370
    25
100
AcDbLine
 10
187.2842843898834
 20
91.65979023387343
 30
0.0
 11
188.2842844761836
 21
91.65979023387343
 31
0.0
  0
LWPOLYLINE
  5
366
330
70
100
AcDbEntity
  8
0
 62
     8
420
  8421504
370
    25
100
AcDbPolyline
 90
       10
 70
     0
 43
0.0
 10
186.7235252888836
 20
90.65979006997352
 10
186.5883253458837
 20
90.62173002067355
 10
186.4736242784836
 20
90.51334332037358
 10
186.3969835707832
 20
90.35113176317365
 10
186.3700708318835
 20
90.15979029837344
 10
186.3969835707832
 20
89.96844821277369
 10
186.4736242784836
 20
89.80623665557343
 10
186.5883253458837
 20
89.69784995527346
 10
186.7236243194838
 20
89.65978990607329
 10
186.7239231187833
 20
89.65978990607329
  0
LWPOLYLINE
  5
367
330
70
100
AcDbEntity
  8
0
 62
     8
420
  8421504
370
    25
100
AcDbPolyline
 90
       10
 70
     0
 43
0.0
 10
126.7024596476838
 20
90.65979006997352
 10
126.5671620710836
 20
90.62173002067355
 10
126.4524578992834
 20
90.51334332037358
 10
126.3758212271834
 20
90.35113176317365
 10
126.3489047630835
 20
90.15979029837344
 10
126.3758212271834
 20
89.96844821277369
 10
126.4524578992834
 20
89.80623665557343
 10
126.5671620710836
 20
89.69784995527346
 10
126.7024596476838
 20
89.65978990607329
 10
126.7024596476838
 20
89.65978990607329
  0
LINE
  5
368
330
70
100
AcDbEntity
  8
0
 62
     8
420
  8421504
370
    25
100
AcDbLine
 10
126.1417984906836
 20
91.65979023387343
 30
0.0
 11
125.1418014311834
 21
91.65979023387343
 31
0.0
  0
LINE
  5
369
330
70
100
AcDbEntity
  8
0
 62
     8
420
  8421504
370
    25
100
AcDbLine
 10
188.2842844761836
 20
81.65979045737397
 30
0.0
 11
187.2842843898834
 21
81.65979045737397
 31
0.0
  0
LWPOLYLINE
  5
36A
330
70
100
AcDbEntity
  8
0
 62
     8
420
  8421504
370
    25
100
AcDbPolyline
 90
       10
 70
     0
 43
0.0
 10
186.7235252888836
 20
80.65978967257343
 10
186.5883253458837
 20
80.62172962337326
 10
186.4736242784836
 20
80.51334354387348
 10
186.3969835707832
 20
80.35113198667323
 10
186.3700708318835
 20
80.15978990107379
 10
186.3969835707832
 20
79.96844781547308
 10
186.4736242784836
 20
79.80623625827345
 10
186.5883253458837
 20
79.69785017877303
 10
186.7236243194838
 20
79.65979012957349
 10
186.7239231187833
 20
79.65979012957349
  0
LWPOLYLINE
  5
36B
330
70
100
AcDbEntity
  8
0
 62
     8
420
  8421504
370
    25
100
AcDbPolyline
 90
       10
 70
     0
 43
0.0
 10
135.4234437091833
 20
80.65978967257343
 10
135.2881461325832
 20
80.62172962337326
 10
135.1734419607837
 20
80.51334354387348
 10
135.0968052887838
 20
80.35113198667323
 10
135.0698888245837
 20
80.15978990107379
 10
135.0968052887838
 20
79.96844781547308
 10
135.1734419607837
 20
79.80623625827345
 10
135.2881461325832
 20
79.69785017877303
 10
135.4234437091833
 20
79.65979012957349
 10
135.4234437091833
 20
79.65979012957349
  0
LINE
  5
36C
330
70
100
AcDbEntity
  8
0
 62
     8
420
  8421504
370
    25
100
AcDbLine
 10
134.8627825521832
 20
81.65979045737397
 30
0.0
 11
133.8627854926837
 21
81.65979045737397
 31
0.0
  0
LINE
  5
36D
330
70
100
AcDbEntity
  8
0
 62
     8
420
  8421504
370
    25
100
AcDbLine
 10
169.7467187984838
 20
81.65979045737397
 30
0.0
 11
168.7467180136833
 21
81.65979045737397
 31
0.0
  0
LINE
  5
36E
330
70
100
AcDbEntity
  8
0
 62
     8
420
  8421504
370
    25
100
AcDbLine
 10
178.4677022391832
 20
91.65979023387343
 30
0.0
 11
177.4677020752836
 21
91.65979023387343
 31
0.0
  0
LINE
  5
36F
330
70
100
AcDbEntity
  8
0
 62
     8
420
  8421504
370
    25
100
AcDbLine
 10
161.0257347368835
 20
81.65979045737397
 30
0.0
 11
160.0257351938835
 21
81.65979045737397
 31
0.0
  0
LINE
  5
370
330
70
100
AcDbEntity
  8
0
 62
     8
420
  8421504
370
    25
100
AcDbLine
 10
152.3047506753832
 20
81.65979045737397
 30
0.0
 11
151.3047511322832
 21
81.65979045737397
 31
0.0
  0
LINE
  5
371
330
70
100
AcDbEntity
  8
0
 62
     8
420
  8421504
370
    25
100
AcDbLine
 10
143.5837666137835
 20
81.65979045737397
 30
0.0
 11
142.5837695542834
 21
81.65979045737397
 31
0.0
  0
LWPOLYLINE
  5
372
330
70
100
AcDbEntity
  8
0
 62
     8
420
  8421504
370
    25
100
AcDbPolyline
 90
        3
 70
     0
 43
0.0
 10
164.2153779609832
 20
90.65979006997352
 10
164.2163266682834
 20
93.32632958247341
 10
164.2167662524833
 20
96.3264567340736
  0
LWPOLYLINE
  5
373
330
70
100
AcDbEntity
  8
0
 62
     8
420
  8421504
370
    25
100
AcDbPolyline
 90
        4
 70
     0
 43
0.0
 10
164.2169773522837
 20
99.65978999297348
 10
164.2168407582837
 20
100.6911310241736
 10
164.2151147071833
 20
105.9932500929737
 10
164.2151122235834
 20
106.0002610892736
  0
LWPOLYLINE
  5
374
330
70
100
AcDbEntity
  8
0
 62
     8
420
  8421504
370
    25
100
AcDbPolyline
 90
        4
 70
     0
 43
0.0
 10
148.1867874606834
 20
105.9932500929737
 10
148.1865242067833
 20
105.3265833169736
 10
148.1855754994832
 20
102.6599171445736
 10
148.1851359152832
 20
99.65978999297348
  0
LWPOLYLINE
  5
375
330
70
100
AcDbEntity
  8
0
 62
     8
420
  8421504
370
    25
100
AcDbPolyline
 90
        3
 70
     0
 43
0.0
 10
148.1849248154835
 20
96.3264567340736
 10
148.1850614094835
 20
95.29511570297355
 10
148.1865713937834
 20
90.65979006997352
  0
LINE
  5
376
330
70
100
AcDbEntity
  8
0
 62
     8
420
  8421504
370
    25
100
AcDbLine
 10
156.2009523256836
 20
95.90978999917361
 30
0.0
 11
156.2009523256836
 21
90.65979006997352
 31
0.0
  0
INSERT
  5
379
330
70
100
AcDbEntity
  8
CAPA_BASE
100
AcDbBlockReference
  2
Block_0
 10
0.0
 20
0.0
 30
0.0
  0
INSERT
  5
385
330
70
100
AcDbEntity
  8
CAPA_BASE
100
AcDbBlockReference
  2
Block_1
 10
0.0
 20
0.0
 30
0.0
  0
INSERT
  5
391
330
70
100
AcDbEntity
  8
CAPA_BASE
100
AcDbBlockReference
  2
Block_2
 10
0.0
 20
0.0
 30
0.0
  0
LINE
  5
39C
330
70
100
AcDbEntity
  8
CAPA_BASE
 62
    18
420
        0
370
    25
100
AcDbLine
 10
156.2009511335832
 20
97.99312336357344
 30
0.0
 11
156.2009511335832
 21
98.82645669687342
 31
0.0
  0
LINE
  5
39D
330
70
100
AcDbEntity
  8
CAPA_BASE
 62
    18
420
        0
370
    25
100
AcDbLine
 10
156.2009511335832
 20
97.99312336357344
 30
0.0
 11
155.3676178002835
 21
97.99312336357344
 31
0.0
  0
LINE
  5
39E
330
70
100
AcDbEntity
  8
CAPA_BASE
 62
    18
420
        0
370
    25
100
AcDbLine
 10
156.2009511335832
 20
97.99312336357344
 30
0.0
 11
156.2009511335832
 21
97.15979003027342
 31
0.0
  0
LINE
  5
39F
330
70
100
AcDbEntity
  8
CAPA_BASE
 62
    18
420
        0
370
    25
100
AcDbLine
 10
156.2009511335832
 20
97.99312336357344
 30
0.0
 11
157.0342844668835
 21
97.99312336357344
 31
0.0
  0
LINE
  5
3A0
330
70
100
AcDbEntity
  8
CAPA_BASE
 62
    18
420
        0
370
    25
100
AcDbLine
 10
156.2009511335832
 20
99.65979003027353
 30
0.0
 11
156.2009511335832
 21
100.5264566968735
 31
0.0
  0
LINE
  5
3A1
330
70
100
AcDbEntity
  8
CAPA_BASE
 62
    18
420
        0
370
    25
100
AcDbLine
 10
154.5342844668837
 20
97.99312336357344
 30
0.0
 11
153.6676178002838
 21
97.99312336357344
 31
0.0
  0
LINE
  5
3A2
330
70
100
AcDbEntity
  8
CAPA_BASE
 62
    18
420
        0
370
    25
100
AcDbLine
 10
156.2009511335832
 20
96.32645669687365
 30
0.0
 11
156.2009511335832
 21
95.45979003027337
 31
0.0
  0
LINE
  5
3A3
330
70
100
AcDbEntity
  8
CAPA_BASE
 62
    18
420
        0
370
    25
100
AcDbLine
 10
157.8676178002833
 20
97.99312336357344
 30
0.0
 11
158.7342844668833
 21
97.99312336357344
 31
0.0
  0
ENDSEC
  0
SECTION
  2
OBJECTS
  0
DICTIONARY
  5
C
330
0
100
AcDbDictionary
281
     1
  3
ACAD_COLOR
350
63
  3
ACAD_DETAILVIEWSTYLE
350
6A
  3
ACAD_GROUP
350
D
  3
ACAD_LAYOUT
350
62
  3
ACAD_MATERIAL
350
10
  3
ACAD_MLEADERSTYLE
350
66
  3
ACAD_MLINESTYLE
350
5F
  3
ACAD_PLOTSETTINGS
350
61
  3
ACAD_PLOTSTYLENAME
350
E
  3
ACAD_SCALELIST
350
42
  3
ACAD_SECTIONVIEWSTYLE
350
68
  3
ACAD_TABLESTYLE
350
64
  3
ACAD_VISUALSTYLE
350
29
  3
ACDB_RECOMPOSE_DATA
350
3AC
  3
AcDbVariableDictionary
350
3A4
  0
DICTIONARY
  5
63
102
{ACAD_REACTORS
330
C
102
}
330
C
100
AcDbDictionary
281
     1
  0
DICTIONARY
  5
6A
102
{ACAD_REACTORS
330
C
102
}
330
C
100
AcDbDictionary
281
     1
  3
Imperial24
350
6B
  0
DICTIONARY
  5
D
102
{ACAD_REACTORS
330
C
102
}
330
C
100
AcDbDictionary
281
     1
  0
DICTIONARY
  5
62
102
{ACAD_REACTORS
330
C
102
}
330
C
100
AcDbDictionary
281
     1
  3
Layout1
350
6F
  3
Layout2
350
77
  3
Model
350
73
  0
DICTIONARY
  5
10
102
{ACAD_REACTORS
330
C
102
}
330
C
100
AcDbDictionary
281
     1
  3
ByBlock
350
19
  3
ByLayer
350
11
  3
Global
350
21
  0
DICTIONARY
  5
66
102
{ACAD_REACTORS
330
C
102
}
330
C
100
AcDbDictionary
281
     1
  3
Standard
350
67
  0
DICTIONARY
  5
5F
102
{ACAD_REACTORS
330
C
102
}
330
C
100
AcDbDictionary
281
     1
  3
Standard
350
60
  0
DICTIONARY
  5
61
102
{ACAD_REACTORS
330
C
102
}
330
C
100
AcDbDictionary
281
     1
  0
ACDBDICTIONARYWDFLT
  5
E
102
{ACAD_REACTORS
330
C
102
}
330
C
100
AcDbDictionary
281
     1
  3
Normal
350
F
100
AcDbDictionaryWithDefault
340
F
  0
DICTIONARY
  5
42
102
{ACAD_REACTORS
330
C
102
}
330
C
100
AcDbDictionary
281
     1
  3
A0
350
43
  3
A1
350
44
  3
A2
350
45
  3
A3
350
46
  3
A4
350
47
  3
A5
350
48
  3
A6
350
49
  3
A7
350
4A
  3
A8
350
4B
  3
A9
350
4C
  3
B0
350
4D
  3
B1
350
4E
  3
B2
350
4F
  3
B3
350
50
  3
B4
350
51
  3
B5
350
52
  3
B6
350
53
  0
DICTIONARY
  5
68
102
{ACAD_REACTORS
330
C
102
}
330
C
100
AcDbDictionary
281
     1
  3
Imperial24
350
69
  0
DICTIONARY
  5
64
102
{ACAD_REACTORS
330
C
102
}
330
C
100
AcDbDictionary
281
     1
  3
Standard
350
65
  0
DICTIONARY
  5
29
102
{ACAD_REACTORS
330
C
102
}
330
C
100
AcDbDictionary
281
     1
  3
2dWireframe
350
2F
  3
Basic
350
2E
  3
Brighten
350
35
  3
ColorChange
350
39
  3
Conceptual
350
32
  3
Dim
350
34
  3
EdgeColorOff
350
41
  3
Facepattern
350
38
  3
Flat
350
2A
  3
FlatWithEdges
350
2B
  3
Gouraud
350
2C
  3
GouraudWithEdges
350
2D
  3
Hidden
350
31
  3
JitterOff
350
3F
  3
Linepattern
350
37
  3
OverhangOff
350
40
  3
Realistic
350
33
  3
Shaded
350
3E
  3
Shaded with edges
350
3D
  3
Shades of Gray
350
3A
  3
Sketchy
350
3B
  3
Thicken
350
36
  3
Wireframe
350
30
  3
X-Ray
350
3C
  0
XRECORD
  5
3AC
102
{ACAD_REACTORS
330
C
102
}
330
C
100
AcDbXrecord
280
     1
 90
        1
330
65
  0
DICTIONARY
  5
3A4
102
{ACAD_REACTORS
330
C
102
}
330
C
100
AcDbDictionary
281
     1
  3
CANNOSCALE
350
3A9
  3
CMLEADERSTYLE
350
3A6
  3
CTABLESTYLE
350
3A5
  3
CVIEWDETAILSTYLE
350
3A7
  3
CVIEWSECTIONSTYLE
350
3A8
  0
ACDBDETAILVIEWSTYLE
  5
6B
102
{ACAD_REACTORS
330
6A
102
}
330
6A
100
AcDbModelDocViewStyle
 70
     0
  3
Imperial24
290
     1
300
Imperial24
 90
        0
100
AcDbDetailViewStyle
 70
     0
 71
     0
 90
        3
 71
     1
340
55
 62
   256
 40
0.24
340
0
 62
   256
 40
0.24
300

 40
0.36
280
     3
 71
     2
340
5D
 90
       25
 62
   256
 71
     3
340
55
 62
   256
 40
0.24
 90
        1
 40
0.75
 90
        1
300
%<\AcVar ViewType \f "%tc1">% %<\AcVar ViewDetailId>%\PSCALE %<\AcVar ViewScale \f "%sn">%
 71
     4
340
5D
 90
       25
 62
   256
340
5D
 90
       25
 62
   256
280
     0
  0
LAYOUT
  5
6F
102
{ACAD_REACTORS
330
62
102
}
330
62
100
AcDbPlotSettings
  1

  2

  4

  6

 40
0.0
 41
0.0
 42
0.0
 43
0.0
 44
0.0
 45
0.0
 46
0.0
 47
0.0
 48
0.0
 49
0.0
140
0.0
141
0.0
142
1.0
143
1.0
 70
   688
 72
     0
 73
     0
 74
     5
  7

 75
    16
147
1.0
 76
     0
 77
     2
 78
   300
148
0.0
149
0.0
100
AcDbLayout
  1
Layout1
 70
     1
 71
     1
 10
0.0
 20
0.0
 11
12.0
 21
9.0
 12
0.0
 22
0.0
 32
0.0
 14
0.0
 24
0.0
 34
0.0
 15
0.0
 25
0.0
 35
0.0
146
0.0
 13
0.0
 23
0.0
 33
0.0
 16
1.0
 26
0.0
 36
0.0
 17
0.0
 27
1.0
 37
0.0
 76
     0
330
6C
  0
LAYOUT
  5
77
102
{ACAD_REACTORS
330
62
102
}
330
62
100
AcDbPlotSettings
  1

  2

  4

  6

 40
0.0
 41
0.0
 42
0.0
 43
0.0
 44
0.0
 45
0.0
 46
0.0
 47
0.0
 48
0.0
 49
0.0
140
0.0
141
0.0
142
1.0
143
1.0
 70
   688
 72
     0
 73
     0
 74
     5
  7

 75
    16
147
1.0
 76
     0
 77
     2
 78
   300
148
0.0
149
0.0
100
AcDbLayout
  1
Layout2
 70
     1
 71
     2
 10
0.0
 20
0.0
 11
12.0
 21
9.0
 12
0.0
 22
0.0
 32
0.0
 14
0.0
 24
0.0
 34
0.0
 15
0.0
 25
0.0
 35
0.0
146
0.0
 13
0.0
 23
0.0
 33
0.0
 16
1.0
 26
0.0
 36
0.0
 17
0.0
 27
1.0
 37
0.0
 76
     0
330
74
  0
LAYOUT
  5
73
102
{ACAD_REACTORS
330
62
102
}
330
62
100
AcDbPlotSettings
  1

  2

  4

  6

 40
0.0
 41
0.0
 42
0.0
 43
0.0
 44
0.0
 45
0.0
 46
0.0
 47
0.0
 48
0.0
 49
0.0
140
0.0
141
0.0
142
1.0
143
1.0
 70
  1712
 72
     0
 73
     0
 74
     0
  7

 75
     0
147
1.0
 76
     0
 77
     2
 78
   300
148
0.0
149
0.0
100
AcDbLayout
  1
Model
 70
     1
 71
     0
 10
0.0
 20
0.0
 11
12.0
 21
9.0
 12
0.0
 22
0.0
 32
0.0
 14
0.0
 24
0.0
 34
0.0
 15
0.0
 25
0.0
 35
0.0
146
0.0
 13
0.0
 23
0.0
 33
0.0
 16
1.0
 26
0.0
 36
0.0
 17
0.0
 27
1.0
 37
0.0
 76
     0
330
70
  0
MATERIAL
  5
19
102
{ACAD_XDICTIONARY
360
1A
102
}
102
{ACAD_REACTORS
330
10
102
}
330
10
100
AcDbMaterial
  1
ByBlock
 72
     0
 43
0.0208333333333333
 43
0.0
 43
0.0
 43
0.0
 43
0.0
 43
0.0208333333333333
 43
0.0
 43
0.0
 43
0.0
 43
0.0
 43
1.0
 43
0.0
 43
0.0
 43
0.0
 43
0.0
 43
1.0
 77
     0
 47
0.0208333333333333
 47
0.0
 47
0.0
 47
0.0
 47
0.0
 47
0.0208333333333333
 47
0.0
 47
0.0
 47
0.0
 47
0.0
 47
1.0
 47
0.0
 47
0.0
 47
0.0
 47
0.0
 47
1.0
171
     0
 49
0.0208333333333333
 49
0.0
 49
0.0
 49
0.0
 49
0.0
 49
0.0208333333333333
 49
0.0
 49
0.0
 49
0.0
 49
0.0
 49
1.0
 49
0.0
 49
0.0
 49
0.0
 49
0.0
 49
1.0
175
     0
142
0.0208333333333333
142
0.0
142
0.0
142
0.0
142
0.0
142
0.0208333333333333
142
0.0
142
0.0
142
0.0
142
0.0
142
1.0
142
0.0
142
0.0
142
0.0
142
0.0
142
1.0
179
     0
144
0.0208333333333333
144
0.0
144
0.0
144
0.0
144
0.0
144
0.0208333333333333
144
0.0
144
0.0
144
0.0
144
0.0
144
1.0
144
0.0
144
0.0
144
0.0
144
0.0
144
1.0
147
0.0208333333333333
147
0.0
147
0.0
147
0.0
147
0.0
147
0.0208333333333333
147
0.0
147
0.0
147
0.0
147
0.0
147
1.0
147
0.0
147
0.0
147
0.0
147
0.0
147
1.0
  0
MATERIAL
  5
11
102
{ACAD_XDICTIONARY
360
12
102
}
102
{ACAD_REACTORS
330
10
102
}
330
10
100
AcDbMaterial
  1
ByLayer
 72
     0
 43
0.0208333333333333
 43
0.0
 43
0.0
 43
0.0
 43
0.0
 43
0.0208333333333333
 43
0.0
 43
0.0
 43
0.0
 43
0.0
 43
1.0
 43
0.0
 43
0.0
 43
0.0
 43
0.0
 43
1.0
 77
     0
 47
0.0208333333333333
 47
0.0
 47
0.0
 47
0.0
 47
0.0
 47
0.0208333333333333
 47
0.0
 47
0.0
 47
0.0
 47
0.0
 47
1.0
 47
0.0
 47
0.0
 47
0.0
 47
0.0
 47
1.0
171
     0
 49
0.0208333333333333
 49
0.0
 49
0.0
 49
0.0
 49
0.0
 49
0.0208333333333333
 49
0.0
 49
0.0
 49
0.0
 49
0.0
 49
1.0
 49
0.0
 49
0.0
 49
0.0
 49
0.0
 49
1.0
175
     0
142
0.0208333333333333
142
0.0
142
0.0
142
0.0
142
0.0
142
0.0208333333333333
142
0.0
142
0.0
142
0.0
142
0.0
142
1.0
142
0.0
142
0.0
142
0.0
142
0.0
142
1.0
179
     0
144
0.0208333333333333
144
0.0
144
0.0
144
0.0
144
0.0
144
0.0208333333333333
144
0.0
144
0.0
144
0.0
144
0.0
144
1.0
144
0.0
144
0.0
144
0.0
144
0.0
144
1.0
147
0.0208333333333333
147
0.0
147
0.0
147
0.0
147
0.0
147
0.0208333333333333
147
0.0
147
0.0
147
0.0
147
0.0
147
1.0
147
0.0
147
0.0
147
0.0
147
0.0
147
1.0
  0
MATERIAL
  5
21
102
{ACAD_XDICTIONARY
360
22
102
}
102
{ACAD_REACTORS
330
10
102
}
330
10
100
AcDbMaterial
  1
Global
 72
     0
 43
0.0208333333333333
 43
0.0
 43
0.0
 43
0.0
 43
0.0
 43
0.0208333333333333
 43
0.0
 43
0.0
 43
0.0
 43
0.0
 43
1.0
 43
0.0
 43
0.0
 43
0.0
 43
0.0
 43
1.0
 77
     0
 47
0.0208333333333333
 47
0.0
 47
0.0
 47
0.0
 47
0.0
 47
0.0208333333333333
 47
0.0
 47
0.0
 47
0.0
 47
0.0
 47
1.0
 47
0.0
 47
0.0
 47
0.0
 47
0.0
 47
1.0
171
     0
 49
0.0208333333333333
 49
0.0
 49
0.0
 49
0.0
 49
0.0
 49
0.0208333333333333
 49
0.0
 49
0.0
 49
0.0
 49
0.0
 49
1.0
 49
0.0
 49
0.0
 49
0.0
 49
0.0
 49
1.0
175
     0
142
0.0208333333333333
142
0.0
142
0.0
142
0.0
142
0.0
142
0.0208333333333333
142
0.0
142
0.0
142
0.0
142
0.0
142
1.0
142
0.0
142
0.0
142
0.0
142
0.0
142
1.0
179
     0
144
0.0208333333333333
144
0.0
144
0.0
144
0.0
144
0.0
144
0.0208333333333333
144
0.0
144
0.0
144
0.0
144
0.0
144
1.0
144
0.0
144
0.0
144
0.0
144
0.0
144
1.0
147
0.0208333333333333
147
0.0
147
0.0
147
0.0
147
0.0
147
0.0208333333333333
147
0.0
147
0.0
147
0.0
147
0.0
147
1.0
147
0.0
147
0.0
147
0.0
147
0.0
147
1.0
  0
MLEADERSTYLE
  5
67
102
{ACAD_REACTORS
330
66
102
}
330
66
100
AcDbMLeaderStyle
179
     2
170
     2
171
     1
172
     0
 90
        2
 40
0.0
 41
0.0
173
     1
 91
-1056964608
340
5B
 92
       -2
290
     1
 42
0.09
291
     1
 43
0.36
  3
Standard
 44
0.18
300

342
55
174
     1
178
     6
175
     1
176
     0
 93
-1056964608
 45
0.18
292
     0
297
     0
 46
0.18
 94
-1056964608
 47
1.0
 49
1.0
140
1.0
293
     1
141
0.0
294
     1
177
     0
142
1.0
295
     1
296
     0
143
0.125
271
     0
272
     9
273
     9
298
     1
  0
MLINESTYLE
  5
60
102
{ACAD_REACTORS
330
5F
102
}
330
5F
100
AcDbMlineStyle
  2
STANDARD
 70
     0
  3

 62
   256
 51
90.0
 52
90.0
 71
     2
 49
0.5
 62
   256
  6
BYLAYER
 49
-0.5
 62
   256
  6
BYLAYER
  0
ACDBPLACEHOLDER
  5
F
102
{ACAD_REACTORS
330
E
102
}
330
E
  0
SCALE
  5
43
102
{ACAD_REACTORS
330
42
102
}
330
42
100
AcDbScale
 70
     0
300
1:1
140
1.0
141
1.0
290
     1
  0
SCALE
  5
44
102
{ACAD_REACTORS
330
42
102
}
330
42
100
AcDbScale
 70
     0
300
1/128" = 1'-0"
140
0.0078125
141
12.0
290
     0
  0
SCALE
  5
45
102
{ACAD_REACTORS
330
42
102
}
330
42
100
AcDbScale
 70
     0
300
1/64" = 1'-0"
140
0.015625
141
12.0
290
     0
  0
SCALE
  5
46
102
{ACAD_REACTORS
330
42
102
}
330
42
100
AcDbScale
 70
     0
300
1/32" = 1'-0"
140
0.03125
141
12.0
290
     0
  0
SCALE
  5
47
102
{ACAD_REACTORS
330
42
102
}
330
42
100
AcDbScale
 70
     0
300
1/16" = 1'-0"
140
0.0625
141
12.0
290
     0
  0
SCALE
  5
48
102
{ACAD_REACTORS
330
42
102
}
330
42
100
AcDbScale
 70
     0
300
3/32" = 1'-0"
140
0.09375
141
12.0
290
     0
  0
SCALE
  5
49
102
{ACAD_REACTORS
330
42
102
}
330
42
100
AcDbScale
 70
     0
300
1/8" = 1'-0"
140
0.125
141
12.0
290
     0
  0
SCALE
  5
4A
102
{ACAD_REACTORS
330
42
102
}
330
42
100
AcDbScale
 70
     0
300
3/16" = 1'-0"
140
0.1875
141
12.0
290
     0
  0
SCALE
  5
4B
102
{ACAD_REACTORS
330
42
102
}
330
42
100
AcDbScale
 70
     0
300
1/4" = 1'-0"
140
0.25
141
12.0
290
     0
  0
SCALE
  5
4C
102
{ACAD_REACTORS
330
42
102
}
330
42
100
AcDbScale
 70
     0
300
3/8" = 1'-0"
140
0.375
141
12.0
290
     0
  0
SCALE
  5
4D
102
{ACAD_REACTORS
330
42
102
}
330
42
100
AcDbScale
 70
     0
300
1/2" = 1'-0"
140
0.5
141
12.0
290
     0
  0
SCALE
  5
4E
102
{ACAD_REACTORS
330
42
102
}
330
42
100
AcDbScale
 70
     0
300
3/4" = 1'-0"
140
0.75
141
12.0
290
     0
  0
SCALE
  5
4F
102
{ACAD_REACTORS
330
42
102
}
330
42
100
AcDbScale
 70
     0
300
1" = 1'-0"
140
1.0
141
12.0
290
     0
  0
SCALE
  5
50
102
{ACAD_REACTORS
330
42
102
}
330
42
100
AcDbScale
 70
     0
300
1-1/2" = 1'-0"
140
1.5
141
12.0
290
     0
  0
SCALE
  5
51
102
{ACAD_REACTORS
330
42
102
}
330
42
100
AcDbScale
 70
     0
300
3" = 1'-0"
140
3.0
141
12.0
290
     0
  0
SCALE
  5
52
102
{ACAD_REACTORS
330
42
102
}
330
42
100
AcDbScale
 70
     0
300
6" = 1'-0"
140
6.0
141
12.0
290
     0
  0
SCALE
  5
53
102
{ACAD_REACTORS
330
42
102
}
330
42
100
AcDbScale
 70
     0
300
1'-0" = 1'-0"
140
12.0
141
12.0
290
     0
  0
ACDBSECTIONVIEWSTYLE
  5
69
102
{ACAD_REACTORS
330
68
102
}
330
68
100
AcDbModelDocViewStyle
 70
     0
  3
Imperial24
290
     1
300
Imperial24
 90
        0
100
AcDbSectionViewStyle
 70
     0
 71
     0
 90
       78
 71
     1
340
55
 62
   256
 40
0.24
340
0
340
0
 62
   256
 40
0.24
300
I, O, Q, S, X, Z
 40
0.48
 90
        3
 40
0.18
 90
        1
 71
     2
340
5D
 90
       25
 62
   256
340
5D
 90
       50
 62
   256
 40
0.24
 40
0.0
 40
0.24
 71
     3
340
55
 62
   256
 40
0.24
 90
        1
 40
0.75
 90
        1
300
%<\AcVar ViewType \f "%tc1">% %<\AcVar ViewSectionStartId>%-%<\AcVar ViewSectionEndId>%\PSCALE %<\AcVar ViewScale \f "%sn">%
 71
     4
 62
   256
 62
   257
300
ANSI31
 40
1.0
 90
        0
290
     0
290
     0
 90
        6
 40
0.0
 40
1.570796326794896
 40
0.2617993877991494
 40
1.308996938995747
 40
-0.2617993877991494
 40
1.832595714594046
  0
TABLESTYLE
  5
65
102
{ACAD_XDICTIONARY
360
3AA
102
}
102
{ACAD_REACTORS
330
64
102
}
330
64
100
AcDbTableStyle
280
     0
  3
Standard
 70
     0
 71
     0
 40
0.06
 41
0.06
280
     0
281
     0
  7
Standard
140
0.18
170
     2
 62
     0
 63
     7
283
     0
 90
      512
 91
        0
  1

274
    -2
284
     1
 64
     0
275
    -2
285
     1
 65
     0
276
    -2
286
     1
 66
     0
277
    -2
287
     1
 67
     0
278
    -2
288
     1
 68
     0
279
    -2
289
     1
 69
     0
  7
Standard
140
0.25
170
     5
 62
     0
 63
     7
283
     0
 90
      512
 91
        0
  1

274
    -2
284
     1
 64
     0
275
    -2
285
     1
 65
     0
276
    -2
286
     1
 66
     0
277
    -2
287
     1
 67
     0
278
    -2
288
     1
 68
     0
279
    -2
289
     1
 69
     0
  7
Standard
140
0.18
170
     5
 62
     0
 63
     7
283
     0
 90
      512
 91
        0
  1

274
    -2
284
     1
 64
     0
275
    -2
285
     1
 65
     0
276
    -2
286
     1
 66
     0
277
    -2
287
     1
 67
     0
278
    -2
288
     1
 68
     0
279
    -2
289
     1
 69
     0
  0
VISUALSTYLE
  5
2F
102
{ACAD_REACTORS
330
29
102
}
330
29
100
AcDbVisualStyle
  2
2dWireframe
 70
     4
177
     3
291
     0
 70
    58
 90
        0
176
     1
 90
        2
176
     1
 90
        0
176
     1
 90
        0
176
     1
 40
0.6
176
     1
 40
30.0
176
     1
 62
     7
420
 16777215
176
     1
 90
        1
176
     1
 90
        4
176
     1
 62
     7
176
     1
 62
   257
176
     1
 90
        1
176
     1
 90
        1
176
     1
 40
1.0
176
     1
 90
        0
176
     1
 62
   257
176
     1
 40
1.0
176
     1
 90
        1
176
     1
 90
        6
176
     1
 90
        2
176
     1
 62
     7
176
     1
 90
        5
176
     1
 90
        0
176
     1
 90
        0
176
     1
290
     0
176
     1
 90
        1
176
     1
 40
0.0
176
     1
 90
        0
176
     1
290
     1
176
     1
290
     1
176
     1
290
     0
176
     1
290
     0
176
     1
290
     0
176
     1
290
     0
176
     1
290
     0
176
     1
290
     0
176
     1
290
     0
176
     1
 90
       50
176
     1
 40
0.0
176
     1
 40
1.0
176
     1
 90
        0
176
     1
 62
    18
420
        0
176
     1
 90
       50
176
     1
 90
        3
176
     1
 62
     5
420
      255
176
     1
290
     0
176
     1
 90
       50
176
     1
 90
       50
176
     1
 90
       50
176
     1
290
     0
176
     1
 90
       50
176
     1
 62
   256
176
     0
 40
1.0
176
     0
 90
        2
176
     1
  1
strokes_ogs.tif
176
     1
290
     0
176
     1
 40
1.0
176
     1
 40
1.0
176
     1
  0
VISUALSTYLE
  5
2E
102
{ACAD_REACTORS
330
29
102
}
330
29
100
AcDbVisualStyle
  2
Basic
 70
     7
177
     3
291
     1
 70
    58
 90
        1
176
     1
 90
        0
176
     1
 90
        1
176
     1
 90
        0
176
     1
 40
0.6
176
     1
 40
30.0
176
     1
 62
     7
420
 16777215
176
     1
 90
        0
176
     1
 90
        4
176
     1
 62
     7
176
     1
 62
   257
176
     1
 90
        1
176
     1
 90
        1
176
     1
 40
1.0
176
     1
 90
        8
176
     1
 62
     7
176
     1
 40
1.0
176
     1
 90
        1
176
     1
 90
        6
176
     1
 90
        2
176
     1
 62
     7
176
     1
 90
        5
176
     1
 90
        0
176
     1
 90
        0
176
     1
290
     0
176
     1
 90
        1
176
     1
 40
0.0
176
     1
 90
        0
176
     1
290
     0
176
     1
290
     1
176
     1
290
     1
176
     1
290
     0
176
     1
290
     0
176
     1
290
     0
176
     1
290
     0
176
     1
290
     0
176
     1
290
     0
176
     1
 90
       50
176
     1
 40
0.0
176
     1
 40
1.0
176
     1
 90
        0
176
     1
 62
    18
420
        0
176
     1
 90
       50
176
     1
 90
        3
176
     1
 62
     5
420
      255
176
     1
290
     0
176
     1
 90
       50
176
     1
 90
       50
176
     1
 90
       50
176
     1
290
     0
176
     1
 90
       50
176
     1
 62
   256
176
     0
 40
1.0
176
     0
 90
        2
176
     1
  1
strokes_ogs.tif
176
     1
290
     0
176
     1
 40
1.0
176
     1
 40
1.0
176
     1
  0
VISUALSTYLE
  5
35
102
{ACAD_REACTORS
330
29
102
}
330
29
100
AcDbVisualStyle
  2
Brighten
 70
    12
177
     3
291
     1
 70
    58
 90
        2
176
     1
 90
        2
176
     1
 90
        0
176
     1
 90
        0
176
     1
 40
0.6
176
     1
 40
30.0
176
     1
 62
     7
420
 16777215
176
     1
 90
        1
176
     1
 90
        4
176
     1
 62
     7
176
     1
 62
   257
176
     1
 90
        1
176
     1
 90
        1
176
     1
 40
1.0
176
     1
 90
        8
176
     1
 62
     7
176
     1
 40
1.0
176
     1
 90
        1
176
     1
 90
        6
176
     1
 90
        2
176
     1
 62
     7
176
     1
 90
        5
176
     1
 90
        0
176
     1
 90
        0
176
     1
290
     0
176
     1
 90
        1
176
     1
 40
50.0
176
     1
 90
        0
176
     1
290
     0
176
     1
290
     1
176
     1
290
     1
176
     1
290
     0
176
     1
290
     0
176
     1
290
     0
176
     1
290
     0
176
     1
290
     0
176
     1
290
     0
176
     1
 90
       50
176
     1
 40
0.0
176
     1
 40
1.0
176
     1
 90
        0
176
     1
 62
    18
420
        0
176
     1
 90
       50
176
     1
 90
        3
176
     1
 62
     5
420
      255
176
     1
290
     0
176
     1
 90
       50
176
     1
 90
       50
176
     1
 90
       50
176
     1
290
     0
176
     1
 90
       50
176
     1
 62
   256
176
     0
 40
1.0
176
     0
 90
        2
176
     1
  1
strokes_ogs.tif
176
     1
290
     0
176
     1
 40
1.0
176
     1
 40
1.0
176
     1
  0
VISUALSTYLE
  5
39
102
{ACAD_REACTORS
330
29
102
}
330
29
100
AcDbVisualStyle
  2
ColorChange
 70
    16
177
     3
291
     1
 70
    58
 90
        2
176
     1
 90
        2
176
     1
 90
        3
176
     1
 90
        0
176
     1
 40
0.6
176
     1
 40
30.0
176
     1
 62
     8
420
  8421504
176
     1
 90
        1
176
     1
 90
        4
176
     1
 62
     7
176
     1
 62
   257
176
     1
 90
        1
176
     1
 90
        1
176
     1
 40
1.0
176
     1
 90
        8
176
     1
 62
     8
420
  8421504
176
     1
 40
1.0
176
     1
 90
        1
176
     1
 90
        6
176
     1
 90
        2
176
     1
 62
     7
176
     1
 90
        5
176
     1
 90
        0
176
     1
 90
        0
176
     1
290
     0
176
     1
 90
        1
176
     1
 40
0.0
176
     1
 90
        0
176
     1
290
     0
176
     1
290
     1
176
     1
290
     1
176
     1
290
     0
176
     1
290
     0
176
     1
290
     0
176
     1
290
     0
176
     1
290
     0
176
     1
290
     0
176
     1
 90
       50
176
     1
 40
0.0
176
     1
 40
1.0
176
     1
 90
        0
176
     1
 62
    18
420
        0
176
     1
 90
       50
176
     1
 90
        3
176
     1
 62
     5
420
      255
176
     1
290
     0
176
     1
 90
       50
176
     1
 90
       50
176
     1
 90
       50
176
     1
290
     0
176
     1
 90
       50
176
     1
 62
   256
176
     0
 40
1.0
176
     0
 90
        2
176
     1
  1
strokes_ogs.tif
176
     1
290
     0
176
     1
 40
1.0
176
     1
 40
1.0
176
     1
  0
VISUALSTYLE
  5
32
102
{ACAD_REACTORS
330
29
102
}
330
29
100
AcDbVisualStyle
  2
Conceptual
 70
     9
177
     3
291
     0
 70
    58
 90
        3
176
     1
 90
        2
176
     1
 90
        0
176
     1
 90
        0
176
     1
 40
0.6
176
     1
 40
30.0
176
     1
 62
     7
420
 16777215
176
     1
 90
        2
176
     1
 90
        2
176
     1
 62
     7
176
     1
 62
   257
176
     1
 90
        1
176
     1
 90
        1
176
     1
 40
179.0
176
     1
 90
        8
176
     1
 62
     7
176
     1
 40
1.0
176
     1
 90
        1
176
     1
 90
        6
176
     1
 90
        2
176
     1
 62
     7
176
     1
 90
        3
176
     1
 90
        0
176
     1
 90
        0
176
     1
290
     0
176
     1
 90
        1
176
     1
 40
0.0
176
     1
 90
        0
176
     1
290
     0
176
     1
290
     1
176
     1
290
     1
176
     1
290
     0
176
     1
290
     0
176
     1
290
     0
176
     1
290
     0
176
     1
290
     0
176
     1
290
     0
176
     1
 90
       50
176
     1
 40
0.0
176
     1
 40
1.0
176
     1
 90
        0
176
     1
 62
    18
420
        0
176
     1
 90
       50
176
     1
 90
        3
176
     1
 62
     5
420
      255
176
     1
290
     0
176
     1
 90
       50
176
     1
 90
       50
176
     1
 90
       50
176
     1
290
     0
176
     1
 90
       50
176
     1
 62
   256
176
     0
 40
1.0
176
     0
 90
        2
176
     1
  1
strokes_ogs.tif
176
     1
290
     0
176
     1
 40
1.0
176
     1
 40
1.0
176
     1
  0
VISUALSTYLE
  5
34
102
{ACAD_REACTORS
330
29
102
}
330
29
100
AcDbVisualStyle
  2
Dim
 70
    11
177
     3
291
     1
 70
    58
 90
        2
176
     1
 90
        2
176
     1
 90
        0
176
     1
 90
        0
176
     1
 40
0.6
176
     1
 40
30.0
176
     1
 62
     7
420
 16777215
176
     1
 90
        1
176
     1
 90
        4
176
     1
 62
     7
176
     1
 62
   257
176
     1
 90
        1
176
     1
 90
        1
176
     1
 40
1.0
176
     1
 90
        8
176
     1
 62
     7
176
     1
 40
1.0
176
     1
 90
        1
176
     1
 90
        6
176
     1
 90
        2
176
     1
 62
     7
176
     1
 90
        5
176
     1
 90
        0
176
     1
 90
        0
176
     1
290
     0
176
     1
 90
        1
176
     1
 40
-50.0
176
     1
 90
        0
176
     1
290
     0
176
     1
290
     1
176
     1
290
     1
176
     1
290
     0
176
     1
290
     0
176
     1
290
     0
176
     1
290
     0
176
     1
290
     0
176
     1
290
     0
176
     1
 90
       50
176
     1
 40
0.0
176
     1
 40
1.0
176
     1
 90
        0
176
     1
 62
    18
420
        0
176
     1
 90
       50
176
     1
 90
        3
176
     1
 62
     5
420
      255
176
     1
290
     0
176
     1
 90
       50
176
     1
 90
       50
176
     1
 90
       50
176
     1
290
     0
176
     1
 90
       50
176
     1
 62
   256
176
     0
 40
1.0
176
     0
 90
        2
176
     1
  1
strokes_ogs.tif
176
     1
290
     0
176
     1
 40
1.0
176
     1
 40
1.0
176
     1
  0
VISUALSTYLE
  5
41
102
{ACAD_REACTORS
330
29
102
}
330
29
100
AcDbVisualStyle
  2
EdgeColorOff
 70
    22
177
     3
291
     1
 70
    58
 90
        2
176
     0
 90
        2
176
     0
 90
        0
176
     0
 90
        0
176
     0
 40
0.6
176
     0
 40
30.0
176
     0
 62
     7
420
 16777215
176
     0
 90
        1
176
     0
 90
        4
176
     0
 62
     7
176
     0
 62
   257
176
     0
 90
        1
176
     0
 90
        1
176
     0
 40
1.0
176
     0
 90
        8
176
     2
 62
     7
176
     0
 40
1.0
176
     0
 90
        1
176
     0
 90
        6
176
     0
 90
        2
176
     0
 62
     7
176
     0
 90
        5
176
     0
 90
        0
176
     0
 90
        0
176
     0
290
     0
176
     0
 90
        1
176
     0
 40
0.0
176
     0
 90
        0
176
     0
290
     0
176
     0
290
     1
176
     0
290
     1
176
     0
290
     0
176
     0
290
     0
176
     0
290
     0
176
     0
290
     0
176
     0
290
     0
176
     0
290
     0
176
     0
 90
       50
176
     0
 40
0.0
176
     0
 40
1.0
176
     0
 90
        0
176
     0
 62
    18
420
        0
176
     0
 90
       50
176
     0
 90
        3
176
     0
 62
     5
420
      255
176
     0
290
     0
176
     0
 90
       50
176
     0
 90
       50
176
     0
 90
       50
176
     0
290
     0
176
     0
 90
       50
176
     0
 62
   256
176
     0
 40
1.0
176
     0
 90
        2
176
     0
  1
strokes_ogs.tif
176
     0
290
     0
176
     0
 40
1.0
176
     0
 40
1.0
176
     0
  0
VISUALSTYLE
  5
38
102
{ACAD_REACTORS
330
29
102
}
330
29
100
AcDbVisualStyle
  2
Facepattern
 70
    15
177
     3
291
     1
 70
    58
 90
        2
176
     1
 90
        2
176
     1
 90
        0
176
     1
 90
        0
176
     1
 40
0.6
176
     1
 40
30.0
176
     1
 62
     7
420
 16777215
176
     1
 90
        1
176
     1
 90
        4
176
     1
 62
     7
176
     1
 62
   257
176
     1
 90
        1
176
     1
 90
        1
176
     1
 40
1.0
176
     1
 90
        8
176
     1
 62
     7
176
     1
 40
1.0
176
     1
 90
        1
176
     1
 90
        6
176
     1
 90
        2
176
     1
 62
     7
176
     1
 90
        5
176
     1
 90
        0
176
     1
 90
        0
176
     1
290
     0
176
     1
 90
        1
176
     1
 40
0.0
176
     1
 90
        0
176
     1
290
     0
176
     1
290
     1
176
     1
290
     1
176
     1
290
     0
176
     1
290
     0
176
     1
290
     0
176
     1
290
     0
176
     1
290
     0
176
     1
290
     0
176
     1
 90
       50
176
     1
 40
0.0
176
     1
 40
1.0
176
     1
 90
        0
176
     1
 62
    18
420
        0
176
     1
 90
       50
176
     1
 90
        3
176
     1
 62
     5
420
      255
176
     1
290
     0
176
     1
 90
       50
176
     1
 90
       50
176
     1
 90
       50
176
     1
290
     0
176
     1
 90
       50
176
     1
 62
   256
176
     0
 40
1.0
176
     0
 90
        2
176
     1
  1
strokes_ogs.tif
176
     1
290
     0
176
     1
 40
1.0
176
     1
 40
1.0
176
     1
  0
VISUALSTYLE
  5
2A
102
{ACAD_REACTORS
330
29
102
}
330
29
100
AcDbVisualStyle
  2
Flat
 70
     0
177
     3
291
     1
 70
    58
 90
        2
176
     1
 90
        1
176
     1
 90
        1
176
     1
 90
        2
176
     1
 40
0.6
176
     1
 40
30.0
176
     1
 62
     7
420
 16777215
176
     1
 90
        0
176
     1
 90
        0
176
     1
 62
     7
176
     1
 62
   257
176
     1
 90
        1
176
     1
 90
        1
176
     1
 40
1.0
176
     1
 90
        8
176
     1
 62
     7
176
     1
 40
1.0
176
     1
 90
        1
176
     1
 90
        6
176
     1
 90
        2
176
     1
 62
     7
176
     1
 90
        5
176
     1
 90
        0
176
     1
 90
        0
176
     1
290
     0
176
     1
 90
       13
176
     1
 40
0.0
176
     1
 90
        0
176
     1
290
     0
176
     1
290
     1
176
     1
290
     1
176
     1
290
     0
176
     1
290
     0
176
     1
290
     0
176
     1
290
     0
176
     1
290
     0
176
     1
290
     0
176
     1
 90
       50
176
     1
 40
0.0
176
     1
 40
1.0
176
     1
 90
        0
176
     1
 62
    18
420
        0
176
     1
 90
       50
176
     1
 90
        3
176
     1
 62
     5
420
      255
176
     1
290
     0
176
     1
 90
       50
176
     1
 90
       50
176
     1
 90
       50
176
     1
290
     0
176
     1
 90
       50
176
     1
 62
   256
176
     0
 40
1.0
176
     0
 90
        2
176
     1
  1
strokes_ogs.tif
176
     1
290
     0
176
     1
 40
1.0
176
     1
 40
1.0
176
     1
  0
VISUALSTYLE
  5
2B
102
{ACAD_REACTORS
330
29
102
}
330
29
100
AcDbVisualStyle
  2
FlatWithEdges
 70
     1
177
     3
291
     1
 70
    58
 90
        2
176
     1
 90
        1
176
     1
 90
        1
176
     1
 90
        2
176
     1
 40
0.6
176
     1
 40
30.0
176
     1
 62
     7
420
 16777215
176
     1
 90
        1
176
     1
 90
        0
176
     1
 62
     7
176
     1
 62
   257
176
     1
 90
        1
176
     1
 90
        1
176
     1
 40
1.0
176
     1
 90
        0
176
     1
 62
   257
176
     1
 40
1.0
176
     1
 90
        1
176
     1
 90
        6
176
     1
 90
        2
176
     1
 62
     7
176
     1
 90
        5
176
     1
 90
        0
176
     1
 90
        0
176
     1
290
     0
176
     1
 90
       13
176
     1
 40
0.0
176
     1
 90
        0
176
     1
290
     0
176
     1
290
     1
176
     1
290
     1
176
     1
290
     0
176
     1
290
     0
176
     1
290
     0
176
     1
290
     0
176
     1
290
     0
176
     1
290
     0
176
     1
 90
       50
176
     1
 40
0.0
176
     1
 40
1.0
176
     1
 90
        0
176
     1
 62
    18
420
        0
176
     1
 90
       50
176
     1
 90
        3
176
     1
 62
     5
420
      255
176
     1
290
     0
176
     1
 90
       50
176
     1
 90
       50
176
     1
 90
       50
176
     1
290
     0
176
     1
 90
       50
176
     1
 62
   256
176
     0
 40
1.0
176
     0
 90
        2
176
     1
  1
strokes_ogs.tif
176
     1
290
     0
176
     1
 40
1.0
176
     1
 40
1.0
176
     1
  0
VISUALSTYLE
  5
2C
102
{ACAD_REACTORS
330
29
102
}
330
29
100
AcDbVisualStyle
  2
Gouraud
 70
     2
177
     3
291
     1
 70
    58
 90
        2
176
     1
 90
        2
176
     1
 90
        1
176
     1
 90
        2
176
     1
 40
0.6
176
     1
 40
30.0
176
     1
 62
     7
420
 16777215
176
     1
 90
        0
176
     1
 90
        0
176
     1
 62
     7
176
     1
 62
   257
176
     1
 90
        1
176
     1
 90
        1
176
     1
 40
1.0
176
     1
 90
        0
176
     1
 62
     7
176
     1
 40
1.0
176
     1
 90
        1
176
     1
 90
        6
176
     1
 90
        2
176
     1
 62
     7
176
     1
 90
        5
176
     1
 90
        0
176
     1
 90
        0
176
     1
290
     0
176
     1
 90
       13
176
     1
 40
0.0
176
     1
 90
        0
176
     1
290
     0
176
     1
290
     1
176
     1
290
     1
176
     1
290
     0
176
     1
290
     0
176
     1
290
     0
176
     1
290
     0
176
     1
290
     0
176
     1
290
     0
176
     1
 90
       50
176
     1
 40
0.0
176
     1
 40
1.0
176
     1
 90
        0
176
     1
 62
    18
420
        0
176
     1
 90
       50
176
     1
 90
        3
176
     1
 62
     5
420
      255
176
     1
290
     0
176
     1
 90
       50
176
     1
 90
       50
176
     1
 90
       50
176
     1
290
     0
176
     1
 90
       50
176
     1
 62
   256
176
     0
 40
1.0
176
     0
 90
        2
176
     1
  1
strokes_ogs.tif
176
     1
290
     0
176
     1
 40
1.0
176
     1
 40
1.0
176
     1
  0
VISUALSTYLE
  5
2D
102
{ACAD_REACTORS
330
29
102
}
330
29
100
AcDbVisualStyle
  2
GouraudWithEdges
 70
     3
177
     3
291
     1
 70
    58
 90
        2
176
     1
 90
        2
176
     1
 90
        1
176
     1
 90
        2
176
     1
 40
0.6
176
     1
 40
30.0
176
     1
 62
     7
420
 16777215
176
     1
 90
        1
176
     1
 90
        0
176
     1
 62
     7
176
     1
 62
   257
176
     1
 90
        1
176
     1
 90
        1
176
     1
 40
1.0
176
     1
 90
        0
176
     1
 62
   257
176
     1
 40
1.0
176
     1
 90
        1
176
     1
 90
        6
176
     1
 90
        2
176
     1
 62
     7
176
     1
 90
        5
176
     1
 90
        0
176
     1
 90
        0
176
     1
290
     0
176
     1
 90
       13
176
     1
 40
0.0
176
     1
 90
        0
176
     1
290
     0
176
     1
290
     1
176
     1
290
     1
176
     1
290
     0
176
     1
290
     0
176
     1
290
     0
176
     1
290
     0
176
     1
290
     0
176
     1
290
     0
176
     1
 90
       50
176
     1
 40
0.0
176
     1
 40
1.0
176
     1
 90
        0
176
     1
 62
    18
420
        0
176
     1
 90
       50
176
     1
 90
        3
176
     1
 62
     5
420
      255
176
     1
290
     0
176
     1
 90
       50
176
     1
 90
       50
176
     1
 90
       50
176
     1
290
     0
176
     1
 90
       50
176
     1
 62
   256
176
     0
 40
1.0
176
     0
 90
        2
176
     1
  1
strokes_ogs.tif
176
     1
290
     0
176
     1
 40
1.0
176
     1
 40
1.0
176
     1
  0
VISUALSTYLE
  5
31
102
{ACAD_REACTORS
330
29
102
}
330
29
100
AcDbVisualStyle
  2
Hidden
 70
     6
177
     3
291
     0
 70
    58
 90
        1
176
     1
 90
        2
176
     1
 90
        2
176
     1
 90
        0
176
     1
 40
0.6
176
     1
 40
30.0
176
     1
 62
     7
420
 16777215
176
     1
 90
        2
176
     1
 90
        2
176
     1
 62
     7
176
     1
 62
   257
176
     1
 90
        2
176
     1
 90
        1
176
     1
 40
40.0
176
     1
 90
        0
176
     1
 62
   257
176
     1
 40
1.0
176
     1
 90
        1
176
     1
 90
        6
176
     1
 90
        2
176
     1
 62
     7
176
     1
 90
        3
176
     1
 90
        0
176
     1
 90
        0
176
     1
290
     0
176
     1
 90
        1
176
     1
 40
0.0
176
     1
 90
        0
176
     1
290
     0
176
     1
290
     1
176
     1
290
     1
176
     1
290
     0
176
     1
290
     0
176
     1
290
     0
176
     1
290
     0
176
     1
290
     0
176
     1
290
     0
176
     1
 90
       50
176
     1
 40
0.0
176
     1
 40
1.0
176
     1
 90
        0
176
     1
 62
    18
420
        0
176
     1
 90
       50
176
     1
 90
        3
176
     1
 62
     5
420
      255
176
     1
290
     0
176
     1
 90
       50
176
     1
 90
       50
176
     1
 90
       50
176
     1
290
     0
176
     1
 90
       50
176
     1
 62
   256
176
     0
 40
1.0
176
     0
 90
        2
176
     1
  1
strokes_ogs.tif
176
     1
290
     0
176
     1
 40
1.0
176
     1
 40
1.0
176
     1
  0
VISUALSTYLE
  5
3F
102
{ACAD_REACTORS
330
29
102
}
330
29
100
AcDbVisualStyle
  2
JitterOff
 70
    20
177
     3
291
     1
 70
    58
 90
        2
176
     0
 90
        2
176
     0
 90
        0
176
     0
 90
        0
176
     0
 40
0.6
176
     0
 40
30.0
176
     0
 62
     7
420
 16777215
176
     0
 90
        1
176
     0
 90
        4
176
     0
 62
     7
176
     0
 62
   257
176
     0
 90
        1
176
     0
 90
        1
176
     0
 40
1.0
176
     0
 90
       10
176
     2
 62
     7
176
     0
 40
1.0
176
     0
 90
        1
176
     0
 90
        6
176
     0
 90
        2
176
     0
 62
     7
176
     0
 90
        5
176
     0
 90
        0
176
     0
 90
        0
176
     0
290
     0
176
     0
 90
        1
176
     0
 40
0.0
176
     0
 90
        0
176
     0
290
     0
176
     0
290
     1
176
     0
290
     1
176
     0
290
     0
176
     0
290
     0
176
     0
290
     0
176
     0
290
     0
176
     0
290
     0
176
     0
290
     0
176
     0
 90
       50
176
     0
 40
0.0
176
     0
 40
1.0
176
     0
 90
        0
176
     0
 62
    18
420
        0
176
     0
 90
       50
176
     0
 90
        3
176
     0
 62
     5
420
      255
176
     0
290
     0
176
     0
 90
       50
176
     0
 90
       50
176
     0
 90
       50
176
     0
290
     0
176
     0
 90
       50
176
     0
 62
   256
176
     0
 40
1.0
176
     0
 90
        2
176
     0
  1
strokes_ogs.tif
176
     0
290
     0
176
     0
 40
1.0
176
     0
 40
1.0
176
     0
  0
VISUALSTYLE
  5
37
102
{ACAD_REACTORS
330
29
102
}
330
29
100
AcDbVisualStyle
  2
Linepattern
 70
    14
177
     3
291
     1
 70
    58
 90
        2
176
     1
 90
        2
176
     1
 90
        0
176
     1
 90
        0
176
     1
 40
0.6
176
     1
 40
30.0
176
     1
 62
     7
420
 16777215
176
     1
 90
        1
176
     1
 90
        4
176
     1
 62
     7
176
     1
 62
   257
176
     1
 90
        7
176
     1
 90
        7
176
     1
 40
1.0
176
     1
 90
        8
176
     1
 62
     7
176
     1
 40
1.0
176
     1
 90
        1
176
     1
 90
        6
176
     1
 90
        2
176
     1
 62
     7
176
     1
 90
        5
176
     1
 90
        0
176
     1
 90
        0
176
     1
290
     0
176
     1
 90
        1
176
     1
 40
0.0
176
     1
 90
        0
176
     1
290
     0
176
     1
290
     1
176
     1
290
     1
176
     1
290
     0
176
     1
290
     0
176
     1
290
     0
176
     1
290
     0
176
     1
290
     0
176
     1
290
     0
176
     1
 90
       50
176
     1
 40
0.0
176
     1
 40
1.0
176
     1
 90
        0
176
     1
 62
    18
420
        0
176
     1
 90
       50
176
     1
 90
        3
176
     1
 62
     5
420
      255
176
     1
290
     0
176
     1
 90
       50
176
     1
 90
       50
176
     1
 90
       50
176
     1
290
     0
176
     1
 90
       50
176
     1
 62
   256
176
     0
 40
1.0
176
     0
 90
        2
176
     1
  1
strokes_ogs.tif
176
     1
290
     0
176
     1
 40
1.0
176
     1
 40
1.0
176
     1
  0
VISUALSTYLE
  5
40
102
{ACAD_REACTORS
330
29
102
}
330
29
100
AcDbVisualStyle
  2
OverhangOff
 70
    21
177
     3
291
     1
 70
    58
 90
        2
176
     0
 90
        2
176
     0
 90
        0
176
     0
 90
        0
176
     0
 40
0.6
176
     0
 40
30.0
176
     0
 62
     7
420
 16777215
176
     0
 90
        1
176
     0
 90
        4
176
     0
 62
     7
176
     0
 62
   257
176
     0
 90
        1
176
     0
 90
        1
176
     0
 40
1.0
176
     0
 90
        9
176
     2
 62
     7
176
     0
 40
1.0
176
     0
 90
        1
176
     0
 90
        6
176
     0
 90
        2
176
     0
 62
     7
176
     0
 90
        5
176
     0
 90
        0
176
     0
 90
        0
176
     0
290
     0
176
     0
 90
        1
176
     0
 40
0.0
176
     0
 90
        0
176
     0
290
     0
176
     0
290
     1
176
     0
290
     1
176
     0
290
     0
176
     0
290
     0
176
     0
290
     0
176
     0
290
     0
176
     0
290
     0
176
     0
290
     0
176
     0
 90
       50
176
     0
 40
0.0
176
     0
 40
1.0
176
     0
 90
        0
176
     0
 62
    18
420
        0
176
     0
 90
       50
176
     0
 90
        3
176
     0
 62
     5
420
      255
176
     0
290
     0
176
     0
 90
       50
176
     0
 90
       50
176
     0
 90
       50
176
     0
290
     0
176
     0
 90
       50
176
     0
 62
   256
176
     0
 40
1.0
176
     0
 90
        2
176
     0
  1
strokes_ogs.tif
176
     0
290
     0
176
     0
 40
1.0
176
     0
 40
1.0
176
     0
  0
VISUALSTYLE
  5
33
102
{ACAD_REACTORS
330
29
102
}
330
29
100
AcDbVisualStyle
  2
Realistic
 70
     8
177
     3
291
     0
 70
    58
 90
        2
176
     1
 90
        3
176
     1
 90
        0
176
     1
 90
        2
176
     1
 40
0.6
176
     1
 40
30.0
176
     1
 62
     7
420
 16777215
176
     1
 90
        0
176
     1
 90
        0
176
     1
 62
     7
176
     1
 62
   257
176
     1
 90
        1
176
     1
 90
        1
176
     1
 40
1.0
176
     1
 90
        8
176
     1
 62
   257
176
     1
 40
1.0
176
     1
 90
        1
176
     1
 90
        6
176
     1
 90
        2
176
     1
 62
     7
176
     1
 90
        3
176
     1
 90
        0
176
     1
 90
        0
176
     1
290
     0
176
     1
 90
       13
176
     1
 40
0.0
176
     1
 90
        0
176
     1
290
     0
176
     1
290
     1
176
     1
290
     1
176
     1
290
     0
176
     1
290
     0
176
     1
290
     0
176
     1
290
     0
176
     1
290
     0
176
     1
290
     0
176
     1
 90
       50
176
     1
 40
0.0
176
     1
 40
1.0
176
     1
 90
        0
176
     1
 62
    18
420
        0
176
     1
 90
       50
176
     1
 90
        3
176
     1
 62
     5
420
      255
176
     1
290
     0
176
     1
 90
       50
176
     1
 90
       50
176
     1
 90
       50
176
     1
290
     0
176
     1
 90
       50
176
     1
 62
   256
176
     0
 40
1.0
176
     0
 90
        2
176
     1
  1
strokes_ogs.tif
176
     1
290
     0
176
     1
 40
1.0
176
     1
 40
1.0
176
     1
  0
VISUALSTYLE
  5
3E
102
{ACAD_REACTORS
330
29
102
}
330
29
100
AcDbVisualStyle
  2
Shaded
 70
    27
177
     3
291
     0
 70
    58
 90
        2
176
     1
 90
        2
176
     1
 90
        1
176
     1
 90
        2
176
     1
 40
0.6
176
     1
 40
30.0
176
     1
 62
     7
420
 16777215
176
     1
 90
        0
176
     1
 90
        4
176
     1
 62
     7
176
     1
 62
   257
176
     1
 90
        1
176
     1
 90
        1
176
     1
 40
1.0
176
     1
 90
        8
176
     1
 62
   257
176
     1
 40
1.0
176
     1
 90
        1
176
     1
 90
        6
176
     1
 90
        2
176
     1
 62
     8
420
  7895160
176
     1
 90
        3
176
     1
 90
        0
176
     1
 90
        0
176
     1
290
     0
176
     1
 90
        5
176
     1
 40
0.0
176
     1
 90
        0
176
     1
290
     0
176
     1
290
     1
176
     1
290
     1
176
     1
290
     0
176
     1
290
     0
176
     1
290
     0
176
     1
290
     0
176
     1
290
     0
176
     1
290
     0
176
     1
 90
       50
176
     1
 40
0.0
176
     1
 40
1.0
176
     1
 90
        0
176
     1
 62
    18
420
        0
176
     1
 90
       50
176
     1
 90
        3
176
     1
 62
     5
420
      255
176
     1
290
     0
176
     1
 90
       50
176
     1
 90
       50
176
     1
 90
       50
176
     1
290
     0
176
     1
 90
       50
176
     1
 62
   256
176
     0
 40
1.0
176
     0
 90
        2
176
     1
  1
strokes_ogs.tif
176
     1
290
     0
176
     1
 40
1.0
176
     1
 40
1.0
176
     1
  0
VISUALSTYLE
  5
3D
102
{ACAD_REACTORS
330
29
102
}
330
29
100
AcDbVisualStyle
  2
Shaded with edges
 70
    26
177
     3
291
     0
 70
    58
 90
        2
176
     1
 90
        2
176
     1
 90
        1
176
     1
 90
        2
176
     1
 40
0.6
176
     1
 40
30.0
176
     1
 62
     7
420
 16777215
176
     1
 90
        1
176
     1
 90
        2
176
     1
 62
     7
176
     1
 62
   257
176
     1
 90
        2
176
     1
 90
        1
176
     1
 40
1.0
176
     1
 90
        8
176
     1
 62
   257
176
     1
 40
1.0
176
     1
 90
        1
176
     1
 90
        6
176
     1
 90
        2
176
     1
 62
     7
176
     1
 90
        3
176
     1
 90
        0
176
     1
 90
        0
176
     1
290
     0
176
     1
 90
        5
176
     1
 40
0.0
176
     1
 90
        0
176
     1
290
     0
176
     1
290
     1
176
     1
290
     1
176
     1
290
     0
176
     1
290
     0
176
     1
290
     0
176
     1
290
     0
176
     1
290
     0
176
     1
290
     0
176
     1
 90
       50
176
     1
 40
0.0
176
     1
 40
1.0
176
     1
 90
        0
176
     1
 62
    18
420
        0
176
     1
 90
       50
176
     1
 90
        3
176
     1
 62
     5
420
      255
176
     1
290
     0
176
     1
 90
       50
176
     1
 90
       50
176
     1
 90
       50
176
     1
290
     0
176
     1
 90
       50
176
     1
 62
   256
176
     0
 40
1.0
176
     0
 90
        2
176
     1
  1
strokes_ogs.tif
176
     1
290
     0
176
     1
 40
1.0
176
     1
 40
1.0
176
     1
  0
VISUALSTYLE
  5
3A
102
{ACAD_REACTORS
330
29
102
}
330
29
100
AcDbVisualStyle
  2
Shades of Gray
 70
    23
177
     3
291
     0
 70
    58
 90
        2
176
     1
 90
        2
176
     1
 90
        3
176
     1
 90
        0
176
     1
 40
0.6
176
     1
 40
30.0
176
     1
 62
     7
420
 16777215
176
     1
 90
        2
176
     1
 90
        2
176
     1
 62
     7
176
     1
 62
     7
176
     1
 90
        1
176
     1
 90
        1
176
     1
 40
40.0
176
     1
 90
        8
176
     1
 62
     7
176
     1
 40
1.0
176
     1
 90
        1
176
     1
 90
        6
176
     1
 90
        2
176
     1
 62
     7
176
     1
 90
        3
176
     1
 90
        0
176
     1
 90
        0
176
     1
290
     0
176
     1
 90
        1
176
     1
 40
0.0
176
     1
 90
        0
176
     1
290
     0
176
     1
290
     1
176
     1
290
     1
176
     1
290
     0
176
     1
290
     0
176
     1
290
     0
176
     1
290
     0
176
     1
290
     0
176
     1
290
     0
176
     1
 90
       50
176
     1
 40
0.0
176
     1
 40
1.0
176
     1
 90
        0
176
     1
 62
    18
420
        0
176
     1
 90
       50
176
     1
 90
        3
176
     1
 62
     5
420
      255
176
     1
290
     0
176
     1
 90
       50
176
     1
 90
       50
176
     1
 90
       50
176
     1
290
     0
176
     1
 90
       50
176
     1
 62
   256
176
     0
 40
1.0
176
     0
 90
        2
176
     1
  1
strokes_ogs.tif
176
     1
290
     0
176
     1
 40
1.0
176
     1
 40
1.0
176
     1
  0
VISUALSTYLE
  5
3B
102
{ACAD_REACTORS
330
29
102
}
330
29
100
AcDbVisualStyle
  2
Sketchy
 70
    24
177
     3
291
     0
 70
    58
 90
        1
176
     1
 90
        2
176
     1
 90
        2
176
     1
 90
        0
176
     1
 40
0.6
176
     1
 40
30.0
176
     1
 62
     7
420
 16777215
176
     1
 90
        2
176
     1
 90
        2
176
     1
 62
     7
176
     1
 62
     7
176
     1
 90
        1
176
     1
 90
        1
176
     1
 40
40.0
176
     1
 90
       11
176
     1
 62
     7
176
     1
 40
1.0
176
     1
 90
        1
176
     1
 90
        6
176
     1
 90
        2
176
     1
 62
     7
176
     1
 90
        6
176
     1
 90
        0
176
     1
 90
        0
176
     1
290
     0
176
     1
 90
        1
176
     1
 40
0.0
176
     1
 90
        0
176
     1
290
     0
176
     1
290
     1
176
     1
290
     1
176
     1
290
     0
176
     1
290
     0
176
     1
290
     0
176
     1
290
     0
176
     1
290
     0
176
     1
290
     0
176
     1
 90
       50
176
     1
 40
0.0
176
     1
 40
1.0
176
     1
 90
        0
176
     1
 62
    18
420
        0
176
     1
 90
       50
176
     1
 90
        3
176
     1
 62
     5
420
      255
176
     1
290
     0
176
     1
 90
       50
176
     1
 90
       50
176
     1
 90
       50
176
     1
290
     0
176
     1
 90
       50
176
     1
 62
   256
176
     0
 40
1.0
176
     0
 90
        2
176
     1
  1
strokes_ogs.tif
176
     1
290
     0
176
     1
 40
1.0
176
     1
 40
1.0
176
     1
  0
VISUALSTYLE
  5
36
102
{ACAD_REACTORS
330
29
102
}
330
29
100
AcDbVisualStyle
  2
Thicken
 70
    13
177
     3
291
     1
 70
    58
 90
        2
176
     1
 90
        2
176
     1
 90
        0
176
     1
 90
        0
176
     1
 40
0.6
176
     1
 40
30.0
176
     1
 62
     7
420
 16777215
176
     1
 90
        1
176
     1
 90
        4
176
     1
 62
     7
176
     1
 62
   257
176
     1
 90
        1
176
     1
 90
        1
176
     1
 40
1.0
176
     1
 90
       12
176
     1
 62
     7
176
     1
 40
1.0
176
     1
 90
        1
176
     1
 90
        6
176
     1
 90
        2
176
     1
 62
     7
176
     1
 90
        5
176
     1
 90
        0
176
     1
 90
        0
176
     1
290
     0
176
     1
 90
        1
176
     1
 40
0.0
176
     1
 90
        0
176
     1
290
     0
176
     1
290
     1
176
     1
290
     1
176
     1
290
     0
176
     1
290
     0
176
     1
290
     0
176
     1
290
     0
176
     1
290
     0
176
     1
290
     0
176
     1
 90
       50
176
     1
 40
0.0
176
     1
 40
1.0
176
     1
 90
        0
176
     1
 62
    18
420
        0
176
     1
 90
       50
176
     1
 90
        3
176
     1
 62
     5
420
      255
176
     1
290
     0
176
     1
 90
       50
176
     1
 90
       50
176
     1
 90
       50
176
     1
290
     0
176
     1
 90
       50
176
     1
 62
   256
176
     0
 40
1.0
176
     0
 90
        2
176
     1
  1
strokes_ogs.tif
176
     1
290
     0
176
     1
 40
1.0
176
     1
 40
1.0
176
     1
  0
VISUALSTYLE
  5
30
102
{ACAD_REACTORS
330
29
102
}
330
29
100
AcDbVisualStyle
  2
Wireframe
 70
     5
177
     3
291
     0
 70
    58
 90
        0
176
     1
 90
        2
176
     1
 90
        0
176
     1
 90
        0
176
     1
 40
0.6
176
     1
 40
30.0
176
     1
 62
     7
420
 16777215
176
     1
 90
        1
176
     1
 90
        4
176
     1
 62
     7
176
     1
 62
   257
176
     1
 90
        1
176
     1
 90
        1
176
     1
 40
1.0
176
     1
 90
        0
176
     1
 62
   257
176
     1
 40
1.0
176
     1
 90
        1
176
     1
 90
        6
176
     1
 90
        2
176
     1
 62
     7
176
     1
 90
        3
176
     1
 90
        0
176
     1
 90
        0
176
     1
290
     0
176
     1
 90
        1
176
     1
 40
0.0
176
     1
 90
        0
176
     1
290
     0
176
     1
290
     1
176
     1
290
     1
176
     1
290
     0
176
     1
290
     0
176
     1
290
     0
176
     1
290
     0
176
     1
290
     0
176
     1
290
     0
176
     1
 90
       50
176
     1
 40
0.0
176
     1
 40
1.0
176
     1
 90
        0
176
     1
 62
    18
420
        0
176
     1
 90
       50
176
     1
 90
        3
176
     1
 62
     5
420
      255
176
     1
290
     0
176
     1
 90
       50
176
     1
 90
       50
176
     1
 90
       50
176
     1
290
     0
176
     1
 90
       50
176
     1
 62
   256
176
     0
 40
1.0
176
     0
 90
        2
176
     1
  1
strokes_ogs.tif
176
     1
290
     0
176
     1
 40
1.0
176
     1
 40
1.0
176
     1
  0
VISUALSTYLE
  5
3C
102
{ACAD_REACTORS
330
29
102
}
330
29
100
AcDbVisualStyle
  2
X-Ray
 70
    25
177
     3
291
     0
 70
    58
 90
        2
176
     1
 90
        2
176
     1
 90
        1
176
     1
 90
        1
176
     1
 40
0.5
176
     1
 40
30.0
176
     1
 62
     7
420
 16777215
176
     1
 90
        1
176
     1
 90
        0
176
     1
 62
     7
176
     1
 62
   257
176
     1
 90
        1
176
     1
 90
        1
176
     1
 40
1.0
176
     1
 90
        8
176
     1
 62
     7
176
     1
 40
1.0
176
     1
 90
        1
176
     1
 90
        6
176
     1
 90
        2
176
     1
 62
     7
176
     1
 90
        3
176
     1
 90
        0
176
     1
 90
        0
176
     1
290
     0
176
     1
 90
       13
176
     1
 40
0.0
176
     1
 90
        0
176
     1
290
     0
176
     1
290
     1
176
     1
290
     1
176
     1
290
     0
176
     1
290
     0
176
     1
290
     0
176
     1
290
     0
176
     1
290
     0
176
     1
290
     0
176
     1
 90
       50
176
     1
 40
0.0
176
     1
 40
1.0
176
     1
 90
        0
176
     1
 62
    18
420
        0
176
     1
 90
       50
176
     1
 90
        3
176
     1
 62
     5
420
      255
176
     1
290
     0
176
     1
 90
       50
176
     1
 90
       50
176
     1
 90
       50
176
     1
290
     0
176
     1
 90
       50
176
     1
 62
   256
176
     0
 40
1.0
176
     0
 90
        2
176
     1
  1
strokes_ogs.tif
176
     1
290
     0
176
     1
 40
1.0
176
     1
 40
1.0
176
     1
  0
DICTIONARYVAR
  5
3A9
102
{ACAD_REACTORS
330
3A4
102
}
330
3A4
100
DictionaryVariables
280
     0
  1
1:1
  0
DICTIONARYVAR
  5
3A6
102
{ACAD_REACTORS
330
3A4
102
}
330
3A4
100
DictionaryVariables
280
     0
  1
STANDARD
  0
DICTIONARYVAR
  5
3A5
102
{ACAD_REACTORS
330
3A4
102
}
330
3A4
100
DictionaryVariables
280
     0
  1
STANDARD
  0
DICTIONARYVAR
  5
3A7
102
{ACAD_REACTORS
330
3A4
102
}
330
3A4
100
DictionaryVariables
280
     0
  1
Imperial24
  0
DICTIONARYVAR
  5
3A8
102
{ACAD_REACTORS
330
3A4
102
}
330
3A4
100
DictionaryVariables
280
     0
  1
Imperial24
  0
DICTIONARY
  5
1A
330
19
100
AcDbDictionary
280
     1
281
     1
  3
BUMPTILE
360
1C
  3
DIFFUSETILE
360
1B
  3
OPACITYTILE
360
1F
  3
REFLECTIONTILE
360
1E
  3
REFRACTIONTILE
360
20
  3
SPECULARTILE
360
1D
  0
DICTIONARY
  5
12
330
11
100
AcDbDictionary
280
     1
281
     1
  3
BUMPTILE
360
14
  3
DIFFUSETILE
360
13
  3
OPACITYTILE
360
17
  3
REFLECTIONTILE
360
16
  3
REFRACTIONTILE
360
18
  3
SPECULARTILE
360
15
  0
DICTIONARY
  5
22
330
21
100
AcDbDictionary
280
     1
281
     1
  3
BUMPTILE
360
24
  3
DIFFUSETILE
360
23
  3
OPACITYTILE
360
27
  3
REFLECTIONTILE
360
26
  3
REFRACTIONTILE
360
28
  3
SPECULARTILE
360
25
  0
DICTIONARY
  5
3AA
330
65
100
AcDbDictionary
280
     1
281
     1
  3
ACAD_ROUNDTRIP_2008_TABLESTYLE_CELLSTYLEMAP
360
3AB
  0
XRECORD
  5
1C
102
{ACAD_REACTORS
330
1A
102
}
330
1A
100
AcDbXrecord
280
     1
270
     1
271
     1
  0
XRECORD
  5
1B
102
{ACAD_REACTORS
330
1A
102
}
330
1A
100
AcDbXrecord
280
     1
270
     1
271
     1
  0
XRECORD
  5
1F
102
{ACAD_REACTORS
330
1A
102
}
330
1A
100
AcDbXrecord
280
     1
270
     1
271
     1
  0
XRECORD
  5
1E
102
{ACAD_REACTORS
330
1A
102
}
330
1A
100
AcDbXrecord
280
     1
270
     1
271
     1
  0
XRECORD
  5
20
102
{ACAD_REACTORS
330
1A
102
}
330
1A
100
AcDbXrecord
280
     1
270
     1
271
     1
  0
XRECORD
  5
1D
102
{ACAD_REACTORS
330
1A
102
}
330
1A
100
AcDbXrecord
280
     1
270
     1
271
     1
  0
XRECORD
  5
14
102
{ACAD_REACTORS
330
12
102
}
330
12
100
AcDbXrecord
280
     1
270
     1
271
     1
  0
XRECORD
  5
13
102
{ACAD_REACTORS
330
12
102
}
330
12
100
AcDbXrecord
280
     1
270
     1
271
     1
  0
XRECORD
  5
17
102
{ACAD_REACTORS
330
12
102
}
330
12
100
AcDbXrecord
280
     1
270
     1
271
     1
  0
XRECORD
  5
16
102
{ACAD_REACTORS
330
12
102
}
330
12
100
AcDbXrecord
280
     1
270
     1
271
     1
  0
XRECORD
  5
18
102
{ACAD_REACTORS
330
12
102
}
330
12
100
AcDbXrecord
280
     1
270
     1
271
     1
  0
XRECORD
  5
15
102
{ACAD_REACTORS
330
12
102
}
330
12
100
AcDbXrecord
280
     1
270
     1
271
     1
  0
XRECORD
  5
24
102
{ACAD_REACTORS
330
22
102
}
330
22
100
AcDbXrecord
280
     1
270
     1
271
     1
  0
XRECORD
  5
23
102
{ACAD_REACTORS
330
22
102
}
330
22
100
AcDbXrecord
280
     1
270
     1
271
     1
  0
XRECORD
  5
27
102
{ACAD_REACTORS
330
22
102
}
330
22
100
AcDbXrecord
280
     1
270
     1
271
     1
  0
XRECORD
  5
26
102
{ACAD_REACTORS
330
22
102
}
330
22
100
AcDbXrecord
280
     1
270
     1
271
     1
  0
XRECORD
  5
28
102
{ACAD_REACTORS
330
22
102
}
330
22
100
AcDbXrecord
280
     1
270
     1
271
     1
  0
XRECORD
  5
25
102
{ACAD_REACTORS
330
22
102
}
330
22
100
AcDbXrecord
280
     1
270
     1
271
     1
  0
CELLSTYLEMAP
  5
3AB
102
{ACAD_REACTORS
330
3AA
102
}
330
3AA
100
AcDbCellStyleMap
 90
        3
300
CELLSTYLE
  1
TABLEFORMAT_BEGIN
 90
        5
170
     1
 91
        0
 92
    32768
 62
   257
 93
        1
300
CONTENTFORMAT
  1
CONTENTFORMAT_BEGIN
 90
        0
 91
        0
 92
      512
 93
        0
300

 40
0.0
140
1.0
 94
        5
 62
     0
340
55
144
0.25
309
CONTENTFORMAT_END
171
     0
 94
        0
309
TABLEFORMAT_END
  1
CELLSTYLE_BEGIN
 90
        1
 91
        1
300
_TITLE
309
CELLSTYLE_END
300
CELLSTYLE
  1
TABLEFORMAT_BEGIN
 90
        5
170
     1
 91
        0
 92
        0
 62
   257
 93
        1
300
CONTENTFORMAT
  1
CONTENTFORMAT_BEGIN
 90
        0
 91
        0
 92
      512
 93
        0
300

 40
0.0
140
1.0
 94
        5
 62
     0
340
55
144
0.18
309
CONTENTFORMAT_END
171
     0
 94
        0
309
TABLEFORMAT_END
  1
CELLSTYLE_BEGIN
 90
        2
 91
        1
300
_HEADER
309
CELLSTYLE_END
300
CELLSTYLE
  1
TABLEFORMAT_BEGIN
 90
        5
170
     1
 91
        0
 92
        0
 62
   257
 93
        1
300
CONTENTFORMAT
  1
CONTENTFORMAT_BEGIN
 90
        0
 91
        0
 92
      512
 93
        0
300

 40
0.0
140
1.0
 94
        2
 62
     0
340
55
144
0.18
309
CONTENTFORMAT_END
171
     0
 94
        0
309
TABLEFORMAT_END
  1
CELLSTYLE_BEGIN
 90
        3
 91
        2
300
_DATA
309
CELLSTYLE_END
  0
ENDSEC
  0
EOF
