  0
SECTION
  2
HEADER
  9
$ACADVER
  1
AC1032
  9
$ACADMAINTVER
 90
      251
  9
$DWGCODEPAGE
  3
ANSI_1252
  9
$REQUIREDVERSIONS
160
                 0
  9
$INSBASE
 10
0.0
 20
0.0
 30
0.0
  9
$EXTMIN
 10
1.000000000000000E+20
 20
1.000000000000000E+20
 30
1.000000000000000E+20
  9
$EXTMAX
 10
-1.000000000000000E+20
 20
-1.000000000000000E+20
 30
-1.000000000000000E+20
  9
$LIMMIN
 10
0.0
 20
0.0
  9
$LIMMAX
 10
12.0
 20
9.0
  9
$ORTHOMODE
 70
     0
  9
$REGENMODE
 70
     1
  9
$FILLMODE
 70
     1
  9
$QTEXTMODE
 70
     0
  9
$MIRRTEXT
 70
     0
  9
$LTSCALE
 40
1.0
  9
$ATTMODE
 70
     1
  9
$TEXTSIZE
 40
0.2
  9
$TRACEWID
 40
0.05
  9
$TEXTSTYLE
  7
Standard
  9
$CLAYER
  8
0
  9
$CELTYPE
  6
ByLayer
  9
$CECOLOR
 62
   256
  9
$CELTSCALE
 40
1.0
  9
$DISPSILH
 70
     0
  9
$DIMSCALE
 40
1.0
  9
$DIMASZ
 40
0.18
  9
$DIMEXO
 40
0.0625
  9
$DIMDLI
 40
0.38
  9
$DIMRND
 40
0.0
  9
$DIMDLE
 40
0.0
  9
$DIMEXE
 40
0.18
  9
$DIMTP
 40
0.0
  9
$DIMTM
 40
0.0
  9
$DIMTXT
 40
0.18
  9
$DIMCEN
 40
0.09
  9
$DIMTSZ
 40
0.0
  9
$DIMTOL
 70
     0
  9
$DIMLIM
 70
     0
  9
$DIMTIH
 70
     1
  9
$DIMTOH
 70
     1
  9
$DIMSE1
 70
     0
  9
$DIMSE2
 70
     0
  9
$DIMTAD
 70
     0
  9
$DIMZIN
 70
     0
  9
$DIMBLK
  1

  9
$DIMASO
 70
     1
  9
$DIMSHO
 70
     1
  9
$DIMPOST
  1

  9
$DIMAPOST
  1

  9
$DIMALT
 70
     0
  9
$DIMALTD
 70
     2
  9
$DIMALTF
 40
25.4
  9
$DIMLFAC
 40
1.0
  9
$DIMTOFL
 70
     0
  9
$DIMTVP
 40
0.0
  9
$DIMTIX
 70
     0
  9
$DIMSOXD
 70
     0
  9
$DIMSAH
 70
     0
  9
$DIMBLK1
  1

  9
$DIMBLK2
  1

  9
$DIMSTYLE
  2
Standard
  9
$DIMCLRD
 70
     0
  9
$DIMCLRE
 70
     0
  9
$DIMCLRT
 70
     0
  9
$DIMTFAC
 40
1.0
  9
$DIMGAP
 40
0.09
  9
$DIMJUST
 70
     0
  9
$DIMSD1
 70
     0
  9
$DIMSD2
 70
     0
  9
$DIMTOLJ
 70
     1
  9
$DIMTZIN
 70
     0
  9
$DIMALTZ
 70
     0
  9
$DIMALTTZ
 70
     0
  9
$DIMUPT
 70
     0
  9
$DIMDEC
 70
     4
  9
$DIMTDEC
 70
     4
  9
$DIMALTU
 70
     2
  9
$DIMALTTD
 70
     2
  9
$DIMTXSTY
  7
Standard
  9
$DIMAUNIT
 70
     0
  9
$DIMADEC
 70
     0
  9
$DIMALTRND
 40
0.0
  9
$DIMAZIN
 70
     0
  9
$DIMDSEP
 70
    46
  9
$DIMATFIT
 70
     3
  9
$DIMFRAC
 70
     0
  9
$DIMLDRBLK
  1

  9
$DIMLUNIT
 70
     2
  9
$DIMLWD
 70
    -2
  9
$DIMLWE
 70
    -2
  9
$DIMTMOVE
 70
     0
  9
$DIMFXL
 40
1.0
  9
$DIMFXLON
 70
     0
  9
$DIMJOGANG
 40
0.7853981633974483
  9
$DIMTFILL
 70
     0
  9
$DIMTFILLCLR
 70
     0
  9
$DIMARCSYM
 70
     0
  9
$DIMLTYPE
  6

  9
$DIMLTEX1
  6

  9
$DIMLTEX2
  6

  9
$DIMTXTDIRECTION
 70
     0
  9
$LUNITS
 70
     2
  9
$LUPREC
 70
     4
  9
$SKETCHINC
 40
0.1
  9
$FILLETRAD
 40
0.0
  9
$AUNITS
 70
     0
  9
$AUPREC
 70
     0
  9
$MENU
  1
.
  9
$ELEVATION
 40
0.0
  9
$PELEVATION
 40
0.0
  9
$THICKNESS
 40
0.0
  9
$LIMCHECK
 70
     0
  9
$CHAMFERA
 40
0.0
  9
$CHAMFERB
 40
0.0
  9
$CHAMFERC
 40
0.0
  9
$CHAMFERD
 40
0.0
  9
$SKPOLY
 70
     0
  9
$TDCREATE
 40
2460035.563437500
  9
$TDUCREATE
 40
2460035.480104167
  9
$TDUPDATE
 40
2460035.563437500
  9
$TDUUPDATE
 40
2460035.480104167
  9
$TDINDWG
 40
0.0000000000
  9
$TDUSRTIMER
 40
0.0000000000
  9
$USRTIMER
 70
     1
  9
$ANGBASE
 50
0.0
  9
$ANGDIR
 70
     0
  9
$PDMODE
 70
     0
  9
$PDSIZE
 40
0.0
  9
$PLINEWID
 40
0.0
  9
$SPLFRAME
 70
     0
  9
$SPLINETYPE
 70
     6
  9
$SPLINESEGS
 70
     8
  9
$HANDSEED
  5
1CE
  9
$SURFTAB1
 70
     6
  9
$SURFTAB2
 70
     6
  9
$SURFTYPE
 70
     6
  9
$SURFU
 70
     6
  9
$SURFV
 70
     6
  9
$UCSBASE
  2

  9
$UCSNAME
  2

  9
$UCSORG
 10
0.0
 20
0.0
 30
0.0
  9
$UCSXDIR
 10
1.0
 20
0.0
 30
0.0
  9
$UCSYDIR
 10
0.0
 20
1.0
 30
0.0
  9
$UCSORTHOREF
  2

  9
$UCSORTHOVIEW
 70
     0
  9
$UCSORGTOP
 10
0.0
 20
0.0
 30
0.0
  9
$UCSORGBOTTOM
 10
0.0
 20
0.0
 30
0.0
  9
$UCSORGLEFT
 10
0.0
 20
0.0
 30
0.0
  9
$UCSORGRIGHT
 10
0.0
 20
0.0
 30
0.0
  9
$UCSORGFRONT
 10
0.0
 20
0.0
 30
0.0
  9
$UCSORGBACK
 10
0.0
 20
0.0
 30
0.0
  9
$PUCSBASE
  2

  9
$PUCSNAME
  2

  9
$PUCSORG
 10
0.0
 20
0.0
 30
0.0
  9
$PUCSXDIR
 10
1.0
 20
0.0
 30
0.0
  9
$PUCSYDIR
 10
0.0
 20
1.0
 30
0.0
  9
$PUCSORTHOREF
  2

  9
$PUCSORTHOVIEW
 70
     0
  9
$PUCSORGTOP
 10
0.0
 20
0.0
 30
0.0
  9
$PUCSORGBOTTOM
 10
0.0
 20
0.0
 30
0.0
  9
$PUCSORGLEFT
 10
0.0
 20
0.0
 30
0.0
  9
$PUCSORGRIGHT
 10
0.0
 20
0.0
 30
0.0
  9
$PUCSORGFRONT
 10
0.0
 20
0.0
 30
0.0
  9
$PUCSORGBACK
 10
0.0
 20
0.0
 30
0.0
  9
$USERI1
 70
     0
  9
$USERI2
 70
     0
  9
$USERI3
 70
     0
  9
$USERI4
 70
     0
  9
$USERI5
 70
     0
  9
$USERR1
 40
0.0
  9
$USERR2
 40
0.0
  9
$USERR3
 40
0.0
  9
$USERR4
 40
0.0
  9
$USERR5
 40
0.0
  9
$WORLDVIEW
 70
     1
  9
$SHADEDGE
 70
     3
  9
$SHADEDIF
 70
    70
  9
$TILEMODE
 70
     1
  9
$MAXACTVP
 70
    64
  9
$PINSBASE
 10
0.0
 20
0.0
 30
0.0
  9
$PLIMCHECK
 70
     0
  9
$PEXTMIN
 10
1.000000000000000E+20
 20
1.000000000000000E+20
 30
1.000000000000000E+20
  9
$PEXTMAX
 10
-1.000000000000000E+20
 20
-1.000000000000000E+20
 30
-1.000000000000000E+20
  9
$PLIMMIN
 10
0.0
 20
0.0
  9
$PLIMMAX
 10
12.0
 20
9.0
  9
$UNITMODE
 70
     0
  9
$VISRETAIN
 70
     1
  9
$PLINEGEN
 70
     0
  9
$PSLTSCALE
 70
     1
  9
$TREEDEPTH
 70
  3020
  9
$CMLSTYLE
  2
Standard
  9
$CMLJUST
 70
     0
  9
$CMLSCALE
 40
1.0
  9
$PROXYGRAPHICS
 70
     1
  9
$MEASUREMENT
 70
     0
  9
$CELWEIGHT
370
    -1
  9
$ENDCAPS
280
     0
  9
$JOINSTYLE
280
     0
  9
$LWDISPLAY
290
     1
  9
$INSUNITS
 70
     4
  9
$HYPERLINKBASE
  1

  9
$STYLESHEET
  1

  9
$XEDIT
290
     1
  9
$CEPSNTYPE
380
     0
  9
$PSTYLEMODE
290
     1
  9
$FINGERPRINTGUID
  2
{1DFEB5C8-95B0-CE47-9772-9985F64EFBB4}
  9
$VERSIONGUID
  2
{296D32A4-058F-3541-8107-D7FCD957438F}
  9
$EXTNAMES
290
     1
  9
$PSVPSCALE
 40
0.0
  9
$OLESTARTUP
290
     0
  9
$SORTENTS
280
   127
  9
$INDEXCTL
280
     0
  9
$HIDETEXT
280
     1
  9
$XCLIPFRAME
280
     2
  9
$HALOGAP
280
     0
  9
$OBSCOLOR
 70
   257
  9
$OBSLTYPE
280
     0
  9
$INTERSECTIONDISPLAY
280
     0
  9
$INTERSECTIONCOLOR
 70
   257
  9
$DIMASSOC
280
     2
  9
$PROJECTNAME
  1

  9
$CAMERADISPLAY
290
     0
  9
$LENSLENGTH
 40
50.0
  9
$CAMERAHEIGHT
 40
0.0
  9
$STEPSPERSEC
 40
2.0
  9
$STEPSIZE
 40
6.0
  9
$3DDWFPREC
 40
2.0
  9
$PSOLWIDTH
 40
0.25
  9
$PSOLHEIGHT
 40
4.0
  9
$LOFTANG1
 40
1.570796326794896
  9
$LOFTANG2
 40
1.570796326794896
  9
$LOFTMAG1
 40
0.0
  9
$LOFTMAG2
 40
0.0
  9
$LOFTPARAM
 70
     7
  9
$LOFTNORMALS
280
     1
  9
$LATITUDE
 40
37.795
  9
$LONGITUDE
 40
-122.394
  9
$NORTHDIRECTION
 40
0.0
  9
$TIMEZONE
 70
 -8000
  9
$LIGHTGLYPHDISPLAY
280
     1
  9
$TILEMODELIGHTSYNCH
280
     1
  9
$CMATERIAL
347
11
  9
$SOLIDHIST
280
     0
  9
$SHOWHIST
280
     1
  9
$DWFFRAME
280
     2
  9
$DGNFRAME
280
     0
  9
$REALWORLDSCALE
290
     1
  9
$INTERFERECOLOR
 62
     1
  9
$INTERFEREOBJVS
345
33
  9
$INTERFEREVPVS
346
30
  9
$CSHADOW
280
     0
  9
$SHADOWPLANELOCATION
 40
0.0
  0
ENDSEC
  0
SECTION
  2
CLASSES
  0
CLASS
  1
ACDBDICTIONARYWDFLT
  2
AcDbDictionaryWithDefault
  3
ObjectDBX Classes
 90
        0
 91
        1
280
     0
281
     0
  0
CLASS
  1
MATERIAL
  2
AcDbMaterial
  3
ObjectDBX Classes
 90
     1153
 91
        3
280
     0
281
     0
  0
CLASS
  1
VISUALSTYLE
  2
AcDbVisualStyle
  3
ObjectDBX Classes
 90
     4095
 91
       24
280
     0
281
     0
  0
CLASS
  1
SCALE
  2
AcDbScale
  3
ObjectDBX Classes
 90
     1153
 91
       17
280
     0
281
     0
  0
CLASS
  1
TABLESTYLE
  2
AcDbTableStyle
  3
ObjectDBX Classes
 90
     4095
 91
        1
280
     0
281
     0
  0
CLASS
  1
MLEADERSTYLE
  2
AcDbMLeaderStyle
  3
ACDB_MLEADERSTYLE_CLASS
 90
     4095
 91
        1
280
     0
281
     0
  0
CLASS
  1
ACDBSECTIONVIEWSTYLE
  2
AcDbSectionViewStyle
  3
ObjectDBX Classes
 90
     1025
 91
        1
280
     0
281
     0
  0
CLASS
  1
ACDBDETAILVIEWSTYLE
  2
AcDbDetailViewStyle
  3
ObjectDBX Classes
 90
     1025
 91
        1
280
     0
281
     0
  0
CLASS
  1
DICTIONARYVAR
  2
AcDbDictionaryVar
  3
ObjectDBX Classes
 90
        0
 91
        5
280
     0
281
     0
  0
CLASS
  1
CELLSTYLEMAP
  2
AcDbCellStyleMap
  3
ObjectDBX Classes
 90
     1152
 91
        1
280
     0
281
     0
  0
ENDSEC
  0
SECTION
  2
TABLES
  0
TABLE
  2
VPORT
  5
8
330
0
100
AcDbSymbolTable
 70
     1
  0
VPORT
  5
57
330
8
100
AcDbSymbolTableRecord
100
AcDbViewportTableRecord
  2
*Active
 70
     0
 10
0.0
 20
0.0
 11
1.0
 21
1.0
 12
0.0
 22
0.0
 13
0.0
 23
0.0
 14
1.0
 24
1.0
 15
0.0
 25
0.0
 16
0.0
 26
0.0
 36
1.0
 17
104.9999999737499
 27
31.49999999212523
 37
0.0
 40
302.9399999242649
 41
0.7070707070707066
 42
50.0
 43
0.0
 44
0.0
 50
0.0
 51
0.0
 71
     0
 72
   100
 73
     1
 74
     1
 75
     0
 76
     0
 77
     0
 78
     0
281
     0
 65
     1
110
0.0
120
0.0
130
0.0
111
1.0
121
0.0
131
0.0
112
0.0
122
1.0
132
0.0
 79
     0
146
0.0
 60
     3
 61
     5
292
     1
282
     1
141
0.0
142
0.0
 63
   250
421
  3355443
  0
ENDTAB
  0
TABLE
  2
LTYPE
  5
5
330
0
100
AcDbSymbolTable
 70
     1
  0
LTYPE
  5
5B
330
5
100
AcDbSymbolTableRecord
100
AcDbLinetypeTableRecord
  2
ByBlock
 70
     0
  3

 72
    65
 73
     0
 40
0.0
  0
LTYPE
  5
5C
330
5
100
AcDbSymbolTableRecord
100
AcDbLinetypeTableRecord
  2
ByLayer
 70
     0
  3

 72
    65
 73
     0
 40
0.0
  0
LTYPE
  5
5D
330
5
100
AcDbSymbolTableRecord
100
AcDbLinetypeTableRecord
  2
Continuous
 70
     0
  3
Solid line
 72
    65
 73
     0
 40
0.0
  0
ENDTAB
  0
TABLE
  2
LAYER
  5
2
330
0
100
AcDbSymbolTable
 70
     2
  0
LAYER
  5
54
330
2
100
AcDbSymbolTableRecord
100
AcDbLayerTableRecord
  2
0
 70
     0
 62
     7
  6
Continuous
370
     0
390
F
347
21
348
0
  0
LAYER
  5
19F
330
2
100
AcDbSymbolTableRecord
100
AcDbLayerTableRecord
  2
CAPA_BASE
 70
     0
 62
     7
  6
Continuous
370
     0
390
F
347
21
348
0
  0
ENDTAB
  0
TABLE
  2
STYLE
  5
3
330
0
100
AcDbSymbolTable
 70
     2
  0
STYLE
  5
55
330
3
100
AcDbSymbolTableRecord
100
AcDbTextStyleTableRecord
  2
Standard
 70
     0
 40
0.0
 41
1.0
 50
0.0
 71
     0
 42
0.2
  3
txt
  4

  0
STYLE
  5
5A
330
3
100
AcDbSymbolTableRecord
100
AcDbTextStyleTableRecord
  2
Annotative
 70
     0
 40
0.0
 41
1.0
 50
0.0
 71
     0
 42
0.2
  3
txt
  4

1001
AcadAnnotative
1000
AnnotativeData
1002
{
1070
     1
1070
     1
1002
}
  0
ENDTAB
  0
TABLE
  2
VIEW
  5
6
330
0
100
AcDbSymbolTable
 70
     0
  0
ENDTAB
  0
TABLE
  2
UCS
  5
7
330
0
100
AcDbSymbolTable
 70
     0
  0
ENDTAB
  0
TABLE
  2
APPID
  5
9
330
0
100
AcDbSymbolTable
 70
     2
  0
APPID
  5
56
330
9
100
AcDbSymbolTableRecord
100
AcDbRegAppTableRecord
  2
ACAD
 70
     0
  0
APPID
  5
5E
330
9
100
AcDbSymbolTableRecord
100
AcDbRegAppTableRecord
  2
AcadAnnotative
 70
     0
  0
ENDTAB
  0
TABLE
  2
DIMSTYLE
  5
A
330
0
100
AcDbSymbolTable
 70
     2
100
AcDbDimStyleTable
 71
     0
  0
DIMSTYLE
105
58
330
A
100
AcDbSymbolTableRecord
100
AcDbDimStyleTableRecord
  2
Standard
 70
     0
340
55
  0
DIMSTYLE
105
59
330
A
100
AcDbSymbolTableRecord
100
AcDbDimStyleTableRecord
  2
Annotative
 70
     0
340
55
1001
AcadAnnotative
1000
AnnotativeData
1002
{
1070
     1
1070
     1
1002
}
  0
ENDTAB
  0
TABLE
  2
BLOCK_RECORD
  5
1
330
0
100
AcDbSymbolTable
 70
     4
  0
BLOCK_RECORD
  5
70
330
1
100
AcDbSymbolTableRecord
100
AcDbBlockTableRecord
  2
*Model_Space
340
73
 70
     0
280
     1
281
     0
  0
BLOCK_RECORD
  5
6C
330
1
100
AcDbSymbolTableRecord
100
AcDbBlockTableRecord
  2
*Paper_Space
340
6F
 70
     0
280
     1
281
     0
  0
BLOCK_RECORD
  5
74
330
1
100
AcDbSymbolTableRecord
100
AcDbBlockTableRecord
  2
*Paper_Space0
340
77
 70
     0
280
     1
281
     0
  0
BLOCK_RECORD
  5
1A0
330
1
100
AcDbSymbolTableRecord
100
AcDbBlockTableRecord
  2
Block_0
340
0
102
{BLKREFS
331
1A1
102
}
 70
     0
280
     1
281
     0
  0
BLOCK_RECORD
  5
1AD
330
1
100
AcDbSymbolTableRecord
100
AcDbBlockTableRecord
  2
Block_1
340
0
102
{BLKREFS
331
1AE
102
}
 70
     0
280
     1
281
     0
  0
BLOCK_RECORD
  5
1B9
330
1
100
AcDbSymbolTableRecord
100
AcDbBlockTableRecord
  2
Block_2
340
0
102
{BLKREFS
331
1BA
102
}
 70
     0
280
     1
281
     0
  0
ENDTAB
  0
ENDSEC
  0
SECTION
  2
BLOCKS
  0
BLOCK
  5
71
330
70
100
AcDbEntity
  8
0
100
AcDbBlockBegin
  2
*Model_Space
 70
     0
 10
0.0
 20
0.0
 30
0.0
  3
*Model_Space
  1

  0
ENDBLK
  5
72
330
70
100
AcDbEntity
  8
0
100
AcDbBlockEnd
  0
BLOCK
  5
6D
330
6C
100
AcDbEntity
 67
     1
  8
0
100
AcDbBlockBegin
  2
*Paper_Space
 70
     0
 10
0.0
 20
0.0
 30
0.0
  3
*Paper_Space
  1

  0
ENDBLK
  5
6E
330
6C
100
AcDbEntity
 67
     1
  8
0
100
AcDbBlockEnd
  0
BLOCK
  5
75
330
74
100
AcDbEntity
 67
     1
  8
0
100
AcDbBlockBegin
  2
*Paper_Space0
 70
     0
 10
0.0
 20
0.0
 30
0.0
  3
*Paper_Space0
  1

  0
ENDBLK
  5
76
330
74
100
AcDbEntity
 67
     1
  8
0
100
AcDbBlockEnd
  0
BLOCK
  5
1A2
330
1A0
100
AcDbEntity
  8
0
100
AcDbBlockBegin
  2
Block_0
 70
     0
 10
0.0
 20
0.0
 30
0.0
  3
Block_0
  1

  0
LWPOLYLINE
  5
1A4
330
1A0
100
AcDbEntity
  8
CAPA_BASE
100
AcDbPolyline
 90
        4
 70
     1
 43
0.0
 10
36.22328096023231
 20
26.25663773295391
 10
38.72328096023208
 20
25.94663773295355
 10
38.72328096023208
 20
26.56663773295363
 10
38.72328096023208
 20
26.56663773295363
  0
HATCH
  5
1A5
330
1A0
100
AcDbEntity
  8
CAPA_BASE
 62
    18
420
        0
440
 33554687
100
AcDbHatch
 10
0.0
 20
0.0
 30
0.0
210
0.0
220
0.0
230
1.0
  2
SOLID
 70
     1
 71
     1
 91
        1
 92
        1
 93
        3
 72
     1
 10
36.22328096023231
 20
26.25663773295391
 11
38.72328096023208
 21
25.94663773295355
 72
     1
 10
38.72328096023208
 20
25.94663773295355
 11
38.72328096023208
 21
26.56663773295363
 72
     1
 10
38.72328096023208
 20
26.56663773295363
 11
36.22328096023231
 21
26.25663773295391
 97
        1
330
1A4
 75
     2
 76
     1
 98
        1
 10
0.0
 20
0.0
450
        0
451
        0
460
0.0
461
0.0
452
        0
462
0.0
453
        0
470

  0
LWPOLYLINE
  5
1A6
330
1A0
100
AcDbEntity
  8
CAPA_BASE
100
AcDbPolyline
 90
        4
 70
     1
 43
0.0
 10
74.22328096023171
 20
26.25663773295391
 10
71.72328096023196
 20
26.56663773295363
 10
71.72328096023196
 20
25.94663773295355
 10
71.72328096023196
 20
25.94663773295355
  0
HATCH
  5
1A7
330
1A0
100
AcDbEntity
  8
CAPA_BASE
 62
    18
420
        0
440
 33554687
100
AcDbHatch
 10
0.0
 20
0.0
 30
0.0
210
0.0
220
0.0
230
1.0
  2
SOLID
 70
     1
 71
     1
 91
        1
 92
        1
 93
        3
 72
     1
 10
74.22328096023171
 20
26.25663773295391
 11
71.72328096023196
 21
26.56663773295363
 72
     1
 10
71.72328096023196
 20
26.56663773295363
 11
71.72328096023196
 21
25.94663773295355
 72
     1
 10
71.72328096023196
 20
25.94663773295355
 11
74.22328096023171
 21
26.25663773295391
 97
        1
330
1A6
 75
     2
 76
     1
 98
        1
 10
0.0
 20
0.0
450
        0
451
        0
460
0.0
461
0.0
452
        0
462
0.0
453
        0
470

  0
LINE
  5
1A8
330
1A0
100
AcDbEntity
  8
CAPA_BASE
 62
    18
420
        0
370
    25
100
AcDbLine
 10
36.22328096023231
 20
82.06913773295367
 30
0.0
 11
36.22328096023231
 21
25.25663773295323
 31
0.0
  0
LINE
  5
1A9
330
1A0
100
AcDbEntity
  8
CAPA_BASE
 62
    18
420
        0
370
    25
100
AcDbLine
 10
74.22328096023171
 20
82.06913773295367
 30
0.0
 11
74.22328096023171
 21
25.25663773295323
 31
0.0
  0
LINE
  5
1AA
330
1A0
100
AcDbEntity
  8
CAPA_BASE
 62
    18
420
        0
370
    25
100
AcDbLine
 10
36.22328096023231
 20
26.25663773295391
 30
0.0
 11
74.22328096023171
 21
26.25663773295391
 31
0.0
  0
MTEXT
  5
1AB
330
1A0
100
AcDbEntity
  8
CAPA_BASE
100
AcDbMText
 10
51.77322869595968
 20
27.05038913474402
 30
0.0
 40
0.2
 41
0.0
 46
0.0
 71
     7
 72
     1
  1
\C18;\c0;\FArial Bold|b1|i0|c1;\H2.997200;\W0.700000;Ø
 73
     1
 44
1.0
  0
MTEXT
  5
1AC
330
1A0
100
AcDbEntity
  8
CAPA_BASE
100
AcDbMText
 10
55.14555730500702
 20
27.05038913474402
 30
0.0
 40
0.2
 41
0.0
 46
0.0
 71
     7
 72
     1
  1
\C18;\c0;\FArial Bold|b1|i0|c1;\H2.997200;\W0.700000;76
 73
     1
 44
1.0
  0
ENDBLK
  5
1A3
330
1A0
100
AcDbEntity
  8
0
100
AcDbBlockEnd
  0
BLOCK
  5
1AF
330
1AD
100
AcDbEntity
  8
0
100
AcDbBlockBegin
  2
Block_1
 70
     0
 10
0.0
 20
0.0
 30
0.0
  3
Block_1
  1

  0
LWPOLYLINE
  5
1B1
330
1AD
100
AcDbEntity
  8
CAPA_BASE
100
AcDbPolyline
 90
        4
 70
     1
 43
0.0
 10
84.25436090713196
 20
-3.901181946946706
 10
83.94436090713226
 20
-6.401181946946473
 10
84.56436090713234
 20
-6.401181946946473
 10
84.56436090713234
 20
-6.401181946946473
  0
HATCH
  5
1B2
330
1AD
100
AcDbEntity
  8
CAPA_BASE
 62
    18
420
        0
440
 33554687
100
AcDbHatch
 10
0.0
 20
0.0
 30
0.0
210
0.0
220
0.0
230
1.0
  2
SOLID
 70
     1
 71
     1
 91
        1
 92
        1
 93
        3
 72
     1
 10
84.25436090713196
 20
-3.901181946946706
 11
83.94436090713226
 21
-6.401181946946473
 72
     1
 10
83.94436090713226
 20
-6.401181946946473
 11
84.56436090713234
 21
-6.401181946946473
 72
     1
 10
84.56436090713234
 20
-6.401181946946473
 11
84.25436090713196
 21
-3.901181946946706
 97
        1
330
1B1
 75
     2
 76
     1
 98
        1
 10
0.0
 20
0.0
450
        0
451
        0
460
0.0
461
0.0
452
        0
462
0.0
453
        0
470

  0
LWPOLYLINE
  5
1B3
330
1AD
100
AcDbEntity
  8
CAPA_BASE
100
AcDbPolyline
 90
        4
 70
     1
 43
0.0
 10
84.25436090713196
 20
-58.40118194694639
 10
84.56436090713234
 20
-55.90118194694661
 10
83.94436090713226
 20
-55.90118194694661
 10
83.94436090713226
 20
-55.90118194694661
  0
HATCH
  5
1B4
330
1AD
100
AcDbEntity
  8
CAPA_BASE
 62
    18
420
        0
440
 33554687
100
AcDbHatch
 10
0.0
 20
0.0
 30
0.0
210
0.0
220
0.0
230
1.0
  2
SOLID
 70
     1
 71
     1
 91
        1
 92
        1
 93
        3
 72
     1
 10
84.25436090713196
 20
-58.40118194694639
 11
84.56436090713234
 21
-55.90118194694661
 72
     1
 10
84.56436090713234
 20
-55.90118194694661
 11
83.94436090713226
 21
-55.90118194694661
 72
     1
 10
83.94436090713226
 20
-55.90118194694661
 11
84.25436090713196
 21
-58.40118194694639
 97
        1
330
1B3
 75
     2
 76
     1
 98
        1
 10
0.0
 20
0.0
450
        0
451
        0
460
0.0
461
0.0
452
        0
462
0.0
453
        0
470

  0
LINE
  5
1B5
330
1AD
100
AcDbEntity
  8
CAPA_BASE
 62
    18
420
        0
370
    25
100
AcDbLine
 10
68.72328096023185
 20
-3.901181946946706
 30
0.0
 11
85.25436090713201
 21
-3.901181946946706
 31
0.0
  0
LINE
  5
1B6
330
1AD
100
AcDbEntity
  8
CAPA_BASE
 62
    18
420
        0
370
    25
100
AcDbLine
 10
56.22328096023237
 20
-58.40118194694639
 30
0.0
 11
85.25436090713201
 21
-58.40118194694639
 31
0.0
  0
LINE
  5
1B7
330
1AD
100
AcDbEntity
  8
CAPA_BASE
 62
    18
420
        0
370
    25
100
AcDbLine
 10
84.25436090713196
 20
-3.901181946946706
 30
0.0
 11
84.25436090713196
 21
-58.40118194694639
 31
0.0
  0
MTEXT
  5
1B8
330
1AD
100
AcDbEntity
  8
CAPA_BASE
100
AcDbMText
 10
83.46061407757842
 20
-33.7970757293986
 30
0.0
 40
0.2
 41
0.0
 46
0.0
 71
     7
 72
     1
  1
\C18;\c0;\FArial Bold|b1|i0|c1;\H2.997200;\W0.700000;109
 11
0.0000000000000003
 21
1.0
 31
0.0
 73
     1
 44
1.0
  0
ENDBLK
  5
1B0
330
1AD
100
AcDbEntity
  8
0
100
AcDbBlockEnd
  0
BLOCK
  5
1BB
330
1B9
100
AcDbEntity
  8
0
100
AcDbBlockBegin
  2
Block_2
 70
     0
 10
0.0
 20
0.0
 30
0.0
  3
Block_2
  1

  0
LWPOLYLINE
  5
1BD
330
1B9
100
AcDbEntity
  8
CAPA_BASE
100
AcDbPolyline
 90
        4
 70
     1
 43
0.0
 10
121.4171606296319
 20
95.7691377329532
 10
121.1071606296321
 20
93.26913773295343
 10
121.7271606296316
 20
93.26913773295343
 10
121.7271606296316
 20
93.26913773295343
  0
HATCH
  5
1BE
330
1B9
100
AcDbEntity
  8
CAPA_BASE
 62
    18
420
        0
440
 33554687
100
AcDbHatch
 10
0.0
 20
0.0
 30
0.0
210
0.0
220
0.0
230
1.0
  2
SOLID
 70
     1
 71
     1
 91
        1
 92
        1
 93
        3
 72
     1
 10
121.4171606296319
 20
95.7691377329532
 11
121.1071606296321
 21
93.26913773295343
 72
     1
 10
121.1071606296321
 20
93.26913773295343
 11
121.7271606296316
 21
93.26913773295343
 72
     1
 10
121.7271606296316
 20
93.26913773295343
 11
121.4171606296319
 21
95.7691377329532
 97
        1
330
1BD
 75
     2
 76
     1
 98
        1
 10
0.0
 20
0.0
450
        0
451
        0
460
0.0
461
0.0
452
        0
462
0.0
453
        0
470

  0
LWPOLYLINE
  5
1BF
330
1B9
100
AcDbEntity
  8
CAPA_BASE
100
AcDbPolyline
 90
        4
 70
     1
 43
0.0
 10
121.4171606296319
 20
36.25663773295362
 10
121.7271606296316
 20
38.75663773295339
 10
121.1071606296321
 20
38.75663773295339
 10
121.1071606296321
 20
38.75663773295339
  0
HATCH
  5
1C0
330
1B9
100
AcDbEntity
  8
CAPA_BASE
 62
    18
420
        0
440
 33554687
100
AcDbHatch
 10
0.0
 20
0.0
 30
0.0
210
0.0
220
0.0
230
1.0
  2
SOLID
 70
     1
 71
     1
 91
        1
 92
        1
 93
        3
 72
     1
 10
121.4171606296319
 20
36.25663773295362
 11
121.7271606296316
 21
38.75663773295339
 72
     1
 10
121.7271606296316
 20
38.75663773295339
 11
121.1071606296321
 21
38.75663773295339
 72
     1
 10
121.1071606296321
 20
38.75663773295339
 11
121.4171606296319
 21
36.25663773295362
 97
        1
330
1BF
 75
     2
 76
     1
 98
        1
 10
0.0
 20
0.0
450
        0
451
        0
460
0.0
461
0.0
452
        0
462
0.0
453
        0
470

  0
LINE
  5
1C1
330
1B9
100
AcDbEntity
  8
CAPA_BASE
 62
    18
420
        0
370
    25
100
AcDbLine
 10
130.4171606296315
 20
95.7691377329532
 30
0.0
 11
120.4171606296325
 21
95.7691377329532
 31
0.0
  0
LINE
  5
1C2
330
1B9
100
AcDbEntity
  8
CAPA_BASE
 62
    18
420
        0
370
    25
100
AcDbLine
 10
151.1598437314319
 20
36.25663773295362
 30
0.0
 11
120.4171606296325
 21
36.25663773295362
 31
0.0
  0
LINE
  5
1C3
330
1B9
100
AcDbEntity
  8
CAPA_BASE
 62
    18
420
        0
370
    25
100
AcDbLine
 10
121.4171606296319
 20
95.7691377329532
 30
0.0
 11
121.4171606296319
 21
36.25663773295362
 31
0.0
  0
MTEXT
  5
1C4
330
1B9
100
AcDbEntity
  8
CAPA_BASE
100
AcDbMText
 10
120.6234108305422
 20
63.36701929839371
 30
0.0
 40
0.2
 41
0.0
 46
0.0
 71
     7
 72
     1
  1
\C18;\c0;\FArial Bold|b1|i0|c1;\H2.997200;\W0.700000;119
 11
0.0000000000000003
 21
1.0
 31
0.0
 73
     1
 44
1.0
  0
ENDBLK
  5
1BC
330
1B9
100
AcDbEntity
  8
0
100
AcDbBlockEnd
  0
ENDSEC
  0
SECTION
  2
ENTITIES
  0
SPLINE
  5
78
330
70
100
AcDbEntity
  8
0
 62
    18
420
        0
370
    25
100
AcDbSpline
210
0.0
220
0.0
230
1.0
 70
     8
 71
     3
 72
     8
 73
     4
 74
     0
 42
0.0000000001
 43
0.0000000001
 40
0.0
 40
0.0
 40
0.0
 40
0.0
 40
1.0
 40
1.0
 40
1.0
 40
1.0
 10
181.9797201979162
 20
-19.6119717232728
 30
0.0
 10
182.1318529535966
 20
-19.69263091310063
 30
0.0
 10
182.3147848743175
 20
-19.68933363399979
 30
0.0
 10
182.4639120513912
 20
-19.60324434713683
 30
0.0
  0
SPLINE
  5
79
330
70
100
AcDbEntity
  8
0
 62
    18
420
        0
370
    25
100
AcDbSpline
210
0.0
220
0.0
230
1.0
 70
     8
 71
     3
 72
     8
 73
     4
 74
     0
 42
0.0000000001
 43
0.0000000001
 40
0.0
 40
0.0
 40
0.0
 40
0.0
 40
1.0
 40
1.0
 40
1.0
 40
1.0
 10
164.9933899365739
 20
10.65668134244404
 30
0.0
 10
164.8387289514424
 20
10.56739745618928
 30
0.0
 10
164.7434285220301
 20
10.40240402730049
 30
0.0
 10
164.7433696469042
 20
10.22382175158414
 30
0.0
  0
LINE
  5
7A
330
70
100
AcDbEntity
  8
0
 62
    18
420
        0
370
    25
100
AcDbLine
 10
181.976113769332
 20
-19.6080034827464
 30
0.0
 11
181.9813921769318
 21
-19.61083476814669
 31
0.0
  0
LWPOLYLINE
  5
7B
330
70
100
AcDbEntity
  8
0
 62
    18
420
        0
370
    25
100
AcDbPolyline
 90
        3
 70
     0
 43
0.0
 10
168.8654972575316
 20
-12.04315921754665
 10
168.9635164302317
 20
-12.09978335554656
 10
181.9701848086321
 20
-19.60578617744667
  0
LWPOLYLINE
  5
7C
330
70
100
AcDbEntity
  8
0
 62
    18
420
        0
370
    25
100
AcDbPolyline
 90
        3
 70
     0
 43
0.0
 10
164.7434072656326
 20
10.22383368555315
 10
164.7420434958323
 20
5.636804402153702
 10
164.7434938113318
 20
-4.082467339946528
  0
LINE
  5
7D
330
70
100
AcDbEntity
  8
0
 62
    18
420
        0
370
    25
100
AcDbLine
 10
182.4639120514323
 20
-19.60324434714645
 30
0.0
 11
184.0482948835326
 21
-18.6885996069464
 31
0.0
  0
LINE
  5
7E
330
70
100
AcDbEntity
  8
0
 62
    18
420
        0
370
    25
100
AcDbLine
 10
166.577772768732
 20
11.57132608265372
 30
0.0
 11
164.9933899366317
 21
10.65668134245366
 31
0.0
  0
SPLINE
  5
7F
330
70
100
AcDbEntity
  8
0
 62
    18
420
        0
370
    25
100
AcDbSpline
210
0.0
220
0.0
230
1.0
 70
     8
 71
     3
 72
     8
 73
     4
 74
     0
 42
0.0000000001
 43
0.0000000001
 40
0.0
 40
0.0
 40
0.0
 40
0.0
 40
1.0
 40
1.0
 40
1.0
 40
1.0
 10
168.2257556237139
 20
-8.058392647824105
 30
0.0
 10
167.1439708450434
 20
-5.970332217206759
 30
0.0
 10
165.4440529741459
 20
-4.267066865829691
 30
0.0
 10
163.3581247386041
 20
-3.181176417653476
 30
0.0
  0
LWPOLYLINE
  5
80
330
70
100
AcDbEntity
  8
0
 62
    18
420
        0
370
    25
100
AcDbPolyline
 90
       34
 70
     0
 43
0.0
 10
163.3581247386324
 20
-3.181176417646417
 10
162.8908437118317
 20
-2.920644574546568
 10
161.9624521245314
 20
-2.452865265946871
 10
160.9834478396321
 20
-2.021868709846295
 10
159.9581613463323
 20
-1.629466907946264
 10
158.8910347359318
 20
-1.277270978046591
 10
157.7866733708323
 20
-0.9667243395465822
 10
156.649830490932
 20
-0.6990991557468581
 10
155.4853903651321
 20
-0.4754921388464764
 10
154.2983500448315
 20
-0.2968202604466666
 10
153.0937998844317
 20
-0.1638167607468589
 10
151.8769030448316
 20
-0.0770277359468402
 10
150.6528742100322
 20
-0.0368094940462912
 10
149.4269577426324
 20
-0.0433268013463338
 10
148.2044074134319
 20
-0.0965519772464066
 10
146.9904719064323
 20
-0.1962639552467016
 10
145.7903505176316
 20
-0.3420507043462295
 10
144.6091830384325
 20
-0.5333117220467952
 10
143.4520282159324
 20
-0.7692613744465512
 10
142.3238429000323
 20
-1.048933199346699
 10
141.2294621271316
 20
-1.371185072746283
 10
140.1735804095321
 20
-1.734705077846629
 10
139.1607345143323
 20
-2.138017811346728
 10
138.1952880113315
 20
-2.579490718546422
 10
137.2814178145321
 20
-3.057339844346233
 10
136.4231027882315
 20
-3.569634122446529
 10
135.6241141502321
 20
-4.114297027846395
 10
134.8880220663318
 20
-4.689091394246285
 10
134.2181832223325
 20
-5.29160429184675
 10
133.6176869316325
 20
-5.919263267346441
 10
133.0893502924319
 20
-6.569306943046531
 10
132.6356770216316
 20
-7.238774389046627
 10
132.2588015251315
 20
-7.924511020446743
 10
132.2021368478326
 20
-8.057200592346253
  0
LINE
  5
81
330
70
100
AcDbEntity
  8
0
 62
    18
420
        0
370
    25
100
AcDbLine
 10
131.5446647992322
 20
-10.98362222544636
 30
0.0
 11
131.5839349568325
 21
-14.65791600514683
 31
0.0
  0
LINE
  5
82
330
70
100
AcDbEntity
  8
0
 62
    18
420
        0
370
    25
100
AcDbLine
 10
168.8375512311324
 20
-14.65791600514683
 30
0.0
 11
168.8768213886326
 21
-10.98362222544636
 31
0.0
  0
LWPOLYLINE
  5
83
330
70
100
AcDbEntity
  8
0
 62
    18
420
        0
370
    25
100
AcDbPolyline
 90
       41
 70
     0
 43
0.0
 10
132.3285123518325
 20
-17.61815226024642
 10
132.5132837990317
 20
-17.98742571174673
 10
132.9338168746318
 20
-18.65970676014636
 10
133.4295835665319
 20
-19.31450527324678
 10
133.9985012158326
 20
-19.94884777014643
 10
134.6380683964318
 20
-20.55983228174657
 10
135.3454072516324
 20
-21.14468761494679
 10
136.1173143639325
 20
-21.7008074651466
 10
136.9503061891321
 20
-22.22576370194631
 10
137.8406453741318
 20
-22.7173029110464
 10
138.7843551371324
 20
-23.17334046244633
 10
139.7772962841317
 20
-23.59198455894647
 10
140.8151424411326
 20
-23.97150871864683
 10
141.8933937909323
 20
-24.31035275894639
 10
143.0073916406322
 20
-24.60712555794667
 10
144.1523343209315
 20
-24.86060888964625
 10
145.3232945353321
 20
-25.06976170864671
 10
146.5152380728325
 20
-25.23372439354675
 10
147.7230436941318
 20
-25.35182258954637
 10
148.9415239671317
 20
-25.4235704019468
 10
150.1654468198315
 20
-25.44867277394648
 10
151.3895575860326
 20
-25.42702693854668
 10
152.608594957532
 20
-25.35872336114645
 10
153.8173190334323
 20
-25.24404577514666
 10
155.0105421575323
 20
-25.08346846144635
 10
156.1831434179323
 20
-24.87765356534638
 10
157.3300900529324
 20
-24.62744742044678
 10
158.446458087832
 20
-24.33387593224662
 10
159.5274519425319
 20
-23.99813913864666
 10
160.5684227340318
 20
-23.62160514064688
 10
161.5648849863321
 20
-23.20580371104654
 10
162.512531476432
 20
-22.75242005434646
 10
163.4072460273316
 20
-22.26328941874676
 10
164.245114265432
 20
-21.74039354254659
 10
165.0224327825324
 20
-21.18586021024623
 10
165.7356883717316
 20
-20.60199330934636
 10
166.3816131408324
 20
-19.9912582087465
 10
166.957203000632
 20
-19.35629273814623
 10
167.4597388951323
 20
-18.69992891084624
 10
167.8868334970321
 20
-18.02519952684683
 10
168.0862956160322
 20
-17.63165983664655
  0
LINE
  5
84
330
70
100
AcDbEntity
  8
0
 62
    18
420
        0
370
    25
100
AcDbLine
 10
134.3600995222322
 20
-27.26510978304651
 30
0.0
 11
134.7038347482326
 21
-55.89315380564667
 31
0.0
  0
LINE
  5
85
330
70
100
AcDbEntity
  8
0
 62
    18
420
        0
370
    25
100
AcDbLine
 10
165.7176514397324
 20
-55.89315380564667
 30
0.0
 11
166.0614189825318
 21
-27.26241827784682
 31
0.0
  0
LWPOLYLINE
  5
86
330
70
100
AcDbEntity
  8
0
 62
    18
420
        0
370
    25
100
AcDbPolyline
 90
       46
 70
     0
 43
0.0
 10
134.7116452713321
 20
-55.79857858454678
 10
134.7057656135322
 20
-55.98794206284684
 10
134.7653742269321
 20
-56.66213796084626
 10
134.9046739712323
 20
-57.32987974944623
 10
135.1227930431323
 20
-57.98854189844655
 10
135.4190417789318
 20
-58.63569714204652
 10
135.7926601594326
 20
-59.26861657984629
 10
136.2424835465326
 20
-59.88416150334629
 10
136.7666665320324
 20
-60.47886527074673
 10
137.3625686623323
 20
-61.04914490704674
 10
138.0268133769316
 20
-61.59153675384653
 10
138.7554515289324
 20
-62.10286777244676
 10
139.5441407616323
 20
-62.5803312952464
 10
140.3882392123327
 20
-63.02146484324659
 10
141.2828784788315
 20
-63.42412186944674
 10
142.2232028939319
 20
-63.78650909884662
 10
143.2042290183324
 20
-64.10705554514625
 10
144.2208471640324
 20
-64.38439152394685
 10
145.267824699332
 20
-64.61733892024648
 10
146.3398140882317
 20
-64.80490898274656
 10
147.4313662256315
 20
-64.94630435224653
 10
148.5369485203324
 20
-65.04092287714644
 10
149.6509667715327
 20
-65.08836155254677
 10
150.7677898055323
 20
-65.08841951804687
 10
151.881775888832
 20
-65.04109946324676
 10
152.9872442414327
 20
-64.94661305264646
 10
154.0786166820319
 20
-64.80537329824628
 10
155.1503877255322
 20
-64.61798827994678
 10
156.197149402432
 20
-64.38525401004667
 10
157.2136134833321
 20
-64.10814555264657
 10
158.1946298019322
 20
-63.78780709964634
 10
159.1351992962326
 20
-63.42554228534659
 10
160.0304803218326
 20
-63.02280693374669
 10
160.8757870545325
 20
-62.58120778164649
 10
161.6665798165319
 20
-62.10251252854644
 10
162.3984496885327
 20
-61.5886785043463
 10
163.0669800637324
 20
-61.04201854404649
 10
163.6679426405321
 20
-60.46518741544645
 10
164.1973520056323
 20
-59.86127580544678
 10
164.6515669062326
 20
-59.23392291694682
 10
165.027507940632
 20
-58.58732550724686
 10
165.3229047562323
 20
-57.92610610364661
 10
165.5364684012317
 20
-57.25502688494664
 10
165.6678784596321
 20
-56.57862616244674
 10
165.7175528694325
 20
-55.90092007364662
 10
165.7107674957315
 20
-55.75430011254632
  0
SPLINE
  5
87
330
70
100
AcDbEntity
  8
0
 62
    18
420
        0
370
    25
100
AcDbSpline
210
0.0
220
0.0
230
1.0
 70
     8
 71
     3
 72
     8
 73
     4
 74
     0
 42
0.0000000001
 43
0.0000000001
 40
0.0
 40
0.0
 40
0.0
 40
0.0
 40
1.0
 40
1.0
 40
1.0
 40
1.0
 10
169.201719344077
 20
-18.2133692455936
 30
0.0
 10
169.220269565921
 20
-17.00092185636058
 30
0.0
 10
169.1810006184302
 20
-15.78827946564831
 30
0.0
 10
169.0840462556266
 20
-14.57957245651875
 30
0.0
  0
SPLINE
  5
88
330
70
100
AcDbEntity
  8
0
 62
    18
420
        0
370
    25
100
AcDbSpline
210
0.0
220
0.0
230
1.0
 70
     8
 71
     3
 72
     8
 73
     4
 74
     0
 42
0.0000000001
 43
0.0000000001
 40
0.0
 40
0.0
 40
0.0
 40
0.0
 40
1.0
 40
1.0
 40
1.0
 40
1.0
 10
131.3296160712907
 20
-14.57986238530309
 30
0.0
 10
131.2382645080881
 20
-15.78866078766691
 30
0.0
 10
131.2016105281138
 20
-17.00097125801161
 30
0.0
 10
131.2197663992495
 20
-18.21308059713938
 30
0.0
  0
LINE
  5
89
330
70
100
AcDbEntity
  8
0
 62
    18
420
        0
370
    25
100
AcDbLine
 10
169.2414512928318
 20
-21.05254997914674
 30
0.0
 11
169.2103814565324
 21
-18.14551539534626
 31
0.0
  0
LINE
  5
8A
330
70
100
AcDbEntity
  8
0
 62
    18
420
        0
370
    25
100
AcDbLine
 10
131.2111047314325
 20
-18.14551539534626
 30
0.0
 11
131.1800348951318
 21
-21.05254997914674
 31
0.0
  0
SPLINE
  5
8B
330
70
100
AcDbEntity
  8
0
 62
    18
420
        0
370
    25
100
AcDbSpline
210
0.0
220
0.0
230
1.0
 70
     8
 71
     3
 72
     8
 73
     4
 74
     0
 42
0.0000000001
 43
0.0000000001
 40
0.0
 40
0.0
 40
0.0
 40
0.0
 40
1.0
 40
1.0
 40
1.0
 40
1.0
 10
131.8381227700516
 20
-24.00904421067655
 30
0.0
 10
132.9349289563635
 20
-26.14984128567558
 30
0.0
 10
134.6710802970087
 20
-27.89602181095289
 30
0.0
 10
136.8055242639528
 20
-29.00514077600112
 30
0.0
  0
LWPOLYLINE
  5
8C
330
70
100
AcDbEntity
  8
0
 62
    18
420
        0
370
    25
100
AcDbPolyline
 90
       34
 70
     0
 43
0.0
 10
136.8055242639323
 20
-29.00514077604668
 10
137.2772122038321
 20
-29.26821885734675
 10
138.2140104007325
 20
-29.74086328914662
 10
139.2014898651315
 20
-30.17676721734678
 10
140.2353661873323
 20
-30.5741313620467
 10
141.3112458053324
 20
-30.93135395354684
 10
142.4245741153321
 20
-31.24699760024654
 10
143.5706504580316
 20
-31.51979278684643
 10
144.7446444923316
 20
-31.74864197844628
 10
145.9416139045317
 20
-31.93262381864667
 10
147.1565233037317
 20
-32.07099704674683
 10
148.3842640986317
 20
-32.16320386714658
 10
149.619675139232
 20
-32.20887259014635
 10
150.8575639117324
 20
-32.20781942204628
 10
152.0927277786322
 20
-32.1600493493465
 10
153.3199633317319
 20
-32.06575727884678
 10
154.5341141790325
 20
-31.92532589124664
 10
155.7300792688322
 20
-31.73932328904632
 10
156.902833904932
 20
-31.50849990584631
 10
158.0474501434315
 20
-31.23378448344628
 10
159.1591163343317
 20
-30.91627920064668
 10
160.233155561032
 20
-30.55725409404649
 10
161.2650427127324
 20
-30.15814099954637
 10
162.2504199227327
 20
-29.72052736654634
 10
163.1851101477318
 20
-29.24615047834674
 10
164.0651287825323
 20
-28.73689284384624
 10
164.8866934709317
 20
-28.1947797967468
 10
165.6462272588326
 20
-27.62198504364637
 10
166.340343383432
 20
-27.02086253614632
 10
166.9659205558317
 20
-26.3939138918464
 10
167.5200969018322
 20
-25.74382058234654
 10
168.000305444432
 20
-25.07345594324627
 10
168.4043239717325
 20
-24.38588506154643
 10
168.5831172571322
 20
-24.00113771774647
  0
LINE
  5
8D
330
70
100
AcDbEntity
  8
0
 62
    18
420
        0
370
    25
100
AcDbLine
 10
171.191876017232
 20
-1.329260240546272
 30
0.0
 11
165.4612228092324
 21
-4.637495919746354
 31
0.0
  0
LINE
  5
8E
330
70
100
AcDbEntity
  8
0
 62
    18
420
        0
370
    25
100
AcDbLine
 10
168.8669335300316
 20
-11.90877505844627
 30
0.0
 11
175.1915509478316
 21
-8.257651139546243
 31
0.0
  0
SPLINE
  5
8F
330
70
100
AcDbEntity
  8
0
 62
    18
420
        0
370
    25
100
AcDbSpline
210
0.0
220
0.0
230
1.0
 70
     8
 71
     3
 72
     8
 73
     4
 74
     0
 42
0.0000000001
 43
0.0000000001
 40
0.0
 40
0.0
 40
0.0
 40
0.0
 40
1.0
 40
1.0
 40
1.0
 40
1.0
 10
182.567485758665
 20
0.2226575412605969
 30
0.0
 10
182.5561346242408
 20
0.4721025999930756
 30
0.0
 10
182.4242825589283
 20
0.7004770755513356
 30
0.0
 10
182.2139323680992
 20
0.8350299751752945
 30
0.0
  0
SPLINE
  5
90
330
70
100
AcDbEntity
  8
0
 62
    18
420
        0
370
    25
100
AcDbSpline
210
0.0
220
0.0
230
1.0
 70
     8
 71
     3
 72
     8
 73
     4
 74
     0
 42
0.0000000001
 43
0.0000000001
 40
0.0
 40
0.0
 40
0.0
 40
0.0
 40
1.0
 40
1.0
 40
1.0
 40
1.0
 10
181.8608327951731
 20
0.2401112448833665
 30
0.0
 10
182.0808450048572
 20
0.1246889415406796
 30
0.0
 10
182.3420436390011
 20
0.1182375661378442
 30
0.0
 10
182.5674857586573
 20
0.2226575412605969
 30
0.0
  0
SPLINE
  5
91
330
70
100
AcDbEntity
  8
0
 62
    18
420
        0
370
    25
100
AcDbSpline
210
0.0
220
0.0
230
1.0
 70
     8
 71
     3
 72
     8
 73
     4
 74
     0
 42
0.0000000001
 43
0.0000000001
 40
0.0
 40
0.0
 40
0.0
 40
0.0
 40
1.0
 40
1.0
 40
1.0
 40
1.0
 10
182.2139323681185
 20
0.8350299752234219
 30
0.0
 10
182.0091330404397
 20
0.7033753505016819
 30
0.0
 10
181.8783046524463
 20
0.4829495430500357
 30
0.0
 10
181.8608327952001
 20
0.2401112449321356
 30
0.0
  0
LWPOLYLINE
  5
92
330
70
100
AcDbEntity
  8
0
 62
    18
420
        0
370
    25
100
AcDbPolyline
 90
        4
 70
     0
 43
0.0
 10
182.5674857586316
 20
0.2226575412535382
 10
182.565777010632
 20
-6.272344743346375
 10
182.5657626784315
 20
-12.76636850714641
 10
182.5674857588318
 20
-19.37432194384651
  0
SPLINE
  5
93
330
70
100
AcDbEntity
  8
0
 62
    18
420
        0
370
    25
100
AcDbSpline
210
0.0
220
0.0
230
1.0
 70
     8
 71
     3
 72
     8
 73
     4
 74
     0
 42
0.0000000001
 43
0.0000000001
 40
0.0
 40
0.0
 40
0.0
 40
0.0
 40
1.0
 40
1.0
 40
1.0
 40
1.0
 10
181.8757204401904
 20
-19.38296503500891
 30
0.0
 10
182.0947954775888
 20
-19.48921851231619
 30
0.0
 10
182.3511338100941
 20
-19.48601575626095
 30
0.0
 10
182.5674857588511
 20
-19.37432194389721
 30
0.0
  0
LWPOLYLINE
  5
94
330
70
100
AcDbEntity
  8
0
 62
    18
420
        0
370
    25
100
AcDbPolyline
 90
        7
 70
     0
 43
0.0
 10
181.8757204401327
 20
-19.38296503494667
 10
181.8757480936317
 20
-18.56673239404638
 10
181.8758583538322
 20
-15.30166544074686
 10
181.8759645130318
 20
-8.770236899746826
 10
181.8759262988324
 20
-6.281766356346581
 10
181.8757204319317
 20
0.2143251015532547
 10
181.8757201485318
 20
0.2229152605532999
  0
SPLINE
  5
95
330
70
100
AcDbEntity
  8
0
 62
    18
420
        0
370
    25
100
AcDbSpline
210
0.0
220
0.0
230
1.0
 70
     8
 71
     3
 72
     8
 73
     4
 74
     0
 42
0.0000000001
 43
0.0000000001
 40
0.0
 40
0.0
 40
0.0
 40
0.0
 40
1.0
 40
1.0
 40
1.0
 40
1.0
 10
181.8757201484984
 20
0.2229152605192899
 30
0.0
 10
182.093059669337
 20
0.1124605573256034
 30
0.0
 10
182.3500639977289
 20
0.1123648096346006
 30
0.0
 10
182.5674857586509
 20
0.2226575412811313
 30
0.0
  0
LWPOLYLINE
  5
96
330
70
100
AcDbEntity
  8
0
 62
    18
420
        0
370
    25
100
AcDbPolyline
 90
        4
 70
     0
 43
0.0
 10
181.8605190015322
 20
0.2313197243535582
 10
181.8605199768326
 20
0.2313470635535467
 10
181.8606763400316
 20
0.23572913015378
 10
181.8608327951321
 20
0.2401112449533117
  0
SPLINE
  5
97
330
70
100
AcDbEntity
  8
0
 62
    18
420
        0
370
    25
100
AcDbSpline
210
0.0
220
0.0
230
1.0
 70
     8
 71
     3
 72
     8
 73
     4
 74
     0
 42
0.0000000001
 43
0.0000000001
 40
0.0
 40
0.0
 40
0.0
 40
0.0
 40
1.0
 40
1.0
 40
1.0
 40
1.0
 10
181.8605190015296
 20
0.2313197243779428
 30
0.0
 10
181.8655352911349
 20
0.2284273943302745
 30
0.0
 10
181.870603158485
 20
0.2256254539316539
 30
0.0
 10
181.8757201484663
 20
0.2229152605731926
 30
0.0
  0
LWPOLYLINE
  5
98
330
70
100
AcDbEntity
  8
0
 62
    18
420
        0
370
    25
100
AcDbPolyline
 90
        5
 70
     0
 43
0.0
 10
181.8602066352315
 20
-19.37474587554634
 10
181.8602287285315
 20
-19.37475758174685
 10
181.8679744090315
 20
-19.37886141764639
 10
181.8718473808323
 20
-19.38091325364638
 10
181.8757204401327
 20
-19.38296503494667
  0
LWPOLYLINE
  5
99
330
70
100
AcDbEntity
  8
0
 62
    18
420
        0
370
    25
100
AcDbPolyline
 90
        6
 70
     0
 43
0.0
 10
175.1755042778319
 20
-8.217696099546328
 10
175.7456779877325
 20
-9.189875632846563
 10
176.5984817961326
 20
-10.63293521884663
 10
177.4774738431315
 20
-12.1118718360468
 10
178.3604433946316
 20
-13.58948511274681
 10
181.8602066352315
 20
-19.37474587554634
  0
LWPOLYLINE
  5
9A
330
70
100
AcDbEntity
  8
0
 62
    18
420
        0
370
    25
100
AcDbPolyline
 90
        8
 70
     0
 43
0.0
 10
175.7064521545321
 20
-3.331050533046281
 10
176.5233402297324
 20
-3.345308801446287
 10
177.2956492296319
 20
-3.177580064246632
 10
178.3687303435317
 20
-2.711573563346416
 10
179.3542942250326
 20
-2.080120436846264
 10
180.2973235861316
 20
-1.326664550846565
 10
181.1883247185322
 20
-0.4924129947467585
 10
181.8757201485318
 20
0.2229152605532999
  0
LWPOLYLINE
  5
9B
330
70
100
AcDbEntity
  8
0
 62
    18
420
        0
370
    25
100
AcDbPolyline
 90
        5
 70
     0
 43
0.0
 10
181.8608327951321
 20
0.2401112449533117
 10
181.1534728381321
 20
0.6484931464536499
 10
178.3241494173323
 20
2.281954617153316
 10
175.8486700457317
 20
3.711108169153227
 10
173.3735303494323
 20
5.140011836153529
  0
SPLINE
  5
9C
330
70
100
AcDbEntity
  8
0
 62
    18
420
        0
370
    25
100
AcDbSpline
210
0.0
220
0.0
230
1.0
 70
     8
 71
     3
 72
     8
 73
     4
 74
     0
 42
0.0000000001
 43
0.0000000001
 40
0.0
 40
0.0
 40
0.0
 40
0.0
 40
1.0
 40
1.0
 40
1.0
 40
1.0
 10
173.7266672825244
 20
5.73233347393069
 30
0.0
 10
173.5225897983065
 20
5.601187864170077
 30
0.0
 10
173.391853738619
 20
5.381902397987051
 30
0.0
 10
173.3735303494349
 20
5.140011836093852
 30
0.0
  0
LWPOLYLINE
  5
9D
330
70
100
AcDbEntity
  8
0
 62
    18
420
        0
370
    25
100
AcDbPolyline
 90
        4
 70
     0
 43
0.0
 10
173.7266672825321
 20
5.73233347395315
 10
177.7538721440319
 20
3.408089642153746
 10
179.9838278102319
 20
2.121516803253591
 10
182.2139323681326
 20
0.8350299752535818
  0
SPLINE
  5
9E
330
70
100
AcDbEntity
  8
0
 62
    18
420
        0
370
    25
100
AcDbSpline
210
0.0
220
0.0
230
1.0
 70
     8
 71
     3
 72
     8
 73
     4
 74
     0
 42
0.0000000001
 43
0.0000000001
 40
0.0
 40
0.0
 40
0.0
 40
0.0
 40
1.0
 40
1.0
 40
1.0
 40
1.0
 10
184.1518685909155
 20
1.137302281584503
 30
0.0
 10
184.1405174564541
 20
1.38674734030864
 30
0.0
 10
184.0086653911377
 20
1.615121815849574
 30
0.0
 10
183.7983152003228
 20
1.749674715482517
 30
0.0
  0
LINE
  5
9F
330
70
100
AcDbEntity
  8
0
 62
    18
420
        0
370
    25
100
AcDbLine
 10
184.1518685909322
 20
1.137302281553702
 30
0.0
 11
182.5674857586316
 21
0.2226575412535382
 31
0.0
  0
LINE
  5
A0
330
70
100
AcDbEntity
  8
0
 62
    18
420
        0
370
    25
100
AcDbLine
 10
182.2139323681326
 20
0.8350299752535818
 30
0.0
 11
183.7983152003318
 21
1.74967471545364
 31
0.0
  0
LWPOLYLINE
  5
A1
330
70
100
AcDbEntity
  8
0
 62
    18
420
        0
370
    25
100
AcDbPolyline
 90
        3
 70
     0
 43
0.0
 10
170.690501359032
 20
-0.4354037743468481
 10
171.2823216453318
 20
-0.9810356811466858
 10
171.5304620231326
 20
-1.176201497446461
  0
LWPOLYLINE
  5
A2
330
70
100
AcDbEntity
  8
0
 62
    18
420
        0
370
    25
100
AcDbPolyline
 90
        8
 70
     0
 43
0.0
 10
164.880002863332
 20
10.02549573805314
 10
166.0450592254315
 20
7.356034994853557
 10
167.3277052108316
 20
4.699918307553274
 10
168.3615290872318
 20
2.804865220753278
 10
168.9273694565324
 20
1.872580296953272
 10
169.5310276734319
 20
0.9726653697532404
 10
170.0862609648321
 20
0.2418726858533299
 10
170.6905015221327
 20
-0.4354035943464173
  0
SPLINE
  5
A3
330
70
100
AcDbEntity
  8
0
 62
    18
420
        0
370
    25
100
AcDbSpline
210
0.0
220
0.0
230
1.0
 70
     8
 71
     3
 72
     8
 73
     4
 74
     0
 42
0.0000000001
 43
0.0000000001
 40
0.0
 40
0.0
 40
0.0
 40
0.0
 40
1.0
 40
1.0
 40
1.0
 40
1.0
 10
164.8769600032407
 20
10.03609061310683
 30
0.0
 10
164.8775033135208
 20
10.03244040273318
 30
0.0
 10
164.8785264509592
 20
10.02887796048511
 30
0.0
 10
164.8800028633166
 20
10.02549573808266
 30
0.0
  0
LWPOLYLINE
  5
A4
330
70
100
AcDbEntity
  8
0
 62
    18
420
        0
370
    25
100
AcDbPolyline
 90
        3
 70
     0
 43
0.0
 10
174.8106776096321
 20
-3.078255819546777
 10
175.0767786617318
 20
-3.179900824246254
 10
175.7064521385319
 20
-3.331050155546286
  0
LWPOLYLINE
  5
A5
330
70
100
AcDbEntity
  8
0
 62
    18
420
        0
370
    25
100
AcDbPolyline
 90
        3
 70
     0
 43
0.0
 10
173.3730643330323
 20
5.128659206653386
 10
173.373325237932
 20
5.135016645653162
 10
173.3735303494323
 20
5.140011836153529
  0
LWPOLYLINE
  5
A6
330
70
100
AcDbEntity
  8
0
 62
    18
420
        0
370
    25
100
AcDbPolyline
 90
        5
 70
     0
 43
0.0
 10
181.8605190015322
 20
0.2313197243535582
 10
179.6574304526316
 20
1.502193697153306
 10
177.4470547410325
 20
2.777441826153404
 10
175.4099285737323
 20
3.952974016353157
 10
173.3730643330323
 20
5.128659206653386
  0
LINE
  5
A7
330
70
100
AcDbEntity
  8
0
 62
    18
420
        0
370
    25
100
AcDbLine
 10
184.1518685909322
 20
-18.45967720364646
 30
0.0
 11
184.1518685909322
 21
1.137302281553702
 31
0.0
  0
LINE
  5
A8
330
70
100
AcDbEntity
  8
0
 62
    18
420
        0
370
    25
100
AcDbLine
 10
182.5674857588318
 20
-19.37432194384651
 30
0.0
 11
184.1518685909322
 21
-18.45967720364646
 31
0.0
  0
LINE
  5
A9
330
70
100
AcDbEntity
  8
0
 62
    18
420
        0
370
    25
100
AcDbLine
 10
183.7983152003318
 20
1.74967471545364
 30
0.0
 11
166.8277524518315
 21
11.54657205735363
 31
0.0
  0
LWPOLYLINE
  5
AA
330
70
100
AcDbEntity
  8
0
 62
    18
420
        0
370
    25
100
AcDbPolyline
 90
        4
 70
     0
 43
0.0
 10
165.2433696196324
 20
10.63192731705347
 10
169.2686877749321
 20
8.306610184353573
 10
171.4975280976327
 20
7.019385590553691
 10
173.7266672825321
 20
5.73233347395315
  0
LINE
  5
AB
330
70
100
AcDbEntity
  8
0
 62
    18
420
        0
370
    25
100
AcDbLine
 10
166.8277524518315
 20
11.54657205735363
 30
0.0
 11
165.2433696196324
 21
10.63192731705347
 31
0.0
  0
LWPOLYLINE
  5
AC
330
70
100
AcDbEntity
  8
0
 62
    18
420
        0
370
    25
100
AcDbPolyline
 90
        6
 70
     0
 43
0.0
 10
173.3735303494323
 20
5.140011836153529
 10
172.6664404032314
 20
5.548203049253323
 10
169.8383896701325
 20
7.1807354711536
 10
167.3641011618318
 20
8.609008852253596
 10
164.8900010277327
 20
10.03716388815327
 10
164.882567685232
 20
10.04145473685324
  0
SPLINE
  5
AD
330
70
100
AcDbEntity
  8
0
 62
    18
420
        0
370
    25
100
AcDbSpline
210
0.0
220
0.0
230
1.0
 70
     8
 71
     3
 72
     8
 73
     4
 74
     0
 42
0.0000000001
 43
0.0000000001
 40
0.0
 40
0.0
 40
0.0
 40
0.0
 40
1.0
 40
1.0
 40
1.0
 40
1.0
 10
165.2433696196247
 20
10.6319273170432
 30
0.0
 10
165.0340008320319
 20
10.50572435520251
 30
0.0
 10
164.8993388200151
 20
10.28534242783576
 30
0.0
 10
164.8825676852512
 20
10.04145473680896
 30
0.0
  0
LWPOLYLINE
  5
AE
330
70
100
AcDbEntity
  8
0
 62
    18
420
        0
370
    25
100
AcDbPolyline
 90
        3
 70
     0
 43
0.0
 10
164.882567685232
 20
10.04145473685324
 10
164.8833253054318
 20
10.03447142785322
 10
164.8841098770323
 20
10.03159462735353
  0
LWPOLYLINE
  5
AF
330
70
100
AcDbEntity
  8
0
 62
    18
420
        0
370
    25
100
AcDbPolyline
 90
        5
 70
     0
 43
0.0
 10
173.3730643330323
 20
5.128659206653386
 10
171.1635287618322
 20
6.404397955253484
 10
168.9542956489316
 20
7.680313235553226
 10
166.919143173332
 20
8.855919159553522
 10
164.8841098770323
 20
10.03159462735353
  0
LWPOLYLINE
  5
B0
330
70
100
AcDbEntity
  8
0
 62
    18
420
        0
370
    25
100
AcDbPolyline
 90
        3
 70
     0
 43
0.0
 10
164.880002863332
 20
10.02549573805314
 10
164.8786705471326
 20
10.02633249595318
 10
164.8751133835316
 20
10.02856664005367
  0
SPLINE
  5
B1
330
70
100
AcDbEntity
  8
0
 62
    18
420
        0
370
    25
100
AcDbSpline
210
0.0
220
0.0
230
1.0
 70
     8
 71
     3
 72
     8
 73
     4
 74
     0
 42
0.0000000001
 43
0.0000000001
 40
0.0
 40
0.0
 40
0.0
 40
0.0
 40
1.0
 40
1.0
 40
1.0
 40
1.0
 10
181.868271547198
 20
-19.39585000843594
 30
0.0
 10
181.8672586776372
 20
-19.38828443499853
 30
0.0
 10
181.8644974128632
 20
-19.38105880146298
 30
0.0
 10
181.8602066351942
 20
-19.37474587558164
 30
0.0
  0
SPLINE
  5
B2
330
70
100
AcDbEntity
  8
0
 62
    18
420
        0
370
    25
100
AcDbSpline
210
0.0
220
0.0
230
1.0
 70
     8
 71
     3
 72
     8
 73
     4
 74
     0
 42
0.0000000001
 43
0.0000000001
 40
0.0
 40
0.0
 40
0.0
 40
0.0
 40
1.0
 40
1.0
 40
1.0
 40
1.0
 10
165.2433696196298
 20
10.63192731711635
 30
0.0
 10
165.0264890573758
 20
10.50601676710738
 30
0.0
 10
164.887942438483
 20
10.27901835247083
 30
0.0
 10
164.8751133835265
 20
10.02856664008704
 30
0.0
  0
LINE
  5
B3
330
70
100
AcDbEntity
  8
0
 62
    18
420
        0
370
    25
100
AcDbLine
 10
164.8841098770323
 20
10.03159462735353
 30
0.0
 11
164.8769600032317
 21
10.03609061305357
 31
0.0
  0
SPLINE
  5
B4
330
70
100
AcDbEntity
  8
0
 62
    18
420
        0
370
    25
100
AcDbSpline
210
0.0
220
0.0
230
1.0
 70
     8
 71
     3
 72
     8
 73
     4
 74
     0
 42
0.0000000001
 43
0.0000000001
 40
0.0
 40
0.0
 40
0.0
 40
0.0
 40
1.0
 40
1.0
 40
1.0
 40
1.0
 10
181.8757204402084
 20
-19.38296503496784
 30
0.0
 10
181.8646481074353
 20
-19.47277116982494
 30
0.0
 10
181.9048121968833
 20
-19.5612121942107
 30
0.0
 10
181.9797201979586
 20
-19.61197172322595
 30
0.0
  0
LWPOLYLINE
  5
B5
330
70
100
AcDbEntity
  8
0
 62
    18
420
        0
370
    25
100
AcDbPolyline
 90
        4
 70
     0
 43
0.0
 10
181.9777620559323
 20
-19.60455965544647
 10
181.9531689971317
 20
-19.59566751244661
 10
181.8926149926315
 20
-19.51520104044644
 10
181.8682715472326
 20
-19.39585000844685
  0
SPLINE
  5
B6
330
70
100
AcDbEntity
  8
0
 62
    18
420
        0
370
    25
100
AcDbSpline
210
0.0
220
0.0
230
1.0
 70
     8
 71
     3
 72
     8
 73
     4
 74
     0
 42
0.0000000001
 43
0.0000000001
 40
0.0
 40
0.0
 40
0.0
 40
0.0
 40
1.0
 40
1.0
 40
1.0
 40
1.0
 10
184.0482948835314
 20
-18.68859960687324
 30
0.0
 10
184.1232403186231
 20
-18.6379409570269
 30
0.0
 10
184.1632937535427
 20
-18.54941338756377
 30
0.0
 10
184.1518685909655
 20
-18.45967720363876
 30
0.0
  0
SPLINE
  5
B7
330
70
100
AcDbEntity
  8
0
 62
    18
420
        0
370
    25
100
AcDbSpline
210
0.0
220
0.0
230
1.0
 70
     8
 71
     3
 72
     8
 73
     4
 74
     0
 42
0.0000000001
 43
0.0000000001
 40
0.0
 40
0.0
 40
0.0
 40
0.0
 40
1.0
 40
1.0
 40
1.0
 40
1.0
 10
166.8277524518572
 20
11.54657205741267
 30
0.0
 10
166.7548088242861
 20
11.5988284209772
 30
0.0
 10
166.6595485354254
 20
11.6082614899602
 30
0.0
 10
166.5777727686987
 20
11.57132608266014
 30
0.0
  0
LWPOLYLINE
  5
B8
330
70
100
AcDbEntity
  8
0
 62
    18
420
        0
370
    25
100
AcDbPolyline
 90
       91
 70
     0
 43
0.0
 10
163.2331348970326
 20
-3.193553430346837
 10
164.109809137032
 20
-3.736272013346386
 10
164.918768524332
 20
-4.312971842846525
 10
165.6560718902325
 20
-4.920843295246784
 10
166.3181271667323
 20
-5.556924881846263
 10
166.9017088872321
 20
-6.218117677146851
 10
167.4039739001323
 20
-6.901200416246427
 10
167.8224752207324
 20
-7.602845188746486
 10
168.1551739528318
 20
-8.319633651846277
 10
168.4004492214319
 20
-9.048073684246322
 10
168.5571060703327
 20
-9.784616399346267
 10
168.6243812829319
 20
-10.52567343494639
 10
168.6019471011318
 20
-11.26763443574627
 10
168.4899128222315
 20
-12.00688464234628
 10
168.2888242657315
 20
-12.73982250194678
 10
167.9996611149321
 20
-13.46287721514638
 10
167.6238321437317
 20
-14.17252613194665
 10
167.1631683530322
 20
-14.86531191414688
 10
166.6199140505324
 20
-15.53785937904682
 10
165.9967159166321
 20
-16.18689194304681
 10
165.2966101098321
 20
-16.80924758484632
 10
164.5230074754322
 20
-17.40189425004671
 10
163.6796769275324
 20
-17.96194462394675
 10
162.7707270880323
 20
-18.48667019724673
 10
161.8005862689319
 20
-18.9735145597463
 10
160.7739808989324
 20
-19.42010585454659
 10
159.6959124961324
 20
-19.82426833394685
 10
158.5716333014316
 20
-20.18403295894634
 10
157.4066206901326
 20
-20.49764699234666
 10
156.2065504865315
 20
-20.7635825380468
 10
154.9772693119314
 20
-20.98054398494646
 10
153.7247661007316
 20
-21.14747431874652
 10
152.4551429227321
 20
-21.26356027144661
 10
151.1745852543317
 20
-21.3282362839463
 10
149.8893318438315
 20
-21.34118726144627
 10
148.6056443166319
 20
-21.30235010784637
 10
147.3297766693317
 20
-21.21191403404665
 10
146.0679448008318
 20
-21.07031963534653
 10
144.8262962292323
 20
-20.87825674544661
 10
143.6108801414317
 20
-20.63666107554678
 10
142.4276179226315
 20
-20.3467096554467
 10
141.2822743072323
 20
-20.00981509924682
 10
140.1804292942315
 20
-19.62761872334633
 10
139.1274509619316
 20
-19.20198255014664
 10
138.1284693147318
 20
-18.73498023624628
 10
137.1883512909324
 20
-18.22888697004643
 10
136.3116770509317
 20
-17.68616838694678
 10
135.5027176636317
 20
-17.10946855744664
 10
134.7654142977324
 20
-16.50159710514649
 10
134.1033590212326
 20
-15.86551551854636
 10
133.5197773007316
 20
-15.20432272324642
 10
133.0175122878326
 20
-14.52123998414684
 10
132.5990109672325
 20
-13.81959521154668
 10
132.2663122351318
 20
-13.10280674844624
 10
132.0210369665317
 20
-12.37436671604684
 10
131.8643801176322
 20
-11.63782400104636
 10
131.7971049050317
 20
-10.89676696544624
 10
131.8195390867317
 20
-10.15480596464635
 10
131.9315733657321
 20
-9.41555575804635
 10
132.1326619222322
 20
-8.682617898346387
 10
132.4218250729327
 20
-7.959563185246884
 10
132.7976540441318
 20
-7.24991426844662
 10
133.2583178348326
 20
-6.557128486246393
 10
133.8015721374325
 20
-5.884581021246344
 10
134.4247702713316
 20
-5.235548457246353
 10
135.1248760781315
 20
-4.613192815546307
 10
135.8984787125315
 20
-4.020546150246453
 10
136.7418092603325
 20
-3.46049577644652
 10
137.6507590999326
 20
-2.935770203146542
 10
138.6208999190317
 20
-2.44892584064633
 10
139.6475052890326
 20
-2.002334545746571
 10
140.7255736918326
 20
-1.598172066346319
 10
141.8498528865321
 20
-1.23840744144629
 10
143.0148654978323
 20
-0.9247934080466118
 10
144.2149357014322
 20
-0.6588578622463654
 10
145.4442168760322
 20
-0.4418964153467128
 10
146.6967200872321
 20
-0.2749660816467451
 10
147.9663432652315
 20
-0.158880128946657
 10
149.2469009336319
 20
-0.0942041163468678
 10
150.5321543441321
 20
-0.0812531389463541
 10
151.8158418713317
 20
-0.1200902924467915
 10
153.0917095186319
 20
-0.210526366346618
 10
154.3535413871318
 20
-0.3521207650467445
 10
155.5951899587326
 20
-0.5441836548465587
 10
156.8106060465319
 20
-0.7857793247463896
 10
157.9938682653321
 20
-1.075730744946576
 10
159.1392118807326
 20
-1.412625301146449
 10
160.2410568936321
 20
-1.79482167694684
 10
161.294035226032
 20
-2.220457850146523
 10
162.2930168732318
 20
-2.68746016404624
 10
163.2331348970326
 20
-3.193553430346837
  0
SPLINE
  5
B9
330
70
100
AcDbEntity
  8
0
 62
    18
420
        0
370
    25
100
AcDbSpline
210
0.0
220
0.0
230
1.0
 70
     8
 71
     3
 72
     8
 73
     4
 74
     0
 42
0.0000000001
 43
0.0000000001
 40
0.0
 40
0.0
 40
0.0
 40
0.0
 40
1.0
 40
1.0
 40
1.0
 40
1.0
 10
168.1514519009023
 20
-13.89264534752354
 30
0.0
 10
169.0770875505382
 20
-12.08976222455116
 30
0.0
 10
169.1101930337565
 20
-9.958610636097859
 30
0.0
 10
168.2410027574462
 20
-8.127846540278023
 30
0.0
  0
SPLINE
  5
BA
330
70
100
AcDbEntity
  8
0
 62
    18
420
        0
370
    25
100
AcDbSpline
210
0.0
220
0.0
230
1.0
 70
     8
 71
     3
 72
     8
 73
     4
 74
     0
 42
0.0000000001
 43
0.0000000001
 40
0.0
 40
0.0
 40
0.0
 40
0.0
 40
1.0
 40
1.0
 40
1.0
 40
1.0
 10
132.1814706080183
 20
-8.125720797160994
 30
0.0
 10
131.3143388905116
 20
-9.949169536744202
 30
0.0
 10
131.3431267335368
 20
-12.07190693079301
 30
0.0
 10
132.2593884358184
 20
-13.87116989498875
 30
0.0
  0
SPLINE
  5
BB
330
70
100
AcDbEntity
  8
0
 62
    18
420
        0
370
    25
100
AcDbSpline
210
0.0
220
0.0
230
1.0
 70
     8
 71
     3
 72
     8
 73
     4
 74
     0
 42
0.0000000001
 43
0.0000000001
 40
0.0
 40
0.0
 40
0.0
 40
0.0
 40
1.0
 40
1.0
 40
1.0
 40
1.0
 10
168.1124152974512
 20
-17.56341494534108
 30
0.0
 10
168.5698622161913
 20
-16.66188675744055
 30
0.0
 10
168.8177435782094
 20
-15.66866741570275
 30
0.0
 10
168.8375512310477
 20
-14.65791600515068
 30
0.0
  0
SPLINE
  5
BC
330
70
100
AcDbEntity
  8
0
 62
    18
420
        0
370
    25
100
AcDbSpline
210
0.0
220
0.0
230
1.0
 70
     8
 71
     3
 72
     8
 73
     4
 74
     0
 42
0.0000000001
 43
0.0000000001
 40
0.0
 40
0.0
 40
0.0
 40
0.0
 40
1.0
 40
1.0
 40
1.0
 40
1.0
 10
131.5839349568184
 20
-14.65791600523282
 30
0.0
 10
131.6001334016918
 20
-15.66415008652604
 30
0.0
 10
131.845906566014
 20
-16.65339714176404
 30
0.0
 10
132.3025111595918
 20
-17.55021466004593
 30
0.0
  0
LWPOLYLINE
  5
BD
330
70
100
AcDbEntity
  8
0
 62
    18
420
        0
370
    25
100
AcDbPolyline
 90
       81
 70
     0
 43
0.0
 10
160.6540993421325
 20
-4.68239896514666
 10
161.4412822477326
 20
-5.173999671446597
 10
162.1592251448322
 20
-5.699739183546763
 10
162.8035016769322
 20
-6.256376142646336
 10
163.3701396647325
 20
-6.840478696746871
 10
163.8556455968325
 20
-7.448445659346602
 10
164.2570261675317
 20
-8.076528711946782
 10
164.5718067323326
 20
-8.720855513746565
 10
164.7980465641315
 20
-9.377453575646365
 10
164.9343508193322
 20
-10.04227475234664
 10
164.9798791368323
 20
-10.71122020014626
 10
164.9343508193322
 20
-11.38016564804663
 10
164.7980465641315
 20
-12.0449868246468
 10
164.5718067323326
 20
-12.70158488664671
 10
164.2570261675317
 20
-13.34591168844649
 10
163.8556455968325
 20
-13.97399474104667
 10
163.3701396647325
 20
-14.5819617036464
 10
162.8035016769322
 20
-15.16606425774629
 10
162.1592251448322
 20
-15.7227012167464
 10
161.4412822477326
 20
-16.24844072894667
 10
160.6540993421325
 20
-16.7400414351465
 10
159.8025296725315
 20
-17.19447245374659
 10
158.8918234490323
 20
-17.60893206624654
 10
157.9275954784327
 20
-17.98086499134672
 10
156.915790546832
 20
-18.30797813894643
 10
155.8626467679318
 20
-18.58825474764654
 10
154.774657123432
 20
-18.81996681904669
 10
153.6585294313325
 20
-19.00168577104666
 10
152.5211449899321
 20
-19.13229124594664
 10
151.3695161525317
 20
-19.21097801754683
 10
150.2107430939318
 20
-19.23726095584648
 10
149.0519700353318
 20
-19.21097801754683
 10
147.9003411980315
 20
-19.13229124594664
 10
146.7629567566324
 20
-19.00168577104666
 10
145.6468290645316
 20
-18.81996681904669
 10
144.5588394200318
 20
-18.58825474764654
 10
143.5056956411317
 20
-18.30797813894643
 10
142.4938907095323
 20
-17.98086499134672
 10
141.5296627389326
 20
-17.60893206624654
 10
140.6189565154322
 20
-17.19447245374659
 10
139.7673868458324
 20
-16.7400414351465
 10
138.9802039402323
 20
-16.24844072894667
 10
138.2622610431314
 20
-15.7227012167464
 10
137.6179845110327
 20
-15.16606425774629
 10
137.0513465232324
 20
-14.5819617036464
 10
136.5658405911324
 20
-13.97399474104667
 10
136.164460020432
 20
-13.34591168844649
 10
135.8496794556323
 20
-12.70158488664671
 10
135.6234396238321
 20
-12.0449868246468
 10
135.4871353686327
 20
-11.38016564804663
 10
135.4416070511327
 20
-10.71122020014626
 10
135.4871353686327
 20
-10.04227475234664
 10
135.6234396238321
 20
-9.377453575646365
 10
135.8496794556323
 20
-8.720855513746565
 10
136.164460020432
 20
-8.076528711946782
 10
136.5658405911324
 20
-7.448445659346602
 10
137.0513465232324
 20
-6.840478696746871
 10
137.6179845110327
 20
-6.256376142646336
 10
138.2622610431314
 20
-5.699739183546763
 10
138.9802039402323
 20
-5.173999671446597
 10
139.7673868458324
 20
-4.68239896514666
 10
140.6189565154322
 20
-4.227967946646683
 10
141.5296627389326
 20
-3.813508334146728
 10
142.4938907095323
 20
-3.44157540894645
 10
143.5056956411317
 20
-3.114462261346734
 10
144.5588394200318
 20
-2.834185652646622
 10
145.6468290645316
 20
-2.60247358134658
 10
146.7629567566324
 20
-2.420754629246508
 10
147.9003411980315
 20
-2.290149154346524
 10
149.0519700353318
 20
-2.211462382746333
 10
150.2107430939318
 20
-2.185179444546796
 10
151.3695161525317
 20
-2.211462382746333
 10
152.5211449899321
 20
-2.290149154346524
 10
153.6585294313325
 20
-2.420754629246508
 10
154.774657123432
 20
-2.60247358134658
 10
155.8626467679318
 20
-2.834185652646622
 10
156.915790546832
 20
-3.114462261346734
 10
157.9275954784327
 20
-3.44157540894645
 10
158.8918234490323
 20
-3.813508334146728
 10
159.8025296725315
 20
-4.227967946646683
 10
160.6540993421325
 20
-4.68239896514666
  0
LWPOLYLINE
  5
BE
330
70
100
AcDbEntity
  8
0
 62
    18
420
        0
370
    25
100
AcDbPolyline
 90
       42
 70
     0
 43
0.0
 10
160.2742140831314
 20
-5.309704784446473
 10
159.4428573809323
 20
-4.866502420046325
 10
158.5531322796322
 20
-4.462831767846662
 10
157.6106639079324
 20
-4.101244963846463
 10
156.6214108542316
 20
-3.78402807604665
 10
155.5916274950325
 20
-3.513186651746251
 10
154.527824452032
 20
-3.290433037746494
 10
153.436727430832
 20
-3.117175554146849
 10
152.3252346979315
 20
-2.994509590346689
 10
151.2003734682322
 20
-2.923210680246364
 10
150.0692554767323
 20
-2.903729598446672
 10
148.9390320155325
 20
-2.936189510646303
 10
147.8168487212318
 20
-3.020385194746269
 10
146.7098003978316
 20
-3.155784338546315
 10
145.6248861614316
 20
-3.341530905246548
 10
144.5689651891318
 20
-3.576450544946769
 10
143.5487133531315
 20
-3.859058020246592
 10
142.5705810141321
 20
-4.187566595646737
 10
141.6407522397324
 20
-4.559899334246737
 10
140.7651057068322
 20
-4.97370222844671
 10
139.9491775346315
 20
-5.426359083146551
 10
139.198126283832
 20
-5.915008056046251
 10
138.5167003423327
 20
-6.436559750946459
 10
137.9092079042319
 20
-6.987716750146398
 10
137.3794897322315
 20
-7.564994461646544
 10
136.9308948753321
 20
-8.164743149846469
 10
136.566259494632
 20
-8.783171010446798
 10
136.2878889323321
 20
-9.416368143346733
 10
136.097543136732
 20
-10.06033127254663
 10
135.9964255354322
 20
-10.71098905574635
 10
135.9851754262314
 20
-11.3642278248464
 10
136.063863936032
 20
-12.01591759414667
 10
136.231993570832
 20
-12.66193817094626
 10
136.4885013607324
 20
-13.29820520544627
 10
136.8317655811317
 20
-13.92069601224678
 10
137.2596160050327
 20
-14.52547500434633
 10
137.7693476242317
 20
-15.10871857404671
 10
138.3577377513318
 20
-15.66673926774639
 10
139.0210663945323
 20
-16.1960090989468
 10
139.7551397765317
 20
-16.69318185344658
 10
140.5553168491323
 20
-17.1551142449467
 10
140.7917874796325
 20
-17.27837616194666
  0
LWPOLYLINE
  5
BF
330
70
100
AcDbEntity
  8
0
 62
    18
420
        0
370
    25
100
AcDbPolyline
 90
       22
 70
     0
 43
0.0
 10
159.6296987083324
 20
-17.27837616194666
 10
160.0721410157326
 20
-17.04309863154677
 10
160.8562506464318
 20
-16.5720733238466
 10
161.5730559509325
 20
-16.06657334024659
 10
162.2180250551324
 20
-15.52979461444647
 10
162.7870802567316
 20
-14.96513083434658
 10
163.2766238056326
 20
-14.37615198624633
 10
163.6835606499315
 20
-13.76658178394675
 10
164.0053180036326
 20
-13.14027412654663
 10
164.2398616134319
 20
-12.50118873284633
 10
164.3857086189324
 20
-11.85336610634662
 10
164.4419369284316
 20
-11.20090199024687
 10
164.4081910485316
 20
-10.54792147284631
 10
164.2846843315316
 20
-9.89855290714644
 10
164.0721976265324
 20
-9.2569018103464
 10
163.7720743430322
 20
-8.6270249073466
 10
163.3862119571318
 20
-8.012904482546316
 10
162.9170500148321
 20
-7.418423203146374
 10
162.3675547091317
 20
-6.847339571146819
 10
161.7412001263324
 20
-6.303264161046687
 10
161.0419462817321
 20
-5.789636793046632
 10
160.2742140831314
 20
-5.309704784446473
  0
SPLINE
  5
C0
330
70
100
AcDbEntity
  8
0
 62
    18
420
        0
370
    25
100
AcDbSpline
210
0.0
220
0.0
230
1.0
 70
     8
 71
     3
 72
     8
 73
     4
 74
     0
 42
0.0000000001
 43
0.0000000001
 40
0.0
 40
0.0
 40
0.0
 40
0.0
 40
1.0
 40
1.0
 40
1.0
 40
1.0
 10
168.6807505336078
 20
-17.29016706692334
 30
0.0
 10
169.1791665259571
 20
-15.98351038775596
 30
0.0
 10
169.2396394477807
 20
-14.55030614846779
 30
0.0
 10
168.8530657428882
 20
-13.20630802743882
 30
0.0
  0
SPLINE
  5
C1
330
70
100
AcDbEntity
  8
0
 62
    18
420
        0
370
    25
100
AcDbSpline
210
0.0
220
0.0
230
1.0
 70
     8
 71
     3
 72
     8
 73
     4
 74
     0
 42
0.0000000001
 43
0.0000000001
 40
0.0
 40
0.0
 40
0.0
 40
0.0
 40
1.0
 40
1.0
 40
1.0
 40
1.0
 10
131.5684204451294
 20
-13.20630802752416
 30
0.0
 10
131.1693204746567
 20
-14.59687501402251
 30
0.0
 10
131.2478468507168
 20
-16.08108825350025
 30
0.0
 10
131.7914515025062
 20
-17.42177886394083
 30
0.0
  0
SPLINE
  5
C2
330
70
100
AcDbEntity
  8
0
 62
    18
420
        0
370
    25
100
AcDbSpline
210
0.0
220
0.0
230
1.0
 70
     8
 71
     3
 72
     8
 73
     4
 74
     0
 42
0.0000000001
 43
0.0000000001
 40
0.0
 40
0.0
 40
0.0
 40
0.0
 40
1.0
 40
1.0
 40
1.0
 40
1.0
 10
131.1800348950753
 20
-21.05254997907872
 30
0.0
 10
131.1762592345723
 20
-22.05066323165911
 30
0.0
 10
131.3940065508755
 20
-23.03717872290528
 30
0.0
 10
131.8175768060687
 20
-23.9409666181028
 30
0.0
  0
SPLINE
  5
C3
330
70
100
AcDbEntity
  8
0
 62
    18
420
        0
370
    25
100
AcDbSpline
210
0.0
220
0.0
230
1.0
 70
     8
 71
     3
 72
     8
 73
     4
 74
     0
 42
0.0000000001
 43
0.0000000001
 40
0.0
 40
0.0
 40
0.0
 40
0.0
 40
1.0
 40
1.0
 40
1.0
 40
1.0
 10
168.6072491123102
 20
-23.9336987783113
 30
0.0
 10
169.0306134814968
 20
-23.03254295460147
 30
0.0
 10
169.2472920632735
 20
-22.0481829904154
 30
0.0
 10
169.2414512928151
 20
-21.05254997915893
 30
0.0
  0
LWPOLYLINE
  5
C4
330
70
100
AcDbEntity
  8
0
 62
    18
420
        0
370
    25
100
AcDbPolyline
 90
       17
 70
     0
 43
0.0
 10
176.0201406073319
 20
-6.426271913646631
 10
175.9885494132316
 20
-5.921238333446348
 10
175.8944815261326
 20
-5.391011952546742
 10
175.7400382670326
 20
-4.847437152146238
 10
175.5286696433315
 20
-4.302656495046434
 10
175.2650972806323
 20
-3.768839481046715
 10
174.9552089501326
 20
-3.257910699946468
 10
174.6059270449315
 20
-2.781283456546647
 10
174.2250539456314
 20
-2.349604815846589
 10
173.8210977279327
 20
-1.972517765346445
 10
173.4030821062323
 20
-1.658445806546414
 10
172.9803448588326
 20
-1.41440478814685
 10
172.5623292371322
 20
-1.245846183146846
 10
172.1583730194322
 20
-1.156535312346325
 10
171.7774999201321
 20
-1.148467232946273
 10
171.4282180149323
 20
-1.221822172446499
 10
171.191876017232
 20
-1.329260240546272
  0
SPLINE
  5
C5
330
70
100
AcDbEntity
  8
0
 62
    18
420
        0
370
    25
100
AcDbSpline
210
0.0
220
0.0
230
1.0
 70
     8
 71
     3
 72
     8
 73
     4
 74
     0
 42
0.0000000001
 43
0.0000000001
 40
0.0
 40
0.0
 40
0.0
 40
0.0
 40
1.0
 40
1.0
 40
1.0
 40
1.0
 10
175.191550947761
 20
-8.257651139592447
 30
0.0
 10
175.7803229893663
 20
-7.843366809303359
 30
0.0
 10
176.0976463367686
 20
-7.142007119771034
 30
0.0
 10
176.0201406072343
 20
-6.42627191371401
 30
0.0
  0
LWPOLYLINE
  5
C6
330
70
100
AcDbEntity
  8
0
 62
     8
420
  8421504
370
    25
100
AcDbPolyline
 90
        3
 70
     0
 43
0.0
 10
175.1875498150323
 20
-3.630702637946574
 10
175.3627831812316
 20
-3.529510018046609
 10
175.7064521579318
 20
-3.331050531146852
  0
LWPOLYLINE
  5
C7
330
70
100
AcDbEntity
  8
0
 62
     8
420
  8421504
370
    25
100
AcDbPolyline
 90
        3
 70
     0
 43
0.0
 10
171.1964011632316
 20
-1.326661564146299
 10
171.0247331098324
 20
-1.025207017446603
 10
170.6905013623316
 20
-0.4354037724467773
  0
LWPOLYLINE
  5
C8
330
70
100
AcDbEntity
  8
0
 62
     8
420
  8421504
370
    25
100
AcDbPolyline
 90
        6
 70
     0
 43
0.0
 10
164.8751133835316
 20
10.02856664005367
 10
164.874579759832
 20
9.212041908753217
 10
164.8726813488322
 20
5.945942677953768
 10
164.8711258267316
 20
-0.5863225624464623
 10
164.8716553268321
 20
-3.074509492546881
 10
164.8722400475323
 20
-4.172609812046658
  0
LWPOLYLINE
  5
C9
330
70
100
AcDbEntity
  8
0
 62
     8
420
  8421504
370
    25
100
AcDbPolyline
 90
        5
 70
     0
 43
0.0
 10
168.8803394520326
 20
-11.9010359844465
 10
174.0805170569317
 20
-14.90468595084629
 10
176.2354599622319
 20
-16.14809660924667
 10
181.8608327964322
 20
-19.39156228284669
 10
181.8682715472326
 20
-19.39585000844685
  0
SPLINE
  5
CA
330
70
100
AcDbEntity
  8
0
 62
     8
420
  8421504
370
    25
100
AcDbSpline
210
0.0
220
0.0
230
1.0
 70
     8
 71
     3
 72
     8
 73
     4
 74
     0
 42
0.0000000001
 43
0.0000000001
 40
0.0
 40
0.0
 40
0.0
 40
0.0
 40
1.0
 40
1.0
 40
1.0
 40
1.0
 10
182.46391205139
 20
-19.60324434709961
 30
0.0
 10
182.5388574864728
 20
-19.55258569724493
 30
0.0
 10
182.5789109213885
 20
-19.46405812778886
 30
0.0
 10
182.5674857588241
 20
-19.37432194386513
 30
0.0
  0
SPLINE
  5
CB
330
70
100
AcDbEntity
  8
0
 62
     8
420
  8421504
370
    25
100
AcDbSpline
210
0.0
220
0.0
230
1.0
 70
     8
 71
     3
 72
     8
 73
     4
 74
     0
 42
0.0000000001
 43
0.0000000001
 40
0.0
 40
0.0
 40
0.0
 40
0.0
 40
1.0
 40
1.0
 40
1.0
 40
1.0
 10
164.7433696469376
 20
10.22382175155462
 30
0.0
 10
164.7505109883318
 20
10.14031486195704
 30
0.0
 10
164.8003510007232
 20
10.06644784232654
 30
0.0
 10
164.8751133835226
 20
10.02856664005753
 30
0.0
  0
SPLINE
  5
CC
330
70
100
AcDbEntity
  8
0
 62
     8
420
  8421504
370
    25
100
AcDbSpline
210
0.0
220
0.0
230
1.0
 70
     8
 71
     3
 72
     8
 73
     4
 74
     0
 42
0.0000000001
 43
0.0000000001
 40
0.0
 40
0.0
 40
0.0
 40
0.0
 40
1.0
 40
1.0
 40
1.0
 40
1.0
 10
165.2433696196016
 20
10.6319273170894
 30
0.0
 10
165.1704259921241
 20
10.68418368075147
 30
0.0
 10
165.0751657032635
 20
10.69361674977041
 30
0.0
 10
164.9933899365817
 20
10.65668134241709
 30
0.0
  0
LWPOLYLINE
  5
CD
330
70
100
AcDbEntity
  8
0
 62
     8
420
  8421504
370
    25
100
AcDbPolyline
 90
       39
 70
     0
 43
0.0
 10
168.1514519008318
 20
-13.89264534754664
 10
167.8602027870324
 20
-14.42542756264663
 10
167.393285803932
 20
-15.12761743274662
 10
166.8426571999327
 20
-15.80929426454666
 10
166.2109995822319
 20
-16.4671369968467
 10
165.5013903232319
 20
-17.09794068604652
 10
164.7172865679317
 20
-17.69863211994627
 10
163.8625083910323
 20
-18.26628479044662
 10
162.9412201859317
 20
-18.79813315054654
 10
161.9579103760323
 20
-19.29158608854664
 10
160.917369548032
 20
-19.74423955154685
 10
159.8246671121318
 20
-20.1538882571463
 10
158.685126604732
 20
-20.51853643804627
 10
157.5042997528319
 20
-20.83640756504642
 10
156.2879394259322
 20
-21.1059530020466
 10
155.0419716094326
 20
-21.3258595505467
 10
153.7724665332318
 20
-21.49505584814652
 10
152.4856090984327
 20
-21.6127175873467
 10
151.1876687452315
 20
-21.67827153204637
 10
149.8849689083324
 20
-21.69139831004662
 10
148.5838562106322
 20
-21.65203396904686
 10
147.290669542132
 20
-21.5603702880466
 10
146.0117091786317
 20
-21.41685384324661
 10
144.7532060861323
 20
-21.22218383254671
 10
143.521291565432
 20
-20.97730866844667
 10
142.3219673801326
 20
-20.68342135824627
 10
141.1610765171324
 20
-20.34195369134671
 10
140.0442747200315
 20
-19.95456926394679
 10
138.9770029349323
 20
-19.52315537404649
 10
137.9644608026318
 20
-19.04981382664671
 10
137.0115813267323
 20
-18.53685069424682
 10
136.1230068401324
 20
-17.9867650817463
 10
135.3030663885326
 20
-17.40223695084649
 10
134.5557546392319
 20
-16.78611406384687
 10
133.8847124201324
 20
-16.14139810954644
 10
133.2932089813321
 20
-15.47123007924675
 10
132.7841260682321
 20
-14.77887496424663
 10
132.3599438815324
 20
-14.0677058491465
 10
132.2593884358325
 20
-13.8711698949464
  0
LWPOLYLINE
  5
CE
330
70
100
AcDbEntity
  8
0
 62
     8
420
  8421504
370
    25
100
AcDbPolyline
 90
       39
 70
     0
 43
0.0
 10
168.1124152975321
 20
-17.56341494534685
 10
167.8230714168327
 20
-18.09248038714646
 10
167.3571367452318
 20
-18.79319297284643
 10
166.8076665673326
 20
-19.47343567604628
 10
166.1773378465315
 20
-20.1298944224466
 10
165.4692214810315
 20
-20.75937101124678
 10
164.6867673426327
 20
-21.3587986957466
 10
163.8337874692316
 20
-21.92525712444657
 10
162.9144374930323
 20
-22.45598656874635
 10
161.9331963947319
 20
-22.94840136834674
 10
160.8948446822323
 20
-23.40010252774655
 10
159.8044411007325
 20
-23.80888940424653
 10
158.6672979869324
 20
-24.17277042934645
 10
157.4889553877317
 20
-24.48997281114676
 10
156.275154069832
 20
-24.75895117174657
 10
155.0318075513316
 20
-24.97839507544635
 10
153.7649732913317
 20
-25.14723541364628
 10
152.4808231790316
 20
-25.26464961314648
 10
151.1856134648324
 20
-25.33006564394634
 10
149.8856542801315
 20
-25.34316480544663
 10
148.5872788954317
 20
-25.30388328004644
 10
147.2968128652323
 20
-25.2124124433463
 10
146.0205432101321
 20
-25.06919793214644
 10
144.7646877876324
 20
-24.87493747294682
 10
143.535364999132
 20
-24.63057748324662
 10
142.3385639818326
 20
-24.33730846054644
 10
141.1801154297323
 20
-23.99655918174643
 10
140.0656631879322
 20
-23.60998974334652
 10
139.0006367556323
 20
-23.17948347264652
 10
137.9902248345325
 20
-22.70713775284681
 10
137.0393500500326
 20
-22.19525380504676
 10
136.1526449684321
 20
-21.6463254762468
 10
135.3344295278317
 20
-21.06302709004639
 10
134.5886899915317
 20
-20.44820041764641
 10
133.9190595276319
 20
-19.80484083274638
 10
133.3288005084322
 20
-19.13608271854665
 10
132.8207886165327
 20
-18.44518419734668
 10
132.3974988348322
 20
-17.73551125744686
 10
132.3025111596316
 20
-17.55021466004657
  0
LWPOLYLINE
  5
CF
330
70
100
AcDbEntity
  8
0
 62
     8
420
  8421504
370
    25
100
AcDbPolyline
 90
       43
 70
     0
 43
0.0
 10
165.7176514397324
 20
-55.89315380564667
 10
165.6924239083322
 20
-56.34528491664629
 10
165.578816351932
 20
-57.02792628174659
 10
165.3750228307316
 20
-57.70354421634661
 10
165.0822392861314
 20
-58.36817392574626
 10
164.702183888632
 20
-59.01791509844677
 10
164.2370869542326
 20
-59.64895479494643
 10
163.6896778567319
 20
-60.2575898233465
 10
163.0631690103318
 20
-60.8402484713466
 10
162.3612370181319
 20
-61.39351146634652
 10
161.5880010962315
 20
-61.91413204104669
 10
160.7479989003321
 20
-62.39905498684663
 10
159.8461598974325
 20
-62.84543458314647
 10
158.8877764373326
 20
-63.25065129694654
 10
157.8784726953319
 20
-63.61232715544661
 10
156.824171667132
 20
-63.92833970094659
 10
155.7310604102321
 20
-64.1968344460465
 10
154.6055537364325
 20
-64.41623575694686
 10
153.454256566132
 20
-64.58525609954645
 10
152.2839251691323
 20
-64.70290359514685
 10
151.1014275152324
 20
-64.76848784144627
 10
149.9137029711323
 20
-64.78162396414643
 10
148.7277215764325
 20
-64.74223487514667
 10
147.5504431418319
 20
-64.65055172534663
 10
146.3887764051318
 20
-64.50711254794637
 10
145.2495384886322
 20
-64.31275910094683
 10
144.139414893632
 20
-64.06863192774676
 10
143.0649202665323
 20
-63.77616366364655
 10
142.0323601692319
 20
-63.43707062874651
 10
141.0477940749324
 20
-63.05334275584635
 10
140.1169998090326
 20
-62.62723191254688
 10
139.2454396422319
 20
-62.16123868684624
 10
138.4382282363325
 20
-61.6580977122465
 10
137.7001026286324
 20
-61.12076162004658
 10
137.0353944339319
 20
-60.55238371204676
 10
136.448004424032
 20
-59.95629945594667
 10
135.9413796372325
 20
-59.33600691104638
 10
135.5184931491326
 20
-58.69514620064635
 10
135.1818266258315
 20
-58.03747815034656
 10
134.9333557603326
 20
-57.36686221774681
 10
134.7745386785315
 20
-56.68723384374654
 10
134.7063073821316
 20
-56.00258135784645
 10
134.7038347482326
 20
-55.89315380564667
  0
LWPOLYLINE
  5
D0
330
70
100
AcDbEntity
  8
0
 62
     8
420
  8421504
370
    25
100
AcDbPolyline
 90
       42
 70
     0
 43
0.0
 10
168.6807505335321
 20
-17.29016706694644
 10
168.6728713077321
 20
-17.31112763164686
 10
168.3509768805324
 20
-18.04126444054649
 10
167.9425477583319
 20
-18.75683289704681
 10
167.4495322781317
 20
-19.45441951174662
 10
166.8742822808322
 20
-20.13069657424642
 10
166.2195418922321
 20
-20.78243802724633
 10
165.4884344326319
 20
-21.40653485664655
 10
164.6844475175321
 20
-22.00000992144631
 10
163.8114164206322
 20
-22.56003215674657
 10
162.8735057785316
 20
-23.08393007784625
 10
161.8751897238321
 20
-23.56920452484649
 10
160.8212305421323
 20
-24.01354058394677
 10
159.7166559545324
 20
-24.41481863064643
 10
158.5667351338322
 20
-24.77112444084633
 10
157.3769535686318
 20
-25.08075832214654
 10
156.1529868962323
 20
-25.34224322234648
 10
154.9006738275319
 20
-25.55433177514632
 10
153.6259882949315
 20
-25.71601225064658
 10
152.3350109545316
 20
-25.82651338144661
 10
151.0339001796325
 20
-25.88530804184656
 10
149.7288626831326
 20
-25.89211576274677
 10
148.4261239097326
 20
-25.84690406894662
 10
147.1318983384318
 20
-25.74988863474633
 10
145.8523598376322
 20
-25.60153225474638
 10
144.593612213732
 20
-25.40254263604666
 10
143.3616600937327
 20
-25.15386902244686
 10
142.1623802819321
 20
-24.85669766654684
 10
141.0014937252317
 20
-24.51244617024663
 10
139.8845382222321
 20
-24.12275672284668
 10
138.816842006632
 20
-23.68948826734639
 10
137.803498329532
 20
-23.21470763214671
 10
136.8493411631318
 20
-22.70067967214654
 10
135.9589221413321
 20
-22.14985646464654
 10
135.1364888463319
 20
-21.56486561174681
 10
134.3859645470315
 20
-20.94849770624678
 10
133.7109294836319
 20
-20.30369301944658
 10
133.1146037883317
 20
-19.63352747504661
 10
132.5998321246325
 20
-18.94119797634681
 10
132.1690701176317
 20
-18.2300071556464
 10
131.8243726391316
 20
-17.50334761974652
 10
131.7914515024317
 20
-17.4217788639466
  0
LWPOLYLINE
  5
D1
330
70
100
AcDbEntity
  8
0
 62
     8
420
  8421504
370
    25
100
AcDbPolyline
 90
       48
 70
     0
 43
0.0
 10
131.5806102517323
 20
-14.34684153864651
 10
131.5673601006317
 20
-14.98178607004629
 10
131.635474698132
 20
-15.73208918744625
 10
131.7940861361319
 20
-16.47782165954654
 10
132.0424216755326
 20
-17.21535035284652
 10
132.3792714506315
 20
-17.94108210154658
 10
132.8029943632323
 20
-18.65148121364663
 10
133.3115260777318
 20
-19.34308669594632
 10
133.9023890789318
 20
-20.01252911624666
 10
134.5727047415323
 20
-20.65654701814677
 10
135.3192073550318
 20
-21.27200281134685
 10
136.1382600337317
 20
-21.85589805704685
 10
137.0258724354321
 20
-22.40538807624639
 10
137.9777202016319
 20
-22.91779580874666
 10
138.9891660256316
 20
-23.39062485574629
 10
140.0552822451326
 20
-23.82157164164627
 10
141.1708748491317
 20
-24.20853663684634
 10
142.3305087825316
 20
-24.54963458694683
 10
143.5285344253314
 20
-24.84320369694682
 10
144.759115117032
 20
-25.08781372764687
 10
146.0162555923316
 20
-25.28227296364653
 10
147.2938311890319
 20
-25.42563401904641
 10
148.5856176874321
 20
-25.51719845324653
 10
149.8853216333318
 20
-25.55652017334687
 10
151.186610999932
 20
-25.54340760814678
 10
152.4831460362321
 20
-25.47792464054644
 10
153.7686101537326
 20
-25.36039029694662
 10
155.0367407006318
 20
-25.19137719304652
 10
156.2813594722321
 20
-24.97170874364651
 10
157.4964028111319
 20
-24.70245515124625
 10
158.6759511481315
 20
-24.38492819234657
 10
159.8142578425318
 20
-24.02067482634641
 10
160.9057771783326
 20
-23.6114696591464
 10
161.9451913831325
 20
-23.15930629694663
 10
162.9274365354324
 20
-22.66638763444682
 10
163.8477272356318
 20
-22.13511512174641
 10
164.7015799198316
 20
-21.56807706504624
 10
165.484834703632
 20
-20.96803601684655
 10
166.1936756484318
 20
-20.33791531674668
 10
166.8246493524315
 20
-19.68078484954636
 10
167.3746817751321
 20
-18.99984608874659
 10
167.8410932139314
 20
-18.29841649954623
 10
168.2216113591315
 20
-17.57991337644659
 10
168.5143823646321
 20
-16.84783719444685
 10
168.7179798794321
 20
-16.10575455504632
 10
168.8314119969319
 20
-15.35728081034676
 10
168.8541260873319
 20
-14.60606244914654
 10
168.8408759362326
 20
-14.34684153864651
  0
LWPOLYLINE
  5
D2
330
70
100
AcDbEntity
  8
0
 62
     8
420
  8421504
370
    25
100
AcDbPolyline
 90
       47
 70
     0
 43
0.0
 10
131.2107430941319
 20
-18.21322651234664
 10
131.2498674368322
 20
-18.91672106554658
 10
131.3782195168325
 20
-19.66631000334673
 10
131.5953865256319
 20
-20.40904596444631
 10
131.9003442949321
 20
-21.14142617644679
 10
132.2916546319319
 20
-21.85999670534676
 10
132.7674721013319
 20
-22.56136874384642
 10
133.3255527292322
 20
-23.24223459364627
 10
133.9632645852324
 20
-23.89938326434676
 10
134.6776001947322
 20
-24.52971561674667
 10
135.465190722832
 20
-25.13025897854688
 10
136.3223218612322
 20
-25.69818116314687
 10
137.2449513455316
 20
-26.23080382724687
 10
138.2287280184322
 20
-26.72561510114627
 10
139.2690123500321
 20
-27.18028143514638
 10
140.3608983182319
 20
-27.59265860484682
 10
141.4992365453315
 20
-27.96080182314681
 10
142.6786585831326
 20
-28.28297491194683
 10
143.8936022305315
 20
-28.55765849034646
 10
145.138337765032
 20
-28.78355713944645
 10
146.4069949643318
 20
-28.95960551234642
 10
147.6935907909315
 20
-29.08497335804646
 10
148.9920576076324
 20
-29.15906943664675
 10
150.2962717934315
 20
-29.18154430814655
 10
151.6000826225318
 20
-29.15229198024648
 10
152.8973412713324
 20
-29.07145040794651
 10
154.1819298164325
 20
-28.93940084334638
 10
155.4477900872315
 20
-28.7567660375464
 10
156.6889522366326
 20
-28.52440730344669
 10
157.899562894432
 20
-28.24342045404626
 10
159.0739127729316
 20
-27.91513063454682
 10
160.2064635913323
 20
-27.54108607274635
 10
161.2918741950326
 20
-27.12305077764686
 10
162.3250257446321
 20
-26.66299622024672
 10
163.3010458564326
 20
-26.16309203614679
 10
164.2153315806323
 20
-25.62569579334667
 10
165.0635711096317
 20
-25.05334187374626
 10
165.8417641121316
 20
-24.44872952134648
 10
166.546240598932
 20
-23.81471011184636
 10
167.1736782311325
 20
-23.15427370594629
 10
167.7211179877325
 20
-22.47053494804681
 10
168.1859781213321
 20
-21.76671837714679
 10
168.5660663329319
 20
-21.04614322034658
 10
168.8595901115317
 20
-20.31220773844662
 10
169.0651651872323
 20
-19.56837320044629
 10
169.1818220599323
 20
-18.81814755954624
 10
169.2107430939318
 20
-18.21319853704643
  0
LWPOLYLINE
  5
D3
330
70
100
AcDbEntity
  8
0
 62
     8
420
  8421504
370
    25
100
AcDbPolyline
 90
       40
 70
     0
 43
0.0
 10
131.8175768061316
 20
-23.94096661814643
 10
132.0420787049324
 20
-24.39011112204682
 10
132.4760166830317
 20
-25.10575730414629
 10
132.9944257698317
 20
-25.80242077954685
 10
133.5948367652319
 20
-26.4767833161468
 10
134.274389890932
 20
-27.12563290204641
 10
135.0298484122326
 20
-27.74587904464639
 10
135.8576140544317
 20
-28.33456749014649
 10
136.7537441413321
 20
-28.88889429554656
 10
137.7139703747315
 20
-29.40621918314665
 10
138.7337191641325
 20
-29.88407811684656
 10
139.8081334112327
 20
-30.32019503814675
 10
140.9320956442322
 20
-30.7124927073463
 10
142.1002523925318
 20
-31.05910259724649
 10
143.3070396855316
 20
-31.35837379284654
 10
144.5467095541319
 20
-31.60888085544685
 10
145.8133574082317
 20
-31.80943061124664
 10
147.1009501609317
 20
-31.9590678348467
 10
148.4033549636324
 20
-32.05707979904634
 10
149.7143684179317
 20
-32.10299966954686
 10
151.0277461218325
 20
-32.09660872844643
 10
152.3372324122324
 20
-32.03793741604673
 10
153.6365901613322
 20
-31.92726518564686
 10
154.9196304836325
 20
-31.76511917304635
 10
156.1802422141321
 20
-31.55227168524645
 10
157.4124210160317
 20
-31.28973652194686
 10
158.6102979796321
 20
-30.97876414724633
 10
159.7681675759318
 20
-30.62083573324643
 10
160.8805148323327
 20
-30.21765610514625
 10
161.942041600832
 20
-29.77114562124628
 10
162.9476917932319
 20
-29.28343102644686
 10
163.892675463032
 20
-28.75683532194634
 10
164.7724916209316
 20
-28.19386670104627
 10
165.5829496722321
 20
-27.59720660264627
 10
166.3201893776325
 20
-26.96969693914663
 10
166.9806992391316
 20
-26.31432656054646
 10
167.561333225732
 20
-25.63421701844665
 10
168.059325757832
 20
-24.93260769784657
 10
168.4723048800317
 20
-24.21284038794633
 10
168.607249112332
 20
-23.93369877824649
  0
SPLINE
  5
D4
330
70
100
AcDbEntity
  8
0
 62
    18
420
        0
370
    25
100
AcDbSpline
210
0.0
220
0.0
230
1.0
 70
     8
 71
     3
 72
    11
 73
     7
 74
     0
 42
0.0000000001
 43
0.0000000001
 40
0.0
 40
0.0
 40
0.0
 40
0.0
 40
1.0
 40
1.0
 40
1.0
 40
2.0
 40
2.0
 40
2.0
 40
2.0
 10
73.8897145433982
 20
92.004456099079
 30
0.0
 10
73.89091942651685
 20
92.14252202920864
 30
0.0
 10
73.77997162663652
 20
92.25542333060067
 30
0.0
 10
73.64190569650624
 20
92.25662821371932
 30
0.0
 10
73.64117850252156
 20
92.25663455984497
 30
0.0
 10
73.64045128430764
 20
92.25663773295302
 30
0.0
 10
73.63972406263236
 20
92.25663773295302
 30
0.0
  0
SPLINE
  5
D5
330
70
100
AcDbEntity
  8
0
 62
    18
420
        0
370
    25
100
AcDbSpline
210
0.0
220
0.0
230
1.0
 70
     8
 71
     3
 72
    11
 73
     7
 74
     0
 42
0.0000000001
 43
0.0000000001
 40
0.0
 40
0.0
 40
0.0
 40
0.0
 40
1.0
 40
1.0
 40
1.0
 40
2.0
 40
2.0
 40
2.0
 40
2.0
 10
36.80683785783229
 20
92.25663773295302
 30
0.0
 10
36.66876667037472
 20
92.25663773295302
 30
0.0
 10
36.55683785783213
 20
92.14470892041108
 30
0.0
 10
36.55683785783213
 20
92.00663773295351
 30
0.0
 10
36.55683785783213
 20
92.00591051127824
 30
0.0
 10
36.55684103094019
 20
92.00518329306431
 30
0.0
 10
36.55684737706648
 20
92.004456099079
 30
0.0
  0
LINE
  5
D6
330
70
100
AcDbEntity
  8
0
 62
    18
420
        0
370
    25
100
AcDbLine
 10
36.55684737703246
 20
92.00445609905333
 30
0.0
 11
36.59611828213196
 21
87.50445609905348
 31
0.0
  0
LINE
  5
D7
330
70
100
AcDbEntity
  8
0
 62
    18
420
        0
370
    25
100
AcDbLine
 10
73.85044363833208
 20
87.50445609905348
 30
0.0
 11
73.8897145434322
 21
92.00445609905333
 31
0.0
  0
SPLINE
  5
D8
330
70
100
AcDbEntity
  8
0
 62
    18
420
        0
370
    25
100
AcDbSpline
210
0.0
220
0.0
230
1.0
 70
     8
 71
     3
 72
     8
 73
     4
 74
     0
 42
0.0000000001
 43
0.0000000001
 40
0.0
 40
0.0
 40
0.0
 40
0.0
 40
1.0
 40
1.0
 40
1.0
 40
1.0
 10
73.60045315753224
 20
87.2566377329535
 30
0.0
 10
73.73767312103026
 20
87.2566377329535
 30
0.0
 10
73.84924618341561
 20
87.36724136049621
 30
0.0
 10
73.85044363829806
 20
87.50445609907915
 30
0.0
  0
SPLINE
  5
D9
330
70
100
AcDbEntity
  8
0
 62
    18
420
        0
370
    25
100
AcDbSpline
210
0.0
220
0.0
230
1.0
 70
     8
 71
     3
 72
     8
 73
     4
 74
     0
 42
0.0000000001
 43
0.0000000001
 40
0.0
 40
0.0
 40
0.0
 40
0.0
 40
1.0
 40
1.0
 40
1.0
 40
1.0
 10
36.5961182820665
 20
87.50445609907915
 30
0.0
 10
36.59731573694894
 20
87.36724136049621
 30
0.0
 10
36.70888879933367
 20
87.2566377329535
 30
0.0
 10
36.84610876283232
 20
87.2566377329535
 30
0.0
  0
LINE
  5
DA
330
70
100
AcDbEntity
  8
0
 62
    18
420
        0
370
    25
100
AcDbLine
 10
39.3017123327324
 20
79.25663773295385
 30
0.0
 11
39.71600010323228
 21
36.99928514515379
 31
0.0
  0
LINE
  5
DB
330
70
100
AcDbEntity
  8
0
 62
    18
420
        0
370
    25
100
AcDbLine
 10
70.73056181723238
 20
36.99928514515379
 30
0.0
 11
71.14484958763217
 21
79.25663773295385
 31
0.0
  0
SPLINE
  5
DC
330
70
100
AcDbEntity
  8
0
 62
    18
420
        0
370
    25
100
AcDbSpline
210
0.0
220
0.0
230
1.0
 70
     8
 71
     3
 72
     8
 73
     4
 74
     0
 42
0.0000000001
 43
0.0000000001
 40
0.0
 40
0.0
 40
0.0
 40
0.0
 40
1.0
 40
1.0
 40
1.0
 40
1.0
 10
69.98059785843233
 20
36.25663773295362
 30
0.0
 10
70.39194291700678
 20
36.25663773295362
 30
0.0
 10
70.72652921630471
 20
36.58795985372358
 30
0.0
 10
70.73056181720094
 20
36.9992851451217
 30
0.0
  0
SPLINE
  5
DD
330
70
100
AcDbEntity
  8
0
 62
    18
420
        0
370
    25
100
AcDbSpline
210
0.0
220
0.0
230
1.0
 70
     8
 71
     3
 72
     8
 73
     4
 74
     0
 42
0.0000000001
 43
0.0000000001
 40
0.0
 40
0.0
 40
0.0
 40
0.0
 40
1.0
 40
1.0
 40
1.0
 40
1.0
 10
39.71600010326373
 20
36.9992851451217
 30
0.0
 10
39.72003270415996
 20
36.58795985372358
 30
0.0
 10
40.05461900345787
 20
36.25663773295362
 30
0.0
 10
40.46596406203234
 20
36.25663773295362
 30
0.0
  0
SPLINE
  5
DE
330
70
100
AcDbEntity
  8
0
 62
    18
420
        0
370
    25
100
AcDbSpline
210
0.0
220
0.0
230
1.0
 70
     8
 71
     3
 72
    11
 73
     7
 74
     0
 42
0.0000000001
 43
0.0000000001
 40
0.0
 40
0.0
 40
0.0
 40
0.0
 40
1.0
 40
1.0
 40
1.0
 40
2.0
 40
2.0
 40
2.0
 40
2.0
 10
36.19221053256612
 20
79.50881936682725
 30
0.0
 10
36.19100564944811
 20
79.3707534366976
 30
0.0
 10
36.30195344932842
 20
79.25785213530557
 30
0.0
 10
36.44001937945807
 20
79.25664725218692
 30
0.0
 10
36.44074657344274
 20
79.25664090606192
 30
0.0
 10
36.44147379165668
 20
79.25663773295385
 30
0.0
 10
36.44220101333258
 20
79.25663773295385
 30
0.0
  0
SPLINE
  5
DF
330
70
100
AcDbEntity
  8
0
 62
    18
420
        0
370
    25
100
AcDbSpline
210
0.0
220
0.0
230
1.0
 70
     8
 71
     3
 72
    11
 73
     7
 74
     0
 42
0.0000000001
 43
0.0000000001
 40
0.0
 40
0.0
 40
0.0
 40
0.0
 40
1.0
 40
1.0
 40
1.0
 40
2.0
 40
2.0
 40
2.0
 40
2.0
 10
74.0043609071321
 20
79.25663773295385
 30
0.0
 10
74.14243209458966
 20
79.25663773295385
 30
0.0
 10
74.25436090713226
 20
79.36856654549579
 30
0.0
 10
74.25436090713226
 20
79.50663773295338
 30
0.0
 10
74.25436090713226
 20
79.50736495462864
 30
0.0
 10
74.25435773402419
 20
79.50809217284258
 30
0.0
 10
74.25435138789791
 20
79.50881936682725
 30
0.0
  0
LINE
  5
E0
330
70
100
AcDbEntity
  8
0
 62
    18
420
        0
370
    25
100
AcDbLine
 10
74.25435138793256
 20
79.50881936685355
 30
0.0
 11
74.22328096023171
 21
83.06913773295306
 31
0.0
  0
LINE
  5
E1
330
70
100
AcDbEntity
  8
0
 62
    18
420
        0
370
    25
100
AcDbLine
 10
36.22328096023231
 20
83.06913773295306
 30
0.0
 11
36.19221053253211
 21
79.50881936685355
 31
0.0
  0
SPLINE
  5
E2
330
70
100
AcDbEntity
  8
0
 62
    18
420
        0
370
    25
100
AcDbSpline
210
0.0
220
0.0
230
1.0
 70
     8
 71
     3
 72
     8
 73
     4
 74
     0
 42
0.0000000001
 43
0.0000000001
 40
0.0
 40
0.0
 40
0.0
 40
0.0
 40
1.0
 40
1.0
 40
1.0
 40
1.0
 10
74.22328096023685
 20
83.06913773295306
 30
0.0
 10
74.22328096023685
 20
84.38671336214145
 30
0.0
 10
74.18856085051039
 20
85.70406021978282
 30
0.0
 10
74.11915678308641
 20
87.01980662926146
 30
0.0
  0
SPLINE
  5
E3
330
70
100
AcDbEntity
  8
0
 62
    18
420
        0
370
    25
100
AcDbSpline
210
0.0
220
0.0
230
1.0
 70
     8
 71
     3
 72
     8
 73
     4
 74
     0
 42
0.0000000001
 43
0.0000000001
 40
0.0
 40
0.0
 40
0.0
 40
0.0
 40
1.0
 40
1.0
 40
1.0
 40
1.0
 10
36.32740513737762
 20
87.01980662926146
 30
0.0
 10
36.25800106995427
 20
85.70406021978282
 30
0.0
 10
36.22328096022781
 20
84.38671336214145
 30
0.0
 10
36.22328096022781
 20
83.06913773295306
 30
0.0
  0
SPLINE
  5
E4
330
70
100
AcDbEntity
  8
0
 62
    18
420
        0
370
    25
100
AcDbSpline
210
0.0
220
0.0
230
1.0
 70
     8
 71
     3
 72
     8
 73
     4
 74
     0
 42
0.0000000001
 43
0.0000000001
 40
0.0
 40
0.0
 40
0.0
 40
0.0
 40
1.0
 40
1.0
 40
1.0
 40
1.0
 10
74.11915678304149
 20
87.0198066292743
 30
0.0
 10
74.11215337098316
 20
87.15257571057243
 30
0.0
 10
74.00245752747462
 20
87.2566377329535
 30
0.0
 10
73.86950386363213
 20
87.2566377329535
 30
0.0
  0
SPLINE
  5
E5
330
70
100
AcDbEntity
  8
0
 62
    18
420
        0
370
    25
100
AcDbSpline
210
0.0
220
0.0
230
1.0
 70
     8
 71
     3
 72
     8
 73
     4
 74
     0
 42
0.0000000001
 43
0.0000000001
 40
0.0
 40
0.0
 40
0.0
 40
0.0
 40
1.0
 40
1.0
 40
1.0
 40
1.0
 10
36.57705805683254
 20
87.2566377329535
 30
0.0
 10
36.44410439299006
 20
87.2566377329535
 30
0.0
 10
36.3344085494815
 20
87.15257571057243
 30
0.0
 10
36.32740513742254
 20
87.0198066292743
 30
0.0
  0
LINE
  5
E6
330
70
100
AcDbEntity
  8
0
 62
    18
420
        0
370
    25
100
AcDbLine
 10
43.209258194832
 20
95.26933085355318
 30
0.0
 11
43.20203642613233
 21
95.26932794875362
 31
0.0
  0
LWPOLYLINE
  5
E7
330
70
100
AcDbEntity
  8
0
 62
    18
420
        0
370
    25
100
AcDbPolyline
 90
        3
 70
     0
 43
0.0
 10
43.209258194832
 20
95.26933085355318
 10
44.9271233490323
 20
92.89400020285389
 10
45.45333055063246
 20
92.25663773295302
  0
SPLINE
  5
E8
330
70
100
AcDbEntity
  8
0
 62
    18
420
        0
370
    25
100
AcDbSpline
210
0.0
220
0.0
230
1.0
 70
     8
 71
     3
 72
     8
 73
     4
 74
     0
 42
0.0000000001
 43
0.0000000001
 40
0.0
 40
0.0
 40
0.0
 40
0.0
 40
1.0
 40
1.0
 40
1.0
 40
1.0
 10
65.01871099728496
 20
92.25663773292671
 30
0.0
 10
65.80624786340781
 20
93.22999149146685
 30
0.0
 10
66.54895712291623
 20
94.23877620961853
 30
0.0
 10
67.24452125712812
 20
95.27984411804943
 30
0.0
  0
SPLINE
  5
E9
330
70
100
AcDbEntity
  8
0
 62
    18
420
        0
370
    25
100
AcDbSpline
210
0.0
220
0.0
230
1.0
 70
     8
 71
     3
 72
     8
 73
     4
 74
     0
 42
0.0000000001
 43
0.0000000001
 40
0.0
 40
0.0
 40
0.0
 40
0.0
 40
1.0
 40
1.0
 40
1.0
 40
1.0
 10
43.20464411612834
 20
95.2798441181104
 30
0.0
 10
43.20544668251387
 20
95.27606093167511
 30
0.0
 10
43.20701710356167
 20
95.27248269793304
 30
0.0
 10
43.20925819476078
 20
95.269330853609
 30
0.0
  0
LINE
  5
EA
330
70
100
AcDbEntity
  8
0
 62
    18
420
        0
370
    25
100
AcDbLine
 10
67.72328096023246
 20
95.26913773295349
 30
0.0
 11
67.72328096023246
 21
92.25663773295302
 31
0.0
  0
SPLINE
  5
EB
330
70
100
AcDbEntity
  8
0
 62
    18
420
        0
370
    25
100
AcDbSpline
210
0.0
220
0.0
230
1.0
 70
     8
 71
     3
 72
     8
 73
     4
 74
     0
 42
0.0000000001
 43
0.0000000001
 40
0.0
 40
0.0
 40
0.0
 40
0.0
 40
1.0
 40
1.0
 40
1.0
 40
1.0
 10
67.72328096020807
 20
95.26913773297788
 30
0.0
 10
67.56402875586416
 20
95.28182593630878
 30
0.0
 10
67.40418146200243
 20
95.28540056190614
 30
0.0
 10
67.24452125711529
 20
95.27984411810527
 30
0.0
  0
LINE
  5
EC
330
70
100
AcDbEntity
  8
0
 62
    18
420
        0
370
    25
100
AcDbLine
 10
67.22347542093233
 20
95.27984155575351
 30
0.0
 11
67.22347118543247
 21
95.29038225785368
 31
0.0
  0
SPLINE
  5
ED
330
70
100
AcDbEntity
  8
0
 62
    18
420
        0
370
    25
100
AcDbSpline
210
0.0
220
0.0
230
1.0
 70
     8
 71
     3
 72
     8
 73
     4
 74
     0
 42
0.0000000001
 43
0.0000000001
 40
0.0
 40
0.0
 40
0.0
 40
0.0
 40
1.0
 40
1.0
 40
1.0
 40
1.0
 10
67.72328096019395
 20
95.26913773295285
 30
0.0
 10
67.55757608296447
 20
95.29031513771016
 30
0.0
 10
67.39037544027109
 20
95.29742203796763
 30
0.0
 10
67.22347118536382
 20
95.29038225785496
 30
0.0
  0
LWPOLYLINE
  5
EE
330
70
100
AcDbEntity
  8
0
 62
    18
420
        0
370
    25
100
AcDbPolyline
 90
        5
 70
     0
 43
0.0
 10
67.24452125713198
 20
95.27984411805329
 10
67.23926333633229
 20
95.27984300615313
 10
67.23400305763256
 20
95.27984220825301
 10
67.22873983493252
 20
95.2798417246532
 10
67.22347542093233
 20
95.27984155575351
  0
LINE
  5
EF
330
70
100
AcDbEntity
  8
0
 62
    18
420
        0
370
    25
100
AcDbLine
 10
42.72328096023222
 20
92.25663773295302
 30
0.0
 11
42.72328096023222
 21
95.26913773295349
 31
0.0
  0
SPLINE
  5
F0
330
70
100
AcDbEntity
  8
0
 62
    18
420
        0
370
    25
100
AcDbSpline
210
0.0
220
0.0
230
1.0
 70
     8
 71
     3
 72
     8
 73
     4
 74
     0
 42
0.0000000001
 43
0.0000000001
 40
0.0
 40
0.0
 40
0.0
 40
0.0
 40
1.0
 40
1.0
 40
1.0
 40
1.0
 10
43.20203642636271
 20
95.26932794873243
 30
0.0
 10
43.04245124588817
 20
95.26938792942933
 30
0.0
 10
42.88286604290861
 20
95.26932452413481
 30
0.0
 10
42.72328096047991
 20
95.26913773290536
 30
0.0
  0
LWPOLYLINE
  5
F1
330
70
100
AcDbEntity
  8
0
 62
    18
420
        0
370
    25
100
AcDbPolyline
 90
        6
 70
     0
 43
0.0
 10
55.22328096023233
 20
95.29339908025312
 10
54.2232809602323
 20
95.29337144985332
 10
50.2232810086323
 20
95.29275782645337
 10
46.72318581013256
 20
95.29170903735311
 10
43.22309073503219
 20
95.29038225785368
 10
43.21257457603241
 20
95.29037803075366
  0
SPLINE
  5
F2
330
70
100
AcDbEntity
  8
0
 62
    18
420
        0
370
    25
100
AcDbSpline
210
0.0
220
0.0
230
1.0
 70
     8
 71
     3
 72
     8
 73
     4
 74
     0
 42
0.0000000001
 43
0.0000000001
 40
0.0
 40
0.0
 40
0.0
 40
0.0
 40
1.0
 40
1.0
 40
1.0
 40
1.0
 10
43.22328096025886
 20
95.76913773294805
 30
0.0
 10
43.21198258064684
 20
95.60981771362634
 30
0.0
 10
43.20840959754105
 20
95.45004385334113
 30
0.0
 10
43.21257457609466
 20
95.29037803078574
 30
0.0
  0
LINE
  5
F3
330
70
100
AcDbEntity
  8
0
 62
    18
420
        0
370
    25
100
AcDbLine
 10
43.22328096023254
 20
95.7691377329532
 30
0.0
 11
55.22328096023233
 21
95.7691377329532
 31
0.0
  0
LINE
  5
F4
330
70
100
AcDbEntity
  8
0
 62
    18
420
        0
370
    25
100
AcDbLine
 10
55.22328096023233
 20
95.29339908025312
 30
0.0
 11
55.22328096023233
 21
95.7691377329532
 31
0.0
  0
SPLINE
  5
F5
330
70
100
AcDbEntity
  8
0
 62
    18
420
        0
370
    25
100
AcDbSpline
210
0.0
220
0.0
230
1.0
 70
     8
 71
     3
 72
     8
 73
     4
 74
     0
 42
0.0000000001
 43
0.0000000001
 40
0.0
 40
0.0
 40
0.0
 40
0.0
 40
1.0
 40
1.0
 40
1.0
 40
1.0
 10
43.22328096018506
 20
95.76913773298143
 30
0.0
 10
43.20210354619178
 20
95.60343285340589
 30
0.0
 10
43.19499664285351
 20
95.43623220708562
 30
0.0
 10
43.20203642613747
 20
95.26932794881265
 30
0.0
  0
LWPOLYLINE
  5
F6
330
70
100
AcDbEntity
  8
0
 62
    18
420
        0
370
    25
100
AcDbPolyline
 90
        3
 70
     0
 43
0.0
 10
43.21257457603241
 20
95.29037803075366
 10
43.21397336013251
 20
95.28268864755386
 10
43.21520432723199
 20
95.27984157315319
  0
LINE
  5
F7
330
70
100
AcDbEntity
  8
0
 62
    18
420
        0
370
    25
100
AcDbLine
 10
43.21520432723199
 20
95.27984157315319
 30
0.0
 11
43.2046441161322
 21
95.27984411805329
 31
0.0
  0
LINE
  5
F8
330
70
100
AcDbEntity
  8
0
 62
    18
420
        0
370
    25
100
AcDbLine
 10
55.22328096023233
 20
95.27982522865384
 30
0.0
 11
55.22328096023233
 21
95.29339908025312
 31
0.0
  0
LWPOLYLINE
  5
F9
330
70
100
AcDbEntity
  8
0
 62
    18
420
        0
370
    25
100
AcDbPolyline
 90
        5
 70
     0
 43
0.0
 10
55.22328096023233
 20
95.27982522865384
 10
52.09828096023247
 20
95.27982661705314
 10
48.9732810264322
 20
95.27983043085342
 10
46.09424265393211
 20
95.27983552415346
 10
43.21520432723199
 20
95.27984157315319
  0
LWPOLYLINE
  5
FA
330
70
100
AcDbEntity
  8
0
 62
    18
420
        0
370
    25
100
AcDbPolyline
 90
        5
 70
     0
 43
0.0
 10
67.22347118543247
 20
95.29038225785368
 10
66.22347132833239
 20
95.29077919765322
 10
62.22347177793228
 20
95.29220354145321
 10
58.72337651913207
 20
95.29307454925341
 10
55.22328096023233
 20
95.29339908025312
  0
LWPOLYLINE
  5
FB
330
70
100
AcDbEntity
  8
0
 62
    18
420
        0
370
    25
100
AcDbPolyline
 90
        5
 70
     0
 43
0.0
 10
67.22347542093233
 20
95.27984155575351
 10
64.10898501283239
 20
95.27983504935326
 10
60.98398515273254
 20
95.27982969905343
 10
58.10363310383213
 20
95.27982641325337
 10
55.22328096023233
 20
95.27982522865384
  0
LINE
  5
FC
330
70
100
AcDbEntity
  8
0
 62
    18
420
        0
370
    25
100
AcDbLine
 10
55.22328096023233
 20
95.7691377329532
 30
0.0
 11
67.22328096023211
 21
95.7691377329532
 31
0.0
  0
SPLINE
  5
FD
330
70
100
AcDbEntity
  8
0
 62
    18
420
        0
370
    25
100
AcDbSpline
210
0.0
220
0.0
230
1.0
 70
     8
 71
     3
 72
     8
 73
     4
 74
     0
 42
0.0000000001
 43
0.0000000001
 40
0.0
 40
0.0
 40
0.0
 40
0.0
 40
1.0
 40
1.0
 40
1.0
 40
1.0
 10
67.22347118536767
 20
95.29038225784725
 30
0.0
 10
67.22353116901253
 20
95.44996744146484
 30
0.0
 10
67.22346776060321
 20
95.60955264758808
 30
0.0
 10
67.22328096019682
 20
95.76913773315018
 30
0.0
  0
SPLINE
  5
FE
330
70
100
AcDbEntity
  8
0
 62
    18
420
        0
370
    25
100
AcDbSpline
210
0.0
220
0.0
230
1.0
 70
     8
 71
     3
 72
     8
 73
     4
 74
     0
 42
0.0000000001
 43
0.0000000001
 40
0.0
 40
0.0
 40
0.0
 40
0.0
 40
1.0
 40
1.0
 40
1.0
 40
1.0
 10
67.72328096023246
 20
95.26913773303242
 30
0.0
 10
67.72328096018881
 20
95.54528010791678
 30
0.0
 10
67.49942333511711
 20
95.7691377329532
 30
0.0
 10
67.22328096023211
 20
95.7691377329532
 30
0.0
  0
SPLINE
  5
FF
330
70
100
AcDbEntity
  8
0
 62
    18
420
        0
370
    25
100
AcDbSpline
210
0.0
220
0.0
230
1.0
 70
     8
 71
     3
 72
     8
 73
     4
 74
     0
 42
0.0000000001
 43
0.0000000001
 40
0.0
 40
0.0
 40
0.0
 40
0.0
 40
1.0
 40
1.0
 40
1.0
 40
1.0
 10
43.22328096023254
 20
95.7691377329532
 30
0.0
 10
42.94713858531675
 20
95.7691377329532
 30
0.0
 10
42.72328096023222
 20
95.54528010786865
 30
0.0
 10
42.72328096023222
 20
95.26913773295349
 30
0.0
  0
LINE
  5
100
330
70
100
AcDbEntity
  8
0
 62
    18
420
        0
370
    25
100
AcDbLine
 10
73.63972406263236
 20
92.25663773295302
 30
0.0
 11
36.80683785783229
 21
92.25663773295302
 31
0.0
  0
LINE
  5
101
330
70
100
AcDbEntity
  8
0
 62
    18
420
        0
370
    25
100
AcDbLine
 10
69.98059785843233
 20
36.25663773295362
 30
0.0
 11
40.46596406203234
 21
36.25663773295362
 31
0.0
  0
LINE
  5
102
330
70
100
AcDbEntity
  8
0
 62
    18
420
        0
370
    25
100
AcDbLine
 10
74.0043609071321
 20
79.25663773295385
 30
0.0
 11
36.44220101333258
 21
79.25663773295385
 31
0.0
  0
LINE
  5
103
330
70
100
AcDbEntity
  8
0
 62
    18
420
        0
370
    25
100
AcDbLine
 10
36.57705805683254
 20
87.2566377329535
 30
0.0
 11
73.86950386363213
 21
87.2566377329535
 31
0.0
  0
LWPOLYLINE
  5
104
330
70
100
AcDbEntity
  8
0
 62
     8
420
  8421504
370
    25
100
AcDbPolyline
 90
        3
 70
     0
 43
0.0
 10
43.20203642613233
 20
95.26932794875362
 10
43.20163954323223
 20
94.26932809145332
 10
43.20092486453238
 20
92.25663773295302
  0
LWPOLYLINE
  5
105
330
70
100
AcDbEntity
  8
0
 62
     8
420
  8421504
370
    25
100
AcDbPolyline
 90
        3
 70
     0
 43
0.0
 10
67.24550688313228
 20
92.25663773295302
 10
67.24452548333232
 20
95.26932795995383
 10
67.24452125713198
 20
95.27984411805329
  0
LINE
  5
106
330
70
100
AcDbEntity
  8
0
 62
     8
420
  8421504
370
    25
100
AcDbLine
 10
73.8897145434322
 20
92.00445609905333
 30
0.0
 11
36.55684737703246
 21
92.00445609905333
 31
0.0
  0
LINE
  5
107
330
70
100
AcDbEntity
  8
0
 62
     8
420
  8421504
370
    25
100
AcDbLine
 10
73.85044363833208
 20
87.50445609905348
 30
0.0
 11
36.59611828213196
 21
87.50445609905348
 31
0.0
  0
LINE
  5
108
330
70
100
AcDbEntity
  8
0
 62
     8
420
  8421504
370
    25
100
AcDbLine
 10
70.73056181723238
 20
36.99928514515379
 30
0.0
 11
39.71600010323228
 21
36.99928514515379
 31
0.0
  0
LINE
  5
109
330
70
100
AcDbEntity
  8
0
 62
     8
420
  8421504
370
    25
100
AcDbLine
 10
36.19221053253211
 20
79.50881936685355
 30
0.0
 11
74.25435138793256
 21
79.50881936685355
 31
0.0
  0
LINE
  5
10A
330
70
100
AcDbEntity
  8
0
 62
     8
420
  8421504
370
    25
100
AcDbLine
 10
36.22328096023231
 20
83.06913773295306
 30
0.0
 11
74.22328096023171
 21
83.06913773295306
 31
0.0
  0
LINE
  5
10B
330
70
100
AcDbEntity
  8
0
 62
     8
420
  8421504
370
    25
100
AcDbLine
 10
74.11915678303251
 20
87.01980662925377
 30
0.0
 11
36.32740513733206
 21
87.01980662925377
 31
0.0
  0
LWPOLYLINE
  5
10C
330
70
100
AcDbEntity
  8
0
 62
    18
420
        0
370
    25
100
AcDbPolyline
 90
        3
 70
     0
 43
0.0
 10
58.38520978003217
 20
-6.901181946946812
 10
61.46941975923223
 20
-6.857948762546505
 10
67.24732911763225
 20
-6.642710448046606
  0
LWPOLYLINE
  5
10D
330
70
100
AcDbEntity
  8
0
 62
    18
420
        0
370
    25
100
AcDbPolyline
 90
        3
 70
     0
 43
0.0
 10
43.19922849703251
 20
-6.642862491946851
 10
48.32285104473204
 20
-6.840378273846503
 10
52.08707714033208
 20
-6.901181946946812
  0
SPLINE
  5
10E
330
70
100
AcDbEntity
  8
0
 62
    18
420
        0
370
    25
100
AcDbSpline
210
0.0
220
0.0
230
1.0
 70
     8
 71
     3
 72
     8
 73
     4
 74
     0
 42
0.0000000001
 43
0.0000000001
 40
0.0
 40
0.0
 40
0.0
 40
0.0
 40
1.0
 40
1.0
 40
1.0
 40
1.0
 10
67.24714148950981
 20
-6.644075703588781
 30
0.0
 10
67.51370943135296
 20
-6.631340289786412
 30
0.0
 10
67.72328903804006
 20
-6.411502206914851
 30
0.0
 10
67.72328096000272
 20
-6.14463021828028
 30
0.0
  0
SPLINE
  5
10F
330
70
100
AcDbEntity
  8
0
 62
    18
420
        0
370
    25
100
AcDbSpline
210
0.0
220
0.0
230
1.0
 70
     8
 71
     3
 72
     8
 73
     4
 74
     0
 42
0.0000000001
 43
0.0000000001
 40
0.0
 40
0.0
 40
0.0
 40
0.0
 40
1.0
 40
1.0
 40
1.0
 40
1.0
 10
42.7232809604613
 20
-6.144630218253329
 30
0.0
 10
42.72327288441835
 20
-6.411435852941384
 30
0.0
 10
42.93275177459506
 20
-6.631243790119748
 30
0.0
 10
43.19924905334018
 20
-6.644067486468307
 30
0.0
  0
CIRCLE
  5
110
330
70
100
AcDbEntity
  8
0
 62
    18
420
        0
370
    25
100
AcDbCircle
 10
55.22328096023233
 20
-39.40118194694651
 30
0.0
 40
18.66644310240959
  0
LINE
  5
111
330
70
100
AcDbEntity
  8
0
 62
    18
420
        0
370
    25
100
AcDbLine
 10
51.2232809602322
 20
-6.901181946946812
 30
0.0
 11
51.2232809602322
 21
-20.62519127424627
 31
0.0
  0
LINE
  5
112
330
70
100
AcDbEntity
  8
0
 62
    18
420
        0
370
    25
100
AcDbLine
 10
59.22328096023248
 20
-20.62519127424627
 30
0.0
 11
59.22328096023248
 21
-6.901181946946812
 31
0.0
  0
SPLINE
  5
113
330
70
100
AcDbEntity
  8
0
 62
    18
420
        0
370
    25
100
AcDbSpline
210
0.0
220
0.0
230
1.0
 70
     8
 71
     3
 72
     8
 73
     4
 74
     0
 42
0.0000000001
 43
0.0000000001
 40
0.0
 40
0.0
 40
0.0
 40
0.0
 40
1.0
 40
1.0
 40
1.0
 40
1.0
 10
51.0338327849313
 20
-20.86876245199932
 30
0.0
 10
51.14577162695844
 20
-20.84245773210812
 30
0.0
 10
51.22368647637792
 20
-20.74093907347494
 30
0.0
 10
51.22014698227956
 20
-20.62600555084291
 30
0.0
  0
LWPOLYLINE
  5
114
330
70
100
AcDbEntity
  8
0
 62
    18
420
        0
370
    25
100
AcDbPolyline
 90
       10
 70
     0
 43
0.0
 10
59.41303827403213
 20
-20.86889431534647
 10
59.41334389593224
 20
-20.86895435914677
 10
59.40213956783253
 20
-20.86599390804626
 10
59.38820458283199
 20
-20.86144985534642
 10
59.36992008843198
 20
-20.85403280214679
 10
59.33438931403255
 20
-20.83430350844682
 10
59.28780912023229
 20
-20.79410940364688
 10
59.24192452063219
 20
-20.72131052944647
 10
59.22339039333238
 20
-20.63584962434651
 10
59.2247596862325
 20
-20.6264221283464
  0
LWPOLYLINE
  5
115
330
70
100
AcDbEntity
  8
0
 62
    18
420
        0
370
    25
100
AcDbPolyline
 90
      130
 70
     0
 43
0.0
 10
59.41958260023257
 20
-20.83850281674656
 10
59.76233106733221
 20
-20.91932522014672
 10
61.02695946893256
 20
-21.27663175354632
 10
62.26391482323233
 20
-21.72035960314658
 10
63.46729909093244
 20
-22.24839298984631
 10
64.6313743058323
 20
-22.85821414954651
 10
65.75058993533232
 20
-23.54691533864635
 10
66.81960934543255
 20
-24.31121269814659
 10
67.83333524743252
 20
-25.14746191254684
 10
68.78693400283168
 20
-26.05167558574644
 10
69.67585867043171
 20
-27.01954225444645
 10
70.49587068793205
 20
-28.04644694534673
 10
71.24306008123184
 20
-29.12749318094649
 10
71.91386410873231
 20
-30.25752632634637
 10
72.50508424873203
 20
-31.43115816764668
 10
73.01390145073217
 20
-32.64279260424678
 10
73.43788957723209
 20
-33.88665233174667
 10
73.77502697163217
 20
-35.15680638944636
 10
74.02370609873258
 20
-36.4471984402465
 10
74.18274120883234
 20
-37.75167564844631
 10
74.25137399213172
 20
-39.06401801774683
 10
74.22927719453233
 20
-40.37796804894681
 10
74.11655617763196
 20
-41.6872605775466
 10
73.91374841693192
 20
-42.9856526466466
 10
73.62182093843164
 20
-44.26695327504634
 10
73.24216570813206
 20
-45.52505297664629
 10
72.77659299463194
 20
-46.75395289174653
 10
72.22732273763206
 20
-47.9477933910464
 10
71.59697396253214
 20
-49.10088201504683
 10
70.8885522926319
 20
-50.20772061694683
 10
70.10543561783208
 20
-51.26303157894657
 10
69.25135798783215
 20
-52.26178297694684
 10
68.33039180793239
 20
-53.19921257354649
 10
67.34692842073198
 20
-54.07085052534651
 10
66.30565716743231
 20
-54.87254069614681
 10
65.21154302823234
 20
-55.6004604743464
 10
64.06980294823256
 20
-56.25113899914631
 10
62.88588096213208
 20
-56.82147371134677
 10
61.6654222360324
 20
-57.30874514594683
 10
60.41424615033224
 20
-57.71062989984629
 10
59.13831855133219
 20
-58.02521170974642
 10
57.84372330553246
 20
-58.2509905894464
 10
56.53663329023214
 20
-58.38688998224641
 10
55.22328096023233
 20
-58.43226189384628
 10
53.9093959332323
 20
-58.3868531249466
 10
52.60178085003198
 20
-58.25084351204647
 10
51.30667573403196
 20
-58.02488210154626
 10
50.03026091013213
 20
-57.71004719594643
 10
48.7786275119325
 20
-57.30784120764646
 10
47.55774841463218
 20
-56.82018348944676
 10
46.37344973163208
 20
-56.24940117544683
 10
45.23138301253252
 20
-55.5982180754468
 10
44.13699827323236
 20
-54.8697416772467
 10
43.09551798803249
 20
-54.06744831694641
 10
42.11191216783226
 20
-53.1951665900463
 10
41.19087464293234
 20
-52.25705908114672
 10
40.33680066353194
 20
-51.25760249964676
 10
39.55376592583223
 20
-50.2015663165468
 10
38.8455071217323
 20
-49.0939900045464
 10
38.21540410793215
 20
-47.94015898894627
 10
37.6664637766323
 20
-46.74557942564638
 10
37.20130570613252
 20
-45.51595192514624
 10
36.82214966093247
 20
-44.25714434894627
 10
36.53080499783238
 20
-42.97516380784675
 10
36.32866203253215
 20
-41.67612799544668
 10
36.21668540413214
 20
-40.36623599404658
 10
36.19540947243204
 20
-39.05173869274634
 10
36.26493576733232
 20
-37.73890895704626
 10
36.42493250503247
 20
-36.43401169504686
 10
36.67463617083222
 20
-35.1432739603466
 10
37.0128551627322
 20
-33.87285523644681
 10
37.43797547783252
 20
-32.62881804324663
 10
37.94796841483252
 20
-31.41709900614633
 10
38.5404002545324
 20
-30.24348052654662
 10
39.21244387413216
 20
-29.11356318714653
 10
39.96089223813249
 20
-28.03273902614678
 10
40.782173702932
 20
-27.00616580614625
 10
41.67236906053208
 20
-26.03874240044643
 10
42.62723024133214
 20
-25.13508541584625
 10
43.64220058643228
 20
-24.29950716154643
 10
44.71243659213197
 20
-23.53599507084631
 10
45.83283102313255
 20
-22.84819267234679
 10
46.99803728533257
 20
-22.23938220344666
 10
48.20249493953196
 20
-21.71246894694645
 10
49.44045623613207
 20
-21.26996736664659
 10
50.70601354433194
 20
-20.91398910864634
 10
51.06788550083246
 20
-20.82930286804657
 10
50.65522704433195
 20
-20.92647254824644
 10
49.39183804413204
 20
-21.28554567704685
 10
48.15622440603253
 20
-21.73090420134683
 10
46.954271400232
 20
-22.26042686314629
 10
45.79170396983253
 20
-22.87159152794647
 10
44.67405946333232
 20
-23.56148719744643
 10
43.60666125983255
 20
-24.32682787514681
 10
42.59459341353257
 20
-25.16396821694664
 10
41.64267643803212
 20
-26.06892089494632
 10
40.75544434653212
 20
-27.0373755886468
 10
39.93712305593227
 20
-28.06471951494633
 10
39.19161025853214
 20
-29.14605939974682
 10
38.52245685713248
 20
-30.27624478414655
 10
37.93285005253216
 20
-31.44989255654636
 10
37.4255981618324
 20
-32.66141259224682
 10
37.00311724333239
 20
-33.9050343801467
 10
36.66741958813243
 20
-35.1748345068469
 10
36.42010413553236
 20
-36.46476487114659
 10
36.26234885753213
 20
-37.76868149034684
 10
36.19490514783207
 20
-39.08037376514647
 10
36.21809424333213
 20
-40.39359406024667
 10
36.33180569343195
 20
-41.70208746244647
 10
36.53549788673233
 20
-42.99962157304664
 10
36.82820063013209
 20
-44.28001619254682
 10
37.20851977063202
 20
-45.53717275754634
 10
37.67464383513221
 20
-46.76510338844663
 10
38.22435265863197
 20
-47.95795940944676
 10
38.85502795933243
 20
-49.11005920674641
 10
39.56366580913207
 20
-50.21591528934667
 10
40.34689094183212
 20
-51.2702604269464
 10
41.20097282913234
 20
-52.26807273764685
 10
42.1218434498325
 20
-53.20459960734686
 10
43.10511666573205
 20
-54.0753803263464
 10
44.14610911283224
 20
-54.87626733634637
 10
45.23986250843229
 20
-55.60344598504635
 10
46.38116726773256
 20
-56.25345269584654
 10
47.56458731713253
 20
-56.82319146434625
 10
48.78448598633209
 20
-57.30994860544654
 10
50.03505285643218
 20
-57.7114056781467
 10
51.31033143443223
 20
-58.02565052874654
 10
52.60424752493213
 20
-58.25118639814647
 10
53.91063816133241
 20
-58.38693905134653
 10
55.22328096023233
 20
-58.43226189384628
  0
SPLINE
  5
116
330
70
100
AcDbEntity
  8
0
 62
    18
420
        0
370
    25
100
AcDbSpline
210
0.0
220
0.0
230
1.0
 70
     8
 71
     3
 72
     8
 73
     4
 74
     0
 42
0.0000000001
 43
0.0000000001
 40
0.0
 40
0.0
 40
0.0
 40
0.0
 40
1.0
 40
1.0
 40
1.0
 40
1.0
 10
43.20464411618867
 20
-6.641382241118469
 30
0.0
 10
43.20617771453386
 20
-6.641543510292016
 30
0.0
 10
43.20771682297288
 20
-6.641647191410915
 30
0.0
 10
43.20925819482109
 20
-6.641693065762957
 30
0.0
  0
LWPOLYLINE
  5
117
330
70
100
AcDbEntity
  8
0
 62
    18
420
        0
370
    25
100
AcDbPolyline
 90
        3
 70
     0
 43
0.0
 10
43.209258194832
 20
-6.641693065746273
 10
43.20729038723249
 20
-6.641609437846845
 10
43.20203642613233
 20
-6.641386065746774
  0
LINE
  5
118
330
70
100
AcDbEntity
  8
0
 62
    18
420
        0
370
    25
100
AcDbLine
 10
43.20203642613233
 20
-6.641386065746774
 30
0.0
 11
43.22328096023254
 21
-6.14183763624655
 31
0.0
  0
LWPOLYLINE
  5
119
330
70
100
AcDbEntity
  8
0
 62
    18
420
        0
370
    25
100
AcDbPolyline
 90
       11
 70
     0
 43
0.0
 10
43.21257457603241
 20
-6.641382241046598
 10
43.21279738273211
 20
-6.630980555646472
 10
43.21332817103254
 20
-6.606201815046705
 10
43.21412240623238
 20
-6.56912723624635
 10
43.2152029987321
 20
-6.5186906926467
 10
43.21647946283252
 20
-6.459119390846371
 10
43.21798849373255
 20
-6.388704948346582
 10
43.21960388213251
 20
-6.313340290646669
 10
43.22137186663208
 20
-6.230871354646538
 10
43.22295057613226
 20
-6.157244515346316
 10
43.22328096023254
 20
-6.14183763624655
  0
LWPOLYLINE
  5
11A
330
70
100
AcDbEntity
  8
0
 62
    18
420
        0
370
    25
100
AcDbPolyline
 90
        3
 70
     0
 43
0.0
 10
43.21257457603241
 20
-6.641382241046598
 10
43.21397336013251
 20
-6.641709588346613
 10
43.21520432723199
 20
-6.641831003646259
  0
LINE
  5
11B
330
70
100
AcDbEntity
  8
0
 62
    18
420
        0
370
    25
100
AcDbLine
 10
43.21520432723199
 20
-6.641831003646259
 30
0.0
 11
43.2046441161322
 21
-6.641382241046598
 31
0.0
  0
LWPOLYLINE
  5
11C
330
70
100
AcDbEntity
  8
0
 62
    18
420
        0
370
    25
100
AcDbPolyline
 90
        6
 70
     0
 43
0.0
 10
55.22328096023233
 20
-6.644054067846433
 10
54.2232809602323
 20
-6.644030259746849
 10
50.2232810086323
 20
-6.643498009846587
 10
46.72318581013256
 20
-6.642575177046544
 10
43.22309073503219
 20
-6.641386066346762
 10
43.21257457603241
 20
-6.641382241046598
  0
LWPOLYLINE
  5
11D
330
70
100
AcDbEntity
  8
0
 62
    18
420
        0
370
    25
100
AcDbPolyline
 90
        4
 70
     0
 43
0.0
 10
43.22328096023254
 20
-6.14183763624655
 10
48.91783956843241
 20
-6.14373671634656
 10
52.07056023233245
 20
-6.144401167546696
 10
55.22328096023233
 20
-6.14464302774624
  0
LINE
  5
11E
330
70
100
AcDbEntity
  8
0
 62
    18
420
        0
370
    25
100
AcDbLine
 10
55.22328096023233
 20
-6.644054067846433
 30
0.0
 11
55.22328096023233
 21
-6.144643027746882
 31
0.0
  0
LINE
  5
11F
330
70
100
AcDbEntity
  8
0
 62
    18
420
        0
370
    25
100
AcDbLine
 10
67.22328096023211
 20
-3.901181946946706
 30
0.0
 11
67.72328096023246
 21
-3.901181946946706
 31
0.0
  0
LINE
  5
120
330
70
100
AcDbEntity
  8
0
 62
    18
420
        0
370
    25
100
AcDbLine
 10
67.72328096023246
 20
-3.901181946946706
 30
0.0
 11
67.72328096023246
 21
-6.141837636346655
 31
0.0
  0
LINE
  5
121
330
70
100
AcDbEntity
  8
0
 62
    18
420
        0
370
    25
100
AcDbLine
 10
67.22328096023211
 20
-6.14183763624655
 30
0.0
 11
67.72328096023246
 21
-6.141837636346655
 31
0.0
  0
LINE
  5
122
330
70
100
AcDbEntity
  8
0
 62
    18
420
        0
370
    25
100
AcDbLine
 10
67.22328096023211
 20
-6.14183763624655
 30
0.0
 11
67.22328096023211
 21
-3.901181946946706
 31
0.0
  0
LWPOLYLINE
  5
123
330
70
100
AcDbEntity
  8
0
 62
    18
420
        0
370
    25
100
AcDbPolyline
 90
        4
 70
     0
 43
0.0
 10
55.22328096023233
 20
-6.144643027746882
 10
60.9178590090325
 20
-6.143893342946271
 10
64.07057001983206
 20
-6.142970807046256
 10
67.22328096023211
 20
-6.14183763624655
  0
LINE
  5
124
330
70
100
AcDbEntity
  8
0
 62
    18
420
        0
370
    25
100
AcDbLine
 10
43.22328096023254
 20
-3.901181946946706
 30
0.0
 11
43.22328096023254
 21
-6.14183763624655
 31
0.0
  0
LINE
  5
125
330
70
100
AcDbEntity
  8
0
 62
    18
420
        0
370
    25
100
AcDbLine
 10
67.22328096023211
 20
-3.901181946946706
 30
0.0
 11
43.22328096023254
 21
-3.901181946946706
 31
0.0
  0
LINE
  5
126
330
70
100
AcDbEntity
  8
0
 62
    18
420
        0
370
    25
100
AcDbLine
 10
42.72328096023222
 20
-6.14183763604634
 30
0.0
 11
43.22328096023254
 21
-6.14183763624655
 31
0.0
  0
LINE
  5
127
330
70
100
AcDbEntity
  8
0
 62
    18
420
        0
370
    25
100
AcDbLine
 10
42.72328096023222
 20
-6.14183763604634
 30
0.0
 11
42.72328096023222
 21
-3.901181946946706
 31
0.0
  0
LINE
  5
128
330
70
100
AcDbEntity
  8
0
 62
    18
420
        0
370
    25
100
AcDbLine
 10
42.72328096023222
 20
-3.901181946946706
 30
0.0
 11
43.22328096023254
 21
-3.901181946946706
 31
0.0
  0
LWPOLYLINE
  5
129
330
70
100
AcDbEntity
  8
0
 62
    18
420
        0
370
    25
100
AcDbPolyline
 90
        5
 70
     0
 43
0.0
 10
67.22347118543247
 20
-6.641386066346762
 10
66.22347132833239
 20
-6.641744253946457
 10
62.22347177793228
 20
-6.643012257546635
 10
58.72337651913207
 20
-6.643773499546514
 10
55.22328096023233
 20
-6.644054067846433
  0
LINE
  5
12A
330
70
100
AcDbEntity
  8
0
 62
    18
420
        0
370
    25
100
AcDbLine
 10
67.22347118543247
 20
-6.641386066346762
 30
0.0
 11
67.22328096023211
 21
-6.14183763624655
 31
0.0
  0
SPLINE
  5
12B
330
70
100
AcDbEntity
  8
0
 62
    18
420
        0
370
    25
100
AcDbSpline
210
0.0
220
0.0
230
1.0
 70
     8
 71
     3
 72
     8
 73
     4
 74
     0
 42
0.0000000001
 43
0.0000000001
 40
0.0
 40
0.0
 40
0.0
 40
0.0
 40
1.0
 40
1.0
 40
1.0
 40
1.0
 10
67.22347118541708
 20
-6.641386066377564
 30
0.0
 10
67.49941460469131
 20
-6.641405745017413
 30
0.0
 10
67.72315631350521
 20
-6.417781028180555
 30
0.0
 10
67.72328096024657
 20
-6.141837636356281
 30
0.0
  0
SPLINE
  5
12C
330
70
100
AcDbEntity
  8
0
 62
    18
420
        0
370
    25
100
AcDbSpline
210
0.0
220
0.0
230
1.0
 70
     8
 71
     3
 72
     8
 73
     4
 74
     0
 42
0.0000000001
 43
0.0000000001
 40
0.0
 40
0.0
 40
0.0
 40
0.0
 40
1.0
 40
1.0
 40
1.0
 40
1.0
 10
42.72328096018473
 20
-6.141837636039281
 30
0.0
 10
42.72328096934241
 20
-6.409717052122444
 30
0.0
 10
42.934398923006
 20
-6.630004129198892
 30
0.0
 10
43.20203642613683
 20
-6.641386065714689
 30
0.0
  0
SPLINE
  5
12D
330
70
100
AcDbEntity
  8
0
 62
    18
420
        0
370
    25
100
AcDbSpline
210
0.0
220
0.0
230
1.0
 70
     8
 71
     3
 72
     8
 73
     4
 74
     0
 42
0.0000000001
 43
0.0000000001
 40
0.0
 40
0.0
 40
0.0
 40
0.0
 40
1.0
 40
1.0
 40
1.0
 40
1.0
 10
58.7700937816683
 20
-6.891617232739147
 30
0.0
 10
61.59600684271597
 20
-6.851111284485193
 30
0.0
 10
64.42114177326857
 20
-6.767690001113735
 30
0.0
 10
67.24452125718331
 20
-6.641382241056223
 30
0.0
  0
SPLINE
  5
12E
330
70
100
AcDbEntity
  8
0
 62
    18
420
        0
370
    25
100
AcDbSpline
210
0.0
220
0.0
230
1.0
 70
     8
 71
     3
 72
     8
 73
     4
 74
     0
 42
0.0000000001
 43
0.0000000001
 40
0.0
 40
0.0
 40
0.0
 40
0.0
 40
1.0
 40
1.0
 40
1.0
 40
1.0
 10
43.20925819486023
 20
-6.641693065770016
 30
0.0
 10
46.030093964345
 20
-6.771589924464812
 30
0.0
 10
48.85288196354724
 20
-6.854909330874113
 30
0.0
 10
51.67646836431636
 20
-6.891617227790364
 30
0.0
  0
LINE
  5
12F
330
70
100
AcDbEntity
  8
0
 62
    18
420
        0
370
    25
100
AcDbLine
 10
55.22328096023233
 20
-6.64471311464635
 30
0.0
 11
55.22328096023233
 21
-6.644054067846433
 31
0.0
  0
LWPOLYLINE
  5
130
330
70
100
AcDbEntity
  8
0
 62
    18
420
        0
370
    25
100
AcDbPolyline
 90
        5
 70
     0
 43
0.0
 10
55.22328096023233
 20
-6.64471311464635
 10
52.09828096023247
 20
-6.644468285946408
 10
48.9732810264322
 20
-6.643795782846615
 10
46.09424265393211
 20
-6.642897642946458
 10
43.21520432723199
 20
-6.641831003646259
  0
LINE
  5
131
330
70
100
AcDbEntity
  8
0
 62
    18
420
        0
370
    25
100
AcDbLine
 10
67.22347542093233
 20
-6.641834073046772
 30
0.0
 11
67.22347118543247
 21
-6.641386066346762
 31
0.0
  0
LWPOLYLINE
  5
132
330
70
100
AcDbEntity
  8
0
 62
    18
420
        0
370
    25
100
AcDbPolyline
 90
        5
 70
     0
 43
0.0
 10
67.22347542093233
 20
-6.641834073046772
 10
64.10898501283239
 20
-6.642981369846572
 10
60.98398515273254
 20
-6.643924819146295
 10
58.10363310383213
 20
-6.644504224346671
 10
55.22328096023233
 20
-6.64471311464635
  0
SPLINE
  5
133
330
70
100
AcDbEntity
  8
0
 62
    18
420
        0
370
    25
100
AcDbSpline
210
0.0
220
0.0
230
1.0
 70
     8
 71
     3
 72
     8
 73
     4
 74
     0
 42
0.0000000001
 43
0.0000000001
 40
0.0
 40
0.0
 40
0.0
 40
0.0
 40
1.0
 40
1.0
 40
1.0
 40
1.0
 10
67.24452125711785
 20
-6.641382241085742
 30
0.0
 10
67.5121595596876
 20
-6.630003923835307
 30
0.0
 10
67.72328018310027
 20
-6.409717697362379
 30
0.0
 10
67.72328096020935
 20
-6.141837636317137
 30
0.0
  0
SPLINE
  5
134
330
70
100
AcDbEntity
  8
0
 62
    18
420
        0
370
    25
100
AcDbSpline
210
0.0
220
0.0
230
1.0
 70
     8
 71
     3
 72
     8
 73
     4
 74
     0
 42
0.0000000001
 43
0.0000000001
 40
0.0
 40
0.0
 40
0.0
 40
0.0
 40
1.0
 40
1.0
 40
1.0
 40
1.0
 10
67.22347542092014
 20
-6.641834073054472
 30
0.0
 10
67.23049309496485
 20
-6.641831340489485
 30
0.0
 10
67.23750993194204
 20
-6.641680696385749
 30
0.0
 10
67.24452125713132
 20
-6.641382241103068
 30
0.0
  0
LWPOLYLINE
  5
135
330
70
100
AcDbEntity
  8
0
 62
    18
420
        0
370
    25
100
AcDbPolyline
 90
        3
 70
     0
 43
0.0
 10
51.6764681386321
 20
-6.891617232746847
 10
52.52060204303245
 20
-6.898790861746705
 10
52.98255726313247
 20
-6.901181946946812
  0
SPLINE
  5
136
330
70
100
AcDbEntity
  8
0
 62
    18
420
        0
370
    25
100
AcDbSpline
210
0.0
220
0.0
230
1.0
 70
     8
 71
     3
 72
     8
 73
     4
 74
     0
 42
0.0000000001
 43
0.0000000001
 40
0.0
 40
0.0
 40
0.0
 40
0.0
 40
1.0
 40
1.0
 40
1.0
 40
1.0
 10
57.56097709292324
 20
-6.901181946924994
 30
0.0
 10
57.96402119420234
 20
-6.898689682804229
 30
0.0
 10
58.36706069133831
 20
-6.89550143999392
 30
0.0
 10
58.77009378165482
 20
-6.891617232754548
 30
0.0
  0
CIRCLE
  5
137
330
70
100
AcDbEntity
  8
0
 62
    18
420
        0
370
    25
100
AcDbCircle
 10
55.22328096023217
 20
-39.40118194694635
 30
0.0
 40
18.41644310240958
  0
CIRCLE
  5
138
330
70
100
AcDbEntity
  8
0
 62
    18
420
        0
370
    25
100
AcDbCircle
 10
55.22328096023233
 20
-39.40118194694651
 30
0.0
 40
14.76913604283546
  0
CIRCLE
  5
139
330
70
100
AcDbEntity
  8
0
 62
    18
420
        0
370
    25
100
AcDbCircle
 10
55.22328096023217
 20
-39.40118194694651
 30
0.0
 40
14.23189715744932
  0
CIRCLE
  5
13A
330
70
100
AcDbEntity
  8
0
 62
    18
420
        0
370
    25
100
AcDbCircle
 10
55.22328096023233
 20
-39.40118194694651
 30
0.0
 40
12.49999999999988
  0
CIRCLE
  5
13B
330
70
100
AcDbEntity
  8
0
 62
    18
420
        0
370
    25
100
AcDbCircle
 10
55.22328096023217
 20
-39.40118194694651
 30
0.0
 40
8.823476244619332
  0
SPLINE
  5
13C
330
70
100
AcDbEntity
  8
0
 62
    18
420
        0
370
    25
100
AcDbSpline
210
0.0
220
0.0
230
1.0
 70
     8
 71
     3
 72
     8
 73
     4
 74
     0
 42
0.0000000001
 43
0.0000000001
 40
0.0
 40
0.0
 40
0.0
 40
0.0
 40
1.0
 40
1.0
 40
1.0
 40
1.0
 10
57.14766942687742
 20
-20.60355305013759
 30
0.0
 10
56.50248403155434
 20
-20.5781430646151
 30
0.0
 10
55.85655412878299
 20
-20.62896318761378
 30
0.0
 10
55.22328096023619
 20
-20.75495904350036
 30
0.0
  0
SPLINE
  5
13D
330
70
100
AcDbEntity
  8
0
 62
    18
420
        0
370
    25
100
AcDbSpline
210
0.0
220
0.0
230
1.0
 70
     8
 71
     3
 72
    17
 73
    13
 74
     0
 42
0.0000000001
 43
0.0000000001
 40
0.0
 40
0.0
 40
0.0
 40
0.0
 40
1.0
 40
1.0
 40
1.0
 40
2.0
 40
2.0
 40
2.0
 40
3.0
 40
3.0
 40
3.0
 40
4.0
 40
4.0
 40
4.0
 40
4.0
 10
53.29889249357505
 20
-20.60355305014337
 30
0.0
 10
42.91724872089218
 20
-21.66636345302852
 30
0.0
 10
35.36284166054421
 20
-30.94392664092078
 30
0.0
 10
36.42565206342871
 20
-41.32557041360364
 30
0.0
 10
37.48846246631386
 20
-51.70721418628714
 30
0.0
 10
46.76602565420611
 20
-59.26162124663512
 30
0.0
 10
57.14766942688962
 20
-58.19881084374998
 30
0.0
 10
67.52931319957248
 20
-57.13600044086484
 30
0.0
 10
75.08372025992047
 20
-47.85843725297257
 30
0.0
 10
74.02090985703532
 20
-37.47679348028972
 30
0.0
 10
73.10839244022729
 20
-28.56322739930711
 30
0.0
 10
66.06123550787223
 20
-21.5160704669514
 30
0.0
 10
57.14766942688962
 20
-20.60355305014337
 30
0.0
  0
SPLINE
  5
13E
330
70
100
AcDbEntity
  8
0
 62
    18
420
        0
370
    25
100
AcDbSpline
210
0.0
220
0.0
230
1.0
 70
     8
 71
     3
 72
     8
 73
     4
 74
     0
 42
0.0000000001
 43
0.0000000001
 40
0.0
 40
0.0
 40
0.0
 40
0.0
 40
1.0
 40
1.0
 40
1.0
 40
1.0
 10
55.22328096022913
 20
-20.75495904346186
 30
0.0
 10
54.59000150608109
 20
-20.62900863341161
 30
0.0
 10
53.94407699002794
 20
-20.57818893422691
 30
0.0
 10
53.29889249357505
 20
-20.60355305009974
 30
0.0
  0
LWPOLYLINE
  5
13F
330
70
100
AcDbEntity
  8
0
 62
    18
420
        0
370
    25
100
AcDbPolyline
 90
        9
 70
     0
 43
0.0
 10
57.05839959453236
 20
-20.35519817224633
 10
57.05763752913251
 20
-20.40099712214647
 10
57.06080085193217
 20
-20.44523896684682
 10
57.06778201403244
 20
-20.48641954084666
 10
57.07834366503237
 20
-20.52313875774658
 10
57.09212672243228
 20
-20.55414821154672
 10
57.10866258003235
 20
-20.57839362084666
 10
57.1273890399325
 20
-20.5950506731463
 10
57.14766942683251
 20
-20.60355305014658
  0
SPLINE
  5
140
330
70
100
AcDbEntity
  8
0
 62
    18
420
        0
370
    25
100
AcDbSpline
210
0.0
220
0.0
230
1.0
 70
     8
 71
     3
 72
     8
 73
     4
 74
     0
 42
0.0000000001
 43
0.0000000001
 40
0.0
 40
0.0
 40
0.0
 40
0.0
 40
1.0
 40
1.0
 40
1.0
 40
1.0
 10
57.05839959456253
 20
-20.35519817228355
 30
0.0
 10
56.42767815453646
 20
-20.37738972146836
 30
0.0
 10
55.80608425158064
 20
-20.51279727253522
 30
0.0
 10
55.22328096020217
 20
-20.75495904350999
 30
0.0
  0
SPLINE
  5
141
330
70
100
AcDbEntity
  8
0
 62
    18
420
        0
370
    25
100
AcDbSpline
210
0.0
220
0.0
230
1.0
 70
     8
 71
     3
 72
     8
 73
     4
 74
     0
 42
0.0000000001
 43
0.0000000001
 40
0.0
 40
0.0
 40
0.0
 40
0.0
 40
1.0
 40
1.0
 40
1.0
 40
1.0
 10
55.22328096023619
 20
-20.75495904352924
 30
0.0
 10
54.63974082113601
 20
-20.51515279524364
 30
0.0
 10
54.01857409194508
 20
-20.37983829939038
 30
0.0
 10
53.38816232587776
 20
-20.3551981723028
 30
0.0
  0
LWPOLYLINE
  5
142
330
70
100
AcDbEntity
  8
0
 62
    18
420
        0
370
    25
100
AcDbPolyline
 90
        9
 70
     0
 43
0.0
 10
53.38816232583219
 20
-20.35519817224633
 10
53.38892439133215
 20
-20.40099712214647
 10
53.38576106853249
 20
-20.44523896684682
 10
53.37877990633213
 20
-20.48641954084666
 10
53.36821825533219
 20
-20.52313875774658
 10
53.35443519803239
 20
-20.55414821154672
 10
53.33789934043231
 20
-20.57839362084666
 10
53.31917288043206
 20
-20.5950506731463
 10
53.29889249353206
 20
-20.60355305014658
  0
LINE
  5
143
330
70
100
AcDbEntity
  8
0
 62
    18
420
        0
370
    25
100
AcDbLine
 10
58.03911623803251
 20
-6.901181946946812
 30
0.0
 11
52.05606878593244
 21
-6.901181946946812
 31
0.0
  0
SPLINE
  5
144
330
70
100
AcDbEntity
  8
0
 62
    18
420
        0
370
    25
100
AcDbSpline
210
0.0
220
0.0
230
1.0
 70
     8
 71
     3
 72
     8
 73
     4
 74
     0
 42
0.0000000001
 43
0.0000000001
 40
0.0
 40
0.0
 40
0.0
 40
0.0
 40
1.0
 40
1.0
 40
1.0
 40
1.0
 10
59.41005203410732
 20
-20.86901950765779
 30
0.0
 10
58.65923387306331
 20
-20.75430166408417
 30
0.0
 10
57.90464927329817
 20
-20.66575921331166
 30
0.0
 10
57.14766942690502
 20
-20.60355305010038
 30
0.0
  0
LINE
  5
145
330
70
100
AcDbEntity
  8
0
 62
    18
420
        0
370
    25
100
AcDbLine
 10
59.41409846123201
 20
-20.86912732064664
 30
0.0
 11
59.41400185193234
 21
-20.86910547374681
 31
0.0
  0
SPLINE
  5
146
330
70
100
AcDbEntity
  8
0
 62
    18
420
        0
370
    25
100
AcDbSpline
210
0.0
220
0.0
230
1.0
 70
     8
 71
     3
 72
    17
 73
    13
 74
     0
 42
0.0000000001
 43
0.0000000001
 40
0.0
 40
0.0
 40
0.0
 40
0.0
 40
1.0
 40
1.0
 40
1.0
 40
2.0
 40
2.0
 40
2.0
 40
3.0
 40
3.0
 40
3.0
 40
4.0
 40
4.0
 40
4.0
 40
4.0
 10
51.03246345926859
 20
-20.8691273206075
 30
0.0
 10
40.79749230610984
 20
-23.18365191571399
 30
0.0
 10
34.37670173878699
 20
-33.35702829475199
 30
0.0
 10
36.69122633389348
 20
-43.59199944791074
 30
0.0
 10
39.00575092899933
 20
-53.82697060106885
 30
0.0
 10
49.17912730803797
 20
-60.2477611683917
 30
0.0
 10
59.41409846119608
 20
-57.93323657328585
 30
0.0
 10
69.64906961435419
 20
-55.61871197817936
 30
0.0
 10
76.06986018167704
 20
-45.44533559914072
 30
0.0
 10
73.75533558657119
 20
-35.21036444598261
 30
0.0
 10
72.13947333206942
 20
-28.06492144776663
 30
0.0
 10
66.55954145941206
 20
-22.48498957510927
 30
0.0
 10
59.41409846119608
 20
-20.8691273206075
 30
0.0
  0
LINE
  5
147
330
70
100
AcDbEntity
  8
0
 62
    18
420
        0
370
    25
100
AcDbLine
 10
51.03256006853232
 20
-20.86910547374681
 30
0.0
 11
51.03246345923202
 21
-20.86912732064664
 31
0.0
  0
SPLINE
  5
148
330
70
100
AcDbEntity
  8
0
 62
    18
420
        0
370
    25
100
AcDbSpline
210
0.0
220
0.0
230
1.0
 70
     8
 71
     3
 72
     8
 73
     4
 74
     0
 42
0.0000000001
 43
0.0000000001
 40
0.0
 40
0.0
 40
0.0
 40
0.0
 40
1.0
 40
1.0
 40
1.0
 40
1.0
 10
53.29889249361098
 20
-20.60355305014915
 30
0.0
 10
52.53944324919466
 20
-20.63800226682183
 30
0.0
 10
51.78342967009577
 20
-20.72671642680892
 30
0.0
 10
51.03663617867365
 20
-20.86901675900926
 30
0.0
  0
LINE
  5
149
330
70
100
AcDbEntity
  8
0
 62
    18
420
        0
370
    25
100
AcDbLine
 10
51.10042525143239
 20
-20.84110935954639
 30
0.0
 11
51.0325599691325
 21
-20.8691054962467
 31
0.0
  0
LWPOLYLINE
  5
14A
330
70
100
AcDbEntity
  8
0
 62
     8
420
  8421504
370
    25
100
AcDbPolyline
 90
        5
 70
     0
 43
0.0
 10
67.24737371103237
 20
-6.643907510346559
 10
67.247517708232
 20
-6.644033108646739
 10
67.24711627363227
 20
-6.643685717046868
 10
67.24452548333232
 20
-6.641386066446867
 10
67.24452125713198
 20
-6.641382241046598
  0
LWPOLYLINE
  5
14B
330
70
100
AcDbEntity
  8
0
 62
     8
420
  8421504
370
    25
100
AcDbPolyline
 90
        3
 70
     0
 43
0.0
 10
58.045449236632
 20
-6.900811413646677
 10
58.29074558283233
 20
-6.898290356746692
 10
58.77009378183257
 20
-6.891617228046402
  0
LWPOLYLINE
  5
14C
330
70
100
AcDbEntity
  8
0
 62
     8
420
  8421504
370
    25
100
AcDbPolyline
 90
        3
 70
     0
 43
0.0
 10
52.40111268383203
 20
-6.900811413646677
 10
52.15581633763235
 20
-6.898290356746692
 10
51.67646813853199
 20
-6.891617228046402
  0
LINE
  5
14D
330
70
100
AcDbEntity
  8
0
 62
     8
420
  8421504
370
    25
100
AcDbLine
 10
43.19918821129067
 20
-6.643907508767338
 30
0.0
 11
43.20109626294131
 21
-6.642236928671053
 31
0.0
  0
SPLINE
  5
14E
330
70
100
AcDbEntity
  8
0
 62
     8
420
  8421504
370
    25
100
AcDbSpline
210
0.0
220
0.0
230
1.0
 70
     8
 71
     3
 72
     8
 73
     4
 74
     0
 42
0.0000000001
 43
0.0000000001
 40
0.0
 40
0.0
 40
0.0
 40
0.0
 40
1.0
 40
1.0
 40
1.0
 40
1.0
 10
59.21630850882577
 20
-20.62519127424241
 30
0.0
 10
58.50053879051828
 20
-20.5089080080901
 30
0.0
 10
57.78075443988488
 20
-20.41885007825278
 30
0.0
 10
57.05839959460809
 20
-20.35519817225146
 30
0.0
  0
SPLINE
  5
14F
330
70
100
AcDbEntity
  8
0
 62
     8
420
  8421504
370
    25
100
AcDbSpline
210
0.0
220
0.0
230
1.0
 70
     8
 71
     3
 72
     8
 73
     4
 74
     0
 42
0.0000000001
 43
0.0000000001
 40
0.0
 40
0.0
 40
0.0
 40
0.0
 40
1.0
 40
1.0
 40
1.0
 40
1.0
 10
53.38816232590342
 20
-20.35519817222708
 30
0.0
 10
52.66580060616707
 20
-20.41878556503022
 30
0.0
 10
51.94601389783192
 20
-20.50884378985724
 30
0.0
 10
51.23025341167355
 20
-20.62519127421739
 30
0.0
  0
LINE
  5
150
330
70
100
AcDbEntity
  8
0
 62
     8
420
  8421504
370
    25
100
AcDbLine
 10
59.41400185193234
 20
-20.86910547374681
 30
0.0
 11
59.41005203413234
 21
-20.86901950764624
 31
0.0
  0
LINE
  5
151
330
70
100
AcDbEntity
  8
0
 62
     8
420
  8421504
370
    25
100
AcDbLine
 10
51.03663617863259
 20
-20.86901675894637
 30
0.0
 11
51.03256006853232
 21
-20.86910547374681
 31
0.0
  0
SPLINE
  5
152
330
70
100
AcDbEntity
  8
0
 62
     8
420
  8421504
370
    25
100
AcDbSpline
210
0.0
220
0.0
230
1.0
 70
     8
 71
     3
 72
    17
 73
    13
 74
     0
 42
0.0000000001
 43
0.0000000001
 40
0.0
 40
0.0
 40
0.0
 40
0.0
 40
1.0
 40
1.0
 40
1.0
 40
2.0
 40
2.0
 40
2.0
 40
3.0
 40
3.0
 40
3.0
 40
4.0
 40
4.0
 40
4.0
 40
4.0
 10
51.11346685424603
 20
-20.81917264662242
 30
0.0
 10
40.85090649646343
 20
-23.08896030199808
 30
0.0
 10
34.37148400453273
 20
-33.24843569514943
 30
0.0
 10
36.6412716599084
 20
-43.51099605293266
 30
0.0
 10
38.91105931528342
 20
-53.77355641071526
 30
0.0
 10
49.0705347084354
 20
-60.25297890264596
 30
0.0
 10
59.333095066218
 20
-57.98319124727093
 30
0.0
 10
69.59565542400124
 20
-55.71340359189527
 30
0.0
 10
76.07507791593192
 20
-45.55392819874392
 30
0.0
 10
73.80529026055627
 20
-35.29136784096069
 30
0.0
 10
72.21357279400864
 20
-28.09461684344022
 30
0.0
 10
66.60937442701253
 20
-22.46408341731431
 30
0.0
 10
59.42016468759761
 20
-20.83864417319166
 30
0.0
  0
LWPOLYLINE
  5
153
330
70
100
AcDbEntity
  8
0
 62
    18
420
        0
370
    25
100
AcDbPolyline
 90
       17
 70
     0
 43
0.0
 10
134.419802388432
 20
81.08027064945318
 10
134.4199111846321
 20
81.42720975045348
 10
134.4199732849322
 20
81.83329604045335
 10
134.4200068081319
 20
82.24181158645331
 10
134.4200516248318
 20
82.61004085455324
 10
134.4201136672326
 20
82.90932503845308
 10
134.4201426628323
 20
83.214575252053
 10
134.4201043464321
 20
83.46082748105331
 10
134.4200999522324
 20
83.61395591365319
 10
134.420113911032
 20
83.76439583515304
 10
134.4201168554321
 20
83.91693247555362
 10
134.4200469267323
 20
84.09382985965327
 10
134.4199987354322
 20
84.21950729885328
 10
134.4199616954317
 20
84.37033503375365
 10
134.4199327085321
 20
84.72944749745323
 10
134.4199078895319
 20
85.11756027035392
 10
134.419802388432
 20
85.45800481635351
  0
LWPOLYLINE
  5
154
330
70
100
AcDbEntity
  8
0
 62
    18
420
        0
370
    25
100
AcDbPolyline
 90
        3
 70
     0
 43
0.0
 10
134.1589226384326
 20
71.24508256525297
 10
134.3497210733318
 20
76.13647290215379
 10
134.4201338653323
 20
79.89177390915333
  0
LWPOLYLINE
  5
155
330
70
100
AcDbEntity
  8
0
 62
    18
420
        0
370
    25
100
AcDbPolyline
 90
        5
 70
     0
 43
0.0
 10
134.4201344874326
 20
79.89296298695383
 10
134.4201144881325
 20
80.06222304825312
 10
134.4200023676323
 20
80.34722421365328
 10
134.4198613456324
 20
80.7235059945536
 10
134.4197530935315
 20
81.12126769945348
  0
SPLINE
  5
156
330
70
100
AcDbEntity
  8
0
 62
    18
420
        0
370
    25
100
AcDbSpline
210
0.0
220
0.0
230
1.0
 70
     8
 71
     3
 72
     8
 73
     4
 74
     0
 42
0.0000000001
 43
0.0000000001
 40
0.0
 40
0.0
 40
0.0
 40
0.0
 40
1.0
 40
1.0
 40
1.0
 40
1.0
 10
133.6606089009934
 20
70.76913773318203
 30
0.0
 10
133.9274145356609
 20
70.76912965716862
 30
0.0
 10
134.1472224728072
 20
70.97860854733761
 30
0.0
 10
134.1600461691532
 20
71.24510582606156
 30
0.0
  0
SPLINE
  5
157
330
70
100
AcDbEntity
  8
0
 62
    18
420
        0
370
    25
100
AcDbSpline
210
0.0
220
0.0
230
1.0
 70
     8
 71
     3
 72
    11
 73
     7
 74
     0
 42
0.0000000001
 43
0.0000000001
 40
0.0
 40
0.0
 40
0.0
 40
0.0
 40
1.0
 40
1.0
 40
1.0
 40
2.0
 40
2.0
 40
2.0
 40
2.0
 10
185.5835942127977
 20
92.00445609907836
 30
0.0
 10
185.5847990959164
 20
92.14252202920864
 30
0.0
 10
185.4738512960367
 20
92.25542333060067
 30
0.0
 10
185.3357853659064
 20
92.25662821371932
 30
0.0
 10
185.3350581719217
 20
92.25663455984497
 30
0.0
 10
185.3343309537078
 20
92.25663773295302
 30
0.0
 10
185.3336037320326
 20
92.25663773295302
 30
0.0
  0
SPLINE
  5
158
330
70
100
AcDbEntity
  8
0
 62
    18
420
        0
370
    25
100
AcDbSpline
210
0.0
220
0.0
230
1.0
 70
     8
 71
     3
 72
    11
 73
     7
 74
     0
 42
0.0000000001
 43
0.0000000001
 40
0.0
 40
0.0
 40
0.0
 40
0.0
 40
1.0
 40
1.0
 40
1.0
 40
2.0
 40
2.0
 40
2.0
 40
2.0
 10
148.5007175272324
 20
92.25663773295302
 30
0.0
 10
148.3626463397749
 20
92.25663773295302
 30
0.0
 10
148.2507175272316
 20
92.14470892041108
 30
0.0
 10
148.2507175272316
 20
92.00663773295351
 30
0.0
 10
148.2507175272316
 20
92.00591051127824
 30
0.0
 10
148.2507207003397
 20
92.00518329306431
 30
0.0
 10
148.250727046466
 20
92.00445609907836
 30
0.0
  0
LINE
  5
159
330
70
100
AcDbEntity
  8
0
 62
    18
420
        0
370
    25
100
AcDbLine
 10
148.2507270464326
 20
92.00445609905333
 30
0.0
 11
148.2899979515315
 21
87.50445609905348
 31
0.0
  0
LINE
  5
15A
330
70
100
AcDbEntity
  8
0
 62
    18
420
        0
370
    25
100
AcDbLine
 10
185.5443233077322
 20
87.50445609905348
 30
0.0
 11
185.5835942128324
 21
92.00445609905333
 31
0.0
  0
SPLINE
  5
15B
330
70
100
AcDbEntity
  8
0
 62
    18
420
        0
370
    25
100
AcDbSpline
210
0.0
220
0.0
230
1.0
 70
     8
 71
     3
 72
     8
 73
     4
 74
     0
 42
0.0000000001
 43
0.0000000001
 40
0.0
 40
0.0
 40
0.0
 40
0.0
 40
1.0
 40
1.0
 40
1.0
 40
1.0
 10
185.2943328269324
 20
87.2566377329535
 30
0.0
 10
185.4315527904304
 20
87.2566377329535
 30
0.0
 10
185.5431258528151
 20
87.36724136049621
 30
0.0
 10
185.5443233076976
 20
87.50445609907915
 30
0.0
  0
SPLINE
  5
15C
330
70
100
AcDbEntity
  8
0
 62
    18
420
        0
370
    25
100
AcDbSpline
210
0.0
220
0.0
230
1.0
 70
     8
 71
     3
 72
     8
 73
     4
 74
     0
 42
0.0000000001
 43
0.0000000001
 40
0.0
 40
0.0
 40
0.0
 40
0.0
 40
1.0
 40
1.0
 40
1.0
 40
1.0
 10
148.289997951466
 20
87.50445609907915
 30
0.0
 10
148.2911954063485
 20
87.36724136049621
 30
0.0
 10
148.4027684687332
 20
87.2566377329535
 30
0.0
 10
148.5399884322325
 20
87.2566377329535
 30
0.0
  0
LINE
  5
15D
330
70
100
AcDbEntity
  8
0
 62
    18
420
        0
370
    25
100
AcDbLine
 10
150.9955920021319
 20
79.25663773295385
 30
0.0
 11
151.4098797726324
 21
36.99928514515379
 31
0.0
  0
LINE
  5
15E
330
70
100
AcDbEntity
  8
0
 62
    18
420
        0
370
    25
100
AcDbLine
 10
182.4244414866326
 20
36.99928514515379
 30
0.0
 11
182.8387292570317
 21
79.25663773295385
 31
0.0
  0
SPLINE
  5
15F
330
70
100
AcDbEntity
  8
0
 62
    18
420
        0
370
    25
100
AcDbSpline
210
0.0
220
0.0
230
1.0
 70
     8
 71
     3
 72
     8
 73
     4
 74
     0
 42
0.0000000001
 43
0.0000000001
 40
0.0
 40
0.0
 40
0.0
 40
0.0
 40
1.0
 40
1.0
 40
1.0
 40
1.0
 10
181.6744775278325
 20
36.25663773295362
 30
0.0
 10
182.0858225864063
 20
36.25663773295362
 30
0.0
 10
182.4204088857042
 20
36.58795985372358
 30
0.0
 10
182.4244414866005
 20
36.9992851451217
 30
0.0
  0
SPLINE
  5
160
330
70
100
AcDbEntity
  8
0
 62
    18
420
        0
370
    25
100
AcDbSpline
210
0.0
220
0.0
230
1.0
 70
     8
 71
     3
 72
     8
 73
     4
 74
     0
 42
0.0000000001
 43
0.0000000001
 40
0.0
 40
0.0
 40
0.0
 40
0.0
 40
1.0
 40
1.0
 40
1.0
 40
1.0
 10
151.4098797726632
 20
36.9992851451217
 30
0.0
 10
151.4139123735595
 20
36.58795985372358
 30
0.0
 10
151.7484986728574
 20
36.25663773295362
 30
0.0
 10
152.1598437314325
 20
36.25663773295362
 30
0.0
  0
SPLINE
  5
161
330
70
100
AcDbEntity
  8
0
 62
    18
420
        0
370
    25
100
AcDbSpline
210
0.0
220
0.0
230
1.0
 70
     8
 71
     3
 72
    11
 73
     7
 74
     0
 42
0.0000000001
 43
0.0000000001
 40
0.0
 40
0.0
 40
0.0
 40
0.0
 40
1.0
 40
1.0
 40
1.0
 40
2.0
 40
2.0
 40
2.0
 40
2.0
 10
185.6982405765316
 20
79.25663773295385
 30
0.0
 10
185.8363117639892
 20
79.25663773295385
 30
0.0
 10
185.9482405765324
 20
79.36856654549579
 30
0.0
 10
185.9482405765324
 20
79.50663773295338
 30
0.0
 10
185.9482405765324
 20
79.50736495462864
 30
0.0
 10
185.9482374034243
 20
79.50809217284258
 30
0.0
 10
185.9482310572981
 20
79.50881936682725
 30
0.0
  0
LINE
  5
162
330
70
100
AcDbEntity
  8
0
 62
    18
420
        0
370
    25
100
AcDbLine
 10
185.9482310573314
 20
79.50881936685355
 30
0.0
 11
185.9171606296319
 21
83.06913773295306
 31
0.0
  0
SPLINE
  5
163
330
70
100
AcDbEntity
  8
0
 62
    18
420
        0
370
    25
100
AcDbSpline
210
0.0
220
0.0
230
1.0
 70
     8
 71
     3
 72
     8
 73
     4
 74
     0
 42
0.0000000001
 43
0.0000000001
 40
0.0
 40
0.0
 40
0.0
 40
0.0
 40
1.0
 40
1.0
 40
1.0
 40
1.0
 10
185.917160629637
 20
83.06913773295306
 30
0.0
 10
185.917160629637
 20
84.38671336214145
 30
0.0
 10
185.8824405199106
 20
85.70406021978282
 30
0.0
 10
185.8130364524866
 20
87.01980662926146
 30
0.0
  0
SPLINE
  5
164
330
70
100
AcDbEntity
  8
0
 62
    18
420
        0
370
    25
100
AcDbSpline
210
0.0
220
0.0
230
1.0
 70
     8
 71
     3
 72
     8
 73
     4
 74
     0
 42
0.0000000001
 43
0.0000000001
 40
0.0
 40
0.0
 40
0.0
 40
0.0
 40
1.0
 40
1.0
 40
1.0
 40
1.0
 10
185.8130364524417
 20
87.0198066292743
 30
0.0
 10
185.8060330403827
 20
87.15257571057243
 30
0.0
 10
185.6963371968742
 20
87.2566377329535
 30
0.0
 10
185.5633835330323
 20
87.2566377329535
 30
0.0
  0
LINE
  5
165
330
70
100
AcDbEntity
  8
0
 62
    18
420
        0
370
    25
100
AcDbLine
 10
134.4171606296317
 20
79.25663773295385
 30
0.0
 11
148.1360806827321
 21
79.25663773295385
 31
0.0
  0
LINE
  5
166
330
70
100
AcDbEntity
  8
0
 62
    18
420
        0
370
    25
100
AcDbLine
 10
148.2709377262327
 20
87.2566377329535
 30
0.0
 11
134.4171606296317
 21
87.2566377329535
 31
0.0
  0
LWPOLYLINE
  5
167
330
70
100
AcDbEntity
  8
0
 62
    18
420
        0
370
    25
100
AcDbPolyline
 90
        5
 70
     0
 43
0.0
 10
134.1582587316319
 20
71.2689390491534
 10
134.158257459932
 20
71.2689090760535
 10
134.1578113631318
 20
71.25840112655339
 10
134.1575881205317
 20
71.25314715995322
 10
134.1573647484316
 20
71.24789319885372
  0
LINE
  5
168
330
70
100
AcDbEntity
  8
0
 62
    18
420
        0
370
    25
100
AcDbLine
 10
133.6578163190321
 20
71.2691377329533
 30
0.0
 11
134.1573647484316
 21
71.24789319885372
 31
0.0
  0
LWPOLYLINE
  5
169
330
70
100
AcDbEntity
  8
0
 62
    18
420
        0
370
    25
100
AcDbPolyline
 90
        7
 70
     0
 43
0.0
 10
134.1573609237321
 20
71.25843134905347
 10
134.1221804981326
 20
71.25918494395349
 10
134.0346693759316
 20
71.26105977175379
 10
133.9046836318323
 20
71.26384526695382
 10
133.7468500382323
 20
71.26722864015366
 10
133.6732231987326
 20
71.2688073497533
 10
133.6578163190321
 20
71.26913773855339
  0
SPLINE
  5
16A
330
70
100
AcDbEntity
  8
0
 62
    18
420
        0
370
    25
100
AcDbSpline
210
0.0
220
0.0
230
1.0
 70
     8
 71
     3
 72
     8
 73
     4
 74
     0
 42
0.0000000001
 43
0.0000000001
 40
0.0
 40
0.0
 40
0.0
 40
0.0
 40
1.0
 40
1.0
 40
1.0
 40
1.0
 10
134.157360923768
 20
71.25843134897262
 30
0.0
 10
134.1579701671973
 20
71.26190049618106
 30
0.0
 10
134.1582706128757
 20
71.26541683121605
 30
0.0
 10
134.1582587315857
 20
71.26893904908924
 30
0.0
  0
LWPOLYLINE
  5
16B
330
70
100
AcDbEntity
  8
0
 62
    18
420
        0
370
    25
100
AcDbPolyline
 90
        7
 70
     0
 43
0.0
 10
134.1573647484316
 20
95.26932794875362
 10
134.1577225234317
 20
94.26932809145332
 10
134.1589869369317
 20
90.26932853845368
 10
134.1600117913323
 20
82.26932850205365
 10
134.1596643997323
 20
79.2221264108533
 10
134.1573647491324
 20
71.2689475058535
 10
134.1573609237321
 20
71.25843134905347
  0
LWPOLYLINE
  5
16C
330
70
100
AcDbEntity
  8
0
 62
    18
420
        0
370
    25
100
AcDbPolyline
 90
        4
 70
     0
 43
0.0
 10
133.6578163190321
 20
71.2691377329533
 10
133.6602328536324
 20
79.22221950285358
 10
133.6602531223319
 20
87.17530083755358
 10
133.6578163187319
 20
95.26913773295349
  0
LINE
  5
16D
330
70
100
AcDbEntity
  8
0
 62
    18
420
        0
370
    25
100
AcDbLine
 10
134.1573647484316
 20
95.26932794875362
 30
0.0
 11
133.6578163187319
 21
95.26913773295349
 31
0.0
  0
LINE
  5
16E
330
70
100
AcDbEntity
  8
0
 62
    18
420
        0
370
    25
100
AcDbLine
 10
131.4171606296322
 20
95.26913773295349
 30
0.0
 11
131.4171606296322
 21
95.7691377329532
 31
0.0
  0
LINE
  5
16F
330
70
100
AcDbEntity
  8
0
 62
    18
420
        0
370
    25
100
AcDbLine
 10
131.4171606296322
 20
95.7691377329532
 30
0.0
 11
133.657816318932
 21
95.7691377329532
 31
0.0
  0
LINE
  5
170
330
70
100
AcDbEntity
  8
0
 62
    18
420
        0
370
    25
100
AcDbLine
 10
133.6578163187319
 20
95.26913773295349
 30
0.0
 11
133.657816318932
 21
95.7691377329532
 31
0.0
  0
LINE
  5
171
330
70
100
AcDbEntity
  8
0
 62
    18
420
        0
370
    25
100
AcDbLine
 10
133.6578163187319
 20
95.26913773295349
 30
0.0
 11
131.4171606296322
 21
95.26913773295349
 31
0.0
  0
LINE
  5
172
330
70
100
AcDbEntity
  8
0
 62
    18
420
        0
370
    25
100
AcDbLine
 10
131.4171606296322
 20
95.26913773295349
 30
0.0
 11
131.4171606296322
 21
71.2691377329533
 31
0.0
  0
LINE
  5
173
330
70
100
AcDbEntity
  8
0
 62
    18
420
        0
370
    25
100
AcDbLine
 10
131.4171606296322
 20
71.2691377329533
 30
0.0
 11
133.6578163190321
 21
71.2691377329533
 31
0.0
  0
LINE
  5
174
330
70
100
AcDbEntity
  8
0
 62
    18
420
        0
370
    25
100
AcDbLine
 10
133.6578163187319
 20
70.76913773295359
 30
0.0
 11
133.6578163190321
 21
71.2691377329533
 31
0.0
  0
LINE
  5
175
330
70
100
AcDbEntity
  8
0
 62
    18
420
        0
370
    25
100
AcDbLine
 10
133.6578163187319
 20
70.76913773295359
 30
0.0
 11
131.4171606296322
 21
70.76913773295359
 31
0.0
  0
LINE
  5
176
330
70
100
AcDbEntity
  8
0
 62
    18
420
        0
370
    25
100
AcDbLine
 10
131.4171606296322
 20
70.76913773295359
 30
0.0
 11
131.4171606296322
 21
71.2691377329533
 31
0.0
  0
SPLINE
  5
177
330
70
100
AcDbEntity
  8
0
 62
    18
420
        0
370
    25
100
AcDbSpline
210
0.0
220
0.0
230
1.0
 70
     8
 71
     3
 72
     8
 73
     4
 74
     0
 42
0.0000000001
 43
0.0000000001
 40
0.0
 40
0.0
 40
0.0
 40
0.0
 40
1.0
 40
1.0
 40
1.0
 40
1.0
 10
134.1573647484778
 20
95.26932794881007
 30
0.0
 10
134.157384432379
 20
95.54527137156425
 30
0.0
 10
133.9337597143023
 20
95.76901308604371
 30
0.0
 10
133.6578163190001
 20
95.76913773298334
 30
0.0
  0
SPLINE
  5
178
330
70
100
AcDbEntity
  8
0
 62
    18
420
        0
370
    25
100
AcDbSpline
210
0.0
220
0.0
230
1.0
 70
     8
 71
     3
 72
     8
 73
     4
 74
     0
 42
0.0000000001
 43
0.0000000001
 40
0.0
 40
0.0
 40
0.0
 40
0.0
 40
1.0
 40
1.0
 40
1.0
 40
1.0
 10
133.6578163187254
 20
70.7691377329061
 30
0.0
 10
133.9256957348079
 20
70.76913774206315
 30
0.0
 10
134.145982811885
 20
70.98025569572738
 30
0.0
 10
134.1573647484008
 20
71.2478931988582
 30
0.0
  0
SPLINE
  5
179
330
70
100
AcDbEntity
  8
0
 62
    18
420
        0
370
    25
100
AcDbSpline
210
0.0
220
0.0
230
1.0
 70
     8
 71
     3
 72
     8
 73
     4
 74
     0
 42
0.0000000001
 43
0.0000000001
 40
0.0
 40
0.0
 40
0.0
 40
0.0
 40
1.0
 40
1.0
 40
1.0
 40
1.0
 10
134.1582587315819
 20
71.26893904906421
 30
0.0
 10
134.2934938081798
 20
74.32253028078381
 30
0.0
 10
134.3793645165654
 20
77.37810788433098
 30
0.0
 10
134.4158372110438
 20
80.43447462916516
 30
0.0
  0
LINE
  5
17A
330
70
100
AcDbEntity
  8
0
 62
    18
420
        0
370
    25
100
AcDbLine
 10
134.1576717484318
 20
95.26933085355318
 30
0.0
 11
134.1573647484316
 21
95.26932794875362
 31
0.0
  0
LINE
  5
17B
330
70
100
AcDbEntity
  8
0
 62
    18
420
        0
370
    25
100
AcDbLine
 10
134.1576717484318
 20
95.26933085355318
 30
0.0
 11
134.4075959104316
 21
86.81595088545313
 31
0.0
  0
LINE
  5
17C
330
70
100
AcDbEntity
  8
0
 62
    18
420
        0
370
    25
100
AcDbLine
 10
134.1573609237321
 20
95.27984411805329
 30
0.0
 11
134.1576717484318
 21
95.26933085355318
 31
0.0
  0
SPLINE
  5
17D
330
70
100
AcDbEntity
  8
0
 62
    18
420
        0
370
    25
100
AcDbSpline
210
0.0
220
0.0
230
1.0
 70
     8
 71
     3
 72
     8
 73
     4
 74
     0
 42
0.0000000001
 43
0.0000000001
 40
0.0
 40
0.0
 40
0.0
 40
0.0
 40
1.0
 40
1.0
 40
1.0
 40
1.0
 10
134.1573609237116
 20
95.29037803080756
 30
0.0
 10
134.1459824683001
 20
95.55801627077059
 30
0.0
 10
133.925696323314
 20
95.76913681568099
 30
0.0
 10
133.6578163189513
 20
95.76913773297116
 30
0.0
  0
LWPOLYLINE
  5
17E
330
70
100
AcDbEntity
  8
0
 62
    18
420
        0
370
    25
100
AcDbPolyline
 90
        3
 70
     0
 43
0.0
 10
134.1573609237321
 20
95.29037803075366
 10
134.1576882710321
 20
95.28268864755386
 10
134.1578096863324
 20
95.27984157315319
  0
LINE
  5
17F
330
70
100
AcDbEntity
  8
0
 62
    18
420
        0
370
    25
100
AcDbLine
 10
134.1578096863324
 20
95.27984157315319
 30
0.0
 11
134.1573609237321
 21
95.27984411805329
 31
0.0
  0
LINE
  5
180
330
70
100
AcDbEntity
  8
0
 62
    18
420
        0
370
    25
100
AcDbLine
 10
134.1573609237424
 20
95.2903780307896
 30
0.0
 11
134.1591543349516
 21
95.29238134541937
 31
0.0
  0
LINE
  5
181
330
70
100
AcDbEntity
  8
0
 62
    18
420
        0
370
    25
100
AcDbLine
 10
133.657816318932
 20
95.7691377329532
 30
0.0
 11
133.6606217104318
 21
95.7691377329532
 31
0.0
  0
SPLINE
  5
182
330
70
100
AcDbEntity
  8
0
 62
    18
420
        0
370
    25
100
AcDbSpline
210
0.0
220
0.0
230
1.0
 70
     8
 71
     3
 72
     8
 73
     4
 74
     0
 42
0.0000000001
 43
0.0000000001
 40
0.0
 40
0.0
 40
0.0
 40
0.0
 40
1.0
 40
1.0
 40
1.0
 40
1.0
 10
134.1600327505833
 20
95.29339908030253
 30
0.0
 10
134.1470912164309
 20
95.55979586935796
 30
0.0
 10
133.9273326635726
 20
95.7691377329532
 30
0.0
 10
133.6606217104318
 20
95.7691377329532
 30
0.0
  0
LWPOLYLINE
  5
183
330
70
100
AcDbEntity
  8
0
 62
    18
420
        0
370
    25
100
AcDbPolyline
 90
        3
 70
     0
 43
0.0
 10
134.1606917973325
 20
95.27982522865384
 10
134.1603228220327
 20
95.28742658995343
 10
134.1600327505319
 20
95.29339908025312
  0
LINE
  5
184
330
70
100
AcDbEntity
  8
0
 62
    18
420
        0
370
    25
100
AcDbLine
 10
134.1606917973325
 20
95.27982522865384
 30
0.0
 11
134.1578096863324
 21
95.27984157315319
 31
0.0
  0
LINE
  5
185
330
70
100
AcDbEntity
  8
0
 62
    18
420
        0
370
    25
100
AcDbLine
 10
134.4075959154317
 20
86.81595055475352
 30
0.0
 11
134.4171606296317
 21
86.49243592435377
 31
0.0
  0
LINE
  5
186
330
70
100
AcDbEntity
  8
0
 62
    18
420
        0
370
    25
100
AcDbLine
 10
185.3336037316321
 20
92.25663773295302
 30
0.0
 11
148.5007175272324
 21
92.25663773295302
 31
0.0
  0
LINE
  5
187
330
70
100
AcDbEntity
  8
0
 62
    18
420
        0
370
    25
100
AcDbLine
 10
152.1598437314325
 20
36.25663773295362
 30
0.0
 11
181.6744775278325
 21
36.25663773295362
 31
0.0
  0
LINE
  5
188
330
70
100
AcDbEntity
  8
0
 62
    18
420
        0
370
    25
100
AcDbLine
 10
185.6982405724324
 20
79.25663773295385
 30
0.0
 11
148.1360806827321
 21
79.25663773295385
 31
0.0
  0
LWPOLYLINE
  5
189
330
70
100
AcDbEntity
  8
0
 62
    18
420
        0
370
    25
100
AcDbPolyline
 90
        5
 70
     0
 43
0.0
 10
147.9895926109318
 20
79.50881936685355
 10
147.9780606505324
 20
79.35936517715347
 10
148.1104413693326
 20
79.25802100275338
 10
148.1345206766323
 20
79.25664261405299
 10
148.1360806827321
 20
79.25663773295385
  0
SPLINE
  5
18A
330
70
100
AcDbEntity
  8
0
 62
    18
420
        0
370
    25
100
AcDbSpline
210
0.0
220
0.0
230
1.0
 70
     8
 71
     3
 72
     8
 73
     4
 74
     0
 42
0.0000000001
 43
0.0000000001
 40
0.0
 40
0.0
 40
0.0
 40
0.0
 40
1.0
 40
1.0
 40
1.0
 40
1.0
 10
147.9895926109062
 20
79.50881936683879
 30
0.0
 10
148.2279752513063
 20
80.68132318379587
 30
0.0
 10
148.3603470145856
 20
81.87290260704122
 30
0.0
 10
148.385106003268
 20
83.06913773296846
 30
0.0
  0
LINE
  5
18B
330
70
100
AcDbEntity
  8
0
 62
    18
420
        0
370
    25
100
AcDbLine
 10
148.3850841564317
 20
83.06913773295306
 30
0.0
 11
148.3851060033321
 21
83.06913773295306
 31
0.0
  0
SPLINE
  5
18C
330
70
100
AcDbEntity
  8
0
 62
    18
420
        0
370
    25
100
AcDbSpline
210
0.0
220
0.0
230
1.0
 70
     8
 71
     3
 72
     8
 73
     4
 74
     0
 42
0.0000000001
 43
0.0000000001
 40
0.0
 40
0.0
 40
0.0
 40
0.0
 40
1.0
 40
1.0
 40
1.0
 40
1.0
 10
148.385084156406
 20
83.06913773295434
 30
0.0
 10
148.397292653071
 20
84.39086804943903
 30
0.0
 10
148.3085169115295
 20
85.71159996395412
 30
0.0
 10
148.1195317327852
 20
87.01980662924864
 30
0.0
  0
SPLINE
  5
18D
330
70
100
AcDbEntity
  8
0
 62
    18
420
        0
370
    25
100
AcDbSpline
210
0.0
220
0.0
230
1.0
 70
     8
 71
     3
 72
    11
 73
     7
 74
     0
 42
0.0000000001
 43
0.0000000001
 40
0.0
 40
0.0
 40
0.0
 40
0.0
 40
1.0
 40
1.0
 40
1.0
 40
2.0
 40
2.0
 40
2.0
 40
2.0
 10
148.270937726216
 20
87.25663773295092
 30
0.0
 10
148.1807385671222
 20
87.25965479361708
 30
0.0
 10
148.1051718904
 20
87.18897973873025
 30
0.0
 10
148.1021548297338
 20
87.09878057963706
 30
0.0
 10
148.1012395106835
 20
87.07141586351433
 30
0.0
 10
148.1072147508772
 20
87.0442597978293
 30
0.0
 10
148.119531732852
 20
87.01980662927173
 30
0.0
  0
LINE
  5
18E
330
70
100
AcDbEntity
  8
0
 62
    18
420
        0
370
    25
100
AcDbLine
 10
148.2709377262327
 20
87.2566377329535
 30
0.0
 11
185.5633835330323
 21
87.2566377329535
 31
0.0
  0
SPLINE
  5
18F
330
70
100
AcDbEntity
  8
0
 62
    18
420
        0
370
    25
100
AcDbSpline
210
0.0
220
0.0
230
1.0
 70
     8
 71
     3
 72
     8
 73
     4
 74
     0
 42
0.0000000001
 43
0.0000000001
 40
0.0
 40
0.0
 40
0.0
 40
0.0
 40
1.0
 40
1.0
 40
1.0
 40
1.0
 10
147.9895926109588
 20
79.50881936685035
 30
0.0
 10
147.9753091232051
 20
79.63539897190419
 30
0.0
 10
147.8683445076088
 20
79.73112738414774
 30
0.0
 10
147.7409617288077
 20
79.73133257321014
 30
0.0
  0
SPLINE
  5
190
330
70
100
AcDbEntity
  8
0
 62
    18
420
        0
370
    25
100
AcDbSpline
210
0.0
220
0.0
230
1.0
 70
     8
 71
     3
 72
     8
 73
     4
 74
     0
 42
0.0000000001
 43
0.0000000001
 40
0.0
 40
0.0
 40
0.0
 40
0.0
 40
1.0
 40
1.0
 40
1.0
 40
1.0
 10
147.7409617288218
 20
79.73133257313505
 30
0.0
 10
147.9821569398594
 20
80.83242337687773
 30
0.0
 10
148.1162120107617
 20
81.95427449020277
 30
0.0
 10
148.1412519237663
 20
83.08119466957235
 30
0.0
  0
SPLINE
  5
191
330
70
100
AcDbEntity
  8
0
 62
    18
420
        0
370
    25
100
AcDbSpline
210
0.0
220
0.0
230
1.0
 70
     8
 71
     3
 72
     8
 73
     4
 74
     0
 42
0.0000000001
 43
0.0000000001
 40
0.0
 40
0.0
 40
0.0
 40
0.0
 40
1.0
 40
1.0
 40
1.0
 40
1.0
 10
148.385084178954
 20
83.06914000623608
 30
0.0
 10
148.3040687165489
 20
83.07735629225376
 30
0.0
 10
148.2226827422495
 20
83.08137988020593
 30
0.0
 10
148.1412519237496
 20
83.08119466961917
 30
0.0
  0
SPLINE
  5
192
330
70
100
AcDbEntity
  8
0
 62
    18
420
        0
370
    25
100
AcDbSpline
210
0.0
220
0.0
230
1.0
 70
     8
 71
     3
 72
     8
 73
     4
 74
     0
 42
0.0000000001
 43
0.0000000001
 40
0.0
 40
0.0
 40
0.0
 40
0.0
 40
1.0
 40
1.0
 40
1.0
 40
1.0
 10
148.1412519237637
 20
83.0811946695948
 30
0.0
 10
148.1531292575284
 20
84.3296952858193
 30
0.0
 10
148.0628027094245
 20
85.57707369065063
 30
0.0
 10
147.8711768550063
 20
86.810838008375
 30
0.0
  0
SPLINE
  5
193
330
70
100
AcDbEntity
  8
0
 62
    18
420
        0
370
    25
100
AcDbSpline
210
0.0
220
0.0
230
1.0
 70
     8
 71
     3
 72
     8
 73
     4
 74
     0
 42
0.0000000001
 43
0.0000000001
 40
0.0
 40
0.0
 40
0.0
 40
0.0
 40
1.0
 40
1.0
 40
1.0
 40
1.0
 10
147.8711768549819
 20
86.8108380083891
 30
0.0
 10
147.9942015663129
 20
86.80962110016286
 30
0.0
 10
148.0996961263252
 20
86.89838542364725
 30
0.0
 10
148.119531732843
 20
87.019806629282
 30
0.0
  0
LINE
  5
194
330
70
100
AcDbEntity
  8
0
 62
    18
420
        0
370
    25
100
AcDbLine
 10
134.4171606296317
 20
87.2566377329535
 30
0.0
 11
134.4171606296317
 21
80.54588988395314
 31
0.0
  0
SPLINE
  5
195
330
70
100
AcDbEntity
  8
0
 62
    18
420
        0
370
    25
100
AcDbSpline
210
0.0
220
0.0
230
1.0
 70
     8
 71
     3
 72
    11
 73
     7
 74
     0
 42
0.0000000001
 43
0.0000000001
 40
0.0
 40
0.0
 40
0.0
 40
0.0
 40
1.0
 40
1.0
 40
1.0
 40
2.0
 40
2.0
 40
2.0
 40
2.0
 10
148.2709377261583
 20
87.2566377329214
 30
0.0
 10
148.0590846241538
 20
87.26805888690094
 30
0.0
 10
147.8780850774426
 20
87.10557668948467
 30
0.0
 10
147.8666639234643
 20
86.89372358748016
 30
0.0
 10
147.8651700341012
 20
86.86601315680656
 30
0.0
 10
147.8666831760615
 20
86.83822242953644
 30
0.0
 10
147.8711768549331
 20
86.81083800834933
 30
0.0
  0
SPLINE
  5
196
330
70
100
AcDbEntity
  8
0
 62
    18
420
        0
370
    25
100
AcDbSpline
210
0.0
220
0.0
230
1.0
 70
     8
 71
     3
 72
    11
 73
     7
 74
     0
 42
0.0000000001
 43
0.0000000001
 40
0.0
 40
0.0
 40
0.0
 40
0.0
 40
1.0
 40
1.0
 40
1.0
 40
2.0
 40
2.0
 40
2.0
 40
2.0
 10
147.7409617287513
 20
79.7313325731896
 30
0.0
 10
147.6909033654265
 20
79.52488027484772
 30
0.0
 10
147.8176856996536
 20
79.31693729779725
 30
0.0
 10
148.0241379979955
 20
79.26687893447311
 30
0.0
 10
148.0607493818605
 20
79.25800179447444
 30
0.0
 10
148.0984662769968
 20
79.25455122220466
 30
0.0
 10
148.1360806826936
 20
79.25663773295514
 30
0.0
  0
LWPOLYLINE
  5
197
330
70
100
AcDbEntity
  8
0
 62
     8
420
  8421504
370
    25
100
AcDbPolyline
 90
        3
 70
     0
 43
0.0
 10
134.4167900963315
 20
86.09130600935337
 10
134.4142690395317
 20
86.33660235555371
 10
134.4075959107319
 20
86.8159505545533
  0
LINE
  5
198
330
70
100
AcDbEntity
  8
0
 62
     8
420
  8421504
370
    25
100
AcDbLine
 10
134.159886195441
 20
71.24504497950539
 30
0.0
 11
134.1582156127587
 21
71.24695303416368
 31
0.0
  0
LINE
  5
199
330
70
100
AcDbEntity
  8
0
 62
     8
420
  8421504
370
    25
100
AcDbLine
 10
185.5835942128324
 20
92.00445609905333
 30
0.0
 11
148.2507270464326
 21
92.00445609905333
 31
0.0
  0
LINE
  5
19A
330
70
100
AcDbEntity
  8
0
 62
     8
420
  8421504
370
    25
100
AcDbLine
 10
185.5443233077322
 20
87.50445609905348
 30
0.0
 11
148.2899979515315
 21
87.50445609905348
 31
0.0
  0
LINE
  5
19B
330
70
100
AcDbEntity
  8
0
 62
     8
420
  8421504
370
    25
100
AcDbLine
 10
182.4244414866326
 20
36.99928514515379
 30
0.0
 11
151.4098797726324
 21
36.99928514515379
 31
0.0
  0
LINE
  5
19C
330
70
100
AcDbEntity
  8
0
 62
     8
420
  8421504
370
    25
100
AcDbLine
 10
147.9895926109318
 20
79.50881936685355
 30
0.0
 11
185.9482310573314
 21
79.50881936685355
 31
0.0
  0
LINE
  5
19D
330
70
100
AcDbEntity
  8
0
 62
     8
420
  8421504
370
    25
100
AcDbLine
 10
148.3851060033321
 20
83.06913773295306
 30
0.0
 11
185.9171606296319
 21
83.06913773295306
 31
0.0
  0
LINE
  5
19E
330
70
100
AcDbEntity
  8
0
 62
     8
420
  8421504
370
    25
100
AcDbLine
 10
185.8130364524327
 20
87.01980662925377
 30
0.0
 11
148.1195317328314
 21
87.01980662925377
 31
0.0
  0
INSERT
  5
1A1
330
70
100
AcDbEntity
  8
CAPA_BASE
100
AcDbBlockReference
  2
Block_0
 10
0.0
 20
0.0
 30
0.0
  0
INSERT
  5
1AE
330
70
100
AcDbEntity
  8
CAPA_BASE
100
AcDbBlockReference
  2
Block_1
 10
0.0
 20
0.0
 30
0.0
  0
INSERT
  5
1BA
330
70
100
AcDbEntity
  8
CAPA_BASE
100
AcDbBlockReference
  2
Block_2
 10
0.0
 20
0.0
 30
0.0
  0
ENDSEC
  0
SECTION
  2
OBJECTS
  0
DICTIONARY
  5
C
330
0
100
AcDbDictionary
281
     1
  3
ACAD_COLOR
350
63
  3
ACAD_DETAILVIEWSTYLE
350
6A
  3
ACAD_GROUP
350
D
  3
ACAD_LAYOUT
350
62
  3
ACAD_MATERIAL
350
10
  3
ACAD_MLEADERSTYLE
350
66
  3
ACAD_MLINESTYLE
350
5F
  3
ACAD_PLOTSETTINGS
350
61
  3
ACAD_PLOTSTYLENAME
350
E
  3
ACAD_SCALELIST
350
42
  3
ACAD_SECTIONVIEWSTYLE
350
68
  3
ACAD_TABLESTYLE
350
64
  3
ACAD_VISUALSTYLE
350
29
  3
ACDB_RECOMPOSE_DATA
350
1CD
  3
AcDbVariableDictionary
350
1C5
  0
DICTIONARY
  5
63
102
{ACAD_REACTORS
330
C
102
}
330
C
100
AcDbDictionary
281
     1
  0
DICTIONARY
  5
6A
102
{ACAD_REACTORS
330
C
102
}
330
C
100
AcDbDictionary
281
     1
  3
Imperial24
350
6B
  0
DICTIONARY
  5
D
102
{ACAD_REACTORS
330
C
102
}
330
C
100
AcDbDictionary
281
     1
  0
DICTIONARY
  5
62
102
{ACAD_REACTORS
330
C
102
}
330
C
100
AcDbDictionary
281
     1
  3
Layout1
350
6F
  3
Layout2
350
77
  3
Model
350
73
  0
DICTIONARY
  5
10
102
{ACAD_REACTORS
330
C
102
}
330
C
100
AcDbDictionary
281
     1
  3
ByBlock
350
19
  3
ByLayer
350
11
  3
Global
350
21
  0
DICTIONARY
  5
66
102
{ACAD_REACTORS
330
C
102
}
330
C
100
AcDbDictionary
281
     1
  3
Standard
350
67
  0
DICTIONARY
  5
5F
102
{ACAD_REACTORS
330
C
102
}
330
C
100
AcDbDictionary
281
     1
  3
Standard
350
60
  0
DICTIONARY
  5
61
102
{ACAD_REACTORS
330
C
102
}
330
C
100
AcDbDictionary
281
     1
  0
ACDBDICTIONARYWDFLT
  5
E
102
{ACAD_REACTORS
330
C
102
}
330
C
100
AcDbDictionary
281
     1
  3
Normal
350
F
100
AcDbDictionaryWithDefault
340
F
  0
DICTIONARY
  5
42
102
{ACAD_REACTORS
330
C
102
}
330
C
100
AcDbDictionary
281
     1
  3
A0
350
43
  3
A1
350
44
  3
A2
350
45
  3
A3
350
46
  3
A4
350
47
  3
A5
350
48
  3
A6
350
49
  3
A7
350
4A
  3
A8
350
4B
  3
A9
350
4C
  3
B0
350
4D
  3
B1
350
4E
  3
B2
350
4F
  3
B3
350
50
  3
B4
350
51
  3
B5
350
52
  3
B6
350
53
  0
DICTIONARY
  5
68
102
{ACAD_REACTORS
330
C
102
}
330
C
100
AcDbDictionary
281
     1
  3
Imperial24
350
69
  0
DICTIONARY
  5
64
102
{ACAD_REACTORS
330
C
102
}
330
C
100
AcDbDictionary
281
     1
  3
Standard
350
65
  0
DICTIONARY
  5
29
102
{ACAD_REACTORS
330
C
102
}
330
C
100
AcDbDictionary
281
     1
  3
2dWireframe
350
2F
  3
Basic
350
2E
  3
Brighten
350
35
  3
ColorChange
350
39
  3
Conceptual
350
32
  3
Dim
350
34
  3
EdgeColorOff
350
41
  3
Facepattern
350
38
  3
Flat
350
2A
  3
FlatWithEdges
350
2B
  3
Gouraud
350
2C
  3
GouraudWithEdges
350
2D
  3
Hidden
350
31
  3
JitterOff
350
3F
  3
Linepattern
350
37
  3
OverhangOff
350
40
  3
Realistic
350
33
  3
Shaded
350
3E
  3
Shaded with edges
350
3D
  3
Shades of Gray
350
3A
  3
Sketchy
350
3B
  3
Thicken
350
36
  3
Wireframe
350
30
  3
X-Ray
350
3C
  0
XRECORD
  5
1CD
102
{ACAD_REACTORS
330
C
102
}
330
C
100
AcDbXrecord
280
     1
 90
        1
330
65
  0
DICTIONARY
  5
1C5
102
{ACAD_REACTORS
330
C
102
}
330
C
100
AcDbDictionary
281
     1
  3
CANNOSCALE
350
1CA
  3
CMLEADERSTYLE
350
1C7
  3
CTABLESTYLE
350
1C6
  3
CVIEWDETAILSTYLE
350
1C8
  3
CVIEWSECTIONSTYLE
350
1C9
  0
ACDBDETAILVIEWSTYLE
  5
6B
102
{ACAD_REACTORS
330
6A
102
}
330
6A
100
AcDbModelDocViewStyle
 70
     0
  3
Imperial24
290
     1
300
Imperial24
 90
        0
100
AcDbDetailViewStyle
 70
     0
 71
     0
 90
        3
 71
     1
340
55
 62
   256
 40
0.24
340
0
 62
   256
 40
0.24
300

 40
0.36
280
     3
 71
     2
340
5D
 90
       25
 62
   256
 71
     3
340
55
 62
   256
 40
0.24
 90
        1
 40
0.75
 90
        1
300
%<\AcVar ViewType \f "%tc1">% %<\AcVar ViewDetailId>%\PSCALE %<\AcVar ViewScale \f "%sn">%
 71
     4
340
5D
 90
       25
 62
   256
340
5D
 90
       25
 62
   256
280
     0
  0
LAYOUT
  5
6F
102
{ACAD_REACTORS
330
62
102
}
330
62
100
AcDbPlotSettings
  1

  2

  4

  6

 40
0.0
 41
0.0
 42
0.0
 43
0.0
 44
0.0
 45
0.0
 46
0.0
 47
0.0
 48
0.0
 49
0.0
140
0.0
141
0.0
142
1.0
143
1.0
 70
   688
 72
     0
 73
     0
 74
     5
  7

 75
    16
147
1.0
 76
     0
 77
     2
 78
   300
148
0.0
149
0.0
100
AcDbLayout
  1
Layout1
 70
     1
 71
     1
 10
0.0
 20
0.0
 11
12.0
 21
9.0
 12
0.0
 22
0.0
 32
0.0
 14
0.0
 24
0.0
 34
0.0
 15
0.0
 25
0.0
 35
0.0
146
0.0
 13
0.0
 23
0.0
 33
0.0
 16
1.0
 26
0.0
 36
0.0
 17
0.0
 27
1.0
 37
0.0
 76
     0
330
6C
  0
LAYOUT
  5
77
102
{ACAD_REACTORS
330
62
102
}
330
62
100
AcDbPlotSettings
  1

  2

  4

  6

 40
0.0
 41
0.0
 42
0.0
 43
0.0
 44
0.0
 45
0.0
 46
0.0
 47
0.0
 48
0.0
 49
0.0
140
0.0
141
0.0
142
1.0
143
1.0
 70
   688
 72
     0
 73
     0
 74
     5
  7

 75
    16
147
1.0
 76
     0
 77
     2
 78
   300
148
0.0
149
0.0
100
AcDbLayout
  1
Layout2
 70
     1
 71
     2
 10
0.0
 20
0.0
 11
12.0
 21
9.0
 12
0.0
 22
0.0
 32
0.0
 14
0.0
 24
0.0
 34
0.0
 15
0.0
 25
0.0
 35
0.0
146
0.0
 13
0.0
 23
0.0
 33
0.0
 16
1.0
 26
0.0
 36
0.0
 17
0.0
 27
1.0
 37
0.0
 76
     0
330
74
  0
LAYOUT
  5
73
102
{ACAD_REACTORS
330
62
102
}
330
62
100
AcDbPlotSettings
  1

  2

  4

  6

 40
0.0
 41
0.0
 42
0.0
 43
0.0
 44
0.0
 45
0.0
 46
0.0
 47
0.0
 48
0.0
 49
0.0
140
0.0
141
0.0
142
1.0
143
1.0
 70
  1712
 72
     0
 73
     0
 74
     0
  7

 75
     0
147
1.0
 76
     0
 77
     2
 78
   300
148
0.0
149
0.0
100
AcDbLayout
  1
Model
 70
     1
 71
     0
 10
0.0
 20
0.0
 11
12.0
 21
9.0
 12
0.0
 22
0.0
 32
0.0
 14
0.0
 24
0.0
 34
0.0
 15
0.0
 25
0.0
 35
0.0
146
0.0
 13
0.0
 23
0.0
 33
0.0
 16
1.0
 26
0.0
 36
0.0
 17
0.0
 27
1.0
 37
0.0
 76
     0
330
70
  0
MATERIAL
  5
19
102
{ACAD_XDICTIONARY
360
1A
102
}
102
{ACAD_REACTORS
330
10
102
}
330
10
100
AcDbMaterial
  1
ByBlock
 72
     0
 43
0.0208333333333333
 43
0.0
 43
0.0
 43
0.0
 43
0.0
 43
0.0208333333333333
 43
0.0
 43
0.0
 43
0.0
 43
0.0
 43
1.0
 43
0.0
 43
0.0
 43
0.0
 43
0.0
 43
1.0
 77
     0
 47
0.0208333333333333
 47
0.0
 47
0.0
 47
0.0
 47
0.0
 47
0.0208333333333333
 47
0.0
 47
0.0
 47
0.0
 47
0.0
 47
1.0
 47
0.0
 47
0.0
 47
0.0
 47
0.0
 47
1.0
171
     0
 49
0.0208333333333333
 49
0.0
 49
0.0
 49
0.0
 49
0.0
 49
0.0208333333333333
 49
0.0
 49
0.0
 49
0.0
 49
0.0
 49
1.0
 49
0.0
 49
0.0
 49
0.0
 49
0.0
 49
1.0
175
     0
142
0.0208333333333333
142
0.0
142
0.0
142
0.0
142
0.0
142
0.0208333333333333
142
0.0
142
0.0
142
0.0
142
0.0
142
1.0
142
0.0
142
0.0
142
0.0
142
0.0
142
1.0
179
     0
144
0.0208333333333333
144
0.0
144
0.0
144
0.0
144
0.0
144
0.0208333333333333
144
0.0
144
0.0
144
0.0
144
0.0
144
1.0
144
0.0
144
0.0
144
0.0
144
0.0
144
1.0
147
0.0208333333333333
147
0.0
147
0.0
147
0.0
147
0.0
147
0.0208333333333333
147
0.0
147
0.0
147
0.0
147
0.0
147
1.0
147
0.0
147
0.0
147
0.0
147
0.0
147
1.0
  0
MATERIAL
  5
11
102
{ACAD_XDICTIONARY
360
12
102
}
102
{ACAD_REACTORS
330
10
102
}
330
10
100
AcDbMaterial
  1
ByLayer
 72
     0
 43
0.0208333333333333
 43
0.0
 43
0.0
 43
0.0
 43
0.0
 43
0.0208333333333333
 43
0.0
 43
0.0
 43
0.0
 43
0.0
 43
1.0
 43
0.0
 43
0.0
 43
0.0
 43
0.0
 43
1.0
 77
     0
 47
0.0208333333333333
 47
0.0
 47
0.0
 47
0.0
 47
0.0
 47
0.0208333333333333
 47
0.0
 47
0.0
 47
0.0
 47
0.0
 47
1.0
 47
0.0
 47
0.0
 47
0.0
 47
0.0
 47
1.0
171
     0
 49
0.0208333333333333
 49
0.0
 49
0.0
 49
0.0
 49
0.0
 49
0.0208333333333333
 49
0.0
 49
0.0
 49
0.0
 49
0.0
 49
1.0
 49
0.0
 49
0.0
 49
0.0
 49
0.0
 49
1.0
175
     0
142
0.0208333333333333
142
0.0
142
0.0
142
0.0
142
0.0
142
0.0208333333333333
142
0.0
142
0.0
142
0.0
142
0.0
142
1.0
142
0.0
142
0.0
142
0.0
142
0.0
142
1.0
179
     0
144
0.0208333333333333
144
0.0
144
0.0
144
0.0
144
0.0
144
0.0208333333333333
144
0.0
144
0.0
144
0.0
144
0.0
144
1.0
144
0.0
144
0.0
144
0.0
144
0.0
144
1.0
147
0.0208333333333333
147
0.0
147
0.0
147
0.0
147
0.0
147
0.0208333333333333
147
0.0
147
0.0
147
0.0
147
0.0
147
1.0
147
0.0
147
0.0
147
0.0
147
0.0
147
1.0
  0
MATERIAL
  5
21
102
{ACAD_XDICTIONARY
360
22
102
}
102
{ACAD_REACTORS
330
10
102
}
330
10
100
AcDbMaterial
  1
Global
 72
     0
 43
0.0208333333333333
 43
0.0
 43
0.0
 43
0.0
 43
0.0
 43
0.0208333333333333
 43
0.0
 43
0.0
 43
0.0
 43
0.0
 43
1.0
 43
0.0
 43
0.0
 43
0.0
 43
0.0
 43
1.0
 77
     0
 47
0.0208333333333333
 47
0.0
 47
0.0
 47
0.0
 47
0.0
 47
0.0208333333333333
 47
0.0
 47
0.0
 47
0.0
 47
0.0
 47
1.0
 47
0.0
 47
0.0
 47
0.0
 47
0.0
 47
1.0
171
     0
 49
0.0208333333333333
 49
0.0
 49
0.0
 49
0.0
 49
0.0
 49
0.0208333333333333
 49
0.0
 49
0.0
 49
0.0
 49
0.0
 49
1.0
 49
0.0
 49
0.0
 49
0.0
 49
0.0
 49
1.0
175
     0
142
0.0208333333333333
142
0.0
142
0.0
142
0.0
142
0.0
142
0.0208333333333333
142
0.0
142
0.0
142
0.0
142
0.0
142
1.0
142
0.0
142
0.0
142
0.0
142
0.0
142
1.0
179
     0
144
0.0208333333333333
144
0.0
144
0.0
144
0.0
144
0.0
144
0.0208333333333333
144
0.0
144
0.0
144
0.0
144
0.0
144
1.0
144
0.0
144
0.0
144
0.0
144
0.0
144
1.0
147
0.0208333333333333
147
0.0
147
0.0
147
0.0
147
0.0
147
0.0208333333333333
147
0.0
147
0.0
147
0.0
147
0.0
147
1.0
147
0.0
147
0.0
147
0.0
147
0.0
147
1.0
  0
MLEADERSTYLE
  5
67
102
{ACAD_REACTORS
330
66
102
}
330
66
100
AcDbMLeaderStyle
179
     2
170
     2
171
     1
172
     0
 90
        2
 40
0.0
 41
0.0
173
     1
 91
-1056964608
340
5B
 92
       -2
290
     1
 42
0.09
291
     1
 43
0.36
  3
Standard
 44
0.18
300

342
55
174
     1
178
     6
175
     1
176
     0
 93
-1056964608
 45
0.18
292
     0
297
     0
 46
0.18
 94
-1056964608
 47
1.0
 49
1.0
140
1.0
293
     1
141
0.0
294
     1
177
     0
142
1.0
295
     1
296
     0
143
0.125
271
     0
272
     9
273
     9
298
     1
  0
MLINESTYLE
  5
60
102
{ACAD_REACTORS
330
5F
102
}
330
5F
100
AcDbMlineStyle
  2
STANDARD
 70
     0
  3

 62
   256
 51
90.0
 52
90.0
 71
     2
 49
0.5
 62
   256
  6
BYLAYER
 49
-0.5
 62
   256
  6
BYLAYER
  0
ACDBPLACEHOLDER
  5
F
102
{ACAD_REACTORS
330
E
102
}
330
E
  0
SCALE
  5
43
102
{ACAD_REACTORS
330
42
102
}
330
42
100
AcDbScale
 70
     0
300
1:1
140
1.0
141
1.0
290
     1
  0
SCALE
  5
44
102
{ACAD_REACTORS
330
42
102
}
330
42
100
AcDbScale
 70
     0
300
1/128" = 1'-0"
140
0.0078125
141
12.0
290
     0
  0
SCALE
  5
45
102
{ACAD_REACTORS
330
42
102
}
330
42
100
AcDbScale
 70
     0
300
1/64" = 1'-0"
140
0.015625
141
12.0
290
     0
  0
SCALE
  5
46
102
{ACAD_REACTORS
330
42
102
}
330
42
100
AcDbScale
 70
     0
300
1/32" = 1'-0"
140
0.03125
141
12.0
290
     0
  0
SCALE
  5
47
102
{ACAD_REACTORS
330
42
102
}
330
42
100
AcDbScale
 70
     0
300
1/16" = 1'-0"
140
0.0625
141
12.0
290
     0
  0
SCALE
  5
48
102
{ACAD_REACTORS
330
42
102
}
330
42
100
AcDbScale
 70
     0
300
3/32" = 1'-0"
140
0.09375
141
12.0
290
     0
  0
SCALE
  5
49
102
{ACAD_REACTORS
330
42
102
}
330
42
100
AcDbScale
 70
     0
300
1/8" = 1'-0"
140
0.125
141
12.0
290
     0
  0
SCALE
  5
4A
102
{ACAD_REACTORS
330
42
102
}
330
42
100
AcDbScale
 70
     0
300
3/16" = 1'-0"
140
0.1875
141
12.0
290
     0
  0
SCALE
  5
4B
102
{ACAD_REACTORS
330
42
102
}
330
42
100
AcDbScale
 70
     0
300
1/4" = 1'-0"
140
0.25
141
12.0
290
     0
  0
SCALE
  5
4C
102
{ACAD_REACTORS
330
42
102
}
330
42
100
AcDbScale
 70
     0
300
3/8" = 1'-0"
140
0.375
141
12.0
290
     0
  0
SCALE
  5
4D
102
{ACAD_REACTORS
330
42
102
}
330
42
100
AcDbScale
 70
     0
300
1/2" = 1'-0"
140
0.5
141
12.0
290
     0
  0
SCALE
  5
4E
102
{ACAD_REACTORS
330
42
102
}
330
42
100
AcDbScale
 70
     0
300
3/4" = 1'-0"
140
0.75
141
12.0
290
     0
  0
SCALE
  5
4F
102
{ACAD_REACTORS
330
42
102
}
330
42
100
AcDbScale
 70
     0
300
1" = 1'-0"
140
1.0
141
12.0
290
     0
  0
SCALE
  5
50
102
{ACAD_REACTORS
330
42
102
}
330
42
100
AcDbScale
 70
     0
300
1-1/2" = 1'-0"
140
1.5
141
12.0
290
     0
  0
SCALE
  5
51
102
{ACAD_REACTORS
330
42
102
}
330
42
100
AcDbScale
 70
     0
300
3" = 1'-0"
140
3.0
141
12.0
290
     0
  0
SCALE
  5
52
102
{ACAD_REACTORS
330
42
102
}
330
42
100
AcDbScale
 70
     0
300
6" = 1'-0"
140
6.0
141
12.0
290
     0
  0
SCALE
  5
53
102
{ACAD_REACTORS
330
42
102
}
330
42
100
AcDbScale
 70
     0
300
1'-0" = 1'-0"
140
12.0
141
12.0
290
     0
  0
ACDBSECTIONVIEWSTYLE
  5
69
102
{ACAD_REACTORS
330
68
102
}
330
68
100
AcDbModelDocViewStyle
 70
     0
  3
Imperial24
290
     1
300
Imperial24
 90
        0
100
AcDbSectionViewStyle
 70
     0
 71
     0
 90
       78
 71
     1
340
55
 62
   256
 40
0.24
340
0
340
0
 62
   256
 40
0.24
300
I, O, Q, S, X, Z
 40
0.48
 90
        3
 40
0.18
 90
        1
 71
     2
340
5D
 90
       25
 62
   256
340
5D
 90
       50
 62
   256
 40
0.24
 40
0.0
 40
0.24
 71
     3
340
55
 62
   256
 40
0.24
 90
        1
 40
0.75
 90
        1
300
%<\AcVar ViewType \f "%tc1">% %<\AcVar ViewSectionStartId>%-%<\AcVar ViewSectionEndId>%\PSCALE %<\AcVar ViewScale \f "%sn">%
 71
     4
 62
   256
 62
   257
300
ANSI31
 40
1.0
 90
        0
290
     0
290
     0
 90
        6
 40
0.0
 40
1.570796326794896
 40
0.2617993877991494
 40
1.308996938995747
 40
-0.2617993877991494
 40
1.832595714594046
  0
TABLESTYLE
  5
65
102
{ACAD_XDICTIONARY
360
1CB
102
}
102
{ACAD_REACTORS
330
64
102
}
330
64
100
AcDbTableStyle
280
     0
  3
Standard
 70
     0
 71
     0
 40
0.06
 41
0.06
280
     0
281
     0
  7
Standard
140
0.18
170
     2
 62
     0
 63
     7
283
     0
 90
      512
 91
        0
  1

274
    -2
284
     1
 64
     0
275
    -2
285
     1
 65
     0
276
    -2
286
     1
 66
     0
277
    -2
287
     1
 67
     0
278
    -2
288
     1
 68
     0
279
    -2
289
     1
 69
     0
  7
Standard
140
0.25
170
     5
 62
     0
 63
     7
283
     0
 90
      512
 91
        0
  1

274
    -2
284
     1
 64
     0
275
    -2
285
     1
 65
     0
276
    -2
286
     1
 66
     0
277
    -2
287
     1
 67
     0
278
    -2
288
     1
 68
     0
279
    -2
289
     1
 69
     0
  7
Standard
140
0.18
170
     5
 62
     0
 63
     7
283
     0
 90
      512
 91
        0
  1

274
    -2
284
     1
 64
     0
275
    -2
285
     1
 65
     0
276
    -2
286
     1
 66
     0
277
    -2
287
     1
 67
     0
278
    -2
288
     1
 68
     0
279
    -2
289
     1
 69
     0
  0
VISUALSTYLE
  5
2F
102
{ACAD_REACTORS
330
29
102
}
330
29
100
AcDbVisualStyle
  2
2dWireframe
 70
     4
177
     3
291
     0
 70
    58
 90
        0
176
     1
 90
        2
176
     1
 90
        0
176
     1
 90
        0
176
     1
 40
0.6
176
     1
 40
30.0
176
     1
 62
     7
420
 16777215
176
     1
 90
        1
176
     1
 90
        4
176
     1
 62
     7
176
     1
 62
   257
176
     1
 90
        1
176
     1
 90
        1
176
     1
 40
1.0
176
     1
 90
        0
176
     1
 62
   257
176
     1
 40
1.0
176
     1
 90
        1
176
     1
 90
        6
176
     1
 90
        2
176
     1
 62
     7
176
     1
 90
        5
176
     1
 90
        0
176
     1
 90
        0
176
     1
290
     0
176
     1
 90
        1
176
     1
 40
0.0
176
     1
 90
        0
176
     1
290
     1
176
     1
290
     1
176
     1
290
     0
176
     1
290
     0
176
     1
290
     0
176
     1
290
     0
176
     1
290
     0
176
     1
290
     0
176
     1
290
     0
176
     1
 90
       50
176
     1
 40
0.0
176
     1
 40
1.0
176
     1
 90
        0
176
     1
 62
    18
420
        0
176
     1
 90
       50
176
     1
 90
        3
176
     1
 62
     5
420
      255
176
     1
290
     0
176
     1
 90
       50
176
     1
 90
       50
176
     1
 90
       50
176
     1
290
     0
176
     1
 90
       50
176
     1
 62
   256
176
     0
 40
1.0
176
     0
 90
        2
176
     1
  1
strokes_ogs.tif
176
     1
290
     0
176
     1
 40
1.0
176
     1
 40
1.0
176
     1
  0
VISUALSTYLE
  5
2E
102
{ACAD_REACTORS
330
29
102
}
330
29
100
AcDbVisualStyle
  2
Basic
 70
     7
177
     3
291
     1
 70
    58
 90
        1
176
     1
 90
        0
176
     1
 90
        1
176
     1
 90
        0
176
     1
 40
0.6
176
     1
 40
30.0
176
     1
 62
     7
420
 16777215
176
     1
 90
        0
176
     1
 90
        4
176
     1
 62
     7
176
     1
 62
   257
176
     1
 90
        1
176
     1
 90
        1
176
     1
 40
1.0
176
     1
 90
        8
176
     1
 62
     7
176
     1
 40
1.0
176
     1
 90
        1
176
     1
 90
        6
176
     1
 90
        2
176
     1
 62
     7
176
     1
 90
        5
176
     1
 90
        0
176
     1
 90
        0
176
     1
290
     0
176
     1
 90
        1
176
     1
 40
0.0
176
     1
 90
        0
176
     1
290
     0
176
     1
290
     1
176
     1
290
     1
176
     1
290
     0
176
     1
290
     0
176
     1
290
     0
176
     1
290
     0
176
     1
290
     0
176
     1
290
     0
176
     1
 90
       50
176
     1
 40
0.0
176
     1
 40
1.0
176
     1
 90
        0
176
     1
 62
    18
420
        0
176
     1
 90
       50
176
     1
 90
        3
176
     1
 62
     5
420
      255
176
     1
290
     0
176
     1
 90
       50
176
     1
 90
       50
176
     1
 90
       50
176
     1
290
     0
176
     1
 90
       50
176
     1
 62
   256
176
     0
 40
1.0
176
     0
 90
        2
176
     1
  1
strokes_ogs.tif
176
     1
290
     0
176
     1
 40
1.0
176
     1
 40
1.0
176
     1
  0
VISUALSTYLE
  5
35
102
{ACAD_REACTORS
330
29
102
}
330
29
100
AcDbVisualStyle
  2
Brighten
 70
    12
177
     3
291
     1
 70
    58
 90
        2
176
     1
 90
        2
176
     1
 90
        0
176
     1
 90
        0
176
     1
 40
0.6
176
     1
 40
30.0
176
     1
 62
     7
420
 16777215
176
     1
 90
        1
176
     1
 90
        4
176
     1
 62
     7
176
     1
 62
   257
176
     1
 90
        1
176
     1
 90
        1
176
     1
 40
1.0
176
     1
 90
        8
176
     1
 62
     7
176
     1
 40
1.0
176
     1
 90
        1
176
     1
 90
        6
176
     1
 90
        2
176
     1
 62
     7
176
     1
 90
        5
176
     1
 90
        0
176
     1
 90
        0
176
     1
290
     0
176
     1
 90
        1
176
     1
 40
50.0
176
     1
 90
        0
176
     1
290
     0
176
     1
290
     1
176
     1
290
     1
176
     1
290
     0
176
     1
290
     0
176
     1
290
     0
176
     1
290
     0
176
     1
290
     0
176
     1
290
     0
176
     1
 90
       50
176
     1
 40
0.0
176
     1
 40
1.0
176
     1
 90
        0
176
     1
 62
    18
420
        0
176
     1
 90
       50
176
     1
 90
        3
176
     1
 62
     5
420
      255
176
     1
290
     0
176
     1
 90
       50
176
     1
 90
       50
176
     1
 90
       50
176
     1
290
     0
176
     1
 90
       50
176
     1
 62
   256
176
     0
 40
1.0
176
     0
 90
        2
176
     1
  1
strokes_ogs.tif
176
     1
290
     0
176
     1
 40
1.0
176
     1
 40
1.0
176
     1
  0
VISUALSTYLE
  5
39
102
{ACAD_REACTORS
330
29
102
}
330
29
100
AcDbVisualStyle
  2
ColorChange
 70
    16
177
     3
291
     1
 70
    58
 90
        2
176
     1
 90
        2
176
     1
 90
        3
176
     1
 90
        0
176
     1
 40
0.6
176
     1
 40
30.0
176
     1
 62
     8
420
  8421504
176
     1
 90
        1
176
     1
 90
        4
176
     1
 62
     7
176
     1
 62
   257
176
     1
 90
        1
176
     1
 90
        1
176
     1
 40
1.0
176
     1
 90
        8
176
     1
 62
     8
420
  8421504
176
     1
 40
1.0
176
     1
 90
        1
176
     1
 90
        6
176
     1
 90
        2
176
     1
 62
     7
176
     1
 90
        5
176
     1
 90
        0
176
     1
 90
        0
176
     1
290
     0
176
     1
 90
        1
176
     1
 40
0.0
176
     1
 90
        0
176
     1
290
     0
176
     1
290
     1
176
     1
290
     1
176
     1
290
     0
176
     1
290
     0
176
     1
290
     0
176
     1
290
     0
176
     1
290
     0
176
     1
290
     0
176
     1
 90
       50
176
     1
 40
0.0
176
     1
 40
1.0
176
     1
 90
        0
176
     1
 62
    18
420
        0
176
     1
 90
       50
176
     1
 90
        3
176
     1
 62
     5
420
      255
176
     1
290
     0
176
     1
 90
       50
176
     1
 90
       50
176
     1
 90
       50
176
     1
290
     0
176
     1
 90
       50
176
     1
 62
   256
176
     0
 40
1.0
176
     0
 90
        2
176
     1
  1
strokes_ogs.tif
176
     1
290
     0
176
     1
 40
1.0
176
     1
 40
1.0
176
     1
  0
VISUALSTYLE
  5
32
102
{ACAD_REACTORS
330
29
102
}
330
29
100
AcDbVisualStyle
  2
Conceptual
 70
     9
177
     3
291
     0
 70
    58
 90
        3
176
     1
 90
        2
176
     1
 90
        0
176
     1
 90
        0
176
     1
 40
0.6
176
     1
 40
30.0
176
     1
 62
     7
420
 16777215
176
     1
 90
        2
176
     1
 90
        2
176
     1
 62
     7
176
     1
 62
   257
176
     1
 90
        1
176
     1
 90
        1
176
     1
 40
179.0
176
     1
 90
        8
176
     1
 62
     7
176
     1
 40
1.0
176
     1
 90
        1
176
     1
 90
        6
176
     1
 90
        2
176
     1
 62
     7
176
     1
 90
        3
176
     1
 90
        0
176
     1
 90
        0
176
     1
290
     0
176
     1
 90
        1
176
     1
 40
0.0
176
     1
 90
        0
176
     1
290
     0
176
     1
290
     1
176
     1
290
     1
176
     1
290
     0
176
     1
290
     0
176
     1
290
     0
176
     1
290
     0
176
     1
290
     0
176
     1
290
     0
176
     1
 90
       50
176
     1
 40
0.0
176
     1
 40
1.0
176
     1
 90
        0
176
     1
 62
    18
420
        0
176
     1
 90
       50
176
     1
 90
        3
176
     1
 62
     5
420
      255
176
     1
290
     0
176
     1
 90
       50
176
     1
 90
       50
176
     1
 90
       50
176
     1
290
     0
176
     1
 90
       50
176
     1
 62
   256
176
     0
 40
1.0
176
     0
 90
        2
176
     1
  1
strokes_ogs.tif
176
     1
290
     0
176
     1
 40
1.0
176
     1
 40
1.0
176
     1
  0
VISUALSTYLE
  5
34
102
{ACAD_REACTORS
330
29
102
}
330
29
100
AcDbVisualStyle
  2
Dim
 70
    11
177
     3
291
     1
 70
    58
 90
        2
176
     1
 90
        2
176
     1
 90
        0
176
     1
 90
        0
176
     1
 40
0.6
176
     1
 40
30.0
176
     1
 62
     7
420
 16777215
176
     1
 90
        1
176
     1
 90
        4
176
     1
 62
     7
176
     1
 62
   257
176
     1
 90
        1
176
     1
 90
        1
176
     1
 40
1.0
176
     1
 90
        8
176
     1
 62
     7
176
     1
 40
1.0
176
     1
 90
        1
176
     1
 90
        6
176
     1
 90
        2
176
     1
 62
     7
176
     1
 90
        5
176
     1
 90
        0
176
     1
 90
        0
176
     1
290
     0
176
     1
 90
        1
176
     1
 40
-50.0
176
     1
 90
        0
176
     1
290
     0
176
     1
290
     1
176
     1
290
     1
176
     1
290
     0
176
     1
290
     0
176
     1
290
     0
176
     1
290
     0
176
     1
290
     0
176
     1
290
     0
176
     1
 90
       50
176
     1
 40
0.0
176
     1
 40
1.0
176
     1
 90
        0
176
     1
 62
    18
420
        0
176
     1
 90
       50
176
     1
 90
        3
176
     1
 62
     5
420
      255
176
     1
290
     0
176
     1
 90
       50
176
     1
 90
       50
176
     1
 90
       50
176
     1
290
     0
176
     1
 90
       50
176
     1
 62
   256
176
     0
 40
1.0
176
     0
 90
        2
176
     1
  1
strokes_ogs.tif
176
     1
290
     0
176
     1
 40
1.0
176
     1
 40
1.0
176
     1
  0
VISUALSTYLE
  5
41
102
{ACAD_REACTORS
330
29
102
}
330
29
100
AcDbVisualStyle
  2
EdgeColorOff
 70
    22
177
     3
291
     1
 70
    58
 90
        2
176
     0
 90
        2
176
     0
 90
        0
176
     0
 90
        0
176
     0
 40
0.6
176
     0
 40
30.0
176
     0
 62
     7
420
 16777215
176
     0
 90
        1
176
     0
 90
        4
176
     0
 62
     7
176
     0
 62
   257
176
     0
 90
        1
176
     0
 90
        1
176
     0
 40
1.0
176
     0
 90
        8
176
     2
 62
     7
176
     0
 40
1.0
176
     0
 90
        1
176
     0
 90
        6
176
     0
 90
        2
176
     0
 62
     7
176
     0
 90
        5
176
     0
 90
        0
176
     0
 90
        0
176
     0
290
     0
176
     0
 90
        1
176
     0
 40
0.0
176
     0
 90
        0
176
     0
290
     0
176
     0
290
     1
176
     0
290
     1
176
     0
290
     0
176
     0
290
     0
176
     0
290
     0
176
     0
290
     0
176
     0
290
     0
176
     0
290
     0
176
     0
 90
       50
176
     0
 40
0.0
176
     0
 40
1.0
176
     0
 90
        0
176
     0
 62
    18
420
        0
176
     0
 90
       50
176
     0
 90
        3
176
     0
 62
     5
420
      255
176
     0
290
     0
176
     0
 90
       50
176
     0
 90
       50
176
     0
 90
       50
176
     0
290
     0
176
     0
 90
       50
176
     0
 62
   256
176
     0
 40
1.0
176
     0
 90
        2
176
     0
  1
strokes_ogs.tif
176
     0
290
     0
176
     0
 40
1.0
176
     0
 40
1.0
176
     0
  0
VISUALSTYLE
  5
38
102
{ACAD_REACTORS
330
29
102
}
330
29
100
AcDbVisualStyle
  2
Facepattern
 70
    15
177
     3
291
     1
 70
    58
 90
        2
176
     1
 90
        2
176
     1
 90
        0
176
     1
 90
        0
176
     1
 40
0.6
176
     1
 40
30.0
176
     1
 62
     7
420
 16777215
176
     1
 90
        1
176
     1
 90
        4
176
     1
 62
     7
176
     1
 62
   257
176
     1
 90
        1
176
     1
 90
        1
176
     1
 40
1.0
176
     1
 90
        8
176
     1
 62
     7
176
     1
 40
1.0
176
     1
 90
        1
176
     1
 90
        6
176
     1
 90
        2
176
     1
 62
     7
176
     1
 90
        5
176
     1
 90
        0
176
     1
 90
        0
176
     1
290
     0
176
     1
 90
        1
176
     1
 40
0.0
176
     1
 90
        0
176
     1
290
     0
176
     1
290
     1
176
     1
290
     1
176
     1
290
     0
176
     1
290
     0
176
     1
290
     0
176
     1
290
     0
176
     1
290
     0
176
     1
290
     0
176
     1
 90
       50
176
     1
 40
0.0
176
     1
 40
1.0
176
     1
 90
        0
176
     1
 62
    18
420
        0
176
     1
 90
       50
176
     1
 90
        3
176
     1
 62
     5
420
      255
176
     1
290
     0
176
     1
 90
       50
176
     1
 90
       50
176
     1
 90
       50
176
     1
290
     0
176
     1
 90
       50
176
     1
 62
   256
176
     0
 40
1.0
176
     0
 90
        2
176
     1
  1
strokes_ogs.tif
176
     1
290
     0
176
     1
 40
1.0
176
     1
 40
1.0
176
     1
  0
VISUALSTYLE
  5
2A
102
{ACAD_REACTORS
330
29
102
}
330
29
100
AcDbVisualStyle
  2
Flat
 70
     0
177
     3
291
     1
 70
    58
 90
        2
176
     1
 90
        1
176
     1
 90
        1
176
     1
 90
        2
176
     1
 40
0.6
176
     1
 40
30.0
176
     1
 62
     7
420
 16777215
176
     1
 90
        0
176
     1
 90
        0
176
     1
 62
     7
176
     1
 62
   257
176
     1
 90
        1
176
     1
 90
        1
176
     1
 40
1.0
176
     1
 90
        8
176
     1
 62
     7
176
     1
 40
1.0
176
     1
 90
        1
176
     1
 90
        6
176
     1
 90
        2
176
     1
 62
     7
176
     1
 90
        5
176
     1
 90
        0
176
     1
 90
        0
176
     1
290
     0
176
     1
 90
       13
176
     1
 40
0.0
176
     1
 90
        0
176
     1
290
     0
176
     1
290
     1
176
     1
290
     1
176
     1
290
     0
176
     1
290
     0
176
     1
290
     0
176
     1
290
     0
176
     1
290
     0
176
     1
290
     0
176
     1
 90
       50
176
     1
 40
0.0
176
     1
 40
1.0
176
     1
 90
        0
176
     1
 62
    18
420
        0
176
     1
 90
       50
176
     1
 90
        3
176
     1
 62
     5
420
      255
176
     1
290
     0
176
     1
 90
       50
176
     1
 90
       50
176
     1
 90
       50
176
     1
290
     0
176
     1
 90
       50
176
     1
 62
   256
176
     0
 40
1.0
176
     0
 90
        2
176
     1
  1
strokes_ogs.tif
176
     1
290
     0
176
     1
 40
1.0
176
     1
 40
1.0
176
     1
  0
VISUALSTYLE
  5
2B
102
{ACAD_REACTORS
330
29
102
}
330
29
100
AcDbVisualStyle
  2
FlatWithEdges
 70
     1
177
     3
291
     1
 70
    58
 90
        2
176
     1
 90
        1
176
     1
 90
        1
176
     1
 90
        2
176
     1
 40
0.6
176
     1
 40
30.0
176
     1
 62
     7
420
 16777215
176
     1
 90
        1
176
     1
 90
        0
176
     1
 62
     7
176
     1
 62
   257
176
     1
 90
        1
176
     1
 90
        1
176
     1
 40
1.0
176
     1
 90
        0
176
     1
 62
   257
176
     1
 40
1.0
176
     1
 90
        1
176
     1
 90
        6
176
     1
 90
        2
176
     1
 62
     7
176
     1
 90
        5
176
     1
 90
        0
176
     1
 90
        0
176
     1
290
     0
176
     1
 90
       13
176
     1
 40
0.0
176
     1
 90
        0
176
     1
290
     0
176
     1
290
     1
176
     1
290
     1
176
     1
290
     0
176
     1
290
     0
176
     1
290
     0
176
     1
290
     0
176
     1
290
     0
176
     1
290
     0
176
     1
 90
       50
176
     1
 40
0.0
176
     1
 40
1.0
176
     1
 90
        0
176
     1
 62
    18
420
        0
176
     1
 90
       50
176
     1
 90
        3
176
     1
 62
     5
420
      255
176
     1
290
     0
176
     1
 90
       50
176
     1
 90
       50
176
     1
 90
       50
176
     1
290
     0
176
     1
 90
       50
176
     1
 62
   256
176
     0
 40
1.0
176
     0
 90
        2
176
     1
  1
strokes_ogs.tif
176
     1
290
     0
176
     1
 40
1.0
176
     1
 40
1.0
176
     1
  0
VISUALSTYLE
  5
2C
102
{ACAD_REACTORS
330
29
102
}
330
29
100
AcDbVisualStyle
  2
Gouraud
 70
     2
177
     3
291
     1
 70
    58
 90
        2
176
     1
 90
        2
176
     1
 90
        1
176
     1
 90
        2
176
     1
 40
0.6
176
     1
 40
30.0
176
     1
 62
     7
420
 16777215
176
     1
 90
        0
176
     1
 90
        0
176
     1
 62
     7
176
     1
 62
   257
176
     1
 90
        1
176
     1
 90
        1
176
     1
 40
1.0
176
     1
 90
        0
176
     1
 62
     7
176
     1
 40
1.0
176
     1
 90
        1
176
     1
 90
        6
176
     1
 90
        2
176
     1
 62
     7
176
     1
 90
        5
176
     1
 90
        0
176
     1
 90
        0
176
     1
290
     0
176
     1
 90
       13
176
     1
 40
0.0
176
     1
 90
        0
176
     1
290
     0
176
     1
290
     1
176
     1
290
     1
176
     1
290
     0
176
     1
290
     0
176
     1
290
     0
176
     1
290
     0
176
     1
290
     0
176
     1
290
     0
176
     1
 90
       50
176
     1
 40
0.0
176
     1
 40
1.0
176
     1
 90
        0
176
     1
 62
    18
420
        0
176
     1
 90
       50
176
     1
 90
        3
176
     1
 62
     5
420
      255
176
     1
290
     0
176
     1
 90
       50
176
     1
 90
       50
176
     1
 90
       50
176
     1
290
     0
176
     1
 90
       50
176
     1
 62
   256
176
     0
 40
1.0
176
     0
 90
        2
176
     1
  1
strokes_ogs.tif
176
     1
290
     0
176
     1
 40
1.0
176
     1
 40
1.0
176
     1
  0
VISUALSTYLE
  5
2D
102
{ACAD_REACTORS
330
29
102
}
330
29
100
AcDbVisualStyle
  2
GouraudWithEdges
 70
     3
177
     3
291
     1
 70
    58
 90
        2
176
     1
 90
        2
176
     1
 90
        1
176
     1
 90
        2
176
     1
 40
0.6
176
     1
 40
30.0
176
     1
 62
     7
420
 16777215
176
     1
 90
        1
176
     1
 90
        0
176
     1
 62
     7
176
     1
 62
   257
176
     1
 90
        1
176
     1
 90
        1
176
     1
 40
1.0
176
     1
 90
        0
176
     1
 62
   257
176
     1
 40
1.0
176
     1
 90
        1
176
     1
 90
        6
176
     1
 90
        2
176
     1
 62
     7
176
     1
 90
        5
176
     1
 90
        0
176
     1
 90
        0
176
     1
290
     0
176
     1
 90
       13
176
     1
 40
0.0
176
     1
 90
        0
176
     1
290
     0
176
     1
290
     1
176
     1
290
     1
176
     1
290
     0
176
     1
290
     0
176
     1
290
     0
176
     1
290
     0
176
     1
290
     0
176
     1
290
     0
176
     1
 90
       50
176
     1
 40
0.0
176
     1
 40
1.0
176
     1
 90
        0
176
     1
 62
    18
420
        0
176
     1
 90
       50
176
     1
 90
        3
176
     1
 62
     5
420
      255
176
     1
290
     0
176
     1
 90
       50
176
     1
 90
       50
176
     1
 90
       50
176
     1
290
     0
176
     1
 90
       50
176
     1
 62
   256
176
     0
 40
1.0
176
     0
 90
        2
176
     1
  1
strokes_ogs.tif
176
     1
290
     0
176
     1
 40
1.0
176
     1
 40
1.0
176
     1
  0
VISUALSTYLE
  5
31
102
{ACAD_REACTORS
330
29
102
}
330
29
100
AcDbVisualStyle
  2
Hidden
 70
     6
177
     3
291
     0
 70
    58
 90
        1
176
     1
 90
        2
176
     1
 90
        2
176
     1
 90
        0
176
     1
 40
0.6
176
     1
 40
30.0
176
     1
 62
     7
420
 16777215
176
     1
 90
        2
176
     1
 90
        2
176
     1
 62
     7
176
     1
 62
   257
176
     1
 90
        2
176
     1
 90
        1
176
     1
 40
40.0
176
     1
 90
        0
176
     1
 62
   257
176
     1
 40
1.0
176
     1
 90
        1
176
     1
 90
        6
176
     1
 90
        2
176
     1
 62
     7
176
     1
 90
        3
176
     1
 90
        0
176
     1
 90
        0
176
     1
290
     0
176
     1
 90
        1
176
     1
 40
0.0
176
     1
 90
        0
176
     1
290
     0
176
     1
290
     1
176
     1
290
     1
176
     1
290
     0
176
     1
290
     0
176
     1
290
     0
176
     1
290
     0
176
     1
290
     0
176
     1
290
     0
176
     1
 90
       50
176
     1
 40
0.0
176
     1
 40
1.0
176
     1
 90
        0
176
     1
 62
    18
420
        0
176
     1
 90
       50
176
     1
 90
        3
176
     1
 62
     5
420
      255
176
     1
290
     0
176
     1
 90
       50
176
     1
 90
       50
176
     1
 90
       50
176
     1
290
     0
176
     1
 90
       50
176
     1
 62
   256
176
     0
 40
1.0
176
     0
 90
        2
176
     1
  1
strokes_ogs.tif
176
     1
290
     0
176
     1
 40
1.0
176
     1
 40
1.0
176
     1
  0
VISUALSTYLE
  5
3F
102
{ACAD_REACTORS
330
29
102
}
330
29
100
AcDbVisualStyle
  2
JitterOff
 70
    20
177
     3
291
     1
 70
    58
 90
        2
176
     0
 90
        2
176
     0
 90
        0
176
     0
 90
        0
176
     0
 40
0.6
176
     0
 40
30.0
176
     0
 62
     7
420
 16777215
176
     0
 90
        1
176
     0
 90
        4
176
     0
 62
     7
176
     0
 62
   257
176
     0
 90
        1
176
     0
 90
        1
176
     0
 40
1.0
176
     0
 90
       10
176
     2
 62
     7
176
     0
 40
1.0
176
     0
 90
        1
176
     0
 90
        6
176
     0
 90
        2
176
     0
 62
     7
176
     0
 90
        5
176
     0
 90
        0
176
     0
 90
        0
176
     0
290
     0
176
     0
 90
        1
176
     0
 40
0.0
176
     0
 90
        0
176
     0
290
     0
176
     0
290
     1
176
     0
290
     1
176
     0
290
     0
176
     0
290
     0
176
     0
290
     0
176
     0
290
     0
176
     0
290
     0
176
     0
290
     0
176
     0
 90
       50
176
     0
 40
0.0
176
     0
 40
1.0
176
     0
 90
        0
176
     0
 62
    18
420
        0
176
     0
 90
       50
176
     0
 90
        3
176
     0
 62
     5
420
      255
176
     0
290
     0
176
     0
 90
       50
176
     0
 90
       50
176
     0
 90
       50
176
     0
290
     0
176
     0
 90
       50
176
     0
 62
   256
176
     0
 40
1.0
176
     0
 90
        2
176
     0
  1
strokes_ogs.tif
176
     0
290
     0
176
     0
 40
1.0
176
     0
 40
1.0
176
     0
  0
VISUALSTYLE
  5
37
102
{ACAD_REACTORS
330
29
102
}
330
29
100
AcDbVisualStyle
  2
Linepattern
 70
    14
177
     3
291
     1
 70
    58
 90
        2
176
     1
 90
        2
176
     1
 90
        0
176
     1
 90
        0
176
     1
 40
0.6
176
     1
 40
30.0
176
     1
 62
     7
420
 16777215
176
     1
 90
        1
176
     1
 90
        4
176
     1
 62
     7
176
     1
 62
   257
176
     1
 90
        7
176
     1
 90
        7
176
     1
 40
1.0
176
     1
 90
        8
176
     1
 62
     7
176
     1
 40
1.0
176
     1
 90
        1
176
     1
 90
        6
176
     1
 90
        2
176
     1
 62
     7
176
     1
 90
        5
176
     1
 90
        0
176
     1
 90
        0
176
     1
290
     0
176
     1
 90
        1
176
     1
 40
0.0
176
     1
 90
        0
176
     1
290
     0
176
     1
290
     1
176
     1
290
     1
176
     1
290
     0
176
     1
290
     0
176
     1
290
     0
176
     1
290
     0
176
     1
290
     0
176
     1
290
     0
176
     1
 90
       50
176
     1
 40
0.0
176
     1
 40
1.0
176
     1
 90
        0
176
     1
 62
    18
420
        0
176
     1
 90
       50
176
     1
 90
        3
176
     1
 62
     5
420
      255
176
     1
290
     0
176
     1
 90
       50
176
     1
 90
       50
176
     1
 90
       50
176
     1
290
     0
176
     1
 90
       50
176
     1
 62
   256
176
     0
 40
1.0
176
     0
 90
        2
176
     1
  1
strokes_ogs.tif
176
     1
290
     0
176
     1
 40
1.0
176
     1
 40
1.0
176
     1
  0
VISUALSTYLE
  5
40
102
{ACAD_REACTORS
330
29
102
}
330
29
100
AcDbVisualStyle
  2
OverhangOff
 70
    21
177
     3
291
     1
 70
    58
 90
        2
176
     0
 90
        2
176
     0
 90
        0
176
     0
 90
        0
176
     0
 40
0.6
176
     0
 40
30.0
176
     0
 62
     7
420
 16777215
176
     0
 90
        1
176
     0
 90
        4
176
     0
 62
     7
176
     0
 62
   257
176
     0
 90
        1
176
     0
 90
        1
176
     0
 40
1.0
176
     0
 90
        9
176
     2
 62
     7
176
     0
 40
1.0
176
     0
 90
        1
176
     0
 90
        6
176
     0
 90
        2
176
     0
 62
     7
176
     0
 90
        5
176
     0
 90
        0
176
     0
 90
        0
176
     0
290
     0
176
     0
 90
        1
176
     0
 40
0.0
176
     0
 90
        0
176
     0
290
     0
176
     0
290
     1
176
     0
290
     1
176
     0
290
     0
176
     0
290
     0
176
     0
290
     0
176
     0
290
     0
176
     0
290
     0
176
     0
290
     0
176
     0
 90
       50
176
     0
 40
0.0
176
     0
 40
1.0
176
     0
 90
        0
176
     0
 62
    18
420
        0
176
     0
 90
       50
176
     0
 90
        3
176
     0
 62
     5
420
      255
176
     0
290
     0
176
     0
 90
       50
176
     0
 90
       50
176
     0
 90
       50
176
     0
290
     0
176
     0
 90
       50
176
     0
 62
   256
176
     0
 40
1.0
176
     0
 90
        2
176
     0
  1
strokes_ogs.tif
176
     0
290
     0
176
     0
 40
1.0
176
     0
 40
1.0
176
     0
  0
VISUALSTYLE
  5
33
102
{ACAD_REACTORS
330
29
102
}
330
29
100
AcDbVisualStyle
  2
Realistic
 70
     8
177
     3
291
     0
 70
    58
 90
        2
176
     1
 90
        3
176
     1
 90
        0
176
     1
 90
        2
176
     1
 40
0.6
176
     1
 40
30.0
176
     1
 62
     7
420
 16777215
176
     1
 90
        0
176
     1
 90
        0
176
     1
 62
     7
176
     1
 62
   257
176
     1
 90
        1
176
     1
 90
        1
176
     1
 40
1.0
176
     1
 90
        8
176
     1
 62
   257
176
     1
 40
1.0
176
     1
 90
        1
176
     1
 90
        6
176
     1
 90
        2
176
     1
 62
     7
176
     1
 90
        3
176
     1
 90
        0
176
     1
 90
        0
176
     1
290
     0
176
     1
 90
       13
176
     1
 40
0.0
176
     1
 90
        0
176
     1
290
     0
176
     1
290
     1
176
     1
290
     1
176
     1
290
     0
176
     1
290
     0
176
     1
290
     0
176
     1
290
     0
176
     1
290
     0
176
     1
290
     0
176
     1
 90
       50
176
     1
 40
0.0
176
     1
 40
1.0
176
     1
 90
        0
176
     1
 62
    18
420
        0
176
     1
 90
       50
176
     1
 90
        3
176
     1
 62
     5
420
      255
176
     1
290
     0
176
     1
 90
       50
176
     1
 90
       50
176
     1
 90
       50
176
     1
290
     0
176
     1
 90
       50
176
     1
 62
   256
176
     0
 40
1.0
176
     0
 90
        2
176
     1
  1
strokes_ogs.tif
176
     1
290
     0
176
     1
 40
1.0
176
     1
 40
1.0
176
     1
  0
VISUALSTYLE
  5
3E
102
{ACAD_REACTORS
330
29
102
}
330
29
100
AcDbVisualStyle
  2
Shaded
 70
    27
177
     3
291
     0
 70
    58
 90
        2
176
     1
 90
        2
176
     1
 90
        1
176
     1
 90
        2
176
     1
 40
0.6
176
     1
 40
30.0
176
     1
 62
     7
420
 16777215
176
     1
 90
        0
176
     1
 90
        4
176
     1
 62
     7
176
     1
 62
   257
176
     1
 90
        1
176
     1
 90
        1
176
     1
 40
1.0
176
     1
 90
        8
176
     1
 62
   257
176
     1
 40
1.0
176
     1
 90
        1
176
     1
 90
        6
176
     1
 90
        2
176
     1
 62
     8
420
  7895160
176
     1
 90
        3
176
     1
 90
        0
176
     1
 90
        0
176
     1
290
     0
176
     1
 90
        5
176
     1
 40
0.0
176
     1
 90
        0
176
     1
290
     0
176
     1
290
     1
176
     1
290
     1
176
     1
290
     0
176
     1
290
     0
176
     1
290
     0
176
     1
290
     0
176
     1
290
     0
176
     1
290
     0
176
     1
 90
       50
176
     1
 40
0.0
176
     1
 40
1.0
176
     1
 90
        0
176
     1
 62
    18
420
        0
176
     1
 90
       50
176
     1
 90
        3
176
     1
 62
     5
420
      255
176
     1
290
     0
176
     1
 90
       50
176
     1
 90
       50
176
     1
 90
       50
176
     1
290
     0
176
     1
 90
       50
176
     1
 62
   256
176
     0
 40
1.0
176
     0
 90
        2
176
     1
  1
strokes_ogs.tif
176
     1
290
     0
176
     1
 40
1.0
176
     1
 40
1.0
176
     1
  0
VISUALSTYLE
  5
3D
102
{ACAD_REACTORS
330
29
102
}
330
29
100
AcDbVisualStyle
  2
Shaded with edges
 70
    26
177
     3
291
     0
 70
    58
 90
        2
176
     1
 90
        2
176
     1
 90
        1
176
     1
 90
        2
176
     1
 40
0.6
176
     1
 40
30.0
176
     1
 62
     7
420
 16777215
176
     1
 90
        1
176
     1
 90
        2
176
     1
 62
     7
176
     1
 62
   257
176
     1
 90
        2
176
     1
 90
        1
176
     1
 40
1.0
176
     1
 90
        8
176
     1
 62
   257
176
     1
 40
1.0
176
     1
 90
        1
176
     1
 90
        6
176
     1
 90
        2
176
     1
 62
     7
176
     1
 90
        3
176
     1
 90
        0
176
     1
 90
        0
176
     1
290
     0
176
     1
 90
        5
176
     1
 40
0.0
176
     1
 90
        0
176
     1
290
     0
176
     1
290
     1
176
     1
290
     1
176
     1
290
     0
176
     1
290
     0
176
     1
290
     0
176
     1
290
     0
176
     1
290
     0
176
     1
290
     0
176
     1
 90
       50
176
     1
 40
0.0
176
     1
 40
1.0
176
     1
 90
        0
176
     1
 62
    18
420
        0
176
     1
 90
       50
176
     1
 90
        3
176
     1
 62
     5
420
      255
176
     1
290
     0
176
     1
 90
       50
176
     1
 90
       50
176
     1
 90
       50
176
     1
290
     0
176
     1
 90
       50
176
     1
 62
   256
176
     0
 40
1.0
176
     0
 90
        2
176
     1
  1
strokes_ogs.tif
176
     1
290
     0
176
     1
 40
1.0
176
     1
 40
1.0
176
     1
  0
VISUALSTYLE
  5
3A
102
{ACAD_REACTORS
330
29
102
}
330
29
100
AcDbVisualStyle
  2
Shades of Gray
 70
    23
177
     3
291
     0
 70
    58
 90
        2
176
     1
 90
        2
176
     1
 90
        3
176
     1
 90
        0
176
     1
 40
0.6
176
     1
 40
30.0
176
     1
 62
     7
420
 16777215
176
     1
 90
        2
176
     1
 90
        2
176
     1
 62
     7
176
     1
 62
     7
176
     1
 90
        1
176
     1
 90
        1
176
     1
 40
40.0
176
     1
 90
        8
176
     1
 62
     7
176
     1
 40
1.0
176
     1
 90
        1
176
     1
 90
        6
176
     1
 90
        2
176
     1
 62
     7
176
     1
 90
        3
176
     1
 90
        0
176
     1
 90
        0
176
     1
290
     0
176
     1
 90
        1
176
     1
 40
0.0
176
     1
 90
        0
176
     1
290
     0
176
     1
290
     1
176
     1
290
     1
176
     1
290
     0
176
     1
290
     0
176
     1
290
     0
176
     1
290
     0
176
     1
290
     0
176
     1
290
     0
176
     1
 90
       50
176
     1
 40
0.0
176
     1
 40
1.0
176
     1
 90
        0
176
     1
 62
    18
420
        0
176
     1
 90
       50
176
     1
 90
        3
176
     1
 62
     5
420
      255
176
     1
290
     0
176
     1
 90
       50
176
     1
 90
       50
176
     1
 90
       50
176
     1
290
     0
176
     1
 90
       50
176
     1
 62
   256
176
     0
 40
1.0
176
     0
 90
        2
176
     1
  1
strokes_ogs.tif
176
     1
290
     0
176
     1
 40
1.0
176
     1
 40
1.0
176
     1
  0
VISUALSTYLE
  5
3B
102
{ACAD_REACTORS
330
29
102
}
330
29
100
AcDbVisualStyle
  2
Sketchy
 70
    24
177
     3
291
     0
 70
    58
 90
        1
176
     1
 90
        2
176
     1
 90
        2
176
     1
 90
        0
176
     1
 40
0.6
176
     1
 40
30.0
176
     1
 62
     7
420
 16777215
176
     1
 90
        2
176
     1
 90
        2
176
     1
 62
     7
176
     1
 62
     7
176
     1
 90
        1
176
     1
 90
        1
176
     1
 40
40.0
176
     1
 90
       11
176
     1
 62
     7
176
     1
 40
1.0
176
     1
 90
        1
176
     1
 90
        6
176
     1
 90
        2
176
     1
 62
     7
176
     1
 90
        6
176
     1
 90
        0
176
     1
 90
        0
176
     1
290
     0
176
     1
 90
        1
176
     1
 40
0.0
176
     1
 90
        0
176
     1
290
     0
176
     1
290
     1
176
     1
290
     1
176
     1
290
     0
176
     1
290
     0
176
     1
290
     0
176
     1
290
     0
176
     1
290
     0
176
     1
290
     0
176
     1
 90
       50
176
     1
 40
0.0
176
     1
 40
1.0
176
     1
 90
        0
176
     1
 62
    18
420
        0
176
     1
 90
       50
176
     1
 90
        3
176
     1
 62
     5
420
      255
176
     1
290
     0
176
     1
 90
       50
176
     1
 90
       50
176
     1
 90
       50
176
     1
290
     0
176
     1
 90
       50
176
     1
 62
   256
176
     0
 40
1.0
176
     0
 90
        2
176
     1
  1
strokes_ogs.tif
176
     1
290
     0
176
     1
 40
1.0
176
     1
 40
1.0
176
     1
  0
VISUALSTYLE
  5
36
102
{ACAD_REACTORS
330
29
102
}
330
29
100
AcDbVisualStyle
  2
Thicken
 70
    13
177
     3
291
     1
 70
    58
 90
        2
176
     1
 90
        2
176
     1
 90
        0
176
     1
 90
        0
176
     1
 40
0.6
176
     1
 40
30.0
176
     1
 62
     7
420
 16777215
176
     1
 90
        1
176
     1
 90
        4
176
     1
 62
     7
176
     1
 62
   257
176
     1
 90
        1
176
     1
 90
        1
176
     1
 40
1.0
176
     1
 90
       12
176
     1
 62
     7
176
     1
 40
1.0
176
     1
 90
        1
176
     1
 90
        6
176
     1
 90
        2
176
     1
 62
     7
176
     1
 90
        5
176
     1
 90
        0
176
     1
 90
        0
176
     1
290
     0
176
     1
 90
        1
176
     1
 40
0.0
176
     1
 90
        0
176
     1
290
     0
176
     1
290
     1
176
     1
290
     1
176
     1
290
     0
176
     1
290
     0
176
     1
290
     0
176
     1
290
     0
176
     1
290
     0
176
     1
290
     0
176
     1
 90
       50
176
     1
 40
0.0
176
     1
 40
1.0
176
     1
 90
        0
176
     1
 62
    18
420
        0
176
     1
 90
       50
176
     1
 90
        3
176
     1
 62
     5
420
      255
176
     1
290
     0
176
     1
 90
       50
176
     1
 90
       50
176
     1
 90
       50
176
     1
290
     0
176
     1
 90
       50
176
     1
 62
   256
176
     0
 40
1.0
176
     0
 90
        2
176
     1
  1
strokes_ogs.tif
176
     1
290
     0
176
     1
 40
1.0
176
     1
 40
1.0
176
     1
  0
VISUALSTYLE
  5
30
102
{ACAD_REACTORS
330
29
102
}
330
29
100
AcDbVisualStyle
  2
Wireframe
 70
     5
177
     3
291
     0
 70
    58
 90
        0
176
     1
 90
        2
176
     1
 90
        0
176
     1
 90
        0
176
     1
 40
0.6
176
     1
 40
30.0
176
     1
 62
     7
420
 16777215
176
     1
 90
        1
176
     1
 90
        4
176
     1
 62
     7
176
     1
 62
   257
176
     1
 90
        1
176
     1
 90
        1
176
     1
 40
1.0
176
     1
 90
        0
176
     1
 62
   257
176
     1
 40
1.0
176
     1
 90
        1
176
     1
 90
        6
176
     1
 90
        2
176
     1
 62
     7
176
     1
 90
        3
176
     1
 90
        0
176
     1
 90
        0
176
     1
290
     0
176
     1
 90
        1
176
     1
 40
0.0
176
     1
 90
        0
176
     1
290
     0
176
     1
290
     1
176
     1
290
     1
176
     1
290
     0
176
     1
290
     0
176
     1
290
     0
176
     1
290
     0
176
     1
290
     0
176
     1
290
     0
176
     1
 90
       50
176
     1
 40
0.0
176
     1
 40
1.0
176
     1
 90
        0
176
     1
 62
    18
420
        0
176
     1
 90
       50
176
     1
 90
        3
176
     1
 62
     5
420
      255
176
     1
290
     0
176
     1
 90
       50
176
     1
 90
       50
176
     1
 90
       50
176
     1
290
     0
176
     1
 90
       50
176
     1
 62
   256
176
     0
 40
1.0
176
     0
 90
        2
176
     1
  1
strokes_ogs.tif
176
     1
290
     0
176
     1
 40
1.0
176
     1
 40
1.0
176
     1
  0
VISUALSTYLE
  5
3C
102
{ACAD_REACTORS
330
29
102
}
330
29
100
AcDbVisualStyle
  2
X-Ray
 70
    25
177
     3
291
     0
 70
    58
 90
        2
176
     1
 90
        2
176
     1
 90
        1
176
     1
 90
        1
176
     1
 40
0.5
176
     1
 40
30.0
176
     1
 62
     7
420
 16777215
176
     1
 90
        1
176
     1
 90
        0
176
     1
 62
     7
176
     1
 62
   257
176
     1
 90
        1
176
     1
 90
        1
176
     1
 40
1.0
176
     1
 90
        8
176
     1
 62
     7
176
     1
 40
1.0
176
     1
 90
        1
176
     1
 90
        6
176
     1
 90
        2
176
     1
 62
     7
176
     1
 90
        3
176
     1
 90
        0
176
     1
 90
        0
176
     1
290
     0
176
     1
 90
       13
176
     1
 40
0.0
176
     1
 90
        0
176
     1
290
     0
176
     1
290
     1
176
     1
290
     1
176
     1
290
     0
176
     1
290
     0
176
     1
290
     0
176
     1
290
     0
176
     1
290
     0
176
     1
290
     0
176
     1
 90
       50
176
     1
 40
0.0
176
     1
 40
1.0
176
     1
 90
        0
176
     1
 62
    18
420
        0
176
     1
 90
       50
176
     1
 90
        3
176
     1
 62
     5
420
      255
176
     1
290
     0
176
     1
 90
       50
176
     1
 90
       50
176
     1
 90
       50
176
     1
290
     0
176
     1
 90
       50
176
     1
 62
   256
176
     0
 40
1.0
176
     0
 90
        2
176
     1
  1
strokes_ogs.tif
176
     1
290
     0
176
     1
 40
1.0
176
     1
 40
1.0
176
     1
  0
DICTIONARYVAR
  5
1CA
102
{ACAD_REACTORS
330
1C5
102
}
330
1C5
100
DictionaryVariables
280
     0
  1
1:1
  0
DICTIONARYVAR
  5
1C7
102
{ACAD_REACTORS
330
1C5
102
}
330
1C5
100
DictionaryVariables
280
     0
  1
STANDARD
  0
DICTIONARYVAR
  5
1C6
102
{ACAD_REACTORS
330
1C5
102
}
330
1C5
100
DictionaryVariables
280
     0
  1
STANDARD
  0
DICTIONARYVAR
  5
1C8
102
{ACAD_REACTORS
330
1C5
102
}
330
1C5
100
DictionaryVariables
280
     0
  1
Imperial24
  0
DICTIONARYVAR
  5
1C9
102
{ACAD_REACTORS
330
1C5
102
}
330
1C5
100
DictionaryVariables
280
     0
  1
Imperial24
  0
DICTIONARY
  5
1A
330
19
100
AcDbDictionary
280
     1
281
     1
  3
BUMPTILE
360
1C
  3
DIFFUSETILE
360
1B
  3
OPACITYTILE
360
1F
  3
REFLECTIONTILE
360
1E
  3
REFRACTIONTILE
360
20
  3
SPECULARTILE
360
1D
  0
DICTIONARY
  5
12
330
11
100
AcDbDictionary
280
     1
281
     1
  3
BUMPTILE
360
14
  3
DIFFUSETILE
360
13
  3
OPACITYTILE
360
17
  3
REFLECTIONTILE
360
16
  3
REFRACTIONTILE
360
18
  3
SPECULARTILE
360
15
  0
DICTIONARY
  5
22
330
21
100
AcDbDictionary
280
     1
281
     1
  3
BUMPTILE
360
24
  3
DIFFUSETILE
360
23
  3
OPACITYTILE
360
27
  3
REFLECTIONTILE
360
26
  3
REFRACTIONTILE
360
28
  3
SPECULARTILE
360
25
  0
DICTIONARY
  5
1CB
330
65
100
AcDbDictionary
280
     1
281
     1
  3
ACAD_ROUNDTRIP_2008_TABLESTYLE_CELLSTYLEMAP
360
1CC
  0
XRECORD
  5
1C
102
{ACAD_REACTORS
330
1A
102
}
330
1A
100
AcDbXrecord
280
     1
270
     1
271
     1
  0
XRECORD
  5
1B
102
{ACAD_REACTORS
330
1A
102
}
330
1A
100
AcDbXrecord
280
     1
270
     1
271
     1
  0
XRECORD
  5
1F
102
{ACAD_REACTORS
330
1A
102
}
330
1A
100
AcDbXrecord
280
     1
270
     1
271
     1
  0
XRECORD
  5
1E
102
{ACAD_REACTORS
330
1A
102
}
330
1A
100
AcDbXrecord
280
     1
270
     1
271
     1
  0
XRECORD
  5
20
102
{ACAD_REACTORS
330
1A
102
}
330
1A
100
AcDbXrecord
280
     1
270
     1
271
     1
  0
XRECORD
  5
1D
102
{ACAD_REACTORS
330
1A
102
}
330
1A
100
AcDbXrecord
280
     1
270
     1
271
     1
  0
XRECORD
  5
14
102
{ACAD_REACTORS
330
12
102
}
330
12
100
AcDbXrecord
280
     1
270
     1
271
     1
  0
XRECORD
  5
13
102
{ACAD_REACTORS
330
12
102
}
330
12
100
AcDbXrecord
280
     1
270
     1
271
     1
  0
XRECORD
  5
17
102
{ACAD_REACTORS
330
12
102
}
330
12
100
AcDbXrecord
280
     1
270
     1
271
     1
  0
XRECORD
  5
16
102
{ACAD_REACTORS
330
12
102
}
330
12
100
AcDbXrecord
280
     1
270
     1
271
     1
  0
XRECORD
  5
18
102
{ACAD_REACTORS
330
12
102
}
330
12
100
AcDbXrecord
280
     1
270
     1
271
     1
  0
XRECORD
  5
15
102
{ACAD_REACTORS
330
12
102
}
330
12
100
AcDbXrecord
280
     1
270
     1
271
     1
  0
XRECORD
  5
24
102
{ACAD_REACTORS
330
22
102
}
330
22
100
AcDbXrecord
280
     1
270
     1
271
     1
  0
XRECORD
  5
23
102
{ACAD_REACTORS
330
22
102
}
330
22
100
AcDbXrecord
280
     1
270
     1
271
     1
  0
XRECORD
  5
27
102
{ACAD_REACTORS
330
22
102
}
330
22
100
AcDbXrecord
280
     1
270
     1
271
     1
  0
XRECORD
  5
26
102
{ACAD_REACTORS
330
22
102
}
330
22
100
AcDbXrecord
280
     1
270
     1
271
     1
  0
XRECORD
  5
28
102
{ACAD_REACTORS
330
22
102
}
330
22
100
AcDbXrecord
280
     1
270
     1
271
     1
  0
XRECORD
  5
25
102
{ACAD_REACTORS
330
22
102
}
330
22
100
AcDbXrecord
280
     1
270
     1
271
     1
  0
CELLSTYLEMAP
  5
1CC
102
{ACAD_REACTORS
330
1CB
102
}
330
1CB
100
AcDbCellStyleMap
 90
        3
300
CELLSTYLE
  1
TABLEFORMAT_BEGIN
 90
        5
170
     1
 91
        0
 92
    32768
 62
   257
 93
        1
300
CONTENTFORMAT
  1
CONTENTFORMAT_BEGIN
 90
        0
 91
        0
 92
      512
 93
        0
300

 40
0.0
140
1.0
 94
        5
 62
     0
340
55
144
0.25
309
CONTENTFORMAT_END
171
     0
 94
        0
309
TABLEFORMAT_END
  1
CELLSTYLE_BEGIN
 90
        1
 91
        1
300
_TITLE
309
CELLSTYLE_END
300
CELLSTYLE
  1
TABLEFORMAT_BEGIN
 90
        5
170
     1
 91
        0
 92
        0
 62
   257
 93
        1
300
CONTENTFORMAT
  1
CONTENTFORMAT_BEGIN
 90
        0
 91
        0
 92
      512
 93
        0
300

 40
0.0
140
1.0
 94
        5
 62
     0
340
55
144
0.18
309
CONTENTFORMAT_END
171
     0
 94
        0
309
TABLEFORMAT_END
  1
CELLSTYLE_BEGIN
 90
        2
 91
        1
300
_HEADER
309
CELLSTYLE_END
300
CELLSTYLE
  1
TABLEFORMAT_BEGIN
 90
        5
170
     1
 91
        0
 92
        0
 62
   257
 93
        1
300
CONTENTFORMAT
  1
CONTENTFORMAT_BEGIN
 90
        0
 91
        0
 92
      512
 93
        0
300

 40
0.0
140
1.0
 94
        2
 62
     0
340
55
144
0.18
309
CONTENTFORMAT_END
171
     0
 94
        0
309
TABLEFORMAT_END
  1
CELLSTYLE_BEGIN
 90
        3
 91
        2
300
_DATA
309
CELLSTYLE_END
  0
ENDSEC
  0
EOF
