  0
SECTION
  2
HEADER
  9
$ACADVER
  1
AC1032
  9
$ACADMAINTVER
 90
      251
  9
$DWGCODEPAGE
  3
ANSI_1252
  9
$REQUIREDVERSIONS
160
                 0
  9
$INSBASE
 10
0.0
 20
0.0
 30
0.0
  9
$EXTMIN
 10
1.000000000000000E+20
 20
1.000000000000000E+20
 30
1.000000000000000E+20
  9
$EXTMAX
 10
-1.000000000000000E+20
 20
-1.000000000000000E+20
 30
-1.000000000000000E+20
  9
$LIMMIN
 10
0.0
 20
0.0
  9
$LIMMAX
 10
12.0
 20
9.0
  9
$ORTHOMODE
 70
     0
  9
$REGENMODE
 70
     1
  9
$FILLMODE
 70
     1
  9
$QTEXTMODE
 70
     0
  9
$MIRRTEXT
 70
     0
  9
$LTSCALE
 40
1.0
  9
$ATTMODE
 70
     1
  9
$TEXTSIZE
 40
0.2
  9
$TRACEWID
 40
0.05
  9
$TEXTSTYLE
  7
Standard
  9
$CLAYER
  8
0
  9
$CELTYPE
  6
ByLayer
  9
$CECOLOR
 62
   256
  9
$CELTSCALE
 40
1.0
  9
$DISPSILH
 70
     0
  9
$DIMSCALE
 40
1.0
  9
$DIMASZ
 40
0.18
  9
$DIMEXO
 40
0.0625
  9
$DIMDLI
 40
0.38
  9
$DIMRND
 40
0.0
  9
$DIMDLE
 40
0.0
  9
$DIMEXE
 40
0.18
  9
$DIMTP
 40
0.0
  9
$DIMTM
 40
0.0
  9
$DIMTXT
 40
0.18
  9
$DIMCEN
 40
0.09
  9
$DIMTSZ
 40
0.0
  9
$DIMTOL
 70
     0
  9
$DIMLIM
 70
     0
  9
$DIMTIH
 70
     1
  9
$DIMTOH
 70
     1
  9
$DIMSE1
 70
     0
  9
$DIMSE2
 70
     0
  9
$DIMTAD
 70
     0
  9
$DIMZIN
 70
     0
  9
$DIMBLK
  1

  9
$DIMASO
 70
     1
  9
$DIMSHO
 70
     1
  9
$DIMPOST
  1

  9
$DIMAPOST
  1

  9
$DIMALT
 70
     0
  9
$DIMALTD
 70
     2
  9
$DIMALTF
 40
25.4
  9
$DIMLFAC
 40
1.0
  9
$DIMTOFL
 70
     0
  9
$DIMTVP
 40
0.0
  9
$DIMTIX
 70
     0
  9
$DIMSOXD
 70
     0
  9
$DIMSAH
 70
     0
  9
$DIMBLK1
  1

  9
$DIMBLK2
  1

  9
$DIMSTYLE
  2
Standard
  9
$DIMCLRD
 70
     0
  9
$DIMCLRE
 70
     0
  9
$DIMCLRT
 70
     0
  9
$DIMTFAC
 40
1.0
  9
$DIMGAP
 40
0.09
  9
$DIMJUST
 70
     0
  9
$DIMSD1
 70
     0
  9
$DIMSD2
 70
     0
  9
$DIMTOLJ
 70
     1
  9
$DIMTZIN
 70
     0
  9
$DIMALTZ
 70
     0
  9
$DIMALTTZ
 70
     0
  9
$DIMUPT
 70
     0
  9
$DIMDEC
 70
     4
  9
$DIMTDEC
 70
     4
  9
$DIMALTU
 70
     2
  9
$DIMALTTD
 70
     2
  9
$DIMTXSTY
  7
Standard
  9
$DIMAUNIT
 70
     0
  9
$DIMADEC
 70
     0
  9
$DIMALTRND
 40
0.0
  9
$DIMAZIN
 70
     0
  9
$DIMDSEP
 70
    46
  9
$DIMATFIT
 70
     3
  9
$DIMFRAC
 70
     0
  9
$DIMLDRBLK
  1

  9
$DIMLUNIT
 70
     2
  9
$DIMLWD
 70
    -2
  9
$DIMLWE
 70
    -2
  9
$DIMTMOVE
 70
     0
  9
$DIMFXL
 40
1.0
  9
$DIMFXLON
 70
     0
  9
$DIMJOGANG
 40
0.7853981633974483
  9
$DIMTFILL
 70
     0
  9
$DIMTFILLCLR
 70
     0
  9
$DIMARCSYM
 70
     0
  9
$DIMLTYPE
  6

  9
$DIMLTEX1
  6

  9
$DIMLTEX2
  6

  9
$DIMTXTDIRECTION
 70
     0
  9
$LUNITS
 70
     2
  9
$LUPREC
 70
     4
  9
$SKETCHINC
 40
0.1
  9
$FILLETRAD
 40
0.0
  9
$AUNITS
 70
     0
  9
$AUPREC
 70
     0
  9
$MENU
  1
.
  9
$ELEVATION
 40
0.0
  9
$PELEVATION
 40
0.0
  9
$THICKNESS
 40
0.0
  9
$LIMCHECK
 70
     0
  9
$CHAMFERA
 40
0.0
  9
$CHAMFERB
 40
0.0
  9
$CHAMFERC
 40
0.0
  9
$CHAMFERD
 40
0.0
  9
$SKPOLY
 70
     0
  9
$TDCREATE
 40
2460035.568136575
  9
$TDUCREATE
 40
2460035.484803241
  9
$TDUPDATE
 40
2460035.568136575
  9
$TDUUPDATE
 40
2460035.484803241
  9
$TDINDWG
 40
0.0000000000
  9
$TDUSRTIMER
 40
0.0000000000
  9
$USRTIMER
 70
     1
  9
$ANGBASE
 50
0.0
  9
$ANGDIR
 70
     0
  9
$PDMODE
 70
     0
  9
$PDSIZE
 40
0.0
  9
$PLINEWID
 40
0.0
  9
$SPLFRAME
 70
     0
  9
$SPLINETYPE
 70
     6
  9
$SPLINESEGS
 70
     8
  9
$HANDSEED
  5
215
  9
$SURFTAB1
 70
     6
  9
$SURFTAB2
 70
     6
  9
$SURFTYPE
 70
     6
  9
$SURFU
 70
     6
  9
$SURFV
 70
     6
  9
$UCSBASE
  2

  9
$UCSNAME
  2

  9
$UCSORG
 10
0.0
 20
0.0
 30
0.0
  9
$UCSXDIR
 10
1.0
 20
0.0
 30
0.0
  9
$UCSYDIR
 10
0.0
 20
1.0
 30
0.0
  9
$UCSORTHOREF
  2

  9
$UCSORTHOVIEW
 70
     0
  9
$UCSORGTOP
 10
0.0
 20
0.0
 30
0.0
  9
$UCSORGBOTTOM
 10
0.0
 20
0.0
 30
0.0
  9
$UCSORGLEFT
 10
0.0
 20
0.0
 30
0.0
  9
$UCSORGRIGHT
 10
0.0
 20
0.0
 30
0.0
  9
$UCSORGFRONT
 10
0.0
 20
0.0
 30
0.0
  9
$UCSORGBACK
 10
0.0
 20
0.0
 30
0.0
  9
$PUCSBASE
  2

  9
$PUCSNAME
  2

  9
$PUCSORG
 10
0.0
 20
0.0
 30
0.0
  9
$PUCSXDIR
 10
1.0
 20
0.0
 30
0.0
  9
$PUCSYDIR
 10
0.0
 20
1.0
 30
0.0
  9
$PUCSORTHOREF
  2

  9
$PUCSORTHOVIEW
 70
     0
  9
$PUCSORGTOP
 10
0.0
 20
0.0
 30
0.0
  9
$PUCSORGBOTTOM
 10
0.0
 20
0.0
 30
0.0
  9
$PUCSORGLEFT
 10
0.0
 20
0.0
 30
0.0
  9
$PUCSORGRIGHT
 10
0.0
 20
0.0
 30
0.0
  9
$PUCSORGFRONT
 10
0.0
 20
0.0
 30
0.0
  9
$PUCSORGBACK
 10
0.0
 20
0.0
 30
0.0
  9
$USERI1
 70
     0
  9
$USERI2
 70
     0
  9
$USERI3
 70
     0
  9
$USERI4
 70
     0
  9
$USERI5
 70
     0
  9
$USERR1
 40
0.0
  9
$USERR2
 40
0.0
  9
$USERR3
 40
0.0
  9
$USERR4
 40
0.0
  9
$USERR5
 40
0.0
  9
$WORLDVIEW
 70
     1
  9
$SHADEDGE
 70
     3
  9
$SHADEDIF
 70
    70
  9
$TILEMODE
 70
     1
  9
$MAXACTVP
 70
    64
  9
$PINSBASE
 10
0.0
 20
0.0
 30
0.0
  9
$PLIMCHECK
 70
     0
  9
$PEXTMIN
 10
1.000000000000000E+20
 20
1.000000000000000E+20
 30
1.000000000000000E+20
  9
$PEXTMAX
 10
-1.000000000000000E+20
 20
-1.000000000000000E+20
 30
-1.000000000000000E+20
  9
$PLIMMIN
 10
0.0
 20
0.0
  9
$PLIMMAX
 10
12.0
 20
9.0
  9
$UNITMODE
 70
     0
  9
$VISRETAIN
 70
     1
  9
$PLINEGEN
 70
     0
  9
$PSLTSCALE
 70
     1
  9
$TREEDEPTH
 70
  3020
  9
$CMLSTYLE
  2
Standard
  9
$CMLJUST
 70
     0
  9
$CMLSCALE
 40
1.0
  9
$PROXYGRAPHICS
 70
     1
  9
$MEASUREMENT
 70
     0
  9
$CELWEIGHT
370
    -1
  9
$ENDCAPS
280
     0
  9
$JOINSTYLE
280
     0
  9
$LWDISPLAY
290
     1
  9
$INSUNITS
 70
     4
  9
$HYPERLINKBASE
  1

  9
$STYLESHEET
  1

  9
$XEDIT
290
     1
  9
$CEPSNTYPE
380
     0
  9
$PSTYLEMODE
290
     1
  9
$FINGERPRINTGUID
  2
{AD678E30-1FBE-BC42-B973-0194A16501C9}
  9
$VERSIONGUID
  2
{AB51AD8F-08C9-C340-B9A5-338D05F9F82E}
  9
$EXTNAMES
290
     1
  9
$PSVPSCALE
 40
0.0
  9
$OLESTARTUP
290
     0
  9
$SORTENTS
280
   127
  9
$INDEXCTL
280
     0
  9
$HIDETEXT
280
     1
  9
$XCLIPFRAME
280
     2
  9
$HALOGAP
280
     0
  9
$OBSCOLOR
 70
   257
  9
$OBSLTYPE
280
     0
  9
$INTERSECTIONDISPLAY
280
     0
  9
$INTERSECTIONCOLOR
 70
   257
  9
$DIMASSOC
280
     2
  9
$PROJECTNAME
  1

  9
$CAMERADISPLAY
290
     0
  9
$LENSLENGTH
 40
50.0
  9
$CAMERAHEIGHT
 40
0.0
  9
$STEPSPERSEC
 40
2.0
  9
$STEPSIZE
 40
6.0
  9
$3DDWFPREC
 40
2.0
  9
$PSOLWIDTH
 40
0.25
  9
$PSOLHEIGHT
 40
4.0
  9
$LOFTANG1
 40
1.570796326794896
  9
$LOFTANG2
 40
1.570796326794896
  9
$LOFTMAG1
 40
0.0
  9
$LOFTMAG2
 40
0.0
  9
$LOFTPARAM
 70
     7
  9
$LOFTNORMALS
280
     1
  9
$LATITUDE
 40
37.795
  9
$LONGITUDE
 40
-122.394
  9
$NORTHDIRECTION
 40
0.0
  9
$TIMEZONE
 70
 -8000
  9
$LIGHTGLYPHDISPLAY
280
     1
  9
$TILEMODELIGHTSYNCH
280
     1
  9
$CMATERIAL
347
11
  9
$SOLIDHIST
280
     0
  9
$SHOWHIST
280
     1
  9
$DWFFRAME
280
     2
  9
$DGNFRAME
280
     0
  9
$REALWORLDSCALE
290
     1
  9
$INTERFERECOLOR
 62
     1
  9
$INTERFEREOBJVS
345
33
  9
$INTERFEREVPVS
346
30
  9
$CSHADOW
280
     0
  9
$SHADOWPLANELOCATION
 40
0.0
  0
ENDSEC
  0
SECTION
  2
CLASSES
  0
CLASS
  1
ACDBDICTIONARYWDFLT
  2
AcDbDictionaryWithDefault
  3
ObjectDBX Classes
 90
        0
 91
        1
280
     0
281
     0
  0
CLASS
  1
MATERIAL
  2
AcDbMaterial
  3
ObjectDBX Classes
 90
     1153
 91
        3
280
     0
281
     0
  0
CLASS
  1
VISUALSTYLE
  2
AcDbVisualStyle
  3
ObjectDBX Classes
 90
     4095
 91
       24
280
     0
281
     0
  0
CLASS
  1
SCALE
  2
AcDbScale
  3
ObjectDBX Classes
 90
     1153
 91
       17
280
     0
281
     0
  0
CLASS
  1
TABLESTYLE
  2
AcDbTableStyle
  3
ObjectDBX Classes
 90
     4095
 91
        1
280
     0
281
     0
  0
CLASS
  1
MLEADERSTYLE
  2
AcDbMLeaderStyle
  3
ACDB_MLEADERSTYLE_CLASS
 90
     4095
 91
        1
280
     0
281
     0
  0
CLASS
  1
ACDBSECTIONVIEWSTYLE
  2
AcDbSectionViewStyle
  3
ObjectDBX Classes
 90
     1025
 91
        1
280
     0
281
     0
  0
CLASS
  1
ACDBDETAILVIEWSTYLE
  2
AcDbDetailViewStyle
  3
ObjectDBX Classes
 90
     1025
 91
        1
280
     0
281
     0
  0
CLASS
  1
DICTIONARYVAR
  2
AcDbDictionaryVar
  3
ObjectDBX Classes
 90
        0
 91
        5
280
     0
281
     0
  0
CLASS
  1
CELLSTYLEMAP
  2
AcDbCellStyleMap
  3
ObjectDBX Classes
 90
     1152
 91
        1
280
     0
281
     0
  0
ENDSEC
  0
SECTION
  2
TABLES
  0
TABLE
  2
VPORT
  5
8
330
0
100
AcDbSymbolTable
 70
     1
  0
VPORT
  5
57
330
8
100
AcDbSymbolTableRecord
100
AcDbViewportTableRecord
  2
*Active
 70
     0
 10
0.0
 20
0.0
 11
1.0
 21
1.0
 12
0.0
 22
0.0
 13
0.0
 23
0.0
 14
1.0
 24
1.0
 15
0.0
 25
0.0
 16
0.0
 26
0.0
 36
1.0
 17
104.9999999737499
 27
31.49999999212523
 37
0.0
 40
302.9399999242649
 41
0.7070707070707066
 42
50.0
 43
0.0
 44
0.0
 50
0.0
 51
0.0
 71
     0
 72
   100
 73
     1
 74
     1
 75
     0
 76
     0
 77
     0
 78
     0
281
     0
 65
     1
110
0.0
120
0.0
130
0.0
111
1.0
121
0.0
131
0.0
112
0.0
122
1.0
132
0.0
 79
     0
146
0.0
 60
     3
 61
     5
292
     1
282
     1
141
0.0
142
0.0
 63
   250
421
  3355443
  0
ENDTAB
  0
TABLE
  2
LTYPE
  5
5
330
0
100
AcDbSymbolTable
 70
     1
  0
LTYPE
  5
5B
330
5
100
AcDbSymbolTableRecord
100
AcDbLinetypeTableRecord
  2
ByBlock
 70
     0
  3

 72
    65
 73
     0
 40
0.0
  0
LTYPE
  5
5C
330
5
100
AcDbSymbolTableRecord
100
AcDbLinetypeTableRecord
  2
ByLayer
 70
     0
  3

 72
    65
 73
     0
 40
0.0
  0
LTYPE
  5
5D
330
5
100
AcDbSymbolTableRecord
100
AcDbLinetypeTableRecord
  2
Continuous
 70
     0
  3
Solid line
 72
    65
 73
     0
 40
0.0
  0
ENDTAB
  0
TABLE
  2
LAYER
  5
2
330
0
100
AcDbSymbolTable
 70
     2
  0
LAYER
  5
54
330
2
100
AcDbSymbolTableRecord
100
AcDbLayerTableRecord
  2
0
 70
     0
 62
     7
  6
Continuous
370
     0
390
F
347
21
348
0
  0
LAYER
  5
1E7
330
2
100
AcDbSymbolTableRecord
100
AcDbLayerTableRecord
  2
CAPA_BASE
 70
     0
 62
     7
  6
Continuous
370
     0
390
F
347
21
348
0
  0
ENDTAB
  0
TABLE
  2
STYLE
  5
3
330
0
100
AcDbSymbolTable
 70
     2
  0
STYLE
  5
55
330
3
100
AcDbSymbolTableRecord
100
AcDbTextStyleTableRecord
  2
Standard
 70
     0
 40
0.0
 41
1.0
 50
0.0
 71
     0
 42
0.2
  3
txt
  4

  0
STYLE
  5
5A
330
3
100
AcDbSymbolTableRecord
100
AcDbTextStyleTableRecord
  2
Annotative
 70
     0
 40
0.0
 41
1.0
 50
0.0
 71
     0
 42
0.2
  3
txt
  4

1001
AcadAnnotative
1000
AnnotativeData
1002
{
1070
     1
1070
     1
1002
}
  0
ENDTAB
  0
TABLE
  2
VIEW
  5
6
330
0
100
AcDbSymbolTable
 70
     0
  0
ENDTAB
  0
TABLE
  2
UCS
  5
7
330
0
100
AcDbSymbolTable
 70
     0
  0
ENDTAB
  0
TABLE
  2
APPID
  5
9
330
0
100
AcDbSymbolTable
 70
     2
  0
APPID
  5
56
330
9
100
AcDbSymbolTableRecord
100
AcDbRegAppTableRecord
  2
ACAD
 70
     0
  0
APPID
  5
5E
330
9
100
AcDbSymbolTableRecord
100
AcDbRegAppTableRecord
  2
AcadAnnotative
 70
     0
  0
ENDTAB
  0
TABLE
  2
DIMSTYLE
  5
A
330
0
100
AcDbSymbolTable
 70
     2
100
AcDbDimStyleTable
 71
     0
  0
DIMSTYLE
105
58
330
A
100
AcDbSymbolTableRecord
100
AcDbDimStyleTableRecord
  2
Standard
 70
     0
340
55
  0
DIMSTYLE
105
59
330
A
100
AcDbSymbolTableRecord
100
AcDbDimStyleTableRecord
  2
Annotative
 70
     0
340
55
1001
AcadAnnotative
1000
AnnotativeData
1002
{
1070
     1
1070
     1
1002
}
  0
ENDTAB
  0
TABLE
  2
BLOCK_RECORD
  5
1
330
0
100
AcDbSymbolTable
 70
     4
  0
BLOCK_RECORD
  5
70
330
1
100
AcDbSymbolTableRecord
100
AcDbBlockTableRecord
  2
*Model_Space
340
73
 70
     0
280
     1
281
     0
  0
BLOCK_RECORD
  5
6C
330
1
100
AcDbSymbolTableRecord
100
AcDbBlockTableRecord
  2
*Paper_Space
340
6F
 70
     0
280
     1
281
     0
  0
BLOCK_RECORD
  5
74
330
1
100
AcDbSymbolTableRecord
100
AcDbBlockTableRecord
  2
*Paper_Space0
340
77
 70
     0
280
     1
281
     0
  0
BLOCK_RECORD
  5
1E8
330
1
100
AcDbSymbolTableRecord
100
AcDbBlockTableRecord
  2
Block_0
340
0
102
{BLKREFS
331
1E9
102
}
 70
     0
280
     1
281
     0
  0
BLOCK_RECORD
  5
1F4
330
1
100
AcDbSymbolTableRecord
100
AcDbBlockTableRecord
  2
Block_1
340
0
102
{BLKREFS
331
1F5
102
}
 70
     0
280
     1
281
     0
  0
BLOCK_RECORD
  5
200
330
1
100
AcDbSymbolTableRecord
100
AcDbBlockTableRecord
  2
Block_2
340
0
102
{BLKREFS
331
201
102
}
 70
     0
280
     1
281
     0
  0
ENDTAB
  0
ENDSEC
  0
SECTION
  2
BLOCKS
  0
BLOCK
  5
71
330
70
100
AcDbEntity
  8
0
100
AcDbBlockBegin
  2
*Model_Space
 70
     0
 10
0.0
 20
0.0
 30
0.0
  3
*Model_Space
  1

  0
ENDBLK
  5
72
330
70
100
AcDbEntity
  8
0
100
AcDbBlockEnd
  0
BLOCK
  5
6D
330
6C
100
AcDbEntity
 67
     1
  8
0
100
AcDbBlockBegin
  2
*Paper_Space
 70
     0
 10
0.0
 20
0.0
 30
0.0
  3
*Paper_Space
  1

  0
ENDBLK
  5
6E
330
6C
100
AcDbEntity
 67
     1
  8
0
100
AcDbBlockEnd
  0
BLOCK
  5
75
330
74
100
AcDbEntity
 67
     1
  8
0
100
AcDbBlockBegin
  2
*Paper_Space0
 70
     0
 10
0.0
 20
0.0
 30
0.0
  3
*Paper_Space0
  1

  0
ENDBLK
  5
76
330
74
100
AcDbEntity
 67
     1
  8
0
100
AcDbBlockEnd
  0
BLOCK
  5
1EA
330
1E8
100
AcDbEntity
  8
0
100
AcDbBlockBegin
  2
Block_0
 70
     0
 10
0.0
 20
0.0
 30
0.0
  3
Block_0
  1

  0
LWPOLYLINE
  5
1EC
330
1E8
100
AcDbEntity
  8
CAPA_BASE
100
AcDbPolyline
 90
        4
 70
     1
 43
0.0
 10
89.41956797854285
 20
31.6128934636275
 10
86.91956797854308
 20
31.92289346362722
 10
86.91956797854308
 20
31.30289346362713
 10
86.91956797854308
 20
31.30289346362713
  0
HATCH
  5
1ED
330
1E8
100
AcDbEntity
  8
CAPA_BASE
 62
    18
420
        0
440
 33554687
100
AcDbHatch
 10
0.0
 20
0.0
 30
0.0
210
0.0
220
0.0
230
1.0
  2
SOLID
 70
     1
 71
     1
 91
        1
 92
        1
 93
        3
 72
     1
 10
89.41956797854285
 20
31.6128934636275
 11
86.91956797854308
 21
31.92289346362722
 72
     1
 10
86.91956797854308
 20
31.92289346362722
 11
86.91956797854308
 21
31.30289346362713
 72
     1
 10
86.91956797854308
 20
31.30289346362713
 11
89.41956797854285
 21
31.6128934636275
 97
        1
330
1EC
 75
     2
 76
     1
 98
        1
 10
0.0
 20
0.0
450
        0
451
        0
460
0.0
461
0.0
452
        0
462
0.0
453
        0
470

  0
LWPOLYLINE
  5
1EE
330
1E8
100
AcDbEntity
  8
CAPA_BASE
100
AcDbPolyline
 90
        4
 70
     1
 43
0.0
 10
26.91956797854289
 20
31.6128934636275
 10
29.41956797854298
 20
31.30289346362713
 10
29.41956797854298
 20
31.92289346362722
 10
29.41956797854298
 20
31.92289346362722
  0
HATCH
  5
1EF
330
1E8
100
AcDbEntity
  8
CAPA_BASE
 62
    18
420
        0
440
 33554687
100
AcDbHatch
 10
0.0
 20
0.0
 30
0.0
210
0.0
220
0.0
230
1.0
  2
SOLID
 70
     1
 71
     1
 91
        1
 92
        1
 93
        3
 72
     1
 10
26.91956797854289
 20
31.6128934636275
 11
29.41956797854298
 21
31.30289346362713
 72
     1
 10
29.41956797854298
 20
31.30289346362713
 11
29.41956797854298
 21
31.92289346362722
 72
     1
 10
29.41956797854298
 20
31.92289346362722
 11
26.91956797854289
 21
31.6128934636275
 97
        1
330
1EE
 75
     2
 76
     1
 98
        1
 10
0.0
 20
0.0
450
        0
451
        0
460
0.0
461
0.0
452
        0
462
0.0
453
        0
470

  0
LINE
  5
1F0
330
1E8
100
AcDbEntity
  8
CAPA_BASE
 62
    18
420
        0
370
    25
100
AcDbLine
 10
89.41956797854285
 20
42.02995188002759
 30
0.0
 11
89.41956797854285
 21
30.61289346362682
 31
0.0
  0
LINE
  5
1F1
330
1E8
100
AcDbEntity
  8
CAPA_BASE
 62
    18
420
        0
370
    25
100
AcDbLine
 10
26.91956797854289
 20
42.02995188002759
 30
0.0
 11
26.91956797854289
 21
30.61289346362682
 31
0.0
  0
LINE
  5
1F2
330
1E8
100
AcDbEntity
  8
CAPA_BASE
 62
    18
420
        0
370
    25
100
AcDbLine
 10
89.41956797854285
 20
31.6128934636275
 30
0.0
 11
26.91956797854289
 21
31.6128934636275
 31
0.0
  0
MTEXT
  5
1F3
330
1E8
100
AcDbEntity
  8
CAPA_BASE
100
AcDbMText
 10
55.52373727893861
 20
32.40664595747451
 30
0.0
 40
0.2
 41
0.0
 46
0.0
 71
     7
 72
     1
  1
\C18;\c0;\FArial Bold|b1|i0|c1;\H2.997200;\W0.700000;125
 73
     1
 44
1.0
  0
ENDBLK
  5
1EB
330
1E8
100
AcDbEntity
  8
0
100
AcDbBlockEnd
  0
BLOCK
  5
1F6
330
1F4
100
AcDbEntity
  8
0
100
AcDbBlockBegin
  2
Block_1
 70
     0
 10
0.0
 20
0.0
 30
0.0
  3
Block_1
  1

  0
LWPOLYLINE
  5
1F8
330
1F4
100
AcDbEntity
  8
CAPA_BASE
100
AcDbPolyline
 90
        4
 70
     1
 43
0.0
 10
132.3975180197431
 20
106.9337933903272
 10
132.0875180197427
 20
104.4337933903271
 10
132.7075180197428
 20
104.4337933903271
 10
132.7075180197428
 20
104.4337933903271
  0
HATCH
  5
1F9
330
1F4
100
AcDbEntity
  8
CAPA_BASE
 62
    18
420
        0
440
 33554687
100
AcDbHatch
 10
0.0
 20
0.0
 30
0.0
210
0.0
220
0.0
230
1.0
  2
SOLID
 70
     1
 71
     1
 91
        1
 92
        1
 93
        3
 72
     1
 10
132.3975180197431
 20
106.9337933903272
 11
132.0875180197427
 21
104.4337933903271
 72
     1
 10
132.0875180197427
 20
104.4337933903271
 11
132.7075180197428
 21
104.4337933903271
 72
     1
 10
132.7075180197428
 20
104.4337933903271
 11
132.3975180197431
 21
106.9337933903272
 97
        1
330
1F8
 75
     2
 76
     1
 98
        1
 10
0.0
 20
0.0
450
        0
451
        0
460
0.0
461
0.0
452
        0
462
0.0
453
        0
470

  0
LWPOLYLINE
  5
1FA
330
1F4
100
AcDbEntity
  8
CAPA_BASE
100
AcDbPolyline
 90
        4
 70
     1
 43
0.0
 10
132.3975180197431
 20
41.73561398152703
 10
132.7075180197428
 20
44.23561398152744
 10
132.0875180197427
 20
44.23561398152744
 10
132.0875180197427
 20
44.23561398152744
  0
HATCH
  5
1FB
330
1F4
100
AcDbEntity
  8
CAPA_BASE
 62
    18
420
        0
440
 33554687
100
AcDbHatch
 10
0.0
 20
0.0
 30
0.0
210
0.0
220
0.0
230
1.0
  2
SOLID
 70
     1
 71
     1
 91
        1
 92
        1
 93
        3
 72
     1
 10
132.3975180197431
 20
41.73561398152703
 11
132.7075180197428
 21
44.23561398152744
 72
     1
 10
132.7075180197428
 20
44.23561398152744
 11
132.0875180197427
 21
44.23561398152744
 72
     1
 10
132.0875180197427
 20
44.23561398152744
 11
132.3975180197431
 21
41.73561398152703
 97
        1
330
1FA
 75
     2
 76
     1
 98
        1
 10
0.0
 20
0.0
450
        0
451
        0
460
0.0
461
0.0
452
        0
462
0.0
453
        0
470

  0
LINE
  5
1FC
330
1F4
100
AcDbEntity
  8
CAPA_BASE
 62
    18
420
        0
370
    25
100
AcDbLine
 10
141.3975180197427
 20
106.9337933903272
 30
0.0
 11
131.397518019743
 21
106.9337933903272
 31
0.0
  0
LINE
  5
1FD
330
1F4
100
AcDbEntity
  8
CAPA_BASE
 62
    18
420
        0
370
    25
100
AcDbLine
 10
148.2835372349427
 20
41.73561398152703
 30
0.0
 11
131.397518019743
 21
41.73561398152703
 31
0.0
  0
LINE
  5
1FE
330
1F4
100
AcDbEntity
  8
CAPA_BASE
 62
    18
420
        0
370
    25
100
AcDbLine
 10
132.3975180197431
 20
106.9337933903272
 30
0.0
 11
132.3975180197431
 21
41.73561398152703
 31
0.0
  0
MTEXT
  5
1FF
330
1F4
100
AcDbEntity
  8
CAPA_BASE
100
AcDbMText
 10
131.6037698840579
 20
71.68899195256322
 30
0.0
 40
0.2
 41
0.0
 46
0.0
 71
     7
 72
     1
  1
\C18;\c0;\FArial Bold|b1|i0|c1;\H2.997200;\W0.700000;130
 11
0.0000000000000003
 21
1.0
 31
0.0
 73
     1
 44
1.0
  0
ENDBLK
  5
1F7
330
1F4
100
AcDbEntity
  8
0
100
AcDbBlockEnd
  0
BLOCK
  5
202
330
200
100
AcDbEntity
  8
0
100
AcDbBlockBegin
  2
Block_2
 70
     0
 10
0.0
 20
0.0
 30
0.0
  3
Block_2
  1

  0
LWPOLYLINE
  5
204
330
200
100
AcDbEntity
  8
CAPA_BASE
100
AcDbPolyline
 90
        4
 70
     1
 43
0.0
 10
99.42083047854291
 20
-12.49831837997303
 10
99.11083047854255
 20
-14.99831837997279
 10
99.73083047854327
 20
-14.99831837997279
 10
99.73083047854327
 20
-14.99831837997279
  0
HATCH
  5
205
330
200
100
AcDbEntity
  8
CAPA_BASE
 62
    18
420
        0
440
 33554687
100
AcDbHatch
 10
0.0
 20
0.0
 30
0.0
210
0.0
220
0.0
230
1.0
  2
SOLID
 70
     1
 71
     1
 91
        1
 92
        1
 93
        3
 72
     1
 10
99.42083047854291
 20
-12.49831837997303
 11
99.11083047854255
 21
-14.99831837997279
 72
     1
 10
99.11083047854255
 20
-14.99831837997279
 11
99.73083047854327
 21
-14.99831837997279
 72
     1
 10
99.73083047854327
 20
-14.99831837997279
 11
99.42083047854291
 21
-12.49831837997303
 97
        1
330
204
 75
     2
 76
     1
 98
        1
 10
0.0
 20
0.0
450
        0
451
        0
460
0.0
461
0.0
452
        0
462
0.0
453
        0
470

  0
LWPOLYLINE
  5
206
330
200
100
AcDbEntity
  8
CAPA_BASE
100
AcDbPolyline
 90
        4
 70
     1
 43
0.0
 10
99.42083047854291
 20
-38.998318379973
 10
99.73083047854327
 20
-36.4983183799726
 10
99.11083047854255
 20
-36.4983183799726
 10
99.11083047854255
 20
-36.4983183799726
  0
HATCH
  5
207
330
200
100
AcDbEntity
  8
CAPA_BASE
 62
    18
420
        0
440
 33554687
100
AcDbHatch
 10
0.0
 20
0.0
 30
0.0
210
0.0
220
0.0
230
1.0
  2
SOLID
 70
     1
 71
     1
 91
        1
 92
        1
 93
        3
 72
     1
 10
99.42083047854291
 20
-38.998318379973
 11
99.73083047854327
 21
-36.4983183799726
 72
     1
 10
99.73083047854327
 20
-36.4983183799726
 11
99.11083047854255
 21
-36.4983183799726
 72
     1
 10
99.11083047854255
 20
-36.4983183799726
 11
99.42083047854291
 21
-38.998318379973
 97
        1
330
206
 75
     2
 76
     1
 98
        1
 10
0.0
 20
0.0
450
        0
451
        0
460
0.0
461
0.0
452
        0
462
0.0
453
        0
470

  0
LINE
  5
208
330
200
100
AcDbEntity
  8
CAPA_BASE
 62
    18
420
        0
370
    25
100
AcDbLine
 10
71.69456797754334
 20
-12.49831837997303
 30
0.0
 11
100.4208304785429
 21
-12.49831837997303
 31
0.0
  0
LINE
  5
209
330
200
100
AcDbEntity
  8
CAPA_BASE
 62
    18
420
        0
370
    25
100
AcDbLine
 10
59.19456797754289
 20
-38.998318379973
 30
0.0
 11
100.4208304785429
 21
-38.998318379973
 31
0.0
  0
LINE
  5
20A
330
200
100
AcDbEntity
  8
CAPA_BASE
 62
    18
420
        0
370
    25
100
AcDbLine
 10
99.42083047854291
 20
-12.49831837997303
 30
0.0
 11
99.42083047854291
 21
-38.998318379973
 31
0.0
  0
MTEXT
  5
20B
330
200
100
AcDbEntity
  8
CAPA_BASE
100
AcDbMText
 10
98.62708712337449
 20
-27.51184352610879
 30
0.0
 40
0.2
 41
0.0
 46
0.0
 71
     7
 72
     1
  1
\C18;\c0;\FArial Bold|b1|i0|c1;\H2.997200;\W0.700000;53
 11
0.0000000000000003
 21
1.0
 31
0.0
 73
     1
 44
1.0
  0
ENDBLK
  5
203
330
200
100
AcDbEntity
  8
0
100
AcDbBlockEnd
  0
ENDSEC
  0
SECTION
  2
ENTITIES
  0
LINE
  5
78
330
70
100
AcDbEntity
  8
0
 62
    18
420
        0
370
    25
100
AcDbLine
 10
62.54456797854294
 20
95.68379339032732
 30
0.0
 11
61.99423901594284
 21
95.68379339032732
 31
0.0
  0
LINE
  5
79
330
70
100
AcDbEntity
  8
0
 62
    18
420
        0
370
    25
100
AcDbLine
 10
54.39489693914288
 20
95.68379339032732
 30
0.0
 11
53.79456797854311
 21
95.68379339032732
 31
0.0
  0
LINE
  5
7A
330
70
100
AcDbEntity
  8
0
 62
    18
420
        0
370
    25
100
AcDbLine
 10
53.79456797854311
 20
93.18379339032722
 30
0.0
 11
54.39489693914288
 21
93.18379339032722
 31
0.0
  0
LINE
  5
7B
330
70
100
AcDbEntity
  8
0
 62
    18
420
        0
370
    25
100
AcDbLine
 10
61.99423901594284
 20
93.18379339032722
 30
0.0
 11
62.54456797854294
 21
93.18379339032722
 31
0.0
  0
LINE
  5
7C
330
70
100
AcDbEntity
  8
0
 62
    18
420
        0
370
    25
100
AcDbLine
 10
53.79456797854311
 20
96.20879339032709
 30
0.0
 11
45.66956797854307
 21
96.20879339032709
 31
0.0
  0
LINE
  5
7D
330
70
100
AcDbEntity
  8
0
 62
    18
420
        0
370
    25
100
AcDbLine
 10
70.66956797854299
 20
96.20879339032709
 30
0.0
 11
62.54456797854294
 21
96.20879339032709
 31
0.0
  0
LINE
  5
7E
330
70
100
AcDbEntity
  8
0
 62
    18
420
        0
370
    25
100
AcDbLine
 10
46.19436929374287
 20
106.4339920741271
 30
0.0
 11
55.38906413294297
 21
97.23929723492732
 31
0.0
  0
LINE
  5
7F
330
70
100
AcDbEntity
  8
0
 62
    18
420
        0
370
    25
100
AcDbLine
 10
61.01010899264307
 20
97.2493344055271
 30
0.0
 11
70.19476666134285
 21
106.4339920741271
 31
0.0
  0
LINE
  5
80
330
70
100
AcDbEntity
  8
0
 62
    18
420
        0
370
    25
100
AcDbLine
 10
55.39572248254306
 20
91.63494789532732
 30
0.0
 11
54.37009660544294
 21
90.60932201832731
 31
0.0
  0
LINE
  5
81
330
70
100
AcDbEntity
  8
0
 62
    18
420
        0
370
    25
100
AcDbLine
 10
46.19436929374287
 20
106.4339920741271
 30
0.0
 11
46.17332344344286
 21
106.4339836062271
 31
0.0
  0
LINE
  5
82
330
70
100
AcDbEntity
  8
0
 62
    18
420
        0
370
    25
100
AcDbLine
 10
60.9900941695431
 20
91.63826719832719
 30
0.0
 11
61.9887733441429
 21
90.63958802372708
 31
0.0
  0
SPLINE
  5
83
330
70
100
AcDbEntity
  8
0
 62
    18
420
        0
370
    25
100
AcDbSpline
210
0.0
220
0.0
230
1.0
 70
     8
 71
     3
 72
     8
 73
     4
 74
     0
 42
0.0000000001
 43
0.0000000001
 40
0.0
 40
0.0
 40
0.0
 40
0.0
 40
1.0
 40
1.0
 40
1.0
 40
1.0
 10
70.21580827442292
 20
106.4444997755345
 30
0.0
 10
70.20769613053357
 20
106.4438621063217
 30
0.0
 10
70.20015016773131
 20
106.4400938247314
 30
0.0
 10
70.19476666132681
 20
106.4339920742198
 30
0.0
  0
SPLINE
  5
84
330
70
100
AcDbEntity
  8
0
 62
    18
420
        0
370
    25
100
AcDbSpline
210
0.0
220
0.0
230
1.0
 70
     8
 71
     3
 72
     8
 73
     4
 74
     0
 42
0.0000000001
 43
0.0000000001
 40
0.0
 40
0.0
 40
0.0
 40
0.0
 40
1.0
 40
1.0
 40
1.0
 40
1.0
 10
70.69456797750544
 20
106.4337933903285
 30
0.0
 10
70.52886310027533
 20
106.4549707950861
 30
0.0
 10
70.36166245758129
 20
106.4620776953436
 30
0.0
 10
70.19475820267466
 20
106.4550379152309
 30
0.0
  0
SPLINE
  5
85
330
70
100
AcDbEntity
  8
0
 62
    18
420
        0
370
    25
100
AcDbSpline
210
0.0
220
0.0
230
1.0
 70
     8
 71
     3
 72
     8
 73
     4
 74
     0
 42
0.0000000001
 43
0.0000000001
 40
0.0
 40
0.0
 40
0.0
 40
0.0
 40
1.0
 40
1.0
 40
1.0
 40
1.0
 10
70.69456797752021
 20
106.4337933903663
 30
0.0
 10
70.53531577317565
 20
106.4464815936969
 30
0.0
 10
70.37546847931327
 20
106.4500562192943
 30
0.0
 10
70.2158082744255
 20
106.4444997754937
 30
0.0
  0
LINE
  5
86
330
70
100
AcDbEntity
  8
0
 62
    18
420
        0
370
    25
100
AcDbLine
 10
70.19476666134285
 20
106.4339920741271
 30
0.0
 11
70.19475820264258
 21
106.455037915227
 31
0.0
  0
LINE
  5
87
330
70
100
AcDbEntity
  8
0
 62
    18
420
        0
370
    25
100
AcDbLine
 10
70.69456797754266
 20
106.4337933903272
 30
0.0
 11
70.69456797754266
 21
96.22352802542717
 31
0.0
  0
LINE
  5
88
330
70
100
AcDbEntity
  8
0
 62
    18
420
        0
370
    25
100
AcDbLine
 10
45.69456797754306
 20
96.22352802542717
 30
0.0
 11
45.69456797754306
 21
106.4337933903272
 31
0.0
  0
SPLINE
  5
89
330
70
100
AcDbEntity
  8
0
 62
    18
420
        0
370
    25
100
AcDbSpline
210
0.0
220
0.0
230
1.0
 70
     8
 71
     3
 72
     8
 73
     4
 74
     0
 42
0.0000000001
 43
0.0000000001
 40
0.0
 40
0.0
 40
0.0
 40
0.0
 40
1.0
 40
1.0
 40
1.0
 40
1.0
 10
46.17332344355933
 20
106.4339836061639
 30
0.0
 10
46.01373826310405
 20
106.4340435868611
 30
0.0
 10
45.85415306014502
 20
106.4339801815666
 30
0.0
 10
45.69456797773557
 20
106.4337933903371
 30
0.0
  0
LWPOLYLINE
  5
8A
330
70
100
AcDbEntity
  8
0
 62
    18
420
        0
370
    25
100
AcDbPolyline
 90
        6
 70
     0
 43
0.0
 10
58.19456797754286
 20
106.4580547377272
 10
57.19456797754283
 20
106.458027107227
 10
53.19456802584305
 20
106.4574134839272
 10
49.69447282744309
 20
106.4563646948272
 10
46.19437775234304
 20
106.455037915227
 10
46.18386159334295
 20
106.4550336882271
  0
SPLINE
  5
8B
330
70
100
AcDbEntity
  8
0
 62
    18
420
        0
370
    25
100
AcDbSpline
210
0.0
220
0.0
230
1.0
 70
     8
 71
     3
 72
     8
 73
     4
 74
     0
 42
0.0000000001
 43
0.0000000001
 40
0.0
 40
0.0
 40
0.0
 40
0.0
 40
1.0
 40
1.0
 40
1.0
 40
1.0
 10
46.19456797750298
 20
106.9337933903307
 30
0.0
 10
46.18326959789191
 20
106.7744733710087
 30
0.0
 10
46.1796966147858
 20
106.6146995107228
 30
0.0
 10
46.18386159333877
 20
106.4550336881674
 30
0.0
  0
LINE
  5
8C
330
70
100
AcDbEntity
  8
0
 62
    18
420
        0
370
    25
100
AcDbLine
 10
46.19456797754308
 20
106.9337933903272
 30
0.0
 11
58.19456797754286
 21
106.9337933903272
 31
0.0
  0
LINE
  5
8D
330
70
100
AcDbEntity
  8
0
 62
    18
420
        0
370
    25
100
AcDbLine
 10
58.19456797754286
 20
106.4580547377272
 30
0.0
 11
58.19456797754286
 21
106.9337933903272
 31
0.0
  0
SPLINE
  5
8E
330
70
100
AcDbEntity
  8
0
 62
    18
420
        0
370
    25
100
AcDbSpline
210
0.0
220
0.0
230
1.0
 70
     8
 71
     3
 72
     8
 73
     4
 74
     0
 42
0.0000000001
 43
0.0000000001
 40
0.0
 40
0.0
 40
0.0
 40
0.0
 40
1.0
 40
1.0
 40
1.0
 40
1.0
 10
46.19456797749463
 20
106.9337933903551
 30
0.0
 10
46.17339056350167
 20
106.7680885107799
 30
0.0
 10
46.16628366016341
 20
106.6008878644596
 30
0.0
 10
46.17332344344704
 20
106.4339836061863
 30
0.0
  0
SPLINE
  5
8F
330
70
100
AcDbEntity
  8
0
 62
    18
420
        0
370
    25
100
AcDbSpline
210
0.0
220
0.0
230
1.0
 70
     8
 71
     3
 72
     8
 73
     4
 74
     0
 42
0.0000000001
 43
0.0000000001
 40
0.0
 40
0.0
 40
0.0
 40
0.0
 40
1.0
 40
1.0
 40
1.0
 40
1.0
 10
46.18386159330958
 20
106.4550336882284
 30
0.0
 10
46.18449926199263
 20
106.4469215441385
 30
0.0
 10
46.18826754325534
 20
106.4393755809679
 30
0.0
 10
46.19436929366106
 20
106.433992074205
 30
0.0
  0
LINE
  5
90
330
70
100
AcDbEntity
  8
0
 62
    18
420
        0
370
    25
100
AcDbLine
 10
58.19456797754286
 20
106.4339920741271
 30
0.0
 11
58.19456797754286
 21
106.4580547377272
 31
0.0
  0
LINE
  5
91
330
70
100
AcDbEntity
  8
0
 62
    18
420
        0
370
    25
100
AcDbLine
 10
58.19456797754286
 20
106.4339920741271
 30
0.0
 11
46.19436929374287
 21
106.4339920741271
 31
0.0
  0
LWPOLYLINE
  5
92
330
70
100
AcDbEntity
  8
0
 62
    18
420
        0
370
    25
100
AcDbPolyline
 90
        5
 70
     0
 43
0.0
 10
70.19475820264258
 20
106.455037915227
 10
69.19475834554315
 20
106.4554348551273
 10
65.19475879514302
 20
106.4568591988272
 10
61.69466353634281
 20
106.4577302066271
 10
58.19456797754286
 20
106.4580547377272
  0
LINE
  5
93
330
70
100
AcDbEntity
  8
0
 62
    18
420
        0
370
    25
100
AcDbLine
 10
70.19476666134285
 20
106.4339920741271
 30
0.0
 11
58.19456797754286
 21
106.4339920741271
 31
0.0
  0
LINE
  5
94
330
70
100
AcDbEntity
  8
0
 62
    18
420
        0
370
    25
100
AcDbLine
 10
58.19456797754286
 20
106.9337933903272
 30
0.0
 11
70.19456797754296
 21
106.9337933903272
 31
0.0
  0
SPLINE
  5
95
330
70
100
AcDbEntity
  8
0
 62
    18
420
        0
370
    25
100
AcDbSpline
210
0.0
220
0.0
230
1.0
 70
     8
 71
     3
 72
     8
 73
     4
 74
     0
 42
0.0000000001
 43
0.0000000001
 40
0.0
 40
0.0
 40
0.0
 40
0.0
 40
1.0
 40
1.0
 40
1.0
 40
1.0
 10
70.19475820268109
 20
106.4550379153153
 30
0.0
 10
70.19481818632595
 20
106.6146230989409
 30
0.0
 10
70.19475477791663
 20
106.7742083050731
 30
0.0
 10
70.19456797750959
 20
106.9337933906436
 30
0.0
  0
SPLINE
  5
96
330
70
100
AcDbEntity
  8
0
 62
    18
420
        0
370
    25
100
AcDbSpline
210
0.0
220
0.0
230
1.0
 70
     8
 71
     3
 72
     8
 73
     4
 74
     0
 42
0.0000000001
 43
0.0000000001
 40
0.0
 40
0.0
 40
0.0
 40
0.0
 40
1.0
 40
1.0
 40
1.0
 40
1.0
 10
70.69456797754266
 20
106.4337933904058
 30
0.0
 10
70.69456797749968
 20
106.7099357652905
 30
0.0
 10
70.47071035242796
 20
106.9337933903272
 30
0.0
 10
70.19456797754296
 20
106.9337933903272
 30
0.0
  0
SPLINE
  5
97
330
70
100
AcDbEntity
  8
0
 62
    18
420
        0
370
    25
100
AcDbSpline
210
0.0
220
0.0
230
1.0
 70
     8
 71
     3
 72
     8
 73
     4
 74
     0
 42
0.0000000001
 43
0.0000000001
 40
0.0
 40
0.0
 40
0.0
 40
0.0
 40
1.0
 40
1.0
 40
1.0
 40
1.0
 10
46.19456797754308
 20
106.9337933903272
 30
0.0
 10
45.91842560262761
 20
106.9337933903272
 30
0.0
 10
45.69456797754306
 20
106.7099357652427
 30
0.0
 10
45.69456797754306
 20
106.4337933903272
 30
0.0
  0
LINE
  5
98
330
70
100
AcDbEntity
  8
0
 62
    18
420
        0
370
    25
100
AcDbLine
 10
62.54456797854294
 20
92.15316326442707
 30
0.0
 11
62.54456797854294
 21
94.92764285872727
 31
0.0
  0
LINE
  5
99
330
70
100
AcDbEntity
  8
0
 62
    18
420
        0
370
    25
100
AcDbLine
 10
89.40715205104309
 20
94.92764285872727
 30
0.0
 11
62.54456797854294
 21
94.92764285872727
 31
0.0
  0
LINE
  5
9A
330
70
100
AcDbEntity
  8
0
 62
    18
420
        0
370
    25
100
AcDbLine
 10
89.40715205104309
 20
94.92764285872727
 30
0.0
 11
89.41956797854285
 21
94.77608453282707
 31
0.0
  0
LWPOLYLINE
  5
9B
330
70
100
AcDbEntity
  8
0
 62
    18
420
        0
370
    25
100
AcDbPolyline
 90
        5
 70
     0
 43
0.0
 10
89.41956797854285
 20
43.02995188002699
 10
89.23102415274309
 20
42.49575049382705
 10
88.8348428775428
 20
42.10547148182763
 10
88.23102415274304
 20
41.85336366512689
 10
87.41956797854342
 20
41.73561398152703
  0
LINE
  5
9C
330
70
100
AcDbEntity
  8
0
 62
    18
420
        0
370
    25
100
AcDbLine
 10
87.41956797854342
 20
41.73561398152703
 30
0.0
 11
28.91956797854296
 21
41.73561398152703
 31
0.0
  0
LWPOLYLINE
  5
9D
330
70
100
AcDbEntity
  8
0
 62
    18
420
        0
370
    25
100
AcDbPolyline
 90
        5
 70
     0
 43
0.0
 10
28.91956797854296
 20
41.73561398152703
 10
28.1055759029431
 20
41.85496893522731
 10
27.50091187774293
 20
42.10763245512672
 10
27.10557590294307
 20
42.49739463532677
 10
26.91956797854289
 20
43.02995188002699
  0
LINE
  5
9E
330
70
100
AcDbEntity
  8
0
 62
    18
420
        0
370
    25
100
AcDbLine
 10
26.91956797854289
 20
43.02995188002699
 30
0.0
 11
26.91956797854289
 21
94.77608453282707
 31
0.0
  0
LINE
  5
9F
330
70
100
AcDbEntity
  8
0
 62
    18
420
        0
370
    25
100
AcDbLine
 10
26.91956797854289
 20
94.77608453282707
 30
0.0
 11
26.93198390594286
 21
94.92764285872727
 31
0.0
  0
LINE
  5
A0
330
70
100
AcDbEntity
  8
0
 62
    18
420
        0
370
    25
100
AcDbLine
 10
53.79456797854311
 20
94.92764285872727
 30
0.0
 11
26.93198390594286
 21
94.92764285872727
 31
0.0
  0
LINE
  5
A1
330
70
100
AcDbEntity
  8
0
 62
    18
420
        0
370
    25
100
AcDbLine
 10
53.79456797854311
 20
94.92764285872727
 30
0.0
 11
53.79456797854311
 21
92.15316326442707
 31
0.0
  0
SPLINE
  5
A2
330
70
100
AcDbEntity
  8
0
 62
    18
420
        0
370
    25
100
AcDbSpline
210
0.0
220
0.0
230
1.0
 70
     8
 71
     3
 72
     8
 73
     4
 74
     0
 42
0.0000000001
 43
0.0000000001
 40
0.0
 40
0.0
 40
0.0
 40
0.0
 40
1.0
 40
1.0
 40
1.0
 40
1.0
 10
53.79456797847542
 20
92.15316326447165
 30
0.0
 10
53.80357222302544
 20
91.5208140494157
 30
0.0
 10
54.05071805685079
 20
90.91511939003753
 30
0.0
 10
54.48667279136449
 20
90.45698177353274
 30
0.0
  0
SPLINE
  5
A3
330
70
100
AcDbEntity
  8
0
 62
    18
420
        0
370
    25
100
AcDbSpline
210
0.0
220
0.0
230
1.0
 70
     8
 71
     3
 72
    11
 73
     7
 74
     0
 42
0.0000000001
 43
0.0000000001
 40
0.0
 40
0.0
 40
0.0
 40
0.0
 40
1.0
 40
1.0
 40
1.0
 40
2.0
 40
2.0
 40
2.0
 40
2.0
 10
54.48667373688301
 20
90.45698067213752
 30
0.0
 10
56.44853980526741
 20
88.42297435683866
 30
0.0
 10
59.68783439823401
 20
88.36449313188259
 30
0.0
 10
61.72184071353288
 20
90.32635920026732
 30
0.0
 10
61.76616316801383
 20
90.36910966709719
 30
0.0
 10
61.80971027900612
 20
90.41265676065965
 30
0.0
 10
61.85246076357672
 20
90.45697919802938
 30
0.0
  0
SPLINE
  5
A4
330
70
100
AcDbEntity
  8
0
 62
    18
420
        0
370
    25
100
AcDbSpline
210
0.0
220
0.0
230
1.0
 70
     8
 71
     3
 72
     8
 73
     4
 74
     0
 42
0.0000000001
 43
0.0000000001
 40
0.0
 40
0.0
 40
0.0
 40
0.0
 40
1.0
 40
1.0
 40
1.0
 40
1.0
 10
61.8524622201591
 20
90.4569806721709
 30
0.0
 10
62.28842450246107
 20
90.91511392918866
 30
0.0
 10
62.53557185994528
 20
91.52081188852562
 30
0.0
 10
62.54456797853075
 20
92.15316326444407
 30
0.0
  0
LINE
  5
A5
330
70
100
AcDbEntity
  8
0
 62
    18
420
        0
370
    25
100
AcDbLine
 10
89.41956797854285
 20
94.77608453282707
 30
0.0
 11
89.41956797854285
 21
43.02995188002699
 31
0.0
  0
LINE
  5
A6
330
70
100
AcDbEntity
  8
0
 62
    18
420
        0
370
    25
100
AcDbLine
 10
53.79456797854311
 20
96.20879339032709
 30
0.0
 11
53.79456797854311
 21
94.92764285872727
 31
0.0
  0
SPLINE
  5
A7
330
70
100
AcDbEntity
  8
0
 62
    18
420
        0
370
    25
100
AcDbSpline
210
0.0
220
0.0
230
1.0
 70
     8
 71
     3
 72
     8
 73
     4
 74
     0
 42
0.0000000001
 43
0.0000000001
 40
0.0
 40
0.0
 40
0.0
 40
0.0
 40
1.0
 40
1.0
 40
1.0
 40
1.0
 10
27.91956797846464
 20
95.7280913705282
 30
0.0
 10
27.43554234308639
 20
95.74873739991001
 30
0.0
 10
27.01200379581457
 20
95.40545442351797
 30
0.0
 10
26.93198390592906
 20
94.92764285871926
 30
0.0
  0
LINE
  5
A8
330
70
100
AcDbEntity
  8
0
 62
    18
420
        0
370
    25
100
AcDbLine
 10
27.91956797854293
 20
95.72809137052722
 30
0.0
 11
44.66956797854304
 21
95.72809137052722
 31
0.0
  0
SPLINE
  5
A9
330
70
100
AcDbEntity
  8
0
 62
    18
420
        0
370
    25
100
AcDbSpline
210
0.0
220
0.0
230
1.0
 70
     8
 71
     3
 72
     8
 73
     4
 74
     0
 42
0.0000000001
 43
0.0000000001
 40
0.0
 40
0.0
 40
0.0
 40
0.0
 40
1.0
 40
1.0
 40
1.0
 40
1.0
 10
44.66956797847726
 20
95.72809137050027
 30
0.0
 10
45.05691894001134
 20
95.72321876283535
 30
0.0
 10
45.42524968975986
 20
95.89567181005184
 30
0.0
 10
45.66956797847729
 20
96.19629297282161
 30
0.0
  0
LINE
  5
AA
330
70
100
AcDbEntity
  8
0
 62
    18
420
        0
370
    25
100
AcDbLine
 10
45.66956797854307
 20
96.19629297282706
 30
0.0
 11
45.66956797854307
 21
96.20879339032709
 31
0.0
  0
SPLINE
  5
AB
330
70
100
AcDbEntity
  8
0
 62
    18
420
        0
370
    25
100
AcDbSpline
210
0.0
220
0.0
230
1.0
 70
     8
 71
     3
 72
     8
 73
     4
 74
     0
 42
0.0000000001
 43
0.0000000001
 40
0.0
 40
0.0
 40
0.0
 40
0.0
 40
1.0
 40
1.0
 40
1.0
 40
1.0
 10
70.66956797849936
 20
96.19629297286174
 30
0.0
 10
70.91900894463643
 20
95.90230187282193
 30
0.0
 10
71.2840285881932
 20
95.73139909083025
 30
0.0
 10
71.6695679784981
 20
95.72809137054166
 30
0.0
  0
LINE
  5
AC
330
70
100
AcDbEntity
  8
0
 62
    18
420
        0
370
    25
100
AcDbLine
 10
71.66956797854303
 20
95.72809137052722
 30
0.0
 11
88.41956797854281
 21
95.72809137052722
 31
0.0
  0
LINE
  5
AD
330
70
100
AcDbEntity
  8
0
 62
    18
420
        0
370
    25
100
AcDbLine
 10
62.54456797854294
 20
94.92764285872727
 30
0.0
 11
62.54456797854294
 21
96.20879339032709
 31
0.0
  0
LINE
  5
AE
330
70
100
AcDbEntity
  8
0
 62
    18
420
        0
370
    25
100
AcDbLine
 10
70.66956797854299
 20
96.20879339032709
 30
0.0
 11
70.66956797854299
 21
96.19629297282706
 31
0.0
  0
SPLINE
  5
AF
330
70
100
AcDbEntity
  8
0
 62
    18
420
        0
370
    25
100
AcDbSpline
210
0.0
220
0.0
230
1.0
 70
     8
 71
     3
 72
     8
 73
     4
 74
     0
 42
0.0000000001
 43
0.0000000001
 40
0.0
 40
0.0
 40
0.0
 40
0.0
 40
1.0
 40
1.0
 40
1.0
 40
1.0
 10
89.40715205106876
 20
94.92764285867176
 30
0.0
 10
89.3324504343192
 20
95.40853378022418
 30
0.0
 10
88.90550508120638
 20
95.75457801283855
 30
0.0
 10
88.41956797853447
 20
95.72809137047974
 30
0.0
  0
CIRCLE
  5
B0
330
70
100
AcDbEntity
  8
0
 62
    18
420
        0
370
    25
100
AcDbCircle
 10
58.19456797754286
 20
94.43379339032711
 30
0.0
 40
3.808593749999981
  0
CIRCLE
  5
B1
330
70
100
AcDbEntity
  8
0
 62
    18
420
        0
370
    25
100
AcDbCircle
 10
58.19456797754295
 20
94.4337933903272
 30
0.0
 40
3.99999999999998
  0
LWPOLYLINE
  5
B2
330
70
100
AcDbEntity
  8
0
 62
     8
420
  8421504
370
    25
100
AcDbPolyline
 90
        4
 70
     0
 43
0.0
 10
46.17332344344286
 20
106.4339836062271
 10
46.17292656054309
 20
105.4339837489271
 10
46.17150621564307
 20
101.433984195827
 10
46.17073877474288
 20
96.20879339032709
  0
LWPOLYLINE
  5
B3
330
70
100
AcDbEntity
  8
0
 62
     8
420
  8421504
370
    25
100
AcDbPolyline
 90
        4
 70
     0
 43
0.0
 10
70.21870260284268
 20
96.20879339032709
 10
70.21840329094249
 20
98.4808047124272
 10
70.21581250054307
 20
106.4339836174273
 10
70.21580827444282
 20
106.4444997755271
  0
LWPOLYLINE
  5
B4
330
70
100
AcDbEntity
  8
0
 62
    18
420
        0
370
    25
100
AcDbPolyline
 90
       16
 70
     0
 43
0.0
 10
145.4001597785432
 20
92.24492630692733
 10
145.4002685747427
 20
92.59186540792731
 10
145.4003306750428
 20
92.99795169782706
 10
145.4003641982431
 20
93.40646724382702
 10
145.4004090150431
 20
93.77469651202707
 10
145.4004710574426
 20
94.07398069592721
 10
145.4005000529429
 20
94.37923090952713
 10
145.4004617365427
 20
94.62548313842704
 10
145.4004573423429
 20
94.7786115710272
 10
145.4004713011432
 20
94.92905149262719
 10
145.4004742455427
 20
95.08158813302712
 10
145.4004043168429
 20
95.25848551702731
 10
145.4003561255428
 20
95.38416295622731
 10
145.4003190855429
 20
95.53499069122716
 10
145.4002900986427
 20
95.89410315482728
 10
145.4002689944427
 20
96.22412550602726
  0
LWPOLYLINE
  5
B5
330
70
100
AcDbEntity
  8
0
 62
    18
420
        0
370
    25
100
AcDbPolyline
 90
        3
 70
     0
 43
0.0
 10
145.1392800286432
 20
82.40973822272744
 10
145.330078463443
 20
87.30112855952686
 10
145.4004912554429
 20
91.05642956662714
  0
LWPOLYLINE
  5
B6
330
70
100
AcDbEntity
  8
0
 62
    18
420
        0
370
    25
100
AcDbPolyline
 90
        5
 70
     0
 43
0.0
 10
145.4004918775431
 20
91.05761864432723
 10
145.4004738540428
 20
91.21103366472722
 10
145.4003746408426
 20
91.4820062854271
 10
145.4002463495427
 20
91.84786922112717
 10
145.400131924143
 20
92.28913547832719
  0
SPLINE
  5
B7
330
70
100
AcDbEntity
  8
0
 62
    18
420
        0
370
    25
100
AcDbSpline
210
0.0
220
0.0
230
1.0
 70
     8
 71
     3
 72
     8
 73
     4
 74
     0
 42
0.0000000001
 43
0.0000000001
 40
0.0
 40
0.0
 40
0.0
 40
0.0
 40
1.0
 40
1.0
 40
1.0
 40
1.0
 10
144.640966291077
 20
81.9337933905564
 30
0.0
 10
144.9077719257548
 20
81.93378531452756
 30
0.0
 10
145.1275798629171
 20
82.14326420470042
 30
0.0
 10
145.1404035592644
 20
82.40976148343527
 30
0.0
  0
LINE
  5
B8
330
70
100
AcDbEntity
  8
0
 62
    18
420
        0
370
    25
100
AcDbLine
 10
165.5225180197427
 20
70.18379339032705
 30
0.0
 11
165.5225180197427
 21
91.18379339032715
 31
0.0
  0
LINE
  5
B9
330
70
100
AcDbEntity
  8
0
 62
    18
420
        0
370
    25
100
AcDbLine
 10
163.0225180197429
 20
91.18379339032715
 30
0.0
 11
163.0225180197429
 21
70.18379339032705
 31
0.0
  0
LINE
  5
BA
330
70
100
AcDbEntity
  8
0
 62
    18
420
        0
370
    25
100
AcDbLine
 10
163.0225180197429
 20
94.43379339032711
 30
0.0
 11
163.0225180197429
 21
91.18379339032715
 31
0.0
  0
LINE
  5
BB
330
70
100
AcDbEntity
  8
0
 62
    18
420
        0
370
    25
100
AcDbLine
 10
165.5225180197427
 20
91.18379339032715
 30
0.0
 11
165.5225180197427
 21
94.43379339032711
 31
0.0
  0
LINE
  5
BC
330
70
100
AcDbEntity
  8
0
 62
    18
420
        0
370
    25
100
AcDbLine
 10
163.0225180197429
 20
70.18379339032705
 30
0.0
 11
163.0225180197429
 21
66.93379339032678
 31
0.0
  0
LINE
  5
BD
330
70
100
AcDbEntity
  8
0
 62
    18
420
        0
370
    25
100
AcDbLine
 10
165.5225180197427
 20
66.93379339032678
 30
0.0
 11
165.5225180197427
 21
70.18379339032705
 31
0.0
  0
LINE
  5
BE
330
70
100
AcDbEntity
  8
0
 62
    18
420
        0
370
    25
100
AcDbLine
 10
145.3975180197429
 20
90.4337933903273
 30
0.0
 11
163.0225180197429
 21
90.4337933903273
 31
0.0
  0
LINE
  5
BF
330
70
100
AcDbEntity
  8
0
 62
    18
420
        0
370
    25
100
AcDbLine
 10
165.5225180197427
 20
90.4337933903273
 30
0.0
 11
166.6510746853427
 21
90.4337933903273
 31
0.0
  0
LINE
  5
C0
330
70
100
AcDbEntity
  8
0
 62
    18
420
        0
370
    25
100
AcDbLine
 10
167.0584814841429
 20
90.4337933903273
 30
0.0
 11
168.2018582500429
 21
90.4337933903273
 31
0.0
  0
LINE
  5
C1
330
70
100
AcDbEntity
  8
0
 62
    18
420
        0
370
    25
100
AcDbLine
 10
168.2018582500429
 20
98.43379339032725
 30
0.0
 11
145.3975180197429
 21
98.43379339032725
 31
0.0
  0
SPLINE
  5
C2
330
70
100
AcDbEntity
  8
0
 62
    18
420
        0
370
    25
100
AcDbSpline
210
0.0
220
0.0
230
1.0
 70
     8
 71
     3
 72
     8
 73
     4
 74
     0
 42
0.0000000001
 43
0.0000000001
 40
0.0
 40
0.0
 40
0.0
 40
0.0
 40
1.0
 40
1.0
 40
1.0
 40
1.0
 10
168.2018582500429
 20
90.4337933903273
 30
0.0
 10
168.3173589205984
 20
90.4337933903273
 30
0.0
 10
168.4178243464797
 20
90.51291609491151
 30
0.0
 10
168.4448948161416
 20
90.62519964032713
 30
0.0
  0
SPLINE
  5
C3
330
70
100
AcDbEntity
  8
0
 62
    18
420
        0
370
    25
100
AcDbSpline
210
0.0
220
0.0
230
1.0
 70
     8
 71
     3
 72
     8
 73
     4
 74
     0
 42
0.0000000001
 43
0.0000000001
 40
0.0
 40
0.0
 40
0.0
 40
0.0
 40
1.0
 40
1.0
 40
1.0
 40
1.0
 10
168.4448948161416
 20
98.24238714032741
 30
0.0
 10
168.4178243464797
 20
98.35467068574303
 30
0.0
 10
168.3173589205984
 20
98.43379339032725
 30
0.0
 10
168.2018582500429
 20
98.43379339032725
 30
0.0
  0
SPLINE
  5
C4
330
70
100
AcDbEntity
  8
0
 62
    18
420
        0
370
    25
100
AcDbSpline
210
0.0
220
0.0
230
1.0
 70
     8
 71
     3
 72
     8
 73
     4
 74
     0
 42
0.0000000001
 43
0.0000000001
 40
0.0
 40
0.0
 40
0.0
 40
0.0
 40
1.0
 40
1.0
 40
1.0
 40
1.0
 10
168.4448948161422
 20
90.62519964032135
 30
0.0
 10
168.7455856345053
 20
91.87241225177151
 30
0.0
 10
168.8975180197427
 20
93.15084589864706
 30
0.0
 10
168.8975180197427
 20
94.43379339032711
 30
0.0
  0
SPLINE
  5
C5
330
70
100
AcDbEntity
  8
0
 62
    18
420
        0
370
    25
100
AcDbSpline
210
0.0
220
0.0
230
1.0
 70
     8
 71
     3
 72
     8
 73
     4
 74
     0
 42
0.0000000001
 43
0.0000000001
 40
0.0
 40
0.0
 40
0.0
 40
0.0
 40
1.0
 40
1.0
 40
1.0
 40
1.0
 10
168.8975180197427
 20
94.43379339032711
 30
0.0
 10
168.8975180197427
 20
95.71674088200715
 30
0.0
 10
168.7455856345053
 20
96.99517452888271
 30
0.0
 10
168.4448948161422
 20
98.24238714033286
 30
0.0
  0
LINE
  5
C6
330
70
100
AcDbEntity
  8
0
 62
    18
420
        0
370
    25
100
AcDbLine
 10
145.3975180197429
 20
97.50879339032714
 30
0.0
 11
145.3872112371427
 21
97.50879339032714
 31
0.0
  0
LWPOLYLINE
  5
C7
330
70
100
AcDbEntity
  8
0
 62
    18
420
        0
370
    25
100
AcDbPolyline
 90
        7
 70
     0
 43
0.0
 10
145.1377221386429
 20
106.4339836062271
 10
145.1380799135429
 20
105.4339837489271
 10
145.139344327143
 20
101.433984195827
 10
145.1403691815429
 20
93.43398415942736
 10
145.1400217898429
 20
90.38678206832711
 10
145.1377221392429
 20
82.43360316332731
 10
145.1377183139428
 20
82.4230870064272
  0
LWPOLYLINE
  5
C8
330
70
100
AcDbEntity
  8
0
 62
    18
420
        0
370
    25
100
AcDbPolyline
 90
        7
 70
     0
 43
0.0
 10
145.1377183139428
 20
82.4230870064272
 10
145.1025378882432
 20
82.42384060142731
 10
145.0150267661429
 20
82.42571542922698
 10
144.885041022043
 20
82.42850092442699
 10
144.727207428443
 20
82.43188429752674
 10
144.6535805889432
 20
82.43346300722713
 10
144.6381737091427
 20
82.43379339592712
  0
LWPOLYLINE
  5
C9
330
70
100
AcDbEntity
  8
0
 62
    18
420
        0
370
    25
100
AcDbPolyline
 90
        4
 70
     0
 43
0.0
 10
144.6381737091427
 20
82.43379339032701
 10
144.6405902438431
 20
90.38687516022729
 10
144.6406105125432
 20
98.33995649502709
 10
144.6381737089432
 20
106.4337933903272
  0
LINE
  5
CA
330
70
100
AcDbEntity
  8
0
 62
    18
420
        0
370
    25
100
AcDbLine
 10
145.1377221386429
 20
106.4339836062271
 30
0.0
 11
144.6381737089432
 21
106.4337933903272
 31
0.0
  0
LWPOLYLINE
  5
CB
330
70
100
AcDbEntity
  8
0
 62
    18
420
        0
370
    25
100
AcDbPolyline
 90
        5
 70
     0
 43
0.0
 10
145.1386161217431
 20
82.43359470652713
 10
145.1386148500432
 20
82.43356473352733
 10
145.138168753243
 20
82.4230567839271
 10
145.1379455106429
 20
82.4178028173276
 10
145.1377221386429
 20
82.4125488563269
  0
LINE
  5
CC
330
70
100
AcDbEntity
  8
0
 62
    18
420
        0
370
    25
100
AcDbLine
 10
144.6381737091427
 20
82.43379339032701
 30
0.0
 11
145.1377221386429
 21
82.4125488563269
 31
0.0
  0
SPLINE
  5
CD
330
70
100
AcDbEntity
  8
0
 62
    18
420
        0
370
    25
100
AcDbSpline
210
0.0
220
0.0
230
1.0
 70
     8
 71
     3
 72
     8
 73
     4
 74
     0
 42
0.0000000001
 43
0.0000000001
 40
0.0
 40
0.0
 40
0.0
 40
0.0
 40
1.0
 40
1.0
 40
1.0
 40
1.0
 10
145.1377183138844
 20
82.4230870064458
 30
0.0
 10
145.1383275573143
 20
82.42655615365425
 30
0.0
 10
145.1386280029921
 20
82.43007248868924
 30
0.0
 10
145.1386161217021
 20
82.43359470656242
 30
0.0
  0
LINE
  5
CE
330
70
100
AcDbEntity
  8
0
 62
    18
420
        0
370
    25
100
AcDbLine
 10
142.3975180197428
 20
106.9337933903272
 30
0.0
 11
144.6381737091427
 21
106.9337933903272
 31
0.0
  0
LINE
  5
CF
330
70
100
AcDbEntity
  8
0
 62
    18
420
        0
370
    25
100
AcDbLine
 10
144.6381737089432
 20
106.4337933903272
 30
0.0
 11
144.6381737091427
 21
106.9337933903272
 31
0.0
  0
LINE
  5
D0
330
70
100
AcDbEntity
  8
0
 62
    18
420
        0
370
    25
100
AcDbLine
 10
144.6381737089432
 20
106.4337933903272
 30
0.0
 11
142.3975180197428
 21
106.4337933903272
 31
0.0
  0
LINE
  5
D1
330
70
100
AcDbEntity
  8
0
 62
    18
420
        0
370
    25
100
AcDbLine
 10
142.3975180197428
 20
106.4337933903272
 30
0.0
 11
142.3975180197428
 21
106.9337933903272
 31
0.0
  0
LINE
  5
D2
330
70
100
AcDbEntity
  8
0
 62
    18
420
        0
370
    25
100
AcDbLine
 10
142.3975180197428
 20
82.43379339032701
 30
0.0
 11
144.6381737091427
 21
82.43379339032701
 31
0.0
  0
LINE
  5
D3
330
70
100
AcDbEntity
  8
0
 62
    18
420
        0
370
    25
100
AcDbLine
 10
142.3975180197428
 20
106.4337933903272
 30
0.0
 11
142.3975180197428
 21
82.43379339032701
 31
0.0
  0
LINE
  5
D4
330
70
100
AcDbEntity
  8
0
 62
    18
420
        0
370
    25
100
AcDbLine
 10
144.6381737089432
 20
81.9337933903273
 30
0.0
 11
144.6381737091427
 21
82.43379339032701
 31
0.0
  0
LINE
  5
D5
330
70
100
AcDbEntity
  8
0
 62
    18
420
        0
370
    25
100
AcDbLine
 10
144.6381737089432
 20
81.9337933903273
 30
0.0
 11
142.3975180197428
 21
81.9337933903273
 31
0.0
  0
LINE
  5
D6
330
70
100
AcDbEntity
  8
0
 62
    18
420
        0
370
    25
100
AcDbLine
 10
142.3975180197428
 20
81.9337933903273
 30
0.0
 11
142.3975180197428
 21
82.43379339032701
 31
0.0
  0
SPLINE
  5
D7
330
70
100
AcDbEntity
  8
0
 62
    18
420
        0
370
    25
100
AcDbSpline
210
0.0
220
0.0
230
1.0
 70
     8
 71
     3
 72
     8
 73
     4
 74
     0
 42
0.0000000001
 43
0.0000000001
 40
0.0
 40
0.0
 40
0.0
 40
0.0
 40
1.0
 40
1.0
 40
1.0
 40
1.0
 10
145.1377221385891
 20
106.4339836061841
 30
0.0
 10
145.1377418224895
 20
106.7099270289376
 30
0.0
 10
144.9141171044136
 20
106.9336687434174
 30
0.0
 10
144.6381737091106
 20
106.933793390357
 30
0.0
  0
SPLINE
  5
D8
330
70
100
AcDbEntity
  8
0
 62
    18
420
        0
370
    25
100
AcDbSpline
210
0.0
220
0.0
230
1.0
 70
     8
 71
     3
 72
     8
 73
     4
 74
     0
 42
0.0000000001
 43
0.0000000001
 40
0.0
 40
0.0
 40
0.0
 40
0.0
 40
1.0
 40
1.0
 40
1.0
 40
1.0
 10
144.6381737089361
 20
81.9337933903793
 30
0.0
 10
144.9060531250193
 20
81.93379339953699
 30
0.0
 10
145.1263402020957
 20
82.14491135320121
 30
0.0
 10
145.1377221386115
 20
82.41254885633203
 30
0.0
  0
SPLINE
  5
D9
330
70
100
AcDbEntity
  8
0
 62
    18
420
        0
370
    25
100
AcDbSpline
210
0.0
220
0.0
230
1.0
 70
     8
 71
     3
 72
     8
 73
     4
 74
     0
 42
0.0000000001
 43
0.0000000001
 40
0.0
 40
0.0
 40
0.0
 40
0.0
 40
1.0
 40
1.0
 40
1.0
 40
1.0
 10
145.1386161217695
 20
82.43359470628456
 30
0.0
 10
145.2739357310978
 20
85.48926546553413
 30
0.0
 10
145.3598310658545
 20
88.5469247784278
 30
0.0
 10
145.3962684348739
 20
91.60537332364503
 30
0.0
  0
LINE
  5
DA
330
70
100
AcDbEntity
  8
0
 62
    18
420
        0
370
    25
100
AcDbLine
 10
145.1386161217431
 20
106.4339920741271
 30
0.0
 11
145.1377221386429
 21
106.4339836062271
 31
0.0
  0
SPLINE
  5
DB
330
70
100
AcDbEntity
  8
0
 62
    18
420
        0
370
    25
100
AcDbSpline
210
0.0
220
0.0
230
1.0
 70
     8
 71
     3
 72
     8
 73
     4
 74
     0
 42
0.0000000001
 43
0.0000000001
 40
0.0
 40
0.0
 40
0.0
 40
0.0
 40
1.0
 40
1.0
 40
1.0
 40
1.0
 10
145.3913059029377
 20
97.26216941024459
 30
0.0
 10
145.3556532283689
 20
100.3205889009088
 30
0.0
 10
145.2714126711676
 20
103.3782489615234
 30
0.0
 10
145.1386161217181
 20
106.4339920741778
 30
0.0
  0
SPLINE
  5
DC
330
70
100
AcDbEntity
  8
0
 62
    18
420
        0
370
    25
100
AcDbSpline
210
0.0
220
0.0
230
1.0
 70
     8
 71
     3
 72
     8
 73
     4
 74
     0
 42
0.0000000001
 43
0.0000000001
 40
0.0
 40
0.0
 40
0.0
 40
0.0
 40
1.0
 40
1.0
 40
1.0
 40
1.0
 10
145.1377183139222
 20
106.4550336881809
 30
0.0
 10
145.1263398585108
 20
106.7226719281439
 30
0.0
 10
144.9060537135246
 20
106.933792473055
 30
0.0
 10
144.6381737091626
 20
106.9337933903445
 30
0.0
  0
LWPOLYLINE
  5
DD
330
70
100
AcDbEntity
  8
0
 62
    18
420
        0
370
    25
100
AcDbPolyline
 90
        7
 70
     0
 43
0.0
 10
145.1377183138427
 20
106.4550336882271
 10
145.137881871743
 20
106.4511893117271
 10
145.1380456611427
 20
106.4473443050273
 10
145.1382411088427
 20
106.4427625996273
 10
145.1384248118429
 20
106.4384628432273
 10
145.138522776943
 20
106.4361725619271
 10
145.1386161217431
 20
106.4339920741271
  0
LINE
  5
DE
330
70
100
AcDbEntity
  8
0
 62
    18
420
        0
370
    25
100
AcDbLine
 10
145.1377183138285
 20
106.455033688212
 30
0.0
 11
145.1395117250404
 21
106.4570370028396
 31
0.0
  0
LINE
  5
DF
330
70
100
AcDbEntity
  8
0
 62
    18
420
        0
370
    25
100
AcDbLine
 10
144.6381737091427
 20
106.9337933903272
 30
0.0
 11
144.640979100543
 21
106.9337933903272
 31
0.0
  0
SPLINE
  5
E0
330
70
100
AcDbEntity
  8
0
 62
    18
420
        0
370
    25
100
AcDbSpline
210
0.0
220
0.0
230
1.0
 70
     8
 71
     3
 72
     8
 73
     4
 74
     0
 42
0.0000000001
 43
0.0000000001
 40
0.0
 40
0.0
 40
0.0
 40
0.0
 40
1.0
 40
1.0
 40
1.0
 40
1.0
 10
145.1403901406938
 20
106.4580547376765
 30
0.0
 10
145.1274486065422
 20
106.7244515267313
 30
0.0
 10
144.9076900536832
 20
106.9337933903272
 30
0.0
 10
144.640979100543
 20
106.9337933903272
 30
0.0
  0
LWPOLYLINE
  5
E1
330
70
100
AcDbEntity
  8
0
 62
    18
420
        0
370
    25
100
AcDbPolyline
 90
        3
 70
     0
 43
0.0
 10
145.1415579408432
 20
106.4339920741271
 10
145.1409042584432
 20
106.4474671795272
 10
145.1403901407433
 20
106.4580547377272
  0
LINE
  5
E2
330
70
100
AcDbEntity
  8
0
 62
    18
420
        0
370
    25
100
AcDbLine
 10
145.1415579408432
 20
106.4339920741271
 30
0.0
 11
145.1386161217431
 21
106.4339920741271
 31
0.0
  0
SPLINE
  5
E3
330
70
100
AcDbEntity
  8
0
 62
    18
420
        0
370
    25
100
AcDbSpline
210
0.0
220
0.0
230
1.0
 70
     8
 71
     3
 72
    11
 73
     7
 74
     0
 42
0.0000000001
 43
0.0000000001
 40
0.0
 40
0.0
 40
0.0
 40
0.0
 40
1.0
 40
1.0
 40
1.0
 40
2.0
 40
2.0
 40
2.0
 40
2.0
 10
165.5225180197427
 20
94.43379339032711
 30
0.0
 10
165.5225180197427
 20
95.12414932761563
 30
0.0
 10
164.9628739570317
 20
95.68379339032732
 30
0.0
 10
164.2725180197431
 20
95.68379339032732
 30
0.0
 10
163.5821620824546
 20
95.68379339032732
 30
0.0
 10
163.0225180197429
 20
95.12414932761563
 30
0.0
 10
163.0225180197429
 20
94.43379339032711
 30
0.0
  0
SPLINE
  5
E4
330
70
100
AcDbEntity
  8
0
 62
    18
420
        0
370
    25
100
AcDbSpline
210
0.0
220
0.0
230
1.0
 70
     8
 71
     3
 72
    11
 73
     7
 74
     0
 42
0.0000000001
 43
0.0000000001
 40
0.0
 40
0.0
 40
0.0
 40
0.0
 40
1.0
 40
1.0
 40
1.0
 40
2.0
 40
2.0
 40
2.0
 40
2.0
 10
163.0225180197429
 20
66.93379339032678
 30
0.0
 10
163.0225180197429
 20
66.24343745303889
 30
0.0
 10
163.5821620824546
 20
65.68379339032722
 30
0.0
 10
164.2725180197431
 20
65.68379339032722
 30
0.0
 10
164.9628739570317
 20
65.68379339032722
 30
0.0
 10
165.5225180197427
 20
66.24343745303889
 30
0.0
 10
165.5225180197427
 20
66.93379339032678
 30
0.0
  0
LINE
  5
E5
330
70
100
AcDbEntity
  8
0
 62
    18
420
        0
370
    25
100
AcDbLine
 10
150.8184939501433
 20
43.02995188002699
 30
0.0
 11
150.5545966308432
 21
43.33054829532744
 31
0.0
  0
LINE
  5
E6
330
70
100
AcDbEntity
  8
0
 62
    18
420
        0
370
    25
100
AcDbLine
 10
149.2835372349427
 20
41.73561398152703
 30
0.0
 11
149.0318221118432
 21
42.046482919827
 31
0.0
  0
SPLINE
  5
E7
330
70
100
AcDbEntity
  8
0
 62
    18
420
        0
370
    25
100
AcDbSpline
210
0.0
220
0.0
230
1.0
 70
     8
 71
     3
 72
     8
 73
     4
 74
     0
 42
0.0000000001
 43
0.0000000001
 40
0.0
 40
0.0
 40
0.0
 40
0.0
 40
1.0
 40
1.0
 40
1.0
 40
1.0
 10
149.0318221118503
 20
42.04648291985203
 30
0.0
 10
149.5478898718282
 20
42.46435052809197
 30
0.0
 10
150.0555820958242
 20
42.89245724914134
 30
0.0
 10
150.554596630849
 20
43.33054829531589
 30
0.0
  0
SPLINE
  5
E8
330
70
100
AcDbEntity
  8
0
 62
    18
420
        0
370
    25
100
AcDbSpline
210
0.0
220
0.0
230
1.0
 70
     8
 71
     3
 72
     8
 73
     4
 74
     0
 42
0.0000000001
 43
0.0000000001
 40
0.0
 40
0.0
 40
0.0
 40
0.0
 40
1.0
 40
1.0
 40
1.0
 40
1.0
 10
149.283537234951
 20
41.73561398153473
 30
0.0
 10
149.8037335370083
 20
42.15682453064037
 30
0.0
 10
150.3154872987964
 20
42.58835610545833
 30
0.0
 10
150.8184939501015
 20
43.0299518800026
 30
0.0
  0
LINE
  5
E9
330
70
100
AcDbEntity
  8
0
 62
    18
420
        0
370
    25
100
AcDbLine
 10
166.0210775515426
 20
94.77608453282707
 30
0.0
 11
165.6365248069427
 21
94.66599735562732
 31
0.0
  0
SPLINE
  5
EA
330
70
100
AcDbEntity
  8
0
 62
    18
420
        0
370
    25
100
AcDbSpline
210
0.0
220
0.0
230
1.0
 70
     8
 71
     3
 72
     8
 73
     4
 74
     0
 42
0.0000000001
 43
0.0000000001
 40
0.0
 40
0.0
 40
0.0
 40
0.0
 40
1.0
 40
1.0
 40
1.0
 40
1.0
 10
150.554596630883
 20
43.33054829527738
 30
0.0
 10
165.0848614742232
 20
56.08684792109746
 30
0.0
 10
170.9579317126335
 20
76.07744159931313
 30
0.0
 10
165.6365248069459
 20
94.66599735562253
 30
0.0
  0
SPLINE
  5
EB
330
70
100
AcDbEntity
  8
0
 62
    18
420
        0
370
    25
100
AcDbSpline
210
0.0
220
0.0
230
1.0
 70
     8
 71
     3
 72
     8
 73
     4
 74
     0
 42
0.0000000001
 43
0.0000000001
 40
0.0
 40
0.0
 40
0.0
 40
0.0
 40
1.0
 40
1.0
 40
1.0
 40
1.0
 10
150.8184939501291
 20
43.02995187997116
 30
0.0
 10
165.4650009122159
 20
55.88830190279814
 30
0.0
 10
171.3850557125328
 20
76.03882033043939
 30
0.0
 10
166.0210775516004
 20
94.77608453279914
 30
0.0
  0
LINE
  5
EC
330
70
100
AcDbEntity
  8
0
 62
    18
420
        0
370
    25
100
AcDbLine
 10
165.9774337662427
 20
94.92764285872727
 30
0.0
 11
165.5932274008431
 21
94.81635283762736
 31
0.0
  0
LINE
  5
ED
330
70
100
AcDbEntity
  8
0
 62
    18
420
        0
370
    25
100
AcDbLine
 10
165.6365248069427
 20
94.66599735562732
 30
0.0
 11
165.5932274008431
 21
94.81635283762736
 31
0.0
  0
LINE
  5
EE
330
70
100
AcDbEntity
  8
0
 62
    18
420
        0
370
    25
100
AcDbLine
 10
166.0210775515426
 20
94.77608453282707
 30
0.0
 11
165.9774337662427
 21
94.92764285872727
 31
0.0
  0
SPLINE
  5
EF
330
70
100
AcDbEntity
  8
0
 62
    18
420
        0
370
    25
100
AcDbSpline
210
0.0
220
0.0
230
1.0
 70
     8
 71
     3
 72
     8
 73
     4
 74
     0
 42
0.0000000001
 43
0.0000000001
 40
0.0
 40
0.0
 40
0.0
 40
0.0
 40
1.0
 40
1.0
 40
1.0
 40
1.0
 10
165.5932274008251
 20
94.816352837628
 30
0.0
 10
165.524571171673
 20
95.05337463006004
 30
0.0
 10
165.3933944742653
 20
95.26755233725605
 30
0.0
 10
165.2134578247119
 20
95.4364185862121
 30
0.0
  0
LINE
  5
F0
330
70
100
AcDbEntity
  8
0
 62
    18
420
        0
370
    25
100
AcDbLine
 10
165.4871857680427
 20
95.72809137052722
 30
0.0
 11
165.2134578247427
 21
95.43641858622718
 31
0.0
  0
SPLINE
  5
F1
330
70
100
AcDbEntity
  8
0
 62
    18
420
        0
370
    25
100
AcDbSpline
210
0.0
220
0.0
230
1.0
 70
     8
 71
     3
 72
     8
 73
     4
 74
     0
 42
0.0000000001
 43
0.0000000001
 40
0.0
 40
0.0
 40
0.0
 40
0.0
 40
1.0
 40
1.0
 40
1.0
 40
1.0
 10
165.9774337662318
 20
94.92764285866117
 30
0.0
 10
165.8888048158713
 20
95.23361644525556
 30
0.0
 10
165.719467624673
 20
95.51010039454485
 30
0.0
 10
165.487185767976
 20
95.72809137047013
 30
0.0
  0
LINE
  5
F2
330
70
100
AcDbEntity
  8
0
 62
    18
420
        0
370
    25
100
AcDbLine
 10
164.4828040673431
 20
96.19629297282706
 30
0.0
 11
164.4354156622432
 21
95.79910996832705
 31
0.0
  0
SPLINE
  5
F3
330
70
100
AcDbEntity
  8
0
 62
    18
420
        0
370
    25
100
AcDbSpline
210
0.0
220
0.0
230
1.0
 70
     8
 71
     3
 72
     8
 73
     4
 74
     0
 42
0.0000000001
 43
0.0000000001
 40
0.0
 40
0.0
 40
0.0
 40
0.0
 40
1.0
 40
1.0
 40
1.0
 40
1.0
 10
165.2134578247126
 20
95.43641858621274
 30
0.0
 10
164.9994617609635
 20
95.63724878209647
 30
0.0
 10
164.7268230342762
 20
95.76434178728568
 30
0.0
 10
164.4354156622553
 20
95.79910996829143
 30
0.0
  0
SPLINE
  5
F4
330
70
100
AcDbEntity
  8
0
 62
    18
420
        0
370
    25
100
AcDbSpline
210
0.0
220
0.0
230
1.0
 70
     8
 71
     3
 72
     8
 73
     4
 74
     0
 42
0.0000000001
 43
0.0000000001
 40
0.0
 40
0.0
 40
0.0
 40
0.0
 40
1.0
 40
1.0
 40
1.0
 40
1.0
 10
165.487185767976
 20
95.72809137047043
 30
0.0
 10
165.2109363038642
 20
95.98734489606593
 30
0.0
 10
164.8589844930493
 20
96.15141041185548
 30
0.0
 10
164.4828040673495
 20
96.19629297279018
 30
0.0
  0
SPLINE
  5
F5
330
70
100
AcDbEntity
  8
0
 62
    18
420
        0
370
    25
100
AcDbSpline
210
0.0
220
0.0
230
1.0
 70
     8
 71
     3
 72
    11
 73
     7
 74
     0
 42
0.0000000001
 43
0.0000000001
 40
0.0
 40
0.0
 40
0.0
 40
0.0
 40
1.0
 40
1.0
 40
1.0
 40
2.0
 40
2.0
 40
2.0
 40
2.0
 10
164.4354156622553
 20
95.79910996829143
 30
0.0
 10
163.6813721375541
 20
95.8890758520344
 30
0.0
 10
162.9971673255214
 20
95.35073455754018
 30
0.0
 10
162.9072014417785
 20
94.5966910328393
 30
0.0
 10
162.8772330248839
 20
94.34551258869083
 30
0.0
 10
162.9171354795482
 20
94.09093498434778
 30
0.0
 10
163.0225180197436
 20
93.86097142845683
 30
0.0
  0
SPLINE
  5
F6
330
70
100
AcDbEntity
  8
0
 62
    18
420
        0
370
    25
100
AcDbSpline
210
0.0
220
0.0
230
1.0
 70
     8
 71
     3
 72
    11
 73
     7
 74
     0
 42
0.0000000001
 43
0.0000000001
 40
0.0
 40
0.0
 40
0.0
 40
0.0
 40
1.0
 40
1.0
 40
1.0
 40
2.0
 40
2.0
 40
2.0
 40
2.0
 10
164.4828040673495
 20
96.19629297279018
 30
0.0
 10
163.5094024263718
 20
96.31243074998543
 30
0.0
 10
162.6261562144753
 20
95.6174810789111
 30
0.0
 10
162.5100184372798
 20
94.64407943793379
 30
0.0
 10
162.445239774688
 20
94.10114105913777
 30
0.0
 10
162.6343105745304
 20
93.55864784543319
 30
0.0
 10
163.0225180197429
 20
93.17358507421436
 30
0.0
  0
SPLINE
  5
F7
330
70
100
AcDbEntity
  8
0
 62
    18
420
        0
370
    25
100
AcDbSpline
210
0.0
220
0.0
230
1.0
 70
     8
 71
     3
 72
     8
 73
     4
 74
     0
 42
0.0000000001
 43
0.0000000001
 40
0.0
 40
0.0
 40
0.0
 40
0.0
 40
1.0
 40
1.0
 40
1.0
 40
1.0
 10
165.3381973364318
 20
95.30267347064972
 30
0.0
 10
165.1129815363983
 20
95.57890010459232
 30
0.0
 10
164.7893089927262
 20
95.75688650879136
 30
0.0
 10
164.4354156622553
 20
95.79910996829143
 30
0.0
  0
LWPOLYLINE
  5
F8
330
70
100
AcDbEntity
  8
0
 62
    18
420
        0
370
    25
100
AcDbPolyline
 90
        3
 70
     0
 43
0.0
 10
165.811902524643
 20
93.93684253662733
 10
165.7719909448431
 20
93.80640970742723
 10
165.5225180197427
 20
93.43365412802732
  0
LINE
  5
F9
330
70
100
AcDbEntity
  8
0
 62
    18
420
        0
370
    25
100
AcDbLine
 10
145.3975180197429
 20
94.43379339032711
 30
0.0
 11
145.3975180197429
 21
91.67848534102716
 31
0.0
  0
LINE
  5
FA
330
70
100
AcDbEntity
  8
0
 62
    18
420
        0
370
    25
100
AcDbLine
 10
145.3975180197429
 20
98.43379339032725
 30
0.0
 11
145.3975180197429
 21
94.43379339032711
 31
0.0
  0
LINE
  5
FB
330
70
100
AcDbEntity
  8
0
 62
     8
420
  8421504
370
    25
100
AcDbLine
 10
145.1402435855522
 20
82.40970063692596
 30
0.0
 11
145.1385730028705
 21
82.41160869158425
 31
0.0
  0
LINE
  5
FC
330
70
100
AcDbEntity
  8
0
 62
     8
420
  8421504
370
    25
100
AcDbLine
 10
163.0225180197429
 20
70.18379339032705
 30
0.0
 11
165.5225180197427
 21
70.18379339032705
 31
0.0
  0
LINE
  5
FD
330
70
100
AcDbEntity
  8
0
 62
     8
420
  8421504
370
    25
100
AcDbLine
 10
163.0225180197429
 20
91.18379339032715
 30
0.0
 11
165.5225180197427
 21
91.18379339032715
 31
0.0
  0
LINE
  5
FE
330
70
100
AcDbEntity
  8
0
 62
     8
420
  8421504
370
    25
100
AcDbLine
 10
168.2018582500429
 20
90.4337933903273
 30
0.0
 11
168.2018582500429
 21
98.43379339032725
 31
0.0
  0
LINE
  5
FF
330
70
100
AcDbEntity
  8
0
 62
     8
420
  8421504
370
    25
100
AcDbLine
 10
168.4448948161429
 20
98.24238714032709
 30
0.0
 11
168.4448948161429
 21
90.62519964032713
 31
0.0
  0
LWPOLYLINE
  5
100
330
70
100
AcDbEntity
  8
0
 62
    18
420
        0
370
    25
100
AcDbPolyline
 90
        3
 70
     0
 43
0.0
 10
61.35649679734302
 20
-15.49831837997249
 10
64.44070677654306
 20
-15.45508519557283
 10
67.00902054344297
 20
-15.35941053337299
  0
LINE
  5
101
330
70
100
AcDbEntity
  8
0
 62
    18
420
        0
370
    25
100
AcDbLine
 10
68.68000252654313
 20
-15.2971632180729
 30
0.0
 11
70.21861613494309
 21
-15.23984688107293
 31
0.0
  0
LWPOLYLINE
  5
102
330
70
100
AcDbEntity
  8
0
 62
    18
420
        0
370
    25
100
AcDbPolyline
 90
        3
 70
     0
 43
0.0
 10
46.17051551434303
 20
-15.23999892507263
 10
51.29413806204288
 20
-15.43751470697293
 10
55.05836415764293
 20
-15.49831837997249
  0
SPLINE
  5
103
330
70
100
AcDbEntity
  8
0
 62
    18
420
        0
370
    25
100
AcDbSpline
210
0.0
220
0.0
230
1.0
 70
     8
 71
     3
 72
     8
 73
     4
 74
     0
 42
0.0000000001
 43
0.0000000001
 40
0.0
 40
0.0
 40
0.0
 40
0.0
 40
1.0
 40
1.0
 40
1.0
 40
1.0
 10
45.69456797777215
 20
-14.74176665131366
 30
0.0
 10
45.69455990174717
 20
-15.00857228598888
 30
0.0
 10
45.90403879191939
 20
-15.22838022314735
 30
0.0
 10
46.17053607065199
 20
-15.24120391949463
 30
0.0
  0
LINE
  5
104
330
70
100
AcDbEntity
  8
0
 62
    18
420
        0
370
    25
100
AcDbLine
 10
32.44456797754308
 20
-33.12331837997255
 30
0.0
 11
29.19456797754313
 21
-33.12331837997255
 31
0.0
  0
LINE
  5
105
330
70
100
AcDbEntity
  8
0
 62
    18
420
        0
370
    25
100
AcDbLine
 10
62.54456797854294
 20
-33.12331837997255
 30
0.0
 11
62.02806629894286
 21
-33.12331837997255
 31
0.0
  0
LINE
  5
106
330
70
100
AcDbEntity
  8
0
 62
    18
420
        0
370
    25
100
AcDbLine
 10
54.32926785334309
 20
-33.12331837997255
 30
0.0
 11
53.79456797854311
 21
-33.12331837997255
 31
0.0
  0
LINE
  5
107
330
70
100
AcDbEntity
  8
0
 62
    18
420
        0
370
    25
100
AcDbLine
 10
53.79456797854311
 20
-35.62331837997297
 30
0.0
 11
54.32932007834283
 21
-35.62331837997297
 31
0.0
  0
LINE
  5
108
330
70
100
AcDbEntity
  8
0
 62
    18
420
        0
370
    25
100
AcDbLine
 10
62.02894686034295
 20
-35.62331837997297
 30
0.0
 11
62.54456797854294
 21
-35.62331837997297
 31
0.0
  0
LINE
  5
109
330
70
100
AcDbEntity
  8
0
 62
    18
420
        0
370
    25
100
AcDbLine
 10
45.66956797854307
 20
-33.12331837997255
 30
0.0
 11
32.44456797754308
 21
-33.12331837997255
 31
0.0
  0
LINE
  5
10A
330
70
100
AcDbEntity
  8
0
 62
    18
420
        0
370
    25
100
AcDbLine
 10
70.69456797754266
 20
-33.37331837997272
 30
0.0
 11
70.66956797854299
 21
-33.34831838097305
 31
0.0
  0
LINE
  5
10B
330
70
100
AcDbEntity
  8
0
 62
    18
420
        0
370
    25
100
AcDbLine
 10
87.19456797754293
 20
-33.12331837997255
 30
0.0
 11
83.94456797754328
 21
-33.12331837997255
 31
0.0
  0
LINE
  5
10C
330
70
100
AcDbEntity
  8
0
 62
    18
420
        0
370
    25
100
AcDbLine
 10
83.94456797754328
 20
-33.12331837997255
 30
0.0
 11
70.66956797854299
 21
-33.12331837997255
 31
0.0
  0
LINE
  5
10D
330
70
100
AcDbEntity
  8
0
 62
    18
420
        0
370
    25
100
AcDbLine
 10
53.79456797854311
 20
-32.59831837997277
 30
0.0
 11
45.66956797854307
 21
-32.59831837997277
 31
0.0
  0
LINE
  5
10E
330
70
100
AcDbEntity
  8
0
 62
    18
420
        0
370
    25
100
AcDbLine
 10
70.66956797854299
 20
-32.59831837997277
 30
0.0
 11
62.54456797854294
 21
-32.59831837997277
 31
0.0
  0
LINE
  5
10F
330
70
100
AcDbEntity
  8
0
 62
    18
420
        0
370
    25
100
AcDbLine
 10
26.91956797854289
 20
-38.06823208537277
 30
0.0
 11
54.19456797754304
 21
-38.06823208537277
 31
0.0
  0
LINE
  5
110
330
70
100
AcDbEntity
  8
0
 62
    18
420
        0
370
    25
100
AcDbLine
 10
62.194567977543
 20
-38.06823208537277
 30
0.0
 11
89.41956797854285
 21
-38.06823208537277
 31
0.0
  0
LINE
  5
111
330
70
100
AcDbEntity
  8
0
 62
    18
420
        0
370
    25
100
AcDbLine
 10
54.19456797754304
 20
-35.99831837997289
 30
0.0
 11
54.19456797754304
 21
-38.30265861037258
 31
0.0
  0
LINE
  5
112
330
70
100
AcDbEntity
  8
0
 62
    18
420
        0
370
    25
100
AcDbLine
 10
54.19456797754304
 20
-15.49831837997249
 30
0.0
 11
54.19456797754304
 21
-32.74831837997262
 31
0.0
  0
LINE
  5
113
330
70
100
AcDbEntity
  8
0
 62
    18
420
        0
370
    25
100
AcDbLine
 10
62.194567977543
 20
-32.68407011557257
 30
0.0
 11
62.194567977543
 21
-15.49831837997249
 31
0.0
  0
LINE
  5
114
330
70
100
AcDbEntity
  8
0
 62
    18
420
        0
370
    25
100
AcDbLine
 10
62.194567977543
 20
-38.30265861037258
 30
0.0
 11
62.194567977543
 21
-36.06699505337281
 31
0.0
  0
SPLINE
  5
115
330
70
100
AcDbEntity
  8
0
 62
    18
420
        0
370
    25
100
AcDbSpline
210
0.0
220
0.0
230
1.0
 70
     8
 71
     3
 72
     8
 73
     4
 74
     0
 42
0.0000000001
 43
0.0000000001
 40
0.0
 40
0.0
 40
0.0
 40
0.0
 40
1.0
 40
1.0
 40
1.0
 40
1.0
 10
54.19456797754304
 20
-38.30265861037258
 30
0.0
 10
54.19456797754304
 20
-38.41815928092876
 30
0.0
 10
54.27369068212726
 20
-38.51862470681004
 30
0.0
 10
54.38597422754288
 20
-38.54569517647131
 30
0.0
  0
SPLINE
  5
116
330
70
100
AcDbEntity
  8
0
 62
    18
420
        0
370
    25
100
AcDbSpline
210
0.0
220
0.0
230
1.0
 70
     8
 71
     3
 72
     8
 73
     4
 74
     0
 42
0.0000000001
 43
0.0000000001
 40
0.0
 40
0.0
 40
0.0
 40
0.0
 40
1.0
 40
1.0
 40
1.0
 40
1.0
 10
62.00316172754316
 20
-38.54569517647131
 30
0.0
 10
62.11544527295878
 20
-38.51862470681004
 30
0.0
 10
62.194567977543
 20
-38.41815928092876
 30
0.0
 10
62.194567977543
 20
-38.30265861037258
 30
0.0
  0
SPLINE
  5
117
330
70
100
AcDbEntity
  8
0
 62
    18
420
        0
370
    25
100
AcDbSpline
210
0.0
220
0.0
230
1.0
 70
     8
 71
     3
 72
     8
 73
     4
 74
     0
 42
0.0000000001
 43
0.0000000001
 40
0.0
 40
0.0
 40
0.0
 40
0.0
 40
1.0
 40
1.0
 40
1.0
 40
1.0
 10
54.3859742275371
 20
-38.54569517637185
 30
0.0
 10
55.63318683898727
 20
-38.84638599473495
 30
0.0
 10
56.91162048586281
 20
-38.998318379973
 30
0.0
 10
58.19456797754286
 20
-38.998318379973
 30
0.0
  0
SPLINE
  5
118
330
70
100
AcDbEntity
  8
0
 62
    18
420
        0
370
    25
100
AcDbSpline
210
0.0
220
0.0
230
1.0
 70
     8
 71
     3
 72
     8
 73
     4
 74
     0
 42
0.0000000001
 43
0.0000000001
 40
0.0
 40
0.0
 40
0.0
 40
0.0
 40
1.0
 40
1.0
 40
1.0
 40
1.0
 10
58.19456797754286
 20
-38.998318379973
 30
0.0
 10
59.47751546922291
 20
-38.998318379973
 30
0.0
 10
60.75594911609845
 20
-38.84638599473495
 30
0.0
 10
62.00316172754862
 20
-38.54569517637185
 30
0.0
  0
LWPOLYLINE
  5
119
330
70
100
AcDbEntity
  8
0
 62
    18
420
        0
370
    25
100
AcDbPolyline
 90
        5
 70
     0
 43
0.0
 10
46.19436929374287
 20
-15.23941648197275
 10
46.19433932064298
 20
-15.23941521027285
 10
46.18383137104308
 20
-15.2389691134726
 10
46.17857740454302
 20
-15.23874587087252
 10
46.17332344344286
 20
-15.23852249887256
  0
LINE
  5
11A
330
70
100
AcDbEntity
  8
0
 62
    18
420
        0
370
    25
100
AcDbLine
 10
46.17332344344286
 20
-15.23852249887256
 30
0.0
 11
46.19456797754308
 21
-14.73897406937298
 31
0.0
  0
LWPOLYLINE
  5
11B
330
70
100
AcDbEntity
  8
0
 62
    18
420
        0
370
    25
100
AcDbPolyline
 90
       11
 70
     0
 43
0.0
 10
46.18386159334295
 20
-15.23851867407292
 10
46.18408440004295
 20
-15.2281169887729
 10
46.18461518824296
 20
-15.20333824817249
 10
46.1854094235429
 20
-15.16626366937278
 10
46.18649001594285
 20
-15.11582712577313
 10
46.18776648004295
 20
-15.0562558239728
 10
46.18927551104309
 20
-14.98584138147301
 10
46.19089089934294
 20
-14.91047672367299
 10
46.19265888394292
 20
-14.82800778777296
 10
46.19423759344311
 20
-14.75438094847274
 10
46.19456797754308
 20
-14.73897406937298
  0
SPLINE
  5
11C
330
70
100
AcDbEntity
  8
0
 62
    18
420
        0
370
    25
100
AcDbSpline
210
0.0
220
0.0
230
1.0
 70
     8
 71
     3
 72
     8
 73
     4
 74
     0
 42
0.0000000001
 43
0.0000000001
 40
0.0
 40
0.0
 40
0.0
 40
0.0
 40
1.0
 40
1.0
 40
1.0
 40
1.0
 10
46.1838615933484
 20
-15.23851867408704
 30
0.0
 10
46.18733044974076
 20
-15.23913014777018
 30
0.0
 10
46.19084698407175
 20
-15.23943061048638
 30
0.0
 10
46.1943692937002
 20
-15.23941648195414
 30
0.0
  0
LWPOLYLINE
  5
11D
330
70
100
AcDbEntity
  8
0
 62
    18
420
        0
370
    25
100
AcDbPolyline
 90
        6
 70
     0
 43
0.0
 10
58.19456797754286
 20
-15.24119050097286
 10
57.19456797754283
 20
-15.24116669277253
 10
53.19456802584305
 20
-15.24063444297302
 10
49.69447282744309
 20
-15.23971161007287
 10
46.19437775234304
 20
-15.23852249937308
 10
46.18386159334295
 20
-15.23851867407292
  0
LWPOLYLINE
  5
11E
330
70
100
AcDbEntity
  8
0
 62
    18
420
        0
370
    25
100
AcDbPolyline
 90
        4
 70
     0
 43
0.0
 10
46.19456797754308
 20
-14.73897406937298
 10
51.88912658574293
 20
-14.74087314947299
 10
55.04184724964297
 20
-14.74153760057302
 10
58.19456797754286
 20
-14.74177946077256
  0
LINE
  5
11F
330
70
100
AcDbEntity
  8
0
 62
    18
420
        0
370
    25
100
AcDbLine
 10
58.19456797754286
 20
-15.24119050097286
 30
0.0
 11
58.19456797754286
 21
-14.74177946077256
 31
0.0
  0
LINE
  5
120
330
70
100
AcDbEntity
  8
0
 62
    18
420
        0
370
    25
100
AcDbLine
 10
70.19456797754296
 20
-12.49831837997303
 30
0.0
 11
46.19456797754308
 21
-12.49831837997303
 31
0.0
  0
LINE
  5
121
330
70
100
AcDbEntity
  8
0
 62
    18
420
        0
370
    25
100
AcDbLine
 10
70.19456797754296
 20
-14.73897406937298
 30
0.0
 11
70.19456797754296
 21
-12.49831837997303
 31
0.0
  0
LWPOLYLINE
  5
122
330
70
100
AcDbEntity
  8
0
 62
    18
420
        0
370
    25
100
AcDbPolyline
 90
        4
 70
     0
 43
0.0
 10
58.19456797754286
 20
-14.74177946077256
 10
63.88914602634303
 20
-14.74102977597259
 10
67.04185703714292
 20
-14.74010724017268
 10
70.19456797754296
 20
-14.73897406937298
  0
LINE
  5
123
330
70
100
AcDbEntity
  8
0
 62
    18
420
        0
370
    25
100
AcDbLine
 10
46.19456797754308
 20
-12.49831837997303
 30
0.0
 11
46.19456797754308
 21
-14.73897406937298
 31
0.0
  0
LINE
  5
124
330
70
100
AcDbEntity
  8
0
 62
    18
420
        0
370
    25
100
AcDbLine
 10
70.19456797754296
 20
-12.49831837997303
 30
0.0
 11
70.69456797754266
 21
-12.49831837997303
 31
0.0
  0
LINE
  5
125
330
70
100
AcDbEntity
  8
0
 62
    18
420
        0
370
    25
100
AcDbLine
 10
70.69456797754266
 20
-12.49831837997303
 30
0.0
 11
70.69456797754266
 21
-14.73897406937298
 31
0.0
  0
LINE
  5
126
330
70
100
AcDbEntity
  8
0
 62
    18
420
        0
370
    25
100
AcDbLine
 10
70.19456797754296
 20
-14.73897406937298
 30
0.0
 11
70.69456797754266
 21
-14.73897406937298
 31
0.0
  0
LINE
  5
127
330
70
100
AcDbEntity
  8
0
 62
    18
420
        0
370
    25
100
AcDbLine
 10
45.69456797754306
 20
-14.73897406917276
 30
0.0
 11
46.19456797754308
 21
-14.73897406937298
 31
0.0
  0
LINE
  5
128
330
70
100
AcDbEntity
  8
0
 62
    18
420
        0
370
    25
100
AcDbLine
 10
45.69456797754306
 20
-14.73897406917276
 30
0.0
 11
45.69456797754306
 21
-12.49831837997303
 31
0.0
  0
LINE
  5
129
330
70
100
AcDbEntity
  8
0
 62
    18
420
        0
370
    25
100
AcDbLine
 10
45.69456797754306
 20
-12.49831837997303
 30
0.0
 11
46.19456797754308
 21
-12.49831837997303
 31
0.0
  0
LWPOLYLINE
  5
12A
330
70
100
AcDbEntity
  8
0
 62
    18
420
        0
370
    25
100
AcDbPolyline
 90
        5
 70
     0
 43
0.0
 10
70.19475820264258
 20
-15.23852249937308
 10
69.19475834554315
 20
-15.23888068707288
 10
65.19475879514302
 20
-15.24014869067306
 10
61.69466353634281
 20
-15.24090993267294
 10
58.19456797754286
 20
-15.24119050097286
  0
LINE
  5
12B
330
70
100
AcDbEntity
  8
0
 62
    18
420
        0
370
    25
100
AcDbLine
 10
70.19475820264258
 20
-15.23852249937308
 30
0.0
 11
70.19456797754296
 21
-14.73897406937298
 31
0.0
  0
SPLINE
  5
12C
330
70
100
AcDbEntity
  8
0
 62
    18
420
        0
370
    25
100
AcDbSpline
210
0.0
220
0.0
230
1.0
 70
     8
 71
     3
 72
     8
 73
     4
 74
     0
 42
0.0000000001
 43
0.0000000001
 40
0.0
 40
0.0
 40
0.0
 40
0.0
 40
1.0
 40
1.0
 40
1.0
 40
1.0
 10
70.19475820272792
 20
-15.23852249940389
 30
0.0
 10
70.47070162200215
 20
-15.23854217804309
 30
0.0
 10
70.69444333081671
 20
-15.01491746120688
 30
0.0
 10
70.69456797755679
 20
-14.7389740693826
 30
0.0
  0
SPLINE
  5
12D
330
70
100
AcDbEntity
  8
0
 62
    18
420
        0
370
    25
100
AcDbSpline
210
0.0
220
0.0
230
1.0
 70
     8
 71
     3
 72
     8
 73
     4
 74
     0
 42
0.0000000001
 43
0.0000000001
 40
0.0
 40
0.0
 40
0.0
 40
0.0
 40
1.0
 40
1.0
 40
1.0
 40
1.0
 10
45.69456797749526
 20
-14.73897406916571
 30
0.0
 10
45.69456798665294
 20
-15.00685348524887
 30
0.0
 10
45.90568594031686
 20
-15.22714056232532
 30
0.0
 10
46.17332344344768
 20
-15.23852249884112
 30
0.0
  0
SPLINE
  5
12E
330
70
100
AcDbEntity
  8
0
 62
    18
420
        0
370
    25
100
AcDbSpline
210
0.0
220
0.0
230
1.0
 70
     8
 71
     3
 72
     8
 73
     4
 74
     0
 42
0.0000000001
 43
0.0000000001
 40
0.0
 40
0.0
 40
0.0
 40
0.0
 40
1.0
 40
1.0
 40
1.0
 40
1.0
 10
61.02296539269708
 20
-15.49464528664061
 30
0.0
 10
64.08139644445444
 20
-15.45841040509729
 30
0.0
 10
67.13905358019033
 20
-15.37332328284344
 30
0.0
 10
70.19476666123569
 20
-15.23941648197724
 30
0.0
  0
LWPOLYLINE
  5
12F
330
70
100
AcDbEntity
  8
0
 62
    18
420
        0
370
    25
100
AcDbPolyline
 90
        7
 70
     0
 43
0.0
 10
70.21580827444282
 20
-15.23851867417302
 10
70.21196389884313
 20
-15.23868223197261
 10
70.20811889294288
 20
-15.23884602137293
 10
70.20353718794293
 20
-15.23904146907301
 10
70.19923743174287
 20
-15.23922517207257
 10
70.19694714974287
 20
-15.23932313717257
 10
70.19476666134285
 20
-15.23941648197275
  0
SPLINE
  5
130
330
70
100
AcDbEntity
  8
0
 62
    18
420
        0
370
    25
100
AcDbSpline
210
0.0
220
0.0
230
1.0
 70
     8
 71
     3
 72
     8
 73
     4
 74
     0
 42
0.0000000001
 43
0.0000000001
 40
0.0
 40
0.0
 40
0.0
 40
0.0
 40
1.0
 40
1.0
 40
1.0
 40
1.0
 10
46.19436929364694
 20
-15.23941648198174
 30
0.0
 10
49.25011240636648
 20
-15.37221303052
 30
0.0
 10
52.30777246699869
 20
-15.45645358772194
 30
0.0
 10
55.36619195767833
 20
-15.49210626320386
 30
0.0
  0
LINE
  5
131
330
70
100
AcDbEntity
  8
0
 62
    18
420
        0
370
    25
100
AcDbLine
 10
58.19456797754286
 20
-15.24235830107278
 30
0.0
 11
58.19456797754286
 21
-15.24119050097286
 31
0.0
  0
LWPOLYLINE
  5
132
330
70
100
AcDbEntity
  8
0
 62
    18
420
        0
370
    25
100
AcDbPolyline
 90
        5
 70
     0
 43
0.0
 10
58.19456797754286
 20
-15.24235830107278
 10
55.06956797754299
 20
-15.24210804507294
 10
51.94456804664287
 20
-15.24142073357297
 10
49.06946864874313
 20
-15.24050440107254
 10
46.19436929374287
 20
-15.23941648197275
  0
LINE
  5
133
330
70
100
AcDbEntity
  8
0
 62
    18
420
        0
370
    25
100
AcDbLine
 10
70.19476666134285
 20
-15.23941648197275
 30
0.0
 11
70.19475820264258
 21
-15.23852249937308
 31
0.0
  0
LWPOLYLINE
  5
134
330
70
100
AcDbEntity
  8
0
 62
    18
420
        0
370
    25
100
AcDbPolyline
 90
        5
 70
     0
 43
0.0
 10
70.19476666134285
 20
-15.23941648197275
 10
67.06976687694295
 20
-15.24059221567254
 10
63.94476702274287
 20
-15.24155534307309
 10
61.06966754934306
 20
-15.24214553747256
 10
58.19456797754286
 20
-15.24235830107278
  0
SPLINE
  5
135
330
70
100
AcDbEntity
  8
0
 62
    18
420
        0
370
    25
100
AcDbSpline
210
0.0
220
0.0
230
1.0
 70
     8
 71
     3
 72
     8
 73
     4
 74
     0
 42
0.0000000001
 43
0.0000000001
 40
0.0
 40
0.0
 40
0.0
 40
0.0
 40
1.0
 40
1.0
 40
1.0
 40
1.0
 10
70.21580827442805
 20
-15.23851867421217
 30
0.0
 10
70.4834465769991
 20
-15.22714035696173
 30
0.0
 10
70.69456720041175
 20
-15.0068541304888
 30
0.0
 10
70.69456797752021
 20
-14.73897406944356
 30
0.0
  0
SPLINE
  5
136
330
70
100
AcDbEntity
  8
0
 62
    18
420
        0
370
    25
100
AcDbSpline
210
0.0
220
0.0
230
1.0
 70
     8
 71
     3
 72
    11
 73
     7
 74
     0
 42
0.0000000001
 43
0.0000000001
 40
0.0
 40
0.0
 40
0.0
 40
0.0
 40
1.0
 40
1.0
 40
1.0
 40
2.0
 40
2.0
 40
2.0
 40
2.0
 10
29.19456797754313
 20
-33.12331837997255
 30
0.0
 10
28.50421204025459
 20
-33.12331837997255
 30
0.0
 10
27.94456797754292
 20
-33.68296244268422
 30
0.0
 10
27.94456797754292
 20
-34.37331837997276
 30
0.0
 10
27.94456797754292
 20
-34.73388763751446
 30
0.0
 10
28.10026832461939
 20
-35.07689386213217
 30
0.0
 10
28.37168749811505
 20
-35.3142581849422
 30
0.0
  0
LINE
  5
137
330
70
100
AcDbEntity
  8
0
 62
    18
420
        0
370
    25
100
AcDbLine
 10
70.69456797754266
 20
-33.37331837997272
 30
0.0
 11
70.69456797754266
 21
-34.47611935297254
 31
0.0
  0
SPLINE
  5
138
330
70
100
AcDbEntity
  8
0
 62
    18
420
        0
370
    25
100
AcDbSpline
210
0.0
220
0.0
230
1.0
 70
     8
 71
     3
 72
    11
 73
     7
 74
     0
 42
0.0000000001
 43
0.0000000001
 40
0.0
 40
0.0
 40
0.0
 40
0.0
 40
1.0
 40
1.0
 40
1.0
 40
2.0
 40
2.0
 40
2.0
 40
2.0
 10
88.01744845697133
 20
-35.3142581849422
 30
0.0
 10
88.5371151617646
 20
-34.85979384522111
 30
0.0
 10
88.58997212223409
 20
-34.07010460533828
 30
0.0
 10
88.135507782513
 20
-33.550437900545
 30
0.0
 10
87.89814345970233
 20
-33.27901872704935
 30
0.0
 10
87.55513723508462
 20
-33.12331837997255
 30
0.0
 10
87.19456797754293
 20
-33.12331837997255
 30
0.0
  0
SPLINE
  5
139
330
70
100
AcDbEntity
  8
0
 62
    18
420
        0
370
    25
100
AcDbSpline
210
0.0
220
0.0
230
1.0
 70
     8
 71
     3
 72
    11
 73
     7
 74
     0
 42
0.0000000001
 43
0.0000000001
 40
0.0
 40
0.0
 40
0.0
 40
0.0
 40
1.0
 40
1.0
 40
1.0
 40
2.0
 40
2.0
 40
2.0
 40
2.0
 10
87.19456797754293
 20
-33.12331837997255
 30
0.0
 10
86.50421204025439
 20
-33.12331837997255
 30
0.0
 10
85.94456797754336
 20
-33.68296244268422
 30
0.0
 10
85.94456797754336
 20
-34.37331837997276
 30
0.0
 10
85.94456797754336
 20
-34.73388763751446
 30
0.0
 10
86.10026832461951
 20
-35.07689386213217
 30
0.0
 10
86.37168749811452
 20
-35.3142581849422
 30
0.0
  0
SPLINE
  5
13A
330
70
100
AcDbEntity
  8
0
 62
    18
420
        0
370
    25
100
AcDbSpline
210
0.0
220
0.0
230
1.0
 70
     8
 71
     3
 72
    14
 73
    10
 74
     0
 42
0.0000000001
 43
0.0000000001
 40
0.0
 40
0.0
 40
0.0
 40
0.0
 40
1.0
 40
1.0
 40
1.0
 40
2.0
 40
2.0
 40
2.0
 40
3.0
 40
3.0
 40
3.0
 40
3.0
 10
88.19456797754297
 20
-34.37331837997276
 30
0.0
 10
88.19456797754297
 20
-33.82103363014181
 30
0.0
 10
87.74685272737388
 20
-33.37331837997272
 30
0.0
 10
87.19456797754293
 20
-33.37331837997272
 30
0.0
 10
86.64228322771197
 20
-33.37331837997272
 30
0.0
 10
86.19456797754288
 20
-33.82103363014181
 30
0.0
 10
86.19456797754288
 20
-34.37331837997276
 30
0.0
 10
86.19456797754288
 20
-34.79506026402428
 30
0.0
 10
86.45916035486949
 20
-35.17146739192322
 30
0.0
 10
86.85599408099673
 20
-35.31425818494284
 30
0.0
  0
SPLINE
  5
13B
330
70
100
AcDbEntity
  8
0
 62
    18
420
        0
370
    25
100
AcDbSpline
210
0.0
220
0.0
230
1.0
 70
     8
 71
     3
 72
     8
 73
     4
 74
     0
 42
0.0000000001
 43
0.0000000001
 40
0.0
 40
0.0
 40
0.0
 40
0.0
 40
1.0
 40
1.0
 40
1.0
 40
1.0
 10
87.53314187408912
 20
-35.31425818494284
 30
0.0
 10
87.92997560021635
 20
-35.17146739192322
 30
0.0
 10
88.19456797754297
 20
-34.79506026402428
 30
0.0
 10
88.19456797754297
 20
-34.37331837997276
 30
0.0
  0
LINE
  5
13C
330
70
100
AcDbEntity
  8
0
 62
    18
420
        0
370
    25
100
AcDbLine
 10
53.79456797854311
 20
-32.59831837997277
 30
0.0
 11
53.79456797854311
 21
-36.07823412647299
 31
0.0
  0
LINE
  5
13D
330
70
100
AcDbEntity
  8
0
 62
    18
420
        0
370
    25
100
AcDbLine
 10
53.79456797854311
 20
-36.07823412647299
 30
0.0
 11
26.93198390594286
 21
-36.07823412647299
 31
0.0
  0
SPLINE
  5
13E
330
70
100
AcDbEntity
  8
0
 62
    18
420
        0
370
    25
100
AcDbSpline
210
0.0
220
0.0
230
1.0
 70
     8
 71
     3
 72
     8
 73
     4
 74
     0
 42
0.0000000001
 43
0.0000000001
 40
0.0
 40
0.0
 40
0.0
 40
0.0
 40
1.0
 40
1.0
 40
1.0
 40
1.0
 10
27.91956797845341
 20
-35.58798612830055
 30
0.0
 10
27.53397660784979
 20
-35.5969267451913
 30
0.0
 10
27.17223014090232
 20
-35.77650181756168
 30
0.0
 10
26.93198390591944
 20
-36.07823412655577
 30
0.0
  0
LINE
  5
13F
330
70
100
AcDbEntity
  8
0
 62
    18
420
        0
370
    25
100
AcDbLine
 10
27.91956797854293
 20
-35.58798612827296
 30
0.0
 11
44.66956797854304
 21
-35.58798612827296
 31
0.0
  0
SPLINE
  5
140
330
70
100
AcDbEntity
  8
0
 62
    18
420
        0
370
    25
100
AcDbSpline
210
0.0
220
0.0
230
1.0
 70
     8
 71
     3
 72
    11
 73
     7
 74
     0
 42
0.0000000001
 43
0.0000000001
 40
0.0
 40
0.0
 40
0.0
 40
0.0
 40
1.0
 40
1.0
 40
1.0
 40
2.0
 40
2.0
 40
2.0
 40
2.0
 10
44.66956797847244
 20
-35.58798612820558
 30
0.0
 10
45.2094369357552
 20
-35.60046162477989
 30
0.0
 10
45.65720058560108
 20
-35.17292475132616
 30
0.0
 10
45.66967608217538
 20
-34.63305579404309
 30
0.0
 10
45.67005695596368
 20
-34.61657372988803
 30
0.0
 10
45.67002090987091
 20
-34.60008466898419
 30
0.0
 10
45.6695679784728
 20
-34.58360442757783
 30
0.0
  0
LINE
  5
141
330
70
100
AcDbEntity
  8
0
 62
    18
420
        0
370
    25
100
AcDbLine
 10
45.66956797854307
 20
-34.5836044276728
 30
0.0
 11
45.66956797854307
 21
-32.59831837997277
 31
0.0
  0
SPLINE
  5
142
330
70
100
AcDbEntity
  8
0
 62
    18
420
        0
370
    25
100
AcDbSpline
210
0.0
220
0.0
230
1.0
 70
     8
 71
     3
 72
    11
 73
     7
 74
     0
 42
0.0000000001
 43
0.0000000001
 40
0.0
 40
0.0
 40
0.0
 40
0.0
 40
1.0
 40
1.0
 40
1.0
 40
2.0
 40
2.0
 40
2.0
 40
2.0
 10
70.66956797845444
 20
-34.58360442767087
 30
0.0
 10
70.65831860039921
 20
-35.12701575621518
 30
0.0
 10
71.08972109859763
 20
-35.57665709990649
 30
0.0
 10
71.63313242714131
 20
-35.58790647796107
 30
0.0
 10
71.6452760787682
 20
-35.58815786861315
 30
0.0
 10
71.65742334378764
 20
-35.5881844232751
 30
0.0
 10
71.66956797845512
 20
-35.58798612829863
 30
0.0
  0
LINE
  5
143
330
70
100
AcDbEntity
  8
0
 62
    18
420
        0
370
    25
100
AcDbLine
 10
71.66956797854303
 20
-35.58798612827296
 30
0.0
 11
88.41956797854281
 21
-35.58798612827296
 31
0.0
  0
SPLINE
  5
144
330
70
100
AcDbEntity
  8
0
 62
    18
420
        0
370
    25
100
AcDbSpline
210
0.0
220
0.0
230
1.0
 70
     8
 71
     3
 72
     8
 73
     4
 74
     0
 42
0.0000000001
 43
0.0000000001
 40
0.0
 40
0.0
 40
0.0
 40
0.0
 40
1.0
 40
1.0
 40
1.0
 40
1.0
 10
89.40715205102128
 20
-36.07823412652753
 30
0.0
 10
89.17156743158036
 20
-35.77078675697323
 30
0.0
 10
88.80689323879252
 20
-35.58975832810185
 30
0.0
 10
88.41956797848764
 20
-35.58798612827296
 30
0.0
  0
LINE
  5
145
330
70
100
AcDbEntity
  8
0
 62
    18
420
        0
370
    25
100
AcDbLine
 10
89.40715205104309
 20
-36.07823412647299
 30
0.0
 11
62.54456797854294
 21
-36.07823412647299
 31
0.0
  0
LINE
  5
146
330
70
100
AcDbEntity
  8
0
 62
    18
420
        0
370
    25
100
AcDbLine
 10
62.54456797854294
 20
-36.07823412647299
 30
0.0
 11
62.54456797854294
 21
-32.59831837997277
 31
0.0
  0
LINE
  5
147
330
70
100
AcDbEntity
  8
0
 62
    18
420
        0
370
    25
100
AcDbLine
 10
70.66956797854299
 20
-32.59831837997277
 30
0.0
 11
70.66956797854299
 21
-34.5836044276728
 31
0.0
  0
LWPOLYLINE
  5
148
330
70
100
AcDbEntity
  8
0
 62
    18
420
        0
370
    25
100
AcDbPolyline
 90
        7
 70
     0
 43
0.0
 10
44.66956797854304
 20
-35.314258184973
 10
45.084541005443
 20
-35.24355492627308
 10
45.38953201444281
 20
-35.09982693597294
 10
45.5007842621431
 20
-34.99577340727309
 10
45.58454100544302
 20
-34.86775907477268
 10
45.64080224424311
 20
-34.71459147947295
 10
45.66956797854307
 20
-34.53621602257286
  0
LINE
  5
149
330
70
100
AcDbEntity
  8
0
 62
    18
420
        0
370
    25
100
AcDbLine
 10
44.66956797854304
 20
-35.58798612827296
 30
0.0
 11
44.66956797854304
 21
-35.314258184973
 31
0.0
  0
SPLINE
  5
14A
330
70
100
AcDbEntity
  8
0
 62
    18
420
        0
370
    25
100
AcDbSpline
210
0.0
220
0.0
230
1.0
 70
     8
 71
     3
 72
     8
 73
     4
 74
     0
 42
0.0000000001
 43
0.0000000001
 40
0.0
 40
0.0
 40
0.0
 40
0.0
 40
1.0
 40
1.0
 40
1.0
 40
1.0
 10
70.66956797853785
 20
-34.53621602250869
 30
0.0
 10
70.73268836028309
 20
-35.02616708497964
 30
0.0
 10
71.17913545931576
 20
-35.37352175133411
 30
0.0
 10
71.66956797853725
 20
-35.31425818496594
 30
0.0
  0
LINE
  5
14B
330
70
100
AcDbEntity
  8
0
 62
    18
420
        0
370
    25
100
AcDbLine
 10
71.66956797854303
 20
-35.58798612827296
 30
0.0
 11
71.66956797854303
 21
-35.314258184973
 31
0.0
  0
LINE
  5
14C
330
70
100
AcDbEntity
  8
0
 62
    18
420
        0
370
    25
100
AcDbLine
 10
27.91956797854293
 20
-35.314258184973
 30
0.0
 11
44.66956797854304
 21
-35.314258184973
 31
0.0
  0
SPLINE
  5
14D
330
70
100
AcDbEntity
  8
0
 62
    18
420
        0
370
    25
100
AcDbSpline
210
0.0
220
0.0
230
1.0
 70
     8
 71
     3
 72
     8
 73
     4
 74
     0
 42
0.0000000001
 43
0.0000000001
 40
0.0
 40
0.0
 40
0.0
 40
0.0
 40
1.0
 40
1.0
 40
1.0
 40
1.0
 10
27.91956797851469
 20
-35.31425818499867
 30
0.0
 10
27.55424088817866
 20
-35.31166764536626
 30
0.0
 10
27.20144926556825
 20
-35.4473315637115
 30
0.0
 10
26.93198390598104
 20
-35.69402776111122
 30
0.0
  0
SPLINE
  5
14E
330
70
100
AcDbEntity
  8
0
 62
    18
420
        0
370
    25
100
AcDbSpline
210
0.0
220
0.0
230
1.0
 70
     8
 71
     3
 72
     8
 73
     4
 74
     0
 42
0.0000000001
 43
0.0000000001
 40
0.0
 40
0.0
 40
0.0
 40
0.0
 40
1.0
 40
1.0
 40
1.0
 40
1.0
 10
89.40715205104053
 20
-35.69402776110481
 30
0.0
 10
89.14790746907982
 20
-35.4312780025566
 30
0.0
 10
88.78806372086197
 20
-35.29290223128955
 30
0.0
 10
88.41956797850496
 20
-35.31425818499161
 30
0.0
  0
LINE
  5
14F
330
70
100
AcDbEntity
  8
0
 62
    18
420
        0
370
    25
100
AcDbLine
 10
71.66956797854303
 20
-35.314258184973
 30
0.0
 11
88.41956797854281
 21
-35.314258184973
 31
0.0
  0
LINE
  5
150
330
70
100
AcDbEntity
  8
0
 62
    18
420
        0
370
    25
100
AcDbLine
 10
27.91956797854293
 20
-35.58798612827296
 30
0.0
 11
27.91956797854293
 21
-35.314258184973
 31
0.0
  0
LINE
  5
151
330
70
100
AcDbEntity
  8
0
 62
    18
420
        0
370
    25
100
AcDbLine
 10
26.93198390594286
 20
-36.07823412647299
 30
0.0
 11
26.93198390594286
 21
-35.69402776107273
 31
0.0
  0
LINE
  5
152
330
70
100
AcDbEntity
  8
0
 62
    18
420
        0
370
    25
100
AcDbLine
 10
88.41956797854281
 20
-35.58798612827296
 30
0.0
 11
88.41956797854281
 21
-35.314258184973
 31
0.0
  0
LINE
  5
153
330
70
100
AcDbEntity
  8
0
 62
    18
420
        0
370
    25
100
AcDbLine
 10
89.40715205104309
 20
-35.69402776107273
 30
0.0
 11
89.40715205104309
 21
-36.07823412647299
 31
0.0
  0
LINE
  5
154
330
70
100
AcDbEntity
  8
0
 62
    18
420
        0
370
    25
100
AcDbLine
 10
62.54456797854294
 20
-36.79705333617299
 30
0.0
 11
62.54456797854294
 21
-36.07823412647299
 31
0.0
  0
LINE
  5
155
330
70
100
AcDbEntity
  8
0
 62
    18
420
        0
370
    25
100
AcDbLine
 10
89.40715205104309
 20
-36.07823412647299
 30
0.0
 11
89.41956797854285
 21
-36.1218779117729
 31
0.0
  0
LINE
  5
156
330
70
100
AcDbEntity
  8
0
 62
    18
420
        0
370
    25
100
AcDbLine
 10
89.41956797854285
 20
-36.1218779117729
 30
0.0
 11
89.41956797854285
 21
-38.06823208537277
 31
0.0
  0
LINE
  5
157
330
70
100
AcDbEntity
  8
0
 62
    18
420
        0
370
    25
100
AcDbLine
 10
26.91956797854289
 20
-38.06823208537277
 30
0.0
 11
26.91956797854289
 21
-36.1218779117729
 31
0.0
  0
LINE
  5
158
330
70
100
AcDbEntity
  8
0
 62
    18
420
        0
370
    25
100
AcDbLine
 10
26.91956797854289
 20
-36.1218779117729
 30
0.0
 11
26.93198390594286
 21
-36.07823412647299
 31
0.0
  0
LINE
  5
159
330
70
100
AcDbEntity
  8
0
 62
    18
420
        0
370
    25
100
AcDbLine
 10
53.79456797854311
 20
-36.07823412647299
 30
0.0
 11
53.79456797854311
 21
-36.79705333617299
 31
0.0
  0
SPLINE
  5
15A
330
70
100
AcDbEntity
  8
0
 62
    18
420
        0
370
    25
100
AcDbSpline
210
0.0
220
0.0
230
1.0
 70
     8
 71
     3
 72
     8
 73
     4
 74
     0
 42
0.0000000001
 43
0.0000000001
 40
0.0
 40
0.0
 40
0.0
 40
0.0
 40
1.0
 40
1.0
 40
1.0
 40
1.0
 10
53.79456797852771
 20
-36.79705333611652
 30
0.0
 10
53.87474294231399
 20
-36.95002447769892
 30
0.0
 10
54.02358509142544
 20
-37.05511075003401
 30
0.0
 10
54.19456797754111
 20
-37.07946331931895
 30
0.0
  0
SPLINE
  5
15B
330
70
100
AcDbEntity
  8
0
 62
    18
420
        0
370
    25
100
AcDbSpline
210
0.0
220
0.0
230
1.0
 70
     8
 71
     3
 72
     8
 73
     4
 74
     0
 42
0.0000000001
 43
0.0000000001
 40
0.0
 40
0.0
 40
0.0
 40
0.0
 40
1.0
 40
1.0
 40
1.0
 40
1.0
 10
62.19456797746857
 20
-37.06219821944499
 30
0.0
 10
62.35131707202438
 20
-37.04540956125172
 30
0.0
 10
62.48596884986618
 20
-36.94340319034319
 30
0.0
 10
62.54456797845535
 20
-36.79705333616978
 30
0.0
  0
LINE
  5
15C
330
70
100
AcDbEntity
  8
0
 62
    18
420
        0
370
    25
100
AcDbLine
 10
89.40715205104309
 20
-35.69402776107273
 30
0.0
 11
89.41956797854285
 21
-35.73732516717299
 31
0.0
  0
LINE
  5
15D
330
70
100
AcDbEntity
  8
0
 62
    18
420
        0
370
    25
100
AcDbLine
 10
26.91956797854289
 20
-35.73732516717299
 30
0.0
 11
26.93198390594286
 21
-35.69402776107273
 31
0.0
  0
SPLINE
  5
15E
330
70
100
AcDbEntity
  8
0
 62
    18
420
        0
370
    25
100
AcDbSpline
210
0.0
220
0.0
230
1.0
 70
     8
 71
     3
 72
     8
 73
     4
 74
     0
 42
0.0000000001
 43
0.0000000001
 40
0.0
 40
0.0
 40
0.0
 40
0.0
 40
1.0
 40
1.0
 40
1.0
 40
1.0
 10
53.79456797853028
 20
-36.40714205635216
 30
0.0
 10
53.87529323709571
 20
-36.55924175783328
 30
0.0
 10
54.02403820020456
 20
-36.66342594519621
 30
0.0
 10
54.194567977544
 20
-36.6873107018744
 30
0.0
  0
LINE
  5
15F
330
70
100
AcDbEntity
  8
0
 62
    18
420
        0
370
    25
100
AcDbLine
 10
26.91956797854289
 20
-20.65539699107285
 30
0.0
 11
26.91956797854289
 21
-35.68800727617292
 31
0.0
  0
SPLINE
  5
160
330
70
100
AcDbEntity
  8
0
 62
    18
420
        0
370
    25
100
AcDbSpline
210
0.0
220
0.0
230
1.0
 70
     8
 71
     3
 72
     8
 73
     4
 74
     0
 42
0.0000000001
 43
0.0000000001
 40
0.0
 40
0.0
 40
0.0
 40
0.0
 40
1.0
 40
1.0
 40
1.0
 40
1.0
 10
28.91956797848168
 20
-19.13262247212548
 30
0.0
 10
27.95656822866046
 20
-19.036644211875
 30
0.0
 10
27.08325959657728
 20
-19.70157027795763
 30
0.0
 10
26.91956797848321
 20
-20.65539699112997
 30
0.0
  0
LINE
  5
161
330
70
100
AcDbEntity
  8
0
 62
    18
420
        0
370
    25
100
AcDbLine
 10
87.41956797854342
 20
-19.13262247207286
 30
0.0
 11
62.194567977543
 21
-19.13262247207286
 31
0.0
  0
LINE
  5
162
330
70
100
AcDbEntity
  8
0
 62
    18
420
        0
370
    25
100
AcDbLine
 10
54.19456797754304
 20
-19.13262247207286
 30
0.0
 11
28.91956797854296
 21
-19.13262247207286
 31
0.0
  0
SPLINE
  5
163
330
70
100
AcDbEntity
  8
0
 62
    18
420
        0
370
    25
100
AcDbSpline
210
0.0
220
0.0
230
1.0
 70
     8
 71
     3
 72
     8
 73
     4
 74
     0
 42
0.0000000001
 43
0.0000000001
 40
0.0
 40
0.0
 40
0.0
 40
0.0
 40
1.0
 40
1.0
 40
1.0
 40
1.0
 10
89.41956797847225
 20
-20.65539699110173
 30
0.0
 10
89.25555179452201
 20
-19.70176708699334
 30
0.0
 10
88.38246436491052
 20
-19.03700944165642
 30
0.0
 10
87.41956797847155
 20
-19.13262247209789
 30
0.0
  0
LINE
  5
164
330
70
100
AcDbEntity
  8
0
 62
    18
420
        0
370
    25
100
AcDbLine
 10
89.41956797854285
 20
-35.68806377027252
 30
0.0
 11
89.41956797854285
 21
-20.65539699107285
 31
0.0
  0
SPLINE
  5
165
330
70
100
AcDbEntity
  8
0
 62
    18
420
        0
370
    25
100
AcDbSpline
210
0.0
220
0.0
230
1.0
 70
     8
 71
     3
 72
     8
 73
     4
 74
     0
 42
0.0000000001
 43
0.0000000001
 40
0.0
 40
0.0
 40
0.0
 40
0.0
 40
1.0
 40
1.0
 40
1.0
 40
1.0
 10
62.19456797747434
 20
-36.6701826152025
 30
0.0
 10
62.35087796259193
 20
-36.65391484654689
 30
0.0
 10
62.48547167105122
 20
-36.55276169173271
 30
0.0
 10
62.5445679784608
 20
-36.40714205639773
 30
0.0
  0
SPLINE
  5
166
330
70
100
AcDbEntity
  8
0
 62
    18
420
        0
370
    25
100
AcDbSpline
210
0.0
220
0.0
230
1.0
 70
     8
 71
     3
 72
     8
 73
     4
 74
     0
 42
0.0000000001
 43
0.0000000001
 40
0.0
 40
0.0
 40
0.0
 40
0.0
 40
1.0
 40
1.0
 40
1.0
 40
1.0
 10
54.19456797750325
 20
-35.99831837997097
 30
0.0
 10
54.64300122582454
 20
-34.96139098006999
 30
0.0
 10
54.64300122582454
 20
-33.78524577987617
 30
0.0
 10
54.19456797750325
 20
-32.74831837997455
 30
0.0
  0
LINE
  5
167
330
70
100
AcDbEntity
  8
0
 62
    18
420
        0
370
    25
100
AcDbLine
 10
61.02849196374311
 20
-15.49831837997249
 30
0.0
 11
55.36064399124284
 21
-15.49831837997249
 31
0.0
  0
LINE
  5
168
330
70
100
AcDbEntity
  8
0
 62
    18
420
        0
370
    25
100
AcDbLine
 10
55.02535273414296
 20
-15.49831837997249
 30
0.0
 11
54.19456797754304
 21
-15.49831837997249
 31
0.0
  0
LWPOLYLINE
  5
169
330
70
100
AcDbEntity
  8
0
 62
    18
420
        0
370
    25
100
AcDbPolyline
 90
       10
 70
     0
 43
0.0
 10
61.99412060004301
 20
-33.23179681827307
 10
62.0249389737431
 20
-33.13270398457276
 10
62.05537921974304
 20
-33.04134792587311
 10
62.08504162974285
 20
-32.95735794327266
 10
62.11267724974288
 20
-32.8828298455728
 10
62.13652879774308
 20
-32.82098587527273
 10
62.17389741844311
 20
-32.72806792247281
 10
62.18603770884307
 20
-32.69881069767303
 10
62.19254251654303
 20
-32.68330708167304
 10
62.19222128684294
 20
-32.68407011557257
  0
SPLINE
  5
16A
330
70
100
AcDbEntity
  8
0
 62
    18
420
        0
370
    25
100
AcDbSpline
210
0.0
220
0.0
230
1.0
 70
     8
 71
     3
 72
     8
 73
     4
 74
     0
 42
0.0000000001
 43
0.0000000001
 40
0.0
 40
0.0
 40
0.0
 40
0.0
 40
1.0
 40
1.0
 40
1.0
 40
1.0
 10
61.99412059999232
 20
-33.23179681824034
 30
0.0
 10
61.71842491876756
 20
-34.17024226909256
 30
0.0
 10
61.7893990917169
 20
-35.17653723185359
 30
0.0
 10
62.19408766464955
 20
-36.06699505331891
 30
0.0
  0
LWPOLYLINE
  5
16B
330
70
100
AcDbEntity
  8
0
 62
     8
420
  8421504
370
    25
100
AcDbPolyline
 90
        5
 70
     0
 43
0.0
 10
70.21866072824311
 20
-15.24104394347298
 10
70.21880472554285
 20
-15.24116954177252
 10
70.21840329094313
 20
-15.24082215007255
 10
70.21581250054307
 20
-15.23852249957265
 10
70.21580827444282
 20
-15.23851867417302
  0
LINE
  5
16C
330
70
100
AcDbEntity
  8
0
 62
     8
420
  8421504
370
    25
100
AcDbLine
 10
46.17047522858803
 20
-15.24104394185398
 30
0.0
 11
46.17238328023868
 21
-15.23937336175705
 31
0.0
  0
LINE
  5
16D
330
70
100
AcDbEntity
  8
0
 62
     8
420
  8421504
370
    25
100
AcDbLine
 10
32.44456797754308
 20
-33.12331837997255
 30
0.0
 11
32.44456797754308
 21
-35.314258184973
 31
0.0
  0
LINE
  5
16E
330
70
100
AcDbEntity
  8
0
 62
     8
420
  8421504
370
    25
100
AcDbLine
 10
83.94456797754328
 20
-35.314258184973
 30
0.0
 11
83.94456797754328
 21
-33.12331837997255
 31
0.0
  0
LINE
  5
16F
330
70
100
AcDbEntity
  8
0
 62
     8
420
  8421504
370
    25
100
AcDbLine
 10
54.19456797754304
 20
-38.30265861037258
 30
0.0
 11
62.194567977543
 21
-38.30265861037258
 31
0.0
  0
LINE
  5
170
330
70
100
AcDbEntity
  8
0
 62
     8
420
  8421504
370
    25
100
AcDbLine
 10
62.00316172754284
 20
-38.54569517637249
 30
0.0
 11
54.38597422754288
 21
-38.54569517637249
 31
0.0
  0
SPLINE
  5
171
330
70
100
AcDbEntity
  8
0
 62
    18
420
        0
370
    25
100
AcDbSpline
210
0.0
220
0.0
230
1.0
 70
     8
 71
     3
 72
     8
 73
     4
 74
     0
 42
0.0000000001
 43
0.0000000001
 40
0.0
 40
0.0
 40
0.0
 40
0.0
 40
1.0
 40
1.0
 40
1.0
 40
1.0
 10
176.2720571433272
 20
-21.98828465229909
 30
0.0
 10
176.4241898990075
 20
-22.06894384212693
 30
0.0
 10
176.6071218197285
 20
-22.06564656302608
 30
0.0
 10
176.7562489968022
 20
-21.97955727616312
 30
0.0
  0
SPLINE
  5
172
330
70
100
AcDbEntity
  8
0
 62
    18
420
        0
370
    25
100
AcDbSpline
210
0.0
220
0.0
230
1.0
 70
     8
 71
     3
 72
     8
 73
     4
 74
     0
 42
0.0000000001
 43
0.0000000001
 40
0.0
 40
0.0
 40
0.0
 40
0.0
 40
1.0
 40
1.0
 40
1.0
 40
1.0
 10
159.2857268819836
 20
8.280368413316999
 30
0.0
 10
159.1310658968534
 20
8.191084527062242
 30
0.0
 10
159.035765467441
 20
8.026091098174093
 30
0.0
 10
159.0357065923152
 20
7.847508822457746
 30
0.0
  0
LWPOLYLINE
  5
173
330
70
100
AcDbEntity
  8
0
 62
    18
420
        0
370
    25
100
AcDbPolyline
 90
        3
 70
     0
 43
0.0
 10
163.0333621168429
 20
-14.3475665756728
 10
163.2558533756427
 20
-14.47609628457285
 10
176.2625217540431
 20
-21.98209910647296
  0
LINE
  5
174
330
70
100
AcDbEntity
  8
0
 62
    18
420
        0
370
    25
100
AcDbLine
 10
176.268450714743
 20
-21.9843164117727
 30
0.0
 11
176.2737291223428
 21
-21.98714769717299
 31
0.0
  0
LWPOLYLINE
  5
175
330
70
100
AcDbEntity
  8
0
 62
    18
420
        0
370
    25
100
AcDbPolyline
 90
        3
 70
     0
 43
0.0
 10
159.0357442109428
 20
7.847520756527502
 10
159.0343804412432
 20
3.260491473027303
 10
159.0359738704428
 20
-7.417855601872771
  0
LINE
  5
176
330
70
100
AcDbEntity
  8
0
 62
    18
420
        0
370
    25
100
AcDbLine
 10
176.7562489967431
 20
-21.97955727617275
 30
0.0
 11
178.3406318288428
 21
-21.06491253597269
 31
0.0
  0
LINE
  5
177
330
70
100
AcDbEntity
  8
0
 62
    18
420
        0
370
    25
100
AcDbLine
 10
160.8701097140429
 20
9.195013153527325
 30
0.0
 11
159.2857268819432
 21
8.280368413327266
 31
0.0
  0
LINE
  5
178
330
70
100
AcDbEntity
  8
0
 62
    18
420
        0
370
    25
100
AcDbLine
 10
163.6833514790432
 20
-19.55876005727308
 30
0.0
 11
163.6833514790432
 21
-19.35465802927266
 31
0.0
  0
LINE
  5
179
330
70
100
AcDbEntity
  8
0
 62
    18
420
        0
370
    25
100
AcDbLine
 10
163.424417210443
 20
-18.78235202117297
 30
0.0
 11
163.2970819820432
 21
-18.70884295847254
 31
0.0
  0
LINE
  5
17A
330
70
100
AcDbEntity
  8
0
 62
    18
420
        0
370
    25
100
AcDbLine
 10
157.2081182789433
 20
-15.19375903337292
 30
0.0
 11
156.7566162583432
 21
-14.93311246487264
 31
0.0
  0
LINE
  5
17B
330
70
100
AcDbEntity
  8
0
 62
    18
420
        0
370
    25
100
AcDbLine
 10
151.3871864296432
 20
-11.83340660387282
 30
0.0
 11
151.3646550494432
 21
-11.82039951497293
 31
0.0
  0
LINE
  5
17C
330
70
100
AcDbEntity
  8
0
 62
    18
420
        0
370
    25
100
AcDbLine
 10
155.7685712746426
 20
-17.24939938957264
 30
0.0
 11
155.9204783224429
 21
-17.33709346167272
 31
0.0
  0
LINE
  5
17D
330
70
100
AcDbEntity
  8
0
 62
    18
420
        0
370
    25
100
AcDbLine
 10
175.5275336848429
 20
-43.74778634537304
 30
0.0
 11
175.3507282653432
 21
-43.64568557157257
 31
0.0
  0
LINE
  5
17E
330
70
100
AcDbEntity
  8
0
 62
    18
420
        0
370
    25
100
AcDbLine
 10
175.8935065874431
 20
-46.50344572387292
 30
0.0
 11
175.8935065874431
 21
-44.25795849127252
 31
0.0
  0
SPLINE
  5
17F
330
70
100
AcDbEntity
  8
0
 62
    18
420
        0
370
    25
100
AcDbSpline
210
0.0
220
0.0
230
1.0
 70
     8
 71
     3
 72
     8
 73
     4
 74
     0
 42
0.0000000001
 43
0.0000000001
 40
0.0
 40
0.0
 40
0.0
 40
0.0
 40
1.0
 40
1.0
 40
1.0
 40
1.0
 10
174.8580245312319
 20
-48.88496096625669
 30
0.0
 10
175.5490141132539
 20
-48.29109499747084
 30
0.0
 10
175.9304537196986
 20
-47.4138183403621
 30
0.0
 10
175.8935065874534
 20
-46.50344572392169
 30
0.0
  0
LINE
  5
180
330
70
100
AcDbEntity
  8
0
 62
    18
420
        0
370
    25
100
AcDbLine
 10
145.2756913464428
 20
-8.305315589872666
 30
0.0
 11
136.554359525343
 21
-3.270597896572853
 31
0.0
  0
SPLINE
  5
181
330
70
100
AcDbEntity
  8
0
 62
    18
420
        0
370
    25
100
AcDbSpline
210
0.0
220
0.0
230
1.0
 70
     8
 71
     3
 72
     8
 73
     4
 74
     0
 42
0.0000000001
 43
0.0000000001
 40
0.0
 40
0.0
 40
0.0
 40
0.0
 40
1.0
 40
1.0
 40
1.0
 40
1.0
 10
136.5543595253642
 20
-3.270597896573494
 30
0.0
 10
135.7427423868789
 20
-2.703430244490147
 30
0.0
 10
134.6871206237433
 20
-2.621830273753181
 30
0.0
 10
133.7979815407232
 20
-3.057528811849202
 30
0.0
  0
LINE
  5
182
330
70
100
AcDbEntity
  8
0
 62
    18
420
        0
370
    25
100
AcDbLine
 10
139.8501765245427
 20
-37.72821868727261
 30
0.0
 11
184.0443503487427
 21
-63.2409721817725
 31
0.0
  0
LINE
  5
183
330
70
100
AcDbEntity
  8
0
 62
    18
420
        0
370
    25
100
AcDbLine
 10
163.8459949042428
 20
-18.41952228137295
 30
0.0
 11
158.1007523070429
 21
-15.10286432717258
 31
0.0
  0
LINE
  5
184
330
70
100
AcDbEntity
  8
0
 62
    18
420
        0
370
    25
100
AcDbLine
 10
151.9122290984427
 20
-11.53030592287255
 30
0.0
 11
146.168325374543
 21
-8.214420883672977
 31
0.0
  0
LINE
  5
185
330
70
100
AcDbEntity
  8
0
 62
    18
420
        0
370
    25
100
AcDbLine
 10
186.0938088776428
 20
-64.19626721347262
 30
0.0
 11
186.2750803513428
 21
-63.84139167997305
 31
0.0
  0
LWPOLYLINE
  5
186
330
70
100
AcDbEntity
  8
0
 62
    18
420
        0
370
    25
100
AcDbPolyline
 90
       11
 70
     0
 43
0.0
 10
149.620986341443
 20
-18.21734302597261
 10
149.8882527051427
 20
-18.57281049537292
 10
150.2650582445433
 20
-18.98877899297247
 10
150.6657049272427
 20
-19.35213871417295
 10
151.0827480950432
 20
-19.65497430177292
 10
151.5086293766427
 20
-19.89016471677257
 10
151.9355258234429
 20
-20.0512523981728
 10
152.3540101833431
 20
-20.13239734787264
 10
152.7527628616427
 20
-20.12987396487267
 10
153.1189437556428
 20
-20.04421935427269
 10
153.2428343862432
 20
-19.98158774727287
  0
LWPOLYLINE
  5
187
330
70
100
AcDbEntity
  8
0
 62
    18
420
        0
370
    25
100
AcDbPolyline
 90
       14
 70
     0
 43
0.0
 10
149.4299999685428
 20
-12.97071924587249
 10
149.1617182016427
 20
-13.14017606827257
 10
148.9088953354427
 20
-13.39919930497298
 10
148.7095824286431
 20
-13.71950618047299
 10
148.5657518465428
 20
-14.0977869745725
 10
148.4808691702427
 20
-14.52865413877266
 10
148.4578543086432
 20
-15.00291511327292
 10
148.4974800235432
 20
-15.50906935687265
 10
148.5983188438431
 20
-16.03490461567304
 10
148.7575211198429
 20
-16.56913650367257
 10
148.9712423534432
 20
-17.1007501387728
 10
149.2347547351432
 20
-17.61889453767309
 10
149.5425204599427
 20
-18.11298246237254
 10
149.620986341443
 20
-18.21734302597261
  0
LINE
  5
188
330
70
100
AcDbEntity
  8
0
 62
    18
420
        0
370
    25
100
AcDbLine
 10
165.484212962643
 20
-3.695366409372923
 30
0.0
 11
149.3591093453427
 21
-13.00419058377288
 31
0.0
  0
LINE
  5
189
330
70
100
AcDbEntity
  8
0
 62
    18
420
        0
370
    25
100
AcDbLine
 10
153.3587842758427
 20
-19.93258148287296
 30
0.0
 11
155.6643033472427
 21
-18.60163365297257
 31
0.0
  0
LINE
  5
18A
330
70
100
AcDbEntity
  8
0
 62
    18
420
        0
370
    25
100
AcDbLine
 10
159.9128792901427
 20
-16.14898296717258
 30
0.0
 11
169.4838878931431
 21
-10.623757308473
 31
0.0
  0
SPLINE
  5
18B
330
70
100
AcDbEntity
  8
0
 62
    18
420
        0
370
    25
100
AcDbSpline
210
0.0
220
0.0
230
1.0
 70
     8
 71
     3
 72
     8
 73
     4
 74
     0
 42
0.0000000001
 43
0.0000000001
 40
0.0
 40
0.0
 40
0.0
 40
0.0
 40
1.0
 40
1.0
 40
1.0
 40
1.0
 10
176.8598227040759
 20
-2.153655387765696
 30
0.0
 10
176.8484715696511
 20
-1.904210329033217
 30
0.0
 10
176.7166195043386
 20
-1.675835853474957
 30
0.0
 10
176.5062693135102
 20
-1.541282953850998
 30
0.0
  0
SPLINE
  5
18C
330
70
100
AcDbEntity
  8
0
 62
    18
420
        0
370
    25
100
AcDbSpline
210
0.0
220
0.0
230
1.0
 70
     8
 71
     3
 72
     8
 73
     4
 74
     0
 42
0.0000000001
 43
0.0000000001
 40
0.0
 40
0.0
 40
0.0
 40
0.0
 40
1.0
 40
1.0
 40
1.0
 40
1.0
 10
176.1531697405835
 20
-2.136201684142926
 30
0.0
 10
176.3731819502688
 20
-2.251623987485613
 30
0.0
 10
176.634380584412
 20
-2.258075362888449
 30
0.0
 10
176.8598227040676
 20
-2.153655387765696
 30
0.0
  0
SPLINE
  5
18D
330
70
100
AcDbEntity
  8
0
 62
    18
420
        0
370
    25
100
AcDbSpline
210
0.0
220
0.0
230
1.0
 70
     8
 71
     3
 72
     8
 73
     4
 74
     0
 42
0.0000000001
 43
0.0000000001
 40
0.0
 40
0.0
 40
0.0
 40
0.0
 40
1.0
 40
1.0
 40
1.0
 40
1.0
 10
176.50626931343
 20
-1.541282953802229
 30
0.0
 10
176.3014699857506
 20
-1.672937578524611
 30
0.0
 10
176.1706415977565
 20
-1.893363385976257
 30
0.0
 10
176.1531697405109
 20
-2.136201684094157
 30
0.0
  0
LWPOLYLINE
  5
18E
330
70
100
AcDbEntity
  8
0
 62
    18
420
        0
370
    25
100
AcDbPolyline
 90
        4
 70
     0
 43
0.0
 10
176.8598227040432
 20
-2.153655387772755
 10
176.8581139559428
 20
-8.648657672372669
 10
176.8580996238431
 20
-15.1426814361727
 10
176.8598227042428
 20
-21.75063487287281
  0
SPLINE
  5
18F
330
70
100
AcDbEntity
  8
0
 62
    18
420
        0
370
    25
100
AcDbSpline
210
0.0
220
0.0
230
1.0
 70
     8
 71
     3
 72
     8
 73
     4
 74
     0
 42
0.0000000001
 43
0.0000000001
 40
0.0
 40
0.0
 40
0.0
 40
0.0
 40
1.0
 40
1.0
 40
1.0
 40
1.0
 10
176.1680573855012
 20
-21.75927796403521
 30
0.0
 10
176.3871324228996
 20
-21.86553144134248
 30
0.0
 10
176.643470755405
 20
-21.86232868528724
 30
0.0
 10
176.8598227041613
 20
-21.75063487292351
 30
0.0
  0
LWPOLYLINE
  5
190
330
70
100
AcDbEntity
  8
0
 62
    18
420
        0
370
    25
100
AcDbPolyline
 90
        7
 70
     0
 43
0.0
 10
176.168057385543
 20
-21.75927796407306
 10
176.1680850390426
 20
-20.94304532307268
 10
176.1681952991431
 20
-17.67797836987262
 10
176.1683014583432
 20
-11.14654982877248
 10
176.1682632442427
 20
-8.658079285372874
 10
176.1680573772432
 20
-2.161987827473038
 10
176.1680570938426
 20
-2.153397668472993
  0
SPLINE
  5
191
330
70
100
AcDbEntity
  8
0
 62
    18
420
        0
370
    25
100
AcDbSpline
210
0.0
220
0.0
230
1.0
 70
     8
 71
     3
 72
     8
 73
     4
 74
     0
 42
0.0000000001
 43
0.0000000001
 40
0.0
 40
0.0
 40
0.0
 40
0.0
 40
1.0
 40
1.0
 40
1.0
 40
1.0
 10
176.1680570939093
 20
-2.153397668506361
 30
0.0
 10
176.3853966147479
 20
-2.263852371700048
 30
0.0
 10
176.6424009431404
 20
-2.26394811939105
 30
0.0
 10
176.8598227040612
 20
-2.15365538774452
 30
0.0
  0
SPLINE
  5
192
330
70
100
AcDbEntity
  8
0
 62
    18
420
        0
370
    25
100
AcDbSpline
210
0.0
220
0.0
230
1.0
 70
     8
 71
     3
 72
     8
 73
     4
 74
     0
 42
0.0000000001
 43
0.0000000001
 40
0.0
 40
0.0
 40
0.0
 40
0.0
 40
1.0
 40
1.0
 40
1.0
 40
1.0
 10
176.1680570939062
 20
-2.153397668516629
 30
0.0
 10
176.1631982089434
 20
-2.150717244473701
 30
0.0
 10
176.1572739537854
 20
-2.150853644835837
 30
0.0
 10
176.1525435806033
 20
-2.153754852463091
 30
0.0
  0
LWPOLYLINE
  5
193
330
70
100
AcDbEntity
  8
0
 62
    18
420
        0
370
    25
100
AcDbPolyline
 90
        5
 70
     0
 43
0.0
 10
176.1525435805429
 20
-2.153754852472717
 10
176.1525444713431
 20
-2.153729854272961
 10
176.1528569222429
 20
-2.144965865472746
 10
176.1530132854431
 20
-2.140583798872513
 10
176.153169740543
 20
-2.136201684173086
  0
LWPOLYLINE
  5
194
330
70
100
AcDbEntity
  8
0
 62
    18
420
        0
370
    25
100
AcDbPolyline
 90
        4
 70
     0
 43
0.0
 10
169.467841391343
 20
-6.013971852272569
 10
171.5589102087427
 20
-4.806437438072695
 10
173.9229500340426
 20
-3.441274863772562
 10
176.1525435805429
 20
-2.153754852472717
  0
LWPOLYLINE
  5
195
330
70
100
AcDbEntity
  8
0
 62
    18
420
        0
370
    25
100
AcDbPolyline
 90
        5
 70
     0
 43
0.0
 10
176.1525435805429
 20
-21.75105880457264
 10
176.1525656739431
 20
-21.7510705107725
 10
176.160311354443
 20
-21.75517434667268
 10
176.1641843261431
 20
-21.75722618267268
 10
176.168057385543
 20
-21.75927796407306
  0
LWPOLYLINE
  5
196
330
70
100
AcDbEntity
  8
0
 62
    18
420
        0
370
    25
100
AcDbPolyline
 90
        6
 70
     0
 43
0.0
 10
169.4639950505432
 20
-10.58745107917279
 10
170.0380149331428
 20
-11.56618856187286
 10
170.8908187415429
 20
-13.00924814787292
 10
171.769810788443
 20
-14.48818476507309
 10
172.6527803400432
 20
-15.96579804187257
 10
176.1525435805429
 20
-21.75105880457264
  0
LWPOLYLINE
  5
197
330
70
100
AcDbEntity
  8
0
 62
    18
420
        0
370
    25
100
AcDbPolyline
 90
        5
 70
     0
 43
0.0
 10
176.153169740543
 20
-2.136201684173086
 10
175.4458097835431
 20
-1.727819782572643
 10
172.6164863627432
 20
-0.0943583119730816
 10
170.1410069910432
 20
1.334795240126934
 10
167.6658672948432
 20
2.763698907127236
  0
SPLINE
  5
198
330
70
100
AcDbEntity
  8
0
 62
    18
420
        0
370
    25
100
AcDbSpline
210
0.0
220
0.0
230
1.0
 70
     8
 71
     3
 72
     8
 73
     4
 74
     0
 42
0.0000000001
 43
0.0000000001
 40
0.0
 40
0.0
 40
0.0
 40
0.0
 40
1.0
 40
1.0
 40
1.0
 40
1.0
 10
168.019004227936
 20
3.356020544904397
 30
0.0
 10
167.8149267437181
 20
3.224874935143783
 30
0.0
 10
167.68419068403
 20
3.005589468960758
 30
0.0
 10
167.6658672948458
 20
2.763698907067558
 30
0.0
  0
LWPOLYLINE
  5
199
330
70
100
AcDbEntity
  8
0
 62
    18
420
        0
370
    25
100
AcDbPolyline
 90
        4
 70
     0
 43
0.0
 10
168.019004227943
 20
3.356020544927498
 10
172.0462090894428
 20
1.031776713127453
 10
174.2761647556428
 20
-0.2547961257727022
 10
176.5062693134428
 20
-1.541282953872816
  0
SPLINE
  5
19A
330
70
100
AcDbEntity
  8
0
 62
    18
420
        0
370
    25
100
AcDbSpline
210
0.0
220
0.0
230
1.0
 70
     8
 71
     3
 72
     8
 73
     4
 74
     0
 42
0.0000000001
 43
0.0000000001
 40
0.0
 40
0.0
 40
0.0
 40
0.0
 40
1.0
 40
1.0
 40
1.0
 40
1.0
 10
178.4442055363264
 20
-1.239010647441789
 30
0.0
 10
178.4328544018644
 20
-0.989565588717653
 30
0.0
 10
178.301002336548
 20
-0.7611911131767191
 30
0.0
 10
178.0906521457331
 20
-0.6266382135437763
 30
0.0
  0
LINE
  5
19B
330
70
100
AcDbEntity
  8
0
 62
    18
420
        0
370
    25
100
AcDbLine
 10
178.4442055363431
 20
-1.239010647472591
 30
0.0
 11
176.8598227040432
 21
-2.153655387772755
 31
0.0
  0
LINE
  5
19C
330
70
100
AcDbEntity
  8
0
 62
    18
420
        0
370
    25
100
AcDbLine
 10
176.5062693134428
 20
-1.541282953872816
 30
0.0
 11
178.0906521457427
 21
-0.6266382135726527
 31
0.0
  0
LWPOLYLINE
  5
19D
330
70
100
AcDbEntity
  8
0
 62
    18
420
        0
370
    25
100
AcDbPolyline
 90
        7
 70
     0
 43
0.0
 10
159.1816998507427
 20
7.643304696527388
 10
159.1838582857429
 20
7.639343182926891
 10
159.4483495139429
 20
7.154311849827085
 10
159.9783541659431
 20
6.184791177227123
 10
161.0424474786428
 20
4.247926236626931
 10
163.1870085991432
 20
0.3830089384272442
 10
165.4979081131428
 20
-3.709686023173097
  0
LWPOLYLINE
  5
19E
330
70
100
AcDbEntity
  8
0
 62
    18
420
        0
370
    25
100
AcDbPolyline
 90
        3
 70
     0
 43
0.0
 10
167.6650415354427
 20
2.743574059526955
 10
167.6655037586429
 20
2.754843868727088
 10
167.6658672948432
 20
2.763698907127236
  0
LWPOLYLINE
  5
19F
330
70
100
AcDbEntity
  8
0
 62
    18
420
        0
370
    25
100
AcDbPolyline
 90
        5
 70
     0
 43
0.0
 10
176.1525435805429
 20
-2.153754852472717
 10
173.9420036725427
 20
-0.8785972050726476
 10
171.731614050643
 20
0.3966472577269374
 10
169.6981943858432
 20
1.57003360412692
 10
167.6650415354427
 20
2.743574059526955
  0
LINE
  5
1A0
330
70
100
AcDbEntity
  8
0
 62
    18
420
        0
370
    25
100
AcDbLine
 10
178.4442055363431
 20
-20.83599013267275
 30
0.0
 11
178.4442055363431
 21
-1.239010647472591
 31
0.0
  0
LINE
  5
1A1
330
70
100
AcDbEntity
  8
0
 62
    18
420
        0
370
    25
100
AcDbLine
 10
176.8598227042428
 20
-21.75063487287281
 30
0.0
 11
178.4442055363431
 21
-20.83599013267275
 31
0.0
  0
LINE
  5
1A2
330
70
100
AcDbEntity
  8
0
 62
    18
420
        0
370
    25
100
AcDbLine
 10
178.0906521457427
 20
-0.6266382135726527
 30
0.0
 11
161.1200893972431
 21
9.170259128327339
 31
0.0
  0
LWPOLYLINE
  5
1A3
330
70
100
AcDbEntity
  8
0
 62
    18
420
        0
370
    25
100
AcDbPolyline
 90
        4
 70
     0
 43
0.0
 10
159.5357065650427
 20
8.255614388027174
 10
163.561024720343
 20
5.930297255327279
 10
165.789865043043
 20
4.643072661527397
 10
168.019004227943
 20
3.356020544927498
  0
LINE
  5
1A4
330
70
100
AcDbEntity
  8
0
 62
    18
420
        0
370
    25
100
AcDbLine
 10
161.1200893972431
 20
9.170259128327339
 30
0.0
 11
159.5357065650427
 21
8.255614388027174
 31
0.0
  0
LWPOLYLINE
  5
1A5
330
70
100
AcDbEntity
  8
0
 62
    18
420
        0
370
    25
100
AcDbPolyline
 90
        6
 70
     0
 43
0.0
 10
167.6658672948432
 20
2.763698907127236
 10
166.9587773485429
 20
3.171890120227029
 10
164.1307266154427
 20
4.804422542127307
 10
161.6564381072428
 20
6.232695923227304
 10
159.1823379730429
 20
7.660850959126978
 10
159.1749046306429
 20
7.665141807826946
  0
SPLINE
  5
1A6
330
70
100
AcDbEntity
  8
0
 62
    18
420
        0
370
    25
100
AcDbSpline
210
0.0
220
0.0
230
1.0
 70
     8
 71
     3
 72
     8
 73
     4
 74
     0
 42
0.0000000001
 43
0.0000000001
 40
0.0
 40
0.0
 40
0.0
 40
0.0
 40
1.0
 40
1.0
 40
1.0
 40
1.0
 10
159.535706565035
 20
8.255614388018832
 30
0.0
 10
159.3263377774415
 20
8.129411426178142
 30
0.0
 10
159.1916757654241
 20
7.909029498810756
 30
0.0
 10
159.1749046306596
 20
7.665141807783952
 30
0.0
  0
SPLINE
  5
1A7
330
70
100
AcDbEntity
  8
0
 62
    18
420
        0
370
    25
100
AcDbSpline
210
0.0
220
0.0
230
1.0
 70
     8
 71
     3
 72
     8
 73
     4
 74
     0
 42
0.0000000001
 43
0.0000000001
 40
0.0
 40
0.0
 40
0.0
 40
0.0
 40
1.0
 40
1.0
 40
1.0
 40
1.0
 10
159.1749046306404
 20
7.665141807752509
 30
0.0
 10
159.1753207521622
 20
7.657411349487031
 30
0.0
 10
159.177656145613
 20
7.649906331890456
 30
0.0
 10
159.1816998507832
 20
7.643304696440117
 30
0.0
  0
LWPOLYLINE
  5
1A8
330
70
100
AcDbEntity
  8
0
 62
    18
420
        0
370
    25
100
AcDbPolyline
 90
        5
 70
     0
 43
0.0
 10
167.6650415354427
 20
2.743574059526955
 10
165.455509801943
 20
4.019313889727468
 10
163.2462871622432
 20
5.29523209962717
 10
161.2139328263428
 20
6.469233385626912
 10
159.1816998507427
 20
7.643304696527388
  0
LWPOLYLINE
  5
1A9
330
70
100
AcDbEntity
  8
0
 62
    18
420
        0
370
    25
100
AcDbPolyline
 90
        5
 70
     0
 43
0.0
 10
159.1816998507427
 20
7.643304696527388
 10
159.1816795558427
 20
7.643317440827527
 10
159.1745647515427
 20
7.647785473827362
 10
159.1710074924428
 20
7.650019566927536
 10
159.1674503288431
 20
7.652253711027381
  0
SPLINE
  5
1AA
330
70
100
AcDbEntity
  8
0
 62
    18
420
        0
370
    25
100
AcDbSpline
210
0.0
220
0.0
230
1.0
 70
     8
 71
     3
 72
     8
 73
     4
 74
     0
 42
0.0000000001
 43
0.0000000001
 40
0.0
 40
0.0
 40
0.0
 40
0.0
 40
1.0
 40
1.0
 40
1.0
 40
1.0
 10
176.1606084926077
 20
-21.77216293746287
 30
0.0
 10
176.1595956230469
 20
-21.76459736402547
 30
0.0
 10
176.1568343582729
 20
-21.75737173048927
 30
0.0
 10
176.1525435806039
 20
-21.75105880460858
 30
0.0
  0
SPLINE
  5
1AB
330
70
100
AcDbEntity
  8
0
 62
    18
420
        0
370
    25
100
AcDbSpline
210
0.0
220
0.0
230
1.0
 70
     8
 71
     3
 72
     8
 73
     4
 74
     0
 42
0.0000000001
 43
0.0000000001
 40
0.0
 40
0.0
 40
0.0
 40
0.0
 40
1.0
 40
1.0
 40
1.0
 40
1.0
 10
159.5357065650401
 20
8.255614387990599
 30
0.0
 10
159.3188260027868
 20
8.129703837980981
 30
0.0
 10
159.180279383894
 20
7.902705423344437
 30
0.0
 10
159.1674503289368
 20
7.652253710961287
 30
0.0
  0
SPLINE
  5
1AC
330
70
100
AcDbEntity
  8
0
 62
    18
420
        0
370
    25
100
AcDbSpline
210
0.0
220
0.0
230
1.0
 70
     8
 71
     3
 72
     8
 73
     4
 74
     0
 42
0.0000000001
 43
0.0000000001
 40
0.0
 40
0.0
 40
0.0
 40
0.0
 40
1.0
 40
1.0
 40
1.0
 40
1.0
 10
176.1680573855199
 20
-21.75927796399414
 30
0.0
 10
176.1569850527468
 20
-21.84908409885124
 30
0.0
 10
176.1971491421942
 20
-21.93752512323699
 30
0.0
 10
176.2720571432707
 20
-21.98828465225225
 30
0.0
  0
LWPOLYLINE
  5
1AD
330
70
100
AcDbEntity
  8
0
 62
    18
420
        0
370
    25
100
AcDbPolyline
 90
        4
 70
     0
 43
0.0
 10
176.2642076038429
 20
-21.97874242457269
 10
176.2455059424432
 20
-21.97198044147291
 10
176.184951938043
 20
-21.89151396947274
 10
176.1606084925429
 20
-21.7721629374725
  0
SPLINE
  5
1AE
330
70
100
AcDbEntity
  8
0
 62
    18
420
        0
370
    25
100
AcDbSpline
210
0.0
220
0.0
230
1.0
 70
     8
 71
     3
 72
     8
 73
     4
 74
     0
 42
0.0000000001
 43
0.0000000001
 40
0.0
 40
0.0
 40
0.0
 40
0.0
 40
1.0
 40
1.0
 40
1.0
 40
1.0
 10
178.3406318289013
 20
-21.06491253592585
 30
0.0
 10
178.4155772639828
 20
-21.01425388607117
 30
0.0
 10
178.4556306988991
 20
-20.92572631661509
 30
0.0
 10
178.4442055363354
 20
-20.83599013269136
 30
0.0
  0
SPLINE
  5
1AF
330
70
100
AcDbEntity
  8
0
 62
    18
420
        0
370
    25
100
AcDbSpline
210
0.0
220
0.0
230
1.0
 70
     8
 71
     3
 72
     8
 73
     4
 74
     0
 42
0.0000000001
 43
0.0000000001
 40
0.0
 40
0.0
 40
0.0
 40
0.0
 40
1.0
 40
1.0
 40
1.0
 40
1.0
 10
161.1200893972682
 20
9.17025912828627
 30
0.0
 10
161.047145769697
 20
9.222515491850801
 30
0.0
 10
160.9518854808364
 20
9.231948560833803
 30
0.0
 10
160.870109714109
 20
9.195013153533743
 30
0.0
  0
LWPOLYLINE
  5
1B0
330
70
100
AcDbEntity
  8
0
 62
    18
420
        0
370
    25
100
AcDbPolyline
 90
        8
 70
     0
 43
0.0
 10
163.6833514790432
 20
-19.55876005727308
 10
163.648743209843
 20
-19.32641399827268
 10
163.5483061006432
 20
-19.15676944757262
 10
163.3918716356427
 20
-19.06643239577303
 10
163.1947527100428
 20
-19.06424566277314
 10
162.976244697843
 20
-19.15042330127275
 10
162.7577366856432
 20
-19.31652964367249
 10
162.6472756928428
 20
-19.4340812915731
  0
SPLINE
  5
1B1
330
70
100
AcDbEntity
  8
0
 62
    18
420
        0
370
    25
100
AcDbSpline
210
0.0
220
0.0
230
1.0
 70
     8
 71
     3
 72
     8
 73
     4
 74
     0
 42
0.0000000001
 43
0.0000000001
 40
0.0
 40
0.0
 40
0.0
 40
0.0
 40
1.0
 40
1.0
 40
1.0
 40
1.0
 10
163.5037112719878
 20
-20.20628156425837
 30
0.0
 10
163.6132916308948
 20
-20.00741306515247
 30
0.0
 10
163.6748119896504
 20
-19.78566006191711
 30
0.0
 10
163.6833514790265
 20
-19.55876005725447
 30
0.0
  0
SPLINE
  5
1B2
330
70
100
AcDbEntity
  8
0
 62
    18
420
        0
370
    25
100
AcDbSpline
210
0.0
220
0.0
230
1.0
 70
     8
 71
     3
 72
    11
 73
     7
 74
     0
 42
0.0000000001
 43
0.0000000001
 40
0.0
 40
0.0
 40
0.0
 40
0.0
 40
1.0
 40
1.0
 40
1.0
 40
2.0
 40
2.0
 40
2.0
 40
2.0
 10
163.6833514790817
 20
-19.35465802931437
 30
0.0
 10
163.735149097046
 20
-19.06041716814019
 30
0.0
 10
163.5386100158587
 20
-18.77989755519896
 30
0.0
 10
163.2443691546845
 20
-18.72809993723396
 30
0.0
 10
163.2363290440516
 20
-18.72668457100246
 30
0.0
 10
163.2282579242924
 20
-18.72545138777801
 30
0.0
 10
163.2201619975321
 20
-18.72440133518132
 30
0.0
  0
LWPOLYLINE
  5
1B3
330
70
100
AcDbEntity
  8
0
 62
    18
420
        0
370
    25
100
AcDbPolyline
 90
       11
 70
     0
 43
0.0
 10
175.5273900639433
 20
-43.74770342137254
 10
175.7406053243431
 20
-43.91212780237285
 10
175.8649401698431
 20
-44.10456932917298
 10
175.8903217306431
 20
-44.30943753357258
 10
175.8146937436429
 20
-44.51013521207284
 10
175.6441831385426
 20
-44.69040303247262
 10
175.3926036705431
 20
-44.83563676797287
 10
175.0803368119431
 20
-44.93407044507278
 10
174.7326805664432
 20
-44.97772955267304
 10
174.3777999754426
 20
-44.96307708947268
 10
174.1617332871429
 20
-44.9238178859727
  0
LWPOLYLINE
  5
1B4
330
70
100
AcDbEntity
  8
0
 62
    18
420
        0
370
    25
100
AcDbPolyline
 90
       11
 70
     0
 43
0.0
 10
175.3506133686431
 20
-44.46202734417313
 10
175.5345131116427
 20
-44.31590642517292
 10
175.6311949280428
 20
-44.14413098267268
 10
175.6311949280428
 20
-43.96351559387274
 10
175.5345131116427
 20
-43.79174015137314
 10
175.3506133686431
 20
-43.64561923237294
 10
175.097497087143
 20
-43.53945617047251
 10
174.7999410524428
 20
-43.48364294587259
 10
174.487072122343
 20
-43.48364294587259
 10
174.1895160876427
 20
-43.53945617047251
 10
174.0307465446429
 20
-43.59761069157302
  0
SPLINE
  5
1B5
330
70
100
AcDbEntity
  8
0
 62
    18
420
        0
370
    25
100
AcDbSpline
210
0.0
220
0.0
230
1.0
 70
     8
 71
     3
 72
     8
 73
     4
 74
     0
 42
0.0000000001
 43
0.0000000001
 40
0.0
 40
0.0
 40
0.0
 40
0.0
 40
1.0
 40
1.0
 40
1.0
 40
1.0
 10
174.1197868700905
 20
-44.54560928516804
 30
0.0
 10
174.5240122189903
 20
-44.68882976180559
 30
0.0
 10
174.9694610907373
 20
-44.65858059073777
 30
0.0
 10
175.3506133685648
 20
-44.46202734419045
 30
0.0
  0
SPLINE
  5
1B6
330
70
100
AcDbEntity
  8
0
 62
    18
420
        0
370
    25
100
AcDbSpline
210
0.0
220
0.0
230
1.0
 70
     8
 71
     3
 72
     8
 73
     4
 74
     0
 42
0.0000000001
 43
0.0000000001
 40
0.0
 40
0.0
 40
0.0
 40
0.0
 40
1.0
 40
1.0
 40
1.0
 40
1.0
 10
156.0077669461658
 20
-16.93280633480342
 30
0.0
 10
155.8214521274771
 20
-17.78233177628374
 30
0.0
 10
155.6519915432267
 20
-18.63546619230011
 30
0.0
 10
155.4994850085922
 20
-19.49170707212209
 30
0.0
  0
LINE
  5
1B7
330
70
100
AcDbEntity
  8
0
 62
    18
420
        0
370
    25
100
AcDbLine
 10
175.0024823040428
 20
-27.89822210537258
 30
0.0
 11
156.0077669461427
 21
-16.93280633477262
 31
0.0
  0
LINE
  5
1B8
330
70
100
AcDbEntity
  8
0
 62
    18
420
        0
370
    25
100
AcDbLine
 10
175.0024823040428
 20
-27.89822210537258
 30
0.0
 11
174.9804008740432
 21
-28.04485946597293
 31
0.0
  0
LWPOLYLINE
  5
1B9
330
70
100
AcDbEntity
  8
0
 62
    18
420
        0
370
    25
100
AcDbPolyline
 90
       27
 70
     0
 43
0.0
 10
174.9804008740432
 20
-28.04485946597293
 10
174.5868826446427
 20
-30.00038513317293
 10
174.2587148392431
 20
-31.93628370497297
 10
173.996516290543
 20
-33.84890461867263
 10
173.8007814315429
 20
-35.73464120617288
 10
173.6718793635427
 20
-37.58993749617265
 10
173.6100531597432
 20
-39.41129491887274
 10
173.615419407043
 20
-41.19527890397275
 10
173.687967986143
 20
-42.93852535687304
 10
173.8275620908428
 20
-44.63774700247285
 10
174.0339384856431
 20
-46.28973958437263
 10
174.3067080024429
 20
-47.89138790667256
 10
174.645356274243
 20
-49.43967170907251
 10
175.0492447051429
 20
-50.93167136137285
 10
175.5176116745429
 20
-52.36457336977263
 10
176.0495739735429
 20
-53.73567568207274
 10
176.6441284700428
 20
-55.04239278307302
 10
177.3001540006429
 20
-56.28226056987301
 10
178.0164134847429
 20
-57.45294099887288
 10
178.7915562574427
 20
-58.55222649427274
 10
179.6241206162427
 20
-59.578044111273
 10
180.5125365779432
 20
-60.52845944497304
 10
181.4551288384428
 20
-61.40168027787272
 10
182.4501199326426
 20
-62.19605995997259
 10
183.495633585743
 20
-62.91010051337288
 10
184.5896982515429
 20
-63.54245545747295
 10
185.7302508301433
 20
-64.0919323478727
  0
LWPOLYLINE
  5
1BA
330
70
100
AcDbEntity
  8
0
 62
    18
420
        0
370
    25
100
AcDbPolyline
 90
        3
 70
     0
 43
0.0
 10
185.7302508301433
 20
-64.0919323478727
 10
186.0343002734431
 20
-64.19867686517306
 10
186.0629433638432
 20
-64.17933637747295
  0
LWPOLYLINE
  5
1BB
330
70
100
AcDbEntity
  8
0
 62
    18
420
        0
370
    25
100
AcDbPolyline
 90
       26
 70
     0
 43
0.0
 10
139.8501765245427
 20
-37.72821868727261
 10
139.301459761543
 20
-37.39734701897309
 10
138.2559461085428
 20
-36.68330646547269
 10
137.260955014343
 20
-35.88892678337283
 10
136.3183627537432
 20
-35.01570595047251
 10
135.4299467921429
 20
-34.06529061677311
 10
134.5973824332428
 20
-33.03947299977286
 10
133.822239660643
 20
-31.94018750437298
 10
133.1059801765431
 20
-30.76950707547259
 10
132.449954645943
 20
-29.5296392886726
 10
131.8554001494431
 20
-28.22292218767296
 10
131.3234378504431
 20
-26.85181987527275
 10
130.8550708809429
 20
-25.41891786687296
 10
130.451182450043
 20
-23.92691821457262
 10
130.112534178243
 20
-22.37863441227277
 10
129.8397646614432
 20
-20.77698608987274
 10
129.633388266743
 20
-19.12499350797296
 10
129.4937941620432
 20
-17.42577186237251
 10
129.4212455828431
 20
-15.68252540947287
 10
129.4158793356427
 20
-13.89854142447295
 10
129.4777055394429
 20
-12.07718400167276
 10
129.606607607443
 20
-10.22188771167298
 10
129.8023424663431
 20
-8.336151124172737
 10
130.0645410150432
 20
-6.423530210572544
 10
130.3927088204428
 20
-4.487631638673033
 10
130.7862270498433
 20
-2.532105971572498
  0
LINE
  5
1BC
330
70
100
AcDbEntity
  8
0
 62
    18
420
        0
370
    25
100
AcDbLine
 10
130.7862270498433
 20
-2.532105971572498
 30
0.0
 11
130.8258672529427
 21
-2.395605074872791
 31
0.0
  0
LWPOLYLINE
  5
1BD
330
70
100
AcDbEntity
  8
0
 62
    18
420
        0
370
    25
100
AcDbPolyline
 90
       10
 70
     0
 43
0.0
 10
150.1805909784429
 20
-18.89553269447289
 10
150.2826158993427
 20
-19.05038013197252
 10
150.5834283326431
 20
-19.43717922867308
 10
151.2491617907426
 20
-20.11476400567256
 10
151.5979619978431
 20
-20.38874616577304
 10
151.9583321208426
 20
-20.62092566347262
 10
152.7020073264429
 20
-20.95757161457306
 10
153.4144739616428
 20
-21.09037835017277
 10
154.0981630005428
 20
-21.01842171157262
 10
154.7571176112432
 20
-20.74022821857303
  0
SPLINE
  5
1BE
330
70
100
AcDbEntity
  8
0
 62
    18
420
        0
370
    25
100
AcDbSpline
210
0.0
220
0.0
230
1.0
 70
     8
 71
     3
 72
     8
 73
     4
 74
     0
 42
0.0000000001
 43
0.0000000001
 40
0.0
 40
0.0
 40
0.0
 40
0.0
 40
1.0
 40
1.0
 40
1.0
 40
1.0
 10
154.7571188423505
 20
-20.74022749330681
 30
0.0
 10
155.1658639839482
 20
-20.44396511613633
 30
0.0
 10
155.4344128911293
 20
-19.99231630728595
 30
0.0
 10
155.4994850086249
 20
-19.49170707202262
 30
0.0
  0
LWPOLYLINE
  5
1BF
330
70
100
AcDbEntity
  8
0
 62
    18
420
        0
370
    25
100
AcDbPolyline
 90
       27
 70
     0
 43
0.0
 10
175.252320727543
 20
-27.97777414897305
 10
174.8619256586427
 20
-29.91777977107275
 10
174.5363623596431
 20
-31.83831406857286
 10
174.2762447517432
 20
-33.73575545117269
 10
174.0820633441433
 20
-35.60652587527265
 10
173.954184308443
 20
-37.44709759157308
 10
173.8928487887433
 20
-39.25399979667306
 10
173.8981724467429
 20
-41.02382517867264
 10
173.9701452435431
 20
-42.75323634227308
 10
174.1086314584429
 20
-44.43897210177301
 10
174.3133699453427
 20
-46.07785363137251
 10
174.583974624743
 20
-47.66679045917288
 10
174.9199352117428
 20
-49.20278629477287
 10
175.3206181789429
 20
-50.68294468007296
 10
175.7852679502429
 20
-52.10447445027281
 10
176.3130083262427
 20
-53.46469499827265
 10
176.9028441362431
 20
-54.761041328573
 10
177.553663115043
 20
-55.99106889487298
 10
178.2642380000432
 20
-57.15245820937277
 10
179.0332288459429
 20
-58.24301921667251
 10
179.8591855511432
 20
-59.26069542397253
 10
180.7405505924429
 20
-60.20356777887287
 10
181.6756619620427
 20
-61.06985828767292
 10
182.6627563015426
 20
-61.85793336917285
 10
183.6999722272428
 20
-62.56630693407254
 10
184.7853538400432
 20
-63.19364318817278
 10
185.9168544141428
 20
-63.73875915077265
  0
LINE
  5
1C0
330
70
100
AcDbEntity
  8
0
 62
    18
420
        0
370
    25
100
AcDbLine
 10
185.7302508301433
 20
-64.0919323478727
 30
0.0
 11
185.9168544141428
 21
-63.73875915077265
 31
0.0
  0
LINE
  5
1C1
330
70
100
AcDbEntity
  8
0
 62
    18
420
        0
370
    25
100
AcDbLine
 10
174.9804008740432
 20
-28.04485946597293
 30
0.0
 11
175.252320727543
 21
-27.97777414897305
 31
0.0
  0
SPLINE
  5
1C2
330
70
100
AcDbEntity
  8
0
 62
    18
420
        0
370
    25
100
AcDbSpline
210
0.0
220
0.0
230
1.0
 70
     8
 71
     3
 72
     8
 73
     4
 74
     0
 42
0.0000000001
 43
0.0000000001
 40
0.0
 40
0.0
 40
0.0
 40
0.0
 40
1.0
 40
1.0
 40
1.0
 40
1.0
 10
151.300935557149
 20
-19.77546703524545
 30
0.0
 10
152.0382872650405
 20
-20.66553083974574
 30
0.0
 10
153.1905675932301
 20
-21.10047549830459
 30
0.0
 10
154.332145361547
 20
-20.91964044612535
 30
0.0
  0
LINE
  5
1C3
330
70
100
AcDbEntity
  8
0
 62
    18
420
        0
370
    25
100
AcDbLine
 10
185.5794050403429
 20
-63.34924008827254
 30
0.0
 11
181.7687270184432
 21
-61.14938249147307
 31
0.0
  0
LWPOLYLINE
  5
1C4
330
70
100
AcDbEntity
  8
0
 62
    18
420
        0
370
    25
100
AcDbPolyline
 90
        5
 70
     0
 43
0.0
 10
185.9168544141428
 20
-63.73875915077265
 10
186.2174326664433
 20
-63.84404566117265
 10
186.2634963949429
 20
-63.81015757487276
 10
186.051564410343
 20
-63.64376334137252
 10
185.5794050403429
 20
-63.34924008827254
  0
LINE
  5
1C5
330
70
100
AcDbEntity
  8
0
 62
    18
420
        0
370
    25
100
AcDbLine
 10
175.2741572304432
 20
-27.83226035287297
 30
0.0
 11
175.252320727543
 21
-27.97777414897305
 31
0.0
  0
SPLINE
  5
1C6
330
70
100
AcDbEntity
  8
0
 62
    18
420
        0
370
    25
100
AcDbSpline
210
0.0
220
0.0
230
1.0
 70
     8
 71
     3
 72
    11
 73
     7
 74
     0
 42
0.0000000001
 43
0.0000000001
 40
0.0
 40
0.0
 40
0.0
 40
0.0
 40
1.0
 40
1.0
 40
1.0
 40
2.0
 40
2.0
 40
2.0
 40
2.0
 10
162.8098723387343
 20
-18.6034457896817
 30
0.0
 10
162.4777585712462
 20
-18.83668575767247
 30
0.0
 10
162.397605519961
 20
-19.29499551399273
 30
0.0
 10
162.6308454879518
 20
-19.62710928148144
 30
0.0
 10
162.6789816577149
 20
-19.69565107056784
 30
0.0
 10
162.7384815963999
 20
-19.7554589261113
 30
0.0
 10
162.8067740085076
 20
-19.80394824595698
 30
0.0
  0
LINE
  5
1C7
330
70
100
AcDbEntity
  8
0
 62
    18
420
        0
370
    25
100
AcDbLine
 10
162.8067740085429
 20
-19.80394824597303
 30
0.0
 11
174.6508125934431
 21
-26.64136618247301
 31
0.0
  0
SPLINE
  5
1C8
330
70
100
AcDbEntity
  8
0
 62
    18
420
        0
370
    25
100
AcDbSpline
210
0.0
220
0.0
230
1.0
 70
     8
 71
     3
 72
     8
 73
     4
 74
     0
 42
0.0000000001
 43
0.0000000001
 40
0.0
 40
0.0
 40
0.0
 40
0.0
 40
1.0
 40
1.0
 40
1.0
 40
1.0
 10
175.0024823040736
 20
-27.89822210540146
 30
0.0
 10
175.1160249258622
 20
-27.44655609980034
 30
0.0
 10
174.9822700676432
 20
-26.96852065721127
 30
0.0
 10
174.6508125934212
 20
-26.6413661824435
 30
0.0
  0
LWPOLYLINE
  5
1C9
330
70
100
AcDbEntity
  8
0
 62
    18
420
        0
370
    25
100
AcDbPolyline
 90
       10
 70
     0
 43
0.0
 10
156.0077669461427
 20
-16.93280633477262
 10
156.1261872871427
 20
-16.54336427827292
 10
156.3076380395429
 20
-16.1595308600726
 10
156.5415989892428
 20
-15.8035601062729
 10
156.8145054677432
 20
-15.49609061147281
 10
157.1105348093427
 20
-15.25494894797291
 10
157.4125237231432
 20
-15.09411611017264
 10
157.702963391843
 20
-15.02291691947289
 10
157.9650146044429
 20
-15.04547938727309
 10
158.1007523070429
 20
-15.10286432717258
  0
LWPOLYLINE
  5
1CA
330
70
100
AcDbEntity
  8
0
 62
    18
420
        0
370
    25
100
AcDbPolyline
 90
       12
 70
     0
 43
0.0
 10
163.873913490943
 20
-20.41999475617291
 10
163.8748162266429
 20
-20.41836129857269
 10
164.0550282848432
 20
-20.02912280337273
 10
164.1701785261432
 20
-19.63559038557269
 10
164.2134341656431
 20
-19.26111547137297
 10
164.1822285003433
 20
-18.92791865287253
 10
164.0784132120431
 20
-18.65577116257289
 10
163.9081484919429
 20
-18.46082168787295
 10
163.6815375081432
 20
-18.35463814057259
 10
163.4120269027428
 20
-18.34352123987297
 10
163.115608895843
 20
-18.42813064037271
 10
162.8098723387426
 20
-18.60344578967272
  0
SPLINE
  5
1CB
330
70
100
AcDbEntity
  8
0
 62
    18
420
        0
370
    25
100
AcDbSpline
210
0.0
220
0.0
230
1.0
 70
     8
 71
     3
 72
     8
 73
     4
 74
     0
 42
0.0000000001
 43
0.0000000001
 40
0.0
 40
0.0
 40
0.0
 40
0.0
 40
1.0
 40
1.0
 40
1.0
 40
1.0
 10
175.2741572304599
 20
-27.8322603528717
 30
0.0
 10
175.3246557771223
 20
-27.42698285579148
 30
0.0
 10
175.1621050812617
 20
-27.02439051565037
 30
0.0
 10
174.844367478336
 20
-26.76779205785693
 30
0.0
  0
LINE
  5
1CC
330
70
100
AcDbEntity
  8
0
 62
    18
420
        0
370
    25
100
AcDbLine
 10
175.2741572304432
 20
-27.83226035287297
 30
0.0
 11
175.0024823040428
 21
-27.89822210537258
 31
0.0
  0
LINE
  5
1CD
330
70
100
AcDbEntity
  8
0
 62
    18
420
        0
370
    25
100
AcDbLine
 10
174.6508125934431
 20
-26.64136618247301
 30
0.0
 11
174.844367478243
 21
-26.76779205787297
 31
0.0
  0
SPLINE
  5
1CE
330
70
100
AcDbEntity
  8
0
 62
    18
420
        0
370
    25
100
AcDbSpline
210
0.0
220
0.0
230
1.0
 70
     8
 71
     3
 72
    11
 73
     7
 74
     0
 42
0.0000000001
 43
0.0000000001
 40
0.0
 40
0.0
 40
0.0
 40
0.0
 40
1.0
 40
1.0
 40
1.0
 40
2.0
 40
2.0
 40
2.0
 40
2.0
 10
162.8433810013385
 20
-18.90841778347505
 30
0.0
 10
162.5952383263077
 20
-19.13954899231663
 30
0.0
 10
162.5814478082035
 20
-19.52807724134579
 30
0.0
 10
162.8125790170451
 20
-19.77621991637721
 30
0.0
 10
162.8553870086472
 20
-19.82217861491038
 30
0.0
 10
162.9049929669474
 20
-19.86129729990869
 30
0.0
 10
162.9596655452355
 20
-19.89221065137965
 30
0.0
  0
LWPOLYLINE
  5
1CF
330
70
100
AcDbEntity
  8
0
 62
    18
420
        0
370
    25
100
AcDbPolyline
 90
       11
 70
     0
 43
0.0
 10
163.673766526543
 20
-20.30445237307313
 10
163.7075568125428
 20
-20.24026136207269
 10
163.8435987946431
 20
-19.91066908797278
 10
163.9180606084431
 20
-19.5842837329731
 10
163.925761229543
 20
-19.28381506397309
 10
163.8661648519429
 20
-19.0301695749731
 10
163.7434181684432
 20
-18.84099582097276
 10
163.5660618457428
 20
-18.72945643887249
 10
163.346436268443
 20
-18.70331229557291
 10
163.0998228993427
 20
-18.76438249067271
 10
162.843381001343
 20
-18.90841778347313
  0
LINE
  5
1D0
330
70
100
AcDbEntity
  8
0
 62
    18
420
        0
370
    25
100
AcDbLine
 10
162.8098723387426
 20
-18.60344578967272
 30
0.0
 11
162.843381001343
 21
-18.90841778347313
 31
0.0
  0
LWPOLYLINE
  5
1D1
330
70
100
AcDbEntity
  8
0
 62
    18
420
        0
370
    25
100
AcDbPolyline
 90
        8
 70
     0
 43
0.0
 10
151.9135679717429
 20
-11.53107883787271
 10
151.7778302690428
 20
-11.47369389807268
 10
151.515779056443
 20
-11.45113143027312
 10
151.2253393877432
 20
-11.52233062087276
 10
150.9233504740427
 20
-11.6831634587725
 10
150.6273211323432
 20
-11.92430512227304
 10
150.3544146538428
 20
-12.23177461697302
 10
150.140053117243
 20
-12.55336134037312
  0
SPLINE
  5
1D2
330
70
100
AcDbEntity
  8
0
 62
    18
420
        0
370
    25
100
AcDbSpline
210
0.0
220
0.0
230
1.0
 70
     8
 71
     3
 72
    11
 73
     7
 74
     0
 42
0.0000000001
 43
0.0000000001
 40
0.0
 40
0.0
 40
0.0
 40
0.0
 40
1.0
 40
1.0
 40
1.0
 40
2.0
 40
2.0
 40
2.0
 40
2.0
 10
131.8708523315909
 20
-1.945020799810528
 30
0.0
 10
131.4843805204974
 20
-1.769447212893491
 30
0.0
 10
131.0287527015979
 20
-1.940414003531735
 30
0.0
 10
130.8531791146809
 20
-2.326885814625228
 30
0.0
 10
130.8429778649883
 20
-2.349340760800665
 30
0.0
 10
130.8338633648291
 20
-2.372273716187644
 30
0.0
 10
130.8258672528811
 20
-2.395605074843273
 30
0.0
  0
LINE
  5
1D3
330
70
100
AcDbEntity
  8
0
 62
    18
420
        0
370
    25
100
AcDbLine
 10
131.8708523316428
 20
-1.945020799872773
 30
0.0
 11
143.7148909165429
 21
-8.782438736372757
 31
0.0
  0
SPLINE
  5
1D4
330
70
100
AcDbEntity
  8
0
 62
    18
420
        0
370
    25
100
AcDbSpline
210
0.0
220
0.0
230
1.0
 70
     8
 71
     3
 72
     8
 73
     4
 74
     0
 42
0.0000000001
 43
0.0000000001
 40
0.0
 40
0.0
 40
0.0
 40
0.0
 40
1.0
 40
1.0
 40
1.0
 40
1.0
 10
143.7148909164589
 20
-8.782438736369549
 30
0.0
 10
144.2218517232897
 20
-8.90049598016575
 30
0.0
 10
144.7542214880839
 20
-8.756222714074194
 30
0.0
 10
145.1322028090577
 20
-8.398344391916911
 30
0.0
  0
SPLINE
  5
1D5
330
70
100
AcDbEntity
  8
0
 62
    18
420
        0
370
    25
100
AcDbSpline
210
0.0
220
0.0
230
1.0
 70
     8
 71
     3
 72
     8
 73
     4
 74
     0
 42
0.0000000001
 43
0.0000000001
 40
0.0
 40
0.0
 40
0.0
 40
0.0
 40
1.0
 40
1.0
 40
1.0
 40
1.0
 10
146.1683253745296
 20
-8.214420883603672
 30
0.0
 10
145.8169284632109
 20
-8.065796118892459
 30
0.0
 10
145.4109776701008
 20
-8.137856989424149
 30
0.0
 10
145.1322028090634
 20
-8.398344391851457
 30
0.0
  0
SPLINE
  5
1D6
330
70
100
AcDbEntity
  8
0
 62
    18
420
        0
370
    25
100
AcDbSpline
210
0.0
220
0.0
230
1.0
 70
     8
 71
     3
 72
     8
 73
     4
 74
     0
 42
0.0000000001
 43
0.0000000001
 40
0.0
 40
0.0
 40
0.0
 40
0.0
 40
1.0
 40
1.0
 40
1.0
 40
1.0
 10
151.4200311154496
 20
-11.8144457703584
 30
0.0
 10
151.1089308966697
 20
-11.85968564635214
 30
0.0
 10
150.8270012273634
 20
-12.02244018011498
 30
0.0
 10
150.6322490776181
 20
-12.26922266059985
 30
0.0
  0
LWPOLYLINE
  5
1D7
330
70
100
AcDbEntity
  8
0
 62
    18
420
        0
370
    25
100
AcDbPolyline
 90
       40
 70
     0
 43
0.0
 10
153.8801764740429
 20
-18.12227796137306
 10
153.845301763343
 20
-17.60328663127251
 10
153.7415808681431
 20
-17.05747142027303
 10
153.5717001049433
 20
-16.49896865537287
 10
153.340059296443
 20
-15.94224326507304
 10
153.0526578178428
 20
-15.40171414447286
 10
152.7169392163433
 20
-14.89138071377253
 10
152.341598427643
 20
-14.42446034087252
 10
151.9363565808428
 20
-14.0130460180725
 10
151.5117092268431
 20
-13.66779316037274
 10
151.078654509243
 20
-13.39764363527254
 10
150.6484083176428
 20
-13.20959417367286
 10
150.2321138024431
 20
-13.10851515787291
 10
149.8405527729431
 20
-13.09702448117283
 10
149.4838664540429
 20
-13.17541974617267
 10
149.1712928340431
 20
-13.34167055657252
 10
148.9109274056428
 20
-13.59147110387297
 10
148.709513496543
 20
-13.91835168497274
 10
148.5722676212429
 20
-14.31384626457259
 10
148.5027443758428
 20
-14.76771174077311
 10
148.5027443758428
 20
-15.26819323627298
 10
148.5722676212429
 20
-15.80232854307286
 10
148.709513496543
 20
-16.35628383737296
 10
148.9109274056428
 20
-16.91571196797285
 10
149.1712928340431
 20
-17.4661240401727
 10
149.4838664540429
 20
-17.99326467047301
 10
149.8405527729431
 20
-18.48348119337302
 10
150.2321138024431
 20
-18.92407725847309
 10
150.6484083176428
 20
-19.30364165917283
 10
151.078654509243
 20
-19.61234387667306
 10
151.5117092268431
 20
-19.8421886859726
 10
151.9363565808428
 20
-19.98722322697292
 10
152.341598427643
 20
-20.04369118137263
 10
152.7169392163433
 20
-20.01013005887287
 10
153.0526578178428
 20
-19.88740907487301
 10
153.340059296443
 20
-19.67870663827267
 10
153.5717001049433
 20
-19.38942803277299
 10
153.7415808681431
 20
-19.0270654220727
 10
153.845301763343
 20
-18.60100380767309
 10
153.8801764740429
 20
-18.12227796137306
  0
LINE
  5
1D8
330
70
100
AcDbEntity
  8
0
 62
    18
420
        0
370
    25
100
AcDbLine
 10
153.3587842758427
 20
-19.93258148287296
 30
0.0
 11
153.2598261002429
 21
-19.98431651077267
 31
0.0
  0
LINE
  5
1D9
330
70
100
AcDbEntity
  8
0
 62
    18
420
        0
370
    25
100
AcDbLine
 10
149.3591093453427
 20
-13.00419058377288
 30
0.0
 11
149.420356273343
 21
-12.97093542597272
 31
0.0
  0
LWPOLYLINE
  5
1DA
330
70
100
AcDbEntity
  8
0
 62
    18
420
        0
370
    25
100
AcDbPolyline
 90
       22
 70
     0
 43
0.0
 10
169.4838878931431
 20
-10.623757308473
 10
169.4840504279428
 20
-10.62366346387269
 10
169.7722960391429
 20
-10.400340521073
 10
170.0041974492433
 20
-10.09721885197283
 10
170.174044475743
 20
-9.721762318272741
 10
170.277654921243
 20
-9.283215905672967
 10
170.3124775526427
 20
-8.792378082572746
 10
170.277654921243
 20
-8.261334904972928
 10
170.174044475743
 20
-7.703162418473042
 10
170.0041974492426
 20
-7.131604681973008
 10
169.7722960391429
 20
-6.56073534407272
 10
169.4840504279428
 20
-6.00461110227271
 10
169.1465581790427
 20
-5.476925581172825
 10
168.7681294717431
 20
-4.99067214967264
 10
168.3580824768427
 20
-4.557823980872762
 10
167.9265139120427
 20
-4.189039233273012
 10
167.4840504279428
 20
-3.893398611372596
 10
167.0415869437427
 20
-3.678181768372819
 10
166.6100183790428
 20
-3.548688057272799
 10
166.1999713840429
 20
-3.508106042972768
 10
165.8215426768428
 20
-3.557434989272982
 10
165.484212962643
 20
-3.695366409372923
  0
SPLINE
  5
1DB
330
70
100
AcDbEntity
  8
0
 62
    18
420
        0
370
    25
100
AcDbSpline
210
0.0
220
0.0
230
1.0
 70
     8
 71
     3
 72
     8
 73
     4
 74
     0
 42
0.0000000001
 43
0.0000000001
 40
0.0
 40
0.0
 40
0.0
 40
0.0
 40
1.0
 40
1.0
 40
1.0
 40
1.0
 10
157.8223665717473
 20
-15.05446699128363
 30
0.0
 10
157.765005391967
 20
-15.00356707578346
 30
0.0
 10
157.7006569156681
 20
-14.96113571247503
 30
0.0
 10
157.6312769950363
 20
-14.92846258962335
 30
0.0
  0
LWPOLYLINE
  5
1DC
330
70
100
AcDbEntity
  8
0
 62
    18
420
        0
370
    25
100
AcDbPolyline
 90
       29
 70
     0
 43
0.0
 10
155.8512161771429
 20
-17.72094742077288
 10
155.8402435369429
 20
-17.69770440817304
 10
155.8144232932426
 20
-17.61954861077285
 10
155.795440209543
 20
-17.53657802237311
 10
155.771865310243
 20
-17.33884249047249
 10
155.7676541091431
 20
-17.22449555227279
 10
155.768353947943
 20
-17.11610891967272
 10
155.7827422612428
 20
-16.87949026227292
 10
155.796764220643
 20
-16.75271745497281
 10
155.814383338443
 20
-16.62899059487287
 10
155.8630566953433
 20
-16.37310428677278
 10
155.8944930595428
 20
-16.24267902037254
 10
155.9317306445427
 20
-16.10922038577252
 10
156.0230630086427
 20
-15.84476361387257
 10
156.0778209715429
 20
-15.7158081940729
 10
156.1399099287429
 20
-15.58899046417273
 10
156.2087863836427
 20
-15.46760949267311
 10
156.2859494191427
 20
-15.35117310277261
 10
156.3705945564427
 20
-15.24294833277267
 10
156.4549672266428
 20
-15.15201293027273
 10
156.6436817556431
 20
-14.99795112577272
 10
156.747378743943
 20
-14.93728408707309
 10
156.841914142643
 20
-14.89459230327258
 10
157.0402399699427
 20
-14.83969311077252
 10
157.1424222379432
 20
-14.82824270907288
 10
157.2416605544432
 20
-14.82756982887288
 10
157.4386127842428
 20
-14.8568701309728
 10
157.5344941435427
 20
-14.88671969747286
 10
157.6312769950427
 20
-14.92846258967277
  0
LWPOLYLINE
  5
1DD
330
70
100
AcDbEntity
  8
0
 62
     8
420
  8421504
370
    25
100
AcDbPolyline
 90
        6
 70
     0
 43
0.0
 10
159.1674503288431
 20
7.652253711027381
 10
159.1669167051429
 20
6.835728979726924
 10
159.1650182942432
 20
3.569629748927475
 10
159.1634627720431
 20
-2.96263549157286
 10
159.163992272243
 20
-5.450822421572532
 10
159.1650000234429
 20
-7.343370389272657
  0
LWPOLYLINE
  5
1DE
330
70
100
AcDbEntity
  8
0
 62
     8
420
  8421504
370
    25
100
AcDbPolyline
 90
        5
 70
     0
 43
0.0
 10
163.1638385566431
 20
-14.2722441301729
 10
168.3728540023427
 20
-17.28099887997269
 10
170.5277969076429
 20
-18.52440953827297
 10
176.1531697418431
 20
-21.76787521197309
 10
176.1606084925429
 20
-21.7721629374725
  0
SPLINE
  5
1DF
330
70
100
AcDbEntity
  8
0
 62
     8
420
  8421504
370
    25
100
AcDbSpline
210
0.0
220
0.0
230
1.0
 70
     8
 71
     3
 72
     8
 73
     4
 74
     0
 42
0.0000000001
 43
0.0000000001
 40
0.0
 40
0.0
 40
0.0
 40
0.0
 40
1.0
 40
1.0
 40
1.0
 40
1.0
 10
176.7562489968015
 20
-21.9795572761259
 30
0.0
 10
176.8311944318831
 20
-21.92889862627122
 30
0.0
 10
176.8712478667988
 20
-21.84037105681451
 30
0.0
 10
176.8598227042357
 20
-21.75063487289142
 30
0.0
  0
SPLINE
  5
1E0
330
70
100
AcDbEntity
  8
0
 62
     8
420
  8421504
370
    25
100
AcDbSpline
210
0.0
220
0.0
230
1.0
 70
     8
 71
     3
 72
     8
 73
     4
 74
     0
 42
0.0000000001
 43
0.0000000001
 40
0.0
 40
0.0
 40
0.0
 40
0.0
 40
1.0
 40
1.0
 40
1.0
 40
1.0
 10
159.0357065923486
 20
7.847508822528975
 30
0.0
 10
159.0428479337428
 20
7.764001932930753
 30
0.0
 10
159.0926879461335
 20
7.690134913300893
 30
0.0
 10
159.1674503289336
 20
7.652253711031232
 30
0.0
  0
SPLINE
  5
1E1
330
70
100
AcDbEntity
  8
0
 62
     8
420
  8421504
370
    25
100
AcDbSpline
210
0.0
220
0.0
230
1.0
 70
     8
 71
     3
 72
     8
 73
     4
 74
     0
 42
0.0000000001
 43
0.0000000001
 40
0.0
 40
0.0
 40
0.0
 40
0.0
 40
1.0
 40
1.0
 40
1.0
 40
1.0
 10
159.5357065650125
 20
8.25561438806311
 30
0.0
 10
159.4627629375357
 20
8.307870751725179
 30
0.0
 10
159.3675026486744
 20
8.317303820744117
 30
0.0
 10
159.2857268819926
 20
8.280368413391437
 30
0.0
  0
LWPOLYLINE
  5
1E2
330
70
100
AcDbEntity
  8
0
 62
     8
420
  8421504
370
    25
100
AcDbPolyline
 90
        8
 70
     0
 43
0.0
 10
175.8935065874431
 20
-46.50344572387292
 10
175.8903217306431
 20
-46.55492476617298
 10
175.8146937436429
 20
-46.75562244477269
 10
175.6441831385426
 20
-46.93589026517313
 10
175.3926036705431
 20
-47.08112400067273
 10
175.0803368119431
 20
-47.17955767777264
 10
174.7326805664432
 20
-47.22321678537291
 10
174.5003672647432
 20
-47.2203085634727
  0
LWPOLYLINE
  5
1E3
330
70
100
AcDbEntity
  8
0
 62
     8
420
  8421504
370
    25
100
AcDbPolyline
 90
        8
 70
     0
 43
0.0
 10
136.554359525343
 20
-3.270597896572853
 10
136.5082308995428
 20
-3.247637501173041
 10
136.2965887833428
 20
-3.212751798073044
 10
136.0552000514433
 20
-3.270255102072816
 10
135.8036205834431
 20
-3.41548883757306
 10
135.5622318515429
 20
-3.63668703097288
 10
135.3505897353429
 20
-3.915929520272865
 10
135.333220585443
 20
-3.943803447472784
  0
LINE
  5
1E4
330
70
100
AcDbEntity
  8
0
 62
     8
420
  8421504
370
    25
100
AcDbLine
 10
149.2936614761432
 20
-13.05683574927274
 30
0.0
 11
130.8258672529427
 21
-2.395605074872791
 31
0.0
  0
SPLINE
  5
1E5
330
70
100
AcDbEntity
  8
0
 62
     8
420
  8421504
370
    25
100
AcDbSpline
210
0.0
220
0.0
230
1.0
 70
     8
 71
     3
 72
     8
 73
     4
 74
     0
 42
0.0000000001
 43
0.0000000001
 40
0.0
 40
0.0
 40
0.0
 40
0.0
 40
1.0
 40
1.0
 40
1.0
 40
1.0
 10
153.3587842758094
 20
-19.93258148281649
 30
0.0
 10
153.9502711938375
 20
-19.52054898320869
 30
0.0
 10
154.2683633249726
 20
-18.81749009970078
 30
0.0
 10
154.1873739352834
 20
-18.1012022569387
 30
0.0
  0
LWPOLYLINE
  5
1E6
330
70
100
AcDbEntity
  8
0
 62
     8
420
  8421504
370
    25
100
AcDbPolyline
 90
       16
 70
     0
 43
0.0
 10
149.420356273343
 20
-12.97093542597272
 10
149.696439059443
 20
-12.86625916367294
 10
150.0748677667426
 20
-12.81693021737273
 10
150.4849147616431
 20
-12.85751223167276
 10
150.916483326443
 20
-12.98700594277278
 10
151.358946810543
 20
-13.20222278577256
 10
151.801410294743
 20
-13.49786340767297
 10
152.2329788594429
 20
-13.86664815527272
 10
152.6430258544428
 20
-14.2994963240726
 10
153.0214545616429
 20
-14.78574975557279
 10
153.358946810543
 20
-15.31343527667267
 10
153.6471924218433
 20
-15.86955951847268
 10
153.8790938319429
 20
-16.44042885637297
 10
154.0489408584427
 20
-17.01198659287301
 10
154.1525513039433
 20
-17.57015907937289
 10
154.187373935343
 20
-18.10120225697271
  0
INSERT
  5
1E9
330
70
100
AcDbEntity
  8
CAPA_BASE
100
AcDbBlockReference
  2
Block_0
 10
0.0
 20
0.0
 30
0.0
  0
INSERT
  5
1F5
330
70
100
AcDbEntity
  8
CAPA_BASE
100
AcDbBlockReference
  2
Block_1
 10
0.0
 20
0.0
 30
0.0
  0
INSERT
  5
201
330
70
100
AcDbEntity
  8
CAPA_BASE
100
AcDbBlockReference
  2
Block_2
 10
0.0
 20
0.0
 30
0.0
  0
ENDSEC
  0
SECTION
  2
OBJECTS
  0
DICTIONARY
  5
C
330
0
100
AcDbDictionary
281
     1
  3
ACAD_COLOR
350
63
  3
ACAD_DETAILVIEWSTYLE
350
6A
  3
ACAD_GROUP
350
D
  3
ACAD_LAYOUT
350
62
  3
ACAD_MATERIAL
350
10
  3
ACAD_MLEADERSTYLE
350
66
  3
ACAD_MLINESTYLE
350
5F
  3
ACAD_PLOTSETTINGS
350
61
  3
ACAD_PLOTSTYLENAME
350
E
  3
ACAD_SCALELIST
350
42
  3
ACAD_SECTIONVIEWSTYLE
350
68
  3
ACAD_TABLESTYLE
350
64
  3
ACAD_VISUALSTYLE
350
29
  3
ACDB_RECOMPOSE_DATA
350
214
  3
AcDbVariableDictionary
350
20C
  0
DICTIONARY
  5
63
102
{ACAD_REACTORS
330
C
102
}
330
C
100
AcDbDictionary
281
     1
  0
DICTIONARY
  5
6A
102
{ACAD_REACTORS
330
C
102
}
330
C
100
AcDbDictionary
281
     1
  3
Imperial24
350
6B
  0
DICTIONARY
  5
D
102
{ACAD_REACTORS
330
C
102
}
330
C
100
AcDbDictionary
281
     1
  0
DICTIONARY
  5
62
102
{ACAD_REACTORS
330
C
102
}
330
C
100
AcDbDictionary
281
     1
  3
Layout1
350
6F
  3
Layout2
350
77
  3
Model
350
73
  0
DICTIONARY
  5
10
102
{ACAD_REACTORS
330
C
102
}
330
C
100
AcDbDictionary
281
     1
  3
ByBlock
350
19
  3
ByLayer
350
11
  3
Global
350
21
  0
DICTIONARY
  5
66
102
{ACAD_REACTORS
330
C
102
}
330
C
100
AcDbDictionary
281
     1
  3
Standard
350
67
  0
DICTIONARY
  5
5F
102
{ACAD_REACTORS
330
C
102
}
330
C
100
AcDbDictionary
281
     1
  3
Standard
350
60
  0
DICTIONARY
  5
61
102
{ACAD_REACTORS
330
C
102
}
330
C
100
AcDbDictionary
281
     1
  0
ACDBDICTIONARYWDFLT
  5
E
102
{ACAD_REACTORS
330
C
102
}
330
C
100
AcDbDictionary
281
     1
  3
Normal
350
F
100
AcDbDictionaryWithDefault
340
F
  0
DICTIONARY
  5
42
102
{ACAD_REACTORS
330
C
102
}
330
C
100
AcDbDictionary
281
     1
  3
A0
350
43
  3
A1
350
44
  3
A2
350
45
  3
A3
350
46
  3
A4
350
47
  3
A5
350
48
  3
A6
350
49
  3
A7
350
4A
  3
A8
350
4B
  3
A9
350
4C
  3
B0
350
4D
  3
B1
350
4E
  3
B2
350
4F
  3
B3
350
50
  3
B4
350
51
  3
B5
350
52
  3
B6
350
53
  0
DICTIONARY
  5
68
102
{ACAD_REACTORS
330
C
102
}
330
C
100
AcDbDictionary
281
     1
  3
Imperial24
350
69
  0
DICTIONARY
  5
64
102
{ACAD_REACTORS
330
C
102
}
330
C
100
AcDbDictionary
281
     1
  3
Standard
350
65
  0
DICTIONARY
  5
29
102
{ACAD_REACTORS
330
C
102
}
330
C
100
AcDbDictionary
281
     1
  3
2dWireframe
350
2F
  3
Basic
350
2E
  3
Brighten
350
35
  3
ColorChange
350
39
  3
Conceptual
350
32
  3
Dim
350
34
  3
EdgeColorOff
350
41
  3
Facepattern
350
38
  3
Flat
350
2A
  3
FlatWithEdges
350
2B
  3
Gouraud
350
2C
  3
GouraudWithEdges
350
2D
  3
Hidden
350
31
  3
JitterOff
350
3F
  3
Linepattern
350
37
  3
OverhangOff
350
40
  3
Realistic
350
33
  3
Shaded
350
3E
  3
Shaded with edges
350
3D
  3
Shades of Gray
350
3A
  3
Sketchy
350
3B
  3
Thicken
350
36
  3
Wireframe
350
30
  3
X-Ray
350
3C
  0
XRECORD
  5
214
102
{ACAD_REACTORS
330
C
102
}
330
C
100
AcDbXrecord
280
     1
 90
        1
330
65
  0
DICTIONARY
  5
20C
102
{ACAD_REACTORS
330
C
102
}
330
C
100
AcDbDictionary
281
     1
  3
CANNOSCALE
350
211
  3
CMLEADERSTYLE
350
20E
  3
CTABLESTYLE
350
20D
  3
CVIEWDETAILSTYLE
350
20F
  3
CVIEWSECTIONSTYLE
350
210
  0
ACDBDETAILVIEWSTYLE
  5
6B
102
{ACAD_REACTORS
330
6A
102
}
330
6A
100
AcDbModelDocViewStyle
 70
     0
  3
Imperial24
290
     1
300
Imperial24
 90
        0
100
AcDbDetailViewStyle
 70
     0
 71
     0
 90
        3
 71
     1
340
55
 62
   256
 40
0.24
340
0
 62
   256
 40
0.24
300

 40
0.36
280
     3
 71
     2
340
5D
 90
       25
 62
   256
 71
     3
340
55
 62
   256
 40
0.24
 90
        1
 40
0.75
 90
        1
300
%<\AcVar ViewType \f "%tc1">% %<\AcVar ViewDetailId>%\PSCALE %<\AcVar ViewScale \f "%sn">%
 71
     4
340
5D
 90
       25
 62
   256
340
5D
 90
       25
 62
   256
280
     0
  0
LAYOUT
  5
6F
102
{ACAD_REACTORS
330
62
102
}
330
62
100
AcDbPlotSettings
  1

  2

  4

  6

 40
0.0
 41
0.0
 42
0.0
 43
0.0
 44
0.0
 45
0.0
 46
0.0
 47
0.0
 48
0.0
 49
0.0
140
0.0
141
0.0
142
1.0
143
1.0
 70
   688
 72
     0
 73
     0
 74
     5
  7

 75
    16
147
1.0
 76
     0
 77
     2
 78
   300
148
0.0
149
0.0
100
AcDbLayout
  1
Layout1
 70
     1
 71
     1
 10
0.0
 20
0.0
 11
12.0
 21
9.0
 12
0.0
 22
0.0
 32
0.0
 14
0.0
 24
0.0
 34
0.0
 15
0.0
 25
0.0
 35
0.0
146
0.0
 13
0.0
 23
0.0
 33
0.0
 16
1.0
 26
0.0
 36
0.0
 17
0.0
 27
1.0
 37
0.0
 76
     0
330
6C
  0
LAYOUT
  5
77
102
{ACAD_REACTORS
330
62
102
}
330
62
100
AcDbPlotSettings
  1

  2

  4

  6

 40
0.0
 41
0.0
 42
0.0
 43
0.0
 44
0.0
 45
0.0
 46
0.0
 47
0.0
 48
0.0
 49
0.0
140
0.0
141
0.0
142
1.0
143
1.0
 70
   688
 72
     0
 73
     0
 74
     5
  7

 75
    16
147
1.0
 76
     0
 77
     2
 78
   300
148
0.0
149
0.0
100
AcDbLayout
  1
Layout2
 70
     1
 71
     2
 10
0.0
 20
0.0
 11
12.0
 21
9.0
 12
0.0
 22
0.0
 32
0.0
 14
0.0
 24
0.0
 34
0.0
 15
0.0
 25
0.0
 35
0.0
146
0.0
 13
0.0
 23
0.0
 33
0.0
 16
1.0
 26
0.0
 36
0.0
 17
0.0
 27
1.0
 37
0.0
 76
     0
330
74
  0
LAYOUT
  5
73
102
{ACAD_REACTORS
330
62
102
}
330
62
100
AcDbPlotSettings
  1

  2

  4

  6

 40
0.0
 41
0.0
 42
0.0
 43
0.0
 44
0.0
 45
0.0
 46
0.0
 47
0.0
 48
0.0
 49
0.0
140
0.0
141
0.0
142
1.0
143
1.0
 70
  1712
 72
     0
 73
     0
 74
     0
  7

 75
     0
147
1.0
 76
     0
 77
     2
 78
   300
148
0.0
149
0.0
100
AcDbLayout
  1
Model
 70
     1
 71
     0
 10
0.0
 20
0.0
 11
12.0
 21
9.0
 12
0.0
 22
0.0
 32
0.0
 14
0.0
 24
0.0
 34
0.0
 15
0.0
 25
0.0
 35
0.0
146
0.0
 13
0.0
 23
0.0
 33
0.0
 16
1.0
 26
0.0
 36
0.0
 17
0.0
 27
1.0
 37
0.0
 76
     0
330
70
  0
MATERIAL
  5
19
102
{ACAD_XDICTIONARY
360
1A
102
}
102
{ACAD_REACTORS
330
10
102
}
330
10
100
AcDbMaterial
  1
ByBlock
 72
     0
 43
0.0208333333333333
 43
0.0
 43
0.0
 43
0.0
 43
0.0
 43
0.0208333333333333
 43
0.0
 43
0.0
 43
0.0
 43
0.0
 43
1.0
 43
0.0
 43
0.0
 43
0.0
 43
0.0
 43
1.0
 77
     0
 47
0.0208333333333333
 47
0.0
 47
0.0
 47
0.0
 47
0.0
 47
0.0208333333333333
 47
0.0
 47
0.0
 47
0.0
 47
0.0
 47
1.0
 47
0.0
 47
0.0
 47
0.0
 47
0.0
 47
1.0
171
     0
 49
0.0208333333333333
 49
0.0
 49
0.0
 49
0.0
 49
0.0
 49
0.0208333333333333
 49
0.0
 49
0.0
 49
0.0
 49
0.0
 49
1.0
 49
0.0
 49
0.0
 49
0.0
 49
0.0
 49
1.0
175
     0
142
0.0208333333333333
142
0.0
142
0.0
142
0.0
142
0.0
142
0.0208333333333333
142
0.0
142
0.0
142
0.0
142
0.0
142
1.0
142
0.0
142
0.0
142
0.0
142
0.0
142
1.0
179
     0
144
0.0208333333333333
144
0.0
144
0.0
144
0.0
144
0.0
144
0.0208333333333333
144
0.0
144
0.0
144
0.0
144
0.0
144
1.0
144
0.0
144
0.0
144
0.0
144
0.0
144
1.0
147
0.0208333333333333
147
0.0
147
0.0
147
0.0
147
0.0
147
0.0208333333333333
147
0.0
147
0.0
147
0.0
147
0.0
147
1.0
147
0.0
147
0.0
147
0.0
147
0.0
147
1.0
  0
MATERIAL
  5
11
102
{ACAD_XDICTIONARY
360
12
102
}
102
{ACAD_REACTORS
330
10
102
}
330
10
100
AcDbMaterial
  1
ByLayer
 72
     0
 43
0.0208333333333333
 43
0.0
 43
0.0
 43
0.0
 43
0.0
 43
0.0208333333333333
 43
0.0
 43
0.0
 43
0.0
 43
0.0
 43
1.0
 43
0.0
 43
0.0
 43
0.0
 43
0.0
 43
1.0
 77
     0
 47
0.0208333333333333
 47
0.0
 47
0.0
 47
0.0
 47
0.0
 47
0.0208333333333333
 47
0.0
 47
0.0
 47
0.0
 47
0.0
 47
1.0
 47
0.0
 47
0.0
 47
0.0
 47
0.0
 47
1.0
171
     0
 49
0.0208333333333333
 49
0.0
 49
0.0
 49
0.0
 49
0.0
 49
0.0208333333333333
 49
0.0
 49
0.0
 49
0.0
 49
0.0
 49
1.0
 49
0.0
 49
0.0
 49
0.0
 49
0.0
 49
1.0
175
     0
142
0.0208333333333333
142
0.0
142
0.0
142
0.0
142
0.0
142
0.0208333333333333
142
0.0
142
0.0
142
0.0
142
0.0
142
1.0
142
0.0
142
0.0
142
0.0
142
0.0
142
1.0
179
     0
144
0.0208333333333333
144
0.0
144
0.0
144
0.0
144
0.0
144
0.0208333333333333
144
0.0
144
0.0
144
0.0
144
0.0
144
1.0
144
0.0
144
0.0
144
0.0
144
0.0
144
1.0
147
0.0208333333333333
147
0.0
147
0.0
147
0.0
147
0.0
147
0.0208333333333333
147
0.0
147
0.0
147
0.0
147
0.0
147
1.0
147
0.0
147
0.0
147
0.0
147
0.0
147
1.0
  0
MATERIAL
  5
21
102
{ACAD_XDICTIONARY
360
22
102
}
102
{ACAD_REACTORS
330
10
102
}
330
10
100
AcDbMaterial
  1
Global
 72
     0
 43
0.0208333333333333
 43
0.0
 43
0.0
 43
0.0
 43
0.0
 43
0.0208333333333333
 43
0.0
 43
0.0
 43
0.0
 43
0.0
 43
1.0
 43
0.0
 43
0.0
 43
0.0
 43
0.0
 43
1.0
 77
     0
 47
0.0208333333333333
 47
0.0
 47
0.0
 47
0.0
 47
0.0
 47
0.0208333333333333
 47
0.0
 47
0.0
 47
0.0
 47
0.0
 47
1.0
 47
0.0
 47
0.0
 47
0.0
 47
0.0
 47
1.0
171
     0
 49
0.0208333333333333
 49
0.0
 49
0.0
 49
0.0
 49
0.0
 49
0.0208333333333333
 49
0.0
 49
0.0
 49
0.0
 49
0.0
 49
1.0
 49
0.0
 49
0.0
 49
0.0
 49
0.0
 49
1.0
175
     0
142
0.0208333333333333
142
0.0
142
0.0
142
0.0
142
0.0
142
0.0208333333333333
142
0.0
142
0.0
142
0.0
142
0.0
142
1.0
142
0.0
142
0.0
142
0.0
142
0.0
142
1.0
179
     0
144
0.0208333333333333
144
0.0
144
0.0
144
0.0
144
0.0
144
0.0208333333333333
144
0.0
144
0.0
144
0.0
144
0.0
144
1.0
144
0.0
144
0.0
144
0.0
144
0.0
144
1.0
147
0.0208333333333333
147
0.0
147
0.0
147
0.0
147
0.0
147
0.0208333333333333
147
0.0
147
0.0
147
0.0
147
0.0
147
1.0
147
0.0
147
0.0
147
0.0
147
0.0
147
1.0
  0
MLEADERSTYLE
  5
67
102
{ACAD_REACTORS
330
66
102
}
330
66
100
AcDbMLeaderStyle
179
     2
170
     2
171
     1
172
     0
 90
        2
 40
0.0
 41
0.0
173
     1
 91
-1056964608
340
5B
 92
       -2
290
     1
 42
0.09
291
     1
 43
0.36
  3
Standard
 44
0.18
300

342
55
174
     1
178
     6
175
     1
176
     0
 93
-1056964608
 45
0.18
292
     0
297
     0
 46
0.18
 94
-1056964608
 47
1.0
 49
1.0
140
1.0
293
     1
141
0.0
294
     1
177
     0
142
1.0
295
     1
296
     0
143
0.125
271
     0
272
     9
273
     9
298
     1
  0
MLINESTYLE
  5
60
102
{ACAD_REACTORS
330
5F
102
}
330
5F
100
AcDbMlineStyle
  2
STANDARD
 70
     0
  3

 62
   256
 51
90.0
 52
90.0
 71
     2
 49
0.5
 62
   256
  6
BYLAYER
 49
-0.5
 62
   256
  6
BYLAYER
  0
ACDBPLACEHOLDER
  5
F
102
{ACAD_REACTORS
330
E
102
}
330
E
  0
SCALE
  5
43
102
{ACAD_REACTORS
330
42
102
}
330
42
100
AcDbScale
 70
     0
300
1:1
140
1.0
141
1.0
290
     1
  0
SCALE
  5
44
102
{ACAD_REACTORS
330
42
102
}
330
42
100
AcDbScale
 70
     0
300
1/128" = 1'-0"
140
0.0078125
141
12.0
290
     0
  0
SCALE
  5
45
102
{ACAD_REACTORS
330
42
102
}
330
42
100
AcDbScale
 70
     0
300
1/64" = 1'-0"
140
0.015625
141
12.0
290
     0
  0
SCALE
  5
46
102
{ACAD_REACTORS
330
42
102
}
330
42
100
AcDbScale
 70
     0
300
1/32" = 1'-0"
140
0.03125
141
12.0
290
     0
  0
SCALE
  5
47
102
{ACAD_REACTORS
330
42
102
}
330
42
100
AcDbScale
 70
     0
300
1/16" = 1'-0"
140
0.0625
141
12.0
290
     0
  0
SCALE
  5
48
102
{ACAD_REACTORS
330
42
102
}
330
42
100
AcDbScale
 70
     0
300
3/32" = 1'-0"
140
0.09375
141
12.0
290
     0
  0
SCALE
  5
49
102
{ACAD_REACTORS
330
42
102
}
330
42
100
AcDbScale
 70
     0
300
1/8" = 1'-0"
140
0.125
141
12.0
290
     0
  0
SCALE
  5
4A
102
{ACAD_REACTORS
330
42
102
}
330
42
100
AcDbScale
 70
     0
300
3/16" = 1'-0"
140
0.1875
141
12.0
290
     0
  0
SCALE
  5
4B
102
{ACAD_REACTORS
330
42
102
}
330
42
100
AcDbScale
 70
     0
300
1/4" = 1'-0"
140
0.25
141
12.0
290
     0
  0
SCALE
  5
4C
102
{ACAD_REACTORS
330
42
102
}
330
42
100
AcDbScale
 70
     0
300
3/8" = 1'-0"
140
0.375
141
12.0
290
     0
  0
SCALE
  5
4D
102
{ACAD_REACTORS
330
42
102
}
330
42
100
AcDbScale
 70
     0
300
1/2" = 1'-0"
140
0.5
141
12.0
290
     0
  0
SCALE
  5
4E
102
{ACAD_REACTORS
330
42
102
}
330
42
100
AcDbScale
 70
     0
300
3/4" = 1'-0"
140
0.75
141
12.0
290
     0
  0
SCALE
  5
4F
102
{ACAD_REACTORS
330
42
102
}
330
42
100
AcDbScale
 70
     0
300
1" = 1'-0"
140
1.0
141
12.0
290
     0
  0
SCALE
  5
50
102
{ACAD_REACTORS
330
42
102
}
330
42
100
AcDbScale
 70
     0
300
1-1/2" = 1'-0"
140
1.5
141
12.0
290
     0
  0
SCALE
  5
51
102
{ACAD_REACTORS
330
42
102
}
330
42
100
AcDbScale
 70
     0
300
3" = 1'-0"
140
3.0
141
12.0
290
     0
  0
SCALE
  5
52
102
{ACAD_REACTORS
330
42
102
}
330
42
100
AcDbScale
 70
     0
300
6" = 1'-0"
140
6.0
141
12.0
290
     0
  0
SCALE
  5
53
102
{ACAD_REACTORS
330
42
102
}
330
42
100
AcDbScale
 70
     0
300
1'-0" = 1'-0"
140
12.0
141
12.0
290
     0
  0
ACDBSECTIONVIEWSTYLE
  5
69
102
{ACAD_REACTORS
330
68
102
}
330
68
100
AcDbModelDocViewStyle
 70
     0
  3
Imperial24
290
     1
300
Imperial24
 90
        0
100
AcDbSectionViewStyle
 70
     0
 71
     0
 90
       78
 71
     1
340
55
 62
   256
 40
0.24
340
0
340
0
 62
   256
 40
0.24
300
I, O, Q, S, X, Z
 40
0.48
 90
        3
 40
0.18
 90
        1
 71
     2
340
5D
 90
       25
 62
   256
340
5D
 90
       50
 62
   256
 40
0.24
 40
0.0
 40
0.24
 71
     3
340
55
 62
   256
 40
0.24
 90
        1
 40
0.75
 90
        1
300
%<\AcVar ViewType \f "%tc1">% %<\AcVar ViewSectionStartId>%-%<\AcVar ViewSectionEndId>%\PSCALE %<\AcVar ViewScale \f "%sn">%
 71
     4
 62
   256
 62
   257
300
ANSI31
 40
1.0
 90
        0
290
     0
290
     0
 90
        6
 40
0.0
 40
1.570796326794896
 40
0.2617993877991494
 40
1.308996938995747
 40
-0.2617993877991494
 40
1.832595714594046
  0
TABLESTYLE
  5
65
102
{ACAD_XDICTIONARY
360
212
102
}
102
{ACAD_REACTORS
330
64
102
}
330
64
100
AcDbTableStyle
280
     0
  3
Standard
 70
     0
 71
     0
 40
0.06
 41
0.06
280
     0
281
     0
  7
Standard
140
0.18
170
     2
 62
     0
 63
     7
283
     0
 90
      512
 91
        0
  1

274
    -2
284
     1
 64
     0
275
    -2
285
     1
 65
     0
276
    -2
286
     1
 66
     0
277
    -2
287
     1
 67
     0
278
    -2
288
     1
 68
     0
279
    -2
289
     1
 69
     0
  7
Standard
140
0.25
170
     5
 62
     0
 63
     7
283
     0
 90
      512
 91
        0
  1

274
    -2
284
     1
 64
     0
275
    -2
285
     1
 65
     0
276
    -2
286
     1
 66
     0
277
    -2
287
     1
 67
     0
278
    -2
288
     1
 68
     0
279
    -2
289
     1
 69
     0
  7
Standard
140
0.18
170
     5
 62
     0
 63
     7
283
     0
 90
      512
 91
        0
  1

274
    -2
284
     1
 64
     0
275
    -2
285
     1
 65
     0
276
    -2
286
     1
 66
     0
277
    -2
287
     1
 67
     0
278
    -2
288
     1
 68
     0
279
    -2
289
     1
 69
     0
  0
VISUALSTYLE
  5
2F
102
{ACAD_REACTORS
330
29
102
}
330
29
100
AcDbVisualStyle
  2
2dWireframe
 70
     4
177
     3
291
     0
 70
    58
 90
        0
176
     1
 90
        2
176
     1
 90
        0
176
     1
 90
        0
176
     1
 40
0.6
176
     1
 40
30.0
176
     1
 62
     7
420
 16777215
176
     1
 90
        1
176
     1
 90
        4
176
     1
 62
     7
176
     1
 62
   257
176
     1
 90
        1
176
     1
 90
        1
176
     1
 40
1.0
176
     1
 90
        0
176
     1
 62
   257
176
     1
 40
1.0
176
     1
 90
        1
176
     1
 90
        6
176
     1
 90
        2
176
     1
 62
     7
176
     1
 90
        5
176
     1
 90
        0
176
     1
 90
        0
176
     1
290
     0
176
     1
 90
        1
176
     1
 40
0.0
176
     1
 90
        0
176
     1
290
     1
176
     1
290
     1
176
     1
290
     0
176
     1
290
     0
176
     1
290
     0
176
     1
290
     0
176
     1
290
     0
176
     1
290
     0
176
     1
290
     0
176
     1
 90
       50
176
     1
 40
0.0
176
     1
 40
1.0
176
     1
 90
        0
176
     1
 62
    18
420
        0
176
     1
 90
       50
176
     1
 90
        3
176
     1
 62
     5
420
      255
176
     1
290
     0
176
     1
 90
       50
176
     1
 90
       50
176
     1
 90
       50
176
     1
290
     0
176
     1
 90
       50
176
     1
 62
   256
176
     0
 40
1.0
176
     0
 90
        2
176
     1
  1
strokes_ogs.tif
176
     1
290
     0
176
     1
 40
1.0
176
     1
 40
1.0
176
     1
  0
VISUALSTYLE
  5
2E
102
{ACAD_REACTORS
330
29
102
}
330
29
100
AcDbVisualStyle
  2
Basic
 70
     7
177
     3
291
     1
 70
    58
 90
        1
176
     1
 90
        0
176
     1
 90
        1
176
     1
 90
        0
176
     1
 40
0.6
176
     1
 40
30.0
176
     1
 62
     7
420
 16777215
176
     1
 90
        0
176
     1
 90
        4
176
     1
 62
     7
176
     1
 62
   257
176
     1
 90
        1
176
     1
 90
        1
176
     1
 40
1.0
176
     1
 90
        8
176
     1
 62
     7
176
     1
 40
1.0
176
     1
 90
        1
176
     1
 90
        6
176
     1
 90
        2
176
     1
 62
     7
176
     1
 90
        5
176
     1
 90
        0
176
     1
 90
        0
176
     1
290
     0
176
     1
 90
        1
176
     1
 40
0.0
176
     1
 90
        0
176
     1
290
     0
176
     1
290
     1
176
     1
290
     1
176
     1
290
     0
176
     1
290
     0
176
     1
290
     0
176
     1
290
     0
176
     1
290
     0
176
     1
290
     0
176
     1
 90
       50
176
     1
 40
0.0
176
     1
 40
1.0
176
     1
 90
        0
176
     1
 62
    18
420
        0
176
     1
 90
       50
176
     1
 90
        3
176
     1
 62
     5
420
      255
176
     1
290
     0
176
     1
 90
       50
176
     1
 90
       50
176
     1
 90
       50
176
     1
290
     0
176
     1
 90
       50
176
     1
 62
   256
176
     0
 40
1.0
176
     0
 90
        2
176
     1
  1
strokes_ogs.tif
176
     1
290
     0
176
     1
 40
1.0
176
     1
 40
1.0
176
     1
  0
VISUALSTYLE
  5
35
102
{ACAD_REACTORS
330
29
102
}
330
29
100
AcDbVisualStyle
  2
Brighten
 70
    12
177
     3
291
     1
 70
    58
 90
        2
176
     1
 90
        2
176
     1
 90
        0
176
     1
 90
        0
176
     1
 40
0.6
176
     1
 40
30.0
176
     1
 62
     7
420
 16777215
176
     1
 90
        1
176
     1
 90
        4
176
     1
 62
     7
176
     1
 62
   257
176
     1
 90
        1
176
     1
 90
        1
176
     1
 40
1.0
176
     1
 90
        8
176
     1
 62
     7
176
     1
 40
1.0
176
     1
 90
        1
176
     1
 90
        6
176
     1
 90
        2
176
     1
 62
     7
176
     1
 90
        5
176
     1
 90
        0
176
     1
 90
        0
176
     1
290
     0
176
     1
 90
        1
176
     1
 40
50.0
176
     1
 90
        0
176
     1
290
     0
176
     1
290
     1
176
     1
290
     1
176
     1
290
     0
176
     1
290
     0
176
     1
290
     0
176
     1
290
     0
176
     1
290
     0
176
     1
290
     0
176
     1
 90
       50
176
     1
 40
0.0
176
     1
 40
1.0
176
     1
 90
        0
176
     1
 62
    18
420
        0
176
     1
 90
       50
176
     1
 90
        3
176
     1
 62
     5
420
      255
176
     1
290
     0
176
     1
 90
       50
176
     1
 90
       50
176
     1
 90
       50
176
     1
290
     0
176
     1
 90
       50
176
     1
 62
   256
176
     0
 40
1.0
176
     0
 90
        2
176
     1
  1
strokes_ogs.tif
176
     1
290
     0
176
     1
 40
1.0
176
     1
 40
1.0
176
     1
  0
VISUALSTYLE
  5
39
102
{ACAD_REACTORS
330
29
102
}
330
29
100
AcDbVisualStyle
  2
ColorChange
 70
    16
177
     3
291
     1
 70
    58
 90
        2
176
     1
 90
        2
176
     1
 90
        3
176
     1
 90
        0
176
     1
 40
0.6
176
     1
 40
30.0
176
     1
 62
     8
420
  8421504
176
     1
 90
        1
176
     1
 90
        4
176
     1
 62
     7
176
     1
 62
   257
176
     1
 90
        1
176
     1
 90
        1
176
     1
 40
1.0
176
     1
 90
        8
176
     1
 62
     8
420
  8421504
176
     1
 40
1.0
176
     1
 90
        1
176
     1
 90
        6
176
     1
 90
        2
176
     1
 62
     7
176
     1
 90
        5
176
     1
 90
        0
176
     1
 90
        0
176
     1
290
     0
176
     1
 90
        1
176
     1
 40
0.0
176
     1
 90
        0
176
     1
290
     0
176
     1
290
     1
176
     1
290
     1
176
     1
290
     0
176
     1
290
     0
176
     1
290
     0
176
     1
290
     0
176
     1
290
     0
176
     1
290
     0
176
     1
 90
       50
176
     1
 40
0.0
176
     1
 40
1.0
176
     1
 90
        0
176
     1
 62
    18
420
        0
176
     1
 90
       50
176
     1
 90
        3
176
     1
 62
     5
420
      255
176
     1
290
     0
176
     1
 90
       50
176
     1
 90
       50
176
     1
 90
       50
176
     1
290
     0
176
     1
 90
       50
176
     1
 62
   256
176
     0
 40
1.0
176
     0
 90
        2
176
     1
  1
strokes_ogs.tif
176
     1
290
     0
176
     1
 40
1.0
176
     1
 40
1.0
176
     1
  0
VISUALSTYLE
  5
32
102
{ACAD_REACTORS
330
29
102
}
330
29
100
AcDbVisualStyle
  2
Conceptual
 70
     9
177
     3
291
     0
 70
    58
 90
        3
176
     1
 90
        2
176
     1
 90
        0
176
     1
 90
        0
176
     1
 40
0.6
176
     1
 40
30.0
176
     1
 62
     7
420
 16777215
176
     1
 90
        2
176
     1
 90
        2
176
     1
 62
     7
176
     1
 62
   257
176
     1
 90
        1
176
     1
 90
        1
176
     1
 40
179.0
176
     1
 90
        8
176
     1
 62
     7
176
     1
 40
1.0
176
     1
 90
        1
176
     1
 90
        6
176
     1
 90
        2
176
     1
 62
     7
176
     1
 90
        3
176
     1
 90
        0
176
     1
 90
        0
176
     1
290
     0
176
     1
 90
        1
176
     1
 40
0.0
176
     1
 90
        0
176
     1
290
     0
176
     1
290
     1
176
     1
290
     1
176
     1
290
     0
176
     1
290
     0
176
     1
290
     0
176
     1
290
     0
176
     1
290
     0
176
     1
290
     0
176
     1
 90
       50
176
     1
 40
0.0
176
     1
 40
1.0
176
     1
 90
        0
176
     1
 62
    18
420
        0
176
     1
 90
       50
176
     1
 90
        3
176
     1
 62
     5
420
      255
176
     1
290
     0
176
     1
 90
       50
176
     1
 90
       50
176
     1
 90
       50
176
     1
290
     0
176
     1
 90
       50
176
     1
 62
   256
176
     0
 40
1.0
176
     0
 90
        2
176
     1
  1
strokes_ogs.tif
176
     1
290
     0
176
     1
 40
1.0
176
     1
 40
1.0
176
     1
  0
VISUALSTYLE
  5
34
102
{ACAD_REACTORS
330
29
102
}
330
29
100
AcDbVisualStyle
  2
Dim
 70
    11
177
     3
291
     1
 70
    58
 90
        2
176
     1
 90
        2
176
     1
 90
        0
176
     1
 90
        0
176
     1
 40
0.6
176
     1
 40
30.0
176
     1
 62
     7
420
 16777215
176
     1
 90
        1
176
     1
 90
        4
176
     1
 62
     7
176
     1
 62
   257
176
     1
 90
        1
176
     1
 90
        1
176
     1
 40
1.0
176
     1
 90
        8
176
     1
 62
     7
176
     1
 40
1.0
176
     1
 90
        1
176
     1
 90
        6
176
     1
 90
        2
176
     1
 62
     7
176
     1
 90
        5
176
     1
 90
        0
176
     1
 90
        0
176
     1
290
     0
176
     1
 90
        1
176
     1
 40
-50.0
176
     1
 90
        0
176
     1
290
     0
176
     1
290
     1
176
     1
290
     1
176
     1
290
     0
176
     1
290
     0
176
     1
290
     0
176
     1
290
     0
176
     1
290
     0
176
     1
290
     0
176
     1
 90
       50
176
     1
 40
0.0
176
     1
 40
1.0
176
     1
 90
        0
176
     1
 62
    18
420
        0
176
     1
 90
       50
176
     1
 90
        3
176
     1
 62
     5
420
      255
176
     1
290
     0
176
     1
 90
       50
176
     1
 90
       50
176
     1
 90
       50
176
     1
290
     0
176
     1
 90
       50
176
     1
 62
   256
176
     0
 40
1.0
176
     0
 90
        2
176
     1
  1
strokes_ogs.tif
176
     1
290
     0
176
     1
 40
1.0
176
     1
 40
1.0
176
     1
  0
VISUALSTYLE
  5
41
102
{ACAD_REACTORS
330
29
102
}
330
29
100
AcDbVisualStyle
  2
EdgeColorOff
 70
    22
177
     3
291
     1
 70
    58
 90
        2
176
     0
 90
        2
176
     0
 90
        0
176
     0
 90
        0
176
     0
 40
0.6
176
     0
 40
30.0
176
     0
 62
     7
420
 16777215
176
     0
 90
        1
176
     0
 90
        4
176
     0
 62
     7
176
     0
 62
   257
176
     0
 90
        1
176
     0
 90
        1
176
     0
 40
1.0
176
     0
 90
        8
176
     2
 62
     7
176
     0
 40
1.0
176
     0
 90
        1
176
     0
 90
        6
176
     0
 90
        2
176
     0
 62
     7
176
     0
 90
        5
176
     0
 90
        0
176
     0
 90
        0
176
     0
290
     0
176
     0
 90
        1
176
     0
 40
0.0
176
     0
 90
        0
176
     0
290
     0
176
     0
290
     1
176
     0
290
     1
176
     0
290
     0
176
     0
290
     0
176
     0
290
     0
176
     0
290
     0
176
     0
290
     0
176
     0
290
     0
176
     0
 90
       50
176
     0
 40
0.0
176
     0
 40
1.0
176
     0
 90
        0
176
     0
 62
    18
420
        0
176
     0
 90
       50
176
     0
 90
        3
176
     0
 62
     5
420
      255
176
     0
290
     0
176
     0
 90
       50
176
     0
 90
       50
176
     0
 90
       50
176
     0
290
     0
176
     0
 90
       50
176
     0
 62
   256
176
     0
 40
1.0
176
     0
 90
        2
176
     0
  1
strokes_ogs.tif
176
     0
290
     0
176
     0
 40
1.0
176
     0
 40
1.0
176
     0
  0
VISUALSTYLE
  5
38
102
{ACAD_REACTORS
330
29
102
}
330
29
100
AcDbVisualStyle
  2
Facepattern
 70
    15
177
     3
291
     1
 70
    58
 90
        2
176
     1
 90
        2
176
     1
 90
        0
176
     1
 90
        0
176
     1
 40
0.6
176
     1
 40
30.0
176
     1
 62
     7
420
 16777215
176
     1
 90
        1
176
     1
 90
        4
176
     1
 62
     7
176
     1
 62
   257
176
     1
 90
        1
176
     1
 90
        1
176
     1
 40
1.0
176
     1
 90
        8
176
     1
 62
     7
176
     1
 40
1.0
176
     1
 90
        1
176
     1
 90
        6
176
     1
 90
        2
176
     1
 62
     7
176
     1
 90
        5
176
     1
 90
        0
176
     1
 90
        0
176
     1
290
     0
176
     1
 90
        1
176
     1
 40
0.0
176
     1
 90
        0
176
     1
290
     0
176
     1
290
     1
176
     1
290
     1
176
     1
290
     0
176
     1
290
     0
176
     1
290
     0
176
     1
290
     0
176
     1
290
     0
176
     1
290
     0
176
     1
 90
       50
176
     1
 40
0.0
176
     1
 40
1.0
176
     1
 90
        0
176
     1
 62
    18
420
        0
176
     1
 90
       50
176
     1
 90
        3
176
     1
 62
     5
420
      255
176
     1
290
     0
176
     1
 90
       50
176
     1
 90
       50
176
     1
 90
       50
176
     1
290
     0
176
     1
 90
       50
176
     1
 62
   256
176
     0
 40
1.0
176
     0
 90
        2
176
     1
  1
strokes_ogs.tif
176
     1
290
     0
176
     1
 40
1.0
176
     1
 40
1.0
176
     1
  0
VISUALSTYLE
  5
2A
102
{ACAD_REACTORS
330
29
102
}
330
29
100
AcDbVisualStyle
  2
Flat
 70
     0
177
     3
291
     1
 70
    58
 90
        2
176
     1
 90
        1
176
     1
 90
        1
176
     1
 90
        2
176
     1
 40
0.6
176
     1
 40
30.0
176
     1
 62
     7
420
 16777215
176
     1
 90
        0
176
     1
 90
        0
176
     1
 62
     7
176
     1
 62
   257
176
     1
 90
        1
176
     1
 90
        1
176
     1
 40
1.0
176
     1
 90
        8
176
     1
 62
     7
176
     1
 40
1.0
176
     1
 90
        1
176
     1
 90
        6
176
     1
 90
        2
176
     1
 62
     7
176
     1
 90
        5
176
     1
 90
        0
176
     1
 90
        0
176
     1
290
     0
176
     1
 90
       13
176
     1
 40
0.0
176
     1
 90
        0
176
     1
290
     0
176
     1
290
     1
176
     1
290
     1
176
     1
290
     0
176
     1
290
     0
176
     1
290
     0
176
     1
290
     0
176
     1
290
     0
176
     1
290
     0
176
     1
 90
       50
176
     1
 40
0.0
176
     1
 40
1.0
176
     1
 90
        0
176
     1
 62
    18
420
        0
176
     1
 90
       50
176
     1
 90
        3
176
     1
 62
     5
420
      255
176
     1
290
     0
176
     1
 90
       50
176
     1
 90
       50
176
     1
 90
       50
176
     1
290
     0
176
     1
 90
       50
176
     1
 62
   256
176
     0
 40
1.0
176
     0
 90
        2
176
     1
  1
strokes_ogs.tif
176
     1
290
     0
176
     1
 40
1.0
176
     1
 40
1.0
176
     1
  0
VISUALSTYLE
  5
2B
102
{ACAD_REACTORS
330
29
102
}
330
29
100
AcDbVisualStyle
  2
FlatWithEdges
 70
     1
177
     3
291
     1
 70
    58
 90
        2
176
     1
 90
        1
176
     1
 90
        1
176
     1
 90
        2
176
     1
 40
0.6
176
     1
 40
30.0
176
     1
 62
     7
420
 16777215
176
     1
 90
        1
176
     1
 90
        0
176
     1
 62
     7
176
     1
 62
   257
176
     1
 90
        1
176
     1
 90
        1
176
     1
 40
1.0
176
     1
 90
        0
176
     1
 62
   257
176
     1
 40
1.0
176
     1
 90
        1
176
     1
 90
        6
176
     1
 90
        2
176
     1
 62
     7
176
     1
 90
        5
176
     1
 90
        0
176
     1
 90
        0
176
     1
290
     0
176
     1
 90
       13
176
     1
 40
0.0
176
     1
 90
        0
176
     1
290
     0
176
     1
290
     1
176
     1
290
     1
176
     1
290
     0
176
     1
290
     0
176
     1
290
     0
176
     1
290
     0
176
     1
290
     0
176
     1
290
     0
176
     1
 90
       50
176
     1
 40
0.0
176
     1
 40
1.0
176
     1
 90
        0
176
     1
 62
    18
420
        0
176
     1
 90
       50
176
     1
 90
        3
176
     1
 62
     5
420
      255
176
     1
290
     0
176
     1
 90
       50
176
     1
 90
       50
176
     1
 90
       50
176
     1
290
     0
176
     1
 90
       50
176
     1
 62
   256
176
     0
 40
1.0
176
     0
 90
        2
176
     1
  1
strokes_ogs.tif
176
     1
290
     0
176
     1
 40
1.0
176
     1
 40
1.0
176
     1
  0
VISUALSTYLE
  5
2C
102
{ACAD_REACTORS
330
29
102
}
330
29
100
AcDbVisualStyle
  2
Gouraud
 70
     2
177
     3
291
     1
 70
    58
 90
        2
176
     1
 90
        2
176
     1
 90
        1
176
     1
 90
        2
176
     1
 40
0.6
176
     1
 40
30.0
176
     1
 62
     7
420
 16777215
176
     1
 90
        0
176
     1
 90
        0
176
     1
 62
     7
176
     1
 62
   257
176
     1
 90
        1
176
     1
 90
        1
176
     1
 40
1.0
176
     1
 90
        0
176
     1
 62
     7
176
     1
 40
1.0
176
     1
 90
        1
176
     1
 90
        6
176
     1
 90
        2
176
     1
 62
     7
176
     1
 90
        5
176
     1
 90
        0
176
     1
 90
        0
176
     1
290
     0
176
     1
 90
       13
176
     1
 40
0.0
176
     1
 90
        0
176
     1
290
     0
176
     1
290
     1
176
     1
290
     1
176
     1
290
     0
176
     1
290
     0
176
     1
290
     0
176
     1
290
     0
176
     1
290
     0
176
     1
290
     0
176
     1
 90
       50
176
     1
 40
0.0
176
     1
 40
1.0
176
     1
 90
        0
176
     1
 62
    18
420
        0
176
     1
 90
       50
176
     1
 90
        3
176
     1
 62
     5
420
      255
176
     1
290
     0
176
     1
 90
       50
176
     1
 90
       50
176
     1
 90
       50
176
     1
290
     0
176
     1
 90
       50
176
     1
 62
   256
176
     0
 40
1.0
176
     0
 90
        2
176
     1
  1
strokes_ogs.tif
176
     1
290
     0
176
     1
 40
1.0
176
     1
 40
1.0
176
     1
  0
VISUALSTYLE
  5
2D
102
{ACAD_REACTORS
330
29
102
}
330
29
100
AcDbVisualStyle
  2
GouraudWithEdges
 70
     3
177
     3
291
     1
 70
    58
 90
        2
176
     1
 90
        2
176
     1
 90
        1
176
     1
 90
        2
176
     1
 40
0.6
176
     1
 40
30.0
176
     1
 62
     7
420
 16777215
176
     1
 90
        1
176
     1
 90
        0
176
     1
 62
     7
176
     1
 62
   257
176
     1
 90
        1
176
     1
 90
        1
176
     1
 40
1.0
176
     1
 90
        0
176
     1
 62
   257
176
     1
 40
1.0
176
     1
 90
        1
176
     1
 90
        6
176
     1
 90
        2
176
     1
 62
     7
176
     1
 90
        5
176
     1
 90
        0
176
     1
 90
        0
176
     1
290
     0
176
     1
 90
       13
176
     1
 40
0.0
176
     1
 90
        0
176
     1
290
     0
176
     1
290
     1
176
     1
290
     1
176
     1
290
     0
176
     1
290
     0
176
     1
290
     0
176
     1
290
     0
176
     1
290
     0
176
     1
290
     0
176
     1
 90
       50
176
     1
 40
0.0
176
     1
 40
1.0
176
     1
 90
        0
176
     1
 62
    18
420
        0
176
     1
 90
       50
176
     1
 90
        3
176
     1
 62
     5
420
      255
176
     1
290
     0
176
     1
 90
       50
176
     1
 90
       50
176
     1
 90
       50
176
     1
290
     0
176
     1
 90
       50
176
     1
 62
   256
176
     0
 40
1.0
176
     0
 90
        2
176
     1
  1
strokes_ogs.tif
176
     1
290
     0
176
     1
 40
1.0
176
     1
 40
1.0
176
     1
  0
VISUALSTYLE
  5
31
102
{ACAD_REACTORS
330
29
102
}
330
29
100
AcDbVisualStyle
  2
Hidden
 70
     6
177
     3
291
     0
 70
    58
 90
        1
176
     1
 90
        2
176
     1
 90
        2
176
     1
 90
        0
176
     1
 40
0.6
176
     1
 40
30.0
176
     1
 62
     7
420
 16777215
176
     1
 90
        2
176
     1
 90
        2
176
     1
 62
     7
176
     1
 62
   257
176
     1
 90
        2
176
     1
 90
        1
176
     1
 40
40.0
176
     1
 90
        0
176
     1
 62
   257
176
     1
 40
1.0
176
     1
 90
        1
176
     1
 90
        6
176
     1
 90
        2
176
     1
 62
     7
176
     1
 90
        3
176
     1
 90
        0
176
     1
 90
        0
176
     1
290
     0
176
     1
 90
        1
176
     1
 40
0.0
176
     1
 90
        0
176
     1
290
     0
176
     1
290
     1
176
     1
290
     1
176
     1
290
     0
176
     1
290
     0
176
     1
290
     0
176
     1
290
     0
176
     1
290
     0
176
     1
290
     0
176
     1
 90
       50
176
     1
 40
0.0
176
     1
 40
1.0
176
     1
 90
        0
176
     1
 62
    18
420
        0
176
     1
 90
       50
176
     1
 90
        3
176
     1
 62
     5
420
      255
176
     1
290
     0
176
     1
 90
       50
176
     1
 90
       50
176
     1
 90
       50
176
     1
290
     0
176
     1
 90
       50
176
     1
 62
   256
176
     0
 40
1.0
176
     0
 90
        2
176
     1
  1
strokes_ogs.tif
176
     1
290
     0
176
     1
 40
1.0
176
     1
 40
1.0
176
     1
  0
VISUALSTYLE
  5
3F
102
{ACAD_REACTORS
330
29
102
}
330
29
100
AcDbVisualStyle
  2
JitterOff
 70
    20
177
     3
291
     1
 70
    58
 90
        2
176
     0
 90
        2
176
     0
 90
        0
176
     0
 90
        0
176
     0
 40
0.6
176
     0
 40
30.0
176
     0
 62
     7
420
 16777215
176
     0
 90
        1
176
     0
 90
        4
176
     0
 62
     7
176
     0
 62
   257
176
     0
 90
        1
176
     0
 90
        1
176
     0
 40
1.0
176
     0
 90
       10
176
     2
 62
     7
176
     0
 40
1.0
176
     0
 90
        1
176
     0
 90
        6
176
     0
 90
        2
176
     0
 62
     7
176
     0
 90
        5
176
     0
 90
        0
176
     0
 90
        0
176
     0
290
     0
176
     0
 90
        1
176
     0
 40
0.0
176
     0
 90
        0
176
     0
290
     0
176
     0
290
     1
176
     0
290
     1
176
     0
290
     0
176
     0
290
     0
176
     0
290
     0
176
     0
290
     0
176
     0
290
     0
176
     0
290
     0
176
     0
 90
       50
176
     0
 40
0.0
176
     0
 40
1.0
176
     0
 90
        0
176
     0
 62
    18
420
        0
176
     0
 90
       50
176
     0
 90
        3
176
     0
 62
     5
420
      255
176
     0
290
     0
176
     0
 90
       50
176
     0
 90
       50
176
     0
 90
       50
176
     0
290
     0
176
     0
 90
       50
176
     0
 62
   256
176
     0
 40
1.0
176
     0
 90
        2
176
     0
  1
strokes_ogs.tif
176
     0
290
     0
176
     0
 40
1.0
176
     0
 40
1.0
176
     0
  0
VISUALSTYLE
  5
37
102
{ACAD_REACTORS
330
29
102
}
330
29
100
AcDbVisualStyle
  2
Linepattern
 70
    14
177
     3
291
     1
 70
    58
 90
        2
176
     1
 90
        2
176
     1
 90
        0
176
     1
 90
        0
176
     1
 40
0.6
176
     1
 40
30.0
176
     1
 62
     7
420
 16777215
176
     1
 90
        1
176
     1
 90
        4
176
     1
 62
     7
176
     1
 62
   257
176
     1
 90
        7
176
     1
 90
        7
176
     1
 40
1.0
176
     1
 90
        8
176
     1
 62
     7
176
     1
 40
1.0
176
     1
 90
        1
176
     1
 90
        6
176
     1
 90
        2
176
     1
 62
     7
176
     1
 90
        5
176
     1
 90
        0
176
     1
 90
        0
176
     1
290
     0
176
     1
 90
        1
176
     1
 40
0.0
176
     1
 90
        0
176
     1
290
     0
176
     1
290
     1
176
     1
290
     1
176
     1
290
     0
176
     1
290
     0
176
     1
290
     0
176
     1
290
     0
176
     1
290
     0
176
     1
290
     0
176
     1
 90
       50
176
     1
 40
0.0
176
     1
 40
1.0
176
     1
 90
        0
176
     1
 62
    18
420
        0
176
     1
 90
       50
176
     1
 90
        3
176
     1
 62
     5
420
      255
176
     1
290
     0
176
     1
 90
       50
176
     1
 90
       50
176
     1
 90
       50
176
     1
290
     0
176
     1
 90
       50
176
     1
 62
   256
176
     0
 40
1.0
176
     0
 90
        2
176
     1
  1
strokes_ogs.tif
176
     1
290
     0
176
     1
 40
1.0
176
     1
 40
1.0
176
     1
  0
VISUALSTYLE
  5
40
102
{ACAD_REACTORS
330
29
102
}
330
29
100
AcDbVisualStyle
  2
OverhangOff
 70
    21
177
     3
291
     1
 70
    58
 90
        2
176
     0
 90
        2
176
     0
 90
        0
176
     0
 90
        0
176
     0
 40
0.6
176
     0
 40
30.0
176
     0
 62
     7
420
 16777215
176
     0
 90
        1
176
     0
 90
        4
176
     0
 62
     7
176
     0
 62
   257
176
     0
 90
        1
176
     0
 90
        1
176
     0
 40
1.0
176
     0
 90
        9
176
     2
 62
     7
176
     0
 40
1.0
176
     0
 90
        1
176
     0
 90
        6
176
     0
 90
        2
176
     0
 62
     7
176
     0
 90
        5
176
     0
 90
        0
176
     0
 90
        0
176
     0
290
     0
176
     0
 90
        1
176
     0
 40
0.0
176
     0
 90
        0
176
     0
290
     0
176
     0
290
     1
176
     0
290
     1
176
     0
290
     0
176
     0
290
     0
176
     0
290
     0
176
     0
290
     0
176
     0
290
     0
176
     0
290
     0
176
     0
 90
       50
176
     0
 40
0.0
176
     0
 40
1.0
176
     0
 90
        0
176
     0
 62
    18
420
        0
176
     0
 90
       50
176
     0
 90
        3
176
     0
 62
     5
420
      255
176
     0
290
     0
176
     0
 90
       50
176
     0
 90
       50
176
     0
 90
       50
176
     0
290
     0
176
     0
 90
       50
176
     0
 62
   256
176
     0
 40
1.0
176
     0
 90
        2
176
     0
  1
strokes_ogs.tif
176
     0
290
     0
176
     0
 40
1.0
176
     0
 40
1.0
176
     0
  0
VISUALSTYLE
  5
33
102
{ACAD_REACTORS
330
29
102
}
330
29
100
AcDbVisualStyle
  2
Realistic
 70
     8
177
     3
291
     0
 70
    58
 90
        2
176
     1
 90
        3
176
     1
 90
        0
176
     1
 90
        2
176
     1
 40
0.6
176
     1
 40
30.0
176
     1
 62
     7
420
 16777215
176
     1
 90
        0
176
     1
 90
        0
176
     1
 62
     7
176
     1
 62
   257
176
     1
 90
        1
176
     1
 90
        1
176
     1
 40
1.0
176
     1
 90
        8
176
     1
 62
   257
176
     1
 40
1.0
176
     1
 90
        1
176
     1
 90
        6
176
     1
 90
        2
176
     1
 62
     7
176
     1
 90
        3
176
     1
 90
        0
176
     1
 90
        0
176
     1
290
     0
176
     1
 90
       13
176
     1
 40
0.0
176
     1
 90
        0
176
     1
290
     0
176
     1
290
     1
176
     1
290
     1
176
     1
290
     0
176
     1
290
     0
176
     1
290
     0
176
     1
290
     0
176
     1
290
     0
176
     1
290
     0
176
     1
 90
       50
176
     1
 40
0.0
176
     1
 40
1.0
176
     1
 90
        0
176
     1
 62
    18
420
        0
176
     1
 90
       50
176
     1
 90
        3
176
     1
 62
     5
420
      255
176
     1
290
     0
176
     1
 90
       50
176
     1
 90
       50
176
     1
 90
       50
176
     1
290
     0
176
     1
 90
       50
176
     1
 62
   256
176
     0
 40
1.0
176
     0
 90
        2
176
     1
  1
strokes_ogs.tif
176
     1
290
     0
176
     1
 40
1.0
176
     1
 40
1.0
176
     1
  0
VISUALSTYLE
  5
3E
102
{ACAD_REACTORS
330
29
102
}
330
29
100
AcDbVisualStyle
  2
Shaded
 70
    27
177
     3
291
     0
 70
    58
 90
        2
176
     1
 90
        2
176
     1
 90
        1
176
     1
 90
        2
176
     1
 40
0.6
176
     1
 40
30.0
176
     1
 62
     7
420
 16777215
176
     1
 90
        0
176
     1
 90
        4
176
     1
 62
     7
176
     1
 62
   257
176
     1
 90
        1
176
     1
 90
        1
176
     1
 40
1.0
176
     1
 90
        8
176
     1
 62
   257
176
     1
 40
1.0
176
     1
 90
        1
176
     1
 90
        6
176
     1
 90
        2
176
     1
 62
     8
420
  7895160
176
     1
 90
        3
176
     1
 90
        0
176
     1
 90
        0
176
     1
290
     0
176
     1
 90
        5
176
     1
 40
0.0
176
     1
 90
        0
176
     1
290
     0
176
     1
290
     1
176
     1
290
     1
176
     1
290
     0
176
     1
290
     0
176
     1
290
     0
176
     1
290
     0
176
     1
290
     0
176
     1
290
     0
176
     1
 90
       50
176
     1
 40
0.0
176
     1
 40
1.0
176
     1
 90
        0
176
     1
 62
    18
420
        0
176
     1
 90
       50
176
     1
 90
        3
176
     1
 62
     5
420
      255
176
     1
290
     0
176
     1
 90
       50
176
     1
 90
       50
176
     1
 90
       50
176
     1
290
     0
176
     1
 90
       50
176
     1
 62
   256
176
     0
 40
1.0
176
     0
 90
        2
176
     1
  1
strokes_ogs.tif
176
     1
290
     0
176
     1
 40
1.0
176
     1
 40
1.0
176
     1
  0
VISUALSTYLE
  5
3D
102
{ACAD_REACTORS
330
29
102
}
330
29
100
AcDbVisualStyle
  2
Shaded with edges
 70
    26
177
     3
291
     0
 70
    58
 90
        2
176
     1
 90
        2
176
     1
 90
        1
176
     1
 90
        2
176
     1
 40
0.6
176
     1
 40
30.0
176
     1
 62
     7
420
 16777215
176
     1
 90
        1
176
     1
 90
        2
176
     1
 62
     7
176
     1
 62
   257
176
     1
 90
        2
176
     1
 90
        1
176
     1
 40
1.0
176
     1
 90
        8
176
     1
 62
   257
176
     1
 40
1.0
176
     1
 90
        1
176
     1
 90
        6
176
     1
 90
        2
176
     1
 62
     7
176
     1
 90
        3
176
     1
 90
        0
176
     1
 90
        0
176
     1
290
     0
176
     1
 90
        5
176
     1
 40
0.0
176
     1
 90
        0
176
     1
290
     0
176
     1
290
     1
176
     1
290
     1
176
     1
290
     0
176
     1
290
     0
176
     1
290
     0
176
     1
290
     0
176
     1
290
     0
176
     1
290
     0
176
     1
 90
       50
176
     1
 40
0.0
176
     1
 40
1.0
176
     1
 90
        0
176
     1
 62
    18
420
        0
176
     1
 90
       50
176
     1
 90
        3
176
     1
 62
     5
420
      255
176
     1
290
     0
176
     1
 90
       50
176
     1
 90
       50
176
     1
 90
       50
176
     1
290
     0
176
     1
 90
       50
176
     1
 62
   256
176
     0
 40
1.0
176
     0
 90
        2
176
     1
  1
strokes_ogs.tif
176
     1
290
     0
176
     1
 40
1.0
176
     1
 40
1.0
176
     1
  0
VISUALSTYLE
  5
3A
102
{ACAD_REACTORS
330
29
102
}
330
29
100
AcDbVisualStyle
  2
Shades of Gray
 70
    23
177
     3
291
     0
 70
    58
 90
        2
176
     1
 90
        2
176
     1
 90
        3
176
     1
 90
        0
176
     1
 40
0.6
176
     1
 40
30.0
176
     1
 62
     7
420
 16777215
176
     1
 90
        2
176
     1
 90
        2
176
     1
 62
     7
176
     1
 62
     7
176
     1
 90
        1
176
     1
 90
        1
176
     1
 40
40.0
176
     1
 90
        8
176
     1
 62
     7
176
     1
 40
1.0
176
     1
 90
        1
176
     1
 90
        6
176
     1
 90
        2
176
     1
 62
     7
176
     1
 90
        3
176
     1
 90
        0
176
     1
 90
        0
176
     1
290
     0
176
     1
 90
        1
176
     1
 40
0.0
176
     1
 90
        0
176
     1
290
     0
176
     1
290
     1
176
     1
290
     1
176
     1
290
     0
176
     1
290
     0
176
     1
290
     0
176
     1
290
     0
176
     1
290
     0
176
     1
290
     0
176
     1
 90
       50
176
     1
 40
0.0
176
     1
 40
1.0
176
     1
 90
        0
176
     1
 62
    18
420
        0
176
     1
 90
       50
176
     1
 90
        3
176
     1
 62
     5
420
      255
176
     1
290
     0
176
     1
 90
       50
176
     1
 90
       50
176
     1
 90
       50
176
     1
290
     0
176
     1
 90
       50
176
     1
 62
   256
176
     0
 40
1.0
176
     0
 90
        2
176
     1
  1
strokes_ogs.tif
176
     1
290
     0
176
     1
 40
1.0
176
     1
 40
1.0
176
     1
  0
VISUALSTYLE
  5
3B
102
{ACAD_REACTORS
330
29
102
}
330
29
100
AcDbVisualStyle
  2
Sketchy
 70
    24
177
     3
291
     0
 70
    58
 90
        1
176
     1
 90
        2
176
     1
 90
        2
176
     1
 90
        0
176
     1
 40
0.6
176
     1
 40
30.0
176
     1
 62
     7
420
 16777215
176
     1
 90
        2
176
     1
 90
        2
176
     1
 62
     7
176
     1
 62
     7
176
     1
 90
        1
176
     1
 90
        1
176
     1
 40
40.0
176
     1
 90
       11
176
     1
 62
     7
176
     1
 40
1.0
176
     1
 90
        1
176
     1
 90
        6
176
     1
 90
        2
176
     1
 62
     7
176
     1
 90
        6
176
     1
 90
        0
176
     1
 90
        0
176
     1
290
     0
176
     1
 90
        1
176
     1
 40
0.0
176
     1
 90
        0
176
     1
290
     0
176
     1
290
     1
176
     1
290
     1
176
     1
290
     0
176
     1
290
     0
176
     1
290
     0
176
     1
290
     0
176
     1
290
     0
176
     1
290
     0
176
     1
 90
       50
176
     1
 40
0.0
176
     1
 40
1.0
176
     1
 90
        0
176
     1
 62
    18
420
        0
176
     1
 90
       50
176
     1
 90
        3
176
     1
 62
     5
420
      255
176
     1
290
     0
176
     1
 90
       50
176
     1
 90
       50
176
     1
 90
       50
176
     1
290
     0
176
     1
 90
       50
176
     1
 62
   256
176
     0
 40
1.0
176
     0
 90
        2
176
     1
  1
strokes_ogs.tif
176
     1
290
     0
176
     1
 40
1.0
176
     1
 40
1.0
176
     1
  0
VISUALSTYLE
  5
36
102
{ACAD_REACTORS
330
29
102
}
330
29
100
AcDbVisualStyle
  2
Thicken
 70
    13
177
     3
291
     1
 70
    58
 90
        2
176
     1
 90
        2
176
     1
 90
        0
176
     1
 90
        0
176
     1
 40
0.6
176
     1
 40
30.0
176
     1
 62
     7
420
 16777215
176
     1
 90
        1
176
     1
 90
        4
176
     1
 62
     7
176
     1
 62
   257
176
     1
 90
        1
176
     1
 90
        1
176
     1
 40
1.0
176
     1
 90
       12
176
     1
 62
     7
176
     1
 40
1.0
176
     1
 90
        1
176
     1
 90
        6
176
     1
 90
        2
176
     1
 62
     7
176
     1
 90
        5
176
     1
 90
        0
176
     1
 90
        0
176
     1
290
     0
176
     1
 90
        1
176
     1
 40
0.0
176
     1
 90
        0
176
     1
290
     0
176
     1
290
     1
176
     1
290
     1
176
     1
290
     0
176
     1
290
     0
176
     1
290
     0
176
     1
290
     0
176
     1
290
     0
176
     1
290
     0
176
     1
 90
       50
176
     1
 40
0.0
176
     1
 40
1.0
176
     1
 90
        0
176
     1
 62
    18
420
        0
176
     1
 90
       50
176
     1
 90
        3
176
     1
 62
     5
420
      255
176
     1
290
     0
176
     1
 90
       50
176
     1
 90
       50
176
     1
 90
       50
176
     1
290
     0
176
     1
 90
       50
176
     1
 62
   256
176
     0
 40
1.0
176
     0
 90
        2
176
     1
  1
strokes_ogs.tif
176
     1
290
     0
176
     1
 40
1.0
176
     1
 40
1.0
176
     1
  0
VISUALSTYLE
  5
30
102
{ACAD_REACTORS
330
29
102
}
330
29
100
AcDbVisualStyle
  2
Wireframe
 70
     5
177
     3
291
     0
 70
    58
 90
        0
176
     1
 90
        2
176
     1
 90
        0
176
     1
 90
        0
176
     1
 40
0.6
176
     1
 40
30.0
176
     1
 62
     7
420
 16777215
176
     1
 90
        1
176
     1
 90
        4
176
     1
 62
     7
176
     1
 62
   257
176
     1
 90
        1
176
     1
 90
        1
176
     1
 40
1.0
176
     1
 90
        0
176
     1
 62
   257
176
     1
 40
1.0
176
     1
 90
        1
176
     1
 90
        6
176
     1
 90
        2
176
     1
 62
     7
176
     1
 90
        3
176
     1
 90
        0
176
     1
 90
        0
176
     1
290
     0
176
     1
 90
        1
176
     1
 40
0.0
176
     1
 90
        0
176
     1
290
     0
176
     1
290
     1
176
     1
290
     1
176
     1
290
     0
176
     1
290
     0
176
     1
290
     0
176
     1
290
     0
176
     1
290
     0
176
     1
290
     0
176
     1
 90
       50
176
     1
 40
0.0
176
     1
 40
1.0
176
     1
 90
        0
176
     1
 62
    18
420
        0
176
     1
 90
       50
176
     1
 90
        3
176
     1
 62
     5
420
      255
176
     1
290
     0
176
     1
 90
       50
176
     1
 90
       50
176
     1
 90
       50
176
     1
290
     0
176
     1
 90
       50
176
     1
 62
   256
176
     0
 40
1.0
176
     0
 90
        2
176
     1
  1
strokes_ogs.tif
176
     1
290
     0
176
     1
 40
1.0
176
     1
 40
1.0
176
     1
  0
VISUALSTYLE
  5
3C
102
{ACAD_REACTORS
330
29
102
}
330
29
100
AcDbVisualStyle
  2
X-Ray
 70
    25
177
     3
291
     0
 70
    58
 90
        2
176
     1
 90
        2
176
     1
 90
        1
176
     1
 90
        1
176
     1
 40
0.5
176
     1
 40
30.0
176
     1
 62
     7
420
 16777215
176
     1
 90
        1
176
     1
 90
        0
176
     1
 62
     7
176
     1
 62
   257
176
     1
 90
        1
176
     1
 90
        1
176
     1
 40
1.0
176
     1
 90
        8
176
     1
 62
     7
176
     1
 40
1.0
176
     1
 90
        1
176
     1
 90
        6
176
     1
 90
        2
176
     1
 62
     7
176
     1
 90
        3
176
     1
 90
        0
176
     1
 90
        0
176
     1
290
     0
176
     1
 90
       13
176
     1
 40
0.0
176
     1
 90
        0
176
     1
290
     0
176
     1
290
     1
176
     1
290
     1
176
     1
290
     0
176
     1
290
     0
176
     1
290
     0
176
     1
290
     0
176
     1
290
     0
176
     1
290
     0
176
     1
 90
       50
176
     1
 40
0.0
176
     1
 40
1.0
176
     1
 90
        0
176
     1
 62
    18
420
        0
176
     1
 90
       50
176
     1
 90
        3
176
     1
 62
     5
420
      255
176
     1
290
     0
176
     1
 90
       50
176
     1
 90
       50
176
     1
 90
       50
176
     1
290
     0
176
     1
 90
       50
176
     1
 62
   256
176
     0
 40
1.0
176
     0
 90
        2
176
     1
  1
strokes_ogs.tif
176
     1
290
     0
176
     1
 40
1.0
176
     1
 40
1.0
176
     1
  0
DICTIONARYVAR
  5
211
102
{ACAD_REACTORS
330
20C
102
}
330
20C
100
DictionaryVariables
280
     0
  1
1:1
  0
DICTIONARYVAR
  5
20E
102
{ACAD_REACTORS
330
20C
102
}
330
20C
100
DictionaryVariables
280
     0
  1
STANDARD
  0
DICTIONARYVAR
  5
20D
102
{ACAD_REACTORS
330
20C
102
}
330
20C
100
DictionaryVariables
280
     0
  1
STANDARD
  0
DICTIONARYVAR
  5
20F
102
{ACAD_REACTORS
330
20C
102
}
330
20C
100
DictionaryVariables
280
     0
  1
Imperial24
  0
DICTIONARYVAR
  5
210
102
{ACAD_REACTORS
330
20C
102
}
330
20C
100
DictionaryVariables
280
     0
  1
Imperial24
  0
DICTIONARY
  5
1A
330
19
100
AcDbDictionary
280
     1
281
     1
  3
BUMPTILE
360
1C
  3
DIFFUSETILE
360
1B
  3
OPACITYTILE
360
1F
  3
REFLECTIONTILE
360
1E
  3
REFRACTIONTILE
360
20
  3
SPECULARTILE
360
1D
  0
DICTIONARY
  5
12
330
11
100
AcDbDictionary
280
     1
281
     1
  3
BUMPTILE
360
14
  3
DIFFUSETILE
360
13
  3
OPACITYTILE
360
17
  3
REFLECTIONTILE
360
16
  3
REFRACTIONTILE
360
18
  3
SPECULARTILE
360
15
  0
DICTIONARY
  5
22
330
21
100
AcDbDictionary
280
     1
281
     1
  3
BUMPTILE
360
24
  3
DIFFUSETILE
360
23
  3
OPACITYTILE
360
27
  3
REFLECTIONTILE
360
26
  3
REFRACTIONTILE
360
28
  3
SPECULARTILE
360
25
  0
DICTIONARY
  5
212
330
65
100
AcDbDictionary
280
     1
281
     1
  3
ACAD_ROUNDTRIP_2008_TABLESTYLE_CELLSTYLEMAP
360
213
  0
XRECORD
  5
1C
102
{ACAD_REACTORS
330
1A
102
}
330
1A
100
AcDbXrecord
280
     1
270
     1
271
     1
  0
XRECORD
  5
1B
102
{ACAD_REACTORS
330
1A
102
}
330
1A
100
AcDbXrecord
280
     1
270
     1
271
     1
  0
XRECORD
  5
1F
102
{ACAD_REACTORS
330
1A
102
}
330
1A
100
AcDbXrecord
280
     1
270
     1
271
     1
  0
XRECORD
  5
1E
102
{ACAD_REACTORS
330
1A
102
}
330
1A
100
AcDbXrecord
280
     1
270
     1
271
     1
  0
XRECORD
  5
20
102
{ACAD_REACTORS
330
1A
102
}
330
1A
100
AcDbXrecord
280
     1
270
     1
271
     1
  0
XRECORD
  5
1D
102
{ACAD_REACTORS
330
1A
102
}
330
1A
100
AcDbXrecord
280
     1
270
     1
271
     1
  0
XRECORD
  5
14
102
{ACAD_REACTORS
330
12
102
}
330
12
100
AcDbXrecord
280
     1
270
     1
271
     1
  0
XRECORD
  5
13
102
{ACAD_REACTORS
330
12
102
}
330
12
100
AcDbXrecord
280
     1
270
     1
271
     1
  0
XRECORD
  5
17
102
{ACAD_REACTORS
330
12
102
}
330
12
100
AcDbXrecord
280
     1
270
     1
271
     1
  0
XRECORD
  5
16
102
{ACAD_REACTORS
330
12
102
}
330
12
100
AcDbXrecord
280
     1
270
     1
271
     1
  0
XRECORD
  5
18
102
{ACAD_REACTORS
330
12
102
}
330
12
100
AcDbXrecord
280
     1
270
     1
271
     1
  0
XRECORD
  5
15
102
{ACAD_REACTORS
330
12
102
}
330
12
100
AcDbXrecord
280
     1
270
     1
271
     1
  0
XRECORD
  5
24
102
{ACAD_REACTORS
330
22
102
}
330
22
100
AcDbXrecord
280
     1
270
     1
271
     1
  0
XRECORD
  5
23
102
{ACAD_REACTORS
330
22
102
}
330
22
100
AcDbXrecord
280
     1
270
     1
271
     1
  0
XRECORD
  5
27
102
{ACAD_REACTORS
330
22
102
}
330
22
100
AcDbXrecord
280
     1
270
     1
271
     1
  0
XRECORD
  5
26
102
{ACAD_REACTORS
330
22
102
}
330
22
100
AcDbXrecord
280
     1
270
     1
271
     1
  0
XRECORD
  5
28
102
{ACAD_REACTORS
330
22
102
}
330
22
100
AcDbXrecord
280
     1
270
     1
271
     1
  0
XRECORD
  5
25
102
{ACAD_REACTORS
330
22
102
}
330
22
100
AcDbXrecord
280
     1
270
     1
271
     1
  0
CELLSTYLEMAP
  5
213
102
{ACAD_REACTORS
330
212
102
}
330
212
100
AcDbCellStyleMap
 90
        3
300
CELLSTYLE
  1
TABLEFORMAT_BEGIN
 90
        5
170
     1
 91
        0
 92
    32768
 62
   257
 93
        1
300
CONTENTFORMAT
  1
CONTENTFORMAT_BEGIN
 90
        0
 91
        0
 92
      512
 93
        0
300

 40
0.0
140
1.0
 94
        5
 62
     0
340
55
144
0.25
309
CONTENTFORMAT_END
171
     0
 94
        0
309
TABLEFORMAT_END
  1
CELLSTYLE_BEGIN
 90
        1
 91
        1
300
_TITLE
309
CELLSTYLE_END
300
CELLSTYLE
  1
TABLEFORMAT_BEGIN
 90
        5
170
     1
 91
        0
 92
        0
 62
   257
 93
        1
300
CONTENTFORMAT
  1
CONTENTFORMAT_BEGIN
 90
        0
 91
        0
 92
      512
 93
        0
300

 40
0.0
140
1.0
 94
        5
 62
     0
340
55
144
0.18
309
CONTENTFORMAT_END
171
     0
 94
        0
309
TABLEFORMAT_END
  1
CELLSTYLE_BEGIN
 90
        2
 91
        1
300
_HEADER
309
CELLSTYLE_END
300
CELLSTYLE
  1
TABLEFORMAT_BEGIN
 90
        5
170
     1
 91
        0
 92
        0
 62
   257
 93
        1
300
CONTENTFORMAT
  1
CONTENTFORMAT_BEGIN
 90
        0
 91
        0
 92
      512
 93
        0
300

 40
0.0
140
1.0
 94
        2
 62
     0
340
55
144
0.18
309
CONTENTFORMAT_END
171
     0
 94
        0
309
TABLEFORMAT_END
  1
CELLSTYLE_BEGIN
 90
        3
 91
        2
300
_DATA
309
CELLSTYLE_END
  0
ENDSEC
  0
EOF
