  0
SECTION
  2
HEADER
  9
$ACADVER
  1
AC1032
  9
$ACADMAINTVER
 90
      251
  9
$DWGCODEPAGE
  3
ANSI_1252
  9
$REQUIREDVERSIONS
160
                 0
  9
$INSBASE
 10
0.0
 20
0.0
 30
0.0
  9
$EXTMIN
 10
1.000000000000000E+20
 20
1.000000000000000E+20
 30
1.000000000000000E+20
  9
$EXTMAX
 10
-1.000000000000000E+20
 20
-1.000000000000000E+20
 30
-1.000000000000000E+20
  9
$LIMMIN
 10
0.0
 20
0.0
  9
$LIMMAX
 10
12.0
 20
9.0
  9
$ORTHOMODE
 70
     0
  9
$REGENMODE
 70
     1
  9
$FILLMODE
 70
     1
  9
$QTEXTMODE
 70
     0
  9
$MIRRTEXT
 70
     0
  9
$LTSCALE
 40
1.0
  9
$ATTMODE
 70
     1
  9
$TEXTSIZE
 40
0.2
  9
$TRACEWID
 40
0.05
  9
$TEXTSTYLE
  7
Standard
  9
$CLAYER
  8
0
  9
$CELTYPE
  6
ByLayer
  9
$CECOLOR
 62
   256
  9
$CELTSCALE
 40
1.0
  9
$DISPSILH
 70
     0
  9
$DIMSCALE
 40
1.0
  9
$DIMASZ
 40
0.18
  9
$DIMEXO
 40
0.0625
  9
$DIMDLI
 40
0.38
  9
$DIMRND
 40
0.0
  9
$DIMDLE
 40
0.0
  9
$DIMEXE
 40
0.18
  9
$DIMTP
 40
0.0
  9
$DIMTM
 40
0.0
  9
$DIMTXT
 40
0.18
  9
$DIMCEN
 40
0.09
  9
$DIMTSZ
 40
0.0
  9
$DIMTOL
 70
     0
  9
$DIMLIM
 70
     0
  9
$DIMTIH
 70
     1
  9
$DIMTOH
 70
     1
  9
$DIMSE1
 70
     0
  9
$DIMSE2
 70
     0
  9
$DIMTAD
 70
     0
  9
$DIMZIN
 70
     0
  9
$DIMBLK
  1

  9
$DIMASO
 70
     1
  9
$DIMSHO
 70
     1
  9
$DIMPOST
  1

  9
$DIMAPOST
  1

  9
$DIMALT
 70
     0
  9
$DIMALTD
 70
     2
  9
$DIMALTF
 40
25.4
  9
$DIMLFAC
 40
1.0
  9
$DIMTOFL
 70
     0
  9
$DIMTVP
 40
0.0
  9
$DIMTIX
 70
     0
  9
$DIMSOXD
 70
     0
  9
$DIMSAH
 70
     0
  9
$DIMBLK1
  1

  9
$DIMBLK2
  1

  9
$DIMSTYLE
  2
Standard
  9
$DIMCLRD
 70
     0
  9
$DIMCLRE
 70
     0
  9
$DIMCLRT
 70
     0
  9
$DIMTFAC
 40
1.0
  9
$DIMGAP
 40
0.09
  9
$DIMJUST
 70
     0
  9
$DIMSD1
 70
     0
  9
$DIMSD2
 70
     0
  9
$DIMTOLJ
 70
     1
  9
$DIMTZIN
 70
     0
  9
$DIMALTZ
 70
     0
  9
$DIMALTTZ
 70
     0
  9
$DIMUPT
 70
     0
  9
$DIMDEC
 70
     4
  9
$DIMTDEC
 70
     4
  9
$DIMALTU
 70
     2
  9
$DIMALTTD
 70
     2
  9
$DIMTXSTY
  7
Standard
  9
$DIMAUNIT
 70
     0
  9
$DIMADEC
 70
     0
  9
$DIMALTRND
 40
0.0
  9
$DIMAZIN
 70
     0
  9
$DIMDSEP
 70
    46
  9
$DIMATFIT
 70
     3
  9
$DIMFRAC
 70
     0
  9
$DIMLDRBLK
  1

  9
$DIMLUNIT
 70
     2
  9
$DIMLWD
 70
    -2
  9
$DIMLWE
 70
    -2
  9
$DIMTMOVE
 70
     0
  9
$DIMFXL
 40
1.0
  9
$DIMFXLON
 70
     0
  9
$DIMJOGANG
 40
0.7853981633974483
  9
$DIMTFILL
 70
     0
  9
$DIMTFILLCLR
 70
     0
  9
$DIMARCSYM
 70
     0
  9
$DIMLTYPE
  6

  9
$DIMLTEX1
  6

  9
$DIMLTEX2
  6

  9
$DIMTXTDIRECTION
 70
     0
  9
$LUNITS
 70
     2
  9
$LUPREC
 70
     4
  9
$SKETCHINC
 40
0.1
  9
$FILLETRAD
 40
0.0
  9
$AUNITS
 70
     0
  9
$AUPREC
 70
     0
  9
$MENU
  1
.
  9
$ELEVATION
 40
0.0
  9
$PELEVATION
 40
0.0
  9
$THICKNESS
 40
0.0
  9
$LIMCHECK
 70
     0
  9
$CHAMFERA
 40
0.0
  9
$CHAMFERB
 40
0.0
  9
$CHAMFERC
 40
0.0
  9
$CHAMFERD
 40
0.0
  9
$SKPOLY
 70
     0
  9
$TDCREATE
 40
2460035.569791667
  9
$TDUCREATE
 40
2460035.486458333
  9
$TDUPDATE
 40
2460035.569791667
  9
$TDUUPDATE
 40
2460035.486458333
  9
$TDINDWG
 40
0.0000000000
  9
$TDUSRTIMER
 40
0.0000000000
  9
$USRTIMER
 70
     1
  9
$ANGBASE
 50
0.0
  9
$ANGDIR
 70
     0
  9
$PDMODE
 70
     0
  9
$PDSIZE
 40
0.0
  9
$PLINEWID
 40
0.0
  9
$SPLFRAME
 70
     0
  9
$SPLINETYPE
 70
     6
  9
$SPLINESEGS
 70
     8
  9
$HANDSEED
  5
1F2
  9
$SURFTAB1
 70
     6
  9
$SURFTAB2
 70
     6
  9
$SURFTYPE
 70
     6
  9
$SURFU
 70
     6
  9
$SURFV
 70
     6
  9
$UCSBASE
  2

  9
$UCSNAME
  2

  9
$UCSORG
 10
0.0
 20
0.0
 30
0.0
  9
$UCSXDIR
 10
1.0
 20
0.0
 30
0.0
  9
$UCSYDIR
 10
0.0
 20
1.0
 30
0.0
  9
$UCSORTHOREF
  2

  9
$UCSORTHOVIEW
 70
     0
  9
$UCSORGTOP
 10
0.0
 20
0.0
 30
0.0
  9
$UCSORGBOTTOM
 10
0.0
 20
0.0
 30
0.0
  9
$UCSORGLEFT
 10
0.0
 20
0.0
 30
0.0
  9
$UCSORGRIGHT
 10
0.0
 20
0.0
 30
0.0
  9
$UCSORGFRONT
 10
0.0
 20
0.0
 30
0.0
  9
$UCSORGBACK
 10
0.0
 20
0.0
 30
0.0
  9
$PUCSBASE
  2

  9
$PUCSNAME
  2

  9
$PUCSORG
 10
0.0
 20
0.0
 30
0.0
  9
$PUCSXDIR
 10
1.0
 20
0.0
 30
0.0
  9
$PUCSYDIR
 10
0.0
 20
1.0
 30
0.0
  9
$PUCSORTHOREF
  2

  9
$PUCSORTHOVIEW
 70
     0
  9
$PUCSORGTOP
 10
0.0
 20
0.0
 30
0.0
  9
$PUCSORGBOTTOM
 10
0.0
 20
0.0
 30
0.0
  9
$PUCSORGLEFT
 10
0.0
 20
0.0
 30
0.0
  9
$PUCSORGRIGHT
 10
0.0
 20
0.0
 30
0.0
  9
$PUCSORGFRONT
 10
0.0
 20
0.0
 30
0.0
  9
$PUCSORGBACK
 10
0.0
 20
0.0
 30
0.0
  9
$USERI1
 70
     0
  9
$USERI2
 70
     0
  9
$USERI3
 70
     0
  9
$USERI4
 70
     0
  9
$USERI5
 70
     0
  9
$USERR1
 40
0.0
  9
$USERR2
 40
0.0
  9
$USERR3
 40
0.0
  9
$USERR4
 40
0.0
  9
$USERR5
 40
0.0
  9
$WORLDVIEW
 70
     1
  9
$SHADEDGE
 70
     3
  9
$SHADEDIF
 70
    70
  9
$TILEMODE
 70
     1
  9
$MAXACTVP
 70
    64
  9
$PINSBASE
 10
0.0
 20
0.0
 30
0.0
  9
$PLIMCHECK
 70
     0
  9
$PEXTMIN
 10
1.000000000000000E+20
 20
1.000000000000000E+20
 30
1.000000000000000E+20
  9
$PEXTMAX
 10
-1.000000000000000E+20
 20
-1.000000000000000E+20
 30
-1.000000000000000E+20
  9
$PLIMMIN
 10
0.0
 20
0.0
  9
$PLIMMAX
 10
12.0
 20
9.0
  9
$UNITMODE
 70
     0
  9
$VISRETAIN
 70
     1
  9
$PLINEGEN
 70
     0
  9
$PSLTSCALE
 70
     1
  9
$TREEDEPTH
 70
  3020
  9
$CMLSTYLE
  2
Standard
  9
$CMLJUST
 70
     0
  9
$CMLSCALE
 40
1.0
  9
$PROXYGRAPHICS
 70
     1
  9
$MEASUREMENT
 70
     0
  9
$CELWEIGHT
370
    -1
  9
$ENDCAPS
280
     0
  9
$JOINSTYLE
280
     0
  9
$LWDISPLAY
290
     1
  9
$INSUNITS
 70
     4
  9
$HYPERLINKBASE
  1

  9
$STYLESHEET
  1

  9
$XEDIT
290
     1
  9
$CEPSNTYPE
380
     0
  9
$PSTYLEMODE
290
     1
  9
$FINGERPRINTGUID
  2
{342DCF88-CD12-B34C-8979-9149801843C5}
  9
$VERSIONGUID
  2
{AD268424-8B69-8C4E-8610-0D3C035F7855}
  9
$EXTNAMES
290
     1
  9
$PSVPSCALE
 40
0.0
  9
$OLESTARTUP
290
     0
  9
$SORTENTS
280
   127
  9
$INDEXCTL
280
     0
  9
$HIDETEXT
280
     1
  9
$XCLIPFRAME
280
     2
  9
$HALOGAP
280
     0
  9
$OBSCOLOR
 70
   257
  9
$OBSLTYPE
280
     0
  9
$INTERSECTIONDISPLAY
280
     0
  9
$INTERSECTIONCOLOR
 70
   257
  9
$DIMASSOC
280
     2
  9
$PROJECTNAME
  1

  9
$CAMERADISPLAY
290
     0
  9
$LENSLENGTH
 40
50.0
  9
$CAMERAHEIGHT
 40
0.0
  9
$STEPSPERSEC
 40
2.0
  9
$STEPSIZE
 40
6.0
  9
$3DDWFPREC
 40
2.0
  9
$PSOLWIDTH
 40
0.25
  9
$PSOLHEIGHT
 40
4.0
  9
$LOFTANG1
 40
1.570796326794896
  9
$LOFTANG2
 40
1.570796326794896
  9
$LOFTMAG1
 40
0.0
  9
$LOFTMAG2
 40
0.0
  9
$LOFTPARAM
 70
     7
  9
$LOFTNORMALS
280
     1
  9
$LATITUDE
 40
37.795
  9
$LONGITUDE
 40
-122.394
  9
$NORTHDIRECTION
 40
0.0
  9
$TIMEZONE
 70
 -8000
  9
$LIGHTGLYPHDISPLAY
280
     1
  9
$TILEMODELIGHTSYNCH
280
     1
  9
$CMATERIAL
347
11
  9
$SOLIDHIST
280
     0
  9
$SHOWHIST
280
     1
  9
$DWFFRAME
280
     2
  9
$DGNFRAME
280
     0
  9
$REALWORLDSCALE
290
     1
  9
$INTERFERECOLOR
 62
     1
  9
$INTERFEREOBJVS
345
33
  9
$INTERFEREVPVS
346
30
  9
$CSHADOW
280
     0
  9
$SHADOWPLANELOCATION
 40
0.0
  0
ENDSEC
  0
SECTION
  2
CLASSES
  0
CLASS
  1
ACDBDICTIONARYWDFLT
  2
AcDbDictionaryWithDefault
  3
ObjectDBX Classes
 90
        0
 91
        1
280
     0
281
     0
  0
CLASS
  1
MATERIAL
  2
AcDbMaterial
  3
ObjectDBX Classes
 90
     1153
 91
        3
280
     0
281
     0
  0
CLASS
  1
VISUALSTYLE
  2
AcDbVisualStyle
  3
ObjectDBX Classes
 90
     4095
 91
       24
280
     0
281
     0
  0
CLASS
  1
SCALE
  2
AcDbScale
  3
ObjectDBX Classes
 90
     1153
 91
       17
280
     0
281
     0
  0
CLASS
  1
TABLESTYLE
  2
AcDbTableStyle
  3
ObjectDBX Classes
 90
     4095
 91
        1
280
     0
281
     0
  0
CLASS
  1
MLEADERSTYLE
  2
AcDbMLeaderStyle
  3
ACDB_MLEADERSTYLE_CLASS
 90
     4095
 91
        1
280
     0
281
     0
  0
CLASS
  1
ACDBSECTIONVIEWSTYLE
  2
AcDbSectionViewStyle
  3
ObjectDBX Classes
 90
     1025
 91
        1
280
     0
281
     0
  0
CLASS
  1
ACDBDETAILVIEWSTYLE
  2
AcDbDetailViewStyle
  3
ObjectDBX Classes
 90
     1025
 91
        1
280
     0
281
     0
  0
CLASS
  1
DICTIONARYVAR
  2
AcDbDictionaryVar
  3
ObjectDBX Classes
 90
        0
 91
        5
280
     0
281
     0
  0
CLASS
  1
CELLSTYLEMAP
  2
AcDbCellStyleMap
  3
ObjectDBX Classes
 90
     1152
 91
        1
280
     0
281
     0
  0
ENDSEC
  0
SECTION
  2
TABLES
  0
TABLE
  2
VPORT
  5
8
330
0
100
AcDbSymbolTable
 70
     1
  0
VPORT
  5
57
330
8
100
AcDbSymbolTableRecord
100
AcDbViewportTableRecord
  2
*Active
 70
     0
 10
0.0
 20
0.0
 11
1.0
 21
1.0
 12
0.0
 22
0.0
 13
0.0
 23
0.0
 14
1.0
 24
1.0
 15
0.0
 25
0.0
 16
0.0
 26
0.0
 36
1.0
 17
104.9999999737499
 27
31.49999999212523
 37
0.0
 40
302.9399999242649
 41
0.7070707070707066
 42
50.0
 43
0.0
 44
0.0
 50
0.0
 51
0.0
 71
     0
 72
   100
 73
     1
 74
     1
 75
     0
 76
     0
 77
     0
 78
     0
281
     0
 65
     1
110
0.0
120
0.0
130
0.0
111
1.0
121
0.0
131
0.0
112
0.0
122
1.0
132
0.0
 79
     0
146
0.0
 60
     3
 61
     5
292
     1
282
     1
141
0.0
142
0.0
 63
   250
421
  3355443
  0
ENDTAB
  0
TABLE
  2
LTYPE
  5
5
330
0
100
AcDbSymbolTable
 70
     1
  0
LTYPE
  5
5B
330
5
100
AcDbSymbolTableRecord
100
AcDbLinetypeTableRecord
  2
ByBlock
 70
     0
  3

 72
    65
 73
     0
 40
0.0
  0
LTYPE
  5
5C
330
5
100
AcDbSymbolTableRecord
100
AcDbLinetypeTableRecord
  2
ByLayer
 70
     0
  3

 72
    65
 73
     0
 40
0.0
  0
LTYPE
  5
5D
330
5
100
AcDbSymbolTableRecord
100
AcDbLinetypeTableRecord
  2
Continuous
 70
     0
  3
Solid line
 72
    65
 73
     0
 40
0.0
  0
ENDTAB
  0
TABLE
  2
LAYER
  5
2
330
0
100
AcDbSymbolTable
 70
     2
  0
LAYER
  5
54
330
2
100
AcDbSymbolTableRecord
100
AcDbLayerTableRecord
  2
0
 70
     0
 62
     7
  6
Continuous
370
     0
390
F
347
21
348
0
  0
LAYER
  5
1C4
330
2
100
AcDbSymbolTableRecord
100
AcDbLayerTableRecord
  2
CAPA_BASE
 70
     0
 62
     7
  6
Continuous
370
     0
390
F
347
21
348
0
  0
ENDTAB
  0
TABLE
  2
STYLE
  5
3
330
0
100
AcDbSymbolTable
 70
     2
  0
STYLE
  5
55
330
3
100
AcDbSymbolTableRecord
100
AcDbTextStyleTableRecord
  2
Standard
 70
     0
 40
0.0
 41
1.0
 50
0.0
 71
     0
 42
0.2
  3
txt
  4

  0
STYLE
  5
5A
330
3
100
AcDbSymbolTableRecord
100
AcDbTextStyleTableRecord
  2
Annotative
 70
     0
 40
0.0
 41
1.0
 50
0.0
 71
     0
 42
0.2
  3
txt
  4

1001
AcadAnnotative
1000
AnnotativeData
1002
{
1070
     1
1070
     1
1002
}
  0
ENDTAB
  0
TABLE
  2
VIEW
  5
6
330
0
100
AcDbSymbolTable
 70
     0
  0
ENDTAB
  0
TABLE
  2
UCS
  5
7
330
0
100
AcDbSymbolTable
 70
     0
  0
ENDTAB
  0
TABLE
  2
APPID
  5
9
330
0
100
AcDbSymbolTable
 70
     2
  0
APPID
  5
56
330
9
100
AcDbSymbolTableRecord
100
AcDbRegAppTableRecord
  2
ACAD
 70
     0
  0
APPID
  5
5E
330
9
100
AcDbSymbolTableRecord
100
AcDbRegAppTableRecord
  2
AcadAnnotative
 70
     0
  0
ENDTAB
  0
TABLE
  2
DIMSTYLE
  5
A
330
0
100
AcDbSymbolTable
 70
     2
100
AcDbDimStyleTable
 71
     0
  0
DIMSTYLE
105
58
330
A
100
AcDbSymbolTableRecord
100
AcDbDimStyleTableRecord
  2
Standard
 70
     0
340
55
  0
DIMSTYLE
105
59
330
A
100
AcDbSymbolTableRecord
100
AcDbDimStyleTableRecord
  2
Annotative
 70
     0
340
55
1001
AcadAnnotative
1000
AnnotativeData
1002
{
1070
     1
1070
     1
1002
}
  0
ENDTAB
  0
TABLE
  2
BLOCK_RECORD
  5
1
330
0
100
AcDbSymbolTable
 70
     4
  0
BLOCK_RECORD
  5
70
330
1
100
AcDbSymbolTableRecord
100
AcDbBlockTableRecord
  2
*Model_Space
340
73
 70
     0
280
     1
281
     0
  0
BLOCK_RECORD
  5
6C
330
1
100
AcDbSymbolTableRecord
100
AcDbBlockTableRecord
  2
*Paper_Space
340
6F
 70
     0
280
     1
281
     0
  0
BLOCK_RECORD
  5
74
330
1
100
AcDbSymbolTableRecord
100
AcDbBlockTableRecord
  2
*Paper_Space0
340
77
 70
     0
280
     1
281
     0
  0
BLOCK_RECORD
  5
1C5
330
1
100
AcDbSymbolTableRecord
100
AcDbBlockTableRecord
  2
Block_0
340
0
102
{BLKREFS
331
1C6
102
}
 70
     0
280
     1
281
     0
  0
BLOCK_RECORD
  5
1D1
330
1
100
AcDbSymbolTableRecord
100
AcDbBlockTableRecord
  2
Block_1
340
0
102
{BLKREFS
331
1D2
102
}
 70
     0
280
     1
281
     0
  0
BLOCK_RECORD
  5
1DD
330
1
100
AcDbSymbolTableRecord
100
AcDbBlockTableRecord
  2
Block_2
340
0
102
{BLKREFS
331
1DE
102
}
 70
     0
280
     1
281
     0
  0
ENDTAB
  0
ENDSEC
  0
SECTION
  2
BLOCKS
  0
BLOCK
  5
71
330
70
100
AcDbEntity
  8
0
100
AcDbBlockBegin
  2
*Model_Space
 70
     0
 10
0.0
 20
0.0
 30
0.0
  3
*Model_Space
  1

  0
ENDBLK
  5
72
330
70
100
AcDbEntity
  8
0
100
AcDbBlockEnd
  0
BLOCK
  5
6D
330
6C
100
AcDbEntity
 67
     1
  8
0
100
AcDbBlockBegin
  2
*Paper_Space
 70
     0
 10
0.0
 20
0.0
 30
0.0
  3
*Paper_Space
  1

  0
ENDBLK
  5
6E
330
6C
100
AcDbEntity
 67
     1
  8
0
100
AcDbBlockEnd
  0
BLOCK
  5
75
330
74
100
AcDbEntity
 67
     1
  8
0
100
AcDbBlockBegin
  2
*Paper_Space0
 70
     0
 10
0.0
 20
0.0
 30
0.0
  3
*Paper_Space0
  1

  0
ENDBLK
  5
76
330
74
100
AcDbEntity
 67
     1
  8
0
100
AcDbBlockEnd
  0
BLOCK
  5
1C7
330
1C5
100
AcDbEntity
  8
0
100
AcDbBlockBegin
  2
Block_0
 70
     0
 10
0.0
 20
0.0
 30
0.0
  3
Block_0
  1

  0
LWPOLYLINE
  5
1C9
330
1C5
100
AcDbEntity
  8
CAPA_BASE
100
AcDbPolyline
 90
        4
 70
     1
 43
0.0
 10
116.8669648684053
 20
77.79038779746921
 10
114.3669648684056
 20
78.10038779746957
 10
114.3669648684056
 20
77.48038779746948
 10
114.3669648684056
 20
77.48038779746948
  0
HATCH
  5
1CA
330
1C5
100
AcDbEntity
  8
CAPA_BASE
 62
    18
420
        0
440
 33554687
100
AcDbHatch
 10
0.0
 20
0.0
 30
0.0
210
0.0
220
0.0
230
1.0
  2
SOLID
 70
     1
 71
     1
 91
        1
 92
        1
 93
        3
 72
     1
 10
116.8669648684053
 20
77.79038779746921
 11
114.3669648684056
 21
78.10038779746957
 72
     1
 10
114.3669648684056
 20
78.10038779746957
 11
114.3669648684056
 21
77.48038779746948
 72
     1
 10
114.3669648684056
 20
77.48038779746948
 11
116.8669648684053
 21
77.79038779746921
 97
        1
330
1C9
 75
     2
 76
     1
 98
        1
 10
0.0
 20
0.0
450
        0
451
        0
460
0.0
461
0.0
452
        0
462
0.0
453
        0
470

  0
LWPOLYLINE
  5
1CB
330
1C5
100
AcDbEntity
  8
CAPA_BASE
100
AcDbPolyline
 90
        4
 70
     1
 43
0.0
 10
16.86696486840534
 20
77.79038779746921
 10
19.36696486840511
 20
77.48038779746948
 10
19.36696486840511
 20
78.10038779746957
 10
19.36696486840511
 20
78.10038779746957
  0
HATCH
  5
1CC
330
1C5
100
AcDbEntity
  8
CAPA_BASE
 62
    18
420
        0
440
 33554687
100
AcDbHatch
 10
0.0
 20
0.0
 30
0.0
210
0.0
220
0.0
230
1.0
  2
SOLID
 70
     1
 71
     1
 91
        1
 92
        1
 93
        3
 72
     1
 10
16.86696486840534
 20
77.79038779746921
 11
19.36696486840511
 21
77.48038779746948
 72
     1
 10
19.36696486840511
 20
77.48038779746948
 11
19.36696486840511
 21
78.10038779746957
 72
     1
 10
19.36696486840511
 20
78.10038779746957
 11
16.86696486840534
 21
77.79038779746921
 97
        1
330
1CB
 75
     2
 76
     1
 98
        1
 10
0.0
 20
0.0
450
        0
451
        0
460
0.0
461
0.0
452
        0
462
0.0
453
        0
470

  0
LINE
  5
1CD
330
1C5
100
AcDbEntity
  8
CAPA_BASE
 62
    18
420
        0
370
    25
100
AcDbLine
 10
116.8669648684053
 20
87.14251156636915
 30
0.0
 11
116.8669648684053
 21
76.79038779746981
 31
0.0
  0
LINE
  5
1CE
330
1C5
100
AcDbEntity
  8
CAPA_BASE
 62
    18
420
        0
370
    25
100
AcDbLine
 10
16.86696486840534
 20
87.14251156636915
 30
0.0
 11
16.86696486840534
 21
76.79038779746981
 31
0.0
  0
LINE
  5
1CF
330
1C5
100
AcDbEntity
  8
CAPA_BASE
 62
    18
420
        0
370
    25
100
AcDbLine
 10
116.8669648684053
 20
77.79038779746921
 30
0.0
 11
16.86696486840534
 21
77.79038779746921
 31
0.0
  0
MTEXT
  5
1D0
330
1C5
100
AcDbEntity
  8
CAPA_BASE
100
AcDbMText
 10
64.22113383065154
 20
78.58413524782358
 30
0.0
 40
0.2
 41
0.0
 46
0.0
 71
     7
 72
     1
  1
\C18;\c0;\FArial Bold|b1|i0|c1;\H2.997200;\W0.700000;300
 73
     1
 44
1.0
  0
ENDBLK
  5
1C8
330
1C5
100
AcDbEntity
  8
0
100
AcDbBlockEnd
  0
BLOCK
  5
1D3
330
1D1
100
AcDbEntity
  8
0
100
AcDbBlockBegin
  2
Block_1
 70
     0
 10
0.0
 20
0.0
 30
0.0
  3
Block_1
  1

  0
LWPOLYLINE
  5
1D5
330
1D1
100
AcDbEntity
  8
CAPA_BASE
100
AcDbPolyline
 90
        4
 70
     1
 43
0.0
 10
153.0303010957052
 20
104.4758448996697
 10
152.7203010957054
 20
101.9758448996696
 10
153.3403010957055
 20
101.9758448996696
 10
153.3403010957055
 20
101.9758448996696
  0
HATCH
  5
1D6
330
1D1
100
AcDbEntity
  8
CAPA_BASE
 62
    18
420
        0
440
 33554687
100
AcDbHatch
 10
0.0
 20
0.0
 30
0.0
210
0.0
220
0.0
230
1.0
  2
SOLID
 70
     1
 71
     1
 91
        1
 92
        1
 93
        3
 72
     1
 10
153.0303010957052
 20
104.4758448996697
 11
152.7203010957054
 21
101.9758448996696
 72
     1
 10
152.7203010957054
 20
101.9758448996696
 11
153.3403010957055
 21
101.9758448996696
 72
     1
 10
153.3403010957055
 20
101.9758448996696
 11
153.0303010957052
 21
104.4758448996697
 97
        1
330
1D5
 75
     2
 76
     1
 98
        1
 10
0.0
 20
0.0
450
        0
451
        0
460
0.0
461
0.0
452
        0
462
0.0
453
        0
470

  0
LWPOLYLINE
  5
1D7
330
1D1
100
AcDbEntity
  8
CAPA_BASE
100
AcDbPolyline
 90
        4
 70
     1
 43
0.0
 10
153.0303010957052
 20
87.80917823296974
 10
153.3403010957055
 20
90.30917823296951
 10
152.7203010957054
 20
90.30917823296951
 10
152.7203010957054
 20
90.30917823296951
  0
HATCH
  5
1D8
330
1D1
100
AcDbEntity
  8
CAPA_BASE
 62
    18
420
        0
440
 33554687
100
AcDbHatch
 10
0.0
 20
0.0
 30
0.0
210
0.0
220
0.0
230
1.0
  2
SOLID
 70
     1
 71
     1
 91
        1
 92
        1
 93
        3
 72
     1
 10
153.0303010957052
 20
87.80917823296974
 11
153.3403010957055
 21
90.30917823296951
 72
     1
 10
153.3403010957055
 20
90.30917823296951
 11
152.7203010957054
 21
90.30917823296951
 72
     1
 10
152.7203010957054
 20
90.30917823296951
 11
153.0303010957052
 21
87.80917823296974
 97
        1
330
1D7
 75
     2
 76
     1
 98
        1
 10
0.0
 20
0.0
450
        0
451
        0
460
0.0
461
0.0
452
        0
462
0.0
453
        0
470

  0
LINE
  5
1D9
330
1D1
100
AcDbEntity
  8
CAPA_BASE
 62
    18
420
        0
370
    25
100
AcDbLine
 10
162.0303010957055
 20
104.4758448996697
 30
0.0
 11
152.0303010957051
 21
104.4758448996697
 31
0.0
  0
LINE
  5
1DA
330
1D1
100
AcDbEntity
  8
CAPA_BASE
 62
    18
420
        0
370
    25
100
AcDbLine
 10
162.0303010957055
 20
87.80917823296974
 30
0.0
 11
152.0303010957051
 21
87.80917823296974
 31
0.0
  0
LINE
  5
1DB
330
1D1
100
AcDbEntity
  8
CAPA_BASE
 62
    18
420
        0
370
    25
100
AcDbLine
 10
153.0303010957052
 20
104.4758448996697
 30
0.0
 11
153.0303010957052
 21
87.80917823296974
 31
0.0
  0
MTEXT
  5
1DC
330
1D1
100
AcDbEntity
  8
CAPA_BASE
100
AcDbMText
 10
152.236550703667
 20
94.37873532796718
 30
0.0
 40
0.2
 41
0.0
 46
0.0
 71
     7
 72
     1
  1
\C18;\c0;\FArial Bold|b1|i0|c1;\H2.997200;\W0.700000;50
 11
0.0000000000000003
 21
1.0
 31
0.0
 73
     1
 44
1.0
  0
ENDBLK
  5
1D4
330
1D1
100
AcDbEntity
  8
0
100
AcDbBlockEnd
  0
BLOCK
  5
1DF
330
1DD
100
AcDbEntity
  8
0
100
AcDbBlockBegin
  2
Block_2
 70
     0
 10
0.0
 20
0.0
 30
0.0
  3
Block_2
  1

  0
LWPOLYLINE
  5
1E1
330
1DD
100
AcDbEntity
  8
CAPA_BASE
100
AcDbPolyline
 90
        4
 70
     1
 43
0.0
 10
126.8857553039052
 20
49.16334963167003
 10
126.5757553039055
 20
46.66334963166963
 10
127.1957553039049
 20
46.66334963166963
 10
127.1957553039049
 20
46.66334963166963
  0
HATCH
  5
1E2
330
1DD
100
AcDbEntity
  8
CAPA_BASE
 62
    18
420
        0
440
 33554687
100
AcDbHatch
 10
0.0
 20
0.0
 30
0.0
210
0.0
220
0.0
230
1.0
  2
SOLID
 70
     1
 71
     1
 91
        1
 92
        1
 93
        3
 72
     1
 10
126.8857553039052
 20
49.16334963167003
 11
126.5757553039055
 21
46.66334963166963
 72
     1
 10
126.5757553039055
 20
46.66334963166963
 11
127.1957553039049
 21
46.66334963166963
 72
     1
 10
127.1957553039049
 20
46.66334963166963
 11
126.8857553039052
 21
49.16334963167003
 97
        1
330
1E1
 75
     2
 76
     1
 98
        1
 10
0.0
 20
0.0
450
        0
451
        0
460
0.0
461
0.0
452
        0
462
0.0
453
        0
470

  0
LWPOLYLINE
  5
1E3
330
1DD
100
AcDbEntity
  8
CAPA_BASE
100
AcDbPolyline
 90
        4
 70
     1
 43
0.0
 10
126.8857553039052
 20
26.83001629836992
 10
127.1957553039049
 20
29.33001629836969
 10
126.5757553039055
 20
29.33001629836969
 10
126.5757553039055
 20
29.33001629836969
  0
HATCH
  5
1E4
330
1DD
100
AcDbEntity
  8
CAPA_BASE
 62
    18
420
        0
440
 33554687
100
AcDbHatch
 10
0.0
 20
0.0
 30
0.0
210
0.0
220
0.0
230
1.0
  2
SOLID
 70
     1
 71
     1
 91
        1
 92
        1
 93
        3
 72
     1
 10
126.8857553039052
 20
26.83001629836992
 11
127.1957553039049
 21
29.33001629836969
 72
     1
 10
127.1957553039049
 20
29.33001629836969
 11
126.5757553039055
 21
29.33001629836969
 72
     1
 10
126.5757553039055
 20
29.33001629836969
 11
126.8857553039052
 21
26.83001629836992
 97
        1
330
1E3
 75
     2
 76
     1
 98
        1
 10
0.0
 20
0.0
450
        0
451
        0
460
0.0
461
0.0
452
        0
462
0.0
453
        0
470

  0
LINE
  5
1E5
330
1DD
100
AcDbEntity
  8
CAPA_BASE
 62
    18
420
        0
370
    25
100
AcDbLine
 10
117.8669648684054
 20
49.16334963167003
 30
0.0
 11
127.8857553039053
 21
49.16334963167003
 31
0.0
  0
LINE
  5
1E6
330
1DD
100
AcDbEntity
  8
CAPA_BASE
 62
    18
420
        0
370
    25
100
AcDbLine
 10
112.2002982017051
 20
26.83001629836992
 30
0.0
 11
127.8857553039053
 21
26.83001629836992
 31
0.0
  0
LINE
  5
1E7
330
1DD
100
AcDbEntity
  8
CAPA_BASE
 62
    18
420
        0
370
    25
100
AcDbLine
 10
126.8857553039052
 20
49.16334963167003
 30
0.0
 11
126.8857553039052
 21
26.83001629836992
 31
0.0
  0
MTEXT
  5
1E8
330
1DD
100
AcDbEntity
  8
CAPA_BASE
100
AcDbMText
 10
126.0920046809003
 20
36.23275823746895
 30
0.0
 40
0.2
 41
0.0
 46
0.0
 71
     7
 72
     1
  1
\C18;\c0;\FArial Bold|b1|i0|c1;\H2.997200;\W0.700000;67
 11
0.0000000000000003
 21
1.0
 31
0.0
 73
     1
 44
1.0
  0
ENDBLK
  5
1E0
330
1DD
100
AcDbEntity
  8
0
100
AcDbBlockEnd
  0
ENDSEC
  0
SECTION
  2
ENTITIES
  0
LINE
  5
78
330
70
100
AcDbEntity
  8
0
 62
    18
420
        0
370
    25
100
AcDbLine
 10
103.5336313364054
 20
93.47584477296971
 30
0.0
 11
108.5336315351051
 21
93.47584477296971
 31
0.0
  0
LINE
  5
79
330
70
100
AcDbEntity
  8
0
 62
    18
420
        0
370
    25
100
AcDbLine
 10
108.5336315351051
 20
98.80917835966975
 30
0.0
 11
103.5336313364054
 21
98.80917835966975
 31
0.0
  0
LINE
  5
7A
330
70
100
AcDbEntity
  8
0
 62
    18
420
        0
370
    25
100
AcDbLine
 10
30.20029840040532
 20
98.80917835966975
 30
0.0
 11
25.20029820170529
 21
98.80917835966975
 31
0.0
  0
LINE
  5
7B
330
70
100
AcDbEntity
  8
0
 62
    18
420
        0
370
    25
100
AcDbLine
 10
25.20029820170529
 20
93.47584477296971
 30
0.0
 11
30.20029840040532
 21
93.47584477296971
 31
0.0
  0
LINE
  5
7C
330
70
100
AcDbEntity
  8
0
 62
    18
420
        0
370
    25
100
AcDbLine
 10
30.20029840040532
 20
93.47584477296971
 30
0.0
 11
103.5336313364054
 21
93.47584477296971
 31
0.0
  0
LINE
  5
7D
330
70
100
AcDbEntity
  8
0
 62
    18
420
        0
370
    25
100
AcDbLine
 10
103.5336313364054
 20
98.80917835966975
 30
0.0
 11
30.20029840040532
 21
98.80917835966975
 31
0.0
  0
LWPOLYLINE
  5
7E
330
70
100
AcDbEntity
  8
0
 62
    18
420
        0
370
    25
100
AcDbPolyline
 90
        7
 70
     0
 43
0.0
 10
100.5334985969053
 20
104.1426438836695
 10
100.5356244959052
 20
104.1405179846697
 10
100.7959800678057
 20
103.8801630336695
 10
101.3167085963053
 20
103.3594345051696
 10
102.3582401591049
 20
102.3179023214696
 10
104.4415665385055
 20
100.2345768733695
 10
105.8669644313052
 20
98.80917835966975
  0
LWPOLYLINE
  5
7F
330
70
100
AcDbEntity
  8
0
 62
    18
420
        0
370
    25
100
AcDbPolyline
 90
        4
 70
     0
 43
0.0
 10
110.4037521002051
 20
98.01263197616968
 10
112.3414196290054
 20
99.95030121236972
 10
114.5088779645054
 20
102.1177567539695
 10
116.533761989805
 20
104.1426438836695
  0
LWPOLYLINE
  5
80
330
70
100
AcDbEntity
  8
0
 62
    18
420
        0
370
    25
100
AcDbPolyline
 90
        5
 70
     0
 43
0.0
 10
105.8669644313052
 20
93.47584477296971
 10
105.743053825405
 20
93.35193385666944
 10
104.7344190595054
 20
92.34329846986952
 10
103.7202211933055
 20
91.32910091416947
 10
100.5334985969053
 20
88.14237924896991
  0
SPLINE
  5
81
330
70
100
AcDbEntity
  8
0
 62
    18
420
        0
370
    25
100
AcDbSpline
210
0.0
220
0.0
230
1.0
 70
     8
 71
     3
 72
     8
 73
     4
 74
     0
 42
0.0000000001
 43
0.0000000001
 40
0.0
 40
0.0
 40
0.0
 40
0.0
 40
1.0
 40
1.0
 40
1.0
 40
1.0
 10
100.5194716371596
 20
88.13537384057367
 30
0.0
 10
100.5248787840365
 20
88.13580178432479
 30
0.0
 10
100.5299082082277
 20
88.13831360236413
 30
0.0
 10
100.5334985968963
 20
88.14237924898018
 30
0.0
  0
LINE
  5
82
330
70
100
AcDbEntity
  8
0
 62
    18
420
        0
370
    25
100
AcDbLine
 10
100.5334985969053
 20
104.1426438836695
 30
0.0
 11
100.5194691536053
 21
104.1426382957697
 31
0.0
  0
LWPOLYLINE
  5
83
330
70
100
AcDbEntity
  8
0
 62
    18
420
        0
370
    25
100
AcDbPolyline
 90
        5
 70
     0
 43
0.0
 10
110.4105817991055
 20
94.26556130236964
 10
111.3242117283055
 20
93.35193385666975
 10
112.3328464942051
 20
92.34329846986952
 10
113.347044360305
 20
91.32910091416947
 10
116.533761989805
 20
88.14237924896991
  0
SPLINE
  5
84
330
70
100
AcDbEntity
  8
0
 62
    18
420
        0
370
    25
100
AcDbSpline
210
0.0
220
0.0
230
1.0
 70
     8
 71
     3
 72
     8
 73
     4
 74
     0
 42
0.0000000001
 43
0.0000000001
 40
0.0
 40
0.0
 40
0.0
 40
0.0
 40
1.0
 40
1.0
 40
1.0
 40
1.0
 10
116.5407705026
 20
88.12835166833229
 30
0.0
 10
116.5403438533664
 20
88.13376003113644
 30
0.0
 10
116.5378305306076
 20
88.13879046177934
 30
0.0
 10
116.5337619897851
 20
88.14237924895129
 30
0.0
  0
LWPOLYLINE
  5
85
330
70
100
AcDbEntity
  8
0
 62
    18
420
        0
370
    25
100
AcDbPolyline
 90
        7
 70
     0
 43
0.0
 10
100.5335035639049
 20
88.12834856396944
 10
101.2001715816054
 20
88.12808406836953
 10
103.8668386854052
 20
88.1271372237696
 10
109.200170409405
 20
88.12635367096961
 10
111.2316407479053
 20
88.12662127106969
 10
116.5337570227054
 20
88.12834856396944
 10
116.5407705026052
 20
88.12835166836951
  0
LINE
  5
86
330
70
100
AcDbEntity
  8
0
 62
    18
420
        0
370
    25
100
AcDbLine
 10
100.5334985969053
 20
88.14237924896991
 30
0.0
 11
100.5335035639049
 21
88.12834856396944
 31
0.0
  0
SPLINE
  5
87
330
70
100
AcDbEntity
  8
0
 62
    18
420
        0
370
    25
100
AcDbSpline
210
0.0
220
0.0
230
1.0
 70
     8
 71
     3
 72
     8
 73
     4
 74
     0
 42
0.0000000001
 43
0.0000000001
 40
0.0
 40
0.0
 40
0.0
 40
0.0
 40
1.0
 40
1.0
 40
1.0
 40
1.0
 10
116.547793916531
 20
104.1496492920424
 30
0.0
 10
116.5423852081206
 20
104.1492218789086
 30
0.0
 10
116.5373540431982
 20
104.1467100809522
 30
0.0
 10
116.5337619897402
 20
104.1426438836362
 30
0.0
  0
LWPOLYLINE
  5
88
330
70
100
AcDbEntity
  8
0
 62
    18
420
        0
370
    25
100
AcDbPolyline
 90
        7
 70
     0
 43
0.0
 10
116.5477939166055
 20
88.14238483696986
 10
116.5480571704054
 20
88.80905161286976
 10
116.5490058777049
 20
91.47571778526977
 10
116.5497906722054
 20
96.80905106156972
 10
116.5495224513051
 20
98.84051922696968
 10
116.5477939166055
 20
104.1426382957697
 10
116.5477939166055
 20
104.1496492920696
  0
LINE
  5
89
330
70
100
AcDbEntity
  8
0
 62
    18
420
        0
370
    25
100
AcDbLine
 10
116.533761989805
 20
88.14237924896991
 30
0.0
 11
116.5477939166055
 21
88.14238483696986
 31
0.0
  0
LINE
  5
8A
330
70
100
AcDbEntity
  8
0
 62
    18
420
        0
370
    25
100
AcDbLine
 10
116.866966855205
 20
104.1425116358696
 30
0.0
 11
116.866966855205
 21
88.14251149676987
 31
0.0
  0
SPLINE
  5
8B
330
70
100
AcDbEntity
  8
0
 62
    18
420
        0
370
    25
100
AcDbSpline
210
0.0
220
0.0
230
1.0
 70
     8
 71
     3
 72
     8
 73
     4
 74
     0
 42
0.0000000001
 43
0.0000000001
 40
0.0
 40
0.0
 40
0.0
 40
0.0
 40
1.0
 40
1.0
 40
1.0
 40
1.0
 10
116.547793916574
 20
88.14238483690312
 30
0.0
 10
116.6541849128224
 20
88.14234505553221
 30
0.0
 10
116.7605759239133
 20
88.14238727550192
 30
0.0
 10
116.8669668550786
 20
88.14251149677373
 30
0.0
  0
SPLINE
  5
8C
330
70
100
AcDbEntity
  8
0
 62
    18
420
        0
370
    25
100
AcDbSpline
210
0.0
220
0.0
230
1.0
 70
     8
 71
     3
 72
     8
 73
     4
 74
     0
 42
0.0000000001
 43
0.0000000001
 40
0.0
 40
0.0
 40
0.0
 40
0.0
 40
1.0
 40
1.0
 40
1.0
 40
1.0
 10
116.8669668552839
 20
104.1425116359097
 30
0.0
 10
116.7607987797286
 20
104.1509703365735
 30
0.0
 10
116.6542339896922
 20
104.15335344223
 30
0.0
 10
116.5477939166176
 20
104.1496492921213
 30
0.0
  0
SPLINE
  5
8D
330
70
100
AcDbEntity
  8
0
 62
    18
420
        0
370
    25
100
AcDbSpline
210
0.0
220
0.0
230
1.0
 70
     8
 71
     3
 72
     8
 73
     4
 74
     0
 42
0.0000000001
 43
0.0000000001
 40
0.0
 40
0.0
 40
0.0
 40
0.0
 40
1.0
 40
1.0
 40
1.0
 40
1.0
 10
116.8669668552326
 20
104.1425116358622
 30
0.0
 10
116.7564958110548
 20
104.1566297323307
 30
0.0
 10
116.645027626928
 20
104.1613676369505
 30
0.0
 10
116.5337570227233
 20
104.156674568695
 30
0.0
  0
LINE
  5
8E
330
70
100
AcDbEntity
  8
0
 62
    18
420
        0
370
    25
100
AcDbLine
 10
116.533761989805
 20
104.1426438836695
 30
0.0
 11
116.5337570227054
 21
104.1566745686697
 31
0.0
  0
SPLINE
  5
8F
330
70
100
AcDbEntity
  8
0
 62
    18
420
        0
370
    25
100
AcDbSpline
210
0.0
220
0.0
230
1.0
 70
     8
 71
     3
 72
     8
 73
     4
 74
     0
 42
0.0000000001
 43
0.0000000001
 40
0.0
 40
0.0
 40
0.0
 40
0.0
 40
1.0
 40
1.0
 40
1.0
 40
1.0
 10
100.2002986984581
 20
88.14251149681991
 30
0.0
 10
100.3064667580428
 20
88.13405248289084
 30
0.0
 10
100.4130315659973
 20
88.13166937683389
 30
0.0
 10
100.5194716371212
 20
88.13537384060834
 30
0.0
  0
LINE
  5
90
330
70
100
AcDbEntity
  8
0
 62
    18
420
        0
370
    25
100
AcDbLine
 10
100.2002986985055
 20
88.14251149676987
 30
0.0
 11
100.2002986985055
 21
93.47584477296971
 31
0.0
  0
LINE
  5
91
330
70
100
AcDbEntity
  8
0
 62
    18
420
        0
370
    25
100
AcDbLine
 10
100.2002986985055
 20
98.80917835966975
 30
0.0
 11
100.2002986985055
 21
104.1425116358696
 31
0.0
  0
SPLINE
  5
92
330
70
100
AcDbEntity
  8
0
 62
    18
420
        0
370
    25
100
AcDbSpline
210
0.0
220
0.0
230
1.0
 70
     8
 71
     3
 72
     8
 73
     4
 74
     0
 42
0.0000000001
 43
0.0000000001
 40
0.0
 40
0.0
 40
0.0
 40
0.0
 40
1.0
 40
1.0
 40
1.0
 40
1.0
 10
100.5194691535469
 20
104.1426382957652
 30
0.0
 10
100.4130789851083
 20
104.1426780770476
 30
0.0
 10
100.3066888017905
 20
104.1426358570782
 30
0.0
 10
100.2002986984349
 20
104.1425116358949
 30
0.0
  0
SPLINE
  5
93
330
70
100
AcDbEntity
  8
0
 62
    18
420
        0
370
    25
100
AcDbSpline
210
0.0
220
0.0
230
1.0
 70
     8
 71
     3
 72
     8
 73
     4
 74
     0
 42
0.0000000001
 43
0.0000000001
 40
0.0
 40
0.0
 40
0.0
 40
0.0
 40
1.0
 40
1.0
 40
1.0
 40
1.0
 10
100.2002986984317
 20
88.14251149676088
 30
0.0
 10
100.3107680782059
 20
88.12839340298436
 30
0.0
 10
100.4222346123782
 20
88.12365549786944
 30
0.0
 10
100.5335035638895
 20
88.12834856392774
 30
0.0
  0
SPLINE
  5
94
330
70
100
AcDbEntity
  8
0
 62
    18
420
        0
370
    25
100
AcDbSpline
210
0.0
220
0.0
230
1.0
 70
     8
 71
     3
 72
     8
 73
     4
 74
     0
 42
0.0000000001
 43
0.0000000001
 40
0.0
 40
0.0
 40
0.0
 40
0.0
 40
1.0
 40
1.0
 40
1.0
 40
1.0
 10
116.5336328463532
 20
87.80917810885103
 30
0.0
 10
116.5477524514028
 20
87.91964798430429
 30
0.0
 10
116.552489740905
 20
88.03111531793158
 30
0.0
 10
116.5477939165413
 20
88.1423848369519
 30
0.0
  0
SPLINE
  5
95
330
70
100
AcDbEntity
  8
0
 62
    18
420
        0
370
    25
100
AcDbSpline
210
0.0
220
0.0
230
1.0
 70
     8
 71
     3
 72
     8
 73
     4
 74
     0
 42
0.0000000001
 43
0.0000000001
 40
0.0
 40
0.0
 40
0.0
 40
0.0
 40
1.0
 40
1.0
 40
1.0
 40
1.0
 10
116.533632846341
 20
87.80917810886194
 30
0.0
 10
116.5420914802873
 20
87.91534639521222
 30
0.0
 10
116.5444745858431
 20
88.02191138805374
 30
0.0
 10
116.5407705025532
 20
88.12835166840736
 30
0.0
  0
LINE
  5
96
330
70
100
AcDbEntity
  8
0
 62
    18
420
        0
370
    25
100
AcDbLine
 10
116.5336328464051
 20
87.80917810886965
 30
0.0
 11
100.5336327073048
 21
87.80917810886965
 31
0.0
  0
SPLINE
  5
97
330
70
100
AcDbEntity
  8
0
 62
    18
420
        0
370
    25
100
AcDbSpline
210
0.0
220
0.0
230
1.0
 70
     8
 71
     3
 72
     8
 73
     4
 74
     0
 42
0.0000000001
 43
0.0000000001
 40
0.0
 40
0.0
 40
0.0
 40
0.0
 40
1.0
 40
1.0
 40
1.0
 40
1.0
 10
100.5335035638754
 20
88.12834856392582
 30
0.0
 10
100.5334636036155
 20
88.02195839484737
 30
0.0
 10
100.5335066514276
 20
87.91556821081094
 30
0.0
 10
100.533632707272
 20
87.80917810890686
 30
0.0
  0
LWPOLYLINE
  5
98
330
70
100
AcDbEntity
  8
0
 62
    18
420
        0
370
    25
100
AcDbPolyline
 90
        6
 70
     0
 43
0.0
 10
108.5336315351051
 20
104.1586856045695
 10
107.866966000905
 20
104.1586675989696
 10
105.2002988971052
 20
104.1582584379695
 10
102.8669012305053
 20
104.1575593251695
 10
100.5335035639049
 20
104.1566745686697
 10
100.5264950511054
 20
104.1566714642696
  0
SPLINE
  5
99
330
70
100
AcDbEntity
  8
0
 62
    18
420
        0
370
    25
100
AcDbSpline
210
0.0
220
0.0
230
1.0
 70
     8
 71
     3
 72
     8
 73
     4
 74
     0
 42
0.0000000001
 43
0.0000000001
 40
0.0
 40
0.0
 40
0.0
 40
0.0
 40
1.0
 40
1.0
 40
1.0
 40
1.0
 10
100.5336327073368
 20
104.4758450238443
 30
0.0
 10
100.5251714452383
 20
104.3696768714817
 30
0.0
 10
100.52278833632
 20
104.2631117282843
 30
0.0
 10
100.5264950511246
 20
104.1566714642966
 30
0.0
  0
LINE
  5
9A
330
70
100
AcDbEntity
  8
0
 62
    18
420
        0
370
    25
100
AcDbLine
 10
100.5336327073048
 20
104.4758450238696
 30
0.0
 11
108.5336315351051
 21
104.4758450238696
 31
0.0
  0
LINE
  5
9B
330
70
100
AcDbEntity
  8
0
 62
    18
420
        0
370
    25
100
AcDbLine
 10
108.5336315351051
 20
104.1586856045695
 30
0.0
 11
108.5336315351051
 21
104.4758450238696
 31
0.0
  0
SPLINE
  5
9C
330
70
100
AcDbEntity
  8
0
 62
    18
420
        0
370
    25
100
AcDbSpline
210
0.0
220
0.0
230
1.0
 70
     8
 71
     3
 72
     8
 73
     4
 74
     0
 42
0.0000000001
 43
0.0000000001
 40
0.0
 40
0.0
 40
0.0
 40
0.0
 40
1.0
 40
1.0
 40
1.0
 40
1.0
 10
100.5336327072611
 20
104.4758450238381
 30
0.0
 10
100.519511680698
 20
104.3653752690997
 30
0.0
 10
100.514773558237
 20
104.2539078849701
 30
0.0
 10
100.5194691535463
 20
104.1426382957383
 30
0.0
  0
SPLINE
  5
9D
330
70
100
AcDbEntity
  8
0
 62
    18
420
        0
370
    25
100
AcDbSpline
210
0.0
220
0.0
230
1.0
 70
     8
 71
     3
 72
     8
 73
     4
 74
     0
 42
0.0000000001
 43
0.0000000001
 40
0.0
 40
0.0
 40
0.0
 40
0.0
 40
1.0
 40
1.0
 40
1.0
 40
1.0
 10
100.5264950510534
 20
104.1566714642841
 30
0.0
 10
100.5269223460833
 20
104.1512643679082
 30
0.0
 10
100.5294334910978
 20
104.1462347314446
 30
0.0
 10
100.5334985968142
 20
104.1426438836654
 30
0.0
  0
LINE
  5
9E
330
70
100
AcDbEntity
  8
0
 62
    18
420
        0
370
    25
100
AcDbLine
 10
108.5336315351051
 20
104.1426438836695
 30
0.0
 11
108.5336315351051
 21
104.1586856045695
 31
0.0
  0
LINE
  5
9F
330
70
100
AcDbEntity
  8
0
 62
    18
420
        0
370
    25
100
AcDbLine
 10
108.5336315351051
 20
104.1426438836695
 30
0.0
 11
100.5334985969053
 21
104.1426438836695
 31
0.0
  0
LWPOLYLINE
  5
A0
330
70
100
AcDbEntity
  8
0
 62
    18
420
        0
370
    25
100
AcDbPolyline
 90
        5
 70
     0
 43
0.0
 10
116.5337570227054
 20
104.1566745686697
 10
115.8670939721052
 20
104.1569390642696
 10
113.2004268683053
 20
104.1578890133697
 10
110.8670292017055
 20
104.1584695377695
 10
108.5336315351051
 20
104.1586856045695
  0
LINE
  5
A1
330
70
100
AcDbEntity
  8
0
 62
    18
420
        0
370
    25
100
AcDbLine
 10
116.533761989805
 20
104.1426438836695
 30
0.0
 11
108.5336315351051
 21
104.1426438836695
 31
0.0
  0
LINE
  5
A2
330
70
100
AcDbEntity
  8
0
 62
    18
420
        0
370
    25
100
AcDbLine
 10
108.5336315351051
 20
104.4758450238696
 30
0.0
 11
116.5336328464051
 21
104.4758450238696
 31
0.0
  0
SPLINE
  5
A3
330
70
100
AcDbEntity
  8
0
 62
    18
420
        0
370
    25
100
AcDbSpline
210
0.0
220
0.0
230
1.0
 70
     8
 71
     3
 72
     8
 73
     4
 74
     0
 42
0.0000000001
 43
0.0000000001
 40
0.0
 40
0.0
 40
0.0
 40
0.0
 40
1.0
 40
1.0
 40
1.0
 40
1.0
 10
116.5337570227112
 20
104.1566745687926
 30
0.0
 10
116.5337958351313
 20
104.2630647365565
 30
0.0
 10
116.5337544430053
 20
104.3694549184442
 30
0.0
 10
116.5336328463679
 20
104.4758450237993
 30
0.0
  0
SPLINE
  5
A4
330
70
100
AcDbEntity
  8
0
 62
    18
420
        0
370
    25
100
AcDbSpline
210
0.0
220
0.0
230
1.0
 70
     8
 71
     3
 72
     8
 73
     4
 74
     0
 42
0.0000000001
 43
0.0000000001
 40
0.0
 40
0.0
 40
0.0
 40
0.0
 40
1.0
 40
1.0
 40
1.0
 40
1.0
 10
116.8669648684387
 20
104.1425115664486
 30
0.0
 10
116.8669648683951
 20
104.326606483028
 30
0.0
 10
116.7177264516847
 20
104.4758448997028
 30
0.0
 10
116.5336315351053
 20
104.4758448997028
 30
0.0
  0
SPLINE
  5
A5
330
70
100
AcDbEntity
  8
0
 62
    18
420
        0
370
    25
100
AcDbSpline
210
0.0
220
0.0
230
1.0
 70
     8
 71
     3
 72
    11
 73
     7
 74
     0
 42
0.0000000001
 43
0.0000000001
 40
0.0
 40
0.0
 40
0.0
 40
0.0
 40
1.0
 40
1.0
 40
1.0
 40
2.0
 40
2.0
 40
2.0
 40
2.0
 10
100.2002982017714
 20
88.14251156684276
 30
0.0
 10
100.2002982015109
 20
87.95841665023202
 30
0.0
 10
100.3495366180217
 20
87.80917823329765
 30
0.0
 10
100.5336315346319
 20
87.80917823303584
 30
0.0
 10
100.5336315348686
 20
87.80917823303584
 30
0.0
 10
100.5336315348686
 20
87.80917823303584
 30
0.0
 10
100.5336315351054
 20
87.80917823303584
 30
0.0
  0
SPLINE
  5
A6
330
70
100
AcDbEntity
  8
0
 62
    18
420
        0
370
    25
100
AcDbSpline
210
0.0
220
0.0
230
1.0
 70
     8
 71
     3
 72
     8
 73
     4
 74
     0
 42
0.0000000001
 43
0.0000000001
 40
0.0
 40
0.0
 40
0.0
 40
0.0
 40
1.0
 40
1.0
 40
1.0
 40
1.0
 10
116.5336315351053
 20
87.80917823303584
 30
0.0
 10
116.7177264517154
 20
87.80917823303584
 30
0.0
 10
116.8669648684387
 20
87.95841664975972
 30
0.0
 10
116.8669648684387
 20
88.14251156636982
 30
0.0
  0
SPLINE
  5
A7
330
70
100
AcDbEntity
  8
0
 62
    18
420
        0
370
    25
100
AcDbSpline
210
0.0
220
0.0
230
1.0
 70
     8
 71
     3
 72
     8
 73
     4
 74
     0
 42
0.0000000001
 43
0.0000000001
 40
0.0
 40
0.0
 40
0.0
 40
0.0
 40
1.0
 40
1.0
 40
1.0
 40
1.0
 10
100.5336315351054
 20
104.4758448997031
 30
0.0
 10
100.3495366184953
 20
104.4758448997031
 30
0.0
 10
100.2002982017714
 20
104.3266064829798
 30
0.0
 10
100.2002982017714
 20
104.1425115663697
 30
0.0
  0
SPLINE
  5
A8
330
70
100
AcDbEntity
  8
0
 62
    18
420
        0
370
    25
100
AcDbSpline
210
0.0
220
0.0
230
1.0
 70
     8
 71
     3
 72
    11
 73
     7
 74
     0
 42
0.0000000001
 43
0.0000000001
 40
0.0
 40
0.0
 40
0.0
 40
0.0
 40
1.0
 40
1.0
 40
1.0
 40
2.0
 40
2.0
 40
2.0
 40
2.0
 10
108.5336315351294
 20
93.47584477304319
 30
0.0
 10
110.0063909379638
 20
93.47584514038091
 30
0.0
 10
111.2002980306698
 20
94.66975282865936
 30
0.0
 10
111.2002976633318
 20
96.14251223149373
 30
0.0
 10
111.2002972959937
 20
97.61527111483392
 30
0.0
 10
110.0063904184693
 20
98.80917799235835
 30
0.0
 10
108.5336315351294
 20
98.80917835969608
 30
0.0
  0
LINE
  5
A9
330
70
100
AcDbEntity
  8
0
 62
    18
420
        0
370
    25
100
AcDbLine
 10
103.5336313364054
 20
98.80917835966975
 30
0.0
 11
103.5336313364054
 21
93.47584477296971
 31
0.0
  0
LWPOLYLINE
  5
AA
330
70
100
AcDbEntity
  8
0
 62
    18
420
        0
370
    25
100
AcDbPolyline
 90
        5
 70
     0
 43
0.0
 10
27.86696530550513
 20
98.80917835966975
 10
27.99087591140532
 20
98.93308927596972
 10
28.99951067740537
 20
99.94172466286974
 10
30.01370854350519
 20
100.9559222184696
 10
33.20043114000513
 20
104.1426438836695
  0
SPLINE
  5
AB
330
70
100
AcDbEntity
  8
0
 62
    18
420
        0
370
    25
100
AcDbSpline
210
0.0
220
0.0
230
1.0
 70
     8
 71
     3
 72
     8
 73
     4
 74
     0
 42
0.0000000001
 43
0.0000000001
 40
0.0
 40
0.0
 40
0.0
 40
0.0
 40
1.0
 40
1.0
 40
1.0
 40
1.0
 10
33.21445809975081
 20
104.1496492920651
 30
0.0
 10
33.20905095287392
 20
104.1492213483143
 30
0.0
 10
33.20402152868304
 20
104.146709530275
 30
0.0
 10
33.2004311400138
 20
104.1426438836586
 30
0.0
  0
LINE
  5
AC
330
70
100
AcDbEntity
  8
0
 62
    18
420
        0
370
    25
100
AcDbLine
 10
33.20043114000513
 20
88.14237924896991
 30
0.0
 11
33.21446058320534
 21
88.14238483696986
 31
0.0
  0
LWPOLYLINE
  5
AD
330
70
100
AcDbEntity
  8
0
 62
    18
420
        0
370
    25
100
AcDbPolyline
 90
        5
 70
     0
 43
0.0
 10
27.86696530550513
 20
93.47584477296971
 10
27.99087094440513
 20
93.35193975506946
 10
28.9995057103054
 20
92.3433034368697
 10
30.0137060600051
 20
91.3291046394695
 10
33.20043114000513
 20
88.14237924896991
  0
LWPOLYLINE
  5
AE
330
70
100
AcDbEntity
  8
0
 62
    18
420
        0
370
    25
100
AcDbPolyline
 90
        5
 70
     0
 43
0.0
 10
23.32334793780523
 20
98.01946183026952
 10
22.40971800850516
 20
98.93308927596972
 10
21.40108324260522
 20
99.94172466286974
 10
20.3868853765054
 20
100.9559222184696
 10
17.20016774700531
 20
104.1426438836695
  0
SPLINE
  5
AF
330
70
100
AcDbEntity
  8
0
 62
    18
420
        0
370
    25
100
AcDbSpline
210
0.0
220
0.0
230
1.0
 70
     8
 71
     3
 72
     8
 73
     4
 74
     0
 42
0.0000000001
 43
0.0000000001
 40
0.0
 40
0.0
 40
0.0
 40
0.0
 40
1.0
 40
1.0
 40
1.0
 40
1.0
 10
17.19315923421063
 20
104.1566714643068
 30
0.0
 10
17.19358588344396
 20
104.1512631015027
 30
0.0
 10
17.19609920620307
 20
104.1462326708601
 30
0.0
 10
17.20016774702553
 20
104.1426438836878
 30
0.0
  0
LWPOLYLINE
  5
B0
330
70
100
AcDbEntity
  8
0
 62
    18
420
        0
370
    25
100
AcDbPolyline
 90
        7
 70
     0
 43
0.0
 10
33.20042617290516
 20
104.1566745686697
 10
32.53375815520531
 20
104.1569390642696
 10
29.86709105140515
 20
104.1578859089696
 10
24.53375932740533
 20
104.1586694616695
 10
22.50228898890537
 20
104.1584018616696
 10
17.20017271410529
 20
104.1566745686697
 10
17.19315923420517
 20
104.1566714642696
  0
LINE
  5
B1
330
70
100
AcDbEntity
  8
0
 62
    18
420
        0
370
    25
100
AcDbLine
 10
33.20043114000513
 20
104.1426438836695
 30
0.0
 11
33.20042617290516
 21
104.1566745686697
 31
0.0
  0
SPLINE
  5
B2
330
70
100
AcDbEntity
  8
0
 62
    18
420
        0
370
    25
100
AcDbSpline
210
0.0
220
0.0
230
1.0
 70
     8
 71
     3
 72
     8
 73
     4
 74
     0
 42
0.0000000001
 43
0.0000000001
 40
0.0
 40
0.0
 40
0.0
 40
0.0
 40
1.0
 40
1.0
 40
1.0
 40
1.0
 10
17.18613582027966
 20
88.13537384059678
 30
0.0
 10
17.1915445286901
 20
88.13580125373015
 30
0.0
 10
17.19657569361218
 20
88.13831305168688
 30
0.0
 10
17.20016774707045
 20
88.14237924900265
 30
0.0
  0
LWPOLYLINE
  5
B3
330
70
100
AcDbEntity
  8
0
 62
    18
420
        0
370
    25
100
AcDbPolyline
 90
        7
 70
     0
 43
0.0
 10
17.18613582030533
 20
104.1426382957697
 10
17.18587256640526
 20
103.4759715197697
 10
17.1849238591051
 20
100.8093053473697
 10
17.18413906470538
 20
95.47597207116954
 10
17.18440728560532
 20
93.44450390576957
 10
17.18613582030533
 20
88.14238483696986
 10
17.18613582030533
 20
88.13537384056983
  0
LINE
  5
B4
330
70
100
AcDbEntity
  8
0
 62
    18
420
        0
370
    25
100
AcDbLine
 10
17.20016774700531
 20
104.1426438836695
 30
0.0
 11
17.18613582030533
 21
104.1426382957697
 31
0.0
  0
LWPOLYLINE
  5
B5
330
70
100
AcDbEntity
  8
0
 62
    18
420
        0
370
    25
100
AcDbPolyline
 90
        5
 70
     0
 43
0.0
 10
23.33017763660524
 20
94.27239115646946
 10
22.4097279427051
 20
93.35193975506946
 10
21.40108820970519
 20
92.3433034368697
 10
20.38689034350526
 20
91.3291046394695
 10
17.20016774700531
 20
88.14237924896991
  0
SPLINE
  5
B6
330
70
100
AcDbEntity
  8
0
 62
    18
420
        0
370
    25
100
AcDbSpline
210
0.0
220
0.0
230
1.0
 70
     8
 71
     3
 72
     8
 73
     4
 74
     0
 42
0.0000000001
 43
0.0000000001
 40
0.0
 40
0.0
 40
0.0
 40
0.0
 40
1.0
 40
1.0
 40
1.0
 40
1.0
 10
33.20743468575729
 20
88.12835166835474
 30
0.0
 10
33.20700739072702
 20
88.13375876473122
 30
0.0
 10
33.20449624571285
 20
88.13878840119452
 30
0.0
 10
33.20043113999615
 20
88.14237924897376
 30
0.0
  0
LWPOLYLINE
  5
B7
330
70
100
AcDbEntity
  8
0
 62
    18
420
        0
370
    25
100
AcDbPolyline
 90
        6
 70
     0
 43
0.0
 10
25.20029820170529
 20
88.12633752806965
 10
25.86696373590536
 20
88.1263555336692
 10
28.53363083970521
 20
88.1267646946693
 10
30.86702850630535
 20
88.12746380746958
 10
33.20042617290516
 20
88.12834856396944
 10
33.2074346857053
 20
88.12835166836951
  0
LWPOLYLINE
  5
B8
330
70
100
AcDbEntity
  8
0
 62
    18
420
        0
370
    25
100
AcDbPolyline
 90
        5
 70
     0
 43
0.0
 10
17.20017271410529
 20
88.12834856396944
 10
17.86683576480527
 20
88.12808406836953
 10
20.53350286850534
 20
88.12713411936954
 10
22.86690053510515
 20
88.12655359486958
 10
25.20029820170529
 20
88.12633752806965
  0
LINE
  5
B9
330
70
100
AcDbEntity
  8
0
 62
    18
420
        0
370
    25
100
AcDbLine
 10
17.20016774700531
 20
88.14237924896991
 30
0.0
 11
17.20017271410529
 21
88.12834856396944
 31
0.0
  0
LINE
  5
BA
330
70
100
AcDbEntity
  8
0
 62
    18
420
        0
370
    25
100
AcDbLine
 10
16.86696288160534
 20
88.14251149676987
 30
0.0
 11
16.86696288160534
 21
104.1425116358696
 31
0.0
  0
SPLINE
  5
BB
330
70
100
AcDbEntity
  8
0
 62
    18
420
        0
370
    25
100
AcDbSpline
210
0.0
220
0.0
230
1.0
 70
     8
 71
     3
 72
     8
 73
     4
 74
     0
 42
0.0000000001
 43
0.0000000001
 40
0.0
 40
0.0
 40
0.0
 40
0.0
 40
1.0
 40
1.0
 40
1.0
 40
1.0
 10
17.18613582023603
 20
104.1426382957389
 30
0.0
 10
17.07974482398797
 20
104.1426780771098
 30
0.0
 10
16.97335381289709
 20
104.1426358571404
 30
0.0
 10
16.86696288173143
 20
104.1425116358689
 30
0.0
  0
SPLINE
  5
BC
330
70
100
AcDbEntity
  8
0
 62
    18
420
        0
370
    25
100
AcDbSpline
210
0.0
220
0.0
230
1.0
 70
     8
 71
     3
 72
     8
 73
     4
 74
     0
 42
0.0000000001
 43
0.0000000001
 40
0.0
 40
0.0
 40
0.0
 40
0.0
 40
1.0
 40
1.0
 40
1.0
 40
1.0
 10
16.86696288162651
 20
88.14251149683148
 30
0.0
 10
16.97313095718186
 20
88.13405279616766
 30
0.0
 10
17.07969574721826
 20
88.13166969051115
 30
0.0
 10
17.1861358202925
 20
88.13537384061989
 30
0.0
  0
SPLINE
  5
BD
330
70
100
AcDbEntity
  8
0
 62
    18
420
        0
370
    25
100
AcDbSpline
210
0.0
220
0.0
230
1.0
 70
     8
 71
     3
 72
     8
 73
     4
 74
     0
 42
0.0000000001
 43
0.0000000001
 40
0.0
 40
0.0
 40
0.0
 40
0.0
 40
1.0
 40
1.0
 40
1.0
 40
1.0
 10
16.86696288157806
 20
88.14251149677884
 30
0.0
 10
16.97743392575618
 20
88.1283934003104
 30
0.0
 10
17.08890210988271
 20
88.12365549569086
 30
0.0
 10
17.200172714087
 20
88.12834856394635
 30
0.0
  0
SPLINE
  5
BE
330
70
100
AcDbEntity
  8
0
 62
    18
420
        0
370
    25
100
AcDbSpline
210
0.0
220
0.0
230
1.0
 70
     8
 71
     3
 72
     8
 73
     4
 74
     0
 42
0.0000000001
 43
0.0000000001
 40
0.0
 40
0.0
 40
0.0
 40
0.0
 40
1.0
 40
1.0
 40
1.0
 40
1.0
 10
33.5336310383523
 20
104.1425116359171
 30
0.0
 10
33.42746297876725
 20
104.1509706498455
 30
0.0
 10
33.32089817081332
 20
104.1533537559031
 30
0.0
 10
33.21445809968953
 20
104.149649292129
 30
0.0
  0
LINE
  5
BF
330
70
100
AcDbEntity
  8
0
 62
    18
420
        0
370
    25
100
AcDbLine
 10
33.53363103840525
 20
104.1425116358696
 30
0.0
 11
33.53363103840525
 21
98.80917835966975
 31
0.0
  0
LINE
  5
C0
330
70
100
AcDbEntity
  8
0
 62
    18
420
        0
370
    25
100
AcDbLine
 10
33.53363103840525
 20
93.47584477296971
 30
0.0
 11
33.53363103840525
 21
88.14251149676987
 31
0.0
  0
SPLINE
  5
C1
330
70
100
AcDbEntity
  8
0
 62
    18
420
        0
370
    25
100
AcDbSpline
210
0.0
220
0.0
230
1.0
 70
     8
 71
     3
 72
     8
 73
     4
 74
     0
 42
0.0000000001
 43
0.0000000001
 40
0.0
 40
0.0
 40
0.0
 40
0.0
 40
1.0
 40
1.0
 40
1.0
 40
1.0
 10
33.21446058336416
 20
88.14238483690054
 30
0.0
 10
33.3208507518025
 20
88.1423450556182
 30
0.0
 10
33.42724093512023
 20
88.14238727558727
 30
0.0
 10
33.53363103847583
 20
88.14251149677051
 30
0.0
  0
SPLINE
  5
C2
330
70
100
AcDbEntity
  8
0
 62
    18
420
        0
370
    25
100
AcDbSpline
210
0.0
220
0.0
230
1.0
 70
     8
 71
     3
 72
     8
 73
     4
 74
     0
 42
0.0000000001
 43
0.0000000001
 40
0.0
 40
0.0
 40
0.0
 40
0.0
 40
1.0
 40
1.0
 40
1.0
 40
1.0
 10
33.53363103837926
 20
104.1425116358798
 30
0.0
 10
33.42316165860513
 20
104.1566297296564
 30
0.0
 10
33.3116951244325
 20
104.1613676347719
 30
0.0
 10
33.20042617292056
 20
104.156674568713
 30
0.0
  0
LINE
  5
C3
330
70
100
AcDbEntity
  8
0
 62
    18
420
        0
370
    25
100
AcDbLine
 10
17.20029689040521
 20
104.4758450238696
 30
0.0
 11
33.20029702950527
 21
104.4758450238696
 31
0.0
  0
SPLINE
  5
C4
330
70
100
AcDbEntity
  8
0
 62
    18
420
        0
370
    25
100
AcDbSpline
210
0.0
220
0.0
230
1.0
 70
     8
 71
     3
 72
     8
 73
     4
 74
     0
 42
0.0000000001
 43
0.0000000001
 40
0.0
 40
0.0
 40
0.0
 40
0.0
 40
1.0
 40
1.0
 40
1.0
 40
1.0
 10
33.20042617294206
 20
104.1566745687191
 30
0.0
 10
33.20046613320164
 20
104.2630647377892
 30
0.0
 10
33.20042308538949
 20
104.3694549218176
 30
0.0
 10
33.20029702954506
 20
104.475845023714
 30
0.0
  0
SPLINE
  5
C5
330
70
100
AcDbEntity
  8
0
 62
    18
420
        0
370
    25
100
AcDbSpline
210
0.0
220
0.0
230
1.0
 70
     8
 71
     3
 72
     8
 73
     4
 74
     0
 42
0.0000000001
 43
0.0000000001
 40
0.0
 40
0.0
 40
0.0
 40
0.0
 40
1.0
 40
1.0
 40
1.0
 40
1.0
 10
17.20029689045911
 20
104.4758450238779
 30
0.0
 10
17.19183825651307
 20
104.3696767375273
 30
0.0
 10
17.18945515095699
 20
104.2631117446855
 30
0.0
 10
17.19315923424753
 20
104.1566714643319
 30
0.0
  0
SPLINE
  5
C6
330
70
100
AcDbEntity
  8
0
 62
    18
420
        0
370
    25
100
AcDbSpline
210
0.0
220
0.0
230
1.0
 70
     8
 71
     3
 72
     8
 73
     4
 74
     0
 42
0.0000000001
 43
0.0000000001
 40
0.0
 40
0.0
 40
0.0
 40
0.0
 40
1.0
 40
1.0
 40
1.0
 40
1.0
 10
17.20029689045847
 20
104.4758450238882
 30
0.0
 10
17.18617728540884
 20
104.3653751484343
 30
0.0
 10
17.1814399959066
 20
104.2539078148077
 30
0.0
 10
17.18613582027036
 20
104.142638295787
 30
0.0
  0
SPLINE
  5
C7
330
70
100
AcDbEntity
  8
0
 62
    18
420
        0
370
    25
100
AcDbSpline
210
0.0
220
0.0
230
1.0
 70
     8
 71
     3
 72
     8
 73
     4
 74
     0
 42
0.0000000001
 43
0.0000000001
 40
0.0
 40
0.0
 40
0.0
 40
0.0
 40
1.0
 40
1.0
 40
1.0
 40
1.0
 10
33.20029702957457
 20
87.8091781087952
 30
0.0
 10
33.2087582916725
 20
87.91534626115744
 30
0.0
 10
33.21114140059077
 20
88.02191140435482
 30
0.0
 10
33.20743468578648
 20
88.12835166834254
 30
0.0
  0
LINE
  5
C8
330
70
100
AcDbEntity
  8
0
 62
    18
420
        0
370
    25
100
AcDbLine
 10
33.20029702950527
 20
87.80917810886965
 30
0.0
 11
25.20029820170529
 21
87.80917810886965
 31
0.0
  0
LINE
  5
C9
330
70
100
AcDbEntity
  8
0
 62
    18
420
        0
370
    25
100
AcDbLine
 10
25.20029820170529
 20
88.12633752806965
 30
0.0
 11
25.20029820170529
 21
87.80917810886965
 31
0.0
  0
SPLINE
  5
CA
330
70
100
AcDbEntity
  8
0
 62
    18
420
        0
370
    25
100
AcDbSpline
210
0.0
220
0.0
230
1.0
 70
     8
 71
     3
 72
     8
 73
     4
 74
     0
 42
0.0000000001
 43
0.0000000001
 40
0.0
 40
0.0
 40
0.0
 40
0.0
 40
1.0
 40
1.0
 40
1.0
 40
1.0
 10
33.20029702955211
 20
87.80917810880097
 30
0.0
 10
33.21441805611528
 20
87.91964786353911
 30
0.0
 10
33.21915617857623
 20
88.03111524766874
 30
0.0
 10
33.21446058326663
 20
88.14238483690054
 30
0.0
  0
LINE
  5
CB
330
70
100
AcDbEntity
  8
0
 62
    18
420
        0
370
    25
100
AcDbLine
 10
25.20029820170529
 20
87.80917810886965
 30
0.0
 11
17.20029689040521
 21
87.80917810886965
 31
0.0
  0
SPLINE
  5
CC
330
70
100
AcDbEntity
  8
0
 62
    18
420
        0
370
    25
100
AcDbSpline
210
0.0
220
0.0
230
1.0
 70
     8
 71
     3
 72
     8
 73
     4
 74
     0
 42
0.0000000001
 43
0.0000000001
 40
0.0
 40
0.0
 40
0.0
 40
0.0
 40
1.0
 40
1.0
 40
1.0
 40
1.0
 10
17.20017271414828
 20
88.12834856385201
 30
0.0
 10
17.20013390172785
 20
88.02195839608073
 30
0.0
 10
17.20017529385414
 20
87.91556821418565
 30
0.0
 10
17.20029689049152
 20
87.80917810882344
 30
0.0
  0
SPLINE
  5
CD
330
70
100
AcDbEntity
  8
0
 62
    18
420
        0
370
    25
100
AcDbSpline
210
0.0
220
0.0
230
1.0
 70
     8
 71
     3
 72
    11
 73
     7
 74
     0
 42
0.0000000001
 43
0.0000000001
 40
0.0
 40
0.0
 40
0.0
 40
0.0
 40
1.0
 40
1.0
 40
1.0
 40
2.0
 40
2.0
 40
2.0
 40
2.0
 10
16.86696486837198
 20
88.14251156644877
 30
0.0
 10
16.86696486832834
 20
87.95841664983802
 30
0.0
 10
17.01620328501597
 20
87.80917823308012
 30
0.0
 10
17.20029820162607
 20
87.80917823303584
 30
0.0
 10
17.20029820166554
 20
87.80917823303584
 30
0.0
 10
17.20029820166554
 20
87.80917823303584
 30
0.0
 10
17.20029820170532
 20
87.80917823303584
 30
0.0
  0
SPLINE
  5
CE
330
70
100
AcDbEntity
  8
0
 62
    18
420
        0
370
    25
100
AcDbSpline
210
0.0
220
0.0
230
1.0
 70
     8
 71
     3
 72
     8
 73
     4
 74
     0
 42
0.0000000001
 43
0.0000000001
 40
0.0
 40
0.0
 40
0.0
 40
0.0
 40
1.0
 40
1.0
 40
1.0
 40
1.0
 10
17.20029820170532
 20
104.4758448997028
 30
0.0
 10
17.0162032850949
 20
104.4758448997028
 30
0.0
 10
16.86696486837198
 20
104.3266064829798
 30
0.0
 10
16.86696486837198
 20
104.1425115663697
 30
0.0
  0
SPLINE
  5
CF
330
70
100
AcDbEntity
  8
0
 62
    18
420
        0
370
    25
100
AcDbSpline
210
0.0
220
0.0
230
1.0
 70
     8
 71
     3
 72
     8
 73
     4
 74
     0
 42
0.0000000001
 43
0.0000000001
 40
0.0
 40
0.0
 40
0.0
 40
0.0
 40
1.0
 40
1.0
 40
1.0
 40
1.0
 10
33.5336315350386
 20
104.1425115668427
 30
0.0
 10
33.53363153477742
 20
104.326606483268
 30
0.0
 10
33.38439311813087
 20
104.4758448997028
 30
0.0
 10
33.20029820170525
 20
104.4758448997028
 30
0.0
  0
SPLINE
  5
D0
330
70
100
AcDbEntity
  8
0
 62
    18
420
        0
370
    25
100
AcDbSpline
210
0.0
220
0.0
230
1.0
 70
     8
 71
     3
 72
     8
 73
     4
 74
     0
 42
0.0000000001
 43
0.0000000001
 40
0.0
 40
0.0
 40
0.0
 40
0.0
 40
1.0
 40
1.0
 40
1.0
 40
1.0
 10
33.20029820170525
 20
87.80917823303584
 30
0.0
 10
33.38439311831535
 20
87.80917823303584
 30
0.0
 10
33.5336315350386
 20
87.95841664975972
 30
0.0
 10
33.5336315350386
 20
88.14251156636982
 30
0.0
  0
SPLINE
  5
D1
330
70
100
AcDbEntity
  8
0
 62
    18
420
        0
370
    25
100
AcDbSpline
210
0.0
220
0.0
230
1.0
 70
     8
 71
     3
 72
    11
 73
     7
 74
     0
 42
0.0000000001
 43
0.0000000001
 40
0.0
 40
0.0
 40
0.0
 40
0.0
 40
1.0
 40
1.0
 40
1.0
 40
2.0
 40
2.0
 40
2.0
 40
2.0
 10
25.20029820178133
 20
98.80917835969608
 30
0.0
 10
23.72753879894663
 20
98.80917799235835
 30
0.0
 10
22.53363170624094
 20
97.61527030407989
 30
0.0
 10
22.53363207357867
 20
96.14251090124554
 30
0.0
 10
22.5336324409164
 20
94.66975201790535
 30
0.0
 10
23.72753931844083
 20
93.47584514038091
 30
0.0
 10
25.20029820178133
 20
93.47584477304319
 30
0.0
  0
LINE
  5
D2
330
70
100
AcDbEntity
  8
0
 62
    18
420
        0
370
    25
100
AcDbLine
 10
30.20029840040532
 20
93.47584477296971
 30
0.0
 11
30.20029840040532
 21
98.80917835966975
 31
0.0
  0
LWPOLYLINE
  5
D3
330
70
100
AcDbEntity
  8
0
 62
     8
420
  8421504
370
    25
100
AcDbPolyline
 90
        4
 70
     0
 43
0.0
 10
100.5194691536053
 20
104.1426382957697
 10
100.5192034162055
 20
103.4759715197697
 10
100.5182571925052
 20
100.8093053473697
 10
100.517964136305
 20
98.80917835966975
  0
LWPOLYLINE
  5
D4
330
70
100
AcDbEntity
  8
0
 62
     8
420
  8421504
370
    25
100
AcDbPolyline
 90
        4
 70
     0
 43
0.0
 10
100.5177381354052
 20
93.47584477296971
 10
100.517740618905
 20
93.44450390576957
 10
100.5194691536053
 20
88.14238483696986
 10
100.5194716371051
 20
88.13537384056983
  0
LWPOLYLINE
  5
D5
330
70
100
AcDbEntity
  8
0
 62
     8
420
  8421504
370
    25
100
AcDbPolyline
 90
        4
 70
     0
 43
0.0
 10
33.21446058320534
 20
88.14238483696986
 10
33.21472632060519
 20
88.80905161286976
 10
33.21567254430515
 20
91.47571778526977
 10
33.21596560050537
 20
93.47584477296971
  0
LWPOLYLINE
  5
D6
330
70
100
AcDbEntity
  8
0
 62
     8
420
  8421504
370
    25
100
AcDbPolyline
 90
        4
 70
     0
 43
0.0
 10
33.21619160150524
 20
98.80917835966975
 10
33.21618911790536
 20
98.84051922696968
 10
33.21446058320534
 20
104.1426382957697
 10
33.21445809970525
 20
104.1496492920696
  0
LINE
  5
D7
330
70
100
AcDbEntity
  8
0
 62
     8
420
  8421504
370
    25
100
AcDbLine
 10
25.20029820170529
 20
93.44503600136945
 30
0.0
 11
25.20029820170529
 21
88.12633752806965
 31
0.0
  0
LWPOLYLINE
  5
D8
330
70
100
AcDbEntity
  8
0
 62
    18
420
        0
370
    25
100
AcDbPolyline
 90
        7
 70
     0
 43
0.0
 10
165.0320619819049
 20
94.68328710626979
 10
165.0321340042049
 20
95.21817282446962
 10
165.0321892626052
 20
95.94235633636964
 10
165.0321898835055
 20
96.35906319586961
 10
165.032165048305
 20
96.79217906656965
 10
165.0321178612055
 20
97.21630259086971
 10
165.0320619819049
 20
97.60173602636969
  0
LWPOLYLINE
  5
D9
330
70
100
AcDbEntity
  8
0
 62
    18
420
        0
370
    25
100
AcDbPolyline
 90
        5
 70
     0
 43
0.0
 10
165.0320439763054
 20
97.57228357076957
 10
165.0321197239051
 20
97.86761992906962
 10
165.0322060264054
 20
98.11249303926976
 10
165.032272460805
 20
98.29315735636949
 10
165.0322830158051
 20
98.39488292716977
  0
LWPOLYLINE
  5
DA
330
70
100
AcDbEntity
  8
0
 62
    18
420
        0
370
    25
100
AcDbPolyline
 90
        3
 70
     0
 43
0.0
 10
165.0322830158051
 20
98.39408742246977
 10
164.9853412536054
 20
100.8976214253695
 10
164.8581424581051
 20
104.1585483897697
  0
LWPOLYLINE
  5
DB
330
70
100
AcDbEntity
  8
0
 62
    18
420
        0
370
    25
100
AcDbPolyline
 90
        3
 70
     0
 43
0.0
 10
165.0318738547055
 20
94.60000575816968
 10
165.031969470505
 20
94.6190565822695
 10
165.0320439763054
 20
94.71275104816978
  0
SPLINE
  5
DC
330
70
100
AcDbEntity
  8
0
 62
    18
420
        0
370
    25
100
AcDbSpline
210
0.0
220
0.0
230
1.0
 70
     8
 71
     3
 72
     8
 73
     4
 74
     0
 42
0.0000000001
 43
0.0000000001
 40
0.0
 40
0.0
 40
0.0
 40
0.0
 40
1.0
 40
1.0
 40
1.0
 40
1.0
 10
164.8588969334002
 20
104.1584185858885
 30
0.0
 10
164.8504066575315
 20
104.3361305471137
 30
0.0
 10
164.7038479356231
 20
104.4758502849033
 30
0.0
 10
164.525933276537
 20
104.4758448995503
 30
0.0
  0
LINE
  5
DD
330
70
100
AcDbEntity
  8
0
 62
    18
420
        0
370
    25
100
AcDbLine
 10
165.0303011613052
 20
93.47584477296971
 30
0.0
 11
182.6969682403052
 21
93.47584477296971
 31
0.0
  0
LINE
  5
DE
330
70
100
AcDbEntity
  8
0
 62
    18
420
        0
370
    25
100
AcDbLine
 10
182.6969682403052
 20
98.80917835966975
 30
0.0
 11
165.0303011613052
 21
98.80917835966975
 31
0.0
  0
LWPOLYLINE
  5
DF
330
70
100
AcDbEntity
  8
0
 62
    18
420
        0
370
    25
100
AcDbPolyline
 90
        4
 70
     0
 43
0.0
 10
164.5240714627051
 20
88.14251149676987
 10
164.5256826507055
 20
93.44456599386965
 10
164.5256963101051
 20
98.74662033576973
 10
164.5240714627051
 20
104.1425116358696
  0
LWPOLYLINE
  5
E0
330
70
100
AcDbEntity
  8
0
 62
    18
420
        0
370
    25
100
AcDbPolyline
 90
        9
 70
     0
 43
0.0
 10
164.5240714627051
 20
104.1425116358696
 10
164.5873641449052
 20
104.1425358502696
 10
164.648353355905
 20
104.1425588228696
 10
164.7048206853052
 20
104.1425805537695
 10
164.7547122565049
 20
104.1425991801696
 10
164.7962113696051
 20
104.1426153230695
 10
164.8278092819055
 20
104.1426271198696
 10
164.8483561205055
 20
104.1426351913696
 10
164.8571037230055
 20
104.1426382957697
  0
LWPOLYLINE
  5
E1
330
70
100
AcDbEntity
  8
0
 62
    18
420
        0
370
    25
100
AcDbPolyline
 90
        7
 70
     0
 43
0.0
 10
164.8571037230055
 20
104.1426382957697
 10
164.857342141605
 20
103.4759715197697
 10
164.8581852990052
 20
100.8093053473697
 10
164.8588682689049
 20
95.47597207116954
 10
164.8586366800052
 20
93.44450390576957
 10
164.8571037230055
 20
88.14238483696986
 10
164.8571012395051
 20
88.13537384056983
  0
LWPOLYLINE
  5
E2
330
70
100
AcDbEntity
  8
0
 62
    18
420
        0
370
    25
100
AcDbPolyline
 90
        7
 70
     0
 43
0.0
 10
164.5240714627051
 20
88.14251149676987
 10
164.5343427089051
 20
88.14229108376995
 10
164.5834271339049
 20
88.14123868926952
 10
164.6886498210051
 20
88.13898302596948
 10
164.7753069031054
 20
88.13712596876955
 10
164.833647432705
 20
88.13587613386955
 10
164.8571012395051
 20
88.13537384056983
  0
LWPOLYLINE
  5
E3
330
70
100
AcDbEntity
  8
0
 62
    18
420
        0
370
    25
100
AcDbPolyline
 90
        9
 70
     0
 43
0.0
 10
164.5240714627051
 20
88.14251149676987
 10
164.5890274870053
 20
88.13974919406957
 10
164.6514881876055
 20
88.13709306206934
 10
164.709055098605
 20
88.13464492547005
 10
164.7595160184055
 20
88.13249853736961
 10
164.8009337959054
 20
88.1307370959697
 10
164.8317171114052
 20
88.12942827726962
 10
164.8506831852053
 20
88.12862175186989
 10
164.8571037230055
 20
88.12834856396944
  0
SPLINE
  5
E4
330
70
100
AcDbEntity
  8
0
 62
    18
420
        0
370
    25
100
AcDbSpline
210
0.0
220
0.0
230
1.0
 70
     8
 71
     3
 72
     8
 73
     4
 74
     0
 42
0.0000000001
 43
0.0000000001
 40
0.0
 40
0.0
 40
0.0
 40
0.0
 40
1.0
 40
1.0
 40
1.0
 40
1.0
 10
164.8571012394865
 20
88.13537384058331
 30
0.0
 10
164.8575078845342
 20
88.13768663490259
 30
0.0
 10
164.8577081824196
 20
88.14003099283189
 30
0.0
 10
164.8576997694608
 20
88.14237924898916
 30
0.0
  0
LWPOLYLINE
  5
E5
330
70
100
AcDbEntity
  8
0
 62
    18
420
        0
370
    25
100
AcDbPolyline
 90
        3
 70
     0
 43
0.0
 10
164.8576997695051
 20
88.14237924896991
 10
164.8576991486055
 20
88.1423593807696
 10
164.8571037230055
 20
88.12834856396944
  0
LINE
  5
E6
330
70
100
AcDbEntity
  8
0
 62
    18
420
        0
370
    25
100
AcDbLine
 10
163.0303008335054
 20
104.1425116358696
 30
0.0
 11
163.0303008335054
 21
104.4758450238696
 31
0.0
  0
LINE
  5
E7
330
70
100
AcDbEntity
  8
0
 62
    18
420
        0
370
    25
100
AcDbLine
 10
163.0303008335054
 20
104.4758450238696
 30
0.0
 11
164.5240714627051
 21
104.4758450238696
 31
0.0
  0
LINE
  5
E8
330
70
100
AcDbEntity
  8
0
 62
    18
420
        0
370
    25
100
AcDbLine
 10
164.5240714627051
 20
104.1425116358696
 30
0.0
 11
164.5240714627051
 21
104.4758450238696
 31
0.0
  0
LINE
  5
E9
330
70
100
AcDbEntity
  8
0
 62
    18
420
        0
370
    25
100
AcDbLine
 10
164.5240714627051
 20
104.1425116358696
 30
0.0
 11
163.0303008335054
 21
104.1425116358696
 31
0.0
  0
LINE
  5
EA
330
70
100
AcDbEntity
  8
0
 62
    18
420
        0
370
    25
100
AcDbLine
 10
163.0303008335054
 20
88.14251149676987
 30
0.0
 11
164.5240714627051
 21
88.14251149676987
 31
0.0
  0
LINE
  5
EB
330
70
100
AcDbEntity
  8
0
 62
    18
420
        0
370
    25
100
AcDbLine
 10
163.0303008335054
 20
104.1425116358696
 30
0.0
 11
163.0303008335054
 21
88.14251149676987
 31
0.0
  0
LINE
  5
EC
330
70
100
AcDbEntity
  8
0
 62
    18
420
        0
370
    25
100
AcDbLine
 10
164.5240714627051
 20
87.80917810886965
 30
0.0
 11
164.5240714627051
 21
88.14251149676987
 31
0.0
  0
LINE
  5
ED
330
70
100
AcDbEntity
  8
0
 62
    18
420
        0
370
    25
100
AcDbLine
 10
164.5240714627051
 20
87.80917810886965
 30
0.0
 11
163.0303008335054
 21
87.80917810886965
 31
0.0
  0
LINE
  5
EE
330
70
100
AcDbEntity
  8
0
 62
    18
420
        0
370
    25
100
AcDbLine
 10
163.0303008335054
 20
87.80917810886965
 30
0.0
 11
163.0303008335054
 21
88.14251149676987
 31
0.0
  0
SPLINE
  5
EF
330
70
100
AcDbEntity
  8
0
 62
    18
420
        0
370
    25
100
AcDbSpline
210
0.0
220
0.0
230
1.0
 70
     8
 71
     3
 72
     8
 73
     4
 74
     0
 42
0.0000000001
 43
0.0000000001
 40
0.0
 40
0.0
 40
0.0
 40
0.0
 40
1.0
 40
1.0
 40
1.0
 40
1.0
 10
164.5240714627295
 20
87.80917810880932
 30
0.0
 10
164.7026577694657
 20
87.8091781674343
 30
0.0
 10
164.8495158063564
 20
87.94992353074334
 30
0.0
 10
164.8571037230677
 20
88.12834856394699
 30
0.0
  0
SPLINE
  5
F0
330
70
100
AcDbEntity
  8
0
 62
    18
420
        0
370
    25
100
AcDbSpline
210
0.0
220
0.0
230
1.0
 70
     8
 71
     3
 72
     8
 73
     4
 74
     0
 42
0.0000000001
 43
0.0000000001
 40
0.0
 40
0.0
 40
0.0
 40
0.0
 40
1.0
 40
1.0
 40
1.0
 40
1.0
 10
164.8571037230543
 20
104.142638295736
 30
0.0
 10
164.8571168112859
 20
104.3266005864356
 30
0.0
 10
164.7080337350396
 20
104.4757617637969
 30
0.0
 10
164.524071462716
 20
104.4758450238372
 30
0.0
  0
LINE
  5
F1
330
70
100
AcDbEntity
  8
0
 62
    18
420
        0
370
    25
100
AcDbLine
 10
164.8576997695051
 20
104.1426438836695
 30
0.0
 11
164.8571037230055
 21
104.1426382957697
 31
0.0
  0
SPLINE
  5
F2
330
70
100
AcDbEntity
  8
0
 62
    18
420
        0
370
    25
100
AcDbSpline
210
0.0
220
0.0
230
1.0
 70
     8
 71
     3
 72
     8
 73
     4
 74
     0
 42
0.0000000001
 43
0.0000000001
 40
0.0
 40
0.0
 40
0.0
 40
0.0
 40
1.0
 40
1.0
 40
1.0
 40
1.0
 10
165.0303011613925
 20
98.01518938793229
 30
0.0
 10
165.0044825081439
 20
100.0584444021389
 30
0.0
 10
164.9469417763732
 20
102.1011754122821
 30
0.0
 10
164.8576997695147
 20
104.142643883787
 30
0.0
  0
SPLINE
  5
F3
330
70
100
AcDbEntity
  8
0
 62
    18
420
        0
370
    25
100
AcDbSpline
210
0.0
220
0.0
230
1.0
 70
     8
 71
     3
 72
     8
 73
     4
 74
     0
 42
0.0000000001
 43
0.0000000001
 40
0.0
 40
0.0
 40
0.0
 40
0.0
 40
1.0
 40
1.0
 40
1.0
 40
1.0
 10
164.8576997695193
 20
88.14237924898018
 30
0.0
 10
164.9469416462437
 20
90.18384844983922
 30
0.0
 10
165.0044823779502
 20
92.22658018218934
 30
0.0
 10
165.0303011613899
 20
94.26983591778313
 30
0.0
  0
LWPOLYLINE
  5
F4
330
70
100
AcDbEntity
  8
0
 62
    18
420
        0
370
    25
100
AcDbPolyline
 90
        4
 70
     0
 43
0.0
 10
164.8571012395051
 20
104.1566714642696
 10
164.8573197899055
 20
104.1515454648697
 10
164.8575724887054
 20
104.1456247367696
 10
164.8576997695051
 20
104.1426438836695
  0
LWPOLYLINE
  5
F5
330
70
100
AcDbEntity
  8
0
 62
    18
420
        0
370
    25
100
AcDbPolyline
 90
        3
 70
     0
 43
0.0
 10
165.0205644943049
 20
93.48076712326946
 10
164.9651694275053
 20
90.73595056916948
 10
164.8588825491053
 20
88.12633752806965
  0
LINE
  5
F6
330
70
100
AcDbEntity
  8
0
 62
    18
420
        0
370
    25
100
AcDbLine
 10
164.8588825491868
 20
88.12633752806387
 30
0.0
 11
164.8577047326449
 21
88.12768539814317
 31
0.0
  0
SPLINE
  5
F7
330
70
100
AcDbEntity
  8
0
 62
    18
420
        0
370
    25
100
AcDbSpline
210
0.0
220
0.0
230
1.0
 70
     8
 71
     3
 72
     8
 73
     4
 74
     0
 42
0.0000000001
 43
0.0000000001
 40
0.0
 40
0.0
 40
0.0
 40
0.0
 40
1.0
 40
1.0
 40
1.0
 40
1.0
 10
164.8571012394845
 20
104.1566714643213
 30
0.0
 10
164.8495155094506
 20
104.3350969987262
 30
0.0
 10
164.7026581772603
 20
104.4758441052145
 30
0.0
 10
164.524071462673
 20
104.475845023868
 30
0.0
  0
SPLINE
  5
F8
330
70
100
AcDbEntity
  8
0
 62
    18
420
        0
370
    25
100
AcDbSpline
210
0.0
220
0.0
230
1.0
 70
     8
 71
     3
 72
     8
 73
     4
 74
     0
 42
0.0000000001
 43
0.0000000001
 40
0.0
 40
0.0
 40
0.0
 40
0.0
 40
1.0
 40
1.0
 40
1.0
 40
1.0
 10
164.525941816205
 20
87.80917823303584
 30
0.0
 10
164.7037491182986
 20
87.80917823303584
 30
0.0
 10
164.8502548202044
 20
87.94873947543329
 30
0.0
 10
164.8588825096395
 20
88.12633733480337
 30
0.0
  0
SPLINE
  5
F9
330
70
100
AcDbEntity
  8
0
 62
    18
420
        0
370
    25
100
AcDbSpline
210
0.0
220
0.0
230
1.0
 70
     8
 71
     3
 72
    11
 73
     7
 74
     0
 42
0.0000000001
 43
0.0000000001
 40
0.0
 40
0.0
 40
0.0
 40
0.0
 40
1.0
 40
1.0
 40
1.0
 40
2.0
 40
2.0
 40
2.0
 40
2.0
 10
182.6969682402737
 20
93.47584477304319
 30
0.0
 10
184.1697276431081
 20
93.47584559758699
 30
0.0
 10
185.3636343651758
 20
94.66975365650375
 30
0.0
 10
185.3636335406317
 20
96.14251305933812
 30
0.0
 10
185.3636327160889
 20
97.61527129609175
 30
0.0
 10
184.1697264770274
 20
98.80917753515291
 30
0.0
 10
182.6969682402737
 20
98.80917835969608
 30
0.0
  0
LINE
  5
FA
330
70
100
AcDbEntity
  8
0
 62
    18
420
        0
370
    25
100
AcDbLine
 10
165.0303011613052
 20
98.02364176126967
 30
0.0
 11
165.0303011613052
 21
94.25859159466973
 31
0.0
  0
LWPOLYLINE
  5
FB
330
70
100
AcDbEntity
  8
0
 62
     8
420
  8421504
370
    25
100
AcDbPolyline
 90
        5
 70
     0
 43
0.0
 10
164.8587850707051
 20
104.1585732249695
 10
164.8588682689049
 20
104.1586694616695
 10
164.8586366800052
 20
104.1584018616696
 10
164.8571037230055
 20
104.1566745686697
 10
164.8571012395051
 20
104.1566714642696
  0
LWPOLYLINE
  5
FC
330
70
100
AcDbEntity
  8
0
 62
    18
420
        0
370
    25
100
AcDbPolyline
 90
        3
 70
     0
 43
0.0
 10
110.6244035281054
 20
47.16334956606971
 10
113.1338981506054
 20
47.20388507066956
 10
116.549666495805
 20
47.33556290686927
  0
LWPOLYLINE
  5
FD
330
70
100
AcDbEntity
  8
0
 62
    18
420
        0
370
    25
100
AcDbPolyline
 90
        3
 70
     0
 43
0.0
 10
100.517596574305
 20
47.33556290686927
 10
103.933345051305
 20
47.20388569156984
 10
106.4428272562054
 20
47.16334956606971
  0
SPLINE
  5
FE
330
70
100
AcDbEntity
  8
0
 62
    18
420
        0
370
    25
100
AcDbSpline
210
0.0
220
0.0
230
1.0
 70
     8
 71
     3
 72
     8
 73
     4
 74
     0
 42
0.0000000001
 43
0.0000000001
 40
0.0
 40
0.0
 40
0.0
 40
0.0
 40
1.0
 40
1.0
 40
1.0
 40
1.0
 10
116.5495385546238
 20
47.33475379397474
 30
0.0
 10
116.7272505158521
 20
47.34324406984277
 30
0.0
 10
116.8669702536438
 20
47.48980279175757
 30
0.0
 10
116.866964868286
 20
47.66771745084686
 30
0.0
  0
SPLINE
  5
FF
330
70
100
AcDbEntity
  8
0
 62
    18
420
        0
370
    25
100
AcDbSpline
210
0.0
220
0.0
230
1.0
 70
     8
 71
     3
 72
     8
 73
     4
 74
     0
 42
0.0000000001
 43
0.0000000001
 40
0.0
 40
0.0
 40
0.0
 40
0.0
 40
1.0
 40
1.0
 40
1.0
 40
1.0
 10
100.2002982019241
 20
47.66771745084686
 30
0.0
 10
100.2002928179056
 20
47.48984702772876
 30
0.0
 10
100.3399454113539
 20
47.34330840295323
 30
0.0
 10
100.5176102638445
 20
47.33475927205485
 30
0.0
  0
LINE
  5
100
330
70
100
AcDbEntity
  8
0
 62
    18
420
        0
370
    25
100
AcDbLine
 10
105.8669644313052
 20
47.16334956606971
 30
0.0
 11
105.8669644313052
 21
32.16334959086957
 31
0.0
  0
LINE
  5
101
330
70
100
AcDbEntity
  8
0
 62
    18
420
        0
370
    25
100
AcDbLine
 10
111.2002986388054
 20
26.83001538336934
 30
0.0
 11
111.2002986388054
 21
47.16334956606971
 31
0.0
  0
LINE
  5
102
330
70
100
AcDbEntity
  8
0
 62
    18
420
        0
370
    25
100
AcDbLine
 10
103.5336313364054
 20
26.83001538336934
 30
0.0
 11
111.2002986388054
 21
26.83001538336934
 31
0.0
  0
LINE
  5
103
330
70
100
AcDbEntity
  8
0
 62
    18
420
        0
370
    25
100
AcDbLine
 10
105.8669644313052
 20
32.16334959086957
 30
0.0
 11
103.5336313364054
 21
32.16334959086957
 31
0.0
  0
LWPOLYLINE
  5
104
330
70
100
AcDbEntity
  8
0
 62
    18
420
        0
370
    25
100
AcDbPolyline
 90
        3
 70
     0
 43
0.0
 10
17.1842632410053
 20
47.33556290686927
 10
20.60003158620528
 20
47.20388507066956
 10
23.10952620870533
 20
47.16334956606971
  0
LWPOLYLINE
  5
105
330
70
100
AcDbEntity
  8
0
 62
    18
420
        0
370
    25
100
AcDbPolyline
 90
        3
 70
     0
 43
0.0
 10
27.29110248060527
 20
47.16334956606971
 10
29.8005846855054
 20
47.20388569156984
 10
33.21633316250538
 20
47.33556290686927
  0
SPLINE
  5
106
330
70
100
AcDbEntity
  8
0
 62
    18
420
        0
370
    25
100
AcDbSpline
210
0.0
220
0.0
230
1.0
 70
     8
 71
     3
 72
     8
 73
     4
 74
     0
 42
0.0000000001
 43
0.0000000001
 40
0.0
 40
0.0
 40
0.0
 40
0.0
 40
1.0
 40
1.0
 40
1.0
 40
1.0
 10
33.21620522122372
 20
47.33475379397474
 30
0.0
 10
33.39391718245237
 20
47.34324406984277
 30
0.0
 10
33.53363692024399
 20
47.48980279175757
 30
0.0
 10
33.53363153488587
 20
47.66771745084686
 30
0.0
  0
SPLINE
  5
107
330
70
100
AcDbEntity
  8
0
 62
    18
420
        0
370
    25
100
AcDbSpline
210
0.0
220
0.0
230
1.0
 70
     8
 71
     3
 72
     8
 73
     4
 74
     0
 42
0.0000000001
 43
0.0000000001
 40
0.0
 40
0.0
 40
0.0
 40
0.0
 40
1.0
 40
1.0
 40
1.0
 40
1.0
 10
16.8669648685247
 20
47.66771745084686
 30
0.0
 10
16.86695948450549
 20
47.48984702772876
 30
0.0
 10
17.00661207795448
 20
47.34330840295323
 30
0.0
 10
17.18427693044438
 20
47.33475927205485
 30
0.0
  0
LINE
  5
108
330
70
100
AcDbEntity
  8
0
 62
    18
420
        0
370
    25
100
AcDbLine
 10
22.53363109800522
 20
47.16334956606971
 30
0.0
 11
22.53363109800522
 21
26.83001538336934
 31
0.0
  0
LINE
  5
109
330
70
100
AcDbEntity
  8
0
 62
    18
420
        0
370
    25
100
AcDbLine
 10
27.86696530550513
 20
32.16334959086957
 30
0.0
 11
27.86696530550513
 21
47.16334956606971
 31
0.0
  0
LINE
  5
10A
330
70
100
AcDbEntity
  8
0
 62
    18
420
        0
370
    25
100
AcDbLine
 10
30.20029840040532
 20
32.16334959086957
 30
0.0
 11
27.86696530550513
 21
32.16334959086957
 31
0.0
  0
LINE
  5
10B
330
70
100
AcDbEntity
  8
0
 62
    18
420
        0
370
    25
100
AcDbLine
 10
22.53363109800522
 20
26.83001538336934
 30
0.0
 11
30.20029840040532
 21
26.83001538336934
 31
0.0
  0
LINE
  5
10C
330
70
100
AcDbEntity
  8
0
 62
    18
420
        0
370
    25
100
AcDbLine
 10
30.20029840040532
 20
26.83001538336934
 30
0.0
 11
103.5336313364054
 21
26.83001538336934
 31
0.0
  0
LINE
  5
10D
330
70
100
AcDbEntity
  8
0
 62
    18
420
        0
370
    25
100
AcDbLine
 10
103.5336313364054
 20
32.16334959086957
 30
0.0
 11
30.20029840040532
 21
32.16334959086957
 31
0.0
  0
LWPOLYLINE
  5
10E
330
70
100
AcDbEntity
  8
0
 62
    18
420
        0
370
    25
100
AcDbPolyline
 90
        3
 70
     0
 43
0.0
 10
100.5334985969053
 20
47.33595095786977
 10
100.5334787286056
 20
47.33595157876942
 10
100.5194691536053
 20
47.33654700437005
  0
LWPOLYLINE
  5
10F
330
70
100
AcDbEntity
  8
0
 62
    18
420
        0
370
    25
100
AcDbPolyline
 90
        9
 70
     0
 43
0.0
 10
100.5194691536053
 20
47.33654700437005
 10
100.5197423415051
 20
47.34296754216962
 10
100.5205470042053
 20
47.36193361596974
 10
100.5218583064051
 20
47.39271693146952
 10
100.5236191270048
 20
47.43413470896999
 10
100.5257648942057
 20
47.48459562876924
 10
100.5282136517052
 20
47.54216253977006
 10
100.5308685419049
 20
47.60462324036957
 10
100.5336327073048
 20
47.66957926466981
  0
LWPOLYLINE
  5
110
330
70
100
AcDbEntity
  8
0
 62
    18
420
        0
370
    25
100
AcDbPolyline
 90
        7
 70
     0
 43
0.0
 10
100.5264950511054
 20
47.33654948786982
 10
100.5269967235054
 20
47.36000329466986
 10
100.5282459375051
 20
47.41834382426945
 10
100.5301036156054
 20
47.50500090636982
 10
100.5323586580051
 20
47.61022359346998
 10
100.5334116734052
 20
47.65930801846976
 10
100.5336327073048
 20
47.66957926466981
  0
SPLINE
  5
111
330
70
100
AcDbEntity
  8
0
 62
    18
420
        0
370
    25
100
AcDbSpline
210
0.0
220
0.0
230
1.0
 70
     8
 71
     3
 72
     8
 73
     4
 74
     0
 42
0.0000000001
 43
0.0000000001
 40
0.0
 40
0.0
 40
0.0
 40
0.0
 40
1.0
 40
1.0
 40
1.0
 40
1.0
 10
100.5264950510694
 20
47.33654948783196
 30
0.0
 10
100.5288072068815
 20
47.33614275340201
 30
0.0
 10
100.5311509543773
 20
47.33594245441356
 30
0.0
 10
100.5334985968309
 20
47.33595095785758
 30
0.0
  0
LWPOLYLINE
  5
112
330
70
100
AcDbEntity
  8
0
 62
    18
420
        0
370
    25
100
AcDbPolyline
 90
        6
 70
     0
 43
0.0
 10
108.5336315351051
 20
47.33476817826961
 10
107.866966000905
 20
47.33478432116957
 10
105.2002988971052
 20
47.33513884456956
 10
102.8669012305053
 20
47.33575413836923
 10
100.5335035639049
 20
47.33654700437005
 10
100.5264950511054
 20
47.33654948786982
  0
LWPOLYLINE
  5
113
330
70
100
AcDbEntity
  8
0
 62
    18
420
        0
370
    25
100
AcDbPolyline
 90
        4
 70
     0
 43
0.0
 10
100.5336327073048
 20
47.66957926466981
 10
104.330004028205
 20
47.66831328686921
 10
106.4318177816053
 20
47.66786997726949
 10
108.5336315351051
 20
47.66770916896997
  0
LINE
  5
114
330
70
100
AcDbEntity
  8
0
 62
    18
420
        0
370
    25
100
AcDbLine
 10
108.5336315351051
 20
47.33476817826961
 30
0.0
 11
108.5336315351051
 21
47.66770916896997
 31
0.0
  0
LINE
  5
115
330
70
100
AcDbEntity
  8
0
 62
    18
420
        0
370
    25
100
AcDbLine
 10
116.5336328464051
 20
49.16334989386954
 30
0.0
 11
116.866966855205
 21
49.16334989386954
 31
0.0
  0
LINE
  5
116
330
70
100
AcDbEntity
  8
0
 62
    18
420
        0
370
    25
100
AcDbLine
 10
116.866966855205
 20
49.16334989386954
 30
0.0
 11
116.866966855205
 21
47.66957926466981
 31
0.0
  0
LINE
  5
117
330
70
100
AcDbEntity
  8
0
 62
    18
420
        0
370
    25
100
AcDbLine
 10
116.5336328464051
 20
47.66957926466981
 30
0.0
 11
116.866966855205
 21
47.66957926466981
 31
0.0
  0
LINE
  5
118
330
70
100
AcDbEntity
  8
0
 62
    18
420
        0
370
    25
100
AcDbLine
 10
116.5336328464051
 20
47.66957926466981
 30
0.0
 11
116.5336328464051
 21
49.16334989386954
 31
0.0
  0
LINE
  5
119
330
70
100
AcDbEntity
  8
0
 62
    18
420
        0
370
    25
100
AcDbLine
 10
116.5336328464051
 20
49.16334989386954
 30
0.0
 11
100.5336327073048
 21
49.16334989386954
 31
0.0
  0
LWPOLYLINE
  5
11A
330
70
100
AcDbEntity
  8
0
 62
    18
420
        0
370
    25
100
AcDbPolyline
 90
        4
 70
     0
 43
0.0
 10
108.5336315351051
 20
47.66770916896997
 10
112.3300152736049
 20
47.66820897876993
 10
114.431824060005
 20
47.66882365166995
 10
116.5336328464051
 20
47.66957926466981
  0
LINE
  5
11B
330
70
100
AcDbEntity
  8
0
 62
    18
420
        0
370
    25
100
AcDbLine
 10
100.5336327073048
 20
49.16334989386954
 30
0.0
 11
100.5336327073048
 21
47.66957926466981
 31
0.0
  0
SPLINE
  5
11C
330
70
100
AcDbEntity
  8
0
 62
    18
420
        0
370
    25
100
AcDbSpline
210
0.0
220
0.0
230
1.0
 70
     8
 71
     3
 72
     8
 73
     4
 74
     0
 42
0.0000000001
 43
0.0000000001
 40
0.0
 40
0.0
 40
0.0
 40
0.0
 40
1.0
 40
1.0
 40
1.0
 40
1.0
 10
116.5337570227253
 20
47.33654700434182
 30
0.0
 10
116.717720245844
 20
47.33653287777317
 30
0.0
 10
116.8668829191091
 20
47.48561606016801
 30
0.0
 10
116.8669668552345
 20
47.66957926468007
 30
0.0
  0
LWPOLYLINE
  5
11D
330
70
100
AcDbEntity
  8
0
 62
    18
420
        0
370
    25
100
AcDbPolyline
 90
        9
 70
     0
 43
0.0
 10
116.5337570227054
 20
47.33654700437005
 10
116.5337570227054
 20
47.34529460686937
 10
116.5337470886049
 20
47.36584144547008
 10
116.5337371545051
 20
47.3974393577692
 10
116.5337172863054
 20
47.43893847086933
 10
116.5337023851053
 20
47.48883004206967
 10
116.5336775499054
 20
47.54529737146991
 10
116.5336576817051
 20
47.60628658246967
 10
116.5336328464051
 20
47.66957926466981
  0
LWPOLYLINE
  5
11E
330
70
100
AcDbEntity
  8
0
 62
    18
420
        0
370
    25
100
AcDbPolyline
 90
        5
 70
     0
 43
0.0
 10
116.5337570227054
 20
47.33654700437005
 10
115.8670939721052
 20
47.33630796486965
 10
113.2004268683053
 20
47.33546294486924
 10
110.8670292017055
 20
47.33495506366967
 10
108.5336315351051
 20
47.33476817826961
  0
LINE
  5
11F
330
70
100
AcDbEntity
  8
0
 62
    18
420
        0
370
    25
100
AcDbLine
 10
100.2002986985055
 20
47.66957926466981
 30
0.0
 11
100.5336327073048
 21
47.66957926466981
 31
0.0
  0
LINE
  5
120
330
70
100
AcDbEntity
  8
0
 62
    18
420
        0
370
    25
100
AcDbLine
 10
100.2002986985055
 20
47.66957926466981
 30
0.0
 11
100.2002986985055
 21
49.16334989386954
 31
0.0
  0
LINE
  5
121
330
70
100
AcDbEntity
  8
0
 62
    18
420
        0
370
    25
100
AcDbLine
 10
100.2002986985055
 20
49.16334989386954
 30
0.0
 11
100.5336327073048
 21
49.16334989386954
 31
0.0
  0
SPLINE
  5
122
330
70
100
AcDbEntity
  8
0
 62
    18
420
        0
370
    25
100
AcDbSpline
210
0.0
220
0.0
230
1.0
 70
     8
 71
     3
 72
     8
 73
     4
 74
     0
 42
0.0000000001
 43
0.0000000001
 40
0.0
 40
0.0
 40
0.0
 40
0.0
 40
1.0
 40
1.0
 40
1.0
 40
1.0
 10
100.200298698451
 20
47.66957926470125
 30
0.0
 10
100.2002985578509
 20
47.49099287791241
 30
0.0
 10
100.3410440319403
 20
47.34413472543057
 30
0.0
 10
100.5194691535893
 20
47.33654700436299
 30
0.0
  0
SPLINE
  5
123
330
70
100
AcDbEntity
  8
0
 62
    18
420
        0
370
    25
100
AcDbSpline
210
0.0
220
0.0
230
1.0
 70
     8
 71
     3
 72
     8
 73
     4
 74
     0
 42
0.0000000001
 43
0.0000000001
 40
0.0
 40
0.0
 40
0.0
 40
0.0
 40
1.0
 40
1.0
 40
1.0
 40
1.0
 10
110.419229439531
 20
47.16579832349548
 30
0.0
 10
112.4581829367873
 20
47.18995469674761
 30
0.0
 10
114.4966204884139
 20
47.24667947768393
 30
0.0
 10
116.5337619899212
 20
47.33595095788581
 30
0.0
  0
LWPOLYLINE
  5
124
330
70
100
AcDbEntity
  8
0
 62
    18
420
        0
370
    25
100
AcDbPolyline
 90
        4
 70
     0
 43
0.0
 10
116.5477939166055
 20
47.33654948786982
 10
116.5426679171054
 20
47.33633093746938
 10
116.5367422220055
 20
47.33607823866954
 10
116.533761989805
 20
47.33595095786977
  0
SPLINE
  5
125
330
70
100
AcDbEntity
  8
0
 62
    18
420
        0
370
    25
100
AcDbSpline
210
0.0
220
0.0
230
1.0
 70
     8
 71
     3
 72
     8
 73
     4
 74
     0
 42
0.0000000001
 43
0.0000000001
 40
0.0
 40
0.0
 40
0.0
 40
0.0
 40
1.0
 40
1.0
 40
1.0
 40
1.0
 10
100.5334985967603
 20
47.33595095784859
 30
0.0
 10
102.570658282271
 20
47.24733857308421
 30
0.0
 10
104.6091001130792
 20
47.19117808042561
 30
0.0
 10
106.6480485317445
 20
47.16749084702175
 30
0.0
  0
LINE
  5
126
330
70
100
AcDbEntity
  8
0
 62
    18
420
        0
370
    25
100
AcDbLine
 10
108.5336315351051
 20
47.33398959256926
 30
0.0
 11
108.5336315351051
 21
47.33476817826961
 31
0.0
  0
LWPOLYLINE
  5
127
330
70
100
AcDbEntity
  8
0
 62
    18
420
        0
370
    25
100
AcDbPolyline
 90
        4
 70
     0
 43
0.0
 10
108.5336315351051
 20
47.33398959256926
 10
106.450297705005
 20
47.33415660976966
 10
104.3669638750051
 20
47.33461482047004
 10
100.5334985969053
 20
47.33595095786977
  0
LINE
  5
128
330
70
100
AcDbEntity
  8
0
 62
    18
420
        0
370
    25
100
AcDbLine
 10
116.533761989805
 20
47.33595095786977
 30
0.0
 11
116.5337570227054
 21
47.33654700437005
 31
0.0
  0
LWPOLYLINE
  5
129
330
70
100
AcDbEntity
  8
0
 62
    18
420
        0
370
    25
100
AcDbPolyline
 90
        4
 70
     0
 43
0.0
 10
116.533761989805
 20
47.33595095786977
 10
114.4504306433055
 20
47.33516678426959
 10
112.3670992968053
 20
47.33452479256921
 10
108.5336315351051
 20
47.33398959256926
  0
SPLINE
  5
12A
330
70
100
AcDbEntity
  8
0
 62
    18
420
        0
370
    25
100
AcDbSpline
210
0.0
220
0.0
230
1.0
 70
     8
 71
     3
 72
     8
 73
     4
 74
     0
 42
0.0000000001
 43
0.0000000001
 40
0.0
 40
0.0
 40
0.0
 40
0.0
 40
1.0
 40
1.0
 40
1.0
 40
1.0
 10
116.5477939165342
 20
47.33654948785763
 30
0.0
 10
116.726216839123
 20
47.34414077779409
 30
0.0
 10
116.8669606178166
 20
47.49099492339356
 30
0.0
 10
116.8669668551992
 20
47.66957926466981
 30
0.0
  0
SPLINE
  5
12B
330
70
100
AcDbEntity
  8
0
 62
    18
420
        0
370
    25
100
AcDbSpline
210
0.0
220
0.0
230
1.0
 70
     8
 71
     3
 72
     8
 73
     4
 74
     0
 42
0.0000000001
 43
0.0000000001
 40
0.0
 40
0.0
 40
0.0
 40
0.0
 40
1.0
 40
1.0
 40
1.0
 40
1.0
 10
108.9308617231483
 20
47.16334956606329
 30
0.0
 10
108.6651971273167
 20
47.1668482405172
 30
0.0
 10
108.3994979760938
 20
47.1668482405172
 30
0.0
 10
108.1338333802622
 20
47.16334956606329
 30
0.0
  0
LWPOLYLINE
  5
12C
330
70
100
AcDbEntity
  8
0
 62
    18
420
        0
370
    25
100
AcDbPolyline
 90
       20
 70
     0
 43
0.0
 10
111.2002986388054
 20
26.83001538336934
 10
111.1906923569055
 20
26.83962414876967
 10
111.1142543671051
 20
26.91606213866958
 10
110.9635738251053
 20
27.06674019706947
 10
110.7429919359052
 20
27.28732456976934
 10
110.4588466602051
 20
27.57146736196973
 10
110.1193187353049
 20
27.91099528686987
 10
109.7341733890049
 20
28.29614063316919
 10
109.3144921181052
 20
28.71582190406959
 10
108.8723448631051
 20
29.15796915906966
 10
108.4204547323053
 20
29.60985928986948
 10
107.971820505205
 20
30.05849351696982
 10
107.5393465874053
 20
30.4909674347695
 10
107.1354779320052
 20
30.89483609016957
 10
106.7718324778055
 20
31.25848154436993
 10
106.4588683563055
 20
31.57144566586995
 10
106.205593319405
 20
31.82472070276976
 10
106.0192915516055
 20
32.01102247056932
 10
105.9053225038053
 20
32.12499151836951
 10
105.8669644313052
 20
32.16334959086957
  0
LINE
  5
12D
330
70
100
AcDbEntity
  8
0
 62
    18
420
        0
370
    25
100
AcDbLine
 10
108.5336315351051
 20
47.16334956606971
 30
0.0
 11
105.8669644313052
 21
47.16334956606971
 31
0.0
  0
LINE
  5
12E
330
70
100
AcDbEntity
  8
0
 62
    18
420
        0
370
    25
100
AcDbLine
 10
110.4229149935051
 20
47.16334956606971
 30
0.0
 11
108.5336315351051
 21
47.16334956606971
 31
0.0
  0
LINE
  5
12F
330
70
100
AcDbEntity
  8
0
 62
    18
420
        0
370
    25
100
AcDbLine
 10
103.5336313364054
 20
32.16334959086957
 30
0.0
 11
103.5336313364054
 21
26.83001538336934
 31
0.0
  0
LWPOLYLINE
  5
130
330
70
100
AcDbEntity
  8
0
 62
    18
420
        0
370
    25
100
AcDbPolyline
 90
        4
 70
     0
 43
0.0
 10
17.20029689040521
 20
47.66957926466981
 10
22.50235356060532
 20
47.66796807667004
 10
27.80440774730533
 20
47.66795441726921
 10
33.20029702950527
 20
47.66957926466981
  0
LWPOLYLINE
  5
131
330
70
100
AcDbEntity
  8
0
 62
    18
420
        0
370
    25
100
AcDbPolyline
 90
        9
 70
     0
 43
0.0
 10
33.20029702950527
 20
47.66957926466981
 10
33.20032186480523
 20
47.60628658246967
 10
33.2003467001052
 20
47.54529737146991
 10
33.20036656830519
 20
47.48883004206967
 10
33.20038643650518
 20
47.43893847086933
 10
33.2004013376052
 20
47.3974393577692
 10
33.20041375530524
 20
47.36584144547008
 10
33.20042120590529
 20
47.34529460686937
 10
33.20042617290516
 20
47.33654700437005
  0
LWPOLYLINE
  5
132
330
70
100
AcDbEntity
  8
0
 62
    18
420
        0
370
    25
100
AcDbPolyline
 90
        7
 70
     0
 43
0.0
 10
33.20042617290516
 20
47.33654700437005
 10
32.53375815520531
 20
47.33630858576994
 10
29.86709105140515
 20
47.33546542836965
 10
24.53375932740533
 20
47.33478245846998
 10
22.50228898890537
 20
47.33501404736968
 10
17.20017271410529
 20
47.33654700437005
 10
17.19315923420517
 20
47.33654948786982
  0
LWPOLYLINE
  5
133
330
70
100
AcDbEntity
  8
0
 62
    18
420
        0
370
    25
100
AcDbPolyline
 90
        7
 70
     0
 43
0.0
 10
17.20029689040521
 20
47.66957926466981
 10
17.20007834010519
 20
47.65930801846976
 10
17.19902532470511
 20
47.61022359346998
 10
17.19677028230537
 20
47.50500090636982
 10
17.19491260420515
 20
47.41834382426945
 10
17.19366090670536
 20
47.36000329466986
 10
17.19315923420517
 20
47.33654948786982
  0
LWPOLYLINE
  5
134
330
70
100
AcDbEntity
  8
0
 62
    18
420
        0
370
    25
100
AcDbPolyline
 90
        9
 70
     0
 43
0.0
 10
17.20029689040521
 20
47.66957926466981
 10
17.1975352086052
 20
47.60462324036957
 10
17.19487783480535
 20
47.54216253977006
 10
17.19242907730514
 20
47.48459562876924
 10
17.1902833101053
 20
47.43413470896999
 10
17.18852497310514
 20
47.39271693146952
 10
17.18721367090527
 20
47.36193361596974
 10
17.18640900820513
 20
47.34296754216962
 10
17.18613582030533
 20
47.33654700437005
  0
SPLINE
  5
135
330
70
100
AcDbEntity
  8
0
 62
    18
420
        0
370
    25
100
AcDbSpline
210
0.0
220
0.0
230
1.0
 70
     8
 71
     3
 72
     8
 73
     4
 74
     0
 42
0.0000000001
 43
0.0000000001
 40
0.0
 40
0.0
 40
0.0
 40
0.0
 40
1.0
 40
1.0
 40
1.0
 40
1.0
 10
17.19315923420004
 20
47.33654948784929
 30
0.0
 10
17.19547303756027
 20
47.33614256887504
 30
0.0
 10
17.19781845061893
 20
47.33594226960167
 30
0.0
 10
17.20016774701494
 20
47.33595095787427
 30
0.0
  0
LWPOLYLINE
  5
136
330
70
100
AcDbEntity
  8
0
 62
    18
420
        0
370
    25
100
AcDbPolyline
 90
        3
 70
     0
 43
0.0
 10
17.20016774700531
 20
47.33595095786977
 10
17.20014787880532
 20
47.33595157876942
 10
17.18613582030533
 20
47.33654700437005
  0
LINE
  5
137
330
70
100
AcDbEntity
  8
0
 62
    18
420
        0
370
    25
100
AcDbLine
 10
33.20029702950527
 20
49.16334989386954
 30
0.0
 11
33.53363103840525
 21
49.16334989386954
 31
0.0
  0
LINE
  5
138
330
70
100
AcDbEntity
  8
0
 62
    18
420
        0
370
    25
100
AcDbLine
 10
33.53363103840525
 20
49.16334989386954
 30
0.0
 11
33.53363103840525
 21
47.66957926466981
 31
0.0
  0
LINE
  5
139
330
70
100
AcDbEntity
  8
0
 62
    18
420
        0
370
    25
100
AcDbLine
 10
33.20029702950527
 20
47.66957926466981
 30
0.0
 11
33.53363103840525
 21
47.66957926466981
 31
0.0
  0
LINE
  5
13A
330
70
100
AcDbEntity
  8
0
 62
    18
420
        0
370
    25
100
AcDbLine
 10
33.20029702950527
 20
47.66957926466981
 30
0.0
 11
33.20029702950527
 21
49.16334989386954
 31
0.0
  0
LINE
  5
13B
330
70
100
AcDbEntity
  8
0
 62
    18
420
        0
370
    25
100
AcDbLine
 10
16.86696288160534
 20
49.16334989386954
 30
0.0
 11
17.20029689040521
 21
49.16334989386954
 31
0.0
  0
LINE
  5
13C
330
70
100
AcDbEntity
  8
0
 62
    18
420
        0
370
    25
100
AcDbLine
 10
17.20029689040521
 20
49.16334989386954
 30
0.0
 11
17.20029689040521
 21
47.66957926466981
 31
0.0
  0
LINE
  5
13D
330
70
100
AcDbEntity
  8
0
 62
    18
420
        0
370
    25
100
AcDbLine
 10
16.86696288160534
 20
47.66957926466981
 30
0.0
 11
17.20029689040521
 21
47.66957926466981
 31
0.0
  0
LINE
  5
13E
330
70
100
AcDbEntity
  8
0
 62
    18
420
        0
370
    25
100
AcDbLine
 10
16.86696288160534
 20
47.66957926466981
 30
0.0
 11
16.86696288160534
 21
49.16334989386954
 31
0.0
  0
LINE
  5
13F
330
70
100
AcDbEntity
  8
0
 62
    18
420
        0
370
    25
100
AcDbLine
 10
33.20029702950527
 20
49.16334989386954
 30
0.0
 11
17.20029689040521
 21
49.16334989386954
 31
0.0
  0
SPLINE
  5
140
330
70
100
AcDbEntity
  8
0
 62
    18
420
        0
370
    25
100
AcDbSpline
210
0.0
220
0.0
230
1.0
 70
     8
 71
     3
 72
     8
 73
     4
 74
     0
 42
0.0000000001
 43
0.0000000001
 40
0.0
 40
0.0
 40
0.0
 40
0.0
 40
1.0
 40
1.0
 40
1.0
 40
1.0
 10
33.20042617296965
 20
47.33654700437518
 30
0.0
 10
33.38438801613261
 20
47.33653426883103
 30
0.0
 10
33.53354845429219
 20
47.4856174396464
 30
0.0
 10
33.53363103842482
 20
47.66957926471344
 30
0.0
  0
SPLINE
  5
141
330
70
100
AcDbEntity
  8
0
 62
    18
420
        0
370
    25
100
AcDbSpline
210
0.0
220
0.0
230
1.0
 70
     8
 71
     3
 72
     8
 73
     4
 74
     0
 42
0.0000000001
 43
0.0000000001
 40
0.0
 40
0.0
 40
0.0
 40
0.0
 40
1.0
 40
1.0
 40
1.0
 40
1.0
 10
16.86696288155689
 20
47.66957926473141
 30
0.0
 10
16.8669632975954
 20
47.49099215738834
 30
0.0
 10
17.00770994333324
 20
47.34413392510417
 30
0.0
 10
17.18613582022159
 20
47.33654700439251
 30
0.0
  0
SPLINE
  5
142
330
70
100
AcDbEntity
  8
0
 62
    18
420
        0
370
    25
100
AcDbSpline
210
0.0
220
0.0
230
1.0
 70
     8
 71
     3
 72
     8
 73
     4
 74
     0
 42
0.0000000001
 43
0.0000000001
 40
0.0
 40
0.0
 40
0.0
 40
0.0
 40
1.0
 40
1.0
 40
1.0
 40
1.0
 10
17.20016774695334
 20
47.33595095794292
 30
0.0
 10
19.24163533528269
 20
47.24670886521485
 30
0.0
 10
21.28436546721295
 20
47.18916813340181
 30
0.0
 10
23.32761960385251
 20
47.16334956606907
 30
0.0
  0
LINE
  5
143
330
70
100
AcDbEntity
  8
0
 62
    18
420
        0
370
    25
100
AcDbLine
 10
33.20043114000513
 20
47.33595095786977
 30
0.0
 11
33.20042617290516
 21
47.33654700437005
 31
0.0
  0
SPLINE
  5
144
330
70
100
AcDbEntity
  8
0
 62
    18
420
        0
370
    25
100
AcDbSpline
210
0.0
220
0.0
230
1.0
 70
     8
 71
     3
 72
     8
 73
     4
 74
     0
 42
0.0000000001
 43
0.0000000001
 40
0.0
 40
0.0
 40
0.0
 40
0.0
 40
1.0
 40
1.0
 40
1.0
 40
1.0
 10
27.07297679940694
 20
47.16334956598693
 30
0.0
 10
29.11623176103468
 20
47.18916825846896
 30
0.0
 10
31.15896271877642
 20
47.2467089902191
 30
0.0
 10
33.20043113986717
 20
47.33595095785437
 30
0.0
  0
LWPOLYLINE
  5
145
330
70
100
AcDbEntity
  8
0
 62
    18
420
        0
370
    25
100
AcDbPolyline
 90
        4
 70
     0
 43
0.0
 10
33.21445809970525
 20
47.33654948786982
 10
33.2093321003053
 20
47.33633093746938
 10
33.20341137220526
 20
47.33607823866954
 10
33.20043114000513
 20
47.33595095786977
  0
SPLINE
  5
146
330
70
100
AcDbEntity
  8
0
 62
    18
420
        0
370
    25
100
AcDbSpline
210
0.0
220
0.0
230
1.0
 70
     8
 71
     3
 72
     8
 73
     4
 74
     0
 42
0.0000000001
 43
0.0000000001
 40
0.0
 40
0.0
 40
0.0
 40
0.0
 40
1.0
 40
1.0
 40
1.0
 40
1.0
 10
33.21445809971167
 20
47.33654948785956
 30
0.0
 10
33.39288224788431
 20
47.34413806676902
 30
0.0
 10
33.5336275616282
 20
47.49099381406275
 30
0.0
 10
33.53363103837669
 20
47.66957926467044
 30
0.0
  0
LWPOLYLINE
  5
147
330
70
100
AcDbEntity
  8
0
 62
    18
420
        0
370
    25
100
AcDbPolyline
 90
       20
 70
     0
 43
0.0
 10
27.86696530550513
 20
32.16334959086957
 10
27.82860723310518
 20
32.12499151836951
 10
27.71463818520521
 20
32.01102247056932
 10
27.52833641740533
 20
31.82472070276976
 10
27.2750613806053
 20
31.57144566586995
 10
26.96209725910528
 20
31.25848154436993
 10
26.59845180480513
 20
30.89483609016957
 10
26.19458314950517
 20
30.4909674347695
 10
25.76210923170517
 20
30.05849351696982
 10
25.31347500450537
 20
29.60985928986948
 10
24.86158487370522
 20
29.15796915906966
 10
24.41943761880527
 20
28.71582190406959
 10
23.9997563478054
 20
28.29614063316919
 10
23.61461100150512
 20
27.91099528686987
 10
23.2750830767054
 20
27.57146736196973
 10
22.99093780090514
 20
27.28732456976934
 10
22.77035591180514
 20
27.06674019706947
 10
22.61967536980538
 20
26.91606213866958
 10
22.54323737990514
 20
26.83962414876967
 10
22.53363109800522
 20
26.83001538336934
  0
LINE
  5
148
330
70
100
AcDbEntity
  8
0
 62
    18
420
        0
370
    25
100
AcDbLine
 10
27.86696530550513
 20
47.16334956606971
 30
0.0
 11
22.53363109800522
 21
47.16334956606971
 31
0.0
  0
LINE
  5
149
330
70
100
AcDbEntity
  8
0
 62
    18
420
        0
370
    25
100
AcDbLine
 10
30.20029840040532
 20
29.49668248706972
 30
0.0
 11
30.20029840040532
 21
32.16334959086957
 31
0.0
  0
LINE
  5
14A
330
70
100
AcDbEntity
  8
0
 62
    18
420
        0
370
    25
100
AcDbLine
 10
30.20029840040532
 20
26.83001538336934
 30
0.0
 11
30.20029840040532
 21
29.49668248706972
 31
0.0
  0
LINE
  5
14B
330
70
100
AcDbEntity
  8
0
 62
    18
420
        0
370
    25
100
AcDbLine
 10
30.20029840040532
 20
32.16334959086957
 30
0.0
 11
30.20029840040532
 21
26.83001538336934
 31
0.0
  0
LWPOLYLINE
  5
14C
330
70
100
AcDbEntity
  8
0
 62
     8
420
  8421504
370
    25
100
AcDbPolyline
 90
        5
 70
     0
 43
0.0
 10
116.549691331105
 20
47.33486565666977
 10
116.5497906722054
 20
47.33478245846998
 10
116.5495224513051
 20
47.33501404736968
 10
116.5477939166055
 20
47.33654700437005
 10
116.5477939166055
 20
47.33654948786982
  0
LINE
  5
14D
330
70
100
AcDbEntity
  8
0
 62
     8
420
  8421504
370
    25
100
AcDbLine
 10
100.5175692554982
 20
47.33486565669799
 30
0.0
 11
100.5188411437743
 21
47.33598060628215
 31
0.0
  0
LINE
  5
14E
330
70
100
AcDbEntity
  8
0
 62
     8
420
  8421504
370
    25
100
AcDbLine
 10
17.18423840578074
 20
47.33486565666719
 30
0.0
 11
17.18550954055395
 21
47.33597960631868
 31
0.0
  0
LWPOLYLINE
  5
14F
330
70
100
AcDbEntity
  8
0
 62
     8
420
  8421504
370
    25
100
AcDbPolyline
 90
        5
 70
     0
 43
0.0
 10
33.21636048130511
 20
47.33486565666977
 10
33.2164548553052
 20
47.33478245846998
 10
33.21618911790536
 20
47.33501404736968
 10
33.21446058320534
 20
47.33654700437005
 10
33.21445809970525
 20
47.33654948786982
  0
SPLINE
  5
150
330
70
100
AcDbEntity
  8
0
 62
    18
420
        0
370
    25
100
AcDbSpline
210
0.0
220
0.0
230
1.0
 70
     8
 71
     3
 72
     8
 73
     4
 74
     0
 42
0.0000000001
 43
0.0000000001
 40
0.0
 40
0.0
 40
0.0
 40
0.0
 40
1.0
 40
1.0
 40
1.0
 40
1.0
 10
183.7999331686281
 20
-47.57406335711439
 30
0.0
 10
183.9013550057486
 20
-47.62783615033359
 30
0.0
 10
184.0233096195619
 20
-47.62563796426614
 30
0.0
 10
184.1227277376115
 20
-47.56824510635686
 30
0.0
  0
SPLINE
  5
151
330
70
100
AcDbEntity
  8
0
 62
    18
420
        0
370
    25
100
AcDbSpline
210
0.0
220
0.0
230
1.0
 70
     8
 71
     3
 72
     8
 73
     4
 74
     0
 42
0.0000000001
 43
0.0000000001
 40
0.0
 40
0.0
 40
0.0
 40
0.0
 40
1.0
 40
1.0
 40
1.0
 40
1.0
 10
172.475712994499
 20
-27.39496131340391
 30
0.0
 10
172.3726056710788
 20
-27.4544839042402
 30
0.0
 10
172.3090720514706
 20
-27.56447952349919
 30
0.0
 10
172.3090328013867
 20
-27.68353437397653
 30
0.0
  0
LINE
  5
152
330
70
100
AcDbEntity
  8
0
 62
    18
420
        0
370
    25
100
AcDbLine
 10
183.7975301398053
 20
-47.57141866253067
 30
0.0
 11
183.8010467674051
 21
-47.57330430433046
 31
0.0
  0
LWPOLYLINE
  5
153
330
70
100
AcDbEntity
  8
0
 62
    18
420
        0
370
    25
100
AcDbPolyline
 90
        3
 70
     0
 43
0.0
 10
174.9741365753052
 20
-42.4802509354306
 10
175.1224636281049
 20
-42.56593762683012
 10
183.7935753605051
 20
-47.56993892963041
  0
LWPOLYLINE
  5
154
330
70
100
AcDbEntity
  8
0
 62
    18
420
        0
370
    25
100
AcDbPolyline
 90
        3
 70
     0
 43
0.0
 10
172.3090570009054
 20
-27.6835262801303
 10
172.3081495266052
 20
-30.74154646733028
 10
172.3092115393054
 20
-37.86044450533041
  0
LINE
  5
155
330
70
100
AcDbEntity
  8
0
 62
    18
420
        0
370
    25
100
AcDbLine
 10
184.1227277594055
 20
-47.56824514533046
 30
0.0
 11
185.1789831008054
 21
-46.95848191593059
 31
0.0
  0
LINE
  5
156
330
70
100
AcDbEntity
  8
0
 62
    18
420
        0
370
    25
100
AcDbLine
 10
173.5319684448055
 20
-26.78519796963018
 30
0.0
 11
172.475713103405
 21
-27.39496119903068
 31
0.0
  0
LINE
  5
157
330
70
100
AcDbEntity
  8
0
 62
    18
420
        0
370
    25
100
AcDbLine
 10
160.5802836053053
 20
-45.16829616853048
 30
0.0
 11
165.4490418862051
 21
-47.97897049713006
 31
0.0
  0
LINE
  5
158
330
70
100
AcDbEntity
  8
0
 62
    18
420
        0
370
    25
100
AcDbLine
 10
165.4490436423051
 20
-41.82073517793057
 30
0.0
 11
163.2467338303051
 21
-40.54936878533015
 31
0.0
  0
LINE
  5
159
330
70
100
AcDbEntity
  8
0
 62
    18
420
        0
370
    25
100
AcDbLine
 10
176.6080377442052
 20
-35.37878500373006
 30
0.0
 11
165.4490436423051
 21
-41.82073517793057
 31
0.0
  0
LINE
  5
15A
330
70
100
AcDbEntity
  8
0
 62
    18
420
        0
370
    25
100
AcDbLine
 10
165.4490418862051
 20
-47.97897049713006
 30
0.0
 11
179.2744862131051
 21
-39.9977113731306
 31
0.0
  0
SPLINE
  5
15B
330
70
100
AcDbEntity
  8
0
 62
    18
420
        0
370
    25
100
AcDbSpline
210
0.0
220
0.0
230
1.0
 70
     8
 71
     3
 72
     8
 73
     4
 74
     0
 42
0.0000000001
 43
0.0000000001
 40
0.0
 40
0.0
 40
0.0
 40
0.0
 40
1.0
 40
1.0
 40
1.0
 40
1.0
 10
124.8743680698282
 20
-13.55705869791467
 30
0.0
 10
124.975789906948
 20
-13.61083149113323
 30
0.0
 10
125.0977445207619
 20
-13.60863330506579
 30
0.0
 10
125.1971626388115
 20
-13.55124044715714
 30
0.0
  0
SPLINE
  5
15C
330
70
100
AcDbEntity
  8
0
 62
    18
420
        0
370
    25
100
AcDbSpline
210
0.0
220
0.0
230
1.0
 70
     8
 71
     3
 72
     8
 73
     4
 74
     0
 42
0.0000000001
 43
0.0000000001
 40
0.0
 40
0.0
 40
0.0
 40
0.0
 40
1.0
 40
1.0
 40
1.0
 40
1.0
 10
113.5501478955989
 20
6.622043345896551
 30
0.0
 10
113.4470405721787
 20
6.562520755059618
 30
0.0
 10
113.3835069525705
 20
6.452525135800638
 30
0.0
 10
113.3834677024866
 20
6.333470285323288
 30
0.0
  0
LINE
  5
15D
330
70
100
AcDbEntity
  8
0
 62
    18
420
        0
370
    25
100
AcDbLine
 10
119.205851167405
 20
-10.28627558883062
 30
0.0
 11
124.867605476205
 21
-13.55319126753028
 31
0.0
  0
LINE
  5
15E
330
70
100
AcDbEntity
  8
0
 62
    18
420
        0
370
    25
100
AcDbLine
 10
124.8719632848053
 20
-13.55441298943043
 30
0.0
 11
124.8754869369054
 21
-13.55630268643061
 31
0.0
  0
LWPOLYLINE
  5
15F
330
70
100
AcDbEntity
  8
0
 62
    18
420
        0
370
    25
100
AcDbPolyline
 90
        3
 70
     0
 43
0.0
 10
113.3834936581052
 20
6.333477365269644
 10
113.3825844277052
 20
3.275458191869442
 10
113.3836446844055
 20
-3.843438832230166
  0
LINE
  5
160
330
70
100
AcDbEntity
  8
0
 62
    18
420
        0
370
    25
100
AcDbLine
 10
125.1971626605054
 20
-13.55124048603063
 30
0.0
 11
126.2534180019053
 21
-12.94147725663013
 31
0.0
  0
LINE
  5
161
330
70
100
AcDbEntity
  8
0
 62
    18
420
        0
370
    25
100
AcDbLine
 10
114.6064033460055
 20
7.231806689669643
 30
0.0
 11
113.5501480045055
 21
6.62204346026978
 31
0.0
  0
LINE
  5
162
330
70
100
AcDbEntity
  8
0
 62
    18
420
        0
370
    25
100
AcDbLine
 10
116.0487659666049
 20
-8.463134506330682
 30
0.0
 11
119.2058915581051
 21
-10.28624061133039
 31
0.0
  0
LINE
  5
163
330
70
100
AcDbEntity
  8
0
 62
    18
420
        0
370
    25
100
AcDbLine
 10
111.3922368243054
 20
-10.61440484733043
 30
0.0
 11
109.1899270123054
 21
-9.34303845473066
 31
0.0
  0
LINE
  5
164
330
70
100
AcDbEntity
  8
0
 62
    18
420
        0
370
    25
100
AcDbLine
 10
103.8570283183051
 20
-12.42265790183043
 30
0.0
 11
108.7257865992049
 21
-15.23333223053011
 31
0.0
  0
LINE
  5
165
330
70
100
AcDbEntity
  8
0
 62
    18
420
        0
370
    25
100
AcDbLine
 10
117.6824726453051
 20
-1.361780344430234
 30
0.0
 11
103.8570283183051
 21
-9.343039468530438
 31
0.0
  0
LINE
  5
166
330
70
100
AcDbEntity
  8
0
 62
    18
420
        0
370
    25
100
AcDbLine
 10
111.8572430039053
 20
-10.88284814193054
 30
0.0
 11
120.348921114205
 21
-5.980706713830135
 31
0.0
  0
LINE
  5
167
330
70
100
AcDbEntity
  8
0
 62
    18
420
        0
370
    25
100
AcDbLine
 10
108.7257865992049
 20
-15.23333223053011
 30
0.0
 11
160.5802836053053
 21
-45.16829616853048
 31
0.0
  0
LINE
  5
168
330
70
100
AcDbEntity
  8
0
 62
    18
420
        0
370
    25
100
AcDbLine
 10
163.2467338303051
 20
-40.54936878533015
 30
0.0
 11
111.3922368243054
 21
-10.61440484733043
 31
0.0
  0
SPLINE
  5
169
330
70
100
AcDbEntity
  8
0
 62
    18
420
        0
370
    25
100
AcDbSpline
210
0.0
220
0.0
230
1.0
 70
     8
 71
     3
 72
     8
 73
     4
 74
     0
 42
0.0000000001
 43
0.0000000001
 40
0.0
 40
0.0
 40
0.0
 40
0.0
 40
1.0
 40
1.0
 40
1.0
 40
1.0
 10
184.1917783462123
 20
-34.3509778973146
 30
0.0
 10
184.184209118286
 20
-34.18468151276876
 30
0.0
 10
184.0963079844635
 20
-34.03243247245944
 30
0.0
 10
183.9560756081524
 20
-33.9427292876855
 30
0.0
  0
SPLINE
  5
16A
330
70
100
AcDbEntity
  8
0
 62
    18
420
        0
370
    25
100
AcDbSpline
210
0.0
220
0.0
230
1.0
 70
     8
 71
     3
 72
     8
 73
     4
 74
     0
 42
0.0000000001
 43
0.0000000001
 40
0.0
 40
0.0
 40
0.0
 40
0.0
 40
1.0
 40
1.0
 40
1.0
 40
1.0
 10
183.7206740444048
 20
-34.33934079892125
 30
0.0
 10
183.8673493414836
 20
-34.41628992922812
 30
0.0
 10
184.0414826980993
 20
-34.4205913270079
 30
0.0
 10
184.1917783461699
 20
-34.35097789727609
 30
0.0
  0
SPLINE
  5
16B
330
70
100
AcDbEntity
  8
0
 62
    18
420
        0
370
    25
100
AcDbSpline
210
0.0
220
0.0
230
1.0
 70
     8
 71
     3
 72
     8
 73
     4
 74
     0
 42
0.0000000001
 43
0.0000000001
 40
0.0
 40
0.0
 40
0.0
 40
0.0
 40
1.0
 40
1.0
 40
1.0
 40
1.0
 10
183.9560756080773
 20
-33.94272928762197
 30
0.0
 10
183.8195412346812
 20
-34.03049741642491
 30
0.0
 10
183.7323212788516
 20
-34.1774481755894
 30
0.0
 10
183.7206740443721
 20
-34.33934079889623
 30
0.0
  0
SPLINE
  5
16C
330
70
100
AcDbEntity
  8
0
 62
    18
420
        0
370
    25
100
AcDbSpline
210
0.0
220
0.0
230
1.0
 70
     8
 71
     3
 72
     8
 73
     4
 74
     0
 42
0.0000000001
 43
0.0000000001
 40
0.0
 40
0.0
 40
0.0
 40
0.0
 40
1.0
 40
1.0
 40
1.0
 40
1.0
 10
183.7306013833345
 20
-34.35080612716685
 30
0.0
 10
183.8754954845742
 20
-34.42443791237012
 30
0.0
 10
184.046829435306
 20
-34.42450172744786
 30
0.0
 10
184.1917783461558
 20
-34.35097789723182
 30
0.0
  0
SPLINE
  5
16D
330
70
100
AcDbEntity
  8
0
 62
    18
420
        0
370
    25
100
AcDbSpline
210
0.0
220
0.0
230
1.0
 70
     8
 71
     3
 72
     8
 73
     4
 74
     0
 42
0.0000000001
 43
0.0000000001
 40
0.0
 40
0.0
 40
0.0
 40
0.0
 40
1.0
 40
1.0
 40
1.0
 40
1.0
 10
183.7306013833487
 20
-34.35080612720021
 30
0.0
 10
183.7273660334902
 20
-34.34899974120344
 30
0.0
 10
183.7234054601694
 20
-34.34909033402532
 30
0.0
 10
183.7202560881577
 20
-34.35104276200277
 30
0.0
  0
LWPOLYLINE
  5
16E
330
70
100
AcDbEntity
  8
0
 62
    18
420
        0
370
    25
100
AcDbPolyline
 90
        3
 70
     0
 43
0.0
 10
183.7202560882052
 20
-34.35104276203036
 10
183.720256527205
 20
-34.35102628533011
 10
183.7206740444055
 20
-34.33934079893024
  0
LWPOLYLINE
  5
16F
330
70
100
AcDbEntity
  8
0
 62
    18
420
        0
370
    25
100
AcDbPolyline
 90
        4
 70
     0
 43
0.0
 10
184.1917783462052
 20
-34.35097789723053
 10
184.1906390642052
 20
-38.68097947453055
 10
184.1906294055053
 20
-43.01032880733052
 10
184.1917783462052
 20
-47.41563100103069
  0
SPLINE
  5
170
330
70
100
AcDbEntity
  8
0
 62
    18
420
        0
370
    25
100
AcDbSpline
210
0.0
220
0.0
230
1.0
 70
     8
 71
     3
 72
     8
 73
     4
 74
     0
 42
0.0000000001
 43
0.0000000001
 40
0.0
 40
0.0
 40
0.0
 40
0.0
 40
1.0
 40
1.0
 40
1.0
 40
1.0
 10
183.7305996272776
 20
-47.4213918553218
 30
0.0
 10
183.8766500309785
 20
-47.49222822215528
 30
0.0
 10
184.0475429559753
 20
-47.49009349824778
 30
0.0
 10
184.1917783462174
 20
-47.41563100104929
 30
0.0
  0
LWPOLYLINE
  5
171
330
70
100
AcDbEntity
  8
0
 62
    18
420
        0
370
    25
100
AcDbPolyline
 90
        7
 70
     0
 43
0.0
 10
183.7305996272051
 20
-47.42139185523067
 10
183.730617188405
 20
-46.87723600953048
 10
183.7306918235052
 20
-44.70052569443054
 10
183.7307638243051
 20
-40.34624055843061
 10
183.7307379216055
 20
-38.68725986893043
 10
183.7305996272051
 20
-34.35653190563018
 10
183.7306013834051
 20
-34.35080612723037
  0
LWPOLYLINE
  5
172
330
70
100
AcDbEntity
  8
0
 62
    18
420
        0
370
    25
100
AcDbPolyline
 90
        4
 70
     0
 43
0.0
 10
179.2657205467053
 20
-36.92340512783018
 10
180.6578340262054
 20
-36.11949796523028
 10
182.2338623037052
 20
-35.20939086623068
 10
183.7202560882052
 20
-34.35104276203036
  0
LWPOLYLINE
  5
173
330
70
100
AcDbEntity
  8
0
 62
    18
420
        0
370
    25
100
AcDbPolyline
 90
        3
 70
     0
 43
0.0
 10
183.7202560882052
 20
-47.41591183723033
 10
183.7202705761049
 20
-47.41591969403038
 10
183.7305996272051
 20
-47.42139185523067
  0
SPLINE
  5
174
330
70
100
AcDbEntity
  8
0
 62
    18
420
        0
370
    25
100
AcDbSpline
210
0.0
220
0.0
230
1.0
 70
     8
 71
     3
 72
     8
 73
     4
 74
     0
 42
0.0000000001
 43
0.0000000001
 40
0.0
 40
0.0
 40
0.0
 40
0.0
 40
1.0
 40
1.0
 40
1.0
 40
1.0
 10
179.2791144639495
 20
-40.00502510774819
 30
0.0
 10
180.7373482886071
 20
-42.48852532250089
 30
0.0
 10
182.2177881635079
 20
-44.95891990817907
 30
0.0
 10
183.7202560881673
 20
-47.41591183723033
 30
0.0
  0
LWPOLYLINE
  5
175
330
70
100
AcDbEntity
  8
0
 62
    18
420
        0
370
    25
100
AcDbPolyline
 90
        5
 70
     0
 43
0.0
 10
183.7206740444055
 20
-34.33934079893024
 10
183.2491030541049
 20
-34.0670878431302
 10
181.362887142505
 20
-32.97811278403015
 10
179.712566702905
 20
-32.02534368983055
 10
178.0624732417055
 20
-31.07274115823057
  0
SPLINE
  5
176
330
70
100
AcDbEntity
  8
0
 62
    18
420
        0
370
    25
100
AcDbSpline
210
0.0
220
0.0
230
1.0
 70
     8
 71
     3
 72
     8
 73
     4
 74
     0
 42
0.0000000001
 43
0.0000000001
 40
0.0
 40
0.0
 40
0.0
 40
0.0
 40
1.0
 40
1.0
 40
1.0
 40
1.0
 10
178.2978980740031
 20
-30.67785968570423
 30
0.0
 10
178.1618461636288
 20
-30.76529005498056
 30
0.0
 10
178.0746886708101
 20
-30.91148057689893
 30
0.0
 10
178.0624732417254
 20
-31.07274115819656
 30
0.0
  0
LWPOLYLINE
  5
177
330
70
100
AcDbEntity
  8
0
 62
    18
420
        0
370
    25
100
AcDbPolyline
 90
        4
 70
     0
 43
0.0
 10
178.297898074005
 20
-30.67785968573053
 10
180.982700178405
 20
-32.22735490123054
 10
182.469338063405
 20
-33.08507086063047
 10
183.9560756081049
 20
-33.94272928763032
  0
SPLINE
  5
178
330
70
100
AcDbEntity
  8
0
 62
    18
420
        0
370
    25
100
AcDbSpline
210
0.0
220
0.0
230
1.0
 70
     8
 71
     3
 72
     8
 73
     4
 74
     0
 42
0.0000000001
 43
0.0000000001
 40
0.0
 40
0.0
 40
0.0
 40
0.0
 40
1.0
 40
1.0
 40
1.0
 40
1.0
 10
185.2480336876128
 20
-33.74121466781462
 30
0.0
 10
185.2404644596859
 20
-33.57491828326879
 30
0.0
 10
185.1525633258633
 20
-33.42266924295947
 30
0.0
 10
185.0123309495529
 20
-33.33296605818553
 30
0.0
  0
LINE
  5
179
330
70
100
AcDbEntity
  8
0
 62
    18
420
        0
370
    25
100
AcDbLine
 10
185.2480336876051
 20
-33.74121466783067
 30
0.0
 11
184.1917783462052
 21
-34.35097789723053
 31
0.0
  0
LINE
  5
17A
330
70
100
AcDbEntity
  8
0
 62
    18
420
        0
370
    25
100
AcDbLine
 10
183.9560756081049
 20
-33.94272928763032
 30
0.0
 11
185.0123309495054
 21
-33.33296605823045
 31
0.0
  0
SPLINE
  5
17B
330
70
100
AcDbEntity
  8
0
 62
    18
420
        0
370
    25
100
AcDbSpline
210
0.0
220
0.0
230
1.0
 70
     8
 71
     3
 72
     8
 73
     4
 74
     0
 42
0.0000000001
 43
0.0000000001
 40
0.0
 40
0.0
 40
0.0
 40
0.0
 40
1.0
 40
1.0
 40
1.0
 40
1.0
 10
172.406361342336
 20
-27.81967034942051
 30
0.0
 10
173.7890640288578
 20
-30.35974502099736
 30
0.0
 10
175.1951447906448
 20
-32.88702380987224
 30
0.0
 10
176.6244245268553
 20
-35.40118480156685
 30
0.0
  0
LWPOLYLINE
  5
17C
330
70
100
AcDbEntity
  8
0
 62
    18
420
        0
370
    25
100
AcDbPolyline
 90
        3
 70
     0
 43
0.0
 10
178.061922698505
 20
-31.08615769983028
 10
178.062230897405
 20
-31.07864435543018
 10
178.0624732417055
 20
-31.07274115823057
  0
LWPOLYLINE
  5
17D
330
70
100
AcDbEntity
  8
0
 62
    18
420
        0
370
    25
100
AcDbPolyline
 90
        4
 70
     0
 43
0.0
 10
183.7202560882052
 20
-34.35104276203036
 10
182.2465638711052
 20
-33.5009385594307
 10
180.7729721919051
 20
-32.65077631753042
 10
178.061922698505
 20
-31.08615769983028
  0
LINE
  5
17E
330
70
100
AcDbEntity
  8
0
 62
    18
420
        0
370
    25
100
AcDbLine
 10
185.2480336876051
 20
-46.80586777153007
 30
0.0
 11
185.2480336876051
 21
-33.74121466783067
 31
0.0
  0
LINE
  5
17F
330
70
100
AcDbEntity
  8
0
 62
    18
420
        0
370
    25
100
AcDbLine
 10
184.1917783462052
 20
-47.41563100103069
 30
0.0
 11
185.2480336876051
 21
-46.80586777153007
 31
0.0
  0
LINE
  5
180
330
70
100
AcDbEntity
  8
0
 62
    18
420
        0
370
    25
100
AcDbLine
 10
185.0123309495054
 20
-33.33296605823045
 30
0.0
 11
173.6986223522054
 21
-26.80170110683068
 31
0.0
  0
LWPOLYLINE
  5
181
330
70
100
AcDbEntity
  8
0
 62
    18
420
        0
370
    25
100
AcDbPolyline
 90
        4
 70
     0
 43
0.0
 10
172.6423670108055
 20
-27.41146433633065
 10
175.3259117342053
 20
-28.96167528453016
 10
176.8118050249054
 20
-29.8198251441306
 10
178.297898074005
 20
-30.67785968573053
  0
LINE
  5
182
330
70
100
AcDbEntity
  8
0
 62
    18
420
        0
370
    25
100
AcDbLine
 10
173.6986223522054
 20
-26.80170110683068
 30
0.0
 11
172.6423670108055
 21
-27.41146433633065
 31
0.0
  0
LWPOLYLINE
  5
183
330
70
100
AcDbEntity
  8
0
 62
    18
420
        0
370
    25
100
AcDbPolyline
 90
        6
 70
     0
 43
0.0
 10
178.0624732417055
 20
-31.07274115823057
 10
177.5910809365054
 20
-30.80061369593036
 10
175.7057132302055
 20
-29.71225874713054
 10
174.0561869954055
 20
-28.76007604433059
 10
172.4067863230052
 20
-27.8079724414303
 10
172.4018323122053
 20
-27.8051130591304
  0
SPLINE
  5
184
330
70
100
AcDbEntity
  8
0
 62
    18
420
        0
370
    25
100
AcDbSpline
210
0.0
220
0.0
230
1.0
 70
     8
 71
     3
 72
     8
 73
     4
 74
     0
 42
0.0000000001
 43
0.0000000001
 40
0.0
 40
0.0
 40
0.0
 40
0.0
 40
1.0
 40
1.0
 40
1.0
 40
1.0
 10
172.6423670107618
 20
-27.41146433630241
 30
0.0
 10
172.5019405278112
 20
-27.49474433360326
 30
0.0
 10
172.4118653050016
 20
-27.64215756180992
 30
0.0
 10
172.4018323121321
 20
-27.8051130591657
 30
0.0
  0
SPLINE
  5
185
330
70
100
AcDbEntity
  8
0
 62
    18
420
        0
370
    25
100
AcDbSpline
210
0.0
220
0.0
230
1.0
 70
     8
 71
     3
 72
     8
 73
     4
 74
     0
 42
0.0000000001
 43
0.0000000001
 40
0.0
 40
0.0
 40
0.0
 40
0.0
 40
1.0
 40
1.0
 40
1.0
 40
1.0
 10
172.4018323121206
 20
-27.80511305919008
 30
0.0
 10
172.4021174930071
 20
-27.81026489600316
 30
0.0
 10
172.4036734379425
 20
-27.81526604227466
 30
0.0
 10
172.4063613422166
 20
-27.81967034940575
 30
0.0
  0
LWPOLYLINE
  5
186
330
70
100
AcDbEntity
  8
0
 62
    18
420
        0
370
    25
100
AcDbPolyline
 90
        4
 70
     0
 43
0.0
 10
178.061922698505
 20
-31.08615769983028
 10
176.588901318805
 20
-30.23566420353051
 10
175.116085844005
 20
-29.38505184083027
 10
172.4063613423052
 20
-27.81967034933067
  0
LWPOLYLINE
  5
187
330
70
100
AcDbEntity
  8
0
 62
    18
420
        0
370
    25
100
AcDbPolyline
 90
        3
 70
     0
 43
0.0
 10
172.4063613423052
 20
-27.81967034933067
 10
172.4063477323055
 20
-27.8196619856301
 10
172.3968624963054
 20
-27.81370472793021
  0
SPLINE
  5
188
330
70
100
AcDbEntity
  8
0
 62
    18
420
        0
370
    25
100
AcDbSpline
210
0.0
220
0.0
230
1.0
 70
     8
 71
     3
 72
     8
 73
     4
 74
     0
 42
0.0000000001
 43
0.0000000001
 40
0.0
 40
0.0
 40
0.0
 40
0.0
 40
1.0
 40
1.0
 40
1.0
 40
1.0
 10
183.7256350797372
 20
-47.4299825103045
 30
0.0
 10
183.7249599248424
 20
-47.42493800022963
 30
0.0
 10
183.7231181992199
 20
-47.42012030923619
 30
0.0
 10
183.7202560881962
 20
-47.4159118372438
 30
0.0
  0
SPLINE
  5
189
330
70
100
AcDbEntity
  8
0
 62
    18
420
        0
370
    25
100
AcDbSpline
210
0.0
220
0.0
230
1.0
 70
     8
 71
     3
 72
     8
 73
     4
 74
     0
 42
0.0000000001
 43
0.0000000001
 40
0.0
 40
0.0
 40
0.0
 40
0.0
 40
1.0
 40
1.0
 40
1.0
 40
1.0
 10
172.6423670107683
 20
-27.41146433628124
 30
0.0
 10
172.4977790603511
 20
-27.49540379834626
 30
0.0
 10
172.4054142175382
 20
-27.64673653705296
 30
0.0
 10
172.3968624962515
 20
-27.81370472791674
 30
0.0
  0
SPLINE
  5
18A
330
70
100
AcDbEntity
  8
0
 62
    18
420
        0
370
    25
100
AcDbSpline
210
0.0
220
0.0
230
1.0
 70
     8
 71
     3
 72
     8
 73
     4
 74
     0
 42
0.0000000001
 43
0.0000000001
 40
0.0
 40
0.0
 40
0.0
 40
0.0
 40
1.0
 40
1.0
 40
1.0
 40
1.0
 10
183.7305996272622
 20
-47.42139185529934
 30
0.0
 10
183.723219373227
 20
-47.48126221348559
 30
0.0
 10
183.7499948103808
 20
-47.5402221052253
 30
0.0
 10
183.799932071122
 20
-47.57406287839407
 30
0.0
  0
LWPOLYLINE
  5
18B
330
70
100
AcDbEntity
  8
0
 62
    18
420
        0
370
    25
100
AcDbPolyline
 90
        4
 70
     0
 43
0.0
 10
183.7986285920053
 20
-47.56912268253066
 10
183.7822325899054
 20
-47.56319402903006
 10
183.7418646896054
 20
-47.50955057153052
 10
183.7256350797051
 20
-47.42998251023006
  0
SPLINE
  5
18C
330
70
100
AcDbEntity
  8
0
 62
    18
420
        0
370
    25
100
AcDbSpline
210
0.0
220
0.0
230
1.0
 70
     8
 71
     3
 72
     8
 73
     4
 74
     0
 42
0.0000000001
 43
0.0000000001
 40
0.0
 40
0.0
 40
0.0
 40
0.0
 40
1.0
 40
1.0
 40
1.0
 40
1.0
 10
185.1789831007618
 20
-46.95848191590043
 30
0.0
 10
185.2292910795642
 20
-46.92500123897017
 30
0.0
 10
185.2560957609601
 20
-46.86575809992752
 30
0.0
 10
185.2480336875723
 20
-46.8058677715628
 30
0.0
  0
SPLINE
  5
18D
330
70
100
AcDbEntity
  8
0
 62
    18
420
        0
370
    25
100
AcDbSpline
210
0.0
220
0.0
230
1.0
 70
     8
 71
     3
 72
     8
 73
     4
 74
     0
 42
0.0000000001
 43
0.0000000001
 40
0.0
 40
0.0
 40
0.0
 40
0.0
 40
1.0
 40
1.0
 40
1.0
 40
1.0
 10
173.6986223521855
 20
-26.80170110689485
 30
0.0
 10
173.6499931122751
 20
-26.76686323156347
 30
0.0
 10
173.5864859432889
 20
-26.7605743449493
 30
0.0
 10
173.531968444817
 20
-26.78519796962697
 30
0.0
  0
LWPOLYLINE
  5
18E
330
70
100
AcDbEntity
  8
0
 62
    18
420
        0
370
    25
100
AcDbPolyline
 90
       18
 70
     0
 43
0.0
 10
163.2467338303051
 20
-40.54936878533015
 10
163.1417477868052
 20
-40.49763326223065
 10
162.8286019707055
 20
-40.42672125943063
 10
162.4779928747055
 20
-40.45537961163045
 10
162.1042732567052
 20
-40.58243614453028
 10
161.7227441789052
 20
-40.80268819303046
 10
161.349022804805
 20
-41.10712016023065
 10
160.9984137087049
 20
-41.48326645383018
 10
160.6852678927054
 20
-41.91572892013062
 10
160.4224067791051
 20
-42.38680189053003
 10
160.2205918634053
 20
-42.87719976873068
 10
160.0880839278052
 20
-43.36684641223053
 10
160.030311135205
 20
-43.83569366113031
 10
160.049633709105
 20
-44.26454985563029
 10
160.1452666645051
 20
-44.63585401193053
 10
160.3132885883053
 20
-44.93440849743039
 10
160.5468260320053
 20
-45.14798727573051
 10
160.5802836053053
 20
-45.16829616853048
  0
LWPOLYLINE
  5
18F
330
70
100
AcDbEntity
  8
0
 62
    18
420
        0
370
    25
100
AcDbPolyline
 90
       21
 70
     0
 43
0.0
 10
165.4490418862051
 20
-47.97897049713006
 10
165.4490418862051
 20
-47.97827142653048
 10
165.4490436423051
 20
-47.92290484873042
 10
165.4490418862051
 20
-47.78056907923067
 10
165.4490436423051
 20
-47.55536138303015
 10
165.4490436423051
 20
-47.25375834283035
 10
165.4490436423051
 20
-46.8844383356303
 10
165.4490436423051
 20
-46.45802610543068
 10
165.4490418862051
 20
-45.98678680333036
 10
165.4490436423051
 20
-45.48427931893006
 10
165.4490418862051
 20
-44.96495775263058
 10
165.4490418862051
 20
-44.44376392493038
 10
165.4490418862051
 20
-43.9356910938301
 10
165.4490418862051
 20
-43.45535654693033
 10
165.4490418862051
 20
-43.01657578653053
 10
165.4490418862051
 20
-42.63197461043037
 10
165.4490418862051
 20
-42.31261615553029
 10
165.4490418862051
 20
-42.0676863686303
 10
165.4490418862051
 20
-41.90423397653042
 10
165.4490418862051
 20
-41.82696077363052
 10
165.4490436423051
 20
-41.82073517793057
  0
SPLINE
  5
190
330
70
100
AcDbEntity
  8
0
 62
    18
420
        0
370
    25
100
AcDbSpline
210
0.0
220
0.0
230
1.0
 70
     8
 71
     3
 72
     8
 73
     4
 74
     0
 42
0.0000000001
 43
0.0000000001
 40
0.0
 40
0.0
 40
0.0
 40
0.0
 40
1.0
 40
1.0
 40
1.0
 40
1.0
 10
177.9412619786471
 20
-35.5108059199538
 30
0.0
 10
177.552771913157
 20
-35.23066851846517
 30
0.0
 10
177.0439247407765
 20
-35.18028054306372
 30
0.0
 10
176.608037744177
 20
-35.37878500370054
 30
0.0
  0
LWPOLYLINE
  5
191
330
70
100
AcDbEntity
  8
0
 62
    18
420
        0
370
    25
100
AcDbPolyline
 90
       13
 70
     0
 43
0.0
 10
179.2744862131051
 20
-39.9977113731306
 10
179.4323612832054
 20
-39.88186690743009
 10
179.6341779550051
 20
-39.62448058503044
 10
179.7666841345053
 20
-39.28782333363044
 10
179.8244604393054
 20
-38.88568115883027
 10
179.8051361093053
 20
-38.43451458163015
 10
179.7095049100052
 20
-37.95279597903049
 10
179.5414794739051
 20
-37.46024548193054
 10
179.307943786305
 20
-36.97703112433051
 10
179.0184546451053
 20
-36.52293329703044
 10
178.6848658514055
 20
-36.11654407853063
 10
178.3208329841054
 20
-35.77450010173018
 10
177.9412619786054
 20
-35.51080591993006
  0
SPLINE
  5
192
330
70
100
AcDbEntity
  8
0
 62
    18
420
        0
370
    25
100
AcDbSpline
210
0.0
220
0.0
230
1.0
 70
     8
 71
     3
 72
     8
 73
     4
 74
     0
 42
0.0000000001
 43
0.0000000001
 40
0.0
 40
0.0
 40
0.0
 40
0.0
 40
1.0
 40
1.0
 40
1.0
 40
1.0
 10
124.7951107017009
 20
-0.3223371534237756
 30
0.0
 10
124.9417852077342
 20
-0.3992850961375915
 30
0.0
 10
125.1159172650986
 20
-0.4035857444443354
 30
0.0
 10
125.266211491229
 20
-0.3339722242066511
 30
0.0
  0
SPLINE
  5
193
330
70
100
AcDbEntity
  8
0
 62
    18
420
        0
370
    25
100
AcDbSpline
210
0.0
220
0.0
230
1.0
 70
     8
 71
     3
 72
     8
 73
     4
 74
     0
 42
0.0000000001
 43
0.0000000001
 40
0.0
 40
0.0
 40
0.0
 40
0.0
 40
1.0
 40
1.0
 40
1.0
 40
1.0
 10
125.0305087531383
 20
0.0742763854134609
 30
0.0
 10
124.8939767243115
 20
-0.0134944382238413
 30
0.0
 10
124.8067585778884
 20
-0.1604450926097924
 30
0.0
 10
124.7951107016707
 20
-0.3223371534321177
 30
0.0
  0
SPLINE
  5
194
330
70
100
AcDbEntity
  8
0
 62
    18
420
        0
370
    25
100
AcDbSpline
210
0.0
220
0.0
230
1.0
 70
     8
 71
     3
 72
     8
 73
     4
 74
     0
 42
0.0000000001
 43
0.0000000001
 40
0.0
 40
0.0
 40
0.0
 40
0.0
 40
1.0
 40
1.0
 40
1.0
 40
1.0
 10
125.2662114911532
 20
-0.3339722241694325
 30
0.0
 10
125.2586439012433
 20
-0.1676753605432914
 30
0.0
 10
125.1707423633076
 20
-0.0154256202898309
 30
0.0
 10
125.030508753094
 20
0.0742763854590216
 30
0.0
  0
LWPOLYLINE
  5
195
330
70
100
AcDbEntity
  8
0
 62
    18
420
        0
370
    25
100
AcDbPolyline
 90
        7
 70
     0
 43
0.0
 10
124.8050345284051
 20
-13.40438719603032
 10
124.8050538457049
 20
-12.86023236403043
 10
124.8051267246051
 20
-10.68352103513008
 10
124.8051969693051
 20
-6.329234885330373
 10
124.8051728227054
 20
-4.670255209630608
 10
124.8050345284051
 20
-0.339527246330362
 10
124.8050345284051
 20
-0.3338004541301326
  0
SPLINE
  5
196
330
70
100
AcDbEntity
  8
0
 62
    18
420
        0
370
    25
100
AcDbSpline
210
0.0
220
0.0
230
1.0
 70
     8
 71
     3
 72
     8
 73
     4
 74
     0
 42
0.0000000001
 43
0.0000000001
 40
0.0
 40
0.0
 40
0.0
 40
0.0
 40
1.0
 40
1.0
 40
1.0
 40
1.0
 10
124.8050345283647
 20
-0.3338004541147318
 30
0.0
 10
124.9499282085195
 20
-0.4074339959453785
 30
0.0
 10
125.121263000112
 20
-0.4074978113362694
 30
0.0
 10
125.266211491186
 20
-0.3339722241790581
 30
0.0
  0
LWPOLYLINE
  5
197
330
70
100
AcDbEntity
  8
0
 62
    18
420
        0
370
    25
100
AcDbPolyline
 90
        4
 70
     0
 43
0.0
 10
125.2662114912052
 20
-0.333972224230394
 10
125.2650722092052
 20
-4.663973801430306
 10
125.2650625505053
 20
-8.993323134230271
 10
125.2662114912052
 20
-13.39862532793045
  0
SPLINE
  5
198
330
70
100
AcDbEntity
  8
0
 62
    18
420
        0
370
    25
100
AcDbSpline
210
0.0
220
0.0
230
1.0
 70
     8
 71
     3
 72
     8
 73
     4
 74
     0
 42
0.0000000001
 43
0.0000000001
 40
0.0
 40
0.0
 40
0.0
 40
0.0
 40
1.0
 40
1.0
 40
1.0
 40
1.0
 10
124.8050345283904
 20
-13.40438719602775
 30
0.0
 10
124.9510845576855
 20
-13.47522288388974
 30
0.0
 10
125.1219767927038
 20
-13.47308778480713
 30
0.0
 10
125.2662114912116
 20
-13.39862532796895
 30
0.0
  0
LWPOLYLINE
  5
199
330
70
100
AcDbEntity
  8
0
 62
    18
420
        0
370
    25
100
AcDbPolyline
 90
        3
 70
     0
 43
0.0
 10
124.794692745405
 20
-0.3340391165303189
 10
124.7946931844054
 20
-0.334022639830069
 10
124.7951107017054
 20
-0.3223371534301926
  0
SPLINE
  5
19A
330
70
100
AcDbEntity
  8
0
 62
    18
420
        0
370
    25
100
AcDbSpline
210
0.0
220
0.0
230
1.0
 70
     8
 71
     3
 72
     8
 73
     4
 74
     0
 42
0.0000000001
 43
0.0000000001
 40
0.0
 40
0.0
 40
0.0
 40
0.0
 40
1.0
 40
1.0
 40
1.0
 40
1.0
 10
124.8050345283121
 20
-0.3338004540961225
 30
0.0
 10
124.8017999808039
 20
-0.3319949813333376
 30
0.0
 10
124.7978405622558
 20
-0.3320863547679742
 30
0.0
 10
124.7946927453588
 20
-0.3340391164699991
 30
0.0
  0
LWPOLYLINE
  5
19B
330
70
100
AcDbEntity
  8
0
 62
    18
420
        0
370
    25
100
AcDbPolyline
 90
        4
 70
     0
 43
0.0
 10
113.7168001558055
 20
6.605541336769596
 10
117.4647810995051
 20
4.440562605869534
 10
121.2138899105049
 20
2.276237006369467
 10
125.0305087531049
 20
0.0742763854699304
  0
LWPOLYLINE
  5
19C
330
70
100
AcDbEntity
  8
0
 62
    18
420
        0
370
    25
100
AcDbPolyline
 90
        7
 70
     0
 43
0.0
 10
124.7951107017054
 20
-0.3223371534301926
 10
124.3235366381054
 20
-0.050081916630067
 10
122.4373220436055
 20
1.038891367969369
 10
118.665604082605
 20
3.216340020869427
 10
117.229301388505
 20
4.045470481669483
 10
113.481222980205
 20
6.209031204069744
 10
113.4762654572053
 20
6.211892613869733
  0
SPLINE
  5
19D
330
70
100
AcDbEntity
  8
0
 62
    18
420
        0
370
    25
100
AcDbSpline
210
0.0
220
0.0
230
1.0
 70
     8
 71
     3
 72
     8
 73
     4
 74
     0
 42
0.0000000001
 43
0.0000000001
 40
0.0
 40
0.0
 40
0.0
 40
0.0
 40
1.0
 40
1.0
 40
1.0
 40
1.0
 10
113.716800155817
 20
6.605541336795906
 30
0.0
 10
113.5763819536165
 20
6.522252948979797
 30
0.0
 10
113.4863096945549
 20
6.374844571116289
 30
0.0
 10
113.4762654571867
 20
6.211892613932619
 30
0.0
  0
LWPOLYLINE
  5
19E
330
70
100
AcDbEntity
  8
0
 62
    18
420
        0
370
    25
100
AcDbPolyline
 90
        5
 70
     0
 43
0.0
 10
120.3449922377051
 20
-2.903608963630167
 10
120.9983636590051
 20
-2.526304050430101
 10
121.7260654381052
 20
-2.106076402430645
 10
122.4615165298053
 20
-1.681375193730592
 10
124.794692745405
 20
-0.3340391165303189
  0
LWPOLYLINE
  5
19F
330
70
100
AcDbEntity
  8
0
 62
    18
420
        0
370
    25
100
AcDbPolyline
 90
        3
 70
     0
 43
0.0
 10
124.794692745405
 20
-13.39890819173028
 10
124.7947072334055
 20
-13.39891604853033
 10
124.8050345284051
 20
-13.40438719603032
  0
SPLINE
  5
1A0
330
70
100
AcDbEntity
  8
0
 62
    18
420
        0
370
    25
100
AcDbSpline
210
0.0
220
0.0
230
1.0
 70
     8
 71
     3
 72
     8
 73
     4
 74
     0
 42
0.0000000001
 43
0.0000000001
 40
0.0
 40
0.0
 40
0.0
 40
0.0
 40
1.0
 40
1.0
 40
1.0
 40
1.0
 10
120.3499273703885
 20
-5.981865972380021
 30
0.0
 10
121.8093399306865
 20
-8.467435189117841
 30
0.0
 10
123.2909878285996
 20
-10.93988178321796
 30
0.0
 10
124.7946927452054
 20
-13.39890819139788
 30
0.0
  0
SPLINE
  5
1A1
330
70
100
AcDbEntity
  8
0
 62
    18
420
        0
370
    25
100
AcDbSpline
210
0.0
220
0.0
230
1.0
 70
     8
 71
     3
 72
     8
 73
     4
 74
     0
 42
0.0000000001
 43
0.0000000001
 40
0.0
 40
0.0
 40
0.0
 40
0.0
 40
1.0
 40
1.0
 40
1.0
 40
1.0
 10
113.4807979993708
 20
6.197333296471613
 30
0.0
 10
114.8623521099274
 20
3.658594030072249
 30
0.0
 10
116.266651745037
 20
1.13229882568415
 30
0.0
 10
117.6935274124005
 20
-1.381247404851802
 30
0.0
  0
SPLINE
  5
1A2
330
70
100
AcDbEntity
  8
0
 62
    18
420
        0
370
    25
100
AcDbSpline
210
0.0
220
0.0
230
1.0
 70
     8
 71
     3
 72
     8
 73
     4
 74
     0
 42
0.0000000001
 43
0.0000000001
 40
0.0
 40
0.0
 40
0.0
 40
0.0
 40
1.0
 40
1.0
 40
1.0
 40
1.0
 10
113.4762654571783
 20
6.211892613958287
 30
0.0
 10
113.4765503302559
 20
6.2067395883509
 30
0.0
 10
113.4781075778468
 20
6.201737437045228
 30
0.0
 10
113.480797999512
 20
6.197333296170655
 30
0.0
  0
SPLINE
  5
1A3
330
70
100
AcDbEntity
  8
0
 62
    18
420
        0
370
    25
100
AcDbSpline
210
0.0
220
0.0
230
1.0
 70
     8
 71
     3
 72
     8
 73
     4
 74
     0
 42
0.0000000001
 43
0.0000000001
 40
0.0
 40
0.0
 40
0.0
 40
0.0
 40
1.0
 40
1.0
 40
1.0
 40
1.0
 10
126.3224668326532
 20
0.2757910052304316
 30
0.0
 10
126.3148992427439
 20
0.4420878688565728
 30
0.0
 10
126.2269977048076
 20
0.594337609110675
 30
0.0
 10
126.086764094594
 20
0.6840396148588858
 30
0.0
  0
LINE
  5
1A4
330
70
100
AcDbEntity
  8
0
 62
    18
420
        0
370
    25
100
AcDbLine
 10
126.3224668326051
 20
0.2757910052695752
 30
0.0
 11
125.2662114912052
 21
-0.333972224230394
 31
0.0
  0
LINE
  5
1A5
330
70
100
AcDbEntity
  8
0
 62
    18
420
        0
370
    25
100
AcDbLine
 10
125.0305087531049
 20
0.0742763854699304
 30
0.0
 11
126.0867640945054
 21
0.6840396148697946
 31
0.0
  0
LINE
  5
1A6
330
70
100
AcDbEntity
  8
0
 62
    18
420
        0
370
    25
100
AcDbLine
 10
126.3224668326051
 20
-12.78886209853058
 30
0.0
 11
126.3224668326051
 21
0.2757910052695752
 31
0.0
  0
LINE
  5
1A7
330
70
100
AcDbEntity
  8
0
 62
    18
420
        0
370
    25
100
AcDbLine
 10
125.2662114912052
 20
-13.39862532793045
 30
0.0
 11
126.3224668326051
 21
-12.78886209853058
 31
0.0
  0
LINE
  5
1A8
330
70
100
AcDbEntity
  8
0
 62
    18
420
        0
370
    25
100
AcDbLine
 10
126.0867640945054
 20
0.6840396148697946
 30
0.0
 11
114.7730554972054
 21
7.21530456616946
 31
0.0
  0
LINE
  5
1A9
330
70
100
AcDbEntity
  8
0
 62
    18
420
        0
370
    25
100
AcDbLine
 10
114.7730554972054
 20
7.21530456616946
 30
0.0
 11
113.7168001558055
 21
6.605541336769596
 31
0.0
  0
LWPOLYLINE
  5
1AA
330
70
100
AcDbEntity
  8
0
 62
    18
420
        0
370
    25
100
AcDbPolyline
 90
        3
 70
     0
 43
0.0
 10
113.480797999505
 20
6.197333296169372
 10
113.4807843896054
 20
6.197341659869308
 10
113.4712973974053
 20
6.203299931369605
  0
SPLINE
  5
1AB
330
70
100
AcDbEntity
  8
0
 62
    18
420
        0
370
    25
100
AcDbSpline
210
0.0
220
0.0
230
1.0
 70
     8
 71
     3
 72
     8
 73
     4
 74
     0
 42
0.0000000001
 43
0.0000000001
 40
0.0
 40
0.0
 40
0.0
 40
0.0
 40
1.0
 40
1.0
 40
1.0
 40
1.0
 10
124.8000682246968
 20
-13.41297683724726
 30
0.0
 10
124.7993929126268
 20
-13.40793356032094
 30
0.0
 10
124.7975524879733
 20
-13.40311682109744
 30
0.0
 10
124.7946927453928
 20
-13.39890819175788
 30
0.0
  0
LWPOLYLINE
  5
1AC
330
70
100
AcDbEntity
  8
0
 62
    18
420
        0
370
    25
100
AcDbPolyline
 90
        6
 70
     0
 43
0.0
 10
119.1369081429055
 20
-10.14680301373053
 10
119.6083232776052
 20
-10.41891729683064
 10
121.4941923558051
 20
-11.50698280973065
 10
123.1445887475054
 20
-12.45866318183009
 10
124.7951107017054
 20
-13.41011948253024
 10
124.8000682247051
 20
-13.41297683723057
  0
SPLINE
  5
1AD
330
70
100
AcDbEntity
  8
0
 62
    18
420
        0
370
    25
100
AcDbSpline
210
0.0
220
0.0
230
1.0
 70
     8
 71
     3
 72
     8
 73
     4
 74
     0
 42
0.0000000001
 43
0.0000000001
 40
0.0
 40
0.0
 40
0.0
 40
0.0
 40
1.0
 40
1.0
 40
1.0
 40
1.0
 10
113.7168001558087
 20
6.60554133677858
 30
0.0
 10
113.5722122346261
 20
6.521601616336006
 30
0.0
 10
113.4798479253718
 20
6.370268287914302
 30
0.0
 10
113.4712973974111
 20
6.203299931356772
 30
0.0
  0
LWPOLYLINE
  5
1AE
330
70
100
AcDbEntity
  8
0
 62
    18
420
        0
370
    25
100
AcDbPolyline
 90
        4
 70
     0
 43
0.0
 10
124.8000682247051
 20
-13.41297683723057
 10
124.8162978346054
 20
-13.49254489853039
 10
124.8566674910053
 20
-13.54618936973024
 10
124.8688992967051
 20
-13.55061164563057
  0
SPLINE
  5
1AF
330
70
100
AcDbEntity
  8
0
 62
    18
420
        0
370
    25
100
AcDbSpline
210
0.0
220
0.0
230
1.0
 70
     8
 71
     3
 72
     8
 73
     4
 74
     0
 42
0.0000000001
 43
0.0000000001
 40
0.0
 40
0.0
 40
0.0
 40
0.0
 40
1.0
 40
1.0
 40
1.0
 40
1.0
 10
126.2534180019091
 20
-12.9414772566128
 30
0.0
 10
126.3037258166381
 20
-12.90799608602219
 30
0.0
 10
126.3305298697978
 20
-12.84875243525729
 30
0.0
 10
126.3224668326012
 20
-12.78886209848951
 30
0.0
  0
SPLINE
  5
1B0
330
70
100
AcDbEntity
  8
0
 62
    18
420
        0
370
    25
100
AcDbSpline
210
0.0
220
0.0
230
1.0
 70
     8
 71
     3
 72
     8
 73
     4
 74
     0
 42
0.0000000001
 43
0.0000000001
 40
0.0
 40
0.0
 40
0.0
 40
0.0
 40
1.0
 40
1.0
 40
1.0
 40
1.0
 10
114.7730554971925
 20
7.21530456622978
 30
0.0
 10
114.7244262564614
 20
7.250140849524447
 30
0.0
 10
114.6609202872041
 20
7.256429297280001
 30
0.0
 10
114.6064033459432
 20
7.231806689711354
 30
0.0
  0
SPLINE
  5
1B1
330
70
100
AcDbEntity
  8
0
 62
    18
420
        0
370
    25
100
AcDbSpline
210
0.0
220
0.0
230
1.0
 70
     8
 71
     3
 72
     8
 73
     4
 74
     0
 42
0.0000000001
 43
0.0000000001
 40
0.0
 40
0.0
 40
0.0
 40
0.0
 40
1.0
 40
1.0
 40
1.0
 40
1.0
 10
111.3922368242669
 20
-10.61440484731952
 30
0.0
 10
110.9563489493291
 20
-10.41590131016912
 30
0.0
 10
110.4475015920385
 20
-10.46628962443836
 30
0.0
 10
110.0590108336776
 20
-10.74642677735973
 30
0.0
  0
LWPOLYLINE
  5
1B2
330
70
100
AcDbEntity
  8
0
 62
    18
420
        0
370
    25
100
AcDbPolyline
 90
       13
 70
     0
 43
0.0
 10
108.7257865992049
 20
-15.23333223053011
 10
108.5679097731054
 20
-15.11748877863066
 10
108.3660948573049
 20
-14.86010144243059
 10
108.2335869217054
 20
-14.52344520483038
 10
108.1758141291052
 20
-14.12130100253011
 10
108.1951367031054
 20
-13.6701354390303
 10
108.2907696584054
 20
-13.18841582263022
 10
108.458791582305
 20
-12.69586735313048
 10
108.692329026005
 20
-12.21265198173067
 10
108.9818181672054
 20
-11.7585541544306
 10
109.3154069609051
 20
-11.35216493593014
 10
109.6794398282052
 20
-11.01012095913033
 10
110.0590108337052
 20
-10.74642677733021
  0
LWPOLYLINE
  5
1B3
330
70
100
AcDbEntity
  8
0
 62
    18
420
        0
370
    25
100
AcDbPolyline
 90
       21
 70
     0
 43
0.0
 10
109.1899270123054
 20
-9.34303845473066
 10
109.0150369083053
 20
-9.2483031561302
 10
108.5007645750055
 20
-9.028693260330127
 10
107.9296080452051
 20
-8.862424006130499
 10
107.3179975653054
 20
-8.754278578330653
 10
106.6835329567055
 20
-8.70736841093011
 10
106.0444638050053
 20
-8.72304281863056
 10
105.419173160505
 20
-8.800850973530403
 10
104.8256542153053
 20
-8.938554326430161
 10
104.2809764430054
 20
-9.132191372630344
 10
103.8008114469052
 20
-9.376191848230487
 10
103.3989711004055
 20
-9.663534906430102
 10
103.0870194450051
 20
-9.985957547230279
 10
102.8739267350051
 20
-10.33418003253023
 10
102.7658270931055
 20
-10.69818766783068
 10
102.7658270931055
 20
-11.06750767493063
 10
102.8739267350051
 20
-11.43151531023044
 10
103.0870194450051
 20
-11.77973982313059
 10
103.3989711004055
 20
-12.10216043633057
 10
103.8008114469052
 20
-12.38950552213039
 10
103.8570283183051
 20
-12.42265790183043
  0
LWPOLYLINE
  5
1B4
330
70
100
AcDbEntity
  8
0
 62
    18
420
        0
370
    25
100
AcDbPolyline
 90
       18
 70
     0
 43
0.0
 10
120.348921114205
 20
-5.980706713830135
 10
120.382378687505
 20
-5.960397821030166
 10
120.615916131205
 20
-5.74681904283015
 10
120.7839398111051
 20
-5.448265571030604
 10
120.8795710104052
 20
-5.076960400930582
 10
120.8988953404052
 20
-4.648105220230384
 10
120.8411207917051
 20
-4.179256957530185
 10
120.708612856105
 20
-3.689610314030336
 10
120.5067979404052
 20
-3.199212435930441
 10
120.2439368268049
 20
-2.728139465430276
 10
119.9307910107053
 20
-2.295676999230593
 10
119.5801819147052
 20
-1.919530705630411
 10
119.206462296705
 20
-1.615099752130542
 10
118.824933218905
 20
-1.394847703730464
 10
118.4512136009054
 20
-1.267791170730526
 10
118.1006009926054
 20
-1.239130790930515
 10
117.7874569327052
 20
-1.310043807530315
 10
117.6824726453051
 20
-1.361780344430234
  0
LWPOLYLINE
  5
1B5
330
70
100
AcDbEntity
  8
0
 62
    18
420
        0
370
    25
100
AcDbPolyline
 90
       18
 70
     0
 43
0.0
 10
111.3922368243054
 20
-10.61440484733043
 10
111.3581400238054
 20
-10.59570338633013
 10
111.0564353210049
 20
-10.50019439773034
 10
110.713895590305
 20
-10.50391108473053
 10
110.3445469518054
 20
-10.60670000923022
 10
109.9635060750052
 20
-10.80435545563021
 10
109.5863760745051
 20
-11.08878338023034
 10
109.2285967458052
 20
-11.44833937633011
 10
108.9048123628055
 20
-11.86830517153057
 10
108.6282833774054
 20
-12.33148452213012
 10
108.4103279748053
 20
-12.81891647463009
 10
108.2598689940053
 20
-13.31064560913067
 10
108.1830668993051
 20
-13.78654026243058
 10
108.1830668993051
 20
-14.22711659303026
 10
108.2598689940053
 20
-14.61433743523068
 10
108.4103279748053
 20
-14.93235032813062
 10
108.6282833774054
 20
-15.1681363292301
 10
108.7257865992049
 20
-15.23333223053011
  0
LWPOLYLINE
  5
1B6
330
70
100
AcDbEntity
  8
0
 62
    18
420
        0
370
    25
100
AcDbPolyline
 90
       18
 70
     0
 43
0.0
 10
163.2467338303051
 20
-40.54936878533015
 10
163.2126370299052
 20
-40.5306673243305
 10
162.9109323270052
 20
-40.4351583356306
 10
162.5683925964054
 20
-40.43887502263015
 10
162.1990439578051
 20
-40.54166394723059
 10
161.8180030810055
 20
-40.73931939363058
 10
161.4408730805054
 20
-41.02374731823006
 10
161.083093751905
 20
-41.38330331423037
 10
160.7593093688052
 20
-41.8032691095303
 10
160.4827803835052
 20
-42.26644846013049
 10
160.2648249809051
 20
-42.75388041263045
 10
160.1143660000049
 20
-43.24560954703029
 10
160.0375639053054
 20
-43.7215042003302
 10
160.0375639053054
 20
-44.16208053103062
 10
160.1143660000049
 20
-44.54930137323041
 10
160.2648249809051
 20
-44.86731426603023
 10
160.4827803835052
 20
-45.10310026713036
 10
160.5802836053053
 20
-45.16829616853048
  0
LWPOLYLINE
  5
1B7
330
70
100
AcDbEntity
  8
0
 62
     8
420
  8421504
370
    25
100
AcDbPolyline
 90
        6
 70
     0
 43
0.0
 10
172.3968624963054
 20
-27.81370472793021
 10
172.3965060042055
 20
-28.3580542067301
 10
172.3952407207053
 20
-30.5354538961306
 10
172.3942046106053
 20
-34.89029762813029
 10
172.3945562734052
 20
-36.54908823283065
 10
172.3952284278051
 20
-37.81078716753055
  0
LWPOLYLINE
  5
1B8
330
70
100
AcDbEntity
  8
0
 62
     8
420
  8421504
370
    25
100
AcDbPolyline
 90
        5
 70
     0
 43
0.0
 10
175.061120646205
 20
-42.43003627233049
 10
178.5337974974054
 20
-44.43587253433009
 10
179.970427707605
 20
-45.2648139241301
 10
183.7206740444055
 20
-47.42712312803027
 10
183.7256350797051
 20
-47.42998251023006
  0
SPLINE
  5
1B9
330
70
100
AcDbEntity
  8
0
 62
     8
420
  8421504
370
    25
100
AcDbSpline
210
0.0
220
0.0
230
1.0
 70
     8
 71
     3
 72
     8
 73
     4
 74
     0
 42
0.0000000001
 43
0.0000000001
 40
0.0
 40
0.0
 40
0.0
 40
0.0
 40
1.0
 40
1.0
 40
1.0
 40
1.0
 10
184.1227277593208
 20
-47.56824514532724
 30
0.0
 10
184.173035738113
 20
-47.53476446838801
 30
0.0
 10
184.199840419505
 20
-47.47552132935178
 30
0.0
 10
184.1917783461314
 20
-47.41563100098962
 30
0.0
  0
SPLINE
  5
1BA
330
70
100
AcDbEntity
  8
0
 62
     8
420
  8421504
370
    25
100
AcDbSpline
210
0.0
220
0.0
230
1.0
 70
     8
 71
     3
 72
     8
 73
     4
 74
     0
 42
0.0000000001
 43
0.0000000001
 40
0.0
 40
0.0
 40
0.0
 40
0.0
 40
1.0
 40
1.0
 40
1.0
 40
1.0
 10
172.3090324152636
 20
-27.68353439050478
 30
0.0
 10
172.3137938931613
 20
-27.73920577107741
 30
0.0
 10
172.3470208153291
 20
-27.78845039911976
 30
0.0
 10
172.3968624962932
 20
-27.8137047279623
 30
0.0
  0
SPLINE
  5
1BB
330
70
100
AcDbEntity
  8
0
 62
     8
420
  8421504
370
    25
100
AcDbSpline
210
0.0
220
0.0
230
1.0
 70
     8
 71
     3
 72
     8
 73
     4
 74
     0
 42
0.0000000001
 43
0.0000000001
 40
0.0
 40
0.0
 40
0.0
 40
0.0
 40
1.0
 40
1.0
 40
1.0
 40
1.0
 10
172.6423670107856
 20
-27.41146433629471
 30
0.0
 10
172.5937377708752
 20
-27.37662646096398
 30
0.0
 10
172.530230601889
 20
-27.37033757434981
 30
0.0
 10
172.4757131034172
 20
-27.39496119902748
 30
0.0
  0
LWPOLYLINE
  5
1BC
330
70
100
AcDbEntity
  8
0
 62
     8
420
  8421504
370
    25
100
AcDbPolyline
 90
        6
 70
     0
 43
0.0
 10
113.4712973974053
 20
6.203299931369605
 10
113.4709426614053
 20
5.658949438769298
 10
113.4696756218052
 20
3.481550763169862
 10
113.4686377556052
 20
-0.8732919550300481
 10
113.4689911745052
 20
-2.532083573530192
 10
113.4696615728052
 20
-3.793781494430308
  0
LWPOLYLINE
  5
1BD
330
70
100
AcDbEntity
  8
0
 62
     8
420
  8421504
370
    25
100
AcDbPolyline
 90
        3
 70
     0
 43
0.0
 10
119.0384105189055
 20
-6.737249273130112
 10
119.0617519704052
 20
-8.059334197330185
 10
119.1369081429055
 20
-10.14680301373053
  0
SPLINE
  5
1BE
330
70
100
AcDbEntity
  8
0
 62
     8
420
  8421504
370
    25
100
AcDbSpline
210
0.0
220
0.0
230
1.0
 70
     8
 71
     3
 72
     8
 73
     4
 74
     0
 42
0.0000000001
 43
0.0000000001
 40
0.0
 40
0.0
 40
0.0
 40
0.0
 40
1.0
 40
1.0
 40
1.0
 40
1.0
 10
125.1971626605093
 20
-13.55124048601267
 30
0.0
 10
125.2474704752383
 20
-13.51775931542206
 30
0.0
 10
125.2742745283973
 20
-13.45851566465715
 30
0.0
 10
125.2662114912007
 20
-13.39862532788938
 30
0.0
  0
SPLINE
  5
1BF
330
70
100
AcDbEntity
  8
0
 62
     8
420
  8421504
370
    25
100
AcDbSpline
210
0.0
220
0.0
230
1.0
 70
     8
 71
     3
 72
     8
 73
     4
 74
     0
 42
0.0000000001
 43
0.0000000001
 40
0.0
 40
0.0
 40
0.0
 40
0.0
 40
1.0
 40
1.0
 40
1.0
 40
1.0
 10
124.8050345283917
 20
-13.40438719598861
 30
0.0
 10
124.796448729752
 20
-13.46443671597811
 30
0.0
 10
124.8235027861366
 20
-13.52400901789206
 30
0.0
 10
124.8743687283699
 20
-13.55705923286836
 30
0.0
  0
SPLINE
  5
1C0
330
70
100
AcDbEntity
  8
0
 62
     8
420
  8421504
370
    25
100
AcDbSpline
210
0.0
220
0.0
230
1.0
 70
     8
 71
     3
 72
     8
 73
     4
 74
     0
 42
0.0000000001
 43
0.0000000001
 40
0.0
 40
0.0
 40
0.0
 40
0.0
 40
1.0
 40
1.0
 40
1.0
 40
1.0
 10
113.3834673163552
 20
6.333470268767452
 30
0.0
 10
113.3882296150084
 20
6.277799178016266
 30
0.0
 10
113.4214562923982
 20
6.228554912752049
 30
0.0
 10
113.4712973973842
 20
6.203299931310569
 30
0.0
  0
SPLINE
  5
1C1
330
70
100
AcDbEntity
  8
0
 62
     8
420
  8421504
370
    25
100
AcDbSpline
210
0.0
220
0.0
230
1.0
 70
     8
 71
     3
 72
     8
 73
     4
 74
     0
 42
0.0000000001
 43
0.0000000001
 40
0.0
 40
0.0
 40
0.0
 40
0.0
 40
1.0
 40
1.0
 40
1.0
 40
1.0
 10
113.7168001557926
 20
6.605541336729169
 30
0.0
 10
113.6681709150615
 20
6.640377620024477
 30
0.0
 10
113.6046649458042
 20
6.646666067780032
 30
0.0
 10
113.5501480045434
 20
6.622043460211385
 30
0.0
  0
SPLINE
  5
1C2
330
70
100
AcDbEntity
  8
0
 62
     8
420
  8421504
370
    25
100
AcDbSpline
210
0.0
220
0.0
230
1.0
 70
     8
 71
     3
 72
     8
 73
     4
 74
     0
 42
0.0000000001
 43
0.0000000001
 40
0.0
 40
0.0
 40
0.0
 40
0.0
 40
1.0
 40
1.0
 40
1.0
 40
1.0
 10
119.1369081428529
 20
-10.14680301377224
 30
0.0
 10
119.1342412734412
 20
-10.20213235965693
 30
0.0
 10
119.1602973021568
 20
-10.25492528957705
 30
0.0
 10
119.2058371184441
 20
-10.2864621543713
 30
0.0
  0
LWPOLYLINE
  5
1C3
330
70
100
AcDbEntity
  8
0
 62
     8
420
  8421504
370
    25
100
AcDbPolyline
 90
        3
 70
     0
 43
0.0
 10
116.1354954002052
 20
-8.413067355130058
 10
117.4870789775052
 20
-9.194047907430345
 10
119.1369081429055
 20
-10.14680301373053
  0
INSERT
  5
1C6
330
70
100
AcDbEntity
  8
CAPA_BASE
100
AcDbBlockReference
  2
Block_0
 10
0.0
 20
0.0
 30
0.0
  0
INSERT
  5
1D2
330
70
100
AcDbEntity
  8
CAPA_BASE
100
AcDbBlockReference
  2
Block_1
 10
0.0
 20
0.0
 30
0.0
  0
INSERT
  5
1DE
330
70
100
AcDbEntity
  8
CAPA_BASE
100
AcDbBlockReference
  2
Block_2
 10
0.0
 20
0.0
 30
0.0
  0
ENDSEC
  0
SECTION
  2
OBJECTS
  0
DICTIONARY
  5
C
330
0
100
AcDbDictionary
281
     1
  3
ACAD_COLOR
350
63
  3
ACAD_DETAILVIEWSTYLE
350
6A
  3
ACAD_GROUP
350
D
  3
ACAD_LAYOUT
350
62
  3
ACAD_MATERIAL
350
10
  3
ACAD_MLEADERSTYLE
350
66
  3
ACAD_MLINESTYLE
350
5F
  3
ACAD_PLOTSETTINGS
350
61
  3
ACAD_PLOTSTYLENAME
350
E
  3
ACAD_SCALELIST
350
42
  3
ACAD_SECTIONVIEWSTYLE
350
68
  3
ACAD_TABLESTYLE
350
64
  3
ACAD_VISUALSTYLE
350
29
  3
ACDB_RECOMPOSE_DATA
350
1F1
  3
AcDbVariableDictionary
350
1E9
  0
DICTIONARY
  5
63
102
{ACAD_REACTORS
330
C
102
}
330
C
100
AcDbDictionary
281
     1
  0
DICTIONARY
  5
6A
102
{ACAD_REACTORS
330
C
102
}
330
C
100
AcDbDictionary
281
     1
  3
Imperial24
350
6B
  0
DICTIONARY
  5
D
102
{ACAD_REACTORS
330
C
102
}
330
C
100
AcDbDictionary
281
     1
  0
DICTIONARY
  5
62
102
{ACAD_REACTORS
330
C
102
}
330
C
100
AcDbDictionary
281
     1
  3
Layout1
350
6F
  3
Layout2
350
77
  3
Model
350
73
  0
DICTIONARY
  5
10
102
{ACAD_REACTORS
330
C
102
}
330
C
100
AcDbDictionary
281
     1
  3
ByBlock
350
19
  3
ByLayer
350
11
  3
Global
350
21
  0
DICTIONARY
  5
66
102
{ACAD_REACTORS
330
C
102
}
330
C
100
AcDbDictionary
281
     1
  3
Standard
350
67
  0
DICTIONARY
  5
5F
102
{ACAD_REACTORS
330
C
102
}
330
C
100
AcDbDictionary
281
     1
  3
Standard
350
60
  0
DICTIONARY
  5
61
102
{ACAD_REACTORS
330
C
102
}
330
C
100
AcDbDictionary
281
     1
  0
ACDBDICTIONARYWDFLT
  5
E
102
{ACAD_REACTORS
330
C
102
}
330
C
100
AcDbDictionary
281
     1
  3
Normal
350
F
100
AcDbDictionaryWithDefault
340
F
  0
DICTIONARY
  5
42
102
{ACAD_REACTORS
330
C
102
}
330
C
100
AcDbDictionary
281
     1
  3
A0
350
43
  3
A1
350
44
  3
A2
350
45
  3
A3
350
46
  3
A4
350
47
  3
A5
350
48
  3
A6
350
49
  3
A7
350
4A
  3
A8
350
4B
  3
A9
350
4C
  3
B0
350
4D
  3
B1
350
4E
  3
B2
350
4F
  3
B3
350
50
  3
B4
350
51
  3
B5
350
52
  3
B6
350
53
  0
DICTIONARY
  5
68
102
{ACAD_REACTORS
330
C
102
}
330
C
100
AcDbDictionary
281
     1
  3
Imperial24
350
69
  0
DICTIONARY
  5
64
102
{ACAD_REACTORS
330
C
102
}
330
C
100
AcDbDictionary
281
     1
  3
Standard
350
65
  0
DICTIONARY
  5
29
102
{ACAD_REACTORS
330
C
102
}
330
C
100
AcDbDictionary
281
     1
  3
2dWireframe
350
2F
  3
Basic
350
2E
  3
Brighten
350
35
  3
ColorChange
350
39
  3
Conceptual
350
32
  3
Dim
350
34
  3
EdgeColorOff
350
41
  3
Facepattern
350
38
  3
Flat
350
2A
  3
FlatWithEdges
350
2B
  3
Gouraud
350
2C
  3
GouraudWithEdges
350
2D
  3
Hidden
350
31
  3
JitterOff
350
3F
  3
Linepattern
350
37
  3
OverhangOff
350
40
  3
Realistic
350
33
  3
Shaded
350
3E
  3
Shaded with edges
350
3D
  3
Shades of Gray
350
3A
  3
Sketchy
350
3B
  3
Thicken
350
36
  3
Wireframe
350
30
  3
X-Ray
350
3C
  0
XRECORD
  5
1F1
102
{ACAD_REACTORS
330
C
102
}
330
C
100
AcDbXrecord
280
     1
 90
        1
330
65
  0
DICTIONARY
  5
1E9
102
{ACAD_REACTORS
330
C
102
}
330
C
100
AcDbDictionary
281
     1
  3
CANNOSCALE
350
1EE
  3
CMLEADERSTYLE
350
1EB
  3
CTABLESTYLE
350
1EA
  3
CVIEWDETAILSTYLE
350
1EC
  3
CVIEWSECTIONSTYLE
350
1ED
  0
ACDBDETAILVIEWSTYLE
  5
6B
102
{ACAD_REACTORS
330
6A
102
}
330
6A
100
AcDbModelDocViewStyle
 70
     0
  3
Imperial24
290
     1
300
Imperial24
 90
        0
100
AcDbDetailViewStyle
 70
     0
 71
     0
 90
        3
 71
     1
340
55
 62
   256
 40
0.24
340
0
 62
   256
 40
0.24
300

 40
0.36
280
     3
 71
     2
340
5D
 90
       25
 62
   256
 71
     3
340
55
 62
   256
 40
0.24
 90
        1
 40
0.75
 90
        1
300
%<\AcVar ViewType \f "%tc1">% %<\AcVar ViewDetailId>%\PSCALE %<\AcVar ViewScale \f "%sn">%
 71
     4
340
5D
 90
       25
 62
   256
340
5D
 90
       25
 62
   256
280
     0
  0
LAYOUT
  5
6F
102
{ACAD_REACTORS
330
62
102
}
330
62
100
AcDbPlotSettings
  1

  2

  4

  6

 40
0.0
 41
0.0
 42
0.0
 43
0.0
 44
0.0
 45
0.0
 46
0.0
 47
0.0
 48
0.0
 49
0.0
140
0.0
141
0.0
142
1.0
143
1.0
 70
   688
 72
     0
 73
     0
 74
     5
  7

 75
    16
147
1.0
 76
     0
 77
     2
 78
   300
148
0.0
149
0.0
100
AcDbLayout
  1
Layout1
 70
     1
 71
     1
 10
0.0
 20
0.0
 11
12.0
 21
9.0
 12
0.0
 22
0.0
 32
0.0
 14
0.0
 24
0.0
 34
0.0
 15
0.0
 25
0.0
 35
0.0
146
0.0
 13
0.0
 23
0.0
 33
0.0
 16
1.0
 26
0.0
 36
0.0
 17
0.0
 27
1.0
 37
0.0
 76
     0
330
6C
  0
LAYOUT
  5
77
102
{ACAD_REACTORS
330
62
102
}
330
62
100
AcDbPlotSettings
  1

  2

  4

  6

 40
0.0
 41
0.0
 42
0.0
 43
0.0
 44
0.0
 45
0.0
 46
0.0
 47
0.0
 48
0.0
 49
0.0
140
0.0
141
0.0
142
1.0
143
1.0
 70
   688
 72
     0
 73
     0
 74
     5
  7

 75
    16
147
1.0
 76
     0
 77
     2
 78
   300
148
0.0
149
0.0
100
AcDbLayout
  1
Layout2
 70
     1
 71
     2
 10
0.0
 20
0.0
 11
12.0
 21
9.0
 12
0.0
 22
0.0
 32
0.0
 14
0.0
 24
0.0
 34
0.0
 15
0.0
 25
0.0
 35
0.0
146
0.0
 13
0.0
 23
0.0
 33
0.0
 16
1.0
 26
0.0
 36
0.0
 17
0.0
 27
1.0
 37
0.0
 76
     0
330
74
  0
LAYOUT
  5
73
102
{ACAD_REACTORS
330
62
102
}
330
62
100
AcDbPlotSettings
  1

  2

  4

  6

 40
0.0
 41
0.0
 42
0.0
 43
0.0
 44
0.0
 45
0.0
 46
0.0
 47
0.0
 48
0.0
 49
0.0
140
0.0
141
0.0
142
1.0
143
1.0
 70
  1712
 72
     0
 73
     0
 74
     0
  7

 75
     0
147
1.0
 76
     0
 77
     2
 78
   300
148
0.0
149
0.0
100
AcDbLayout
  1
Model
 70
     1
 71
     0
 10
0.0
 20
0.0
 11
12.0
 21
9.0
 12
0.0
 22
0.0
 32
0.0
 14
0.0
 24
0.0
 34
0.0
 15
0.0
 25
0.0
 35
0.0
146
0.0
 13
0.0
 23
0.0
 33
0.0
 16
1.0
 26
0.0
 36
0.0
 17
0.0
 27
1.0
 37
0.0
 76
     0
330
70
  0
MATERIAL
  5
19
102
{ACAD_XDICTIONARY
360
1A
102
}
102
{ACAD_REACTORS
330
10
102
}
330
10
100
AcDbMaterial
  1
ByBlock
 72
     0
 43
0.0208333333333333
 43
0.0
 43
0.0
 43
0.0
 43
0.0
 43
0.0208333333333333
 43
0.0
 43
0.0
 43
0.0
 43
0.0
 43
1.0
 43
0.0
 43
0.0
 43
0.0
 43
0.0
 43
1.0
 77
     0
 47
0.0208333333333333
 47
0.0
 47
0.0
 47
0.0
 47
0.0
 47
0.0208333333333333
 47
0.0
 47
0.0
 47
0.0
 47
0.0
 47
1.0
 47
0.0
 47
0.0
 47
0.0
 47
0.0
 47
1.0
171
     0
 49
0.0208333333333333
 49
0.0
 49
0.0
 49
0.0
 49
0.0
 49
0.0208333333333333
 49
0.0
 49
0.0
 49
0.0
 49
0.0
 49
1.0
 49
0.0
 49
0.0
 49
0.0
 49
0.0
 49
1.0
175
     0
142
0.0208333333333333
142
0.0
142
0.0
142
0.0
142
0.0
142
0.0208333333333333
142
0.0
142
0.0
142
0.0
142
0.0
142
1.0
142
0.0
142
0.0
142
0.0
142
0.0
142
1.0
179
     0
144
0.0208333333333333
144
0.0
144
0.0
144
0.0
144
0.0
144
0.0208333333333333
144
0.0
144
0.0
144
0.0
144
0.0
144
1.0
144
0.0
144
0.0
144
0.0
144
0.0
144
1.0
147
0.0208333333333333
147
0.0
147
0.0
147
0.0
147
0.0
147
0.0208333333333333
147
0.0
147
0.0
147
0.0
147
0.0
147
1.0
147
0.0
147
0.0
147
0.0
147
0.0
147
1.0
  0
MATERIAL
  5
11
102
{ACAD_XDICTIONARY
360
12
102
}
102
{ACAD_REACTORS
330
10
102
}
330
10
100
AcDbMaterial
  1
ByLayer
 72
     0
 43
0.0208333333333333
 43
0.0
 43
0.0
 43
0.0
 43
0.0
 43
0.0208333333333333
 43
0.0
 43
0.0
 43
0.0
 43
0.0
 43
1.0
 43
0.0
 43
0.0
 43
0.0
 43
0.0
 43
1.0
 77
     0
 47
0.0208333333333333
 47
0.0
 47
0.0
 47
0.0
 47
0.0
 47
0.0208333333333333
 47
0.0
 47
0.0
 47
0.0
 47
0.0
 47
1.0
 47
0.0
 47
0.0
 47
0.0
 47
0.0
 47
1.0
171
     0
 49
0.0208333333333333
 49
0.0
 49
0.0
 49
0.0
 49
0.0
 49
0.0208333333333333
 49
0.0
 49
0.0
 49
0.0
 49
0.0
 49
1.0
 49
0.0
 49
0.0
 49
0.0
 49
0.0
 49
1.0
175
     0
142
0.0208333333333333
142
0.0
142
0.0
142
0.0
142
0.0
142
0.0208333333333333
142
0.0
142
0.0
142
0.0
142
0.0
142
1.0
142
0.0
142
0.0
142
0.0
142
0.0
142
1.0
179
     0
144
0.0208333333333333
144
0.0
144
0.0
144
0.0
144
0.0
144
0.0208333333333333
144
0.0
144
0.0
144
0.0
144
0.0
144
1.0
144
0.0
144
0.0
144
0.0
144
0.0
144
1.0
147
0.0208333333333333
147
0.0
147
0.0
147
0.0
147
0.0
147
0.0208333333333333
147
0.0
147
0.0
147
0.0
147
0.0
147
1.0
147
0.0
147
0.0
147
0.0
147
0.0
147
1.0
  0
MATERIAL
  5
21
102
{ACAD_XDICTIONARY
360
22
102
}
102
{ACAD_REACTORS
330
10
102
}
330
10
100
AcDbMaterial
  1
Global
 72
     0
 43
0.0208333333333333
 43
0.0
 43
0.0
 43
0.0
 43
0.0
 43
0.0208333333333333
 43
0.0
 43
0.0
 43
0.0
 43
0.0
 43
1.0
 43
0.0
 43
0.0
 43
0.0
 43
0.0
 43
1.0
 77
     0
 47
0.0208333333333333
 47
0.0
 47
0.0
 47
0.0
 47
0.0
 47
0.0208333333333333
 47
0.0
 47
0.0
 47
0.0
 47
0.0
 47
1.0
 47
0.0
 47
0.0
 47
0.0
 47
0.0
 47
1.0
171
     0
 49
0.0208333333333333
 49
0.0
 49
0.0
 49
0.0
 49
0.0
 49
0.0208333333333333
 49
0.0
 49
0.0
 49
0.0
 49
0.0
 49
1.0
 49
0.0
 49
0.0
 49
0.0
 49
0.0
 49
1.0
175
     0
142
0.0208333333333333
142
0.0
142
0.0
142
0.0
142
0.0
142
0.0208333333333333
142
0.0
142
0.0
142
0.0
142
0.0
142
1.0
142
0.0
142
0.0
142
0.0
142
0.0
142
1.0
179
     0
144
0.0208333333333333
144
0.0
144
0.0
144
0.0
144
0.0
144
0.0208333333333333
144
0.0
144
0.0
144
0.0
144
0.0
144
1.0
144
0.0
144
0.0
144
0.0
144
0.0
144
1.0
147
0.0208333333333333
147
0.0
147
0.0
147
0.0
147
0.0
147
0.0208333333333333
147
0.0
147
0.0
147
0.0
147
0.0
147
1.0
147
0.0
147
0.0
147
0.0
147
0.0
147
1.0
  0
MLEADERSTYLE
  5
67
102
{ACAD_REACTORS
330
66
102
}
330
66
100
AcDbMLeaderStyle
179
     2
170
     2
171
     1
172
     0
 90
        2
 40
0.0
 41
0.0
173
     1
 91
-1056964608
340
5B
 92
       -2
290
     1
 42
0.09
291
     1
 43
0.36
  3
Standard
 44
0.18
300

342
55
174
     1
178
     6
175
     1
176
     0
 93
-1056964608
 45
0.18
292
     0
297
     0
 46
0.18
 94
-1056964608
 47
1.0
 49
1.0
140
1.0
293
     1
141
0.0
294
     1
177
     0
142
1.0
295
     1
296
     0
143
0.125
271
     0
272
     9
273
     9
298
     1
  0
MLINESTYLE
  5
60
102
{ACAD_REACTORS
330
5F
102
}
330
5F
100
AcDbMlineStyle
  2
STANDARD
 70
     0
  3

 62
   256
 51
90.0
 52
90.0
 71
     2
 49
0.5
 62
   256
  6
BYLAYER
 49
-0.5
 62
   256
  6
BYLAYER
  0
ACDBPLACEHOLDER
  5
F
102
{ACAD_REACTORS
330
E
102
}
330
E
  0
SCALE
  5
43
102
{ACAD_REACTORS
330
42
102
}
330
42
100
AcDbScale
 70
     0
300
1:1
140
1.0
141
1.0
290
     1
  0
SCALE
  5
44
102
{ACAD_REACTORS
330
42
102
}
330
42
100
AcDbScale
 70
     0
300
1/128" = 1'-0"
140
0.0078125
141
12.0
290
     0
  0
SCALE
  5
45
102
{ACAD_REACTORS
330
42
102
}
330
42
100
AcDbScale
 70
     0
300
1/64" = 1'-0"
140
0.015625
141
12.0
290
     0
  0
SCALE
  5
46
102
{ACAD_REACTORS
330
42
102
}
330
42
100
AcDbScale
 70
     0
300
1/32" = 1'-0"
140
0.03125
141
12.0
290
     0
  0
SCALE
  5
47
102
{ACAD_REACTORS
330
42
102
}
330
42
100
AcDbScale
 70
     0
300
1/16" = 1'-0"
140
0.0625
141
12.0
290
     0
  0
SCALE
  5
48
102
{ACAD_REACTORS
330
42
102
}
330
42
100
AcDbScale
 70
     0
300
3/32" = 1'-0"
140
0.09375
141
12.0
290
     0
  0
SCALE
  5
49
102
{ACAD_REACTORS
330
42
102
}
330
42
100
AcDbScale
 70
     0
300
1/8" = 1'-0"
140
0.125
141
12.0
290
     0
  0
SCALE
  5
4A
102
{ACAD_REACTORS
330
42
102
}
330
42
100
AcDbScale
 70
     0
300
3/16" = 1'-0"
140
0.1875
141
12.0
290
     0
  0
SCALE
  5
4B
102
{ACAD_REACTORS
330
42
102
}
330
42
100
AcDbScale
 70
     0
300
1/4" = 1'-0"
140
0.25
141
12.0
290
     0
  0
SCALE
  5
4C
102
{ACAD_REACTORS
330
42
102
}
330
42
100
AcDbScale
 70
     0
300
3/8" = 1'-0"
140
0.375
141
12.0
290
     0
  0
SCALE
  5
4D
102
{ACAD_REACTORS
330
42
102
}
330
42
100
AcDbScale
 70
     0
300
1/2" = 1'-0"
140
0.5
141
12.0
290
     0
  0
SCALE
  5
4E
102
{ACAD_REACTORS
330
42
102
}
330
42
100
AcDbScale
 70
     0
300
3/4" = 1'-0"
140
0.75
141
12.0
290
     0
  0
SCALE
  5
4F
102
{ACAD_REACTORS
330
42
102
}
330
42
100
AcDbScale
 70
     0
300
1" = 1'-0"
140
1.0
141
12.0
290
     0
  0
SCALE
  5
50
102
{ACAD_REACTORS
330
42
102
}
330
42
100
AcDbScale
 70
     0
300
1-1/2" = 1'-0"
140
1.5
141
12.0
290
     0
  0
SCALE
  5
51
102
{ACAD_REACTORS
330
42
102
}
330
42
100
AcDbScale
 70
     0
300
3" = 1'-0"
140
3.0
141
12.0
290
     0
  0
SCALE
  5
52
102
{ACAD_REACTORS
330
42
102
}
330
42
100
AcDbScale
 70
     0
300
6" = 1'-0"
140
6.0
141
12.0
290
     0
  0
SCALE
  5
53
102
{ACAD_REACTORS
330
42
102
}
330
42
100
AcDbScale
 70
     0
300
1'-0" = 1'-0"
140
12.0
141
12.0
290
     0
  0
ACDBSECTIONVIEWSTYLE
  5
69
102
{ACAD_REACTORS
330
68
102
}
330
68
100
AcDbModelDocViewStyle
 70
     0
  3
Imperial24
290
     1
300
Imperial24
 90
        0
100
AcDbSectionViewStyle
 70
     0
 71
     0
 90
       78
 71
     1
340
55
 62
   256
 40
0.24
340
0
340
0
 62
   256
 40
0.24
300
I, O, Q, S, X, Z
 40
0.48
 90
        3
 40
0.18
 90
        1
 71
     2
340
5D
 90
       25
 62
   256
340
5D
 90
       50
 62
   256
 40
0.24
 40
0.0
 40
0.24
 71
     3
340
55
 62
   256
 40
0.24
 90
        1
 40
0.75
 90
        1
300
%<\AcVar ViewType \f "%tc1">% %<\AcVar ViewSectionStartId>%-%<\AcVar ViewSectionEndId>%\PSCALE %<\AcVar ViewScale \f "%sn">%
 71
     4
 62
   256
 62
   257
300
ANSI31
 40
1.0
 90
        0
290
     0
290
     0
 90
        6
 40
0.0
 40
1.570796326794896
 40
0.2617993877991494
 40
1.308996938995747
 40
-0.2617993877991494
 40
1.832595714594046
  0
TABLESTYLE
  5
65
102
{ACAD_XDICTIONARY
360
1EF
102
}
102
{ACAD_REACTORS
330
64
102
}
330
64
100
AcDbTableStyle
280
     0
  3
Standard
 70
     0
 71
     0
 40
0.06
 41
0.06
280
     0
281
     0
  7
Standard
140
0.18
170
     2
 62
     0
 63
     7
283
     0
 90
      512
 91
        0
  1

274
    -2
284
     1
 64
     0
275
    -2
285
     1
 65
     0
276
    -2
286
     1
 66
     0
277
    -2
287
     1
 67
     0
278
    -2
288
     1
 68
     0
279
    -2
289
     1
 69
     0
  7
Standard
140
0.25
170
     5
 62
     0
 63
     7
283
     0
 90
      512
 91
        0
  1

274
    -2
284
     1
 64
     0
275
    -2
285
     1
 65
     0
276
    -2
286
     1
 66
     0
277
    -2
287
     1
 67
     0
278
    -2
288
     1
 68
     0
279
    -2
289
     1
 69
     0
  7
Standard
140
0.18
170
     5
 62
     0
 63
     7
283
     0
 90
      512
 91
        0
  1

274
    -2
284
     1
 64
     0
275
    -2
285
     1
 65
     0
276
    -2
286
     1
 66
     0
277
    -2
287
     1
 67
     0
278
    -2
288
     1
 68
     0
279
    -2
289
     1
 69
     0
  0
VISUALSTYLE
  5
2F
102
{ACAD_REACTORS
330
29
102
}
330
29
100
AcDbVisualStyle
  2
2dWireframe
 70
     4
177
     3
291
     0
 70
    58
 90
        0
176
     1
 90
        2
176
     1
 90
        0
176
     1
 90
        0
176
     1
 40
0.6
176
     1
 40
30.0
176
     1
 62
     7
420
 16777215
176
     1
 90
        1
176
     1
 90
        4
176
     1
 62
     7
176
     1
 62
   257
176
     1
 90
        1
176
     1
 90
        1
176
     1
 40
1.0
176
     1
 90
        0
176
     1
 62
   257
176
     1
 40
1.0
176
     1
 90
        1
176
     1
 90
        6
176
     1
 90
        2
176
     1
 62
     7
176
     1
 90
        5
176
     1
 90
        0
176
     1
 90
        0
176
     1
290
     0
176
     1
 90
        1
176
     1
 40
0.0
176
     1
 90
        0
176
     1
290
     1
176
     1
290
     1
176
     1
290
     0
176
     1
290
     0
176
     1
290
     0
176
     1
290
     0
176
     1
290
     0
176
     1
290
     0
176
     1
290
     0
176
     1
 90
       50
176
     1
 40
0.0
176
     1
 40
1.0
176
     1
 90
        0
176
     1
 62
    18
420
        0
176
     1
 90
       50
176
     1
 90
        3
176
     1
 62
     5
420
      255
176
     1
290
     0
176
     1
 90
       50
176
     1
 90
       50
176
     1
 90
       50
176
     1
290
     0
176
     1
 90
       50
176
     1
 62
   256
176
     0
 40
1.0
176
     0
 90
        2
176
     1
  1
strokes_ogs.tif
176
     1
290
     0
176
     1
 40
1.0
176
     1
 40
1.0
176
     1
  0
VISUALSTYLE
  5
2E
102
{ACAD_REACTORS
330
29
102
}
330
29
100
AcDbVisualStyle
  2
Basic
 70
     7
177
     3
291
     1
 70
    58
 90
        1
176
     1
 90
        0
176
     1
 90
        1
176
     1
 90
        0
176
     1
 40
0.6
176
     1
 40
30.0
176
     1
 62
     7
420
 16777215
176
     1
 90
        0
176
     1
 90
        4
176
     1
 62
     7
176
     1
 62
   257
176
     1
 90
        1
176
     1
 90
        1
176
     1
 40
1.0
176
     1
 90
        8
176
     1
 62
     7
176
     1
 40
1.0
176
     1
 90
        1
176
     1
 90
        6
176
     1
 90
        2
176
     1
 62
     7
176
     1
 90
        5
176
     1
 90
        0
176
     1
 90
        0
176
     1
290
     0
176
     1
 90
        1
176
     1
 40
0.0
176
     1
 90
        0
176
     1
290
     0
176
     1
290
     1
176
     1
290
     1
176
     1
290
     0
176
     1
290
     0
176
     1
290
     0
176
     1
290
     0
176
     1
290
     0
176
     1
290
     0
176
     1
 90
       50
176
     1
 40
0.0
176
     1
 40
1.0
176
     1
 90
        0
176
     1
 62
    18
420
        0
176
     1
 90
       50
176
     1
 90
        3
176
     1
 62
     5
420
      255
176
     1
290
     0
176
     1
 90
       50
176
     1
 90
       50
176
     1
 90
       50
176
     1
290
     0
176
     1
 90
       50
176
     1
 62
   256
176
     0
 40
1.0
176
     0
 90
        2
176
     1
  1
strokes_ogs.tif
176
     1
290
     0
176
     1
 40
1.0
176
     1
 40
1.0
176
     1
  0
VISUALSTYLE
  5
35
102
{ACAD_REACTORS
330
29
102
}
330
29
100
AcDbVisualStyle
  2
Brighten
 70
    12
177
     3
291
     1
 70
    58
 90
        2
176
     1
 90
        2
176
     1
 90
        0
176
     1
 90
        0
176
     1
 40
0.6
176
     1
 40
30.0
176
     1
 62
     7
420
 16777215
176
     1
 90
        1
176
     1
 90
        4
176
     1
 62
     7
176
     1
 62
   257
176
     1
 90
        1
176
     1
 90
        1
176
     1
 40
1.0
176
     1
 90
        8
176
     1
 62
     7
176
     1
 40
1.0
176
     1
 90
        1
176
     1
 90
        6
176
     1
 90
        2
176
     1
 62
     7
176
     1
 90
        5
176
     1
 90
        0
176
     1
 90
        0
176
     1
290
     0
176
     1
 90
        1
176
     1
 40
50.0
176
     1
 90
        0
176
     1
290
     0
176
     1
290
     1
176
     1
290
     1
176
     1
290
     0
176
     1
290
     0
176
     1
290
     0
176
     1
290
     0
176
     1
290
     0
176
     1
290
     0
176
     1
 90
       50
176
     1
 40
0.0
176
     1
 40
1.0
176
     1
 90
        0
176
     1
 62
    18
420
        0
176
     1
 90
       50
176
     1
 90
        3
176
     1
 62
     5
420
      255
176
     1
290
     0
176
     1
 90
       50
176
     1
 90
       50
176
     1
 90
       50
176
     1
290
     0
176
     1
 90
       50
176
     1
 62
   256
176
     0
 40
1.0
176
     0
 90
        2
176
     1
  1
strokes_ogs.tif
176
     1
290
     0
176
     1
 40
1.0
176
     1
 40
1.0
176
     1
  0
VISUALSTYLE
  5
39
102
{ACAD_REACTORS
330
29
102
}
330
29
100
AcDbVisualStyle
  2
ColorChange
 70
    16
177
     3
291
     1
 70
    58
 90
        2
176
     1
 90
        2
176
     1
 90
        3
176
     1
 90
        0
176
     1
 40
0.6
176
     1
 40
30.0
176
     1
 62
     8
420
  8421504
176
     1
 90
        1
176
     1
 90
        4
176
     1
 62
     7
176
     1
 62
   257
176
     1
 90
        1
176
     1
 90
        1
176
     1
 40
1.0
176
     1
 90
        8
176
     1
 62
     8
420
  8421504
176
     1
 40
1.0
176
     1
 90
        1
176
     1
 90
        6
176
     1
 90
        2
176
     1
 62
     7
176
     1
 90
        5
176
     1
 90
        0
176
     1
 90
        0
176
     1
290
     0
176
     1
 90
        1
176
     1
 40
0.0
176
     1
 90
        0
176
     1
290
     0
176
     1
290
     1
176
     1
290
     1
176
     1
290
     0
176
     1
290
     0
176
     1
290
     0
176
     1
290
     0
176
     1
290
     0
176
     1
290
     0
176
     1
 90
       50
176
     1
 40
0.0
176
     1
 40
1.0
176
     1
 90
        0
176
     1
 62
    18
420
        0
176
     1
 90
       50
176
     1
 90
        3
176
     1
 62
     5
420
      255
176
     1
290
     0
176
     1
 90
       50
176
     1
 90
       50
176
     1
 90
       50
176
     1
290
     0
176
     1
 90
       50
176
     1
 62
   256
176
     0
 40
1.0
176
     0
 90
        2
176
     1
  1
strokes_ogs.tif
176
     1
290
     0
176
     1
 40
1.0
176
     1
 40
1.0
176
     1
  0
VISUALSTYLE
  5
32
102
{ACAD_REACTORS
330
29
102
}
330
29
100
AcDbVisualStyle
  2
Conceptual
 70
     9
177
     3
291
     0
 70
    58
 90
        3
176
     1
 90
        2
176
     1
 90
        0
176
     1
 90
        0
176
     1
 40
0.6
176
     1
 40
30.0
176
     1
 62
     7
420
 16777215
176
     1
 90
        2
176
     1
 90
        2
176
     1
 62
     7
176
     1
 62
   257
176
     1
 90
        1
176
     1
 90
        1
176
     1
 40
179.0
176
     1
 90
        8
176
     1
 62
     7
176
     1
 40
1.0
176
     1
 90
        1
176
     1
 90
        6
176
     1
 90
        2
176
     1
 62
     7
176
     1
 90
        3
176
     1
 90
        0
176
     1
 90
        0
176
     1
290
     0
176
     1
 90
        1
176
     1
 40
0.0
176
     1
 90
        0
176
     1
290
     0
176
     1
290
     1
176
     1
290
     1
176
     1
290
     0
176
     1
290
     0
176
     1
290
     0
176
     1
290
     0
176
     1
290
     0
176
     1
290
     0
176
     1
 90
       50
176
     1
 40
0.0
176
     1
 40
1.0
176
     1
 90
        0
176
     1
 62
    18
420
        0
176
     1
 90
       50
176
     1
 90
        3
176
     1
 62
     5
420
      255
176
     1
290
     0
176
     1
 90
       50
176
     1
 90
       50
176
     1
 90
       50
176
     1
290
     0
176
     1
 90
       50
176
     1
 62
   256
176
     0
 40
1.0
176
     0
 90
        2
176
     1
  1
strokes_ogs.tif
176
     1
290
     0
176
     1
 40
1.0
176
     1
 40
1.0
176
     1
  0
VISUALSTYLE
  5
34
102
{ACAD_REACTORS
330
29
102
}
330
29
100
AcDbVisualStyle
  2
Dim
 70
    11
177
     3
291
     1
 70
    58
 90
        2
176
     1
 90
        2
176
     1
 90
        0
176
     1
 90
        0
176
     1
 40
0.6
176
     1
 40
30.0
176
     1
 62
     7
420
 16777215
176
     1
 90
        1
176
     1
 90
        4
176
     1
 62
     7
176
     1
 62
   257
176
     1
 90
        1
176
     1
 90
        1
176
     1
 40
1.0
176
     1
 90
        8
176
     1
 62
     7
176
     1
 40
1.0
176
     1
 90
        1
176
     1
 90
        6
176
     1
 90
        2
176
     1
 62
     7
176
     1
 90
        5
176
     1
 90
        0
176
     1
 90
        0
176
     1
290
     0
176
     1
 90
        1
176
     1
 40
-50.0
176
     1
 90
        0
176
     1
290
     0
176
     1
290
     1
176
     1
290
     1
176
     1
290
     0
176
     1
290
     0
176
     1
290
     0
176
     1
290
     0
176
     1
290
     0
176
     1
290
     0
176
     1
 90
       50
176
     1
 40
0.0
176
     1
 40
1.0
176
     1
 90
        0
176
     1
 62
    18
420
        0
176
     1
 90
       50
176
     1
 90
        3
176
     1
 62
     5
420
      255
176
     1
290
     0
176
     1
 90
       50
176
     1
 90
       50
176
     1
 90
       50
176
     1
290
     0
176
     1
 90
       50
176
     1
 62
   256
176
     0
 40
1.0
176
     0
 90
        2
176
     1
  1
strokes_ogs.tif
176
     1
290
     0
176
     1
 40
1.0
176
     1
 40
1.0
176
     1
  0
VISUALSTYLE
  5
41
102
{ACAD_REACTORS
330
29
102
}
330
29
100
AcDbVisualStyle
  2
EdgeColorOff
 70
    22
177
     3
291
     1
 70
    58
 90
        2
176
     0
 90
        2
176
     0
 90
        0
176
     0
 90
        0
176
     0
 40
0.6
176
     0
 40
30.0
176
     0
 62
     7
420
 16777215
176
     0
 90
        1
176
     0
 90
        4
176
     0
 62
     7
176
     0
 62
   257
176
     0
 90
        1
176
     0
 90
        1
176
     0
 40
1.0
176
     0
 90
        8
176
     2
 62
     7
176
     0
 40
1.0
176
     0
 90
        1
176
     0
 90
        6
176
     0
 90
        2
176
     0
 62
     7
176
     0
 90
        5
176
     0
 90
        0
176
     0
 90
        0
176
     0
290
     0
176
     0
 90
        1
176
     0
 40
0.0
176
     0
 90
        0
176
     0
290
     0
176
     0
290
     1
176
     0
290
     1
176
     0
290
     0
176
     0
290
     0
176
     0
290
     0
176
     0
290
     0
176
     0
290
     0
176
     0
290
     0
176
     0
 90
       50
176
     0
 40
0.0
176
     0
 40
1.0
176
     0
 90
        0
176
     0
 62
    18
420
        0
176
     0
 90
       50
176
     0
 90
        3
176
     0
 62
     5
420
      255
176
     0
290
     0
176
     0
 90
       50
176
     0
 90
       50
176
     0
 90
       50
176
     0
290
     0
176
     0
 90
       50
176
     0
 62
   256
176
     0
 40
1.0
176
     0
 90
        2
176
     0
  1
strokes_ogs.tif
176
     0
290
     0
176
     0
 40
1.0
176
     0
 40
1.0
176
     0
  0
VISUALSTYLE
  5
38
102
{ACAD_REACTORS
330
29
102
}
330
29
100
AcDbVisualStyle
  2
Facepattern
 70
    15
177
     3
291
     1
 70
    58
 90
        2
176
     1
 90
        2
176
     1
 90
        0
176
     1
 90
        0
176
     1
 40
0.6
176
     1
 40
30.0
176
     1
 62
     7
420
 16777215
176
     1
 90
        1
176
     1
 90
        4
176
     1
 62
     7
176
     1
 62
   257
176
     1
 90
        1
176
     1
 90
        1
176
     1
 40
1.0
176
     1
 90
        8
176
     1
 62
     7
176
     1
 40
1.0
176
     1
 90
        1
176
     1
 90
        6
176
     1
 90
        2
176
     1
 62
     7
176
     1
 90
        5
176
     1
 90
        0
176
     1
 90
        0
176
     1
290
     0
176
     1
 90
        1
176
     1
 40
0.0
176
     1
 90
        0
176
     1
290
     0
176
     1
290
     1
176
     1
290
     1
176
     1
290
     0
176
     1
290
     0
176
     1
290
     0
176
     1
290
     0
176
     1
290
     0
176
     1
290
     0
176
     1
 90
       50
176
     1
 40
0.0
176
     1
 40
1.0
176
     1
 90
        0
176
     1
 62
    18
420
        0
176
     1
 90
       50
176
     1
 90
        3
176
     1
 62
     5
420
      255
176
     1
290
     0
176
     1
 90
       50
176
     1
 90
       50
176
     1
 90
       50
176
     1
290
     0
176
     1
 90
       50
176
     1
 62
   256
176
     0
 40
1.0
176
     0
 90
        2
176
     1
  1
strokes_ogs.tif
176
     1
290
     0
176
     1
 40
1.0
176
     1
 40
1.0
176
     1
  0
VISUALSTYLE
  5
2A
102
{ACAD_REACTORS
330
29
102
}
330
29
100
AcDbVisualStyle
  2
Flat
 70
     0
177
     3
291
     1
 70
    58
 90
        2
176
     1
 90
        1
176
     1
 90
        1
176
     1
 90
        2
176
     1
 40
0.6
176
     1
 40
30.0
176
     1
 62
     7
420
 16777215
176
     1
 90
        0
176
     1
 90
        0
176
     1
 62
     7
176
     1
 62
   257
176
     1
 90
        1
176
     1
 90
        1
176
     1
 40
1.0
176
     1
 90
        8
176
     1
 62
     7
176
     1
 40
1.0
176
     1
 90
        1
176
     1
 90
        6
176
     1
 90
        2
176
     1
 62
     7
176
     1
 90
        5
176
     1
 90
        0
176
     1
 90
        0
176
     1
290
     0
176
     1
 90
       13
176
     1
 40
0.0
176
     1
 90
        0
176
     1
290
     0
176
     1
290
     1
176
     1
290
     1
176
     1
290
     0
176
     1
290
     0
176
     1
290
     0
176
     1
290
     0
176
     1
290
     0
176
     1
290
     0
176
     1
 90
       50
176
     1
 40
0.0
176
     1
 40
1.0
176
     1
 90
        0
176
     1
 62
    18
420
        0
176
     1
 90
       50
176
     1
 90
        3
176
     1
 62
     5
420
      255
176
     1
290
     0
176
     1
 90
       50
176
     1
 90
       50
176
     1
 90
       50
176
     1
290
     0
176
     1
 90
       50
176
     1
 62
   256
176
     0
 40
1.0
176
     0
 90
        2
176
     1
  1
strokes_ogs.tif
176
     1
290
     0
176
     1
 40
1.0
176
     1
 40
1.0
176
     1
  0
VISUALSTYLE
  5
2B
102
{ACAD_REACTORS
330
29
102
}
330
29
100
AcDbVisualStyle
  2
FlatWithEdges
 70
     1
177
     3
291
     1
 70
    58
 90
        2
176
     1
 90
        1
176
     1
 90
        1
176
     1
 90
        2
176
     1
 40
0.6
176
     1
 40
30.0
176
     1
 62
     7
420
 16777215
176
     1
 90
        1
176
     1
 90
        0
176
     1
 62
     7
176
     1
 62
   257
176
     1
 90
        1
176
     1
 90
        1
176
     1
 40
1.0
176
     1
 90
        0
176
     1
 62
   257
176
     1
 40
1.0
176
     1
 90
        1
176
     1
 90
        6
176
     1
 90
        2
176
     1
 62
     7
176
     1
 90
        5
176
     1
 90
        0
176
     1
 90
        0
176
     1
290
     0
176
     1
 90
       13
176
     1
 40
0.0
176
     1
 90
        0
176
     1
290
     0
176
     1
290
     1
176
     1
290
     1
176
     1
290
     0
176
     1
290
     0
176
     1
290
     0
176
     1
290
     0
176
     1
290
     0
176
     1
290
     0
176
     1
 90
       50
176
     1
 40
0.0
176
     1
 40
1.0
176
     1
 90
        0
176
     1
 62
    18
420
        0
176
     1
 90
       50
176
     1
 90
        3
176
     1
 62
     5
420
      255
176
     1
290
     0
176
     1
 90
       50
176
     1
 90
       50
176
     1
 90
       50
176
     1
290
     0
176
     1
 90
       50
176
     1
 62
   256
176
     0
 40
1.0
176
     0
 90
        2
176
     1
  1
strokes_ogs.tif
176
     1
290
     0
176
     1
 40
1.0
176
     1
 40
1.0
176
     1
  0
VISUALSTYLE
  5
2C
102
{ACAD_REACTORS
330
29
102
}
330
29
100
AcDbVisualStyle
  2
Gouraud
 70
     2
177
     3
291
     1
 70
    58
 90
        2
176
     1
 90
        2
176
     1
 90
        1
176
     1
 90
        2
176
     1
 40
0.6
176
     1
 40
30.0
176
     1
 62
     7
420
 16777215
176
     1
 90
        0
176
     1
 90
        0
176
     1
 62
     7
176
     1
 62
   257
176
     1
 90
        1
176
     1
 90
        1
176
     1
 40
1.0
176
     1
 90
        0
176
     1
 62
     7
176
     1
 40
1.0
176
     1
 90
        1
176
     1
 90
        6
176
     1
 90
        2
176
     1
 62
     7
176
     1
 90
        5
176
     1
 90
        0
176
     1
 90
        0
176
     1
290
     0
176
     1
 90
       13
176
     1
 40
0.0
176
     1
 90
        0
176
     1
290
     0
176
     1
290
     1
176
     1
290
     1
176
     1
290
     0
176
     1
290
     0
176
     1
290
     0
176
     1
290
     0
176
     1
290
     0
176
     1
290
     0
176
     1
 90
       50
176
     1
 40
0.0
176
     1
 40
1.0
176
     1
 90
        0
176
     1
 62
    18
420
        0
176
     1
 90
       50
176
     1
 90
        3
176
     1
 62
     5
420
      255
176
     1
290
     0
176
     1
 90
       50
176
     1
 90
       50
176
     1
 90
       50
176
     1
290
     0
176
     1
 90
       50
176
     1
 62
   256
176
     0
 40
1.0
176
     0
 90
        2
176
     1
  1
strokes_ogs.tif
176
     1
290
     0
176
     1
 40
1.0
176
     1
 40
1.0
176
     1
  0
VISUALSTYLE
  5
2D
102
{ACAD_REACTORS
330
29
102
}
330
29
100
AcDbVisualStyle
  2
GouraudWithEdges
 70
     3
177
     3
291
     1
 70
    58
 90
        2
176
     1
 90
        2
176
     1
 90
        1
176
     1
 90
        2
176
     1
 40
0.6
176
     1
 40
30.0
176
     1
 62
     7
420
 16777215
176
     1
 90
        1
176
     1
 90
        0
176
     1
 62
     7
176
     1
 62
   257
176
     1
 90
        1
176
     1
 90
        1
176
     1
 40
1.0
176
     1
 90
        0
176
     1
 62
   257
176
     1
 40
1.0
176
     1
 90
        1
176
     1
 90
        6
176
     1
 90
        2
176
     1
 62
     7
176
     1
 90
        5
176
     1
 90
        0
176
     1
 90
        0
176
     1
290
     0
176
     1
 90
       13
176
     1
 40
0.0
176
     1
 90
        0
176
     1
290
     0
176
     1
290
     1
176
     1
290
     1
176
     1
290
     0
176
     1
290
     0
176
     1
290
     0
176
     1
290
     0
176
     1
290
     0
176
     1
290
     0
176
     1
 90
       50
176
     1
 40
0.0
176
     1
 40
1.0
176
     1
 90
        0
176
     1
 62
    18
420
        0
176
     1
 90
       50
176
     1
 90
        3
176
     1
 62
     5
420
      255
176
     1
290
     0
176
     1
 90
       50
176
     1
 90
       50
176
     1
 90
       50
176
     1
290
     0
176
     1
 90
       50
176
     1
 62
   256
176
     0
 40
1.0
176
     0
 90
        2
176
     1
  1
strokes_ogs.tif
176
     1
290
     0
176
     1
 40
1.0
176
     1
 40
1.0
176
     1
  0
VISUALSTYLE
  5
31
102
{ACAD_REACTORS
330
29
102
}
330
29
100
AcDbVisualStyle
  2
Hidden
 70
     6
177
     3
291
     0
 70
    58
 90
        1
176
     1
 90
        2
176
     1
 90
        2
176
     1
 90
        0
176
     1
 40
0.6
176
     1
 40
30.0
176
     1
 62
     7
420
 16777215
176
     1
 90
        2
176
     1
 90
        2
176
     1
 62
     7
176
     1
 62
   257
176
     1
 90
        2
176
     1
 90
        1
176
     1
 40
40.0
176
     1
 90
        0
176
     1
 62
   257
176
     1
 40
1.0
176
     1
 90
        1
176
     1
 90
        6
176
     1
 90
        2
176
     1
 62
     7
176
     1
 90
        3
176
     1
 90
        0
176
     1
 90
        0
176
     1
290
     0
176
     1
 90
        1
176
     1
 40
0.0
176
     1
 90
        0
176
     1
290
     0
176
     1
290
     1
176
     1
290
     1
176
     1
290
     0
176
     1
290
     0
176
     1
290
     0
176
     1
290
     0
176
     1
290
     0
176
     1
290
     0
176
     1
 90
       50
176
     1
 40
0.0
176
     1
 40
1.0
176
     1
 90
        0
176
     1
 62
    18
420
        0
176
     1
 90
       50
176
     1
 90
        3
176
     1
 62
     5
420
      255
176
     1
290
     0
176
     1
 90
       50
176
     1
 90
       50
176
     1
 90
       50
176
     1
290
     0
176
     1
 90
       50
176
     1
 62
   256
176
     0
 40
1.0
176
     0
 90
        2
176
     1
  1
strokes_ogs.tif
176
     1
290
     0
176
     1
 40
1.0
176
     1
 40
1.0
176
     1
  0
VISUALSTYLE
  5
3F
102
{ACAD_REACTORS
330
29
102
}
330
29
100
AcDbVisualStyle
  2
JitterOff
 70
    20
177
     3
291
     1
 70
    58
 90
        2
176
     0
 90
        2
176
     0
 90
        0
176
     0
 90
        0
176
     0
 40
0.6
176
     0
 40
30.0
176
     0
 62
     7
420
 16777215
176
     0
 90
        1
176
     0
 90
        4
176
     0
 62
     7
176
     0
 62
   257
176
     0
 90
        1
176
     0
 90
        1
176
     0
 40
1.0
176
     0
 90
       10
176
     2
 62
     7
176
     0
 40
1.0
176
     0
 90
        1
176
     0
 90
        6
176
     0
 90
        2
176
     0
 62
     7
176
     0
 90
        5
176
     0
 90
        0
176
     0
 90
        0
176
     0
290
     0
176
     0
 90
        1
176
     0
 40
0.0
176
     0
 90
        0
176
     0
290
     0
176
     0
290
     1
176
     0
290
     1
176
     0
290
     0
176
     0
290
     0
176
     0
290
     0
176
     0
290
     0
176
     0
290
     0
176
     0
290
     0
176
     0
 90
       50
176
     0
 40
0.0
176
     0
 40
1.0
176
     0
 90
        0
176
     0
 62
    18
420
        0
176
     0
 90
       50
176
     0
 90
        3
176
     0
 62
     5
420
      255
176
     0
290
     0
176
     0
 90
       50
176
     0
 90
       50
176
     0
 90
       50
176
     0
290
     0
176
     0
 90
       50
176
     0
 62
   256
176
     0
 40
1.0
176
     0
 90
        2
176
     0
  1
strokes_ogs.tif
176
     0
290
     0
176
     0
 40
1.0
176
     0
 40
1.0
176
     0
  0
VISUALSTYLE
  5
37
102
{ACAD_REACTORS
330
29
102
}
330
29
100
AcDbVisualStyle
  2
Linepattern
 70
    14
177
     3
291
     1
 70
    58
 90
        2
176
     1
 90
        2
176
     1
 90
        0
176
     1
 90
        0
176
     1
 40
0.6
176
     1
 40
30.0
176
     1
 62
     7
420
 16777215
176
     1
 90
        1
176
     1
 90
        4
176
     1
 62
     7
176
     1
 62
   257
176
     1
 90
        7
176
     1
 90
        7
176
     1
 40
1.0
176
     1
 90
        8
176
     1
 62
     7
176
     1
 40
1.0
176
     1
 90
        1
176
     1
 90
        6
176
     1
 90
        2
176
     1
 62
     7
176
     1
 90
        5
176
     1
 90
        0
176
     1
 90
        0
176
     1
290
     0
176
     1
 90
        1
176
     1
 40
0.0
176
     1
 90
        0
176
     1
290
     0
176
     1
290
     1
176
     1
290
     1
176
     1
290
     0
176
     1
290
     0
176
     1
290
     0
176
     1
290
     0
176
     1
290
     0
176
     1
290
     0
176
     1
 90
       50
176
     1
 40
0.0
176
     1
 40
1.0
176
     1
 90
        0
176
     1
 62
    18
420
        0
176
     1
 90
       50
176
     1
 90
        3
176
     1
 62
     5
420
      255
176
     1
290
     0
176
     1
 90
       50
176
     1
 90
       50
176
     1
 90
       50
176
     1
290
     0
176
     1
 90
       50
176
     1
 62
   256
176
     0
 40
1.0
176
     0
 90
        2
176
     1
  1
strokes_ogs.tif
176
     1
290
     0
176
     1
 40
1.0
176
     1
 40
1.0
176
     1
  0
VISUALSTYLE
  5
40
102
{ACAD_REACTORS
330
29
102
}
330
29
100
AcDbVisualStyle
  2
OverhangOff
 70
    21
177
     3
291
     1
 70
    58
 90
        2
176
     0
 90
        2
176
     0
 90
        0
176
     0
 90
        0
176
     0
 40
0.6
176
     0
 40
30.0
176
     0
 62
     7
420
 16777215
176
     0
 90
        1
176
     0
 90
        4
176
     0
 62
     7
176
     0
 62
   257
176
     0
 90
        1
176
     0
 90
        1
176
     0
 40
1.0
176
     0
 90
        9
176
     2
 62
     7
176
     0
 40
1.0
176
     0
 90
        1
176
     0
 90
        6
176
     0
 90
        2
176
     0
 62
     7
176
     0
 90
        5
176
     0
 90
        0
176
     0
 90
        0
176
     0
290
     0
176
     0
 90
        1
176
     0
 40
0.0
176
     0
 90
        0
176
     0
290
     0
176
     0
290
     1
176
     0
290
     1
176
     0
290
     0
176
     0
290
     0
176
     0
290
     0
176
     0
290
     0
176
     0
290
     0
176
     0
290
     0
176
     0
 90
       50
176
     0
 40
0.0
176
     0
 40
1.0
176
     0
 90
        0
176
     0
 62
    18
420
        0
176
     0
 90
       50
176
     0
 90
        3
176
     0
 62
     5
420
      255
176
     0
290
     0
176
     0
 90
       50
176
     0
 90
       50
176
     0
 90
       50
176
     0
290
     0
176
     0
 90
       50
176
     0
 62
   256
176
     0
 40
1.0
176
     0
 90
        2
176
     0
  1
strokes_ogs.tif
176
     0
290
     0
176
     0
 40
1.0
176
     0
 40
1.0
176
     0
  0
VISUALSTYLE
  5
33
102
{ACAD_REACTORS
330
29
102
}
330
29
100
AcDbVisualStyle
  2
Realistic
 70
     8
177
     3
291
     0
 70
    58
 90
        2
176
     1
 90
        3
176
     1
 90
        0
176
     1
 90
        2
176
     1
 40
0.6
176
     1
 40
30.0
176
     1
 62
     7
420
 16777215
176
     1
 90
        0
176
     1
 90
        0
176
     1
 62
     7
176
     1
 62
   257
176
     1
 90
        1
176
     1
 90
        1
176
     1
 40
1.0
176
     1
 90
        8
176
     1
 62
   257
176
     1
 40
1.0
176
     1
 90
        1
176
     1
 90
        6
176
     1
 90
        2
176
     1
 62
     7
176
     1
 90
        3
176
     1
 90
        0
176
     1
 90
        0
176
     1
290
     0
176
     1
 90
       13
176
     1
 40
0.0
176
     1
 90
        0
176
     1
290
     0
176
     1
290
     1
176
     1
290
     1
176
     1
290
     0
176
     1
290
     0
176
     1
290
     0
176
     1
290
     0
176
     1
290
     0
176
     1
290
     0
176
     1
 90
       50
176
     1
 40
0.0
176
     1
 40
1.0
176
     1
 90
        0
176
     1
 62
    18
420
        0
176
     1
 90
       50
176
     1
 90
        3
176
     1
 62
     5
420
      255
176
     1
290
     0
176
     1
 90
       50
176
     1
 90
       50
176
     1
 90
       50
176
     1
290
     0
176
     1
 90
       50
176
     1
 62
   256
176
     0
 40
1.0
176
     0
 90
        2
176
     1
  1
strokes_ogs.tif
176
     1
290
     0
176
     1
 40
1.0
176
     1
 40
1.0
176
     1
  0
VISUALSTYLE
  5
3E
102
{ACAD_REACTORS
330
29
102
}
330
29
100
AcDbVisualStyle
  2
Shaded
 70
    27
177
     3
291
     0
 70
    58
 90
        2
176
     1
 90
        2
176
     1
 90
        1
176
     1
 90
        2
176
     1
 40
0.6
176
     1
 40
30.0
176
     1
 62
     7
420
 16777215
176
     1
 90
        0
176
     1
 90
        4
176
     1
 62
     7
176
     1
 62
   257
176
     1
 90
        1
176
     1
 90
        1
176
     1
 40
1.0
176
     1
 90
        8
176
     1
 62
   257
176
     1
 40
1.0
176
     1
 90
        1
176
     1
 90
        6
176
     1
 90
        2
176
     1
 62
     8
420
  7895160
176
     1
 90
        3
176
     1
 90
        0
176
     1
 90
        0
176
     1
290
     0
176
     1
 90
        5
176
     1
 40
0.0
176
     1
 90
        0
176
     1
290
     0
176
     1
290
     1
176
     1
290
     1
176
     1
290
     0
176
     1
290
     0
176
     1
290
     0
176
     1
290
     0
176
     1
290
     0
176
     1
290
     0
176
     1
 90
       50
176
     1
 40
0.0
176
     1
 40
1.0
176
     1
 90
        0
176
     1
 62
    18
420
        0
176
     1
 90
       50
176
     1
 90
        3
176
     1
 62
     5
420
      255
176
     1
290
     0
176
     1
 90
       50
176
     1
 90
       50
176
     1
 90
       50
176
     1
290
     0
176
     1
 90
       50
176
     1
 62
   256
176
     0
 40
1.0
176
     0
 90
        2
176
     1
  1
strokes_ogs.tif
176
     1
290
     0
176
     1
 40
1.0
176
     1
 40
1.0
176
     1
  0
VISUALSTYLE
  5
3D
102
{ACAD_REACTORS
330
29
102
}
330
29
100
AcDbVisualStyle
  2
Shaded with edges
 70
    26
177
     3
291
     0
 70
    58
 90
        2
176
     1
 90
        2
176
     1
 90
        1
176
     1
 90
        2
176
     1
 40
0.6
176
     1
 40
30.0
176
     1
 62
     7
420
 16777215
176
     1
 90
        1
176
     1
 90
        2
176
     1
 62
     7
176
     1
 62
   257
176
     1
 90
        2
176
     1
 90
        1
176
     1
 40
1.0
176
     1
 90
        8
176
     1
 62
   257
176
     1
 40
1.0
176
     1
 90
        1
176
     1
 90
        6
176
     1
 90
        2
176
     1
 62
     7
176
     1
 90
        3
176
     1
 90
        0
176
     1
 90
        0
176
     1
290
     0
176
     1
 90
        5
176
     1
 40
0.0
176
     1
 90
        0
176
     1
290
     0
176
     1
290
     1
176
     1
290
     1
176
     1
290
     0
176
     1
290
     0
176
     1
290
     0
176
     1
290
     0
176
     1
290
     0
176
     1
290
     0
176
     1
 90
       50
176
     1
 40
0.0
176
     1
 40
1.0
176
     1
 90
        0
176
     1
 62
    18
420
        0
176
     1
 90
       50
176
     1
 90
        3
176
     1
 62
     5
420
      255
176
     1
290
     0
176
     1
 90
       50
176
     1
 90
       50
176
     1
 90
       50
176
     1
290
     0
176
     1
 90
       50
176
     1
 62
   256
176
     0
 40
1.0
176
     0
 90
        2
176
     1
  1
strokes_ogs.tif
176
     1
290
     0
176
     1
 40
1.0
176
     1
 40
1.0
176
     1
  0
VISUALSTYLE
  5
3A
102
{ACAD_REACTORS
330
29
102
}
330
29
100
AcDbVisualStyle
  2
Shades of Gray
 70
    23
177
     3
291
     0
 70
    58
 90
        2
176
     1
 90
        2
176
     1
 90
        3
176
     1
 90
        0
176
     1
 40
0.6
176
     1
 40
30.0
176
     1
 62
     7
420
 16777215
176
     1
 90
        2
176
     1
 90
        2
176
     1
 62
     7
176
     1
 62
     7
176
     1
 90
        1
176
     1
 90
        1
176
     1
 40
40.0
176
     1
 90
        8
176
     1
 62
     7
176
     1
 40
1.0
176
     1
 90
        1
176
     1
 90
        6
176
     1
 90
        2
176
     1
 62
     7
176
     1
 90
        3
176
     1
 90
        0
176
     1
 90
        0
176
     1
290
     0
176
     1
 90
        1
176
     1
 40
0.0
176
     1
 90
        0
176
     1
290
     0
176
     1
290
     1
176
     1
290
     1
176
     1
290
     0
176
     1
290
     0
176
     1
290
     0
176
     1
290
     0
176
     1
290
     0
176
     1
290
     0
176
     1
 90
       50
176
     1
 40
0.0
176
     1
 40
1.0
176
     1
 90
        0
176
     1
 62
    18
420
        0
176
     1
 90
       50
176
     1
 90
        3
176
     1
 62
     5
420
      255
176
     1
290
     0
176
     1
 90
       50
176
     1
 90
       50
176
     1
 90
       50
176
     1
290
     0
176
     1
 90
       50
176
     1
 62
   256
176
     0
 40
1.0
176
     0
 90
        2
176
     1
  1
strokes_ogs.tif
176
     1
290
     0
176
     1
 40
1.0
176
     1
 40
1.0
176
     1
  0
VISUALSTYLE
  5
3B
102
{ACAD_REACTORS
330
29
102
}
330
29
100
AcDbVisualStyle
  2
Sketchy
 70
    24
177
     3
291
     0
 70
    58
 90
        1
176
     1
 90
        2
176
     1
 90
        2
176
     1
 90
        0
176
     1
 40
0.6
176
     1
 40
30.0
176
     1
 62
     7
420
 16777215
176
     1
 90
        2
176
     1
 90
        2
176
     1
 62
     7
176
     1
 62
     7
176
     1
 90
        1
176
     1
 90
        1
176
     1
 40
40.0
176
     1
 90
       11
176
     1
 62
     7
176
     1
 40
1.0
176
     1
 90
        1
176
     1
 90
        6
176
     1
 90
        2
176
     1
 62
     7
176
     1
 90
        6
176
     1
 90
        0
176
     1
 90
        0
176
     1
290
     0
176
     1
 90
        1
176
     1
 40
0.0
176
     1
 90
        0
176
     1
290
     0
176
     1
290
     1
176
     1
290
     1
176
     1
290
     0
176
     1
290
     0
176
     1
290
     0
176
     1
290
     0
176
     1
290
     0
176
     1
290
     0
176
     1
 90
       50
176
     1
 40
0.0
176
     1
 40
1.0
176
     1
 90
        0
176
     1
 62
    18
420
        0
176
     1
 90
       50
176
     1
 90
        3
176
     1
 62
     5
420
      255
176
     1
290
     0
176
     1
 90
       50
176
     1
 90
       50
176
     1
 90
       50
176
     1
290
     0
176
     1
 90
       50
176
     1
 62
   256
176
     0
 40
1.0
176
     0
 90
        2
176
     1
  1
strokes_ogs.tif
176
     1
290
     0
176
     1
 40
1.0
176
     1
 40
1.0
176
     1
  0
VISUALSTYLE
  5
36
102
{ACAD_REACTORS
330
29
102
}
330
29
100
AcDbVisualStyle
  2
Thicken
 70
    13
177
     3
291
     1
 70
    58
 90
        2
176
     1
 90
        2
176
     1
 90
        0
176
     1
 90
        0
176
     1
 40
0.6
176
     1
 40
30.0
176
     1
 62
     7
420
 16777215
176
     1
 90
        1
176
     1
 90
        4
176
     1
 62
     7
176
     1
 62
   257
176
     1
 90
        1
176
     1
 90
        1
176
     1
 40
1.0
176
     1
 90
       12
176
     1
 62
     7
176
     1
 40
1.0
176
     1
 90
        1
176
     1
 90
        6
176
     1
 90
        2
176
     1
 62
     7
176
     1
 90
        5
176
     1
 90
        0
176
     1
 90
        0
176
     1
290
     0
176
     1
 90
        1
176
     1
 40
0.0
176
     1
 90
        0
176
     1
290
     0
176
     1
290
     1
176
     1
290
     1
176
     1
290
     0
176
     1
290
     0
176
     1
290
     0
176
     1
290
     0
176
     1
290
     0
176
     1
290
     0
176
     1
 90
       50
176
     1
 40
0.0
176
     1
 40
1.0
176
     1
 90
        0
176
     1
 62
    18
420
        0
176
     1
 90
       50
176
     1
 90
        3
176
     1
 62
     5
420
      255
176
     1
290
     0
176
     1
 90
       50
176
     1
 90
       50
176
     1
 90
       50
176
     1
290
     0
176
     1
 90
       50
176
     1
 62
   256
176
     0
 40
1.0
176
     0
 90
        2
176
     1
  1
strokes_ogs.tif
176
     1
290
     0
176
     1
 40
1.0
176
     1
 40
1.0
176
     1
  0
VISUALSTYLE
  5
30
102
{ACAD_REACTORS
330
29
102
}
330
29
100
AcDbVisualStyle
  2
Wireframe
 70
     5
177
     3
291
     0
 70
    58
 90
        0
176
     1
 90
        2
176
     1
 90
        0
176
     1
 90
        0
176
     1
 40
0.6
176
     1
 40
30.0
176
     1
 62
     7
420
 16777215
176
     1
 90
        1
176
     1
 90
        4
176
     1
 62
     7
176
     1
 62
   257
176
     1
 90
        1
176
     1
 90
        1
176
     1
 40
1.0
176
     1
 90
        0
176
     1
 62
   257
176
     1
 40
1.0
176
     1
 90
        1
176
     1
 90
        6
176
     1
 90
        2
176
     1
 62
     7
176
     1
 90
        3
176
     1
 90
        0
176
     1
 90
        0
176
     1
290
     0
176
     1
 90
        1
176
     1
 40
0.0
176
     1
 90
        0
176
     1
290
     0
176
     1
290
     1
176
     1
290
     1
176
     1
290
     0
176
     1
290
     0
176
     1
290
     0
176
     1
290
     0
176
     1
290
     0
176
     1
290
     0
176
     1
 90
       50
176
     1
 40
0.0
176
     1
 40
1.0
176
     1
 90
        0
176
     1
 62
    18
420
        0
176
     1
 90
       50
176
     1
 90
        3
176
     1
 62
     5
420
      255
176
     1
290
     0
176
     1
 90
       50
176
     1
 90
       50
176
     1
 90
       50
176
     1
290
     0
176
     1
 90
       50
176
     1
 62
   256
176
     0
 40
1.0
176
     0
 90
        2
176
     1
  1
strokes_ogs.tif
176
     1
290
     0
176
     1
 40
1.0
176
     1
 40
1.0
176
     1
  0
VISUALSTYLE
  5
3C
102
{ACAD_REACTORS
330
29
102
}
330
29
100
AcDbVisualStyle
  2
X-Ray
 70
    25
177
     3
291
     0
 70
    58
 90
        2
176
     1
 90
        2
176
     1
 90
        1
176
     1
 90
        1
176
     1
 40
0.5
176
     1
 40
30.0
176
     1
 62
     7
420
 16777215
176
     1
 90
        1
176
     1
 90
        0
176
     1
 62
     7
176
     1
 62
   257
176
     1
 90
        1
176
     1
 90
        1
176
     1
 40
1.0
176
     1
 90
        8
176
     1
 62
     7
176
     1
 40
1.0
176
     1
 90
        1
176
     1
 90
        6
176
     1
 90
        2
176
     1
 62
     7
176
     1
 90
        3
176
     1
 90
        0
176
     1
 90
        0
176
     1
290
     0
176
     1
 90
       13
176
     1
 40
0.0
176
     1
 90
        0
176
     1
290
     0
176
     1
290
     1
176
     1
290
     1
176
     1
290
     0
176
     1
290
     0
176
     1
290
     0
176
     1
290
     0
176
     1
290
     0
176
     1
290
     0
176
     1
 90
       50
176
     1
 40
0.0
176
     1
 40
1.0
176
     1
 90
        0
176
     1
 62
    18
420
        0
176
     1
 90
       50
176
     1
 90
        3
176
     1
 62
     5
420
      255
176
     1
290
     0
176
     1
 90
       50
176
     1
 90
       50
176
     1
 90
       50
176
     1
290
     0
176
     1
 90
       50
176
     1
 62
   256
176
     0
 40
1.0
176
     0
 90
        2
176
     1
  1
strokes_ogs.tif
176
     1
290
     0
176
     1
 40
1.0
176
     1
 40
1.0
176
     1
  0
DICTIONARYVAR
  5
1EE
102
{ACAD_REACTORS
330
1E9
102
}
330
1E9
100
DictionaryVariables
280
     0
  1
1:1
  0
DICTIONARYVAR
  5
1EB
102
{ACAD_REACTORS
330
1E9
102
}
330
1E9
100
DictionaryVariables
280
     0
  1
STANDARD
  0
DICTIONARYVAR
  5
1EA
102
{ACAD_REACTORS
330
1E9
102
}
330
1E9
100
DictionaryVariables
280
     0
  1
STANDARD
  0
DICTIONARYVAR
  5
1EC
102
{ACAD_REACTORS
330
1E9
102
}
330
1E9
100
DictionaryVariables
280
     0
  1
Imperial24
  0
DICTIONARYVAR
  5
1ED
102
{ACAD_REACTORS
330
1E9
102
}
330
1E9
100
DictionaryVariables
280
     0
  1
Imperial24
  0
DICTIONARY
  5
1A
330
19
100
AcDbDictionary
280
     1
281
     1
  3
BUMPTILE
360
1C
  3
DIFFUSETILE
360
1B
  3
OPACITYTILE
360
1F
  3
REFLECTIONTILE
360
1E
  3
REFRACTIONTILE
360
20
  3
SPECULARTILE
360
1D
  0
DICTIONARY
  5
12
330
11
100
AcDbDictionary
280
     1
281
     1
  3
BUMPTILE
360
14
  3
DIFFUSETILE
360
13
  3
OPACITYTILE
360
17
  3
REFLECTIONTILE
360
16
  3
REFRACTIONTILE
360
18
  3
SPECULARTILE
360
15
  0
DICTIONARY
  5
22
330
21
100
AcDbDictionary
280
     1
281
     1
  3
BUMPTILE
360
24
  3
DIFFUSETILE
360
23
  3
OPACITYTILE
360
27
  3
REFLECTIONTILE
360
26
  3
REFRACTIONTILE
360
28
  3
SPECULARTILE
360
25
  0
DICTIONARY
  5
1EF
330
65
100
AcDbDictionary
280
     1
281
     1
  3
ACAD_ROUNDTRIP_2008_TABLESTYLE_CELLSTYLEMAP
360
1F0
  0
XRECORD
  5
1C
102
{ACAD_REACTORS
330
1A
102
}
330
1A
100
AcDbXrecord
280
     1
270
     1
271
     1
  0
XRECORD
  5
1B
102
{ACAD_REACTORS
330
1A
102
}
330
1A
100
AcDbXrecord
280
     1
270
     1
271
     1
  0
XRECORD
  5
1F
102
{ACAD_REACTORS
330
1A
102
}
330
1A
100
AcDbXrecord
280
     1
270
     1
271
     1
  0
XRECORD
  5
1E
102
{ACAD_REACTORS
330
1A
102
}
330
1A
100
AcDbXrecord
280
     1
270
     1
271
     1
  0
XRECORD
  5
20
102
{ACAD_REACTORS
330
1A
102
}
330
1A
100
AcDbXrecord
280
     1
270
     1
271
     1
  0
XRECORD
  5
1D
102
{ACAD_REACTORS
330
1A
102
}
330
1A
100
AcDbXrecord
280
     1
270
     1
271
     1
  0
XRECORD
  5
14
102
{ACAD_REACTORS
330
12
102
}
330
12
100
AcDbXrecord
280
     1
270
     1
271
     1
  0
XRECORD
  5
13
102
{ACAD_REACTORS
330
12
102
}
330
12
100
AcDbXrecord
280
     1
270
     1
271
     1
  0
XRECORD
  5
17
102
{ACAD_REACTORS
330
12
102
}
330
12
100
AcDbXrecord
280
     1
270
     1
271
     1
  0
XRECORD
  5
16
102
{ACAD_REACTORS
330
12
102
}
330
12
100
AcDbXrecord
280
     1
270
     1
271
     1
  0
XRECORD
  5
18
102
{ACAD_REACTORS
330
12
102
}
330
12
100
AcDbXrecord
280
     1
270
     1
271
     1
  0
XRECORD
  5
15
102
{ACAD_REACTORS
330
12
102
}
330
12
100
AcDbXrecord
280
     1
270
     1
271
     1
  0
XRECORD
  5
24
102
{ACAD_REACTORS
330
22
102
}
330
22
100
AcDbXrecord
280
     1
270
     1
271
     1
  0
XRECORD
  5
23
102
{ACAD_REACTORS
330
22
102
}
330
22
100
AcDbXrecord
280
     1
270
     1
271
     1
  0
XRECORD
  5
27
102
{ACAD_REACTORS
330
22
102
}
330
22
100
AcDbXrecord
280
     1
270
     1
271
     1
  0
XRECORD
  5
26
102
{ACAD_REACTORS
330
22
102
}
330
22
100
AcDbXrecord
280
     1
270
     1
271
     1
  0
XRECORD
  5
28
102
{ACAD_REACTORS
330
22
102
}
330
22
100
AcDbXrecord
280
     1
270
     1
271
     1
  0
XRECORD
  5
25
102
{ACAD_REACTORS
330
22
102
}
330
22
100
AcDbXrecord
280
     1
270
     1
271
     1
  0
CELLSTYLEMAP
  5
1F0
102
{ACAD_REACTORS
330
1EF
102
}
330
1EF
100
AcDbCellStyleMap
 90
        3
300
CELLSTYLE
  1
TABLEFORMAT_BEGIN
 90
        5
170
     1
 91
        0
 92
    32768
 62
   257
 93
        1
300
CONTENTFORMAT
  1
CONTENTFORMAT_BEGIN
 90
        0
 91
        0
 92
      512
 93
        0
300

 40
0.0
140
1.0
 94
        5
 62
     0
340
55
144
0.25
309
CONTENTFORMAT_END
171
     0
 94
        0
309
TABLEFORMAT_END
  1
CELLSTYLE_BEGIN
 90
        1
 91
        1
300
_TITLE
309
CELLSTYLE_END
300
CELLSTYLE
  1
TABLEFORMAT_BEGIN
 90
        5
170
     1
 91
        0
 92
        0
 62
   257
 93
        1
300
CONTENTFORMAT
  1
CONTENTFORMAT_BEGIN
 90
        0
 91
        0
 92
      512
 93
        0
300

 40
0.0
140
1.0
 94
        5
 62
     0
340
55
144
0.18
309
CONTENTFORMAT_END
171
     0
 94
        0
309
TABLEFORMAT_END
  1
CELLSTYLE_BEGIN
 90
        2
 91
        1
300
_HEADER
309
CELLSTYLE_END
300
CELLSTYLE
  1
TABLEFORMAT_BEGIN
 90
        5
170
     1
 91
        0
 92
        0
 62
   257
 93
        1
300
CONTENTFORMAT
  1
CONTENTFORMAT_BEGIN
 90
        0
 91
        0
 92
      512
 93
        0
300

 40
0.0
140
1.0
 94
        2
 62
     0
340
55
144
0.18
309
CONTENTFORMAT_END
171
     0
 94
        0
309
TABLEFORMAT_END
  1
CELLSTYLE_BEGIN
 90
        3
 91
        2
300
_DATA
309
CELLSTYLE_END
  0
ENDSEC
  0
EOF
