  0
SECTION
  2
HEADER
  9
$ACADVER
  1
AC1032
  9
$ACADMAINTVER
 90
      251
  9
$DWGCODEPAGE
  3
ANSI_1252
  9
$REQUIREDVERSIONS
160
                 0
  9
$INSBASE
 10
0.0
 20
0.0
 30
0.0
  9
$EXTMIN
 10
1.000000000000000E+20
 20
1.000000000000000E+20
 30
1.000000000000000E+20
  9
$EXTMAX
 10
-1.000000000000000E+20
 20
-1.000000000000000E+20
 30
-1.000000000000000E+20
  9
$LIMMIN
 10
0.0
 20
0.0
  9
$LIMMAX
 10
12.0
 20
9.0
  9
$ORTHOMODE
 70
     0
  9
$REGENMODE
 70
     1
  9
$FILLMODE
 70
     1
  9
$QTEXTMODE
 70
     0
  9
$MIRRTEXT
 70
     0
  9
$LTSCALE
 40
1.0
  9
$ATTMODE
 70
     1
  9
$TEXTSIZE
 40
0.2
  9
$TRACEWID
 40
0.05
  9
$TEXTSTYLE
  7
Standard
  9
$CLAYER
  8
0
  9
$CELTYPE
  6
ByLayer
  9
$CECOLOR
 62
   256
  9
$CELTSCALE
 40
1.0
  9
$DISPSILH
 70
     0
  9
$DIMSCALE
 40
1.0
  9
$DIMASZ
 40
0.18
  9
$DIMEXO
 40
0.0625
  9
$DIMDLI
 40
0.38
  9
$DIMRND
 40
0.0
  9
$DIMDLE
 40
0.0
  9
$DIMEXE
 40
0.18
  9
$DIMTP
 40
0.0
  9
$DIMTM
 40
0.0
  9
$DIMTXT
 40
0.18
  9
$DIMCEN
 40
0.09
  9
$DIMTSZ
 40
0.0
  9
$DIMTOL
 70
     0
  9
$DIMLIM
 70
     0
  9
$DIMTIH
 70
     1
  9
$DIMTOH
 70
     1
  9
$DIMSE1
 70
     0
  9
$DIMSE2
 70
     0
  9
$DIMTAD
 70
     0
  9
$DIMZIN
 70
     0
  9
$DIMBLK
  1

  9
$DIMASO
 70
     1
  9
$DIMSHO
 70
     1
  9
$DIMPOST
  1

  9
$DIMAPOST
  1

  9
$DIMALT
 70
     0
  9
$DIMALTD
 70
     2
  9
$DIMALTF
 40
25.4
  9
$DIMLFAC
 40
1.0
  9
$DIMTOFL
 70
     0
  9
$DIMTVP
 40
0.0
  9
$DIMTIX
 70
     0
  9
$DIMSOXD
 70
     0
  9
$DIMSAH
 70
     0
  9
$DIMBLK1
  1

  9
$DIMBLK2
  1

  9
$DIMSTYLE
  2
Standard
  9
$DIMCLRD
 70
     0
  9
$DIMCLRE
 70
     0
  9
$DIMCLRT
 70
     0
  9
$DIMTFAC
 40
1.0
  9
$DIMGAP
 40
0.09
  9
$DIMJUST
 70
     0
  9
$DIMSD1
 70
     0
  9
$DIMSD2
 70
     0
  9
$DIMTOLJ
 70
     1
  9
$DIMTZIN
 70
     0
  9
$DIMALTZ
 70
     0
  9
$DIMALTTZ
 70
     0
  9
$DIMUPT
 70
     0
  9
$DIMDEC
 70
     4
  9
$DIMTDEC
 70
     4
  9
$DIMALTU
 70
     2
  9
$DIMALTTD
 70
     2
  9
$DIMTXSTY
  7
Standard
  9
$DIMAUNIT
 70
     0
  9
$DIMADEC
 70
     0
  9
$DIMALTRND
 40
0.0
  9
$DIMAZIN
 70
     0
  9
$DIMDSEP
 70
    46
  9
$DIMATFIT
 70
     3
  9
$DIMFRAC
 70
     0
  9
$DIMLDRBLK
  1

  9
$DIMLUNIT
 70
     2
  9
$DIMLWD
 70
    -2
  9
$DIMLWE
 70
    -2
  9
$DIMTMOVE
 70
     0
  9
$DIMFXL
 40
1.0
  9
$DIMFXLON
 70
     0
  9
$DIMJOGANG
 40
0.7853981633974483
  9
$DIMTFILL
 70
     0
  9
$DIMTFILLCLR
 70
     0
  9
$DIMARCSYM
 70
     0
  9
$DIMLTYPE
  6

  9
$DIMLTEX1
  6

  9
$DIMLTEX2
  6

  9
$DIMTXTDIRECTION
 70
     0
  9
$LUNITS
 70
     2
  9
$LUPREC
 70
     4
  9
$SKETCHINC
 40
0.1
  9
$FILLETRAD
 40
0.0
  9
$AUNITS
 70
     0
  9
$AUPREC
 70
     0
  9
$MENU
  1
.
  9
$ELEVATION
 40
0.0
  9
$PELEVATION
 40
0.0
  9
$THICKNESS
 40
0.0
  9
$LIMCHECK
 70
     0
  9
$CHAMFERA
 40
0.0
  9
$CHAMFERB
 40
0.0
  9
$CHAMFERC
 40
0.0
  9
$CHAMFERD
 40
0.0
  9
$SKPOLY
 70
     0
  9
$TDCREATE
 40
2460035.572141204
  9
$TDUCREATE
 40
2460035.488807871
  9
$TDUPDATE
 40
2460035.572141204
  9
$TDUUPDATE
 40
2460035.488807871
  9
$TDINDWG
 40
0.0000000000
  9
$TDUSRTIMER
 40
0.0000000000
  9
$USRTIMER
 70
     1
  9
$ANGBASE
 50
0.0
  9
$ANGDIR
 70
     0
  9
$PDMODE
 70
     0
  9
$PDSIZE
 40
0.0
  9
$PLINEWID
 40
0.0
  9
$SPLFRAME
 70
     0
  9
$SPLINETYPE
 70
     6
  9
$SPLINESEGS
 70
     8
  9
$HANDSEED
  5
222
  9
$SURFTAB1
 70
     6
  9
$SURFTAB2
 70
     6
  9
$SURFTYPE
 70
     6
  9
$SURFU
 70
     6
  9
$SURFV
 70
     6
  9
$UCSBASE
  2

  9
$UCSNAME
  2

  9
$UCSORG
 10
0.0
 20
0.0
 30
0.0
  9
$UCSXDIR
 10
1.0
 20
0.0
 30
0.0
  9
$UCSYDIR
 10
0.0
 20
1.0
 30
0.0
  9
$UCSORTHOREF
  2

  9
$UCSORTHOVIEW
 70
     0
  9
$UCSORGTOP
 10
0.0
 20
0.0
 30
0.0
  9
$UCSORGBOTTOM
 10
0.0
 20
0.0
 30
0.0
  9
$UCSORGLEFT
 10
0.0
 20
0.0
 30
0.0
  9
$UCSORGRIGHT
 10
0.0
 20
0.0
 30
0.0
  9
$UCSORGFRONT
 10
0.0
 20
0.0
 30
0.0
  9
$UCSORGBACK
 10
0.0
 20
0.0
 30
0.0
  9
$PUCSBASE
  2

  9
$PUCSNAME
  2

  9
$PUCSORG
 10
0.0
 20
0.0
 30
0.0
  9
$PUCSXDIR
 10
1.0
 20
0.0
 30
0.0
  9
$PUCSYDIR
 10
0.0
 20
1.0
 30
0.0
  9
$PUCSORTHOREF
  2

  9
$PUCSORTHOVIEW
 70
     0
  9
$PUCSORGTOP
 10
0.0
 20
0.0
 30
0.0
  9
$PUCSORGBOTTOM
 10
0.0
 20
0.0
 30
0.0
  9
$PUCSORGLEFT
 10
0.0
 20
0.0
 30
0.0
  9
$PUCSORGRIGHT
 10
0.0
 20
0.0
 30
0.0
  9
$PUCSORGFRONT
 10
0.0
 20
0.0
 30
0.0
  9
$PUCSORGBACK
 10
0.0
 20
0.0
 30
0.0
  9
$USERI1
 70
     0
  9
$USERI2
 70
     0
  9
$USERI3
 70
     0
  9
$USERI4
 70
     0
  9
$USERI5
 70
     0
  9
$USERR1
 40
0.0
  9
$USERR2
 40
0.0
  9
$USERR3
 40
0.0
  9
$USERR4
 40
0.0
  9
$USERR5
 40
0.0
  9
$WORLDVIEW
 70
     1
  9
$SHADEDGE
 70
     3
  9
$SHADEDIF
 70
    70
  9
$TILEMODE
 70
     1
  9
$MAXACTVP
 70
    64
  9
$PINSBASE
 10
0.0
 20
0.0
 30
0.0
  9
$PLIMCHECK
 70
     0
  9
$PEXTMIN
 10
1.000000000000000E+20
 20
1.000000000000000E+20
 30
1.000000000000000E+20
  9
$PEXTMAX
 10
-1.000000000000000E+20
 20
-1.000000000000000E+20
 30
-1.000000000000000E+20
  9
$PLIMMIN
 10
0.0
 20
0.0
  9
$PLIMMAX
 10
12.0
 20
9.0
  9
$UNITMODE
 70
     0
  9
$VISRETAIN
 70
     1
  9
$PLINEGEN
 70
     0
  9
$PSLTSCALE
 70
     1
  9
$TREEDEPTH
 70
  3020
  9
$CMLSTYLE
  2
Standard
  9
$CMLJUST
 70
     0
  9
$CMLSCALE
 40
1.0
  9
$PROXYGRAPHICS
 70
     1
  9
$MEASUREMENT
 70
     0
  9
$CELWEIGHT
370
    -1
  9
$ENDCAPS
280
     0
  9
$JOINSTYLE
280
     0
  9
$LWDISPLAY
290
     1
  9
$INSUNITS
 70
     4
  9
$HYPERLINKBASE
  1

  9
$STYLESHEET
  1

  9
$XEDIT
290
     1
  9
$CEPSNTYPE
380
     0
  9
$PSTYLEMODE
290
     1
  9
$FINGERPRINTGUID
  2
{5F15FA01-A2BC-6641-A3FD-535643F41D49}
  9
$VERSIONGUID
  2
{110B96E1-7E87-9646-BE74-83E576F0E7BC}
  9
$EXTNAMES
290
     1
  9
$PSVPSCALE
 40
0.0
  9
$OLESTARTUP
290
     0
  9
$SORTENTS
280
   127
  9
$INDEXCTL
280
     0
  9
$HIDETEXT
280
     1
  9
$XCLIPFRAME
280
     2
  9
$HALOGAP
280
     0
  9
$OBSCOLOR
 70
   257
  9
$OBSLTYPE
280
     0
  9
$INTERSECTIONDISPLAY
280
     0
  9
$INTERSECTIONCOLOR
 70
   257
  9
$DIMASSOC
280
     2
  9
$PROJECTNAME
  1

  9
$CAMERADISPLAY
290
     0
  9
$LENSLENGTH
 40
50.0
  9
$CAMERAHEIGHT
 40
0.0
  9
$STEPSPERSEC
 40
2.0
  9
$STEPSIZE
 40
6.0
  9
$3DDWFPREC
 40
2.0
  9
$PSOLWIDTH
 40
0.25
  9
$PSOLHEIGHT
 40
4.0
  9
$LOFTANG1
 40
1.570796326794896
  9
$LOFTANG2
 40
1.570796326794896
  9
$LOFTMAG1
 40
0.0
  9
$LOFTMAG2
 40
0.0
  9
$LOFTPARAM
 70
     7
  9
$LOFTNORMALS
280
     1
  9
$LATITUDE
 40
37.795
  9
$LONGITUDE
 40
-122.394
  9
$NORTHDIRECTION
 40
0.0
  9
$TIMEZONE
 70
 -8000
  9
$LIGHTGLYPHDISPLAY
280
     1
  9
$TILEMODELIGHTSYNCH
280
     1
  9
$CMATERIAL
347
11
  9
$SOLIDHIST
280
     0
  9
$SHOWHIST
280
     1
  9
$DWFFRAME
280
     2
  9
$DGNFRAME
280
     0
  9
$REALWORLDSCALE
290
     1
  9
$INTERFERECOLOR
 62
     1
  9
$INTERFEREOBJVS
345
33
  9
$INTERFEREVPVS
346
30
  9
$CSHADOW
280
     0
  9
$SHADOWPLANELOCATION
 40
0.0
  0
ENDSEC
  0
SECTION
  2
CLASSES
  0
CLASS
  1
ACDBDICTIONARYWDFLT
  2
AcDbDictionaryWithDefault
  3
ObjectDBX Classes
 90
        0
 91
        1
280
     0
281
     0
  0
CLASS
  1
MATERIAL
  2
AcDbMaterial
  3
ObjectDBX Classes
 90
     1153
 91
        3
280
     0
281
     0
  0
CLASS
  1
VISUALSTYLE
  2
AcDbVisualStyle
  3
ObjectDBX Classes
 90
     4095
 91
       24
280
     0
281
     0
  0
CLASS
  1
SCALE
  2
AcDbScale
  3
ObjectDBX Classes
 90
     1153
 91
       17
280
     0
281
     0
  0
CLASS
  1
TABLESTYLE
  2
AcDbTableStyle
  3
ObjectDBX Classes
 90
     4095
 91
        1
280
     0
281
     0
  0
CLASS
  1
MLEADERSTYLE
  2
AcDbMLeaderStyle
  3
ACDB_MLEADERSTYLE_CLASS
 90
     4095
 91
        1
280
     0
281
     0
  0
CLASS
  1
ACDBSECTIONVIEWSTYLE
  2
AcDbSectionViewStyle
  3
ObjectDBX Classes
 90
     1025
 91
        1
280
     0
281
     0
  0
CLASS
  1
ACDBDETAILVIEWSTYLE
  2
AcDbDetailViewStyle
  3
ObjectDBX Classes
 90
     1025
 91
        1
280
     0
281
     0
  0
CLASS
  1
DICTIONARYVAR
  2
AcDbDictionaryVar
  3
ObjectDBX Classes
 90
        0
 91
        5
280
     0
281
     0
  0
CLASS
  1
CELLSTYLEMAP
  2
AcDbCellStyleMap
  3
ObjectDBX Classes
 90
     1152
 91
        1
280
     0
281
     0
  0
ENDSEC
  0
SECTION
  2
TABLES
  0
TABLE
  2
VPORT
  5
8
330
0
100
AcDbSymbolTable
 70
     1
  0
VPORT
  5
57
330
8
100
AcDbSymbolTableRecord
100
AcDbViewportTableRecord
  2
*Active
 70
     0
 10
0.0
 20
0.0
 11
1.0
 21
1.0
 12
0.0
 22
0.0
 13
0.0
 23
0.0
 14
1.0
 24
1.0
 15
0.0
 25
0.0
 16
0.0
 26
0.0
 36
1.0
 17
104.9999999737499
 27
31.49999999212523
 37
0.0
 40
302.9399999242649
 41
0.7070707070707066
 42
50.0
 43
0.0
 44
0.0
 50
0.0
 51
0.0
 71
     0
 72
   100
 73
     1
 74
     1
 75
     0
 76
     0
 77
     0
 78
     0
281
     0
 65
     1
110
0.0
120
0.0
130
0.0
111
1.0
121
0.0
131
0.0
112
0.0
122
1.0
132
0.0
 79
     0
146
0.0
 60
     3
 61
     5
292
     1
282
     1
141
0.0
142
0.0
 63
   250
421
  3355443
  0
ENDTAB
  0
TABLE
  2
LTYPE
  5
5
330
0
100
AcDbSymbolTable
 70
     1
  0
LTYPE
  5
5B
330
5
100
AcDbSymbolTableRecord
100
AcDbLinetypeTableRecord
  2
ByBlock
 70
     0
  3

 72
    65
 73
     0
 40
0.0
  0
LTYPE
  5
5C
330
5
100
AcDbSymbolTableRecord
100
AcDbLinetypeTableRecord
  2
ByLayer
 70
     0
  3

 72
    65
 73
     0
 40
0.0
  0
LTYPE
  5
5D
330
5
100
AcDbSymbolTableRecord
100
AcDbLinetypeTableRecord
  2
Continuous
 70
     0
  3
Solid line
 72
    65
 73
     0
 40
0.0
  0
ENDTAB
  0
TABLE
  2
LAYER
  5
2
330
0
100
AcDbSymbolTable
 70
     2
  0
LAYER
  5
54
330
2
100
AcDbSymbolTableRecord
100
AcDbLayerTableRecord
  2
0
 70
     0
 62
     7
  6
Continuous
370
     0
390
F
347
21
348
0
  0
LAYER
  5
1F4
330
2
100
AcDbSymbolTableRecord
100
AcDbLayerTableRecord
  2
CAPA_BASE
 70
     0
 62
     7
  6
Continuous
370
     0
390
F
347
21
348
0
  0
ENDTAB
  0
TABLE
  2
STYLE
  5
3
330
0
100
AcDbSymbolTable
 70
     2
  0
STYLE
  5
55
330
3
100
AcDbSymbolTableRecord
100
AcDbTextStyleTableRecord
  2
Standard
 70
     0
 40
0.0
 41
1.0
 50
0.0
 71
     0
 42
0.2
  3
txt
  4

  0
STYLE
  5
5A
330
3
100
AcDbSymbolTableRecord
100
AcDbTextStyleTableRecord
  2
Annotative
 70
     0
 40
0.0
 41
1.0
 50
0.0
 71
     0
 42
0.2
  3
txt
  4

1001
AcadAnnotative
1000
AnnotativeData
1002
{
1070
     1
1070
     1
1002
}
  0
ENDTAB
  0
TABLE
  2
VIEW
  5
6
330
0
100
AcDbSymbolTable
 70
     0
  0
ENDTAB
  0
TABLE
  2
UCS
  5
7
330
0
100
AcDbSymbolTable
 70
     0
  0
ENDTAB
  0
TABLE
  2
APPID
  5
9
330
0
100
AcDbSymbolTable
 70
     2
  0
APPID
  5
56
330
9
100
AcDbSymbolTableRecord
100
AcDbRegAppTableRecord
  2
ACAD
 70
     0
  0
APPID
  5
5E
330
9
100
AcDbSymbolTableRecord
100
AcDbRegAppTableRecord
  2
AcadAnnotative
 70
     0
  0
ENDTAB
  0
TABLE
  2
DIMSTYLE
  5
A
330
0
100
AcDbSymbolTable
 70
     2
100
AcDbDimStyleTable
 71
     0
  0
DIMSTYLE
105
58
330
A
100
AcDbSymbolTableRecord
100
AcDbDimStyleTableRecord
  2
Standard
 70
     0
340
55
  0
DIMSTYLE
105
59
330
A
100
AcDbSymbolTableRecord
100
AcDbDimStyleTableRecord
  2
Annotative
 70
     0
340
55
1001
AcadAnnotative
1000
AnnotativeData
1002
{
1070
     1
1070
     1
1002
}
  0
ENDTAB
  0
TABLE
  2
BLOCK_RECORD
  5
1
330
0
100
AcDbSymbolTable
 70
     4
  0
BLOCK_RECORD
  5
70
330
1
100
AcDbSymbolTableRecord
100
AcDbBlockTableRecord
  2
*Model_Space
340
73
 70
     0
280
     1
281
     0
  0
BLOCK_RECORD
  5
6C
330
1
100
AcDbSymbolTableRecord
100
AcDbBlockTableRecord
  2
*Paper_Space
340
6F
 70
     0
280
     1
281
     0
  0
BLOCK_RECORD
  5
74
330
1
100
AcDbSymbolTableRecord
100
AcDbBlockTableRecord
  2
*Paper_Space0
340
77
 70
     0
280
     1
281
     0
  0
BLOCK_RECORD
  5
1F5
330
1
100
AcDbSymbolTableRecord
100
AcDbBlockTableRecord
  2
Block_0
340
0
102
{BLKREFS
331
1F6
102
}
 70
     0
280
     1
281
     0
  0
BLOCK_RECORD
  5
201
330
1
100
AcDbSymbolTableRecord
100
AcDbBlockTableRecord
  2
Block_1
340
0
102
{BLKREFS
331
202
102
}
 70
     0
280
     1
281
     0
  0
BLOCK_RECORD
  5
20D
330
1
100
AcDbSymbolTableRecord
100
AcDbBlockTableRecord
  2
Block_2
340
0
102
{BLKREFS
331
20E
102
}
 70
     0
280
     1
281
     0
  0
ENDTAB
  0
ENDSEC
  0
SECTION
  2
BLOCKS
  0
BLOCK
  5
71
330
70
100
AcDbEntity
  8
0
100
AcDbBlockBegin
  2
*Model_Space
 70
     0
 10
0.0
 20
0.0
 30
0.0
  3
*Model_Space
  1

  0
ENDBLK
  5
72
330
70
100
AcDbEntity
  8
0
100
AcDbBlockEnd
  0
BLOCK
  5
6D
330
6C
100
AcDbEntity
 67
     1
  8
0
100
AcDbBlockBegin
  2
*Paper_Space
 70
     0
 10
0.0
 20
0.0
 30
0.0
  3
*Paper_Space
  1

  0
ENDBLK
  5
6E
330
6C
100
AcDbEntity
 67
     1
  8
0
100
AcDbBlockEnd
  0
BLOCK
  5
75
330
74
100
AcDbEntity
 67
     1
  8
0
100
AcDbBlockBegin
  2
*Paper_Space0
 70
     0
 10
0.0
 20
0.0
 30
0.0
  3
*Paper_Space0
  1

  0
ENDBLK
  5
76
330
74
100
AcDbEntity
 67
     1
  8
0
100
AcDbBlockEnd
  0
BLOCK
  5
1F7
330
1F5
100
AcDbEntity
  8
0
100
AcDbBlockBegin
  2
Block_0
 70
     0
 10
0.0
 20
0.0
 30
0.0
  3
Block_0
  1

  0
LWPOLYLINE
  5
1F9
330
1F5
100
AcDbEntity
  8
CAPA_BASE
100
AcDbPolyline
 90
        4
 70
     1
 43
0.0
 10
128.9470077518668
 20
79.9437378801307
 10
126.4470077518664
 20
80.25373788013041
 10
126.4470077518664
 20
79.63373788013097
 10
126.4470077518664
 20
79.63373788013097
  0
HATCH
  5
1FA
330
1F5
100
AcDbEntity
  8
CAPA_BASE
 62
    18
420
        0
440
 33554687
100
AcDbHatch
 10
0.0
 20
0.0
 30
0.0
210
0.0
220
0.0
230
1.0
  2
SOLID
 70
     1
 71
     1
 91
        1
 92
        1
 93
        3
 72
     1
 10
128.9470077518668
 20
79.9437378801307
 11
126.4470077518664
 21
80.25373788013041
 72
     1
 10
126.4470077518664
 20
80.25373788013041
 11
126.4470077518664
 21
79.63373788013097
 72
     1
 10
126.4470077518664
 20
79.63373788013097
 11
128.9470077518668
 21
79.9437378801307
 97
        1
330
1F9
 75
     2
 76
     1
 98
        1
 10
0.0
 20
0.0
450
        0
451
        0
460
0.0
461
0.0
452
        0
462
0.0
453
        0
470

  0
LWPOLYLINE
  5
1FB
330
1F5
100
AcDbEntity
  8
CAPA_BASE
100
AcDbPolyline
 90
        4
 70
     1
 43
0.0
 10
8.947007751866806
 20
79.9437378801307
 10
11.44700775186689
 20
79.63373788013097
 10
11.44700775186689
 20
80.25373788013041
 10
11.44700775186689
 20
80.25373788013041
  0
HATCH
  5
1FC
330
1F5
100
AcDbEntity
  8
CAPA_BASE
 62
    18
420
        0
440
 33554687
100
AcDbHatch
 10
0.0
 20
0.0
 30
0.0
210
0.0
220
0.0
230
1.0
  2
SOLID
 70
     1
 71
     1
 91
        1
 92
        1
 93
        3
 72
     1
 10
8.947007751866806
 20
79.9437378801307
 11
11.44700775186689
 21
79.63373788013097
 72
     1
 10
11.44700775186689
 20
79.63373788013097
 11
11.44700775186689
 21
80.25373788013041
 72
     1
 10
11.44700775186689
 20
80.25373788013041
 11
8.947007751866806
 21
79.9437378801307
 97
        1
330
1FB
 75
     2
 76
     1
 98
        1
 10
0.0
 20
0.0
450
        0
451
        0
460
0.0
461
0.0
452
        0
462
0.0
453
        0
470

  0
LINE
  5
1FD
330
1F5
100
AcDbEntity
  8
CAPA_BASE
 62
    18
420
        0
370
    25
100
AcDbLine
 10
128.9470077518668
 20
89.15501214143075
 30
0.0
 11
128.9470077518668
 21
78.94373788013066
 31
0.0
  0
LINE
  5
1FE
330
1F5
100
AcDbEntity
  8
CAPA_BASE
 62
    18
420
        0
370
    25
100
AcDbLine
 10
8.947007751866806
 20
89.15501214143075
 30
0.0
 11
8.947007751866806
 21
78.94373788013066
 31
0.0
  0
LINE
  5
1FF
330
1F5
100
AcDbEntity
  8
CAPA_BASE
 62
    18
420
        0
370
    25
100
AcDbLine
 10
128.9470077518668
 20
79.9437378801307
 30
0.0
 11
8.947007751866806
 21
79.9437378801307
 31
0.0
  0
MTEXT
  5
200
330
1F5
100
AcDbEntity
  8
CAPA_BASE
100
AcDbMText
 10
66.30117482541146
 20
80.7374867979173
 30
0.0
 40
0.2
 41
0.0
 46
0.0
 71
     7
 72
     1
  1
\C18;\c0;\FArial Bold|b1|i0|c1;\H2.997200;\W0.700000;600
 73
     1
 44
1.0
  0
ENDBLK
  5
1F8
330
1F5
100
AcDbEntity
  8
0
100
AcDbBlockEnd
  0
BLOCK
  5
203
330
201
100
AcDbEntity
  8
0
100
AcDbBlockBegin
  2
Block_1
 70
     0
 10
0.0
 20
0.0
 30
0.0
  3
Block_1
  1

  0
LWPOLYLINE
  5
205
330
201
100
AcDbEntity
  8
CAPA_BASE
100
AcDbPolyline
 90
        4
 70
     1
 43
0.0
 10
159.6941825680667
 20
99.95501214143081
 10
159.3841825680669
 20
97.45501214143072
 10
160.004182568067
 20
97.45501214143072
 10
160.004182568067
 20
97.45501214143072
  0
HATCH
  5
206
330
201
100
AcDbEntity
  8
CAPA_BASE
 62
    18
420
        0
440
 33554687
100
AcDbHatch
 10
0.0
 20
0.0
 30
0.0
210
0.0
220
0.0
230
1.0
  2
SOLID
 70
     1
 71
     1
 91
        1
 92
        1
 93
        3
 72
     1
 10
159.6941825680667
 20
99.95501214143081
 11
159.3841825680669
 21
97.45501214143072
 72
     1
 10
159.3841825680669
 20
97.45501214143072
 11
160.004182568067
 21
97.45501214143072
 72
     1
 10
160.004182568067
 20
97.45501214143072
 11
159.6941825680667
 21
99.95501214143081
 97
        1
330
205
 75
     2
 76
     1
 98
        1
 10
0.0
 20
0.0
450
        0
451
        0
460
0.0
461
0.0
452
        0
462
0.0
453
        0
470

  0
LWPOLYLINE
  5
207
330
201
100
AcDbEntity
  8
CAPA_BASE
100
AcDbPolyline
 90
        4
 70
     1
 43
0.0
 10
159.6941825680667
 20
89.95501214143077
 10
160.004182568067
 20
92.45501214143054
 10
159.3841825680669
 20
92.45501214143054
 10
159.3841825680669
 20
92.45501214143054
  0
HATCH
  5
208
330
201
100
AcDbEntity
  8
CAPA_BASE
 62
    18
420
        0
440
 33554687
100
AcDbHatch
 10
0.0
 20
0.0
 30
0.0
210
0.0
220
0.0
230
1.0
  2
SOLID
 70
     1
 71
     1
 91
        1
 92
        1
 93
        3
 72
     1
 10
159.6941825680667
 20
89.95501214143077
 11
160.004182568067
 21
92.45501214143054
 72
     1
 10
160.004182568067
 20
92.45501214143054
 11
159.3841825680669
 21
92.45501214143054
 72
     1
 10
159.3841825680669
 20
92.45501214143054
 11
159.6941825680667
 21
89.95501214143077
 97
        1
330
207
 75
     2
 76
     1
 98
        1
 10
0.0
 20
0.0
450
        0
451
        0
460
0.0
461
0.0
452
        0
462
0.0
453
        0
470

  0
LINE
  5
209
330
201
100
AcDbEntity
  8
CAPA_BASE
 62
    18
420
        0
370
    25
100
AcDbLine
 10
168.694182568067
 20
99.95501214143081
 30
0.0
 11
158.6941825680666
 21
99.95501214143081
 31
0.0
  0
LINE
  5
20A
330
201
100
AcDbEntity
  8
CAPA_BASE
 62
    18
420
        0
370
    25
100
AcDbLine
 10
168.694182568067
 20
89.95501214143077
 30
0.0
 11
158.6941825680666
 21
89.95501214143077
 31
0.0
  0
LINE
  5
20B
330
201
100
AcDbEntity
  8
CAPA_BASE
 62
    18
420
        0
370
    25
100
AcDbLine
 10
159.6941825680667
 20
99.95501214143081
 30
0.0
 11
159.6941825680667
 21
89.95501214143077
 31
0.0
  0
MTEXT
  5
20C
330
201
100
AcDbEntity
  8
CAPA_BASE
100
AcDbMText
 10
158.9004328807314
 20
93.19121091420155
 30
0.0
 40
0.2
 41
0.0
 46
0.0
 71
     7
 72
     1
  1
\C18;\c0;\FArial Bold|b1|i0|c1;\H2.997200;\W0.700000;50
 11
0.0000000000000003
 21
1.0
 31
0.0
 73
     1
 44
1.0
  0
ENDBLK
  5
204
330
201
100
AcDbEntity
  8
0
100
AcDbBlockEnd
  0
BLOCK
  5
20F
330
20D
100
AcDbEntity
  8
0
100
AcDbBlockBegin
  2
Block_2
 70
     0
 10
0.0
 20
0.0
 30
0.0
  3
Block_2
  1

  0
LWPOLYLINE
  5
211
330
20D
100
AcDbEntity
  8
CAPA_BASE
100
AcDbPolyline
 90
        4
 70
     1
 43
0.0
 10
138.9582820131669
 20
41.44474507523058
 10
138.6482820131666
 20
38.94474507523081
 10
139.2682820131667
 20
38.94474507523081
 10
139.2682820131667
 20
38.94474507523081
  0
HATCH
  5
212
330
20D
100
AcDbEntity
  8
CAPA_BASE
 62
    18
420
        0
440
 33554687
100
AcDbHatch
 10
0.0
 20
0.0
 30
0.0
210
0.0
220
0.0
230
1.0
  2
SOLID
 70
     1
 71
     1
 91
        1
 92
        1
 93
        3
 72
     1
 10
138.9582820131669
 20
41.44474507523058
 11
138.6482820131666
 21
38.94474507523081
 72
     1
 10
138.6482820131666
 20
38.94474507523081
 11
139.2682820131667
 21
38.94474507523081
 72
     1
 10
139.2682820131667
 20
38.94474507523081
 11
138.9582820131669
 21
41.44474507523058
 97
        1
330
211
 75
     2
 76
     1
 98
        1
 10
0.0
 20
0.0
450
        0
451
        0
460
0.0
461
0.0
452
        0
462
0.0
453
        0
470

  0
LWPOLYLINE
  5
213
330
20D
100
AcDbEntity
  8
CAPA_BASE
100
AcDbPolyline
 90
        4
 70
     1
 43
0.0
 10
138.9582820131669
 20
28.04474507523075
 10
139.2682820131667
 20
30.54474507523051
 10
138.6482820131666
 20
30.54474507523051
 10
138.6482820131666
 20
30.54474507523051
  0
HATCH
  5
214
330
20D
100
AcDbEntity
  8
CAPA_BASE
 62
    18
420
        0
440
 33554687
100
AcDbHatch
 10
0.0
 20
0.0
 30
0.0
210
0.0
220
0.0
230
1.0
  2
SOLID
 70
     1
 71
     1
 91
        1
 92
        1
 93
        3
 72
     1
 10
138.9582820131669
 20
28.04474507523075
 11
139.2682820131667
 21
30.54474507523051
 72
     1
 10
139.2682820131667
 20
30.54474507523051
 11
138.6482820131666
 21
30.54474507523051
 72
     1
 10
138.6482820131666
 20
30.54474507523051
 11
138.9582820131669
 21
28.04474507523075
 97
        1
330
213
 75
     2
 76
     1
 98
        1
 10
0.0
 20
0.0
450
        0
451
        0
460
0.0
461
0.0
452
        0
462
0.0
453
        0
470

  0
LINE
  5
215
330
20D
100
AcDbEntity
  8
CAPA_BASE
 62
    18
420
        0
370
    25
100
AcDbLine
 10
129.9470077518669
 20
41.44474507523058
 30
0.0
 11
139.958282013167
 21
41.44474507523058
 31
0.0
  0
LINE
  5
216
330
20D
100
AcDbEntity
  8
CAPA_BASE
 62
    18
420
        0
370
    25
100
AcDbLine
 10
126.5470077518668
 20
28.04474507523075
 30
0.0
 11
139.958282013167
 21
28.04474507523075
 31
0.0
  0
LINE
  5
217
330
20D
100
AcDbEntity
  8
CAPA_BASE
 62
    18
420
        0
370
    25
100
AcDbLine
 10
138.9582820131669
 20
41.44474507523058
 30
0.0
 11
138.9582820131669
 21
28.04474507523075
 31
0.0
  0
MTEXT
  5
218
330
20D
100
AcDbEntity
  8
CAPA_BASE
100
AcDbMText
 10
138.1645303274827
 20
32.98093260894163
 30
0.0
 40
0.2
 41
0.0
 46
0.0
 71
     7
 72
     1
  1
\C18;\c0;\FArial Bold|b1|i0|c1;\H2.997200;\W0.700000;67
 11
0.0000000000000003
 21
1.0
 31
0.0
 73
     1
 44
1.0
  0
ENDBLK
  5
210
330
20D
100
AcDbEntity
  8
0
100
AcDbBlockEnd
  0
ENDSEC
  0
SECTION
  2
ENTITIES
  0
LINE
  5
78
330
70
100
AcDbEntity
  8
0
 62
    18
420
        0
370
    25
100
AcDbLine
 10
16.94700965926679
 20
93.35501213713055
 30
0.0
 11
120.947005844567
 21
93.35501213713055
 31
0.0
  0
LINE
  5
79
330
70
100
AcDbEntity
  8
0
 62
    18
420
        0
370
    25
100
AcDbLine
 10
120.947005844567
 20
96.55501210283055
 30
0.0
 11
16.94700965926679
 21
96.55501210283055
 31
0.0
  0
LINE
  5
7A
330
70
100
AcDbEntity
  8
0
 62
    18
420
        0
370
    25
100
AcDbLine
 10
16.94700965926679
 20
96.55501210283055
 30
0.0
 11
13.94700655976663
 21
96.55501210283055
 31
0.0
  0
LINE
  5
7B
330
70
100
AcDbEntity
  8
0
 62
    18
420
        0
370
    25
100
AcDbLine
 10
13.94700655976663
 20
93.35501213713055
 30
0.0
 11
16.94700965926679
 21
93.35501213713055
 31
0.0
  0
LINE
  5
7C
330
70
100
AcDbEntity
  8
0
 62
    18
420
        0
370
    25
100
AcDbLine
 10
120.947005844567
 20
93.35501213713055
 30
0.0
 11
123.947008943967
 21
93.35501213713055
 31
0.0
  0
LINE
  5
7D
330
70
100
AcDbEntity
  8
0
 62
    18
420
        0
370
    25
100
AcDbLine
 10
123.947008943967
 20
96.55501210283055
 30
0.0
 11
120.947005844567
 21
96.55501210283055
 31
0.0
  0
LWPOLYLINE
  5
7E
330
70
100
AcDbEntity
  8
0
 62
    18
420
        0
370
    25
100
AcDbPolyline
 90
        7
 70
     0
 43
0.0
 10
119.1469276909667
 20
99.75509160353077
 10
119.1482032303666
 20
99.75381606413053
 10
119.3044150833666
 20
99.59760309353079
 10
119.6168566707666
 20
99.2851656039307
 10
120.2417756084667
 20
98.66024666623063
 10
121.4917684559668
 20
97.41025121103051
 10
122.3470057014669
 20
96.55501210283055
  0
LWPOLYLINE
  5
7F
330
70
100
AcDbEntity
  8
0
 62
    18
420
        0
370
    25
100
AcDbPolyline
 90
        4
 70
     0
 43
0.0
 10
125.0694418911667
 20
96.07744888563061
 10
126.2316788200664
 20
97.23968618703082
 10
127.5321568016666
 20
98.54015932573066
 10
128.7470901970668
 20
99.75509160353077
  0
LWPOLYLINE
  5
80
330
70
100
AcDbEntity
  8
0
 62
    18
420
        0
370
    25
100
AcDbPolyline
 90
        4
 70
     0
 43
0.0
 10
122.3470057014669
 20
93.35501213713055
 10
121.8703294758664
 20
92.87833553893079
 10
121.0589612488669
 20
92.06696582183063
 10
119.1469276909667
 20
90.15493282273068
  0
SPLINE
  5
81
330
70
100
AcDbEntity
  8
0
 62
    18
420
        0
370
    25
100
AcDbSpline
210
0.0
220
0.0
230
1.0
 70
     8
 71
     3
 72
     8
 73
     4
 74
     0
 42
0.0000000001
 43
0.0000000001
 40
0.0
 40
0.0
 40
0.0
 40
0.0
 40
1.0
 40
1.0
 40
1.0
 40
1.0
 10
119.1385115150616
 20
90.15072957764999
 30
0.0
 10
119.1417558882232
 20
90.15098603790608
 30
0.0
 10
119.144773651245
 20
90.15249318292067
 30
0.0
 10
119.1469276909038
 20
90.15493282269376
 30
0.0
  0
LINE
  5
82
330
70
100
AcDbEntity
  8
0
 62
    18
420
        0
370
    25
100
AcDbLine
 10
119.1469276909667
 20
99.75509160353077
 30
0.0
 11
119.1385115150668
 21
99.75508825083071
 31
0.0
  0
LWPOLYLINE
  5
83
330
70
100
AcDbEntity
  8
0
 62
    18
420
        0
370
    25
100
AcDbPolyline
 90
        5
 70
     0
 43
0.0
 10
125.063362217367
 20
93.83865763593068
 10
125.2372289661668
 20
93.66478859373057
 10
126.0236824516666
 20
92.87833553893047
 10
126.8350566391666
 20
92.06696582183063
 10
128.7470901970668
 20
90.15493282273068
  0
SPLINE
  5
84
330
70
100
AcDbEntity
  8
0
 62
    18
420
        0
370
    25
100
AcDbSpline
210
0.0
220
0.0
230
1.0
 70
     8
 71
     3
 72
     8
 73
     4
 74
     0
 42
0.0000000001
 43
0.0000000001
 40
0.0
 40
0.0
 40
0.0
 40
0.0
 40
1.0
 40
1.0
 40
1.0
 40
1.0
 10
128.7512923245243
 20
90.14651590181015
 30
0.0
 10
128.7510351654702
 20
90.14976004840828
 30
0.0
 10
128.7495286254
 20
90.15277766953792
 30
0.0
 10
128.7470901970681
 20
90.15493282271044
 30
0.0
  0
LWPOLYLINE
  5
85
330
70
100
AcDbEntity
  8
0
 62
    18
420
        0
370
    25
100
AcDbPolyline
 90
        7
 70
     0
 43
0.0
 10
119.146933651367
 20
90.14651441173077
 10
119.5469344620665
 20
90.14635571433071
 10
121.1469317440669
 20
90.14578760763056
 10
124.3469322685667
 20
90.14531747593055
 10
125.5658114914667
 20
90.14547803593073
 10
128.747084236567
 20
90.14651441173077
 10
128.7512923244666
 20
90.14651590183069
  0
LINE
  5
86
330
70
100
AcDbEntity
  8
0
 62
    18
420
        0
370
    25
100
AcDbLine
 10
119.1469276909667
 20
90.15493282273068
 30
0.0
 11
119.146933651367
 21
90.14651441173077
 31
0.0
  0
SPLINE
  5
87
330
70
100
AcDbEntity
  8
0
 62
    18
420
        0
370
    25
100
AcDbSpline
210
0.0
220
0.0
230
1.0
 70
     8
 71
     3
 72
     8
 73
     4
 74
     0
 42
0.0000000001
 43
0.0000000001
 40
0.0
 40
0.0
 40
0.0
 40
0.0
 40
1.0
 40
1.0
 40
1.0
 40
1.0
 10
128.7555063728942
 20
99.75929484856811
 30
0.0
 10
128.7522620847674
 20
99.75903808231752
 30
0.0
 10
128.7492444302531
 20
99.75753099149409
 30
0.0
 10
128.7470901970521
 20
99.75509160352434
 30
0.0
  0
LWPOLYLINE
  5
88
330
70
100
AcDbEntity
  8
0
 62
    18
420
        0
370
    25
100
AcDbPolyline
 90
        7
 70
     0
 43
0.0
 10
128.7555063728666
 20
90.15493617553081
 10
128.7556613449666
 20
90.55493605483077
 10
128.7562335495665
 20
92.15493585143052
 10
128.7567044262669
 20
95.35493591023081
 10
128.756543493667
 20
96.57381662323066
 10
128.7555063728666
 20
99.75508825083071
 10
128.7555063728666
 20
99.75929484863067
  0
LINE
  5
89
330
70
100
AcDbEntity
  8
0
 62
    18
420
        0
370
    25
100
AcDbLine
 10
128.7470901970668
 20
90.15493282273068
 30
0.0
 11
128.7555063728666
 21
90.15493617553081
 31
0.0
  0
LINE
  5
8A
330
70
100
AcDbEntity
  8
0
 62
    18
420
        0
370
    25
100
AcDbLine
 10
128.9470101360669
 20
99.75501225483057
 30
0.0
 11
128.9470101360669
 21
90.15501217143052
 31
0.0
  0
SPLINE
  5
8B
330
70
100
AcDbEntity
  8
0
 62
    18
420
        0
370
    25
100
AcDbSpline
210
0.0
220
0.0
230
1.0
 70
     8
 71
     3
 72
     8
 73
     4
 74
     0
 42
0.0000000001
 43
0.0000000001
 40
0.0
 40
0.0
 40
0.0
 40
0.0
 40
1.0
 40
1.0
 40
1.0
 40
1.0
 10
128.7555063727408
 20
90.15493617550131
 30
0.0
 10
128.8193409705581
 20
90.15491211080776
 30
0.0
 10
128.8831755774536
 20
90.15493744278954
 30
0.0
 10
128.9470101360656
 20
90.15501217142347
 30
0.0
  0
SPLINE
  5
8C
330
70
100
AcDbEntity
  8
0
 62
    18
420
        0
370
    25
100
AcDbSpline
210
0.0
220
0.0
230
1.0
 70
     8
 71
     3
 72
     8
 73
     4
 74
     0
 42
0.0000000001
 43
0.0000000001
 40
0.0
 40
0.0
 40
0.0
 40
0.0
 40
1.0
 40
1.0
 40
1.0
 40
1.0
 10
128.9470101360682
 20
99.7550122548678
 30
0.0
 10
128.8833092169518
 20
99.76008602768718
 30
0.0
 10
128.8193704257119
 20
99.76151588923004
 30
0.0
 10
128.7555063728698
 20
99.75929484859506
 30
0.0
  0
SPLINE
  5
8D
330
70
100
AcDbEntity
  8
0
 62
    18
420
        0
370
    25
100
AcDbSpline
210
0.0
220
0.0
230
1.0
 70
     8
 71
     3
 72
     8
 73
     4
 74
     0
 42
0.0000000001
 43
0.0000000001
 40
0.0
 40
0.0
 40
0.0
 40
0.0
 40
1.0
 40
1.0
 40
1.0
 40
1.0
 10
128.9470101360631
 20
99.75501225486395
 30
0.0
 10
128.8807274640132
 20
99.76348257692194
 30
0.0
 10
128.8138465989907
 20
99.76632531776184
 30
0.0
 10
128.7470842365567
 20
99.76351001456372
 30
0.0
  0
LINE
  5
8E
330
70
100
AcDbEntity
  8
0
 62
    18
420
        0
370
    25
100
AcDbLine
 10
128.7470901970668
 20
99.75509160353077
 30
0.0
 11
128.747084236567
 21
99.76351001453066
 31
0.0
  0
SPLINE
  5
8F
330
70
100
AcDbEntity
  8
0
 62
    18
420
        0
370
    25
100
AcDbSpline
210
0.0
220
0.0
230
1.0
 70
     8
 71
     3
 72
     8
 73
     4
 74
     0
 42
0.0000000001
 43
0.0000000001
 40
0.0
 40
0.0
 40
0.0
 40
0.0
 40
1.0
 40
1.0
 40
1.0
 40
1.0
 10
118.9470077518793
 20
90.15501217140037
 30
0.0
 10
119.0132903574665
 20
90.1465410674093
 30
0.0
 10
119.0801712888214
 20
90.14369832375011
 30
0.0
 10
119.1469336513837
 20
90.14651441170061
 30
0.0
  0
SPLINE
  5
90
330
70
100
AcDbEntity
  8
0
 62
    18
420
        0
370
    25
100
AcDbSpline
210
0.0
220
0.0
230
1.0
 70
     8
 71
     3
 72
     8
 73
     4
 74
     0
 42
0.0000000001
 43
0.0000000001
 40
0.0
 40
0.0
 40
0.0
 40
0.0
 40
1.0
 40
1.0
 40
1.0
 40
1.0
 10
118.9470077519031
 20
90.15501217146134
 30
0.0
 10
119.0107085853373
 20
90.14993671764521
 30
0.0
 10
119.0746474727113
 20
90.14850685395265
 30
0.0
 10
119.1385115151034
 20
90.15072957773405
 30
0.0
  0
LINE
  5
91
330
70
100
AcDbEntity
  8
0
 62
    18
420
        0
370
    25
100
AcDbLine
 10
118.9470077518665
 20
90.15501217143052
 30
0.0
 11
118.9470077518665
 21
93.35501213713055
 31
0.0
  0
LINE
  5
92
330
70
100
AcDbEntity
  8
0
 62
    18
420
        0
370
    25
100
AcDbLine
 10
118.9470077518665
 20
96.55501210283055
 30
0.0
 11
118.9470077518665
 21
99.75501225483057
 31
0.0
  0
SPLINE
  5
93
330
70
100
AcDbEntity
  8
0
 62
    18
420
        0
370
    25
100
AcDbSpline
210
0.0
220
0.0
230
1.0
 70
     8
 71
     3
 72
     8
 73
     4
 74
     0
 42
0.0000000001
 43
0.0000000001
 40
0.0
 40
0.0
 40
0.0
 40
0.0
 40
1.0
 40
1.0
 40
1.0
 40
1.0
 10
119.1385115151393
 20
99.75508825075916
 30
0.0
 10
119.0746769173701
 20
99.75511212233497
 30
0.0
 10
119.0108423106768
 20
99.75508679035353
 30
0.0
 10
118.9470077519595
 20
99.75501225483732
 30
0.0
  0
LINE
  5
94
330
70
100
AcDbEntity
  8
0
 62
    18
420
        0
370
    25
100
AcDbLine
 10
128.7470067505667
 20
89.9550121386304
 30
0.0
 11
119.147005176967
 21
89.9550121386304
 31
0.0
  0
SPLINE
  5
95
330
70
100
AcDbEntity
  8
0
 62
    18
420
        0
370
    25
100
AcDbSpline
210
0.0
220
0.0
230
1.0
 70
     8
 71
     3
 72
     8
 73
     4
 74
     0
 42
0.0000000001
 43
0.0000000001
 40
0.0
 40
0.0
 40
0.0
 40
0.0
 40
1.0
 40
1.0
 40
1.0
 40
1.0
 10
119.14693365136
 20
90.14651441179557
 30
0.0
 10
119.1469128120855
 20
90.08268031185203
 30
0.0
 10
119.1469366539493
 20
90.01884620512987
 30
0.0
 10
119.1470051769336
 20
89.95501213856238
 30
0.0
  0
SPLINE
  5
96
330
70
100
AcDbEntity
  8
0
 62
    18
420
        0
370
    25
100
AcDbSpline
210
0.0
220
0.0
230
1.0
 70
     8
 71
     3
 72
     8
 73
     4
 74
     0
 42
0.0000000001
 43
0.0000000001
 40
0.0
 40
0.0
 40
0.0
 40
0.0
 40
1.0
 40
1.0
 40
1.0
 40
1.0
 10
128.7470067505282
 20
89.95501213866955
 30
0.0
 10
128.7520783457333
 20
90.01871316260396
 30
0.0
 10
128.7535091982539
 20
90.08265177266617
 30
0.0
 10
128.7512923244877
 20
90.14651590186952
 30
0.0
  0
SPLINE
  5
97
330
70
100
AcDbEntity
  8
0
 62
    18
420
        0
370
    25
100
AcDbSpline
210
0.0
220
0.0
230
1.0
 70
     8
 71
     3
 72
     8
 73
     4
 74
     0
 42
0.0000000001
 43
0.0000000001
 40
0.0
 40
0.0
 40
0.0
 40
0.0
 40
1.0
 40
1.0
 40
1.0
 40
1.0
 10
128.7470067504974
 20
89.95501213860087
 30
0.0
 10
128.7554779248107
 20
90.02129411407713
 30
0.0
 10
128.758321289786
 20
90.0881743801724
 30
0.0
 10
128.7555063728422
 20
90.15493617545926
 30
0.0
  0
SPLINE
  5
98
330
70
100
AcDbEntity
  8
0
 62
    18
420
        0
370
    25
100
AcDbSpline
210
0.0
220
0.0
230
1.0
 70
     8
 71
     3
 72
     8
 73
     4
 74
     0
 42
0.0000000001
 43
0.0000000001
 40
0.0
 40
0.0
 40
0.0
 40
0.0
 40
1.0
 40
1.0
 40
1.0
 40
1.0
 10
119.1470051769464
 20
99.95501228767466
 30
0.0
 10
119.1385359824698
 20
99.88873014424846
 30
0.0
 10
119.1356946114267
 20
99.82184987786247
 30
0.0
 10
119.1385115150655
 20
99.75508825081433
 30
0.0
  0
SPLINE
  5
99
330
70
100
AcDbEntity
  8
0
 62
    18
420
        0
370
    25
100
AcDbSpline
210
0.0
220
0.0
230
1.0
 70
     8
 71
     3
 72
     8
 73
     4
 74
     0
 42
0.0000000001
 43
0.0000000001
 40
0.0
 40
0.0
 40
0.0
 40
0.0
 40
1.0
 40
1.0
 40
1.0
 40
1.0
 10
119.1470051769913
 20
99.95501228761305
 30
0.0
 10
119.1419397240474
 20
99.89131093862695
 30
0.0
 10
119.1405108668899
 20
99.82737256590226
 30
0.0
 10
119.1427255634963
 20
99.7635085244147
 30
0.0
  0
SPLINE
  5
9A
330
70
100
AcDbEntity
  8
0
 62
    18
420
        0
370
    25
100
AcDbSpline
210
0.0
220
0.0
230
1.0
 70
     8
 71
     3
 72
     8
 73
     4
 74
     0
 42
0.0000000001
 43
0.0000000001
 40
0.0
 40
0.0
 40
0.0
 40
0.0
 40
1.0
 40
1.0
 40
1.0
 40
1.0
 10
119.1427255634232
 20
99.76350852439832
 30
0.0
 10
119.1429824945696
 20
99.76026431446578
 30
0.0
 10
119.1444890749615
 20
99.75724661257096
 30
0.0
 10
119.1469276908801
 20
99.75509160349803
 30
0.0
  0
LWPOLYLINE
  5
9B
330
70
100
AcDbEntity
  8
0
 62
    18
420
        0
370
    25
100
AcDbPolyline
 90
        6
 70
     0
 43
0.0
 10
123.947008943967
 20
99.7647170086306
 10
123.547008133367
 20
99.76470583273082
 10
121.9470048908668
 20
99.76445996363075
 10
120.546969271167
 20
99.76404049593083
 10
119.146933651367
 20
99.76351001453066
 10
119.1427255634668
 20
99.76350852443072
  0
LINE
  5
9C
330
70
100
AcDbEntity
  8
0
 62
    18
420
        0
370
    25
100
AcDbLine
 10
119.147005176967
 20
99.95501228763069
 30
0.0
 11
123.947008943967
 21
99.95501228763069
 31
0.0
  0
LINE
  5
9D
330
70
100
AcDbEntity
  8
0
 62
    18
420
        0
370
    25
100
AcDbLine
 10
123.947008943967
 20
99.7647170086306
 30
0.0
 11
123.947008943967
 21
99.95501228763069
 31
0.0
  0
LINE
  5
9E
330
70
100
AcDbEntity
  8
0
 62
    18
420
        0
370
    25
100
AcDbLine
 10
123.947008943967
 20
99.75509160353077
 30
0.0
 11
123.947008943967
 21
99.7647170086306
 31
0.0
  0
LINE
  5
9F
330
70
100
AcDbEntity
  8
0
 62
    18
420
        0
370
    25
100
AcDbLine
 10
123.947008943967
 20
99.75509160353077
 30
0.0
 11
119.1469276909667
 21
99.75509160353077
 31
0.0
  0
LWPOLYLINE
  5
A0
330
70
100
AcDbEntity
  8
0
 62
    18
420
        0
370
    25
100
AcDbPolyline
 90
        5
 70
     0
 43
0.0
 10
128.747084236567
 20
99.76351001453066
 10
128.347083425967
 20
99.76366871193071
 10
126.7470861439666
 20
99.76423868133077
 10
125.3470445636668
 20
99.76458662343077
 10
123.947008943967
 20
99.7647170086306
  0
LINE
  5
A1
330
70
100
AcDbEntity
  8
0
 62
    18
420
        0
370
    25
100
AcDbLine
 10
128.7470901970668
 20
99.75509160353077
 30
0.0
 11
123.947008943967
 21
99.75509160353077
 31
0.0
  0
LINE
  5
A2
330
70
100
AcDbEntity
  8
0
 62
    18
420
        0
370
    25
100
AcDbLine
 10
123.947008943967
 20
99.95501228763069
 30
0.0
 11
128.7470067505667
 21
99.95501228763069
 31
0.0
  0
SPLINE
  5
A3
330
70
100
AcDbEntity
  8
0
 62
    18
420
        0
370
    25
100
AcDbSpline
210
0.0
220
0.0
230
1.0
 70
     8
 71
     3
 72
     8
 73
     4
 74
     0
 42
0.0000000001
 43
0.0000000001
 40
0.0
 40
0.0
 40
0.0
 40
0.0
 40
1.0
 40
1.0
 40
1.0
 40
1.0
 10
128.7470842366183
 20
99.76351001452423
 30
0.0
 10
128.7471098979813
 20
99.82734411601333
 30
0.0
 10
128.7470840692934
 20
99.89117822780938
 30
0.0
 10
128.7470067505802
 20
99.95501228763039
 30
0.0
  0
SPLINE
  5
A4
330
70
100
AcDbEntity
  8
0
 62
    18
420
        0
370
    25
100
AcDbSpline
210
0.0
220
0.0
230
1.0
 70
     8
 71
     3
 72
     8
 73
     4
 74
     0
 42
0.0000000001
 43
0.0000000001
 40
0.0
 40
0.0
 40
0.0
 40
0.0
 40
1.0
 40
1.0
 40
1.0
 40
1.0
 10
128.9470077518668
 20
99.75501214150941
 30
0.0
 10
128.9470077518232
 20
99.86546909144479
 30
0.0
 10
128.8574647018022
 20
99.95501214143049
 30
0.0
 10
128.7470077518668
 20
99.95501214143049
 30
0.0
  0
SPLINE
  5
A5
330
70
100
AcDbEntity
  8
0
 62
    18
420
        0
370
    25
100
AcDbSpline
210
0.0
220
0.0
230
1.0
 70
     8
 71
     3
 72
    11
 73
     7
 74
     0
 42
0.0000000001
 43
0.0000000001
 40
0.0
 40
0.0
 40
0.0
 40
0.0
 40
1.0
 40
1.0
 40
1.0
 40
2.0
 40
2.0
 40
2.0
 40
2.0
 10
118.9470077518665
 20
90.1550121419037
 30
0.0
 10
118.9470077516053
 20
90.04455519193752
 30
0.0
 10
119.0365508014274
 20
89.95501214169193
 30
0.0
 10
119.1470077513936
 20
89.95501214143077
 30
0.0
 10
119.1470077516304
 20
89.95501214143077
 30
0.0
 10
119.1470077516304
 20
89.95501214143077
 30
0.0
 10
119.1470077518665
 20
89.95501214143077
 30
0.0
  0
SPLINE
  5
A6
330
70
100
AcDbEntity
  8
0
 62
    18
420
        0
370
    25
100
AcDbSpline
210
0.0
220
0.0
230
1.0
 70
     8
 71
     3
 72
     8
 73
     4
 74
     0
 42
0.0000000001
 43
0.0000000001
 40
0.0
 40
0.0
 40
0.0
 40
0.0
 40
1.0
 40
1.0
 40
1.0
 40
1.0
 10
119.1470077518665
 20
99.95501214143049
 30
0.0
 10
119.0365508019003
 20
99.95501214143049
 30
0.0
 10
118.9470077518665
 20
99.86546909139667
 30
0.0
 10
118.9470077518665
 20
99.75501214143047
 30
0.0
  0
SPLINE
  5
A7
330
70
100
AcDbEntity
  8
0
 62
    18
420
        0
370
    25
100
AcDbSpline
210
0.0
220
0.0
230
1.0
 70
     8
 71
     3
 72
     8
 73
     4
 74
     0
 42
0.0000000001
 43
0.0000000001
 40
0.0
 40
0.0
 40
0.0
 40
0.0
 40
1.0
 40
1.0
 40
1.0
 40
1.0
 10
128.7470077518668
 20
89.95501214143077
 30
0.0
 10
128.8574647018331
 20
89.95501214143077
 30
0.0
 10
128.9470077518668
 20
90.04455519146459
 30
0.0
 10
128.9470077518668
 20
90.15501214143077
 30
0.0
  0
LINE
  5
A8
330
70
100
AcDbEntity
  8
0
 62
    18
420
        0
370
    25
100
AcDbLine
 10
16.94700965926679
 20
96.55501210283055
 30
0.0
 11
16.94700965926679
 21
93.35501213713055
 31
0.0
  0
LINE
  5
A9
330
70
100
AcDbEntity
  8
0
 62
    18
420
        0
370
    25
100
AcDbLine
 10
120.947005844567
 20
96.55501210283055
 30
0.0
 11
120.947005844567
 21
93.35501213713055
 31
0.0
  0
SPLINE
  5
AA
330
70
100
AcDbEntity
  8
0
 62
    18
420
        0
370
    25
100
AcDbSpline
210
0.0
220
0.0
230
1.0
 70
     8
 71
     3
 72
    11
 73
     7
 74
     0
 42
0.0000000001
 43
0.0000000001
 40
0.0
 40
0.0
 40
0.0
 40
0.0
 40
1.0
 40
1.0
 40
1.0
 40
2.0
 40
2.0
 40
2.0
 40
2.0
 10
13.94700655981637
 20
96.55501210289441
 30
0.0
 10
13.06335096955125
 20
96.55501152191808
 30
0.0
 10
12.34700704792693
 20
95.83866665834532
 30
0.0
 10
12.34700762890295
 20
94.95501106808021
 30
0.0
 10
12.34700820987865
 20
94.07135629943949
 30
0.0
 10
13.06335179117533
 20
93.3550127181425
 30
0.0
 10
13.94700655981637
 20
93.35501213716712
 30
0.0
  0
LWPOLYLINE
  5
AB
330
70
100
AcDbEntity
  8
0
 62
    18
420
        0
370
    25
100
AcDbPolyline
 90
        4
 70
     0
 43
0.0
 10
15.5470098022668
 20
96.55501210283055
 10
16.02368602796668
 20
97.03168870103063
 10
16.83505425496659
 20
97.84305841823057
 10
18.74708781286675
 20
99.75509160353077
  0
SPLINE
  5
AC
330
70
100
AcDbEntity
  8
0
 62
    18
420
        0
370
    25
100
AcDbSpline
210
0.0
220
0.0
230
1.0
 70
     8
 71
     3
 72
     8
 73
     4
 74
     0
 42
0.0000000001
 43
0.0000000001
 40
0.0
 40
0.0
 40
0.0
 40
0.0
 40
1.0
 40
1.0
 40
1.0
 40
1.0
 10
18.75550398869413
 20
99.75929484856811
 30
0.0
 10
18.75225970056768
 20
99.75903808231784
 30
0.0
 10
18.74924204605335
 20
99.75753099149409
 30
0.0
 10
18.74708781285167
 20
99.75509160352434
 30
0.0
  0
LINE
  5
AD
330
70
100
AcDbEntity
  8
0
 62
    18
420
        0
370
    25
100
AcDbLine
 10
18.74708781286675
 20
90.15493282273068
 30
0.0
 11
18.75550398866686
 21
90.15493617553081
 31
0.0
  0
LWPOLYLINE
  5
AE
330
70
100
AcDbEntity
  8
0
 62
    18
420
        0
370
    25
100
AcDbPolyline
 90
        4
 70
     0
 43
0.0
 10
15.5470098022668
 20
93.35501213713055
 10
16.02368006746687
 20
92.87833879863068
 10
16.83505425496659
 20
92.06696805703074
 10
18.74708781286675
 20
90.15493282273068
  0
LWPOLYLINE
  5
AF
330
70
100
AcDbEntity
  8
0
 62
    18
420
        0
370
    25
100
AcDbPolyline
 90
        5
 70
     0
 43
0.0
 10
12.83065328636669
 20
96.07136660413054
 10
12.65678653756687
 20
96.24523577433068
 10
11.87033305206672
 20
97.03168870103063
 10
11.05895886466679
 20
97.84305841823057
 10
9.146925306766627
 20
99.75509160353077
  0
SPLINE
  5
B0
330
70
100
AcDbEntity
  8
0
 62
    18
420
        0
370
    25
100
AcDbSpline
210
0.0
220
0.0
230
1.0
 70
     8
 71
     3
 72
     8
 73
     4
 74
     0
 42
0.0000000001
 43
0.0000000001
 40
0.0
 40
0.0
 40
0.0
 40
0.0
 40
1.0
 40
1.0
 40
1.0
 40
1.0
 10
9.14272317932291
 20
99.76350852439832
 30
0.0
 10
9.142980110469622
 20
99.76026431446546
 30
0.0
 10
9.144486690861238
 20
99.75724661257096
 30
0.0
 10
9.146925306779781
 20
99.75509160349803
 30
0.0
  0
LWPOLYLINE
  5
B1
330
70
100
AcDbEntity
  8
0
 62
    18
420
        0
370
    25
100
AcDbPolyline
 90
        7
 70
     0
 43
0.0
 10
18.74708185236661
 20
99.76351001453066
 10
18.3470810417666
 20
99.76366871193071
 10
16.74708375976688
 20
99.76423719123051
 10
13.54708323516689
 20
99.76470657783067
 10
12.32820401236675
 20
99.7645463903307
 10
9.146931267166658
 20
99.76351001453066
 10
9.142723179266761
 20
99.76350852443072
  0
LINE
  5
B2
330
70
100
AcDbEntity
  8
0
 62
    18
420
        0
370
    25
100
AcDbLine
 10
18.74708781286675
 20
99.75509160353077
 30
0.0
 11
18.74708185236661
 21
99.76351001453066
 31
0.0
  0
SPLINE
  5
B3
330
70
100
AcDbEntity
  8
0
 62
    18
420
        0
370
    25
100
AcDbSpline
210
0.0
220
0.0
230
1.0
 70
     8
 71
     3
 72
     8
 73
     4
 74
     0
 42
0.0000000001
 43
0.0000000001
 40
0.0
 40
0.0
 40
0.0
 40
0.0
 40
1.0
 40
1.0
 40
1.0
 40
1.0
 10
9.138509130861594
 20
90.15072957765033
 30
0.0
 10
9.141753504023441
 20
90.15098603790608
 30
0.0
 10
9.144771267044911
 20
90.15249318292067
 30
0.0
 10
9.146925306703741
 20
90.15493282269408
 30
0.0
  0
LWPOLYLINE
  5
B4
330
70
100
AcDbEntity
  8
0
 62
    18
420
        0
370
    25
100
AcDbPolyline
 90
        7
 70
     0
 43
0.0
 10
9.138509130866728
 20
99.75508825083071
 10
9.138354158866814
 20
99.35508818523075
 10
9.137781954266651
 20
97.75508829553075
 10
9.137311077566884
 20
94.55508842293067
 10
9.137472010066613
 20
93.33620761673078
 10
9.138509130866728
 20
90.15493617553049
 10
9.138509130866728
 20
90.15072957773085
  0
LINE
  5
B5
330
70
100
AcDbEntity
  8
0
 62
    18
420
        0
370
    25
100
AcDbLine
 10
9.146925306766627
 20
99.75509160353077
 30
0.0
 11
9.138509130866728
 21
99.75508825083071
 31
0.0
  0
LWPOLYLINE
  5
B6
330
70
100
AcDbEntity
  8
0
 62
    18
420
        0
370
    25
100
AcDbPolyline
 90
        5
 70
     0
 43
0.0
 10
12.82457361266671
 20
93.83257540103079
 10
12.65678653756687
 20
93.66479242373053
 10
11.87033305206672
 20
92.87833879863068
 10
11.05896482506682
 20
92.06696805703074
 10
9.146925306766627
 20
90.15493282273068
  0
LWPOLYLINE
  5
B7
330
70
100
AcDbEntity
  8
0
 62
    18
420
        0
370
    25
100
AcDbPolyline
 90
        5
 70
     0
 43
0.0
 10
9.146931267166658
 20
90.14651441173077
 10
9.546932077866779
 20
90.14635571433071
 10
11.14692935986681
 20
90.14578574493066
 10
12.54697094006679
 20
90.14543743033078
 10
13.94700655976663
 20
90.14530741763051
  0
LINE
  5
B8
330
70
100
AcDbEntity
  8
0
 62
    18
420
        0
370
    25
100
AcDbLine
 10
9.146925306766627
 20
90.15493282273068
 30
0.0
 11
9.146931267166658
 21
90.14651441173077
 31
0.0
  0
SPLINE
  5
B9
330
70
100
AcDbEntity
  8
0
 62
    18
420
        0
370
    25
100
AcDbSpline
210
0.0
220
0.0
230
1.0
 70
     8
 71
     3
 72
     8
 73
     4
 74
     0
 42
0.0000000001
 43
0.0000000001
 40
0.0
 40
0.0
 40
0.0
 40
0.0
 40
1.0
 40
1.0
 40
1.0
 40
1.0
 10
18.75128994032426
 20
90.14651590181015
 30
0.0
 10
18.75103278127011
 20
90.14976004840828
 30
0.0
 10
18.74952624119998
 20
90.15277766953758
 30
0.0
 10
18.74708781286771
 20
90.15493282271044
 30
0.0
  0
LWPOLYLINE
  5
BA
330
70
100
AcDbEntity
  8
0
 62
    18
420
        0
370
    25
100
AcDbPolyline
 90
        6
 70
     0
 43
0.0
 10
13.94700655976663
 20
90.14530741763051
 10
14.34700737046675
 20
90.14531859353061
 10
15.94701061286682
 20
90.14556409013048
 10
17.34704623266677
 20
90.14598355783071
 10
18.74708185236661
 20
90.14651441173077
 10
18.75128994026683
 20
90.14651590183069
  0
SPLINE
  5
BB
330
70
100
AcDbEntity
  8
0
 62
    18
420
        0
370
    25
100
AcDbSpline
210
0.0
220
0.0
230
1.0
 70
     8
 71
     3
 72
     8
 73
     4
 74
     0
 42
0.0000000001
 43
0.0000000001
 40
0.0
 40
0.0
 40
0.0
 40
0.0
 40
1.0
 40
1.0
 40
1.0
 40
1.0
 10
8.947005367662582
 20
90.15501217146036
 30
0.0
 10
9.013287994166244
 20
90.14654131354388
 30
0.0
 10
9.080168904645114
 20
90.14369857077182
 30
0.0
 10
9.146931267167621
 20
90.14651441176027
 30
0.0
  0
SPLINE
  5
BC
330
70
100
AcDbEntity
  8
0
 62
    18
420
        0
370
    25
100
AcDbSpline
210
0.0
220
0.0
230
1.0
 70
     8
 71
     3
 72
     8
 73
     4
 74
     0
 42
0.0000000001
 43
0.0000000001
 40
0.0
 40
0.0
 40
0.0
 40
0.0
 40
1.0
 40
1.0
 40
1.0
 40
1.0
 10
8.947005367661619
 20
90.15501217146198
 30
0.0
 10
9.010706224891928
 20
90.14993718446426
 30
0.0
 10
9.074645085564245
 20
90.14850732136881
 30
0.0
 10
9.13850913085999
 20
90.15072957773471
 30
0.0
  0
LINE
  5
BD
330
70
100
AcDbEntity
  8
0
 62
    18
420
        0
370
    25
100
AcDbLine
 10
8.947005367666752
 20
90.15501217143052
 30
0.0
 11
8.947005367666752
 21
99.75501225483057
 31
0.0
  0
SPLINE
  5
BE
330
70
100
AcDbEntity
  8
0
 62
    18
420
        0
370
    25
100
AcDbSpline
210
0.0
220
0.0
230
1.0
 70
     8
 71
     3
 72
     8
 73
     4
 74
     0
 42
0.0000000001
 43
0.0000000001
 40
0.0
 40
0.0
 40
0.0
 40
0.0
 40
1.0
 40
1.0
 40
1.0
 40
1.0
 10
9.13850913076919
 20
99.75508825077969
 30
0.0
 10
9.074674533002259
 20
99.75511211684908
 30
0.0
 10
9.010839926314748
 20
99.75508678486733
 30
0.0
 10
8.947005367595203
 20
99.75501225485752
 30
0.0
  0
SPLINE
  5
BF
330
70
100
AcDbEntity
  8
0
 62
    18
420
        0
370
    25
100
AcDbSpline
210
0.0
220
0.0
230
1.0
 70
     8
 71
     3
 72
     8
 73
     4
 74
     0
 42
0.0000000001
 43
0.0000000001
 40
0.0
 40
0.0
 40
0.0
 40
0.0
 40
1.0
 40
1.0
 40
1.0
 40
1.0
 10
18.94700775184663
 20
99.75501225482448
 30
0.0
 10
18.88072510070782
 20
99.76348282291022
 30
0.0
 10
18.81384421481564
 20
99.76632556463727
 30
0.0
 10
18.74708185234062
 20
99.76351001452423
 30
0.0
  0
SPLINE
  5
C0
330
70
100
AcDbEntity
  8
0
 62
    18
420
        0
370
    25
100
AcDbSpline
210
0.0
220
0.0
230
1.0
 70
     8
 71
     3
 72
     8
 73
     4
 74
     0
 42
0.0000000001
 43
0.0000000001
 40
0.0
 40
0.0
 40
0.0
 40
0.0
 40
1.0
 40
1.0
 40
1.0
 40
1.0
 10
18.94700775193037
 20
99.75501225483217
 30
0.0
 10
18.88330685660238
 20
99.76008649440196
 30
0.0
 10
18.81936803867428
 20
99.76151635654126
 30
0.0
 10
18.75550398873135
 20
99.75929484855946
 30
0.0
  0
LINE
  5
C1
330
70
100
AcDbEntity
  8
0
 62
    18
420
        0
370
    25
100
AcDbLine
 10
9.147008753266719
 20
99.95501228763069
 30
0.0
 11
18.74701032676668
 21
99.95501228763069
 31
0.0
  0
SPLINE
  5
C2
330
70
100
AcDbEntity
  8
0
 62
    18
420
        0
370
    25
100
AcDbSpline
210
0.0
220
0.0
230
1.0
 70
     8
 71
     3
 72
     8
 73
     4
 74
     0
 42
0.0000000001
 43
0.0000000001
 40
0.0
 40
0.0
 40
0.0
 40
0.0
 40
1.0
 40
1.0
 40
1.0
 40
1.0
 10
18.7470818523756
 20
99.76351001445589
 30
0.0
 10
18.74710269151019
 20
99.82734411442478
 30
0.0
 10
18.74707884964665
 20
99.89117822115463
 30
0.0
 10
18.74701032680198
 20
99.95501228774717
 30
0.0
  0
SPLINE
  5
C3
330
70
100
AcDbEntity
  8
0
 62
    18
420
        0
370
    25
100
AcDbSpline
210
0.0
220
0.0
230
1.0
 70
     8
 71
     3
 72
     8
 73
     4
 74
     0
 42
0.0000000001
 43
0.0000000001
 40
0.0
 40
0.0
 40
0.0
 40
0.0
 40
1.0
 40
1.0
 40
1.0
 40
1.0
 10
9.147008753246828
 20
99.9550122876583
 30
0.0
 10
9.141937361205311
 20
99.89131125337328
 30
0.0
 10
9.140506508944586
 20
99.82737265491747
 30
0.0
 10
9.142723179287616
 20
99.76350852446216
 30
0.0
  0
SPLINE
  5
C4
330
70
100
AcDbEntity
  8
0
 62
    18
420
        0
370
    25
100
AcDbSpline
210
0.0
220
0.0
230
1.0
 70
     8
 71
     3
 72
     8
 73
     4
 74
     0
 42
0.0000000001
 43
0.0000000001
 40
0.0
 40
0.0
 40
0.0
 40
0.0
 40
1.0
 40
1.0
 40
1.0
 40
1.0
 10
9.147008753250998
 20
99.95501228761561
 30
0.0
 10
9.138537603389679
 20
99.88873031006027
 30
0.0
 10
9.135694238502608
 20
99.82185004603961
 30
0.0
 10
9.138509130906191
 20
99.75508825075692
 30
0.0
  0
LINE
  5
C5
330
70
100
AcDbEntity
  8
0
 62
    18
420
        0
370
    25
100
AcDbLine
 10
18.94700775186684
 20
99.75501225483057
 30
0.0
 11
18.94700775186684
 21
96.55501210283055
 31
0.0
  0
LINE
  5
C6
330
70
100
AcDbEntity
  8
0
 62
    18
420
        0
370
    25
100
AcDbLine
 10
18.94700775186684
 20
93.35501213713055
 30
0.0
 11
18.94700775186684
 21
90.15501217143052
 31
0.0
  0
SPLINE
  5
C7
330
70
100
AcDbEntity
  8
0
 62
    18
420
        0
370
    25
100
AcDbSpline
210
0.0
220
0.0
230
1.0
 70
     8
 71
     3
 72
     8
 73
     4
 74
     0
 42
0.0000000001
 43
0.0000000001
 40
0.0
 40
0.0
 40
0.0
 40
0.0
 40
1.0
 40
1.0
 40
1.0
 40
1.0
 10
18.75550398866494
 20
90.15493617550291
 30
0.0
 10
18.81933858642673
 20
90.15491210525867
 30
0.0
 10
18.88317319327178
 20
90.15493743724013
 30
0.0
 10
18.94700775182417
 20
90.15501217142507
 30
0.0
  0
SPLINE
  5
C8
330
70
100
AcDbEntity
  8
0
 62
    18
420
        0
370
    25
100
AcDbSpline
210
0.0
220
0.0
230
1.0
 70
     8
 71
     3
 72
     8
 73
     4
 74
     0
 42
0.0000000001
 43
0.0000000001
 40
0.0
 40
0.0
 40
0.0
 40
0.0
 40
1.0
 40
1.0
 40
1.0
 40
1.0
 10
18.74701032680583
 20
89.955012138615
 30
0.0
 10
18.75547954579378
 20
90.02129427995793
 30
0.0
 10
18.75832091692546
 20
90.08817454842365
 30
0.0
 10
18.75550398868643
 20
90.15493617547564
 30
0.0
  0
SPLINE
  5
C9
330
70
100
AcDbEntity
  8
0
 62
    18
420
        0
370
    25
100
AcDbSpline
210
0.0
220
0.0
230
1.0
 70
     8
 71
     3
 72
     8
 73
     4
 74
     0
 42
0.0000000001
 43
0.0000000001
 40
0.0
 40
0.0
 40
0.0
 40
0.0
 40
1.0
 40
1.0
 40
1.0
 40
1.0
 10
18.74701032684593
 20
89.95501213860281
 30
0.0
 10
18.75207598250295
 20
90.01871347727199
 30
0.0
 10
18.75350483991901
 20
90.08265186156362
 30
0.0
 10
18.75128994034063
 20
90.14651590180021
 30
0.0
  0
LINE
  5
CA
330
70
100
AcDbEntity
  8
0
 62
    18
420
        0
370
    25
100
AcDbLine
 10
18.74701032676668
 20
89.9550121386304
 30
0.0
 11
13.94700655976663
 21
89.9550121386304
 31
0.0
  0
LINE
  5
CB
330
70
100
AcDbEntity
  8
0
 62
    18
420
        0
370
    25
100
AcDbLine
 10
13.94700655976663
 20
90.14530741763051
 30
0.0
 11
13.94700655976663
 21
89.9550121386304
 31
0.0
  0
LINE
  5
CC
330
70
100
AcDbEntity
  8
0
 62
    18
420
        0
370
    25
100
AcDbLine
 10
13.94700655976663
 20
89.9550121386304
 30
0.0
 11
9.147008753266719
 21
89.9550121386304
 31
0.0
  0
SPLINE
  5
CD
330
70
100
AcDbEntity
  8
0
 62
    18
420
        0
370
    25
100
AcDbSpline
210
0.0
220
0.0
230
1.0
 70
     8
 71
     3
 72
     8
 73
     4
 74
     0
 42
0.0000000001
 43
0.0000000001
 40
0.0
 40
0.0
 40
0.0
 40
0.0
 40
1.0
 40
1.0
 40
1.0
 40
1.0
 10
9.146931267175
 20
90.14651441178274
 30
0.0
 10
9.146905605658007
 20
90.08268031028949
 30
0.0
 10
9.146931434345621
 20
90.01884619847482
 30
0.0
 10
9.147008753213137
 20
89.95501213864965
 30
0.0
  0
SPLINE
  5
CE
330
70
100
AcDbEntity
  8
0
 62
    18
420
        0
370
    25
100
AcDbSpline
210
0.0
220
0.0
230
1.0
 70
     8
 71
     3
 72
    11
 73
     7
 74
     0
 42
0.0000000001
 43
0.0000000001
 40
0.0
 40
0.0
 40
0.0
 40
0.0
 40
1.0
 40
1.0
 40
1.0
 40
2.0
 40
2.0
 40
2.0
 40
2.0
 10
8.947007751866806
 20
90.15501214150971
 30
0.0
 10
8.947007751823171
 20
90.04455519154353
 30
0.0
 10
9.036550801821693
 20
89.95501214147441
 30
0.0
 10
9.147007751787885
 20
89.95501214143077
 30
0.0
 10
9.147007751827349
 20
89.95501214143077
 30
0.0
 10
9.147007751827349
 20
89.95501214143077
 30
0.0
 10
9.147007751866814
 20
89.95501214143077
 30
0.0
  0
SPLINE
  5
CF
330
70
100
AcDbEntity
  8
0
 62
    18
420
        0
370
    25
100
AcDbSpline
210
0.0
220
0.0
230
1.0
 70
     8
 71
     3
 72
     8
 73
     4
 74
     0
 42
0.0000000001
 43
0.0000000001
 40
0.0
 40
0.0
 40
0.0
 40
0.0
 40
1.0
 40
1.0
 40
1.0
 40
1.0
 10
9.147007751866814
 20
99.95501214143081
 30
0.0
 10
9.036550801900622
 20
99.95501214143081
 30
0.0
 10
8.947007751866806
 20
99.86546909139667
 30
0.0
 10
8.947007751866806
 20
99.75501214143047
 30
0.0
  0
SPLINE
  5
D0
330
70
100
AcDbEntity
  8
0
 62
    18
420
        0
370
    25
100
AcDbSpline
210
0.0
220
0.0
230
1.0
 70
     8
 71
     3
 72
     8
 73
     4
 74
     0
 42
0.0000000001
 43
0.0000000001
 40
0.0
 40
0.0
 40
0.0
 40
0.0
 40
1.0
 40
1.0
 40
1.0
 40
1.0
 10
18.74700775186683
 20
89.95501214143077
 30
0.0
 10
18.85746470183302
 20
89.95501214143077
 30
0.0
 10
18.94700775186684
 20
90.04455519146459
 30
0.0
 10
18.94700775186684
 20
90.15501214143077
 30
0.0
  0
SPLINE
  5
D1
330
70
100
AcDbEntity
  8
0
 62
    18
420
        0
370
    25
100
AcDbSpline
210
0.0
220
0.0
230
1.0
 70
     8
 71
     3
 72
     8
 73
     4
 74
     0
 42
0.0000000001
 43
0.0000000001
 40
0.0
 40
0.0
 40
0.0
 40
0.0
 40
1.0
 40
1.0
 40
1.0
 40
1.0
 10
18.94700775186684
 20
99.75501214190373
 30
0.0
 10
18.94700775160567
 20
99.86546909168511
 30
0.0
 10
18.85746470164821
 20
99.95501214143049
 30
0.0
 10
18.74700775186683
 20
99.95501214143081
 30
0.0
  0
SPLINE
  5
D2
330
70
100
AcDbEntity
  8
0
 62
    18
420
        0
370
    25
100
AcDbSpline
210
0.0
220
0.0
230
1.0
 70
     8
 71
     3
 72
    11
 73
     7
 74
     0
 42
0.0000000001
 43
0.0000000001
 40
0.0
 40
0.0
 40
0.0
 40
0.0
 40
1.0
 40
1.0
 40
1.0
 40
2.0
 40
2.0
 40
2.0
 40
2.0
 10
123.947008943958
 20
93.35501213716712
 30
0.0
 10
124.8306645342232
 20
93.35501271628768
 30
0.0
 10
125.5470084573513
 20
94.07135757835659
 30
0.0
 10
125.5470078782301
 20
94.95501316862171
 30
0.0
 10
125.5470072991102
 20
95.83866793988633
 30
0.0
 10
124.8306637152227
 20
96.55501152377386
 30
0.0
 10
123.947008943958
 20
96.55501210289441
 30
0.0
  0
LWPOLYLINE
  5
D3
330
70
100
AcDbEntity
  8
0
 62
     8
420
  8421504
370
    25
100
AcDbPolyline
 90
        4
 70
     0
 43
0.0
 10
119.1385115150668
 20
99.75508825083071
 10
119.1383505825664
 20
99.35508818523075
 10
119.137784338467
 20
97.75508829553075
 10
119.1376055244666
 20
96.55501210283055
  0
LWPOLYLINE
  5
D4
330
70
100
AcDbEntity
  8
0
 62
     8
420
  8421504
370
    25
100
AcDbPolyline
 90
        4
 70
     0
 43
0.0
 10
119.1374684337666
 20
93.35501213713055
 10
119.137474394267
 20
93.33620761673078
 10
119.1385115150668
 20
90.15493617553049
 10
119.1385115150668
 20
90.15072957773085
  0
LWPOLYLINE
  5
D5
330
70
100
AcDbEntity
  8
0
 62
     8
420
  8421504
370
    25
100
AcDbPolyline
 90
        4
 70
     0
 43
0.0
 10
18.75550398866686
 20
90.15493617553081
 10
18.75566492126669
 20
90.55493605483077
 10
18.75623116536672
 20
92.15493585143052
 10
18.75640997926675
 20
93.35501213713055
  0
LWPOLYLINE
  5
D6
330
70
100
AcDbEntity
  8
0
 62
     8
420
  8421504
370
    25
100
AcDbPolyline
 90
        4
 70
     0
 43
0.0
 10
18.75654706996679
 20
96.55501210283055
 10
18.75654110946666
 20
96.57381662323066
 10
18.75550398866686
 20
99.75508825083071
 10
18.75550398866686
 20
99.75929484863067
  0
LINE
  5
D7
330
70
100
AcDbEntity
  8
0
 62
     8
420
  8421504
370
    25
100
AcDbLine
 10
13.94700655976663
 20
93.37804436143063
 30
0.0
 11
13.94700655976663
 21
90.14530741763051
 31
0.0
  0
LWPOLYLINE
  5
D8
330
70
100
AcDbEntity
  8
0
 62
    18
420
        0
370
    25
100
AcDbPolyline
 90
        5
 70
     0
 43
0.0
 10
170.9080683170667
 20
94.32501216573069
 10
170.9080906688669
 20
94.48408317913076
 10
170.9081182359669
 20
94.95604570183067
 10
170.9080906688669
 20
95.42880059373061
 10
170.9080683170667
 20
95.58501207423075
  0
LINE
  5
D9
330
70
100
AcDbEntity
  8
0
 62
    18
420
        0
370
    25
100
AcDbLine
 10
170.9036806701669
 20
93.36447752933061
 30
0.0
 11
170.9081726251666
 21
93.60406661213064
 31
0.0
  0
LWPOLYLINE
  5
DA
330
70
100
AcDbEntity
  8
0
 62
    18
420
        0
370
    25
100
AcDbPolyline
 90
        3
 70
     0
 43
0.0
 10
170.9081726251666
 20
93.60454224443055
 10
170.9081659196664
 20
93.66590825303081
 10
170.9081458031664
 20
93.71963216613057
  0
SPLINE
  5
DB
330
70
100
AcDbEntity
  8
0
 62
    18
420
        0
370
    25
100
AcDbSpline
210
0.0
220
0.0
230
1.0
 70
     8
 71
     3
 72
     8
 73
     4
 74
     0
 42
0.0000000001
 43
0.0000000001
 40
0.0
 40
0.0
 40
0.0
 40
0.0
 40
1.0
 40
1.0
 40
1.0
 40
1.0
 10
170.6043626959004
 20
89.9550121415219
 30
0.0
 10
170.7110849497709
 20
89.95500891111076
 30
0.0
 10
170.7990081246361
 20
90.03880046717936
 30
0.0
 10
170.8041376031755
 20
90.14539937867281
 30
0.0
  0
LINE
  5
DC
330
70
100
AcDbEntity
  8
0
 62
    18
420
        0
370
    25
100
AcDbLine
 10
170.9069835125667
 20
93.35501213713055
 30
0.0
 11
181.5069833873665
 21
93.35501213713055
 31
0.0
  0
LINE
  5
DD
330
70
100
AcDbEntity
  8
0
 62
    18
420
        0
370
    25
100
AcDbLine
 10
181.5069833873665
 20
96.55501210283055
 30
0.0
 11
170.9069835125667
 21
96.55501210283055
 31
0.0
  0
LINE
  5
DE
330
70
100
AcDbEntity
  8
0
 62
    18
420
        0
370
    25
100
AcDbLine
 10
170.895267474567
 20
95.58501207423075
 30
0.0
 11
170.9069835125667
 21
95.58501207423075
 31
0.0
  0
LINE
  5
DF
330
70
100
AcDbEntity
  8
0
 62
    18
420
        0
370
    25
100
AcDbLine
 10
170.9069835125667
 20
94.32501216573069
 30
0.0
 11
170.895267474567
 21
94.32501216573069
 31
0.0
  0
LINE
  5
E0
330
70
100
AcDbEntity
  8
0
 62
    18
420
        0
370
    25
100
AcDbLine
 10
170.9069835125667
 20
96.19039205063055
 30
0.0
 11
170.8953449605666
 21
96.19039205063055
 31
0.0
  0
LINE
  5
E1
330
70
100
AcDbEntity
  8
0
 62
    18
420
        0
370
    25
100
AcDbLine
 10
170.8953322945666
 20
93.71963216613057
 30
0.0
 11
170.9069835125667
 21
93.71963216613057
 31
0.0
  0
LWPOLYLINE
  5
E2
330
70
100
AcDbEntity
  8
0
 62
    18
420
        0
370
    25
100
AcDbPolyline
 90
        5
 70
     0
 43
0.0
 10
170.8952346919668
 20
94.08749287173057
 10
170.8952898262664
 20
94.48409025713051
 10
170.8953173934665
 20
94.95604570183067
 10
170.8952898262664
 20
95.42879351573052
 10
170.8952346919668
 20
95.82253136833065
  0
LWPOLYLINE
  5
E3
330
70
100
AcDbEntity
  8
0
 62
    18
420
        0
370
    25
100
AcDbPolyline
 90
        5
 70
     0
 43
0.0
 10
170.8952279864666
 20
95.81287522953081
 10
170.8952734350668
 20
95.99007723083072
 10
170.895325589067
 20
96.13700100373067
 10
170.8953650771667
 20
96.2453995008307
 10
170.8953717826669
 20
96.30643502963055
  0
LWPOLYLINE
  5
E4
330
70
100
AcDbEntity
  8
0
 62
    18
420
        0
370
    25
100
AcDbPolyline
 90
        3
 70
     0
 43
0.0
 10
170.8953717826669
 20
96.30595763373058
 10
170.8672070978667
 20
97.80807794233057
 10
170.790887075567
 20
99.76463430713058
  0
LWPOLYLINE
  5
E5
330
70
100
AcDbEntity
  8
0
 62
    18
420
        0
370
    25
100
AcDbPolyline
 90
        3
 70
     0
 43
0.0
 10
170.8951259135668
 20
94.0295086816307
 10
170.895183282967
 20
94.04093917613076
 10
170.8952279864666
 20
94.09715580913056
  0
LWPOLYLINE
  5
E6
330
70
100
AcDbEntity
  8
0
 62
    18
420
        0
370
    25
100
AcDbPolyline
 90
        3
 70
     0
 43
0.0
 10
170.8034226774664
 20
90.15493282273068
 10
170.8034219323666
 20
90.15492052923052
 10
170.8030650495669
 20
90.14651441173077
  0
LINE
  5
E7
330
70
100
AcDbEntity
  8
0
 62
    18
420
        0
370
    25
100
AcDbLine
 10
170.8030635594667
 20
90.15072957773085
 30
0.0
 11
170.7914853571666
 21
90.15097768203069
 31
0.0
  0
SPLINE
  5
E8
330
70
100
AcDbEntity
  8
0
 62
    18
420
        0
370
    25
100
AcDbSpline
210
0.0
220
0.0
230
1.0
 70
     8
 71
     3
 72
     8
 73
     4
 74
     0
 42
0.0000000001
 43
0.0000000001
 40
0.0
 40
0.0
 40
0.0
 40
0.0
 40
1.0
 40
1.0
 40
1.0
 40
1.0
 10
170.8030635594019
 20
90.15072957772925
 30
0.0
 10
170.8033070199802
 20
90.15211732290374
 30
0.0
 10
170.8034271947075
 20
90.15352389079586
 30
0.0
 10
170.8034226773869
 20
90.15493282277303
 30
0.0
  0
SPLINE
  5
E9
330
70
100
AcDbEntity
  8
0
 62
    18
420
        0
370
    25
100
AcDbSpline
210
0.0
220
0.0
230
1.0
 70
     8
 71
     3
 72
     8
 73
     4
 74
     0
 42
0.0000000001
 43
0.0000000001
 40
0.0
 40
0.0
 40
0.0
 40
0.0
 40
1.0
 40
1.0
 40
1.0
 40
1.0
 10
170.8030650495579
 20
99.75508825081082
 30
0.0
 10
170.8030728168961
 20
99.86546558979036
 30
0.0
 10
170.7136230212638
 20
99.95496224606521
 30
0.0
 10
170.6032456933549
 20
99.95501228767146
 30
0.0
  0
LINE
  5
EA
330
70
100
AcDbEntity
  8
0
 62
    18
420
        0
370
    25
100
AcDbLine
 10
170.5920035122669
 20
99.95501228763069
 30
0.0
 11
170.6032456933664
 21
99.95501228763069
 31
0.0
  0
SPLINE
  5
EB
330
70
100
AcDbEntity
  8
0
 62
    18
420
        0
370
    25
100
AcDbSpline
210
0.0
220
0.0
230
1.0
 70
     8
 71
     3
 72
     8
 73
     4
 74
     0
 42
0.0000000001
 43
0.0000000001
 40
0.0
 40
0.0
 40
0.0
 40
0.0
 40
1.0
 40
1.0
 40
1.0
 40
1.0
 10
170.6032456933497
 20
89.95501213861883
 30
0.0
 10
170.7103974313589
 20
89.95501228835419
 30
0.0
 10
170.7985121870252
 20
90.03945944263808
 30
0.0
 10
170.8030650495528
 20
90.14651441170189
 30
0.0
  0
LINE
  5
EC
330
70
100
AcDbEntity
  8
0
 62
    18
420
        0
370
    25
100
AcDbLine
 10
170.6032456933664
 20
89.9550121386304
 30
0.0
 11
170.5918686567669
 21
89.9550121386304
 31
0.0
  0
LWPOLYLINE
  5
ED
330
70
100
AcDbEntity
  8
0
 62
    18
420
        0
370
    25
100
AcDbPolyline
 90
        3
 70
     0
 43
0.0
 10
170.9052683888668
 20
93.71963216613057
 10
170.9049949525666
 20
93.66478859373057
 10
170.8999218522667
 20
93.37622993553075
  0
LINE
  5
EE
330
70
100
AcDbEntity
  8
0
 62
    18
420
        0
370
    25
100
AcDbLine
 10
170.8034226774664
 20
99.75509160353077
 30
0.0
 11
170.8030650495669
 21
99.75508825083071
 31
0.0
  0
LINE
  5
EF
330
70
100
AcDbEntity
  8
0
 62
    18
420
        0
370
    25
100
AcDbLine
 10
170.897093611867
 20
96.53237891543074
 30
0.0
 11
170.9027716993668
 21
96.19039205063055
 31
0.0
  0
LINE
  5
F0
330
70
100
AcDbEntity
  8
0
 62
    18
420
        0
370
    25
100
AcDbLine
 10
170.8030635594371
 20
99.76350852442143
 30
0.0
 11
170.803786152029
 21
99.76430517564381
 31
0.0
  0
SPLINE
  5
F1
330
70
100
AcDbEntity
  8
0
 62
    18
420
        0
370
    25
100
AcDbSpline
210
0.0
220
0.0
230
1.0
 70
     8
 71
     3
 72
     8
 73
     4
 74
     0
 42
0.0000000001
 43
0.0000000001
 40
0.0
 40
0.0
 40
0.0
 40
0.0
 40
1.0
 40
1.0
 40
1.0
 40
1.0
 10
170.8030635594878
 20
99.76350852446506
 30
0.0
 10
170.7985100728907
 20
99.87056286000346
 30
0.0
 10
170.7103968249482
 20
99.95500985615604
 30
0.0
 10
170.6032456934011
 20
99.95501228766407
 30
0.0
  0
LINE
  5
F2
330
70
100
AcDbEntity
  8
0
 62
    18
420
        0
370
    25
100
AcDbLine
 10
170.6032456933664
 20
99.95501228763069
 30
0.0
 11
170.6043677507665
 21
99.95501228763069
 31
0.0
  0
LWPOLYLINE
  5
F3
330
70
100
AcDbEntity
  8
0
 62
    18
420
        0
370
    25
100
AcDbPolyline
 90
        4
 70
     0
 43
0.0
 10
170.8030635594667
 20
99.76350852443072
 10
170.8031946896669
 20
99.76043255223068
 10
170.8033459364665
 20
99.75687974293052
 10
170.8034226774664
 20
99.75509160353077
  0
LWPOLYLINE
  5
F4
330
70
100
AcDbEntity
  8
0
 62
    18
420
        0
370
    25
100
AcDbPolyline
 90
        3
 70
     0
 43
0.0
 10
170.8045991240669
 20
99.75509160353077
 10
170.804337608767
 20
99.76048172613053
 10
170.8041319726669
 20
99.7647170086306
  0
LINE
  5
F5
330
70
100
AcDbEntity
  8
0
 62
    18
420
        0
370
    25
100
AcDbLine
 10
170.8045991240669
 20
99.75509160353077
 30
0.0
 11
170.8034226774664
 21
99.75509160353077
 31
0.0
  0
SPLINE
  5
F6
330
70
100
AcDbEntity
  8
0
 62
    18
420
        0
370
    25
100
AcDbSpline
210
0.0
220
0.0
230
1.0
 70
     8
 71
     3
 72
    14
 73
    10
 74
     0
 42
0.0000000001
 43
0.0000000001
 40
0.0
 40
0.0
 40
0.0
 40
0.0
 40
1.0
 40
1.0
 40
1.0
 40
2.0
 40
2.0
 40
2.0
 40
3.0
 40
3.0
 40
3.0
 40
3.0
 10
181.5069833874172
 20
93.35501213716712
 30
0.0
 10
182.3906389776823
 20
93.35501213520673
 30
0.0
 10
183.1069833718702
 20
94.07135652621626
 30
0.0
 10
183.1069833738306
 20
94.95501211648138
 30
0.0
 10
183.1069833757903
 20
95.83866770674648
 30
0.0
 10
182.3906389847814
 20
96.55501210093403
 30
0.0
 10
181.5069833945163
 20
96.55501210289441
 30
0.0
 10
181.5069833909664
 20
96.55501210289441
 30
0.0
 10
181.5069833909664
 20
96.55501210289441
 30
0.0
 10
181.5069833874172
 20
96.55501210289441
 30
0.0
  0
LINE
  5
F7
330
70
100
AcDbEntity
  8
0
 62
    18
420
        0
370
    25
100
AcDbLine
 10
170.9069835125667
 20
96.55501210283055
 30
0.0
 11
170.9069835125667
 21
93.35501213713055
 31
0.0
  0
LINE
  5
F8
330
70
100
AcDbEntity
  8
0
 62
    18
420
        0
370
    25
100
AcDbLine
 10
170.9069835125667
 20
95.88770215553074
 30
0.0
 11
170.8952473579669
 21
95.88770215553074
 31
0.0
  0
LINE
  5
F9
330
70
100
AcDbEntity
  8
0
 62
    18
420
        0
370
    25
100
AcDbLine
 10
170.8951542257667
 20
94.03501214613065
 30
0.0
 11
170.9069835125667
 21
94.03501214613065
 31
0.0
  0
LWPOLYLINE
  5
FA
330
70
100
AcDbEntity
  8
0
 62
    18
420
        0
370
    25
100
AcDbPolyline
 90
        9
 70
     0
 43
0.0
 10
170.5904448508667
 20
90.15501217143052
 10
170.6294180928667
 20
90.15335478973078
 10
170.666894513267
 20
90.15176073803083
 10
170.7014346598666
 20
90.15029185613075
 10
170.7317115842664
 20
90.14900439573057
 10
170.7565622507669
 20
90.14794753093067
 10
170.7750322400668
 20
90.14716223973076
 10
170.7864115117669
 20
90.14667832453078
 10
170.7902642070665
 20
90.14651441173077
  0
LWPOLYLINE
  5
FB
330
70
100
AcDbEntity
  8
0
 62
    18
420
        0
370
    25
100
AcDbPolyline
 90
        7
 70
     0
 43
0.0
 10
170.5904448508667
 20
90.15501217143052
 10
170.5966072260667
 20
90.15487992363057
 10
170.6260586260671
 20
90.15424848693063
 10
170.6891918658664
 20
90.15289508893079
 10
170.7411857425666
 20
90.15178085463061
 10
170.7761908053668
 20
90.15103095363066
 10
170.7902627168668
 20
90.15072957773053
  0
SPLINE
  5
FC
330
70
100
AcDbEntity
  8
0
 62
    18
420
        0
370
    25
100
AcDbSpline
210
0.0
220
0.0
230
1.0
 70
     8
 71
     3
 72
     8
 73
     4
 74
     0
 42
0.0000000001
 43
0.0000000001
 40
0.0
 40
0.0
 40
0.0
 40
0.0
 40
1.0
 40
1.0
 40
1.0
 40
1.0
 10
170.7902627168893
 20
90.15072957773021
 30
0.0
 10
170.7905061774676
 20
90.15211732290472
 30
0.0
 10
170.7906263521949
 20
90.15352389079714
 30
0.0
 10
170.7906218348743
 20
90.15493282277398
 30
0.0
  0
LWPOLYLINE
  5
FD
330
70
100
AcDbEntity
  8
0
 62
    18
420
        0
370
    25
100
AcDbPolyline
 90
        3
 70
     0
 43
0.0
 10
170.7906218348666
 20
90.15493282273068
 10
170.7906210898668
 20
90.15492052923052
 10
170.7902642070665
 20
90.14651441173077
  0
LWPOLYLINE
  5
FE
330
70
100
AcDbEntity
  8
0
 62
    18
420
        0
370
    25
100
AcDbPolyline
 90
        4
 70
     0
 43
0.0
 10
170.5904448508667
 20
90.15501217143052
 10
170.591411191167
 20
93.33624484643067
 10
170.5914193867669
 20
96.51747738163059
 10
170.5904448508667
 20
99.75501225483057
  0
LWPOLYLINE
  5
FF
330
70
100
AcDbEntity
  8
0
 62
    18
420
        0
370
    25
100
AcDbPolyline
 90
        9
 70
     0
 43
0.0
 10
170.5904448508667
 20
99.75501225483057
 10
170.6284204601666
 20
99.7550267835305
 10
170.6650139867666
 20
99.7550405670308
 10
170.6988947569666
 20
99.75505360563079
 10
170.7288289545669
 20
99.75506478143078
 10
170.7537287949666
 20
99.75507446723064
 10
170.7726875423669
 20
99.75508154523071
 10
170.7850152729667
 20
99.7550863881308
 10
170.7902642070665
 20
99.75508825083071
  0
LWPOLYLINE
  5
100
330
70
100
AcDbEntity
  8
0
 62
    18
420
        0
370
    25
100
AcDbPolyline
 90
        7
 70
     0
 43
0.0
 10
170.7902642070665
 20
99.75508825083071
 10
170.7904072581669
 20
99.35508818523075
 10
170.7909131525668
 20
97.75508829553075
 10
170.7913229345667
 20
94.55508842293067
 10
170.791184353767
 20
93.33620761673078
 10
170.7902642070665
 20
90.15493617553049
 10
170.7902627168668
 20
90.15072957773085
  0
LINE
  5
101
330
70
100
AcDbEntity
  8
0
 62
    18
420
        0
370
    25
100
AcDbLine
 10
169.694182473367
 20
99.75501225483057
 30
0.0
 11
169.694182473367
 21
90.15501217143052
 31
0.0
  0
LINE
  5
102
330
70
100
AcDbEntity
  8
0
 62
    18
420
        0
370
    25
100
AcDbLine
 10
170.5904448508667
 20
99.75501225483057
 30
0.0
 11
169.694182473367
 21
99.75501225483057
 31
0.0
  0
LINE
  5
103
330
70
100
AcDbEntity
  8
0
 62
    18
420
        0
370
    25
100
AcDbLine
 10
169.694182473367
 20
90.15501217143052
 30
0.0
 11
170.5904448508667
 21
90.15501217143052
 31
0.0
  0
LINE
  5
104
330
70
100
AcDbEntity
  8
0
 62
    18
420
        0
370
    25
100
AcDbLine
 10
169.694182473367
 20
99.95501228763069
 30
0.0
 11
170.5904448508667
 21
99.95501228763069
 31
0.0
  0
LINE
  5
105
330
70
100
AcDbEntity
  8
0
 62
    18
420
        0
370
    25
100
AcDbLine
 10
170.5904448508667
 20
99.75501225483057
 30
0.0
 11
170.5904448508667
 21
99.95501228763069
 31
0.0
  0
LINE
  5
106
330
70
100
AcDbEntity
  8
0
 62
    18
420
        0
370
    25
100
AcDbLine
 10
169.694182473367
 20
99.75501225483057
 30
0.0
 11
169.694182473367
 21
99.95501228763069
 31
0.0
  0
SPLINE
  5
107
330
70
100
AcDbEntity
  8
0
 62
    18
420
        0
370
    25
100
AcDbSpline
210
0.0
220
0.0
230
1.0
 70
     8
 71
     3
 72
     8
 73
     4
 74
     0
 42
0.0000000001
 43
0.0000000001
 40
0.0
 40
0.0
 40
0.0
 40
0.0
 40
1.0
 40
1.0
 40
1.0
 40
1.0
 10
170.7902642070576
 20
99.75508825081082
 30
0.0
 10
170.7902719743958
 20
99.86546558979036
 30
0.0
 10
170.7008221787635
 20
99.95496224606521
 30
0.0
 10
170.5904448508545
 20
99.95501228767146
 30
0.0
  0
LINE
  5
108
330
70
100
AcDbEntity
  8
0
 62
    18
420
        0
370
    25
100
AcDbLine
 10
170.5904448508667
 20
89.9550121386304
 30
0.0
 11
170.5904448508667
 21
90.15501217143052
 31
0.0
  0
LINE
  5
109
330
70
100
AcDbEntity
  8
0
 62
    18
420
        0
370
    25
100
AcDbLine
 10
170.5904448508667
 20
89.9550121386304
 30
0.0
 11
169.694182473367
 21
89.9550121386304
 31
0.0
  0
LINE
  5
10A
330
70
100
AcDbEntity
  8
0
 62
    18
420
        0
370
    25
100
AcDbLine
 10
169.694182473367
 20
89.9550121386304
 30
0.0
 11
169.694182473367
 21
90.15501217143052
 31
0.0
  0
SPLINE
  5
10B
330
70
100
AcDbEntity
  8
0
 62
    18
420
        0
370
    25
100
AcDbSpline
210
0.0
220
0.0
230
1.0
 70
     8
 71
     3
 72
     8
 73
     4
 74
     0
 42
0.0000000001
 43
0.0000000001
 40
0.0
 40
0.0
 40
0.0
 40
0.0
 40
1.0
 40
1.0
 40
1.0
 40
1.0
 10
170.59044485085
 20
89.95501213861883
 30
0.0
 10
170.6975965888592
 20
89.95501228835419
 30
0.0
 10
170.7857113445249
 20
90.03945944263808
 30
0.0
 10
170.7902642070531
 20
90.14651441170189
 30
0.0
  0
LINE
  5
10C
330
70
100
AcDbEntity
  8
0
 62
    18
420
        0
370
    25
100
AcDbLine
 10
170.7906218348666
 20
99.75509160353077
 30
0.0
 11
170.7902642070665
 21
99.75508825083071
 31
0.0
  0
SPLINE
  5
10D
330
70
100
AcDbEntity
  8
0
 62
    18
420
        0
370
    25
100
AcDbSpline
210
0.0
220
0.0
230
1.0
 70
     8
 71
     3
 72
     8
 73
     4
 74
     0
 42
0.0000000001
 43
0.0000000001
 40
0.0
 40
0.0
 40
0.0
 40
0.0
 40
1.0
 40
1.0
 40
1.0
 40
1.0
 10
170.8943003891879
 20
95.82252894681932
 30
0.0
 10
170.8857794268245
 20
97.13394028708439
 30
0.0
 10
170.8512130924223
 20
98.44505305069098
 30
0.0
 10
170.7906218348948
 20
99.755091603439
 30
0.0
  0
SPLINE
  5
10E
330
70
100
AcDbEntity
  8
0
 62
    18
420
        0
370
    25
100
AcDbSpline
210
0.0
220
0.0
230
1.0
 70
     8
 71
     3
 72
     8
 73
     4
 74
     0
 42
0.0000000001
 43
0.0000000001
 40
0.0
 40
0.0
 40
0.0
 40
0.0
 40
1.0
 40
1.0
 40
1.0
 40
1.0
 10
170.79062183495
 20
90.15493282279066
 30
0.0
 10
170.8512130008076
 20
91.46497130121355
 30
0.0
 10
170.885779335163
 20
92.77608398540895
 30
0.0
 10
170.8943003892457
 20
94.08749524659487
 30
0.0
  0
LWPOLYLINE
  5
10F
330
70
100
AcDbEntity
  8
0
 62
    18
420
        0
370
    25
100
AcDbPolyline
 90
        4
 70
     0
 43
0.0
 10
170.7902627168668
 20
99.76350852443072
 10
170.7903938471665
 20
99.76043255223068
 10
170.7905450939668
 20
99.75687974293052
 10
170.7906218348666
 20
99.75509160353077
  0
LINE
  5
110
330
70
100
AcDbEntity
  8
0
 62
    18
420
        0
370
    25
100
AcDbLine
 10
170.8950871704669
 20
94.00501215053068
 30
0.0
 11
170.8950543879669
 21
94.04570554543074
 31
0.0
  0
LWPOLYLINE
  5
111
330
70
100
AcDbEntity
  8
0
 62
    18
420
        0
370
    25
100
AcDbPolyline
 90
        6
 70
     0
 43
0.0
 10
170.8953442155668
 20
93.70501213633053
 10
170.8953300594666
 20
93.7219234990305
 10
170.8952868460665
 20
93.77075092553084
 10
170.8952220260669
 20
93.84598949613076
 10
170.8951437949668
 20
93.93915670153075
 10
170.8950871704669
 20
94.00501215053068
  0
LWPOLYLINE
  5
112
330
70
100
AcDbEntity
  8
0
 62
    18
420
        0
370
    25
100
AcDbPolyline
 90
        3
 70
     0
 43
0.0
 10
170.8953442155668
 20
93.70501213633053
 10
170.8551036297667
 20
91.71107561483072
 10
170.7913311301665
 20
90.14530741763051
  0
LINE
  5
113
330
70
100
AcDbEntity
  8
0
 62
    18
420
        0
370
    25
100
AcDbLine
 10
170.7913311301581
 20
90.145307417669
 30
0.0
 11
170.7906249712541
 21
90.1461166382387
 31
0.0
  0
SPLINE
  5
114
330
70
100
AcDbEntity
  8
0
 62
    18
420
        0
370
    25
100
AcDbSpline
210
0.0
220
0.0
230
1.0
 70
     8
 71
     3
 72
     8
 73
     4
 74
     0
 42
0.0000000001
 43
0.0000000001
 40
0.0
 40
0.0
 40
0.0
 40
0.0
 40
1.0
 40
1.0
 40
1.0
 40
1.0
 10
170.790262716888
 20
99.76350852446506
 30
0.0
 10
170.7857092302908
 20
99.87056286000315
 30
0.0
 10
170.6975959823484
 20
99.95500985615604
 30
0.0
 10
170.5904448508012
 20
99.95501228766407
 30
0.0
  0
SPLINE
  5
115
330
70
100
AcDbEntity
  8
0
 62
    18
420
        0
370
    25
100
AcDbSpline
210
0.0
220
0.0
230
1.0
 70
     8
 71
     3
 72
     8
 73
     4
 74
     0
 42
0.0000000001
 43
0.0000000001
 40
0.0
 40
0.0
 40
0.0
 40
0.0
 40
1.0
 40
1.0
 40
1.0
 40
1.0
 10
170.5915670003667
 20
89.95501214143077
 30
0.0
 10
170.6982513816225
 20
89.95501214143077
 30
0.0
 10
170.7861548027665
 20
90.03874888686899
 30
0.0
 10
170.7913314164271
 20
90.14530760249085
 30
0.0
  0
LWPOLYLINE
  5
116
330
70
100
AcDbEntity
  8
0
 62
     8
420
  8421504
370
    25
100
AcDbPolyline
 90
        3
 70
     0
 43
0.0
 10
170.7919987021666
 20
90.14698491593065
 10
170.7992123543667
 20
90.14667832453078
 10
170.8030650495669
 20
90.14651441173077
  0
LINE
  5
117
330
70
100
AcDbEntity
  8
0
 62
     8
420
  8421504
370
    25
100
AcDbLine
 10
170.6032456933664
 20
99.9546710510306
 30
0.0
 11
170.6032456933664
 21
99.95501228763069
 31
0.0
  0
LINE
  5
118
330
70
100
AcDbEntity
  8
0
 62
     8
420
  8421504
370
    25
100
AcDbLine
 10
170.6032456933664
 20
89.9550121386304
 30
0.0
 11
170.6032456933664
 21
89.95535337523083
 31
0.0
  0
LINE
  5
119
330
70
100
AcDbEntity
  8
0
 62
     8
420
  8421504
370
    25
100
AcDbLine
 10
170.8040738581995
 20
90.14537521795672
 30
0.0
 11
170.8034054073156
 21
90.1461383204805
 31
0.0
  0
LWPOLYLINE
  5
11A
330
70
100
AcDbEntity
  8
0
 62
     8
420
  8421504
370
    25
100
AcDbPolyline
 90
        5
 70
     0
 43
0.0
 10
170.7912730156664
 20
99.7646492083307
 10
170.7913229345667
 20
99.76470657783067
 10
170.791184353767
 20
99.7645463903307
 10
170.7902642070665
 20
99.76351001453066
 10
170.7902627168668
 20
99.76350852443072
  0
LWPOLYLINE
  5
11B
330
70
100
AcDbEntity
  8
0
 62
    18
420
        0
370
    25
100
AcDbPolyline
 90
        3
 70
     0
 43
0.0
 10
125.2014721397666
 20
40.24474495003055
 10
126.7071689132668
 20
40.26906588033024
 10
128.7566269401665
 20
40.34807258203082
  0
LWPOLYLINE
  5
11C
330
70
100
AcDbEntity
  8
0
 62
    18
420
        0
370
    25
100
AcDbPolyline
 90
        3
 70
     0
 43
0.0
 10
119.1373849872664
 20
40.34807258203082
 10
121.186837053767
 20
40.26906662533064
 10
122.6925278667669
 20
40.24474495003055
  0
SPLINE
  5
11D
330
70
100
AcDbEntity
  8
0
 62
    18
420
        0
370
    25
100
AcDbSpline
210
0.0
220
0.0
230
1.0
 70
     8
 71
     3
 72
     8
 73
     4
 74
     0
 42
0.0000000001
 43
0.0000000001
 40
0.0
 40
0.0
 40
0.0
 40
0.0
 40
1.0
 40
1.0
 40
1.0
 40
1.0
 10
118.9470077519582
 20
40.54736576669752
 30
0.0
 10
118.9470045215471
 20
40.44064351282577
 30
0.0
 10
119.0307960776164
 20
40.35272033796123
 30
0.0
 10
119.1373949891104
 20
40.3475908594218
 30
0.0
  0
LINE
  5
11E
330
70
100
AcDbEntity
  8
0
 62
    18
420
        0
370
    25
100
AcDbLine
 10
16.94700965926679
 20
28.04474499923112
 30
0.0
 11
120.947005844567
 21
28.04474499923112
 31
0.0
  0
LINE
  5
11F
330
70
100
AcDbEntity
  8
0
 62
    18
420
        0
370
    25
100
AcDbLine
 10
120.947005844567
 20
31.24474515123048
 30
0.0
 11
16.94700965926679
 21
31.24474515123048
 31
0.0
  0
LINE
  5
120
330
70
100
AcDbEntity
  8
0
 62
    18
420
        0
370
    25
100
AcDbLine
 10
12.3470092777666
 20
40.24474495003055
 30
0.0
 11
12.3470092777666
 21
28.04474499923112
 31
0.0
  0
LINE
  5
121
330
70
100
AcDbEntity
  8
0
 62
    18
420
        0
370
    25
100
AcDbLine
 10
15.5470098022668
 20
31.24474515123048
 30
0.0
 11
15.5470098022668
 21
40.24474495003055
 31
0.0
  0
LINE
  5
122
330
70
100
AcDbEntity
  8
0
 62
    18
420
        0
370
    25
100
AcDbLine
 10
16.94700965926679
 20
31.24474515123048
 30
0.0
 11
15.5470098022668
 21
31.24474515123048
 31
0.0
  0
LINE
  5
123
330
70
100
AcDbEntity
  8
0
 62
    18
420
        0
370
    25
100
AcDbLine
 10
12.3470092777666
 20
28.04474499923112
 30
0.0
 11
16.94700965926679
 21
28.04474499923112
 31
0.0
  0
LINE
  5
124
330
70
100
AcDbEntity
  8
0
 62
    18
420
        0
370
    25
100
AcDbLine
 10
14.23700699846673
 20
40.24474495003055
 30
0.0
 11
14.23700699846673
 21
40.25641777473107
 31
0.0
  0
LINE
  5
125
330
70
100
AcDbEntity
  8
0
 62
    18
420
        0
370
    25
100
AcDbLine
 10
13.65700612106686
 20
40.25641777473107
 30
0.0
 11
13.65700612106686
 21
40.24474495003055
 31
0.0
  0
LWPOLYLINE
  5
126
330
70
100
AcDbEntity
  8
0
 62
    18
420
        0
370
    25
100
AcDbPolyline
 90
        5
 70
     0
 43
0.0
 10
12.96709427876666
 20
40.25658168743066
 10
13.41701993986688
 20
40.25644683193073
 10
13.94829998056684
 20
40.25638275693086
 10
14.48028931656668
 20
40.25644757703058
 10
14.92691884086671
 20
40.25658168743066
  0
LWPOLYLINE
  5
127
330
70
100
AcDbEntity
  8
0
 62
    18
420
        0
370
    25
100
AcDbPolyline
 90
        3
 70
     0
 43
0.0
 10
9.13738856356684
 20
40.36087342453055
 10
11.18684659046682
 20
40.28186672283061
 10
12.76023635906672
 20
40.25645279243054
  0
LWPOLYLINE
  5
128
330
70
100
AcDbEntity
  8
0
 62
    18
420
        0
370
    25
100
AcDbPolyline
 90
        5
 70
     0
 43
0.0
 10
12.76273975416672
 20
40.25645130233029
 10
12.77356395766658
 20
40.25644683193073
 10
12.8333951000668
 20
40.25645353753104
 10
12.93536076586679
 20
40.25647067383053
 10
13.07641515776664
 20
40.25649228053022
  0
LWPOLYLINE
  5
129
330
70
100
AcDbEntity
  8
0
 62
    18
420
        0
370
    25
100
AcDbPolyline
 90
        5
 70
     0
 43
0.0
 10
14.8176098827669
 20
40.25649228053022
 10
14.95896825836665
 20
40.25647141883028
 10
15.06101737066673
 20
40.2564542825308
 10
15.12036571546669
 20
40.25644757703058
 10
15.13038525626673
 20
40.25645204733069
  0
LWPOLYLINE
  5
12A
330
70
100
AcDbEntity
  8
0
 62
    18
420
        0
370
    25
100
AcDbPolyline
 90
        3
 70
     0
 43
0.0
 10
15.13380060236666
 20
40.25645279243054
 10
16.70717845006672
 20
40.28186746793046
 10
18.75663051646688
 20
40.36087342453055
  0
SPLINE
  5
12B
330
70
100
AcDbEntity
  8
0
 62
    18
420
        0
370
    25
100
AcDbSpline
210
0.0
220
0.0
230
1.0
 70
     8
 71
     3
 72
     8
 73
     4
 74
     0
 42
0.0000000001
 43
0.0000000001
 40
0.0
 40
0.0
 40
0.0
 40
0.0
 40
1.0
 40
1.0
 40
1.0
 40
1.0
 10
8.947007751958249
 20
40.56016658599662
 30
0.0
 10
8.947004521547103
 20
40.45344433212551
 30
0.0
 10
9.030796077616052
 20
40.36552115726096
 30
0.0
 10
9.1373949891098
 20
40.36039167872218
 30
0.0
  0
LINE
  5
12C
330
70
100
AcDbEntity
  8
0
 62
    18
420
        0
370
    25
100
AcDbLine
 10
122.3470057014669
 20
40.24474495003055
 30
0.0
 11
122.3470057014669
 21
31.24474515123048
 31
0.0
  0
LINE
  5
12D
330
70
100
AcDbEntity
  8
0
 62
    18
420
        0
370
    25
100
AcDbLine
 10
125.5470062259667
 20
28.04474499923112
 30
0.0
 11
125.5470062259667
 21
40.24474495003055
 31
0.0
  0
LINE
  5
12E
330
70
100
AcDbEntity
  8
0
 62
    18
420
        0
370
    25
100
AcDbLine
 10
120.947005844567
 20
28.04474499923112
 30
0.0
 11
125.5470062259667
 21
28.04474499923112
 31
0.0
  0
LINE
  5
12F
330
70
100
AcDbEntity
  8
0
 62
    18
420
        0
370
    25
100
AcDbLine
 10
122.3470057014669
 20
31.24474515123048
 30
0.0
 11
120.947005844567
 21
31.24474515123048
 31
0.0
  0
LWPOLYLINE
  5
130
330
70
100
AcDbEntity
  8
0
 62
    18
420
        0
370
    25
100
AcDbPolyline
 90
        6
 70
     0
 43
0.0
 10
123.947008943967
 20
40.34759648993046
 10
123.547008133367
 20
40.34760543063077
 10
121.9470048908668
 20
40.34781851723083
 10
120.546969271167
 20
40.34818806603053
 10
119.146933651367
 20
40.3486634130304
 10
119.1427255634668
 20
40.34866490323075
  0
LWPOLYLINE
  5
131
330
70
100
AcDbEntity
  8
0
 62
    18
420
        0
370
    25
100
AcDbPolyline
 90
        7
 70
     0
 43
0.0
 10
119.1427255634668
 20
40.34866490323075
 10
119.143029547167
 20
40.36273681473081
 10
119.1437746052669
 20
40.397741877531
 10
119.144889212067
 20
40.44973575423052
 10
119.1462422374665
 20
40.51286899403052
 10
119.1468740467668
 20
40.54232039403027
 10
119.147005176967
 20
40.54848276923027
  0
LWPOLYLINE
  5
132
330
70
100
AcDbEntity
  8
0
 62
    18
420
        0
370
    25
100
AcDbPolyline
 90
        4
 70
     0
 43
0.0
 10
119.147005176967
 20
40.54848276923027
 10
121.4248324398669
 20
40.54772281003105
 10
122.6859177116664
 20
40.54745756933065
 10
123.947008943967
 20
40.54736071183078
  0
LINE
  5
133
330
70
100
AcDbEntity
  8
0
 62
    18
420
        0
370
    25
100
AcDbLine
 10
123.947008943967
 20
40.34759648993046
 30
0.0
 11
123.947008943967
 21
40.54736071183078
 31
0.0
  0
LWPOLYLINE
  5
134
330
70
100
AcDbEntity
  8
0
 62
    18
420
        0
370
    25
100
AcDbPolyline
 90
        3
 70
     0
 43
0.0
 10
119.1469276909667
 20
40.34830578523098
 10
119.1469157699664
 20
40.34830653023073
 10
119.1385115150668
 20
40.3486634130304
  0
LWPOLYLINE
  5
135
330
70
100
AcDbEntity
  8
0
 62
    18
420
        0
370
    25
100
AcDbPolyline
 90
        9
 70
     0
 43
0.0
 10
119.1385115150668
 20
40.3486634130304
 10
119.1386724476666
 20
40.35251610833066
 10
119.1391552452666
 20
40.36389538003077
 10
119.1399420265667
 20
40.38236536933064
 10
119.1410029892669
 20
40.40721603583054
 10
119.142290449567
 20
40.43749296023036
 10
119.1437567238669
 20
40.4720331068306
 10
119.1453481678666
 20
40.50950952723087
 10
119.147005176967
 20
40.54848276923027
  0
SPLINE
  5
136
330
70
100
AcDbEntity
  8
0
 62
    18
420
        0
370
    25
100
AcDbSpline
210
0.0
220
0.0
230
1.0
 70
     8
 71
     3
 72
     8
 73
     4
 74
     0
 42
0.0000000001
 43
0.0000000001
 40
0.0
 40
0.0
 40
0.0
 40
0.0
 40
1.0
 40
1.0
 40
1.0
 40
1.0
 10
119.1427255634803
 20
40.34866490318134
 30
0.0
 10
119.1441129465925
 20
40.34842155036288
 30
0.0
 10
119.145519133855
 20
40.34830137620287
 30
0.0
 10
119.1469276909372
 20
40.34830578519632
 30
0.0
  0
LINE
  5
137
330
70
100
AcDbEntity
  8
0
 62
    18
420
        0
370
    25
100
AcDbLine
 10
128.7470067505667
 20
41.44474514673061
 30
0.0
 11
119.147005176967
 21
41.44474514673061
 31
0.0
  0
LINE
  5
138
330
70
100
AcDbEntity
  8
0
 62
    18
420
        0
370
    25
100
AcDbLine
 10
128.7470067505667
 20
40.54848276923027
 30
0.0
 11
128.7470067505667
 21
41.44474514673061
 31
0.0
  0
LWPOLYLINE
  5
139
330
70
100
AcDbEntity
  8
0
 62
    18
420
        0
370
    25
100
AcDbPolyline
 90
        4
 70
     0
 43
0.0
 10
123.947008943967
 20
40.54736071183078
 10
126.2248362068669
 20
40.54766022513079
 10
127.4859214786665
 20
40.54802977393048
 10
128.7470067505667
 20
40.54848276923027
  0
LINE
  5
13A
330
70
100
AcDbEntity
  8
0
 62
    18
420
        0
370
    25
100
AcDbLine
 10
119.147005176967
 20
41.44474514673061
 30
0.0
 11
119.147005176967
 21
40.54848276923027
 31
0.0
  0
LINE
  5
13B
330
70
100
AcDbEntity
  8
0
 62
    18
420
        0
370
    25
100
AcDbLine
 10
128.7470067505667
 20
41.44474514673061
 30
0.0
 11
128.9470101360669
 21
41.44474514673061
 31
0.0
  0
LINE
  5
13C
330
70
100
AcDbEntity
  8
0
 62
    18
420
        0
370
    25
100
AcDbLine
 10
128.9470101360669
 20
41.44474514673061
 30
0.0
 11
128.9470101360669
 21
40.54848276923027
 31
0.0
  0
LINE
  5
13D
330
70
100
AcDbEntity
  8
0
 62
    18
420
        0
370
    25
100
AcDbLine
 10
128.7470067505667
 20
40.54848276923027
 30
0.0
 11
128.9470101360669
 21
40.54848276923027
 31
0.0
  0
LWPOLYLINE
  5
13E
330
70
100
AcDbEntity
  8
0
 62
    18
420
        0
370
    25
100
AcDbPolyline
 90
        5
 70
     0
 43
0.0
 10
128.747084236567
 20
40.3486634130304
 10
128.347083425967
 20
40.34852036193065
 10
126.7470861439666
 20
40.34801297733042
 10
125.3470445636668
 20
40.34770824863044
 10
123.947008943967
 20
40.34759648993046
  0
LWPOLYLINE
  5
13F
330
70
100
AcDbEntity
  8
0
 62
    18
420
        0
370
    25
100
AcDbPolyline
 90
        9
 70
     0
 43
0.0
 10
128.747084236567
 20
40.3486634130304
 10
128.747084236567
 20
40.35391234713022
 10
128.7470782760665
 20
40.36624007773072
 10
128.7470723156668
 20
40.38519882513099
 10
128.7470603946666
 20
40.41009866553071
 10
128.7470484737664
 20
40.4400328631304
 10
128.7470365528669
 20
40.47391363333035
 10
128.7470246319667
 20
40.51050715993034
 10
128.7470067505667
 20
40.54848276923027
  0
SPLINE
  5
140
330
70
100
AcDbEntity
  8
0
 62
    18
420
        0
370
    25
100
AcDbSpline
210
0.0
220
0.0
230
1.0
 70
     8
 71
     3
 72
     8
 73
     4
 74
     0
 42
0.0000000001
 43
0.0000000001
 40
0.0
 40
0.0
 40
0.0
 40
0.0
 40
1.0
 40
1.0
 40
1.0
 40
1.0
 10
128.7470842365561
 20
40.34866341302911
 30
0.0
 10
128.8574617472023
 20
40.34865595933285
 30
0.0
 10
128.946958752368
 20
40.43810527029441
 30
0.0
 10
128.9470101360618
 20
40.54848276923219
 30
0.0
  0
LINE
  5
141
330
70
100
AcDbEntity
  8
0
 62
    18
420
        0
370
    25
100
AcDbLine
 10
118.9470077518665
 20
40.54848276923027
 30
0.0
 11
119.147005176967
 21
40.54848276923027
 31
0.0
  0
LINE
  5
142
330
70
100
AcDbEntity
  8
0
 62
    18
420
        0
370
    25
100
AcDbLine
 10
118.9470077518665
 20
40.54848276923027
 30
0.0
 11
118.9470077518665
 21
41.44474514673061
 31
0.0
  0
LINE
  5
143
330
70
100
AcDbEntity
  8
0
 62
    18
420
        0
370
    25
100
AcDbLine
 10
118.9470077518665
 20
41.44474514673061
 30
0.0
 11
119.147005176967
 21
41.44474514673061
 31
0.0
  0
SPLINE
  5
144
330
70
100
AcDbEntity
  8
0
 62
    18
420
        0
370
    25
100
AcDbSpline
210
0.0
220
0.0
230
1.0
 70
     8
 71
     3
 72
     8
 73
     4
 74
     0
 42
0.0000000001
 43
0.0000000001
 40
0.0
 40
0.0
 40
0.0
 40
0.0
 40
1.0
 40
1.0
 40
1.0
 40
1.0
 10
118.9470077518896
 20
40.5484827692508
 30
0.0
 10
118.947005719999
 20
40.44132958809447
 30
0.0
 10
119.031454976112
 20
40.35321332496481
 30
0.0
 10
119.138511515088
 20
40.34866341304772
 30
0.0
  0
SPLINE
  5
145
330
70
100
AcDbEntity
  8
0
 62
    18
420
        0
370
    25
100
AcDbSpline
210
0.0
220
0.0
230
1.0
 70
     8
 71
     3
 72
     8
 73
     4
 74
     0
 42
0.0000000001
 43
0.0000000001
 40
0.0
 40
0.0
 40
0.0
 40
0.0
 40
1.0
 40
1.0
 40
1.0
 40
1.0
 10
125.0783647065927
 20
40.24621420452517
 30
0.0
 10
126.3017387845799
 20
40.26070835049976
 30
0.0
 10
127.5248032969368
 20
40.29474321890382
 30
0.0
 10
128.7470901971592
 20
40.34830578515718
 30
0.0
  0
LWPOLYLINE
  5
146
330
70
100
AcDbEntity
  8
0
 62
    18
420
        0
370
    25
100
AcDbPolyline
 90
        4
 70
     0
 43
0.0
 10
128.7555063728666
 20
40.34866490323075
 10
128.7524307731664
 20
40.34853377293107
 10
128.7488783363668
 20
40.34838252613075
 10
128.7470901970668
 20
40.34830578523098
  0
SPLINE
  5
147
330
70
100
AcDbEntity
  8
0
 62
    18
420
        0
370
    25
100
AcDbSpline
210
0.0
220
0.0
230
1.0
 70
     8
 71
     3
 72
     8
 73
     4
 74
     0
 42
0.0000000001
 43
0.0000000001
 40
0.0
 40
0.0
 40
0.0
 40
0.0
 40
1.0
 40
1.0
 40
1.0
 40
1.0
 10
119.146927690839
 20
40.34830578520274
 30
0.0
 10
120.3692285966217
 20
40.29526787776369
 30
0.0
 10
121.5922921352272
 20
40.26157163883056
 30
0.0
 10
122.8156591419875
 20
40.24722971870484
 30
0.0
  0
LINE
  5
148
330
70
100
AcDbEntity
  8
0
 62
    18
420
        0
370
    25
100
AcDbLine
 10
123.947008943967
 20
40.3471293385304
 30
0.0
 11
123.947008943967
 21
40.34759648993046
 31
0.0
  0
LWPOLYLINE
  5
149
330
70
100
AcDbEntity
  8
0
 62
    18
420
        0
370
    25
100
AcDbPolyline
 90
        4
 70
     0
 43
0.0
 10
123.947008943967
 20
40.3471293385304
 10
122.6970101360665
 20
40.34722917633087
 10
121.4470053676669
 20
40.34750410273069
 10
119.1469276909667
 20
40.34830578523098
  0
LWPOLYLINE
  5
14A
330
70
100
AcDbEntity
  8
0
 62
    18
420
        0
370
    25
100
AcDbPolyline
 90
        3
 70
     0
 43
0.0
 10
128.7470901970668
 20
40.34830578523098
 10
128.7470901970668
 20
40.34830653023073
 10
128.747084236567
 20
40.3486634130304
  0
LWPOLYLINE
  5
14B
330
70
100
AcDbEntity
  8
0
 62
    18
420
        0
370
    25
100
AcDbPolyline
 90
        4
 70
     0
 43
0.0
 10
128.7470901970668
 20
40.34830578523098
 10
127.4970854286665
 20
40.34783565353031
 10
126.2470866207666
 20
40.34745045853075
 10
123.947008943967
 20
40.3471293385304
  0
SPLINE
  5
14C
330
70
100
AcDbEntity
  8
0
 62
    18
420
        0
370
    25
100
AcDbSpline
210
0.0
220
0.0
230
1.0
 70
     8
 71
     3
 72
     8
 73
     4
 74
     0
 42
0.0000000001
 43
0.0000000001
 40
0.0
 40
0.0
 40
0.0
 40
0.0
 40
1.0
 40
1.0
 40
1.0
 40
1.0
 10
128.7555063729096
 20
40.34866490314989
 30
0.0
 10
128.8625593008584
 20
40.35322150333179
 30
0.0
 10
128.9470045340407
 20
40.44133291176501
 30
0.0
 10
128.9470101361086
 20
40.54848276923669
 30
0.0
  0
SPLINE
  5
14D
330
70
100
AcDbEntity
  8
0
 62
    18
420
        0
370
    25
100
AcDbSpline
210
0.0
220
0.0
230
1.0
 70
     8
 71
     3
 72
     8
 73
     4
 74
     0
 42
0.0000000001
 43
0.0000000001
 40
0.0
 40
0.0
 40
0.0
 40
0.0
 40
1.0
 40
1.0
 40
1.0
 40
1.0
 10
124.1853440766165
 20
40.24474495005366
 30
0.0
 10
124.0259463172619
 20
40.2468448669841
 30
0.0
 10
123.8665278104715
 20
40.2468448669841
 30
0.0
 10
123.7071300511169
 20
40.24474495005366
 30
0.0
  0
LINE
  5
14E
330
70
100
AcDbEntity
  8
0
 62
    18
420
        0
370
    25
100
AcDbLine
 10
16.94700965926679
 20
31.24474515123048
 30
0.0
 11
16.94700965926679
 21
28.04474499923112
 31
0.0
  0
LINE
  5
14F
330
70
100
AcDbEntity
  8
0
 62
    18
420
        0
370
    25
100
AcDbLine
 10
120.947005844567
 20
31.24474515123048
 30
0.0
 11
120.947005844567
 21
28.04474499923112
 31
0.0
  0
LWPOLYLINE
  5
150
330
70
100
AcDbEntity
  8
0
 62
    18
420
        0
370
    25
100
AcDbPolyline
 90
       19
 70
     0
 43
0.0
 10
15.5470098022668
 20
31.24474515123048
 10
15.52270302816685
 20
31.22043744573068
 10
15.45051584286677
 20
31.14825324073025
 10
15.33264765786678
 20
31.03038570763102
 10
15.17268071216687
 20
30.8704161542305
 10
14.97546682396683
 20
30.67320524633073
 10
14.74700818106677
 20
30.44474511323032
 10
14.49424276396665
 20
30.19197732123029
 10
14.22484765096666
 20
29.92258216173055
 10
13.94700655976663
 20
29.6447450752308
 10
13.66917142906674
 20
29.36690798873105
 10
13.39977631606675
 20
29.09751282923067
 10
13.1470049385666
 20
28.84474503723064
 10
12.91854629556676
 20
28.61628490413087
 10
12.72133836786685
 20
28.41907399623046
 10
12.56136546176659
 20
28.25910444293068
 10
12.4434972767666
 20
28.14123690973072
 10
12.37131605186688
 20
28.06905270473092
 10
12.3470092777666
 20
28.04474499923112
  0
LINE
  5
151
330
70
100
AcDbEntity
  8
0
 62
    18
420
        0
370
    25
100
AcDbLine
 10
15.5470098022668
 20
40.24474495003055
 30
0.0
 11
13.08405647316676
 21
40.24474495003055
 31
0.0
  0
LINE
  5
152
330
70
100
AcDbEntity
  8
0
 62
    18
420
        0
370
    25
100
AcDbLine
 10
16.94700965926679
 20
29.6447450752308
 30
0.0
 11
16.94700965926679
 21
31.24474515123048
 31
0.0
  0
LINE
  5
153
330
70
100
AcDbEntity
  8
0
 62
    18
420
        0
370
    25
100
AcDbLine
 10
16.94700965926679
 20
28.04474499923112
 30
0.0
 11
16.94700965926679
 21
29.6447450752308
 31
0.0
  0
LINE
  5
154
330
70
100
AcDbEntity
  8
0
 62
    18
420
        0
370
    25
100
AcDbLine
 10
13.65700612106686
 20
40.25641777473107
 30
0.0
 11
13.65700612106686
 21
40.24474495003055
 31
0.0
  0
LINE
  5
155
330
70
100
AcDbEntity
  8
0
 62
    18
420
        0
370
    25
100
AcDbLine
 10
14.23700699846673
 20
40.25641777473107
 30
0.0
 11
14.23700699846673
 21
40.24474495003055
 31
0.0
  0
LWPOLYLINE
  5
156
330
70
100
AcDbEntity
  8
0
 62
    18
420
        0
370
    25
100
AcDbPolyline
 90
        9
 70
     0
 43
0.0
 10
9.147008753266719
 20
40.56128361183074
 10
9.145351744166633
 20
40.52231036973059
 10
9.143754339666845
 20
40.48483394933096
 10
9.142288065366635
 20
40.45029380273073
 10
9.141000605066885
 20
40.42001687843036
 10
9.139945602866788
 20
40.395166211831
 10
9.139158821566631
 20
40.37669622253049
 10
9.138676023866592
 20
40.36531695083038
 10
9.138509130866728
 20
40.36146425563087
  0
LWPOLYLINE
  5
157
330
70
100
AcDbEntity
  8
0
 62
    18
420
        0
370
    25
100
AcDbPolyline
 90
        7
 70
     0
 43
0.0
 10
9.147008753266719
 20
40.56128361183074
 10
9.146877623066819
 20
40.55512123653064
 10
9.146245813766896
 20
40.52566983653089
 10
9.144892788366712
 20
40.46253659683098
 10
9.143778181466856
 20
40.4105427201302
 10
9.143027162966664
 20
40.37553765723053
 10
9.142723179266761
 20
40.36146574573048
  0
SPLINE
  5
158
330
70
100
AcDbEntity
  8
0
 62
    18
420
        0
370
    25
100
AcDbSpline
210
0.0
220
0.0
230
1.0
 70
     8
 71
     3
 72
     8
 73
     4
 74
     0
 42
0.0000000001
 43
0.0000000001
 40
0.0
 40
0.0
 40
0.0
 40
0.0
 40
1.0
 40
1.0
 40
1.0
 40
1.0
 10
9.142723179279915
 20
40.36146574567336
 30
0.0
 10
9.144110562391782
 20
40.3612223928549
 30
0.0
 10
9.145516749654655
 20
40.36110221869552
 30
0.0
 10
9.146925306736788
 20
40.36110662768835
 30
0.0
  0
LWPOLYLINE
  5
159
330
70
100
AcDbEntity
  8
0
 62
    18
420
        0
370
    25
100
AcDbPolyline
 90
        3
 70
     0
 43
0.0
 10
9.146925306766627
 20
40.3611066277307
 10
9.146913385766676
 20
40.36110737273109
 10
9.138509130866728
 20
40.36146425563087
  0
LWPOLYLINE
  5
15A
330
70
100
AcDbEntity
  8
0
 62
    18
420
        0
370
    25
100
AcDbPolyline
 90
        4
 70
     0
 43
0.0
 10
9.147008753266719
 20
40.56128361183074
 10
12.32823977516672
 20
40.56031727153102
 10
15.5094707969666
 20
40.56030907583045
 10
18.74701032676668
 20
40.56128361183074
  0
LWPOLYLINE
  5
15B
330
70
100
AcDbEntity
  8
0
 62
    18
420
        0
370
    25
100
AcDbPolyline
 90
        9
 70
     0
 43
0.0
 10
18.74701032676668
 20
40.56128361183074
 10
18.74702224776664
 20
40.52330800253081
 10
18.7470341686668
 20
40.48671447593082
 10
18.74704608956665
 20
40.45283370573087
 10
18.7470580105666
 20
40.42289950803108
 10
18.74706993146676
 20
40.3979996676307
 10
18.7470758919669
 20
40.37904092023108
 10
18.74708185236661
 20
40.36671318963059
 10
18.74708185236661
 20
40.36146425563087
  0
LWPOLYLINE
  5
15C
330
70
100
AcDbEntity
  8
0
 62
    18
420
        0
370
    25
100
AcDbPolyline
 90
        7
 70
     0
 43
0.0
 10
18.74708185236661
 20
40.36146425563087
 10
18.3470810417666
 20
40.36132120443101
 10
16.74708375976688
 20
40.3608153100305
 10
13.54708323516689
 20
40.36040552813074
 10
12.32820401236675
 20
40.36054410893103
 10
9.146931267166658
 20
40.36146425563087
 10
9.142723179266761
 20
40.36146574573048
  0
LINE
  5
15D
330
70
100
AcDbEntity
  8
0
 62
    18
420
        0
370
    25
100
AcDbLine
 10
18.74701032676668
 20
41.45754598933108
 30
0.0
 11
9.147008753266719
 21
41.45754598933108
 31
0.0
  0
LINE
  5
15E
330
70
100
AcDbEntity
  8
0
 62
    18
420
        0
370
    25
100
AcDbLine
 10
18.74701032676668
 20
40.56128361183074
 30
0.0
 11
18.74701032676668
 21
41.45754598933108
 31
0.0
  0
LINE
  5
15F
330
70
100
AcDbEntity
  8
0
 62
    18
420
        0
370
    25
100
AcDbLine
 10
9.147008753266719
 20
41.45754598933108
 30
0.0
 11
9.147008753266719
 21
40.56128361183074
 31
0.0
  0
LINE
  5
160
330
70
100
AcDbEntity
  8
0
 62
    18
420
        0
370
    25
100
AcDbLine
 10
18.94700775186684
 20
41.45754598933108
 30
0.0
 11
18.94700775186684
 21
40.56128361183074
 31
0.0
  0
LINE
  5
161
330
70
100
AcDbEntity
  8
0
 62
    18
420
        0
370
    25
100
AcDbLine
 10
18.74701032676668
 20
40.56128361183074
 30
0.0
 11
18.94700775186684
 21
40.56128361183074
 31
0.0
  0
LINE
  5
162
330
70
100
AcDbEntity
  8
0
 62
    18
420
        0
370
    25
100
AcDbLine
 10
18.74701032676668
 20
41.45754598933108
 30
0.0
 11
18.94700775186684
 21
41.45754598933108
 31
0.0
  0
SPLINE
  5
163
330
70
100
AcDbEntity
  8
0
 62
    18
420
        0
370
    25
100
AcDbSpline
210
0.0
220
0.0
230
1.0
 70
     8
 71
     3
 72
     8
 73
     4
 74
     0
 42
0.0000000001
 43
0.0000000001
 40
0.0
 40
0.0
 40
0.0
 40
0.0
 40
1.0
 40
1.0
 40
1.0
 40
1.0
 10
18.74708185236437
 20
40.36146425563023
 30
0.0
 10
18.85746013856581
 20
40.36145492867073
 30
0.0
 10
18.94695824102527
 20
40.45090533634215
 30
0.0
 10
18.94700775187004
 20
40.56128361183331
 30
0.0
  0
LINE
  5
164
330
70
100
AcDbEntity
  8
0
 62
    18
420
        0
370
    25
100
AcDbLine
 10
8.947005367666752
 20
40.56128361183074
 30
0.0
 11
9.147008753266719
 21
40.56128361183074
 31
0.0
  0
LINE
  5
165
330
70
100
AcDbEntity
  8
0
 62
    18
420
        0
370
    25
100
AcDbLine
 10
8.947005367666752
 20
40.56128361183074
 30
0.0
 11
8.947005367666752
 21
41.45754598933108
 31
0.0
  0
LINE
  5
166
330
70
100
AcDbEntity
  8
0
 62
    18
420
        0
370
    25
100
AcDbLine
 10
8.947005367666752
 20
41.45754598933108
 30
0.0
 11
9.147008753266719
 21
41.45754598933108
 31
0.0
  0
SPLINE
  5
167
330
70
100
AcDbEntity
  8
0
 62
    18
420
        0
370
    25
100
AcDbSpline
210
0.0
220
0.0
230
1.0
 70
     8
 71
     3
 72
     8
 73
     4
 74
     0
 42
0.0000000001
 43
0.0000000001
 40
0.0
 40
0.0
 40
0.0
 40
0.0
 40
1.0
 40
1.0
 40
1.0
 40
1.0
 10
8.94700536768151
 20
40.56128361174539
 30
0.0
 10
8.947008127978163
 20
40.45413235620275
 30
0.0
 10
9.031454719355323
 20
40.36601887351909
 30
0.0
 10
9.138509130880525
 20
40.36146425554231
 30
0.0
  0
SPLINE
  5
168
330
70
100
AcDbEntity
  8
0
 62
    18
420
        0
370
    25
100
AcDbSpline
210
0.0
220
0.0
230
1.0
 70
     8
 71
     3
 72
     8
 73
     4
 74
     0
 42
0.0000000001
 43
0.0000000001
 40
0.0
 40
0.0
 40
0.0
 40
0.0
 40
1.0
 40
1.0
 40
1.0
 40
1.0
 10
9.14692530673005
 20
40.36110662773776
 30
0.0
 10
10.45594255153764
 20
40.3005619616905
 30
0.0
 10
11.76603240838823
 20
40.26600060649103
 30
0.0
 10
13.07642111817116
 20
40.25744297460311
 30
0.0
  0
LWPOLYLINE
  5
169
330
70
100
AcDbEntity
  8
0
 62
    18
420
        0
370
    25
100
AcDbPolyline
 90
        3
 70
     0
 43
0.0
 10
18.74708781286675
 20
40.3611066277307
 10
18.74708781286675
 20
40.36110737273109
 10
18.74708185236661
 20
40.36146425563087
  0
SPLINE
  5
16A
330
70
100
AcDbEntity
  8
0
 62
    18
420
        0
370
    25
100
AcDbSpline
210
0.0
220
0.0
230
1.0
 70
     8
 71
     3
 72
     8
 73
     4
 74
     0
 42
0.0000000001
 43
0.0000000001
 40
0.0
 40
0.0
 40
0.0
 40
0.0
 40
1.0
 40
1.0
 40
1.0
 40
1.0
 10
14.81760988277236
 20
40.25744297460696
 30
0.0
 10
16.12799263034245
 20
40.26600086868412
 30
0.0
 10
17.43807652273234
 20
40.3005622238098
 30
0.0
 10
18.74708781291744
 20
40.36110662774546
 30
0.0
  0
LINE
  5
16B
330
70
100
AcDbEntity
  8
0
 62
    18
420
        0
370
    25
100
AcDbLine
 10
13.23700795216686
 20
40.25664278223067
 30
0.0
 11
13.23700795216686
 21
40.2568655546309
 31
0.0
  0
LINE
  5
16C
330
70
100
AcDbEntity
  8
0
 62
    18
420
        0
370
    25
100
AcDbLine
 10
13.23701391266668
 20
40.25664278223067
 30
0.0
 11
13.23700795216686
 21
40.25664278223067
 31
0.0
  0
LINE
  5
16D
330
70
100
AcDbEntity
  8
0
 62
    18
420
        0
370
    25
100
AcDbLine
 10
13.23701391266668
 20
40.25664278223067
 30
0.0
 11
13.07642111816667
 21
40.2574429746307
 31
0.0
  0
LWPOLYLINE
  5
16E
330
70
100
AcDbEntity
  8
0
 62
    18
420
        0
370
    25
100
AcDbPolyline
 90
        4
 70
     0
 43
0.0
 10
18.75550398866686
 20
40.36146574573048
 10
18.7524283890668
 20
40.36133461553025
 10
18.74887595216673
 20
40.36118336873058
 10
18.74708781286675
 20
40.3611066277307
  0
LINE
  5
16F
330
70
100
AcDbEntity
  8
0
 62
    18
420
        0
370
    25
100
AcDbLine
 10
14.65700516746683
 20
40.25664278223067
 30
0.0
 11
14.8176098827669
 21
40.2574429746307
 31
0.0
  0
LINE
  5
170
330
70
100
AcDbEntity
  8
0
 62
    18
420
        0
370
    25
100
AcDbLine
 10
14.65700516746683
 20
40.25664278223067
 30
0.0
 11
14.65700516746683
 21
40.2568886514302
 31
0.0
  0
SPLINE
  5
171
330
70
100
AcDbEntity
  8
0
 62
    18
420
        0
370
    25
100
AcDbSpline
210
0.0
220
0.0
230
1.0
 70
     8
 71
     3
 72
     8
 73
     4
 74
     0
 42
0.0000000001
 43
0.0000000001
 40
0.0
 40
0.0
 40
0.0
 40
0.0
 40
1.0
 40
1.0
 40
1.0
 40
1.0
 10
18.75550398872461
 20
40.36146574570994
 30
0.0
 10
18.86255870925068
 20
40.36601838069422
 30
0.0
 10
18.94700618761184
 20
40.4541321317807
 30
0.0
 10
18.94700775192331
 20
40.56128361179736
 30
0.0
  0
LINE
  5
172
330
70
100
AcDbEntity
  8
0
 62
    18
420
        0
370
    25
100
AcDbLine
 10
14.61712966006682
 20
40.25664054703056
 30
0.0
 11
14.44700608296662
 21
40.25672920893062
 31
0.0
  0
SPLINE
  5
173
330
70
100
AcDbEntity
  8
0
 62
    18
420
        0
370
    25
100
AcDbSpline
210
0.0
220
0.0
230
1.0
 70
     8
 71
     3
 72
     8
 73
     4
 74
     0
 42
0.0000000001
 43
0.0000000001
 40
0.0
 40
0.0
 40
0.0
 40
0.0
 40
1.0
 40
1.0
 40
1.0
 40
1.0
 10
14.61712966005623
 20
40.25664054706521
 30
0.0
 10
14.63042149336698
 20
40.2566282430643
 30
0.0
 10
14.64371333555659
 20
40.25662898812309
 30
0.0
 10
14.65700516740459
 20
40.25664278223965
 30
0.0
  0
SPLINE
  5
174
330
70
100
AcDbEntity
  8
0
 62
    18
420
        0
370
    25
100
AcDbSpline
210
0.0
220
0.0
230
1.0
 70
     8
 71
     3
 72
     8
 73
     4
 74
     0
 42
0.0000000001
 43
0.0000000001
 40
0.0
 40
0.0
 40
0.0
 40
0.0
 40
1.0
 40
1.0
 40
1.0
 40
1.0
 10
14.44700608302726
 20
40.25672920900762
 30
0.0
 10
14.38034028918968
 20
40.25684401715643
 30
0.0
 10
14.31367432505094
 20
40.25681471147101
 30
0.0
 10
14.24700865791491
 20
40.25664129215673
 30
0.0
  0
SPLINE
  5
175
330
70
100
AcDbEntity
  8
0
 62
    18
420
        0
370
    25
100
AcDbSpline
210
0.0
220
0.0
230
1.0
 70
     8
 71
     3
 72
     8
 73
     4
 74
     0
 42
0.0000000001
 43
0.0000000001
 40
0.0
 40
0.0
 40
0.0
 40
0.0
 40
1.0
 40
1.0
 40
1.0
 40
1.0
 10
13.64701042220608
 20
40.2566412921516
 30
0.0
 10
13.58034271741314
 20
40.25677795406962
 30
0.0
 10
13.51367483577244
 20
40.25680725972423
 30
0.0
 10
13.44700703659681
 20
40.25672920900313
 30
0.0
  0
SPLINE
  5
176
330
70
100
AcDbEntity
  8
0
 62
    18
420
        0
370
    25
100
AcDbSpline
210
0.0
220
0.0
230
1.0
 70
     8
 71
     3
 72
     8
 73
     4
 74
     0
 42
0.0000000001
 43
0.0000000001
 40
0.0
 40
0.0
 40
0.0
 40
0.0
 40
1.0
 40
1.0
 40
1.0
 40
1.0
 10
13.23701391265256
 20
40.2566427822204
 30
0.0
 10
13.25030574173804
 20
40.25662459301215
 30
0.0
 10
13.26359758897301
 20
40.25662384795336
 30
0.0
 10
13.27688942001407
 20
40.25664054704597
 30
0.0
  0
LINE
  5
177
330
70
100
AcDbEntity
  8
0
 62
    18
420
        0
370
    25
100
AcDbLine
 10
13.44700703666675
 20
40.25672920893062
 30
0.0
 11
13.27688941996659
 21
40.25664054703056
 31
0.0
  0
LWPOLYLINE
  5
178
330
70
100
AcDbEntity
  8
0
 62
    18
420
        0
370
    25
100
AcDbPolyline
 90
       19
 70
     0
 43
0.0
 10
125.5470062259667
 20
28.04474499923112
 10
125.5226994518668
 20
28.06905270473092
 10
125.4505182270668
 20
28.14123690973072
 10
125.3326500419667
 20
28.25910444293068
 10
125.1726771358665
 20
28.41907399623046
 10
124.9754692081666
 20
28.61628490413087
 10
124.7470105652665
 20
28.84474503723064
 10
124.4942391876666
 20
29.09751282923067
 10
124.2248440746669
 20
29.36690798873105
 10
123.947008943967
 20
29.6447450752308
 10
123.6691678528668
 20
29.92258216173055
 10
123.3997727398665
 20
30.19197732123029
 10
123.147007322767
 20
30.44474511323032
 10
122.9185486797668
 20
30.67320524633073
 10
122.7213347915665
 20
30.8704161542305
 10
122.5613678459667
 20
31.03038570763102
 10
122.4434996608666
 20
31.14825324073025
 10
122.3713124756669
 20
31.22043744573068
 10
122.3470057014669
 20
31.24474515123048
  0
LINE
  5
179
330
70
100
AcDbEntity
  8
0
 62
    18
420
        0
370
    25
100
AcDbLine
 10
123.947008943967
 20
40.24474495003055
 30
0.0
 11
122.8134358886664
 21
40.24474495003055
 31
0.0
  0
LINE
  5
17A
330
70
100
AcDbEntity
  8
0
 62
    18
420
        0
370
    25
100
AcDbLine
 10
122.597154474667
 20
40.24474495003055
 30
0.0
 11
122.3470057014669
 21
40.24474495003055
 31
0.0
  0
LINE
  5
17B
330
70
100
AcDbEntity
  8
0
 62
    18
420
        0
370
    25
100
AcDbLine
 10
125.0805760387665
 20
40.24474495003055
 30
0.0
 11
123.947008943967
 21
40.24474495003055
 31
0.0
  0
LWPOLYLINE
  5
17C
330
70
100
AcDbEntity
  8
0
 62
     8
420
  8421504
370
    25
100
AcDbPolyline
 90
        5
 70
     0
 43
0.0
 10
128.7566448215665
 20
40.3476546044305
 10
128.7567044262669
 20
40.3476046855309
 10
128.756543493667
 20
40.34774326633056
 10
128.7555063728666
 20
40.3486634130304
 10
128.7555063728666
 20
40.34866490323075
  0
LINE
  5
17D
330
70
100
AcDbEntity
  8
0
 62
     8
420
  8421504
370
    25
100
AcDbLine
 10
119.1373730663586
 20
40.34765460442473
 30
0.0
 11
119.1381330557446
 21
40.34832599015452
 31
0.0
  0
LINE
  5
17E
330
70
100
AcDbEntity
  8
0
 62
     8
420
  8421504
370
    25
100
AcDbLine
 10
9.137370682171672
 20
40.36045544701621
 30
0.0
 11
9.138134316332845
 21
40.36112275437001
 31
0.0
  0
LWPOLYLINE
  5
17F
330
70
100
AcDbEntity
  8
0
 62
     8
420
  8421504
370
    25
100
AcDbPolyline
 90
        5
 70
     0
 43
0.0
 10
18.75664243736673
 20
40.36045544693023
 10
18.75670204206681
 20
40.36040552813074
 10
18.75654110946666
 20
40.36054410893103
 10
18.75550398866686
 20
40.36146425563087
 10
18.75550398866686
 20
40.36146574573048
  0
SPLINE
  5
180
330
70
100
AcDbEntity
  8
0
 62
    18
420
        0
370
    25
100
AcDbSpline
210
0.0
220
0.0
230
1.0
 70
     8
 71
     3
 72
     8
 73
     4
 74
     0
 42
0.0000000001
 43
0.0000000001
 40
0.0
 40
0.0
 40
0.0
 40
0.0
 40
1.0
 40
1.0
 40
1.0
 40
1.0
 10
190.22342978754
 20
-55.87127883469992
 30
0.0
 10
190.2842828898126
 20
-55.90354251063093
 30
0.0
 10
190.3574556581008
 20
-55.90222359899059
 30
0.0
 10
190.4171065289303
 20
-55.8677878842458
 30
0.0
  0
SPLINE
  5
181
330
70
100
AcDbEntity
  8
0
 62
    18
420
        0
370
    25
100
AcDbSpline
210
0.0
220
0.0
230
1.0
 70
     8
 71
     3
 72
     8
 73
     4
 74
     0
 42
0.0000000001
 43
0.0000000001
 40
0.0
 40
0.0
 40
0.0
 40
0.0
 40
1.0
 40
1.0
 40
1.0
 40
1.0
 10
183.4288976830027
 20
-43.76381760849315
 30
0.0
 10
183.3670332889508
 20
-43.79953116299543
 30
0.0
 10
183.3289131171862
 20
-43.86552853455056
 30
0.0
 10
183.3288895671356
 20
-43.93696144483723
 30
0.0
  0
LWPOLYLINE
  5
182
330
70
100
AcDbEntity
  8
0
 62
    18
420
        0
370
    25
100
AcDbPolyline
 90
        3
 70
     0
 43
0.0
 10
184.9279502430669
 20
-52.81499108446904
 10
185.0169470015664
 20
-52.86640249096907
 10
190.2196140409669
 20
-55.86880357686914
  0
LINE
  5
183
330
70
100
AcDbEntity
  8
0
 62
    18
420
        0
370
    25
100
AcDbLine
 10
190.2219869085668
 20
-55.86969111236925
 30
0.0
 11
190.2240984656669
 21
-55.87082432236907
 31
0.0
  0
LWPOLYLINE
  5
184
330
70
100
AcDbEntity
  8
0
 62
    18
420
        0
370
    25
100
AcDbPolyline
 90
        3
 70
     0
 43
0.0
 10
183.3289040789669
 20
-43.93695629126947
 10
183.3283603845664
 20
-45.77176916386947
 10
183.3289968019665
 20
-50.04310722626915
  0
LINE
  5
185
330
70
100
AcDbEntity
  8
0
 62
    18
420
        0
370
    25
100
AcDbLine
 10
190.4171073242668
 20
-55.86778837066907
 30
0.0
 11
191.0508605291665
 21
-55.50193043306944
 31
0.0
  0
LINE
  5
186
330
70
100
AcDbEntity
  8
0
 62
    18
420
        0
370
    25
100
AcDbLine
 10
184.062651735567
 20
-43.39796036936945
 30
0.0
 11
183.4288985306666
 21
-43.76381830706917
 31
0.0
  0
LINE
  5
187
330
70
100
AcDbEntity
  8
0
 62
    18
420
        0
370
    25
100
AcDbLine
 10
102.7525359808665
 20
-11.97459770056934
 30
0.0
 11
176.2916385268668
 21
-54.42781795816927
 31
0.0
  0
LINE
  5
188
330
70
100
AcDbEntity
  8
0
 62
    18
420
        0
370
    25
100
AcDbLine
 10
177.8915085302665
 20
-51.65646160426911
 30
0.0
 11
104.3524059842669
 21
-9.203241346669184
 31
0.0
  0
LINE
  5
189
330
70
100
AcDbEntity
  8
0
 62
    18
420
        0
370
    25
100
AcDbLine
 10
104.3524059842669
 20
-9.203241346669184
 30
0.0
 11
103.0310179896664
 21
-8.440420294469245
 31
0.0
  0
LINE
  5
18A
330
70
100
AcDbEntity
  8
0
 62
    18
420
        0
370
    25
100
AcDbLine
 10
99.83127890506686
 20
-10.28819188676952
 30
0.0
 11
102.7525359808665
 21
-11.97459770056934
 31
0.0
  0
LINE
  5
18B
330
70
100
AcDbEntity
  8
0
 62
    18
420
        0
370
    25
100
AcDbLine
 10
108.1265456987668
 20
-3.65166523826907
 30
0.0
 11
99.83127890506686
 21
-8.440420826769507
 31
0.0
  0
LINE
  5
18C
330
70
100
AcDbEntity
  8
0
 62
    18
420
        0
370
    25
100
AcDbLine
 10
104.6314081773669
 20
-9.364305764669641
 30
0.0
 11
109.7264147800668
 21
-6.42302105986961
 31
0.0
  0
SPLINE
  5
18D
330
70
100
AcDbEntity
  8
0
 62
    18
420
        0
370
    25
100
AcDbSpline
210
0.0
220
0.0
230
1.0
 70
     8
 71
     3
 72
     8
 73
     4
 74
     0
 42
0.0000000001
 43
0.0000000001
 40
0.0
 40
0.0
 40
0.0
 40
0.0
 40
1.0
 40
1.0
 40
1.0
 40
1.0
 10
112.4507354031406
 20
-10.96360733809981
 30
0.0
 10
112.5115885054125
 20
-10.99587101403082
 30
0.0
 10
112.5847612737008
 20
-10.99455210239048
 30
0.0
 10
112.6444121445302
 20
-10.96011638764568
 30
0.0
  0
SPLINE
  5
18E
330
70
100
AcDbEntity
  8
0
 62
    18
420
        0
370
    25
100
AcDbSpline
210
0.0
220
0.0
230
1.0
 70
     8
 71
     3
 72
     8
 73
     4
 74
     0
 42
0.0000000001
 43
0.0000000001
 40
0.0
 40
0.0
 40
0.0
 40
0.0
 40
1.0
 40
1.0
 40
1.0
 40
1.0
 10
105.6562032986033
 20
1.143853888106965
 30
0.0
 10
105.5943389045507
 20
1.108140333604677
 30
0.0
 10
105.5562187327862
 20
1.042142962049546
 30
0.0
 10
105.5561951827356
 20
0.9707100517628795
 30
0.0
  0
LINE
  5
18F
330
70
100
AcDbEntity
  8
0
 62
    18
420
        0
370
    25
100
AcDbLine
 10
112.4492950694667
 20
-10.96202106616939
 30
0.0
 11
112.451407153367
 21
-10.96315397196921
 31
0.0
  0
LINE
  5
190
330
70
100
AcDbEntity
  8
0
 62
    18
420
        0
370
    25
100
AcDbLine
 10
109.0496243745666
 20
-9.001136952969028
 30
0.0
 11
112.4466793306665
 21
-10.96128742476945
 31
0.0
  0
LWPOLYLINE
  5
191
330
70
100
AcDbEntity
  8
0
 62
    18
420
        0
370
    25
100
AcDbPolyline
 90
        3
 70
     0
 43
0.0
 10
105.5562122397666
 20
0.9707137550304954
 10
105.5556643307664
 20
-0.8640966845695261
 10
105.5563007481665
 20
-5.135434746969207
  0
LINE
  5
192
330
70
100
AcDbEntity
  8
0
 62
    18
420
        0
370
    25
100
AcDbLine
 10
112.6444112704668
 20
-10.96011589136912
 30
0.0
 11
113.2781644752665
 21
-10.59425795366939
 31
0.0
  0
LINE
  5
193
330
70
100
AcDbEntity
  8
0
 62
    18
420
        0
370
    25
100
AcDbLine
 10
106.2899556816669
 20
1.50971210993049
 30
0.0
 11
105.6562024768666
 21
1.143854172230766
 31
0.0
  0
LINE
  5
194
330
70
100
AcDbEntity
  8
0
 62
    18
420
        0
370
    25
100
AcDbLine
 10
107.1553753614666
 20
-7.907253520069484
 30
0.0
 11
109.0496486089667
 21
-9.001116270669529
 31
0.0
  0
LINE
  5
195
330
70
100
AcDbEntity
  8
0
 62
    18
420
        0
370
    25
100
AcDbLine
 10
176.2916385268668
 20
-54.42781795816927
 30
0.0
 11
179.2128956027666
 21
-56.11422377186962
 31
0.0
  0
LINE
  5
196
330
70
100
AcDbEntity
  8
0
 62
    18
420
        0
370
    25
100
AcDbLine
 10
179.2128965247668
 20
-52.41928265636958
 30
0.0
 11
177.8915085302665
 21
-51.65646160426911
 31
0.0
  0
LINE
  5
197
330
70
100
AcDbEntity
  8
0
 62
    18
420
        0
370
    25
100
AcDbLine
 10
185.9082933151666
 20
-48.55411236176929
 30
0.0
 11
179.2128965247668
 21
-52.41928265636958
 31
0.0
  0
LINE
  5
198
330
70
100
AcDbEntity
  8
0
 62
    18
420
        0
370
    25
100
AcDbLine
 10
179.2128956027666
 20
-56.11422377186962
 30
0.0
 11
187.5081623964666
 21
-51.32546818336919
 31
0.0
  0
SPLINE
  5
199
330
70
100
AcDbEntity
  8
0
 62
    18
420
        0
370
    25
100
AcDbSpline
210
0.0
220
0.0
230
1.0
 70
     8
 71
     3
 72
     8
 73
     4
 74
     0
 42
0.0000000001
 43
0.0000000001
 40
0.0
 40
0.0
 40
0.0
 40
0.0
 40
1.0
 40
1.0
 40
1.0
 40
1.0
 10
190.4585376763746
 20
-47.93742802188791
 30
0.0
 10
190.4539950054363
 20
-47.83764966362823
 30
0.0
 10
190.4012537048178
 20
-47.7463000725285
 30
0.0
 10
190.3171139261965
 20
-47.6924776395674
 30
0.0
  0
SPLINE
  5
19A
330
70
100
AcDbEntity
  8
0
 62
    18
420
        0
370
    25
100
AcDbSpline
210
0.0
220
0.0
230
1.0
 70
     8
 71
     3
 72
     8
 73
     4
 74
     0
 42
0.0000000001
 43
0.0000000001
 40
0.0
 40
0.0
 40
0.0
 40
0.0
 40
1.0
 40
1.0
 40
1.0
 40
1.0
 10
190.1758750952975
 20
-47.93044576286859
 30
0.0
 10
190.2638803805883
 20
-47.97661482859103
 30
0.0
 10
190.3683602009651
 20
-47.9791956624767
 30
0.0
 10
190.458537676356
 20
-47.9374280218815
 30
0.0
  0
SPLINE
  5
19B
330
70
100
AcDbEntity
  8
0
 62
    18
420
        0
370
    25
100
AcDbSpline
210
0.0
220
0.0
230
1.0
 70
     8
 71
     3
 72
     8
 73
     4
 74
     0
 42
0.0000000001
 43
0.0000000001
 40
0.0
 40
0.0
 40
0.0
 40
0.0
 40
1.0
 40
1.0
 40
1.0
 40
1.0
 10
190.3171139261939
 20
-47.6924776395366
 30
0.0
 10
190.2351953459084
 20
-47.7451407483835
 30
0.0
 10
190.1828646657336
 20
-47.83331079110454
 30
0.0
 10
190.1758750953135
 20
-47.93044576284421
 30
0.0
  0
LWPOLYLINE
  5
19C
330
70
100
AcDbEntity
  8
0
 62
    18
420
        0
370
    25
100
AcDbPolyline
 90
        4
 70
     0
 43
0.0
 10
190.4585376763669
 20
-47.93742802186931
 10
190.4578543705667
 20
-50.53542896816936
 10
190.4578485753666
 20
-53.13303845376963
 10
190.4585376763669
 20
-55.77621988406957
  0
SPLINE
  5
19D
330
70
100
AcDbEntity
  8
0
 62
    18
420
        0
370
    25
100
AcDbSpline
210
0.0
220
0.0
230
1.0
 70
     8
 71
     3
 72
     8
 73
     4
 74
     0
 42
0.0000000001
 43
0.0000000001
 40
0.0
 40
0.0
 40
0.0
 40
0.0
 40
1.0
 40
1.0
 40
1.0
 40
1.0
 10
190.1818304450285
 20
-55.77967639669301
 30
0.0
 10
190.2694609992101
 20
-55.82217681874727
 30
0.0
 10
190.3719960954612
 20
-55.82089599263154
 30
0.0
 10
190.4585376763926
 20
-55.77621988412925
 30
0.0
  0
LWPOLYLINE
  5
19E
330
70
100
AcDbEntity
  8
0
 62
    18
420
        0
370
    25
100
AcDbPolyline
 90
        7
 70
     0
 43
0.0
 10
190.1818304449669
 20
-55.77967639666926
 10
190.1818388743665
 20
-55.45318182476965
 10
190.1818857627667
 20
-54.14715677616943
 10
190.1819289632666
 20
-51.53458561846923
 10
190.1819131581667
 20
-50.5391975089695
 10
190.1818304449669
 20
-47.94076042686906
 10
190.1818314986669
 20
-47.93732495976923
  0
SPLINE
  5
19F
330
70
100
AcDbEntity
  8
0
 62
    18
420
        0
370
    25
100
AcDbSpline
210
0.0
220
0.0
230
1.0
 70
     8
 71
     3
 72
     8
 73
     4
 74
     0
 42
0.0000000001
 43
0.0000000001
 40
0.0
 40
0.0
 40
0.0
 40
0.0
 40
1.0
 40
1.0
 40
1.0
 40
1.0
 10
190.1818314986104
 20
-47.9373249598225
 30
0.0
 10
190.2687677784865
 20
-47.98150478546638
 30
0.0
 10
190.3715685100984
 20
-47.98154307464765
 30
0.0
 10
190.4585376763027
 20
-47.93742802186161
 30
0.0
  0
SPLINE
  5
1A0
330
70
100
AcDbEntity
  8
0
 62
    18
420
        0
370
    25
100
AcDbSpline
210
0.0
220
0.0
230
1.0
 70
     8
 71
     3
 72
     8
 73
     4
 74
     0
 42
0.0000000001
 43
0.0000000001
 40
0.0
 40
0.0
 40
0.0
 40
0.0
 40
1.0
 40
1.0
 40
1.0
 40
1.0
 10
190.181831498708
 20
-47.93732495980645
 30
0.0
 10
190.1798907859064
 20
-47.93624161280911
 30
0.0
 10
190.1775151004655
 20
-47.93629643766148
 30
0.0
 10
190.1756264289364
 20
-47.93746815723091
 30
0.0
  0
LWPOLYLINE
  5
1A1
330
70
100
AcDbEntity
  8
0
 62
    18
420
        0
370
    25
100
AcDbPolyline
 90
        3
 70
     0
 43
0.0
 10
190.175626428867
 20
-47.93746815726941
 10
190.1756269557667
 20
-47.93745811916941
 10
190.1758750952667
 20
-47.93044576286924
  0
LWPOLYLINE
  5
1A2
330
70
100
AcDbEntity
  8
0
 62
    18
420
        0
370
    25
100
AcDbPolyline
 90
        4
 70
     0
 43
0.0
 10
187.4953249932667
 20
-49.48526037156904
 10
188.3381692404667
 20
-48.99853854186939
 10
189.2837880508668
 20
-48.45247580316904
 10
190.1756264288664
 20
-47.93746815726941
  0
LWPOLYLINE
  5
1A3
330
70
100
AcDbEntity
  8
0
 62
    18
420
        0
370
    25
100
AcDbPolyline
 90
        3
 70
     0
 43
0.0
 10
190.175626428867
 20
-55.77638960236924
 10
190.1756353850669
 20
-55.77639416436942
 10
190.1818304449669
 20
-55.77967639666926
  0
SPLINE
  5
1A4
330
70
100
AcDbEntity
  8
0
 62
    18
420
        0
370
    25
100
AcDbSpline
210
0.0
220
0.0
230
1.0
 70
     8
 71
     3
 72
     8
 73
     4
 74
     0
 42
0.0000000001
 43
0.0000000001
 40
0.0
 40
0.0
 40
0.0
 40
0.0
 40
1.0
 40
1.0
 40
1.0
 40
1.0
 10
187.516175566113
 20
-51.33716315498631
 30
0.0
 10
188.3871823544494
 20
-52.82612234080653
 30
0.0
 10
189.2737143119326
 20
-54.30594517456503
 30
0.0
 10
190.1756264290037
 20
-55.77638960243213
 30
0.0
  0
LWPOLYLINE
  5
1A5
330
70
100
AcDbEntity
  8
0
 62
    18
420
        0
370
    25
100
AcDbPolyline
 90
        5
 70
     0
 43
0.0
 10
190.1758750952667
 20
-47.93044576286924
 10
189.8929306571668
 20
-47.76709262076965
 10
188.761202954167
 20
-47.11370895386912
 10
187.7710085830665
 20
-46.54204658496921
 10
186.7809548770664
 20
-45.9704855221696
  0
SPLINE
  5
1A6
330
70
100
AcDbEntity
  8
0
 62
    18
420
        0
370
    25
100
AcDbSpline
210
0.0
220
0.0
230
1.0
 70
     8
 71
     3
 72
     8
 73
     4
 74
     0
 42
0.0000000001
 43
0.0000000001
 40
0.0
 40
0.0
 40
0.0
 40
0.0
 40
1.0
 40
1.0
 40
1.0
 40
1.0
 10
186.9222095131059
 20
-45.73355709492965
 30
0.0
 10
186.8405785392907
 20
-45.78601523145699
 30
0.0
 10
186.7882841469656
 20
-45.8737293658925
 30
0.0
 10
186.7809548771569
 20
-45.97048552217152
 30
0.0
  0
LWPOLYLINE
  5
1A7
330
70
100
AcDbEntity
  8
0
 62
    18
420
        0
370
    25
100
AcDbPolyline
 90
        4
 70
     0
 43
0.0
 10
186.9222095130667
 20
-45.73355709486933
 10
188.5330884049668
 20
-46.66325315976927
 10
189.4250716627666
 20
-47.17788243126917
 10
190.317113926167
 20
-47.69247763946923
  0
SPLINE
  5
1A8
330
70
100
AcDbEntity
  8
0
 62
    18
420
        0
370
    25
100
AcDbSpline
210
0.0
220
0.0
230
1.0
 70
     8
 71
     3
 72
     8
 73
     4
 74
     0
 42
0.0000000001
 43
0.0000000001
 40
0.0
 40
0.0
 40
0.0
 40
0.0
 40
1.0
 40
1.0
 40
1.0
 40
1.0
 10
191.0922908811749
 20
-47.57157008418754
 30
0.0
 10
191.087748210236
 20
-47.47179172592851
 30
0.0
 10
191.0350069096174
 20
-47.38044213482878
 30
0.0
 10
190.9508671309968
 20
-47.32661970186768
 30
0.0
  0
LINE
  5
1A9
330
70
100
AcDbEntity
  8
0
 62
    18
420
        0
370
    25
100
AcDbLine
 10
191.0922908811665
 20
-47.57157008416958
 30
0.0
 11
190.4585376763669
 21
-47.93742802186931
 31
0.0
  0
LINE
  5
1AA
330
70
100
AcDbEntity
  8
0
 62
    18
420
        0
370
    25
100
AcDbLine
 10
190.317113926167
 20
-47.69247763946923
 30
0.0
 11
190.9508671310667
 21
-47.32661970186961
 31
0.0
  0
SPLINE
  5
1AB
330
70
100
AcDbEntity
  8
0
 62
    18
420
        0
370
    25
100
AcDbSpline
210
0.0
220
0.0
230
1.0
 70
     8
 71
     3
 72
     8
 73
     4
 74
     0
 42
0.0000000001
 43
0.0000000001
 40
0.0
 40
0.0
 40
0.0
 40
0.0
 40
1.0
 40
1.0
 40
1.0
 40
1.0
 10
183.3872864203765
 20
-44.01864288486479
 30
0.0
 10
184.2173091896489
 20
-45.54319785027776
 30
0.0
 10
185.0612719778229
 20
-47.06012195101175
 30
0.0
 10
185.9190686837826
 20
-48.56922448275657
 30
0.0
  0
LWPOLYLINE
  5
1AC
330
70
100
AcDbEntity
  8
0
 62
    18
420
        0
370
    25
100
AcDbPolyline
 90
        3
 70
     0
 43
0.0
 10
186.780624551167
 20
-45.97853575136907
 10
186.7808094704666
 20
-45.97402774466959
 10
186.7809548770664
 20
-45.9704855221696
  0
LWPOLYLINE
  5
1AD
330
70
100
AcDbEntity
  8
0
 62
    18
420
        0
370
    25
100
AcDbPolyline
 90
        4
 70
     0
 43
0.0
 10
190.175626428867
 20
-47.93746815726941
 10
189.2914071473668
 20
-47.4274030504691
 10
188.4072521398669
 20
-46.91730570536935
 10
186.780624551167
 20
-45.97853575136907
  0
LINE
  5
1AE
330
70
100
AcDbEntity
  8
0
 62
    18
420
        0
370
    25
100
AcDbLine
 10
191.0922908811665
 20
-55.41036194646931
 30
0.0
 11
191.0922908811665
 21
-47.57157008416958
 31
0.0
  0
LINE
  5
1AF
330
70
100
AcDbEntity
  8
0
 62
    18
420
        0
370
    25
100
AcDbLine
 10
190.4585376763669
 20
-55.77621988406957
 30
0.0
 11
191.0922908811665
 21
-55.41036194646931
 31
0.0
  0
LINE
  5
1B0
330
70
100
AcDbEntity
  8
0
 62
    18
420
        0
370
    25
100
AcDbLine
 10
190.9508671310667
 20
-47.32661970186961
 30
0.0
 11
184.1626409189664
 21
-43.40786012276951
 31
0.0
  0
LWPOLYLINE
  5
1B1
330
70
100
AcDbEntity
  8
0
 62
    18
420
        0
370
    25
100
AcDbPolyline
 90
        4
 70
     0
 43
0.0
 10
183.5288877140667
 20
-43.77371806046924
 10
185.1390174457667
 20
-44.70384660626939
 10
186.0305518396669
 20
-45.21873500136964
 10
186.9222095130667
 20
-45.73355709486933
  0
LINE
  5
1B2
330
70
100
AcDbEntity
  8
0
 62
    18
420
        0
370
    25
100
AcDbLine
 10
184.1626409189664
 20
-43.40786012276951
 30
0.0
 11
183.5288877140667
 21
-43.77371806046924
 31
0.0
  0
LWPOLYLINE
  5
1B3
330
70
100
AcDbEntity
  8
0
 62
    18
420
        0
370
    25
100
AcDbPolyline
 90
        6
 70
     0
 43
0.0
 10
186.7809548770664
 20
-45.9704855221696
 10
186.4981179134668
 20
-45.80720904486941
 10
185.3668954457669
 20
-45.15419501116933
 10
184.3771820755669
 20
-44.58288645396936
 10
183.3875435160667
 20
-44.01162535656918
 10
183.3845690022665
 20
-44.00990820646905
  0
SPLINE
  5
1B4
330
70
100
AcDbEntity
  8
0
 62
    18
420
        0
370
    25
100
AcDbSpline
210
0.0
220
0.0
230
1.0
 70
     8
 71
     3
 72
     8
 73
     4
 74
     0
 42
0.0000000001
 43
0.0000000001
 40
0.0
 40
0.0
 40
0.0
 40
0.0
 40
1.0
 40
1.0
 40
1.0
 40
1.0
 10
183.5288877141206
 20
-43.77371806039608
 30
0.0
 10
183.4446392356047
 20
-43.82369368770931
 30
0.0
 10
183.3905973616714
 20
-43.9121379229453
 30
0.0
 10
183.3845690022851
 20
-44.00990820647098
 30
0.0
  0
SPLINE
  5
1B5
330
70
100
AcDbEntity
  8
0
 62
    18
420
        0
370
    25
100
AcDbSpline
210
0.0
220
0.0
230
1.0
 70
     8
 71
     3
 72
     8
 73
     4
 74
     0
 42
0.0000000001
 43
0.0000000001
 40
0.0
 40
0.0
 40
0.0
 40
0.0
 40
1.0
 40
1.0
 40
1.0
 40
1.0
 10
183.3845690023082
 20
-44.00990820646647
 30
0.0
 10
183.3847408089532
 20
-44.0129992779046
 30
0.0
 10
183.3856743223005
 20
-44.01599989783708
 30
0.0
 10
183.3872864203662
 20
-44.01864288478073
 30
0.0
  0
LWPOLYLINE
  5
1B6
330
70
100
AcDbEntity
  8
0
 62
    18
420
        0
370
    25
100
AcDbPolyline
 90
        4
 70
     0
 43
0.0
 10
186.780624551167
 20
-45.97853575136907
 10
185.8968125135666
 20
-45.46824041386936
 10
185.013120067767
 20
-44.95787117146967
 10
183.3872864203668
 20
-44.01864288486929
  0
LWPOLYLINE
  5
1B7
330
70
100
AcDbEntity
  8
0
 62
    18
420
        0
370
    25
100
AcDbPolyline
 90
        3
 70
     0
 43
0.0
 10
183.3872864203668
 20
-44.01864288486929
 10
183.3872785177668
 20
-44.01863771446911
 10
183.3815881663665
 20
-44.01506412026948
  0
SPLINE
  5
1B8
330
70
100
AcDbEntity
  8
0
 62
    18
420
        0
370
    25
100
AcDbSpline
210
0.0
220
0.0
230
1.0
 70
     8
 71
     3
 72
     8
 73
     4
 74
     0
 42
0.0000000001
 43
0.0000000001
 40
0.0
 40
0.0
 40
0.0
 40
0.0
 40
1.0
 40
1.0
 40
1.0
 40
1.0
 10
190.1788517164348
 20
-55.7848310938218
 30
0.0
 10
190.1784464054768
 20
-55.78180506511575
 30
0.0
 10
190.1773421632347
 20
-55.77891495028632
 30
0.0
 10
190.1756264288529
 20
-55.77638960234293
 30
0.0
  0
SPLINE
  5
1B9
330
70
100
AcDbEntity
  8
0
 62
    18
420
        0
370
    25
100
AcDbSpline
210
0.0
220
0.0
230
1.0
 70
     8
 71
     3
 72
     8
 73
     4
 74
     0
 42
0.0000000001
 43
0.0000000001
 40
0.0
 40
0.0
 40
0.0
 40
0.0
 40
1.0
 40
1.0
 40
1.0
 40
1.0
 10
183.5288877140891
 20
-43.77371806038581
 30
0.0
 10
183.4421366415906
 20
-43.8240838843929
 30
0.0
 10
183.3867192989603
 20
-43.91488360168568
 30
0.0
 10
183.3815881663928
 20
-44.0150641201822
 30
0.0
  0
SPLINE
  5
1BA
330
70
100
AcDbEntity
  8
0
 62
    18
420
        0
370
    25
100
AcDbSpline
210
0.0
220
0.0
230
1.0
 70
     8
 71
     3
 72
     8
 73
     4
 74
     0
 42
0.0000000001
 43
0.0000000001
 40
0.0
 40
0.0
 40
0.0
 40
0.0
 40
1.0
 40
1.0
 40
1.0
 40
1.0
 10
190.1818304449675
 20
-55.77967639663782
 30
0.0
 10
190.1774004427701
 20
-55.81559806156177
 30
0.0
 10
190.1934652157926
 20
-55.85097424150876
 30
0.0
 10
190.2234278039411
 20
-55.87127779395135
 30
0.0
  0
LWPOLYLINE
  5
1BB
330
70
100
AcDbEntity
  8
0
 62
    18
420
        0
370
    25
100
AcDbPolyline
 90
        4
 70
     0
 43
0.0
 10
190.2202883905666
 20
-55.86746096686938
 10
190.2128083786668
 20
-55.86475633226927
 10
190.1885871116665
 20
-55.83257056196929
 10
190.1788517164669
 20
-55.78483109386929
  0
SPLINE
  5
1BC
330
70
100
AcDbEntity
  8
0
 62
    18
420
        0
370
    25
100
AcDbSpline
210
0.0
220
0.0
230
1.0
 70
     8
 71
     3
 72
     8
 73
     4
 74
     0
 42
0.0000000001
 43
0.0000000001
 40
0.0
 40
0.0
 40
0.0
 40
0.0
 40
1.0
 40
1.0
 40
1.0
 40
1.0
 10
191.0508605290857
 20
-55.50193043301105
 30
0.0
 10
191.0810454188044
 20
-55.48184211388026
 30
0.0
 10
191.0971282581973
 20
-55.44629616292059
 30
0.0
 10
191.0922908811723
 20
-55.41036194640835
 30
0.0
  0
SPLINE
  5
1BD
330
70
100
AcDbEntity
  8
0
 62
    18
420
        0
370
    25
100
AcDbSpline
210
0.0
220
0.0
230
1.0
 70
     8
 71
     3
 72
     8
 73
     4
 74
     0
 42
0.0000000001
 43
0.0000000001
 40
0.0
 40
0.0
 40
0.0
 40
0.0
 40
1.0
 40
1.0
 40
1.0
 40
1.0
 10
184.1626409189472
 20
-43.40786012277592
 30
0.0
 10
184.1334637689374
 20
-43.38695916332135
 30
0.0
 10
184.0953609706225
 20
-43.38318667220973
 30
0.0
 10
184.0626517355394
 20
-43.39796036941502
 30
0.0
  0
LWPOLYLINE
  5
1BE
330
70
100
AcDbEntity
  8
0
 62
    18
420
        0
370
    25
100
AcDbPolyline
 90
       17
 70
     0
 43
0.0
 10
104.3524059842669
 20
-9.203241346669184
 10
104.284904974567
 20
-9.170356057469053
 10
104.082414622667
 20
-9.128711771069065
 10
103.8551447555666
 20
-9.155345031169169
 10
103.6137221660664
 20
-9.249010745269123
 10
103.3694355500664
 20
-9.405328988669609
 10
103.1337074690668
 20
-9.616990669769643
 10
102.9175603198667
 20
-9.874098671169354
 10
102.731100818167
 20
-10.16463092776925
 10
102.5830477638665
 20
-10.47500232196933
 10
102.4803237767666
 20
-10.7907005253695
 10
102.4277322806668
 20
-11.09696357876952
 10
102.4277322806668
 20
-11.37947105616946
 10
102.4803237767666
 20
-11.62501326066943
 10
102.5830477638665
 20
-11.82210883516919
 10
102.731100818167
 20
-11.96154188736962
 10
102.7525359808665
 20
-11.97459770056934
  0
LWPOLYLINE
  5
1BF
330
70
100
AcDbEntity
  8
0
 62
    18
420
        0
370
    25
100
AcDbPolyline
 90
       17
 70
     0
 43
0.0
 10
177.8915085302665
 20
-51.65646160426911
 10
177.8240075205666
 20
-51.62357631506962
 10
177.6215171686666
 20
-51.58193202866963
 10
177.3942473015668
 20
-51.60856528876909
 10
177.1528247120666
 20
-51.70223100286905
 10
176.9085380960667
 20
-51.85854924626953
 10
176.6728100150664
 20
-52.07021092736956
 10
176.456662865867
 20
-52.32731892876928
 10
176.2702033641666
 20
-52.61785118536917
 10
176.1221503098667
 20
-52.92822257956926
 10
176.0194263227668
 20
-53.24392078296943
 10
175.9668348266671
 20
-53.55018383636945
 10
175.9668348266671
 20
-53.83269131376938
 10
176.0194263227668
 20
-54.07823351826935
 10
176.1221503098667
 20
-54.27532909276912
 10
176.2702033641666
 20
-54.41476214496955
 10
176.2916385268668
 20
-54.42781795816927
  0
SPLINE
  5
1C0
330
70
100
AcDbEntity
  8
0
 62
    18
420
        0
370
    25
100
AcDbSpline
210
0.0
220
0.0
230
1.0
 70
     8
 71
     3
 72
     8
 73
     4
 74
     0
 42
0.0000000001
 43
0.0000000001
 40
0.0
 40
0.0
 40
0.0
 40
0.0
 40
1.0
 40
1.0
 40
1.0
 40
1.0
 10
104.3524059842098
 20
-9.203241346607581
 30
0.0
 10
104.0912059089099
 20
-9.082155217372863
 30
0.0
 10
103.7848502209711
 20
-9.112491832155313
 30
0.0
 10
103.5524709825465
 20
-9.282454238524373
 30
0.0
  0
LWPOLYLINE
  5
1C1
330
70
100
AcDbEntity
  8
0
 62
    18
420
        0
370
    25
100
AcDbPolyline
 90
       12
 70
     0
 43
0.0
 10
102.7525359808665
 20
-11.97459770056934
 10
102.6160477583665
 20
-11.86267654316903
 10
102.501453769967
 20
-11.67923149466904
 10
102.4360042582669
 20
-11.44480456816904
 10
102.422759347667
 20
-11.17035751506924
 10
102.462338596967
 20
-10.86872297676921
 10
102.5528912327669
 20
-10.55400531286939
 10
102.6901830770665
 20
-10.24092007156957
 10
102.8677945065668
 20
-9.944106854069531
 10
103.0774206820667
 20
-9.677444431469394
 10
103.3092596956664
 20
-9.453401574269104
 10
103.5524709825664
 20
-9.282454238569291
  0
LWPOLYLINE
  5
1C2
330
70
100
AcDbEntity
  8
0
 62
    18
420
        0
370
    25
100
AcDbPolyline
 90
       20
 70
     0
 43
0.0
 10
103.0310179896664
 20
-8.440420294469245
 10
102.8856108354666
 20
-8.363495670669225
 10
102.562520470567
 20
-8.232874609969286
 10
102.2050545102669
 20
-8.136631852169413
 10
101.8240722549667
 20
-8.077690521769484
 10
101.4311484473666
 20
-8.057840805569412
 10
101.0382288544664
 20
-8.077689685469437
 10
100.6572465991668
 20
-8.136631053869498
 10
100.2997764241669
 20
-8.232873317469348
 10
99.97668605926664
 20
-8.363495594669599
 10
99.69778982586703
 20
-8.524527566069341
 10
99.47155634326678
 20
-8.711073220069533
 10
99.3048660183671
 20
-8.917468209969428
 10
99.20278424386665
 20
-9.137441530869271
 10
99.16840861576647
 20
-9.364307231169483
 10
99.20278424386665
 20
-9.591172171169272
 10
99.3048660183671
 20
-9.811143058869564
 10
99.47155634326678
 20
-10.01753854306959
 10
99.69778982586703
 20
-10.20408697226925
 10
99.83127890506686
 20
-10.28819188676952
  0
LWPOLYLINE
  5
1C3
330
70
100
AcDbEntity
  8
0
 62
    18
420
        0
370
    25
100
AcDbPolyline
 90
       17
 70
     0
 43
0.0
 10
109.7264147800668
 20
-6.42302105986961
 10
109.788771042467
 20
-6.380920736069127
 10
109.9260601868666
 20
-6.226347725569614
 10
110.0166126908667
 20
-6.016179719369147
 10
110.056192796267
 20
-5.760242903769098
 10
110.0429460417667
 20
-5.470502614069454
 10
109.9774962007666
 20
-5.160509099669304
 10
109.8629031343667
 20
-4.844757104569529
 10
109.7045237069667
 20
-4.538010208969526
 10
109.5097631200668
 20
-4.254610960669082
 10
109.2877293073669
 20
-4.007811852369622
 10
109.0488030378668
 20
-3.809151782169595
 10
108.8041574409667
 20
-3.667920885269599
 10
108.5652311714666
 20
-3.590722556469438
 10
108.3431973588668
 20
-3.581166881369199
 10
108.1484367718669
 20
-3.639700342369294
 10
108.1265456987668
 20
-3.65166523826907
  0
SPLINE
  5
1C4
330
70
100
AcDbEntity
  8
0
 62
    18
420
        0
370
    25
100
AcDbSpline
210
0.0
220
0.0
230
1.0
 70
     8
 71
     3
 72
     8
 73
     4
 74
     0
 42
0.0000000001
 43
0.0000000001
 40
0.0
 40
0.0
 40
0.0
 40
0.0
 40
1.0
 40
1.0
 40
1.0
 40
1.0
 10
112.4031790414154
 20
-3.022773283517953
 30
0.0
 10
112.4911840482402
 20
-3.068943422220221
 30
0.0
 10
112.595664372234
 20
-3.07152426854651
 30
0.0
 10
112.6858416224745
 20
-3.029755542530855
 30
0.0
  0
SPLINE
  5
1C5
330
70
100
AcDbEntity
  8
0
 62
    18
420
        0
370
    25
100
AcDbSpline
210
0.0
220
0.0
230
1.0
 70
     8
 71
     3
 72
     8
 73
     4
 74
     0
 42
0.0000000001
 43
0.0000000001
 40
0.0
 40
0.0
 40
0.0
 40
0.0
 40
1.0
 40
1.0
 40
1.0
 40
1.0
 10
112.5444220870123
 20
-2.784807593259742
 30
0.0
 10
112.4624996260659
 20
-2.83746643849138
 30
0.0
 10
112.4101664266372
 20
-2.925637193191623
 30
0.0
 10
112.4031790414468
 20
-3.022773283482017
 30
0.0
  0
SPLINE
  5
1C6
330
70
100
AcDbEntity
  8
0
 62
    18
420
        0
370
    25
100
AcDbSpline
210
0.0
220
0.0
230
1.0
 70
     8
 71
     3
 72
     8
 73
     4
 74
     0
 42
0.0000000001
 43
0.0000000001
 40
0.0
 40
0.0
 40
0.0
 40
0.0
 40
1.0
 40
1.0
 40
1.0
 40
1.0
 10
112.6858416224951
 20
-3.029755542524438
 30
0.0
 10
112.6813009640398
 20
-2.929978314176127
 30
0.0
 10
112.6285609672003
 20
-2.838629166242739
 30
0.0
 10
112.544422087002
 20
-2.784807593289902
 30
0.0
  0
LWPOLYLINE
  5
1C7
330
70
100
AcDbEntity
  8
0
 62
    18
420
        0
370
    25
100
AcDbPolyline
 90
        7
 70
     0
 43
0.0
 10
112.4091343911669
 20
-10.87200391736931
 10
112.4091470351669
 20
-10.54551177846904
 10
112.4091897088666
 20
-9.239484296869486
 10
112.4092329093665
 20
-6.626913139169283
 10
112.4092171043667
 20
-5.631525029669553
 10
112.4091343911669
 20
-3.033087947569108
 10
112.4091354448669
 20
-3.029652480469287
  0
SPLINE
  5
1C8
330
70
100
AcDbEntity
  8
0
 62
    18
420
        0
370
    25
100
AcDbSpline
210
0.0
220
0.0
230
1.0
 70
     8
 71
     3
 72
     8
 73
     4
 74
     0
 42
0.0000000001
 43
0.0000000001
 40
0.0
 40
0.0
 40
0.0
 40
0.0
 40
1.0
 40
1.0
 40
1.0
 40
1.0
 10
112.4091354447828
 20
-3.029652480512922
 30
0.0
 10
112.4960711135382
 20
-3.073834855467949
 30
0.0
 10
112.5988730654935
 20
-3.073873145103545
 30
0.0
 10
112.6858416224765
 20
-3.02975554255139
 30
0.0
  0
LWPOLYLINE
  5
1C9
330
70
100
AcDbEntity
  8
0
 62
    18
420
        0
370
    25
100
AcDbPolyline
 90
        4
 70
     0
 43
0.0
 10
112.6858416224668
 20
-3.029755542469252
 10
112.6851583167667
 20
-5.627756488869412
 10
112.6851525215666
 20
-8.225365974469676
 10
112.6858416224668
 20
-10.86854740476962
  0
SPLINE
  5
1CA
330
70
100
AcDbEntity
  8
0
 62
    18
420
        0
370
    25
100
AcDbSpline
210
0.0
220
0.0
230
1.0
 70
     8
 71
     3
 72
     8
 73
     4
 74
     0
 42
0.0000000001
 43
0.0000000001
 40
0.0
 40
0.0
 40
0.0
 40
0.0
 40
1.0
 40
1.0
 40
1.0
 40
1.0
 10
112.4091343911759
 20
-10.87200391729231
 30
0.0
 10
112.4967642893261
 20
-10.91450727928045
 30
0.0
 10
112.5993007708726
 20
-10.91322643585938
 30
0.0
 10
112.68584162254
 20
-10.86854740472856
 30
0.0
  0
LWPOLYLINE
  5
1CB
330
70
100
AcDbEntity
  8
0
 62
    18
420
        0
370
    25
100
AcDbPolyline
 90
        3
 70
     0
 43
0.0
 10
112.4029303750664
 20
-3.029795677869357
 10
112.4029309018667
 20
-3.029785639869463
 10
112.4031790414667
 20
-3.022773283469183
  0
SPLINE
  5
1CC
330
70
100
AcDbEntity
  8
0
 62
    18
420
        0
370
    25
100
AcDbSpline
210
0.0
220
0.0
230
1.0
 70
     8
 71
     3
 72
     8
 73
     4
 74
     0
 42
0.0000000001
 43
0.0000000001
 40
0.0
 40
0.0
 40
0.0
 40
0.0
 40
1.0
 40
1.0
 40
1.0
 40
1.0
 10
112.4091354448078
 20
-3.029652480506506
 30
0.0
 10
112.4071947320063
 20
-3.028569133509161
 30
0.0
 10
112.4048190465654
 20
-3.028623958361543
 30
0.0
 10
112.4029303750362
 20
-3.02979567793096
 30
0.0
  0
LWPOLYLINE
  5
1CD
330
70
100
AcDbEntity
  8
0
 62
    18
420
        0
370
    25
100
AcDbPolyline
 90
        4
 70
     0
 43
0.0
 10
105.7561958749665
 20
1.133951985830725
 10
108.004982597267
 20
-0.1650338841694492
 10
110.2544468301664
 20
-1.463628635569216
 10
112.5444220870668
 20
-2.784807593269368
  0
LWPOLYLINE
  5
1CE
330
70
100
AcDbEntity
  8
0
 62
    18
420
        0
370
    25
100
AcDbPolyline
 90
        7
 70
     0
 43
0.0
 10
112.4031790414667
 20
-3.022773283469183
 10
112.1202346033667
 20
-2.859420141469064
 10
110.9885079539668
 20
-2.206037083069267
 10
108.7254761236665
 20
-0.8995678913696599
 10
107.863696351167
 20
-0.4020906792691492
 10
105.6148474622667
 20
0.8960471227307625
 10
105.6118729484665
 20
0.8977642728309012
  0
SPLINE
  5
1CF
330
70
100
AcDbEntity
  8
0
 62
    18
420
        0
370
    25
100
AcDbSpline
210
0.0
220
0.0
230
1.0
 70
     8
 71
     3
 72
     8
 73
     4
 74
     0
 42
0.0000000001
 43
0.0000000001
 40
0.0
 40
0.0
 40
0.0
 40
0.0
 40
1.0
 40
1.0
 40
1.0
 40
1.0
 10
105.7561958749729
 20
1.133951985838425
 30
0.0
 10
105.6719469729473
 20
1.083977319095396
 30
0.0
 10
105.6179036967777
 20
0.9955342829914972
 30
0.0
 10
105.611872948453
 20
0.8977642728488687
 30
0.0
  0
LWPOLYLINE
  5
1D0
330
70
100
AcDbEntity
  8
0
 62
    18
420
        0
370
    25
100
AcDbPolyline
 90
        5
 70
     0
 43
0.0
 10
109.7196876162666
 20
-4.57928642456955
 10
109.8492654678668
 20
-4.504461263969335
 10
110.4151490756669
 20
-4.177679704469284
 10
111.003024909067
 20
-3.838197324269476
 10
112.4029303750664
 20
-3.029795677869357
  0
LWPOLYLINE
  5
1D1
330
70
100
AcDbEntity
  8
0
 62
    18
420
        0
370
    25
100
AcDbPolyline
 90
        3
 70
     0
 43
0.0
 10
112.4029303750664
 20
-10.86871712306929
 10
112.4029393312669
 20
-10.86872168506947
 10
112.4091343911669
 20
-10.87200391736931
  0
SPLINE
  5
1D2
330
70
100
AcDbEntity
  8
0
 62
    18
420
        0
370
    25
100
AcDbSpline
210
0.0
220
0.0
230
1.0
 70
     8
 71
     3
 72
     8
 73
     4
 74
     0
 42
0.0000000001
 43
0.0000000001
 40
0.0
 40
0.0
 40
0.0
 40
0.0
 40
1.0
 40
1.0
 40
1.0
 40
1.0
 10
109.735740823905
 20
-6.416171278547909
 30
0.0
 10
110.6092035378196
 20
-7.909642779385561
 30
0.0
 10
111.4983156813638
 20
-9.39390645997693
 30
0.0
 10
112.4029303751274
 20
-10.86871712316106
 30
0.0
  0
SPLINE
  5
1D3
330
70
100
AcDbEntity
  8
0
 62
    18
420
        0
370
    25
100
AcDbSpline
210
0.0
220
0.0
230
1.0
 70
     8
 71
     3
 72
     8
 73
     4
 74
     0
 42
0.0000000001
 43
0.0000000001
 40
0.0
 40
0.0
 40
0.0
 40
0.0
 40
1.0
 40
1.0
 40
1.0
 40
1.0
 10
105.614590366366
 20
0.8890295946770724
 30
0.0
 10
106.4429244434308
 20
-0.6381432697343267
 30
0.0
 10
107.2873662713536
 20
-2.156524208610135
 30
0.0
 10
108.1477745393989
 20
-3.665859132774143
 30
0.0
  0
SPLINE
  5
1D4
330
70
100
AcDbEntity
  8
0
 62
    18
420
        0
370
    25
100
AcDbSpline
210
0.0
220
0.0
230
1.0
 70
     8
 71
     3
 72
     8
 73
     4
 74
     0
 42
0.0000000001
 43
0.0000000001
 40
0.0
 40
0.0
 40
0.0
 40
0.0
 40
1.0
 40
1.0
 40
1.0
 40
1.0
 10
105.6118729484081
 20
0.897764272833468
 30
0.0
 10
105.6120447550531
 20
0.894673201395352
 30
0.0
 10
105.6129782684004
 20
0.8916725814628627
 30
0.0
 10
105.6145903664661
 20
0.8890295945192145
 30
0.0
  0
SPLINE
  5
1D5
330
70
100
AcDbEntity
  8
0
 62
    18
420
        0
370
    25
100
AcDbSpline
210
0.0
220
0.0
230
1.0
 70
     8
 71
     3
 72
     8
 73
     4
 74
     0
 42
0.0000000001
 43
0.0000000001
 40
0.0
 40
0.0
 40
0.0
 40
0.0
 40
1.0
 40
1.0
 40
1.0
 40
1.0
 10
113.3195948273954
 20
-2.663897604824714
 30
0.0
 10
113.3150541689396
 20
-2.564120376476403
 30
0.0
 10
113.2623141721001
 20
-2.472771228542373
 30
0.0
 10
113.1781752919017
 20
-2.418949655590177
 30
0.0
  0
LINE
  5
1D6
330
70
100
AcDbEntity
  8
0
 62
    18
420
        0
370
    25
100
AcDbLine
 10
113.3195948273666
 20
-2.663897604869633
 30
0.0
 11
112.6858416224668
 21
-3.029755542469252
 31
0.0
  0
LINE
  5
1D7
330
70
100
AcDbEntity
  8
0
 62
    18
420
        0
370
    25
100
AcDbLine
 10
112.5444220870668
 20
-2.784807593269368
 30
0.0
 11
113.1781752918664
 21
-2.418949655669106
 31
0.0
  0
LINE
  5
1D8
330
70
100
AcDbEntity
  8
0
 62
    18
420
        0
370
    25
100
AcDbLine
 10
113.3195948273666
 20
-10.50268946706926
 30
0.0
 11
113.3195948273666
 21
-2.663897604869633
 31
0.0
  0
LINE
  5
1D9
330
70
100
AcDbEntity
  8
0
 62
    18
420
        0
370
    25
100
AcDbLine
 10
112.6858416224668
 20
-10.86854740476962
 30
0.0
 11
113.3195948273666
 21
-10.50268946706926
 31
0.0
  0
LINE
  5
1DA
330
70
100
AcDbEntity
  8
0
 62
    18
420
        0
370
    25
100
AcDbLine
 10
113.1781752918664
 20
-2.418949655669106
 30
0.0
 11
106.3899490797668
 21
1.499809923430345
 31
0.0
  0
LINE
  5
1DB
330
70
100
AcDbEntity
  8
0
 62
    18
420
        0
370
    25
100
AcDbLine
 10
106.3899490797668
 20
1.499809923430345
 30
0.0
 11
105.7561958749665
 21
1.133951985830725
 31
0.0
  0
LWPOLYLINE
  5
1DC
330
70
100
AcDbEntity
  8
0
 62
    18
420
        0
370
    25
100
AcDbPolyline
 90
        3
 70
     0
 43
0.0
 10
105.6145903664667
 20
0.889029594530765
 10
105.6145824639668
 20
0.8890347648308322
 10
105.6088921125665
 20
0.8926083591305719
  0
SPLINE
  5
1DD
330
70
100
AcDbEntity
  8
0
 62
    18
420
        0
370
    25
100
AcDbSpline
210
0.0
220
0.0
230
1.0
 70
     8
 71
     3
 72
     8
 73
     4
 74
     0
 42
0.0000000001
 43
0.0000000001
 40
0.0
 40
0.0
 40
0.0
 40
0.0
 40
1.0
 40
1.0
 40
1.0
 40
1.0
 10
112.4061556626348
 20
-10.87715861452185
 30
0.0
 10
112.4057503516768
 20
-10.8741325858158
 30
0.0
 10
112.4046461094354
 20
-10.87124247098573
 30
0.0
 10
112.4029303750529
 20
-10.86871712304298
 30
0.0
  0
LWPOLYLINE
  5
1DE
330
70
100
AcDbEntity
  8
0
 62
    18
420
        0
370
    25
100
AcDbPolyline
 90
        6
 70
     0
 43
0.0
 10
109.0082588232665
 20
-8.917453560069553
 10
109.2911084309669
 20
-9.080722738169571
 10
110.4226322486667
 20
-9.733563110369184
 10
111.4128682397668
 20
-10.30456996496912
 10
112.4031790414667
 20
-10.87544268096951
 10
112.4061556626669
 20
-10.87715861446923
  0
SPLINE
  5
1DF
330
70
100
AcDbEntity
  8
0
 62
    18
420
        0
370
    25
100
AcDbSpline
210
0.0
220
0.0
230
1.0
 70
     8
 71
     3
 72
     8
 73
     4
 74
     0
 42
0.0000000001
 43
0.0000000001
 40
0.0
 40
0.0
 40
0.0
 40
0.0
 40
1.0
 40
1.0
 40
1.0
 40
1.0
 10
105.7561958749453
 20
1.133951985820458
 30
0.0
 10
105.6694431196604
 20
1.08358843037605
 30
0.0
 10
105.6140239057464
 20
0.9927891604906045
 30
0.0
 10
105.6088921125646
 20
0.8926083591100375
 30
0.0
  0
LWPOLYLINE
  5
1E0
330
70
100
AcDbEntity
  8
0
 62
    18
420
        0
370
    25
100
AcDbPolyline
 90
        4
 70
     0
 43
0.0
 10
112.4061556626669
 20
-10.87715861446923
 10
112.415891057767
 20
-10.92489808256924
 10
112.4401165394665
 20
-10.95708628606941
 10
112.4499541407666
 20
-10.96064347816952
  0
SPLINE
  5
1E1
330
70
100
AcDbEntity
  8
0
 62
    18
420
        0
370
    25
100
AcDbSpline
210
0.0
220
0.0
230
1.0
 70
     8
 71
     3
 72
     8
 73
     4
 74
     0
 42
0.0000000001
 43
0.0000000001
 40
0.0
 40
0.0
 40
0.0
 40
0.0
 40
1.0
 40
1.0
 40
1.0
 40
1.0
 10
113.2781644753043
 20
-10.59425795367389
 30
0.0
 10
113.3083493650372
 20
-10.57416963455528
 30
0.0
 10
113.3244322044346
 20
-10.53862368358663
 30
0.0
 10
113.3195948273903
 20
-10.50268946707182
 30
0.0
  0
SPLINE
  5
1E2
330
70
100
AcDbEntity
  8
0
 62
    18
420
        0
370
    25
100
AcDbSpline
210
0.0
220
0.0
230
1.0
 70
     8
 71
     3
 72
     8
 73
     4
 74
     0
 42
0.0000000001
 43
0.0000000001
 40
0.0
 40
0.0
 40
0.0
 40
0.0
 40
1.0
 40
1.0
 40
1.0
 40
1.0
 10
106.3899490797687
 20
1.499809923418794
 30
0.0
 10
106.3607710060794
 20
1.520712245833784
 30
0.0
 10
106.322666679666
 20
1.524485656396814
 30
0.0
 10
106.2899556816765
 20
1.509712109865679
 30
0.0
  0
LWPOLYLINE
  5
1E3
330
70
100
AcDbEntity
  8
0
 62
    18
420
        0
370
    25
100
AcDbPolyline
 90
       17
 70
     0
 43
0.0
 10
177.8915085302665
 20
-51.65646160426911
 10
177.8696166668665
 20
-51.64449716456922
 10
177.6748561457665
 20
-51.58596366556963
 10
177.4528219708666
 20
-51.59551954976943
 10
177.2138962364665
 20
-51.67271756966915
 10
176.9692508206667
 20
-51.81394836196964
 10
176.7303250862666
 20
-52.01260812326921
 10
176.5082909113667
 20
-52.25940744076963
 10
176.3135303902667
 20
-52.54280665096919
 10
176.1551503043667
 20
-52.84955392676946
 10
176.0405563159666
 20
-53.1653064541695
 10
175.9751068042665
 20
-53.47529977846951
 10
175.9618618936666
 20
-53.76503900366937
 10
176.0014411429666
 20
-54.02097631346945
 10
176.0919937787665
 20
-54.23114424356954
 10
176.2292856230667
 20
-54.38571569536925
 10
176.2916385268668
 20
-54.42781795816927
  0
LWPOLYLINE
  5
1E4
330
70
100
AcDbEntity
  8
0
 62
    18
420
        0
370
    25
100
AcDbPolyline
 90
       20
 70
     0
 43
0.0
 10
179.2128956027666
 20
-56.11422377186962
 10
179.212894022267
 20
-56.10717954996946
 10
179.2128963930665
 20
-56.05123429906935
 10
179.2128968539668
 20
-55.94106735726952
 10
179.2128947466669
 20
-55.78002580696961
 10
179.2128940881669
 20
-55.57300511456961
 10
179.2128947466669
 20
-55.32629516666961
 10
179.2128968539668
 20
-55.04739250836938
 10
179.2128963930665
 20
-54.74476897596918
 10
179.212894022267
 20
-54.42762014386966
 10
179.2128961295668
 20
-54.10558602056914
 10
179.2128971832668
 20
-53.78844825396956
 10
179.2128946478664
 20
-53.48584138726923
 10
179.212894680767
 20
-53.20696366336911
 10
179.2128960637664
 20
-52.96028792906962
 10
179.2128932320666
 20
-52.75330592466943
 10
179.2128932649665
 20
-52.5923108995693
 10
179.2128949442666
 20
-52.48219392046951
 10
179.2128959978665
 20
-52.42629949176948
 10
179.2128965247668
 20
-52.41928265636958
  0
SPLINE
  5
1E5
330
70
100
AcDbEntity
  8
0
 62
    18
420
        0
370
    25
100
AcDbSpline
210
0.0
220
0.0
230
1.0
 70
     8
 71
     3
 72
     8
 73
     4
 74
     0
 42
0.0000000001
 43
0.0000000001
 40
0.0
 40
0.0
 40
0.0
 40
0.0
 40
1.0
 40
1.0
 40
1.0
 40
1.0
 10
186.7082278558217
 20
-48.63332498754076
 30
0.0
 10
186.4758486932427
 20
-48.46336279412081
 30
0.0
 10
186.1694932082039
 20
-48.43302628386472
 30
0.0
 10
185.908293315139
 20
-48.5541123617417
 30
0.0
  0
LWPOLYLINE
  5
1E6
330
70
100
AcDbEntity
  8
0
 62
    18
420
        0
370
    25
100
AcDbPolyline
 90
       12
 70
     0
 43
0.0
 10
187.5081623964666
 20
-51.32546818336919
 10
187.6446507507664
 20
-51.21354710206924
 10
187.7592438171669
 20
-51.03010152126963
 10
187.8246936581664
 20
-50.79567478486913
 10
187.8379404126667
 20
-50.5212287962691
 10
187.7983603072664
 20
-50.21959376376905
 10
187.707807803267
 20
-49.9048761758695
 10
187.5705144441669
 20
-49.59179006016938
 10
187.3929034098666
 20
-49.29497707076961
 10
187.1832776294665
 20
-49.02831487626911
 10
186.9514362451668
 20
-48.80427065046914
 10
186.7082278558666
 20
-48.63332498756964
  0
LWPOLYLINE
  5
1E7
330
70
100
AcDbEntity
  8
0
 62
     8
420
  8421504
370
    25
100
AcDbPolyline
 90
        6
 70
     0
 43
0.0
 10
183.3815881663665
 20
-44.01506412026948
 10
183.3813732174666
 20
-44.34167319926928
 10
183.3806151010666
 20
-45.64811377326956
 10
183.3799923813665
 20
-48.26101932816921
 10
183.3802041692665
 20
-49.25629437516934
 10
183.3806087790669
 20
-50.01331434436925
  0
LWPOLYLINE
  5
1E8
330
70
100
AcDbEntity
  8
0
 62
     8
420
  8421504
370
    25
100
AcDbPolyline
 90
        5
 70
     0
 43
0.0
 10
184.9801412124665
 20
-52.78486167826955
 10
187.0637491670665
 20
-53.9883648040691
 10
187.9257249224669
 20
-54.4857285734691
 10
190.1758750952667
 20
-55.78311516026946
 10
190.1788517164669
 20
-55.78483109386929
  0
SPLINE
  5
1E9
330
70
100
AcDbEntity
  8
0
 62
     8
420
  8421504
370
    25
100
AcDbSpline
210
0.0
220
0.0
230
1.0
 70
     8
 71
     3
 72
     8
 73
     4
 74
     0
 42
0.0000000001
 43
0.0000000001
 40
0.0
 40
0.0
 40
0.0
 40
0.0
 40
1.0
 40
1.0
 40
1.0
 40
1.0
 10
190.4171073242726
 20
-55.86778837066009
 30
0.0
 10
190.4472922140112
 20
-55.84770005154597
 30
0.0
 10
190.4633750534099
 20
-55.81215410057347
 30
0.0
 10
190.4585376763586
 20
-55.77621988405738
 30
0.0
  0
SPLINE
  5
1EA
330
70
100
AcDbEntity
  8
0
 62
     8
420
  8421504
370
    25
100
AcDbSpline
210
0.0
220
0.0
230
1.0
 70
     8
 71
     3
 72
     8
 73
     4
 74
     0
 42
0.0000000001
 43
0.0000000001
 40
0.0
 40
0.0
 40
0.0
 40
0.0
 40
1.0
 40
1.0
 40
1.0
 40
1.0
 10
183.32888827389
 20
-43.93696054919157
 30
0.0
 10
183.331745562462
 20
-43.97036409907259
 30
0.0
 10
183.3516823937582
 20
-43.99991136464088
 30
0.0
 10
183.3815881664326
 20
-44.01506412027654
 30
0.0
  0
SPLINE
  5
1EB
330
70
100
AcDbEntity
  8
0
 62
     8
420
  8421504
370
    25
100
AcDbSpline
210
0.0
220
0.0
230
1.0
 70
     8
 71
     3
 72
     8
 73
     4
 74
     0
 42
0.0000000001
 43
0.0000000001
 40
0.0
 40
0.0
 40
0.0
 40
0.0
 40
1.0
 40
1.0
 40
1.0
 40
1.0
 10
183.5288877141469
 20
-43.77371806047565
 30
0.0
 10
183.4997105641378
 20
-43.75281710102172
 30
0.0
 10
183.4616077658222
 20
-43.74904460990946
 30
0.0
 10
183.4288985307398
 20
-43.76381830711475
 30
0.0
  0
LWPOLYLINE
  5
1EC
330
70
100
AcDbEntity
  8
0
 62
     8
420
  8421504
370
    25
100
AcDbPolyline
 90
        6
 70
     0
 43
0.0
 10
105.6088921125665
 20
0.8926083591305719
 10
105.6086813783664
 20
0.56599684693057
 10
105.6079190471665
 20
-0.7404412939696129
 10
105.6072963275665
 20
-3.353346848769166
 10
105.6075081154666
 20
-4.348621895869391
 10
105.6079127251668
 20
-5.1056418650693
  0
LWPOLYLINE
  5
1ED
330
70
100
AcDbEntity
  8
0
 62
     8
420
  8421504
370
    25
100
AcDbPolyline
 90
        3
 70
     0
 43
0.0
 10
108.9491599854669
 20
-6.871721239669118
 10
108.9631648563665
 20
-7.664972118169515
 10
109.0082588232665
 20
-8.917453560069553
  0
SPLINE
  5
1EE
330
70
100
AcDbEntity
  8
0
 62
     8
420
  8421504
370
    25
100
AcDbSpline
210
0.0
220
0.0
230
1.0
 70
     8
 71
     3
 72
     8
 73
     4
 74
     0
 42
0.0000000001
 43
0.0000000001
 40
0.0
 40
0.0
 40
0.0
 40
0.0
 40
1.0
 40
1.0
 40
1.0
 40
1.0
 10
112.644411270429
 20
-10.96011589138516
 30
0.0
 10
112.674596160158
 20
-10.9400275722627
 30
0.0
 10
112.6906789995535
 20
-10.90448162129726
 30
0.0
 10
112.6858416225156
 20
-10.8685474047831
 30
0.0
  0
SPLINE
  5
1EF
330
70
100
AcDbEntity
  8
0
 62
     8
420
  8421504
370
    25
100
AcDbSpline
210
0.0
220
0.0
230
1.0
 70
     8
 71
     3
 72
     8
 73
     4
 74
     0
 42
0.0000000001
 43
0.0000000001
 40
0.0
 40
0.0
 40
0.0
 40
0.0
 40
1.0
 40
1.0
 40
1.0
 40
1.0
 10
112.409134391131
 20
-10.87200391733274
 30
0.0
 10
112.4039849848159
 20
-10.90803375230036
 30
0.0
 10
112.4202173918271
 20
-10.94377640643722
 30
0.0
 10
112.4507359647896
 20
-10.96360774773224
 30
0.0
  0
SPLINE
  5
1F0
330
70
100
AcDbEntity
  8
0
 62
     8
420
  8421504
370
    25
100
AcDbSpline
210
0.0
220
0.0
230
1.0
 70
     8
 71
     3
 72
     8
 73
     4
 74
     0
 42
0.0000000001
 43
0.0000000001
 40
0.0
 40
0.0
 40
0.0
 40
0.0
 40
1.0
 40
1.0
 40
1.0
 40
1.0
 10
105.5561964347552
 20
0.9707094970936307
 30
0.0
 10
105.5590535266053
 20
0.9373076777087231
 30
0.0
 10
105.5789885570521
 20
0.9077616385030108
 30
0.0
 10
105.6088921126127
 20
0.8926083590939949
 30
0.0
  0
SPLINE
  5
1F1
330
70
100
AcDbEntity
  8
0
 62
     8
420
  8421504
370
    25
100
AcDbSpline
210
0.0
220
0.0
230
1.0
 70
     8
 71
     3
 72
     8
 73
     4
 74
     0
 42
0.0000000001
 43
0.0000000001
 40
0.0
 40
0.0
 40
0.0
 40
0.0
 40
1.0
 40
1.0
 40
1.0
 40
1.0
 10
105.7561958749684
 20
1.133951985819174
 30
0.0
 10
105.7270178012791
 20
1.154854308234164
 30
0.0
 10
105.6889134748664
 20
1.158627718797194
 30
0.0
 10
105.6562024768769
 20
1.143854172266059
 30
0.0
  0
SPLINE
  5
1F2
330
70
100
AcDbEntity
  8
0
 62
     8
420
  8421504
370
    25
100
AcDbSpline
210
0.0
220
0.0
230
1.0
 70
     8
 71
     3
 72
     8
 73
     4
 74
     0
 42
0.0000000001
 43
0.0000000001
 40
0.0
 40
0.0
 40
0.0
 40
0.0
 40
1.0
 40
1.0
 40
1.0
 40
1.0
 10
109.0082588232754
 20
-8.917453560092013
 30
0.0
 10
109.0066584497481
 20
-8.95065111568101
 30
0.0
 10
109.0222920118621
 20
-8.982326906212525
 30
0.0
 10
109.0496159452118
 20
-9.001248892334251
 30
0.0
  0
LWPOLYLINE
  5
1F3
330
70
100
AcDbEntity
  8
0
 62
     8
420
  8421504
370
    25
100
AcDbPolyline
 90
        3
 70
     0
 43
0.0
 10
107.207410914267
 20
-7.877212012769355
 10
108.018363167967
 20
-8.345801560769452
 10
109.0082588232665
 20
-8.917453560069553
  0
INSERT
  5
1F6
330
70
100
AcDbEntity
  8
CAPA_BASE
100
AcDbBlockReference
  2
Block_0
 10
0.0
 20
0.0
 30
0.0
  0
INSERT
  5
202
330
70
100
AcDbEntity
  8
CAPA_BASE
100
AcDbBlockReference
  2
Block_1
 10
0.0
 20
0.0
 30
0.0
  0
INSERT
  5
20E
330
70
100
AcDbEntity
  8
CAPA_BASE
100
AcDbBlockReference
  2
Block_2
 10
0.0
 20
0.0
 30
0.0
  0
ENDSEC
  0
SECTION
  2
OBJECTS
  0
DICTIONARY
  5
C
330
0
100
AcDbDictionary
281
     1
  3
ACAD_COLOR
350
63
  3
ACAD_DETAILVIEWSTYLE
350
6A
  3
ACAD_GROUP
350
D
  3
ACAD_LAYOUT
350
62
  3
ACAD_MATERIAL
350
10
  3
ACAD_MLEADERSTYLE
350
66
  3
ACAD_MLINESTYLE
350
5F
  3
ACAD_PLOTSETTINGS
350
61
  3
ACAD_PLOTSTYLENAME
350
E
  3
ACAD_SCALELIST
350
42
  3
ACAD_SECTIONVIEWSTYLE
350
68
  3
ACAD_TABLESTYLE
350
64
  3
ACAD_VISUALSTYLE
350
29
  3
ACDB_RECOMPOSE_DATA
350
221
  3
AcDbVariableDictionary
350
219
  0
DICTIONARY
  5
63
102
{ACAD_REACTORS
330
C
102
}
330
C
100
AcDbDictionary
281
     1
  0
DICTIONARY
  5
6A
102
{ACAD_REACTORS
330
C
102
}
330
C
100
AcDbDictionary
281
     1
  3
Imperial24
350
6B
  0
DICTIONARY
  5
D
102
{ACAD_REACTORS
330
C
102
}
330
C
100
AcDbDictionary
281
     1
  0
DICTIONARY
  5
62
102
{ACAD_REACTORS
330
C
102
}
330
C
100
AcDbDictionary
281
     1
  3
Layout1
350
6F
  3
Layout2
350
77
  3
Model
350
73
  0
DICTIONARY
  5
10
102
{ACAD_REACTORS
330
C
102
}
330
C
100
AcDbDictionary
281
     1
  3
ByBlock
350
19
  3
ByLayer
350
11
  3
Global
350
21
  0
DICTIONARY
  5
66
102
{ACAD_REACTORS
330
C
102
}
330
C
100
AcDbDictionary
281
     1
  3
Standard
350
67
  0
DICTIONARY
  5
5F
102
{ACAD_REACTORS
330
C
102
}
330
C
100
AcDbDictionary
281
     1
  3
Standard
350
60
  0
DICTIONARY
  5
61
102
{ACAD_REACTORS
330
C
102
}
330
C
100
AcDbDictionary
281
     1
  0
ACDBDICTIONARYWDFLT
  5
E
102
{ACAD_REACTORS
330
C
102
}
330
C
100
AcDbDictionary
281
     1
  3
Normal
350
F
100
AcDbDictionaryWithDefault
340
F
  0
DICTIONARY
  5
42
102
{ACAD_REACTORS
330
C
102
}
330
C
100
AcDbDictionary
281
     1
  3
A0
350
43
  3
A1
350
44
  3
A2
350
45
  3
A3
350
46
  3
A4
350
47
  3
A5
350
48
  3
A6
350
49
  3
A7
350
4A
  3
A8
350
4B
  3
A9
350
4C
  3
B0
350
4D
  3
B1
350
4E
  3
B2
350
4F
  3
B3
350
50
  3
B4
350
51
  3
B5
350
52
  3
B6
350
53
  0
DICTIONARY
  5
68
102
{ACAD_REACTORS
330
C
102
}
330
C
100
AcDbDictionary
281
     1
  3
Imperial24
350
69
  0
DICTIONARY
  5
64
102
{ACAD_REACTORS
330
C
102
}
330
C
100
AcDbDictionary
281
     1
  3
Standard
350
65
  0
DICTIONARY
  5
29
102
{ACAD_REACTORS
330
C
102
}
330
C
100
AcDbDictionary
281
     1
  3
2dWireframe
350
2F
  3
Basic
350
2E
  3
Brighten
350
35
  3
ColorChange
350
39
  3
Conceptual
350
32
  3
Dim
350
34
  3
EdgeColorOff
350
41
  3
Facepattern
350
38
  3
Flat
350
2A
  3
FlatWithEdges
350
2B
  3
Gouraud
350
2C
  3
GouraudWithEdges
350
2D
  3
Hidden
350
31
  3
JitterOff
350
3F
  3
Linepattern
350
37
  3
OverhangOff
350
40
  3
Realistic
350
33
  3
Shaded
350
3E
  3
Shaded with edges
350
3D
  3
Shades of Gray
350
3A
  3
Sketchy
350
3B
  3
Thicken
350
36
  3
Wireframe
350
30
  3
X-Ray
350
3C
  0
XRECORD
  5
221
102
{ACAD_REACTORS
330
C
102
}
330
C
100
AcDbXrecord
280
     1
 90
        1
330
65
  0
DICTIONARY
  5
219
102
{ACAD_REACTORS
330
C
102
}
330
C
100
AcDbDictionary
281
     1
  3
CANNOSCALE
350
21E
  3
CMLEADERSTYLE
350
21B
  3
CTABLESTYLE
350
21A
  3
CVIEWDETAILSTYLE
350
21C
  3
CVIEWSECTIONSTYLE
350
21D
  0
ACDBDETAILVIEWSTYLE
  5
6B
102
{ACAD_REACTORS
330
6A
102
}
330
6A
100
AcDbModelDocViewStyle
 70
     0
  3
Imperial24
290
     1
300
Imperial24
 90
        0
100
AcDbDetailViewStyle
 70
     0
 71
     0
 90
        3
 71
     1
340
55
 62
   256
 40
0.24
340
0
 62
   256
 40
0.24
300

 40
0.36
280
     3
 71
     2
340
5D
 90
       25
 62
   256
 71
     3
340
55
 62
   256
 40
0.24
 90
        1
 40
0.75
 90
        1
300
%<\AcVar ViewType \f "%tc1">% %<\AcVar ViewDetailId>%\PSCALE %<\AcVar ViewScale \f "%sn">%
 71
     4
340
5D
 90
       25
 62
   256
340
5D
 90
       25
 62
   256
280
     0
  0
LAYOUT
  5
6F
102
{ACAD_REACTORS
330
62
102
}
330
62
100
AcDbPlotSettings
  1

  2

  4

  6

 40
0.0
 41
0.0
 42
0.0
 43
0.0
 44
0.0
 45
0.0
 46
0.0
 47
0.0
 48
0.0
 49
0.0
140
0.0
141
0.0
142
1.0
143
1.0
 70
   688
 72
     0
 73
     0
 74
     5
  7

 75
    16
147
1.0
 76
     0
 77
     2
 78
   300
148
0.0
149
0.0
100
AcDbLayout
  1
Layout1
 70
     1
 71
     1
 10
0.0
 20
0.0
 11
12.0
 21
9.0
 12
0.0
 22
0.0
 32
0.0
 14
0.0
 24
0.0
 34
0.0
 15
0.0
 25
0.0
 35
0.0
146
0.0
 13
0.0
 23
0.0
 33
0.0
 16
1.0
 26
0.0
 36
0.0
 17
0.0
 27
1.0
 37
0.0
 76
     0
330
6C
  0
LAYOUT
  5
77
102
{ACAD_REACTORS
330
62
102
}
330
62
100
AcDbPlotSettings
  1

  2

  4

  6

 40
0.0
 41
0.0
 42
0.0
 43
0.0
 44
0.0
 45
0.0
 46
0.0
 47
0.0
 48
0.0
 49
0.0
140
0.0
141
0.0
142
1.0
143
1.0
 70
   688
 72
     0
 73
     0
 74
     5
  7

 75
    16
147
1.0
 76
     0
 77
     2
 78
   300
148
0.0
149
0.0
100
AcDbLayout
  1
Layout2
 70
     1
 71
     2
 10
0.0
 20
0.0
 11
12.0
 21
9.0
 12
0.0
 22
0.0
 32
0.0
 14
0.0
 24
0.0
 34
0.0
 15
0.0
 25
0.0
 35
0.0
146
0.0
 13
0.0
 23
0.0
 33
0.0
 16
1.0
 26
0.0
 36
0.0
 17
0.0
 27
1.0
 37
0.0
 76
     0
330
74
  0
LAYOUT
  5
73
102
{ACAD_REACTORS
330
62
102
}
330
62
100
AcDbPlotSettings
  1

  2

  4

  6

 40
0.0
 41
0.0
 42
0.0
 43
0.0
 44
0.0
 45
0.0
 46
0.0
 47
0.0
 48
0.0
 49
0.0
140
0.0
141
0.0
142
1.0
143
1.0
 70
  1712
 72
     0
 73
     0
 74
     0
  7

 75
     0
147
1.0
 76
     0
 77
     2
 78
   300
148
0.0
149
0.0
100
AcDbLayout
  1
Model
 70
     1
 71
     0
 10
0.0
 20
0.0
 11
12.0
 21
9.0
 12
0.0
 22
0.0
 32
0.0
 14
0.0
 24
0.0
 34
0.0
 15
0.0
 25
0.0
 35
0.0
146
0.0
 13
0.0
 23
0.0
 33
0.0
 16
1.0
 26
0.0
 36
0.0
 17
0.0
 27
1.0
 37
0.0
 76
     0
330
70
  0
MATERIAL
  5
19
102
{ACAD_XDICTIONARY
360
1A
102
}
102
{ACAD_REACTORS
330
10
102
}
330
10
100
AcDbMaterial
  1
ByBlock
 72
     0
 43
0.0208333333333333
 43
0.0
 43
0.0
 43
0.0
 43
0.0
 43
0.0208333333333333
 43
0.0
 43
0.0
 43
0.0
 43
0.0
 43
1.0
 43
0.0
 43
0.0
 43
0.0
 43
0.0
 43
1.0
 77
     0
 47
0.0208333333333333
 47
0.0
 47
0.0
 47
0.0
 47
0.0
 47
0.0208333333333333
 47
0.0
 47
0.0
 47
0.0
 47
0.0
 47
1.0
 47
0.0
 47
0.0
 47
0.0
 47
0.0
 47
1.0
171
     0
 49
0.0208333333333333
 49
0.0
 49
0.0
 49
0.0
 49
0.0
 49
0.0208333333333333
 49
0.0
 49
0.0
 49
0.0
 49
0.0
 49
1.0
 49
0.0
 49
0.0
 49
0.0
 49
0.0
 49
1.0
175
     0
142
0.0208333333333333
142
0.0
142
0.0
142
0.0
142
0.0
142
0.0208333333333333
142
0.0
142
0.0
142
0.0
142
0.0
142
1.0
142
0.0
142
0.0
142
0.0
142
0.0
142
1.0
179
     0
144
0.0208333333333333
144
0.0
144
0.0
144
0.0
144
0.0
144
0.0208333333333333
144
0.0
144
0.0
144
0.0
144
0.0
144
1.0
144
0.0
144
0.0
144
0.0
144
0.0
144
1.0
147
0.0208333333333333
147
0.0
147
0.0
147
0.0
147
0.0
147
0.0208333333333333
147
0.0
147
0.0
147
0.0
147
0.0
147
1.0
147
0.0
147
0.0
147
0.0
147
0.0
147
1.0
  0
MATERIAL
  5
11
102
{ACAD_XDICTIONARY
360
12
102
}
102
{ACAD_REACTORS
330
10
102
}
330
10
100
AcDbMaterial
  1
ByLayer
 72
     0
 43
0.0208333333333333
 43
0.0
 43
0.0
 43
0.0
 43
0.0
 43
0.0208333333333333
 43
0.0
 43
0.0
 43
0.0
 43
0.0
 43
1.0
 43
0.0
 43
0.0
 43
0.0
 43
0.0
 43
1.0
 77
     0
 47
0.0208333333333333
 47
0.0
 47
0.0
 47
0.0
 47
0.0
 47
0.0208333333333333
 47
0.0
 47
0.0
 47
0.0
 47
0.0
 47
1.0
 47
0.0
 47
0.0
 47
0.0
 47
0.0
 47
1.0
171
     0
 49
0.0208333333333333
 49
0.0
 49
0.0
 49
0.0
 49
0.0
 49
0.0208333333333333
 49
0.0
 49
0.0
 49
0.0
 49
0.0
 49
1.0
 49
0.0
 49
0.0
 49
0.0
 49
0.0
 49
1.0
175
     0
142
0.0208333333333333
142
0.0
142
0.0
142
0.0
142
0.0
142
0.0208333333333333
142
0.0
142
0.0
142
0.0
142
0.0
142
1.0
142
0.0
142
0.0
142
0.0
142
0.0
142
1.0
179
     0
144
0.0208333333333333
144
0.0
144
0.0
144
0.0
144
0.0
144
0.0208333333333333
144
0.0
144
0.0
144
0.0
144
0.0
144
1.0
144
0.0
144
0.0
144
0.0
144
0.0
144
1.0
147
0.0208333333333333
147
0.0
147
0.0
147
0.0
147
0.0
147
0.0208333333333333
147
0.0
147
0.0
147
0.0
147
0.0
147
1.0
147
0.0
147
0.0
147
0.0
147
0.0
147
1.0
  0
MATERIAL
  5
21
102
{ACAD_XDICTIONARY
360
22
102
}
102
{ACAD_REACTORS
330
10
102
}
330
10
100
AcDbMaterial
  1
Global
 72
     0
 43
0.0208333333333333
 43
0.0
 43
0.0
 43
0.0
 43
0.0
 43
0.0208333333333333
 43
0.0
 43
0.0
 43
0.0
 43
0.0
 43
1.0
 43
0.0
 43
0.0
 43
0.0
 43
0.0
 43
1.0
 77
     0
 47
0.0208333333333333
 47
0.0
 47
0.0
 47
0.0
 47
0.0
 47
0.0208333333333333
 47
0.0
 47
0.0
 47
0.0
 47
0.0
 47
1.0
 47
0.0
 47
0.0
 47
0.0
 47
0.0
 47
1.0
171
     0
 49
0.0208333333333333
 49
0.0
 49
0.0
 49
0.0
 49
0.0
 49
0.0208333333333333
 49
0.0
 49
0.0
 49
0.0
 49
0.0
 49
1.0
 49
0.0
 49
0.0
 49
0.0
 49
0.0
 49
1.0
175
     0
142
0.0208333333333333
142
0.0
142
0.0
142
0.0
142
0.0
142
0.0208333333333333
142
0.0
142
0.0
142
0.0
142
0.0
142
1.0
142
0.0
142
0.0
142
0.0
142
0.0
142
1.0
179
     0
144
0.0208333333333333
144
0.0
144
0.0
144
0.0
144
0.0
144
0.0208333333333333
144
0.0
144
0.0
144
0.0
144
0.0
144
1.0
144
0.0
144
0.0
144
0.0
144
0.0
144
1.0
147
0.0208333333333333
147
0.0
147
0.0
147
0.0
147
0.0
147
0.0208333333333333
147
0.0
147
0.0
147
0.0
147
0.0
147
1.0
147
0.0
147
0.0
147
0.0
147
0.0
147
1.0
  0
MLEADERSTYLE
  5
67
102
{ACAD_REACTORS
330
66
102
}
330
66
100
AcDbMLeaderStyle
179
     2
170
     2
171
     1
172
     0
 90
        2
 40
0.0
 41
0.0
173
     1
 91
-1056964608
340
5B
 92
       -2
290
     1
 42
0.09
291
     1
 43
0.36
  3
Standard
 44
0.18
300

342
55
174
     1
178
     6
175
     1
176
     0
 93
-1056964608
 45
0.18
292
     0
297
     0
 46
0.18
 94
-1056964608
 47
1.0
 49
1.0
140
1.0
293
     1
141
0.0
294
     1
177
     0
142
1.0
295
     1
296
     0
143
0.125
271
     0
272
     9
273
     9
298
     1
  0
MLINESTYLE
  5
60
102
{ACAD_REACTORS
330
5F
102
}
330
5F
100
AcDbMlineStyle
  2
STANDARD
 70
     0
  3

 62
   256
 51
90.0
 52
90.0
 71
     2
 49
0.5
 62
   256
  6
BYLAYER
 49
-0.5
 62
   256
  6
BYLAYER
  0
ACDBPLACEHOLDER
  5
F
102
{ACAD_REACTORS
330
E
102
}
330
E
  0
SCALE
  5
43
102
{ACAD_REACTORS
330
42
102
}
330
42
100
AcDbScale
 70
     0
300
1:1
140
1.0
141
1.0
290
     1
  0
SCALE
  5
44
102
{ACAD_REACTORS
330
42
102
}
330
42
100
AcDbScale
 70
     0
300
1/128" = 1'-0"
140
0.0078125
141
12.0
290
     0
  0
SCALE
  5
45
102
{ACAD_REACTORS
330
42
102
}
330
42
100
AcDbScale
 70
     0
300
1/64" = 1'-0"
140
0.015625
141
12.0
290
     0
  0
SCALE
  5
46
102
{ACAD_REACTORS
330
42
102
}
330
42
100
AcDbScale
 70
     0
300
1/32" = 1'-0"
140
0.03125
141
12.0
290
     0
  0
SCALE
  5
47
102
{ACAD_REACTORS
330
42
102
}
330
42
100
AcDbScale
 70
     0
300
1/16" = 1'-0"
140
0.0625
141
12.0
290
     0
  0
SCALE
  5
48
102
{ACAD_REACTORS
330
42
102
}
330
42
100
AcDbScale
 70
     0
300
3/32" = 1'-0"
140
0.09375
141
12.0
290
     0
  0
SCALE
  5
49
102
{ACAD_REACTORS
330
42
102
}
330
42
100
AcDbScale
 70
     0
300
1/8" = 1'-0"
140
0.125
141
12.0
290
     0
  0
SCALE
  5
4A
102
{ACAD_REACTORS
330
42
102
}
330
42
100
AcDbScale
 70
     0
300
3/16" = 1'-0"
140
0.1875
141
12.0
290
     0
  0
SCALE
  5
4B
102
{ACAD_REACTORS
330
42
102
}
330
42
100
AcDbScale
 70
     0
300
1/4" = 1'-0"
140
0.25
141
12.0
290
     0
  0
SCALE
  5
4C
102
{ACAD_REACTORS
330
42
102
}
330
42
100
AcDbScale
 70
     0
300
3/8" = 1'-0"
140
0.375
141
12.0
290
     0
  0
SCALE
  5
4D
102
{ACAD_REACTORS
330
42
102
}
330
42
100
AcDbScale
 70
     0
300
1/2" = 1'-0"
140
0.5
141
12.0
290
     0
  0
SCALE
  5
4E
102
{ACAD_REACTORS
330
42
102
}
330
42
100
AcDbScale
 70
     0
300
3/4" = 1'-0"
140
0.75
141
12.0
290
     0
  0
SCALE
  5
4F
102
{ACAD_REACTORS
330
42
102
}
330
42
100
AcDbScale
 70
     0
300
1" = 1'-0"
140
1.0
141
12.0
290
     0
  0
SCALE
  5
50
102
{ACAD_REACTORS
330
42
102
}
330
42
100
AcDbScale
 70
     0
300
1-1/2" = 1'-0"
140
1.5
141
12.0
290
     0
  0
SCALE
  5
51
102
{ACAD_REACTORS
330
42
102
}
330
42
100
AcDbScale
 70
     0
300
3" = 1'-0"
140
3.0
141
12.0
290
     0
  0
SCALE
  5
52
102
{ACAD_REACTORS
330
42
102
}
330
42
100
AcDbScale
 70
     0
300
6" = 1'-0"
140
6.0
141
12.0
290
     0
  0
SCALE
  5
53
102
{ACAD_REACTORS
330
42
102
}
330
42
100
AcDbScale
 70
     0
300
1'-0" = 1'-0"
140
12.0
141
12.0
290
     0
  0
ACDBSECTIONVIEWSTYLE
  5
69
102
{ACAD_REACTORS
330
68
102
}
330
68
100
AcDbModelDocViewStyle
 70
     0
  3
Imperial24
290
     1
300
Imperial24
 90
        0
100
AcDbSectionViewStyle
 70
     0
 71
     0
 90
       78
 71
     1
340
55
 62
   256
 40
0.24
340
0
340
0
 62
   256
 40
0.24
300
I, O, Q, S, X, Z
 40
0.48
 90
        3
 40
0.18
 90
        1
 71
     2
340
5D
 90
       25
 62
   256
340
5D
 90
       50
 62
   256
 40
0.24
 40
0.0
 40
0.24
 71
     3
340
55
 62
   256
 40
0.24
 90
        1
 40
0.75
 90
        1
300
%<\AcVar ViewType \f "%tc1">% %<\AcVar ViewSectionStartId>%-%<\AcVar ViewSectionEndId>%\PSCALE %<\AcVar ViewScale \f "%sn">%
 71
     4
 62
   256
 62
   257
300
ANSI31
 40
1.0
 90
        0
290
     0
290
     0
 90
        6
 40
0.0
 40
1.570796326794896
 40
0.2617993877991494
 40
1.308996938995747
 40
-0.2617993877991494
 40
1.832595714594046
  0
TABLESTYLE
  5
65
102
{ACAD_XDICTIONARY
360
21F
102
}
102
{ACAD_REACTORS
330
64
102
}
330
64
100
AcDbTableStyle
280
     0
  3
Standard
 70
     0
 71
     0
 40
0.06
 41
0.06
280
     0
281
     0
  7
Standard
140
0.18
170
     2
 62
     0
 63
     7
283
     0
 90
      512
 91
        0
  1

274
    -2
284
     1
 64
     0
275
    -2
285
     1
 65
     0
276
    -2
286
     1
 66
     0
277
    -2
287
     1
 67
     0
278
    -2
288
     1
 68
     0
279
    -2
289
     1
 69
     0
  7
Standard
140
0.25
170
     5
 62
     0
 63
     7
283
     0
 90
      512
 91
        0
  1

274
    -2
284
     1
 64
     0
275
    -2
285
     1
 65
     0
276
    -2
286
     1
 66
     0
277
    -2
287
     1
 67
     0
278
    -2
288
     1
 68
     0
279
    -2
289
     1
 69
     0
  7
Standard
140
0.18
170
     5
 62
     0
 63
     7
283
     0
 90
      512
 91
        0
  1

274
    -2
284
     1
 64
     0
275
    -2
285
     1
 65
     0
276
    -2
286
     1
 66
     0
277
    -2
287
     1
 67
     0
278
    -2
288
     1
 68
     0
279
    -2
289
     1
 69
     0
  0
VISUALSTYLE
  5
2F
102
{ACAD_REACTORS
330
29
102
}
330
29
100
AcDbVisualStyle
  2
2dWireframe
 70
     4
177
     3
291
     0
 70
    58
 90
        0
176
     1
 90
        2
176
     1
 90
        0
176
     1
 90
        0
176
     1
 40
0.6
176
     1
 40
30.0
176
     1
 62
     7
420
 16777215
176
     1
 90
        1
176
     1
 90
        4
176
     1
 62
     7
176
     1
 62
   257
176
     1
 90
        1
176
     1
 90
        1
176
     1
 40
1.0
176
     1
 90
        0
176
     1
 62
   257
176
     1
 40
1.0
176
     1
 90
        1
176
     1
 90
        6
176
     1
 90
        2
176
     1
 62
     7
176
     1
 90
        5
176
     1
 90
        0
176
     1
 90
        0
176
     1
290
     0
176
     1
 90
        1
176
     1
 40
0.0
176
     1
 90
        0
176
     1
290
     1
176
     1
290
     1
176
     1
290
     0
176
     1
290
     0
176
     1
290
     0
176
     1
290
     0
176
     1
290
     0
176
     1
290
     0
176
     1
290
     0
176
     1
 90
       50
176
     1
 40
0.0
176
     1
 40
1.0
176
     1
 90
        0
176
     1
 62
    18
420
        0
176
     1
 90
       50
176
     1
 90
        3
176
     1
 62
     5
420
      255
176
     1
290
     0
176
     1
 90
       50
176
     1
 90
       50
176
     1
 90
       50
176
     1
290
     0
176
     1
 90
       50
176
     1
 62
   256
176
     0
 40
1.0
176
     0
 90
        2
176
     1
  1
strokes_ogs.tif
176
     1
290
     0
176
     1
 40
1.0
176
     1
 40
1.0
176
     1
  0
VISUALSTYLE
  5
2E
102
{ACAD_REACTORS
330
29
102
}
330
29
100
AcDbVisualStyle
  2
Basic
 70
     7
177
     3
291
     1
 70
    58
 90
        1
176
     1
 90
        0
176
     1
 90
        1
176
     1
 90
        0
176
     1
 40
0.6
176
     1
 40
30.0
176
     1
 62
     7
420
 16777215
176
     1
 90
        0
176
     1
 90
        4
176
     1
 62
     7
176
     1
 62
   257
176
     1
 90
        1
176
     1
 90
        1
176
     1
 40
1.0
176
     1
 90
        8
176
     1
 62
     7
176
     1
 40
1.0
176
     1
 90
        1
176
     1
 90
        6
176
     1
 90
        2
176
     1
 62
     7
176
     1
 90
        5
176
     1
 90
        0
176
     1
 90
        0
176
     1
290
     0
176
     1
 90
        1
176
     1
 40
0.0
176
     1
 90
        0
176
     1
290
     0
176
     1
290
     1
176
     1
290
     1
176
     1
290
     0
176
     1
290
     0
176
     1
290
     0
176
     1
290
     0
176
     1
290
     0
176
     1
290
     0
176
     1
 90
       50
176
     1
 40
0.0
176
     1
 40
1.0
176
     1
 90
        0
176
     1
 62
    18
420
        0
176
     1
 90
       50
176
     1
 90
        3
176
     1
 62
     5
420
      255
176
     1
290
     0
176
     1
 90
       50
176
     1
 90
       50
176
     1
 90
       50
176
     1
290
     0
176
     1
 90
       50
176
     1
 62
   256
176
     0
 40
1.0
176
     0
 90
        2
176
     1
  1
strokes_ogs.tif
176
     1
290
     0
176
     1
 40
1.0
176
     1
 40
1.0
176
     1
  0
VISUALSTYLE
  5
35
102
{ACAD_REACTORS
330
29
102
}
330
29
100
AcDbVisualStyle
  2
Brighten
 70
    12
177
     3
291
     1
 70
    58
 90
        2
176
     1
 90
        2
176
     1
 90
        0
176
     1
 90
        0
176
     1
 40
0.6
176
     1
 40
30.0
176
     1
 62
     7
420
 16777215
176
     1
 90
        1
176
     1
 90
        4
176
     1
 62
     7
176
     1
 62
   257
176
     1
 90
        1
176
     1
 90
        1
176
     1
 40
1.0
176
     1
 90
        8
176
     1
 62
     7
176
     1
 40
1.0
176
     1
 90
        1
176
     1
 90
        6
176
     1
 90
        2
176
     1
 62
     7
176
     1
 90
        5
176
     1
 90
        0
176
     1
 90
        0
176
     1
290
     0
176
     1
 90
        1
176
     1
 40
50.0
176
     1
 90
        0
176
     1
290
     0
176
     1
290
     1
176
     1
290
     1
176
     1
290
     0
176
     1
290
     0
176
     1
290
     0
176
     1
290
     0
176
     1
290
     0
176
     1
290
     0
176
     1
 90
       50
176
     1
 40
0.0
176
     1
 40
1.0
176
     1
 90
        0
176
     1
 62
    18
420
        0
176
     1
 90
       50
176
     1
 90
        3
176
     1
 62
     5
420
      255
176
     1
290
     0
176
     1
 90
       50
176
     1
 90
       50
176
     1
 90
       50
176
     1
290
     0
176
     1
 90
       50
176
     1
 62
   256
176
     0
 40
1.0
176
     0
 90
        2
176
     1
  1
strokes_ogs.tif
176
     1
290
     0
176
     1
 40
1.0
176
     1
 40
1.0
176
     1
  0
VISUALSTYLE
  5
39
102
{ACAD_REACTORS
330
29
102
}
330
29
100
AcDbVisualStyle
  2
ColorChange
 70
    16
177
     3
291
     1
 70
    58
 90
        2
176
     1
 90
        2
176
     1
 90
        3
176
     1
 90
        0
176
     1
 40
0.6
176
     1
 40
30.0
176
     1
 62
     8
420
  8421504
176
     1
 90
        1
176
     1
 90
        4
176
     1
 62
     7
176
     1
 62
   257
176
     1
 90
        1
176
     1
 90
        1
176
     1
 40
1.0
176
     1
 90
        8
176
     1
 62
     8
420
  8421504
176
     1
 40
1.0
176
     1
 90
        1
176
     1
 90
        6
176
     1
 90
        2
176
     1
 62
     7
176
     1
 90
        5
176
     1
 90
        0
176
     1
 90
        0
176
     1
290
     0
176
     1
 90
        1
176
     1
 40
0.0
176
     1
 90
        0
176
     1
290
     0
176
     1
290
     1
176
     1
290
     1
176
     1
290
     0
176
     1
290
     0
176
     1
290
     0
176
     1
290
     0
176
     1
290
     0
176
     1
290
     0
176
     1
 90
       50
176
     1
 40
0.0
176
     1
 40
1.0
176
     1
 90
        0
176
     1
 62
    18
420
        0
176
     1
 90
       50
176
     1
 90
        3
176
     1
 62
     5
420
      255
176
     1
290
     0
176
     1
 90
       50
176
     1
 90
       50
176
     1
 90
       50
176
     1
290
     0
176
     1
 90
       50
176
     1
 62
   256
176
     0
 40
1.0
176
     0
 90
        2
176
     1
  1
strokes_ogs.tif
176
     1
290
     0
176
     1
 40
1.0
176
     1
 40
1.0
176
     1
  0
VISUALSTYLE
  5
32
102
{ACAD_REACTORS
330
29
102
}
330
29
100
AcDbVisualStyle
  2
Conceptual
 70
     9
177
     3
291
     0
 70
    58
 90
        3
176
     1
 90
        2
176
     1
 90
        0
176
     1
 90
        0
176
     1
 40
0.6
176
     1
 40
30.0
176
     1
 62
     7
420
 16777215
176
     1
 90
        2
176
     1
 90
        2
176
     1
 62
     7
176
     1
 62
   257
176
     1
 90
        1
176
     1
 90
        1
176
     1
 40
179.0
176
     1
 90
        8
176
     1
 62
     7
176
     1
 40
1.0
176
     1
 90
        1
176
     1
 90
        6
176
     1
 90
        2
176
     1
 62
     7
176
     1
 90
        3
176
     1
 90
        0
176
     1
 90
        0
176
     1
290
     0
176
     1
 90
        1
176
     1
 40
0.0
176
     1
 90
        0
176
     1
290
     0
176
     1
290
     1
176
     1
290
     1
176
     1
290
     0
176
     1
290
     0
176
     1
290
     0
176
     1
290
     0
176
     1
290
     0
176
     1
290
     0
176
     1
 90
       50
176
     1
 40
0.0
176
     1
 40
1.0
176
     1
 90
        0
176
     1
 62
    18
420
        0
176
     1
 90
       50
176
     1
 90
        3
176
     1
 62
     5
420
      255
176
     1
290
     0
176
     1
 90
       50
176
     1
 90
       50
176
     1
 90
       50
176
     1
290
     0
176
     1
 90
       50
176
     1
 62
   256
176
     0
 40
1.0
176
     0
 90
        2
176
     1
  1
strokes_ogs.tif
176
     1
290
     0
176
     1
 40
1.0
176
     1
 40
1.0
176
     1
  0
VISUALSTYLE
  5
34
102
{ACAD_REACTORS
330
29
102
}
330
29
100
AcDbVisualStyle
  2
Dim
 70
    11
177
     3
291
     1
 70
    58
 90
        2
176
     1
 90
        2
176
     1
 90
        0
176
     1
 90
        0
176
     1
 40
0.6
176
     1
 40
30.0
176
     1
 62
     7
420
 16777215
176
     1
 90
        1
176
     1
 90
        4
176
     1
 62
     7
176
     1
 62
   257
176
     1
 90
        1
176
     1
 90
        1
176
     1
 40
1.0
176
     1
 90
        8
176
     1
 62
     7
176
     1
 40
1.0
176
     1
 90
        1
176
     1
 90
        6
176
     1
 90
        2
176
     1
 62
     7
176
     1
 90
        5
176
     1
 90
        0
176
     1
 90
        0
176
     1
290
     0
176
     1
 90
        1
176
     1
 40
-50.0
176
     1
 90
        0
176
     1
290
     0
176
     1
290
     1
176
     1
290
     1
176
     1
290
     0
176
     1
290
     0
176
     1
290
     0
176
     1
290
     0
176
     1
290
     0
176
     1
290
     0
176
     1
 90
       50
176
     1
 40
0.0
176
     1
 40
1.0
176
     1
 90
        0
176
     1
 62
    18
420
        0
176
     1
 90
       50
176
     1
 90
        3
176
     1
 62
     5
420
      255
176
     1
290
     0
176
     1
 90
       50
176
     1
 90
       50
176
     1
 90
       50
176
     1
290
     0
176
     1
 90
       50
176
     1
 62
   256
176
     0
 40
1.0
176
     0
 90
        2
176
     1
  1
strokes_ogs.tif
176
     1
290
     0
176
     1
 40
1.0
176
     1
 40
1.0
176
     1
  0
VISUALSTYLE
  5
41
102
{ACAD_REACTORS
330
29
102
}
330
29
100
AcDbVisualStyle
  2
EdgeColorOff
 70
    22
177
     3
291
     1
 70
    58
 90
        2
176
     0
 90
        2
176
     0
 90
        0
176
     0
 90
        0
176
     0
 40
0.6
176
     0
 40
30.0
176
     0
 62
     7
420
 16777215
176
     0
 90
        1
176
     0
 90
        4
176
     0
 62
     7
176
     0
 62
   257
176
     0
 90
        1
176
     0
 90
        1
176
     0
 40
1.0
176
     0
 90
        8
176
     2
 62
     7
176
     0
 40
1.0
176
     0
 90
        1
176
     0
 90
        6
176
     0
 90
        2
176
     0
 62
     7
176
     0
 90
        5
176
     0
 90
        0
176
     0
 90
        0
176
     0
290
     0
176
     0
 90
        1
176
     0
 40
0.0
176
     0
 90
        0
176
     0
290
     0
176
     0
290
     1
176
     0
290
     1
176
     0
290
     0
176
     0
290
     0
176
     0
290
     0
176
     0
290
     0
176
     0
290
     0
176
     0
290
     0
176
     0
 90
       50
176
     0
 40
0.0
176
     0
 40
1.0
176
     0
 90
        0
176
     0
 62
    18
420
        0
176
     0
 90
       50
176
     0
 90
        3
176
     0
 62
     5
420
      255
176
     0
290
     0
176
     0
 90
       50
176
     0
 90
       50
176
     0
 90
       50
176
     0
290
     0
176
     0
 90
       50
176
     0
 62
   256
176
     0
 40
1.0
176
     0
 90
        2
176
     0
  1
strokes_ogs.tif
176
     0
290
     0
176
     0
 40
1.0
176
     0
 40
1.0
176
     0
  0
VISUALSTYLE
  5
38
102
{ACAD_REACTORS
330
29
102
}
330
29
100
AcDbVisualStyle
  2
Facepattern
 70
    15
177
     3
291
     1
 70
    58
 90
        2
176
     1
 90
        2
176
     1
 90
        0
176
     1
 90
        0
176
     1
 40
0.6
176
     1
 40
30.0
176
     1
 62
     7
420
 16777215
176
     1
 90
        1
176
     1
 90
        4
176
     1
 62
     7
176
     1
 62
   257
176
     1
 90
        1
176
     1
 90
        1
176
     1
 40
1.0
176
     1
 90
        8
176
     1
 62
     7
176
     1
 40
1.0
176
     1
 90
        1
176
     1
 90
        6
176
     1
 90
        2
176
     1
 62
     7
176
     1
 90
        5
176
     1
 90
        0
176
     1
 90
        0
176
     1
290
     0
176
     1
 90
        1
176
     1
 40
0.0
176
     1
 90
        0
176
     1
290
     0
176
     1
290
     1
176
     1
290
     1
176
     1
290
     0
176
     1
290
     0
176
     1
290
     0
176
     1
290
     0
176
     1
290
     0
176
     1
290
     0
176
     1
 90
       50
176
     1
 40
0.0
176
     1
 40
1.0
176
     1
 90
        0
176
     1
 62
    18
420
        0
176
     1
 90
       50
176
     1
 90
        3
176
     1
 62
     5
420
      255
176
     1
290
     0
176
     1
 90
       50
176
     1
 90
       50
176
     1
 90
       50
176
     1
290
     0
176
     1
 90
       50
176
     1
 62
   256
176
     0
 40
1.0
176
     0
 90
        2
176
     1
  1
strokes_ogs.tif
176
     1
290
     0
176
     1
 40
1.0
176
     1
 40
1.0
176
     1
  0
VISUALSTYLE
  5
2A
102
{ACAD_REACTORS
330
29
102
}
330
29
100
AcDbVisualStyle
  2
Flat
 70
     0
177
     3
291
     1
 70
    58
 90
        2
176
     1
 90
        1
176
     1
 90
        1
176
     1
 90
        2
176
     1
 40
0.6
176
     1
 40
30.0
176
     1
 62
     7
420
 16777215
176
     1
 90
        0
176
     1
 90
        0
176
     1
 62
     7
176
     1
 62
   257
176
     1
 90
        1
176
     1
 90
        1
176
     1
 40
1.0
176
     1
 90
        8
176
     1
 62
     7
176
     1
 40
1.0
176
     1
 90
        1
176
     1
 90
        6
176
     1
 90
        2
176
     1
 62
     7
176
     1
 90
        5
176
     1
 90
        0
176
     1
 90
        0
176
     1
290
     0
176
     1
 90
       13
176
     1
 40
0.0
176
     1
 90
        0
176
     1
290
     0
176
     1
290
     1
176
     1
290
     1
176
     1
290
     0
176
     1
290
     0
176
     1
290
     0
176
     1
290
     0
176
     1
290
     0
176
     1
290
     0
176
     1
 90
       50
176
     1
 40
0.0
176
     1
 40
1.0
176
     1
 90
        0
176
     1
 62
    18
420
        0
176
     1
 90
       50
176
     1
 90
        3
176
     1
 62
     5
420
      255
176
     1
290
     0
176
     1
 90
       50
176
     1
 90
       50
176
     1
 90
       50
176
     1
290
     0
176
     1
 90
       50
176
     1
 62
   256
176
     0
 40
1.0
176
     0
 90
        2
176
     1
  1
strokes_ogs.tif
176
     1
290
     0
176
     1
 40
1.0
176
     1
 40
1.0
176
     1
  0
VISUALSTYLE
  5
2B
102
{ACAD_REACTORS
330
29
102
}
330
29
100
AcDbVisualStyle
  2
FlatWithEdges
 70
     1
177
     3
291
     1
 70
    58
 90
        2
176
     1
 90
        1
176
     1
 90
        1
176
     1
 90
        2
176
     1
 40
0.6
176
     1
 40
30.0
176
     1
 62
     7
420
 16777215
176
     1
 90
        1
176
     1
 90
        0
176
     1
 62
     7
176
     1
 62
   257
176
     1
 90
        1
176
     1
 90
        1
176
     1
 40
1.0
176
     1
 90
        0
176
     1
 62
   257
176
     1
 40
1.0
176
     1
 90
        1
176
     1
 90
        6
176
     1
 90
        2
176
     1
 62
     7
176
     1
 90
        5
176
     1
 90
        0
176
     1
 90
        0
176
     1
290
     0
176
     1
 90
       13
176
     1
 40
0.0
176
     1
 90
        0
176
     1
290
     0
176
     1
290
     1
176
     1
290
     1
176
     1
290
     0
176
     1
290
     0
176
     1
290
     0
176
     1
290
     0
176
     1
290
     0
176
     1
290
     0
176
     1
 90
       50
176
     1
 40
0.0
176
     1
 40
1.0
176
     1
 90
        0
176
     1
 62
    18
420
        0
176
     1
 90
       50
176
     1
 90
        3
176
     1
 62
     5
420
      255
176
     1
290
     0
176
     1
 90
       50
176
     1
 90
       50
176
     1
 90
       50
176
     1
290
     0
176
     1
 90
       50
176
     1
 62
   256
176
     0
 40
1.0
176
     0
 90
        2
176
     1
  1
strokes_ogs.tif
176
     1
290
     0
176
     1
 40
1.0
176
     1
 40
1.0
176
     1
  0
VISUALSTYLE
  5
2C
102
{ACAD_REACTORS
330
29
102
}
330
29
100
AcDbVisualStyle
  2
Gouraud
 70
     2
177
     3
291
     1
 70
    58
 90
        2
176
     1
 90
        2
176
     1
 90
        1
176
     1
 90
        2
176
     1
 40
0.6
176
     1
 40
30.0
176
     1
 62
     7
420
 16777215
176
     1
 90
        0
176
     1
 90
        0
176
     1
 62
     7
176
     1
 62
   257
176
     1
 90
        1
176
     1
 90
        1
176
     1
 40
1.0
176
     1
 90
        0
176
     1
 62
     7
176
     1
 40
1.0
176
     1
 90
        1
176
     1
 90
        6
176
     1
 90
        2
176
     1
 62
     7
176
     1
 90
        5
176
     1
 90
        0
176
     1
 90
        0
176
     1
290
     0
176
     1
 90
       13
176
     1
 40
0.0
176
     1
 90
        0
176
     1
290
     0
176
     1
290
     1
176
     1
290
     1
176
     1
290
     0
176
     1
290
     0
176
     1
290
     0
176
     1
290
     0
176
     1
290
     0
176
     1
290
     0
176
     1
 90
       50
176
     1
 40
0.0
176
     1
 40
1.0
176
     1
 90
        0
176
     1
 62
    18
420
        0
176
     1
 90
       50
176
     1
 90
        3
176
     1
 62
     5
420
      255
176
     1
290
     0
176
     1
 90
       50
176
     1
 90
       50
176
     1
 90
       50
176
     1
290
     0
176
     1
 90
       50
176
     1
 62
   256
176
     0
 40
1.0
176
     0
 90
        2
176
     1
  1
strokes_ogs.tif
176
     1
290
     0
176
     1
 40
1.0
176
     1
 40
1.0
176
     1
  0
VISUALSTYLE
  5
2D
102
{ACAD_REACTORS
330
29
102
}
330
29
100
AcDbVisualStyle
  2
GouraudWithEdges
 70
     3
177
     3
291
     1
 70
    58
 90
        2
176
     1
 90
        2
176
     1
 90
        1
176
     1
 90
        2
176
     1
 40
0.6
176
     1
 40
30.0
176
     1
 62
     7
420
 16777215
176
     1
 90
        1
176
     1
 90
        0
176
     1
 62
     7
176
     1
 62
   257
176
     1
 90
        1
176
     1
 90
        1
176
     1
 40
1.0
176
     1
 90
        0
176
     1
 62
   257
176
     1
 40
1.0
176
     1
 90
        1
176
     1
 90
        6
176
     1
 90
        2
176
     1
 62
     7
176
     1
 90
        5
176
     1
 90
        0
176
     1
 90
        0
176
     1
290
     0
176
     1
 90
       13
176
     1
 40
0.0
176
     1
 90
        0
176
     1
290
     0
176
     1
290
     1
176
     1
290
     1
176
     1
290
     0
176
     1
290
     0
176
     1
290
     0
176
     1
290
     0
176
     1
290
     0
176
     1
290
     0
176
     1
 90
       50
176
     1
 40
0.0
176
     1
 40
1.0
176
     1
 90
        0
176
     1
 62
    18
420
        0
176
     1
 90
       50
176
     1
 90
        3
176
     1
 62
     5
420
      255
176
     1
290
     0
176
     1
 90
       50
176
     1
 90
       50
176
     1
 90
       50
176
     1
290
     0
176
     1
 90
       50
176
     1
 62
   256
176
     0
 40
1.0
176
     0
 90
        2
176
     1
  1
strokes_ogs.tif
176
     1
290
     0
176
     1
 40
1.0
176
     1
 40
1.0
176
     1
  0
VISUALSTYLE
  5
31
102
{ACAD_REACTORS
330
29
102
}
330
29
100
AcDbVisualStyle
  2
Hidden
 70
     6
177
     3
291
     0
 70
    58
 90
        1
176
     1
 90
        2
176
     1
 90
        2
176
     1
 90
        0
176
     1
 40
0.6
176
     1
 40
30.0
176
     1
 62
     7
420
 16777215
176
     1
 90
        2
176
     1
 90
        2
176
     1
 62
     7
176
     1
 62
   257
176
     1
 90
        2
176
     1
 90
        1
176
     1
 40
40.0
176
     1
 90
        0
176
     1
 62
   257
176
     1
 40
1.0
176
     1
 90
        1
176
     1
 90
        6
176
     1
 90
        2
176
     1
 62
     7
176
     1
 90
        3
176
     1
 90
        0
176
     1
 90
        0
176
     1
290
     0
176
     1
 90
        1
176
     1
 40
0.0
176
     1
 90
        0
176
     1
290
     0
176
     1
290
     1
176
     1
290
     1
176
     1
290
     0
176
     1
290
     0
176
     1
290
     0
176
     1
290
     0
176
     1
290
     0
176
     1
290
     0
176
     1
 90
       50
176
     1
 40
0.0
176
     1
 40
1.0
176
     1
 90
        0
176
     1
 62
    18
420
        0
176
     1
 90
       50
176
     1
 90
        3
176
     1
 62
     5
420
      255
176
     1
290
     0
176
     1
 90
       50
176
     1
 90
       50
176
     1
 90
       50
176
     1
290
     0
176
     1
 90
       50
176
     1
 62
   256
176
     0
 40
1.0
176
     0
 90
        2
176
     1
  1
strokes_ogs.tif
176
     1
290
     0
176
     1
 40
1.0
176
     1
 40
1.0
176
     1
  0
VISUALSTYLE
  5
3F
102
{ACAD_REACTORS
330
29
102
}
330
29
100
AcDbVisualStyle
  2
JitterOff
 70
    20
177
     3
291
     1
 70
    58
 90
        2
176
     0
 90
        2
176
     0
 90
        0
176
     0
 90
        0
176
     0
 40
0.6
176
     0
 40
30.0
176
     0
 62
     7
420
 16777215
176
     0
 90
        1
176
     0
 90
        4
176
     0
 62
     7
176
     0
 62
   257
176
     0
 90
        1
176
     0
 90
        1
176
     0
 40
1.0
176
     0
 90
       10
176
     2
 62
     7
176
     0
 40
1.0
176
     0
 90
        1
176
     0
 90
        6
176
     0
 90
        2
176
     0
 62
     7
176
     0
 90
        5
176
     0
 90
        0
176
     0
 90
        0
176
     0
290
     0
176
     0
 90
        1
176
     0
 40
0.0
176
     0
 90
        0
176
     0
290
     0
176
     0
290
     1
176
     0
290
     1
176
     0
290
     0
176
     0
290
     0
176
     0
290
     0
176
     0
290
     0
176
     0
290
     0
176
     0
290
     0
176
     0
 90
       50
176
     0
 40
0.0
176
     0
 40
1.0
176
     0
 90
        0
176
     0
 62
    18
420
        0
176
     0
 90
       50
176
     0
 90
        3
176
     0
 62
     5
420
      255
176
     0
290
     0
176
     0
 90
       50
176
     0
 90
       50
176
     0
 90
       50
176
     0
290
     0
176
     0
 90
       50
176
     0
 62
   256
176
     0
 40
1.0
176
     0
 90
        2
176
     0
  1
strokes_ogs.tif
176
     0
290
     0
176
     0
 40
1.0
176
     0
 40
1.0
176
     0
  0
VISUALSTYLE
  5
37
102
{ACAD_REACTORS
330
29
102
}
330
29
100
AcDbVisualStyle
  2
Linepattern
 70
    14
177
     3
291
     1
 70
    58
 90
        2
176
     1
 90
        2
176
     1
 90
        0
176
     1
 90
        0
176
     1
 40
0.6
176
     1
 40
30.0
176
     1
 62
     7
420
 16777215
176
     1
 90
        1
176
     1
 90
        4
176
     1
 62
     7
176
     1
 62
   257
176
     1
 90
        7
176
     1
 90
        7
176
     1
 40
1.0
176
     1
 90
        8
176
     1
 62
     7
176
     1
 40
1.0
176
     1
 90
        1
176
     1
 90
        6
176
     1
 90
        2
176
     1
 62
     7
176
     1
 90
        5
176
     1
 90
        0
176
     1
 90
        0
176
     1
290
     0
176
     1
 90
        1
176
     1
 40
0.0
176
     1
 90
        0
176
     1
290
     0
176
     1
290
     1
176
     1
290
     1
176
     1
290
     0
176
     1
290
     0
176
     1
290
     0
176
     1
290
     0
176
     1
290
     0
176
     1
290
     0
176
     1
 90
       50
176
     1
 40
0.0
176
     1
 40
1.0
176
     1
 90
        0
176
     1
 62
    18
420
        0
176
     1
 90
       50
176
     1
 90
        3
176
     1
 62
     5
420
      255
176
     1
290
     0
176
     1
 90
       50
176
     1
 90
       50
176
     1
 90
       50
176
     1
290
     0
176
     1
 90
       50
176
     1
 62
   256
176
     0
 40
1.0
176
     0
 90
        2
176
     1
  1
strokes_ogs.tif
176
     1
290
     0
176
     1
 40
1.0
176
     1
 40
1.0
176
     1
  0
VISUALSTYLE
  5
40
102
{ACAD_REACTORS
330
29
102
}
330
29
100
AcDbVisualStyle
  2
OverhangOff
 70
    21
177
     3
291
     1
 70
    58
 90
        2
176
     0
 90
        2
176
     0
 90
        0
176
     0
 90
        0
176
     0
 40
0.6
176
     0
 40
30.0
176
     0
 62
     7
420
 16777215
176
     0
 90
        1
176
     0
 90
        4
176
     0
 62
     7
176
     0
 62
   257
176
     0
 90
        1
176
     0
 90
        1
176
     0
 40
1.0
176
     0
 90
        9
176
     2
 62
     7
176
     0
 40
1.0
176
     0
 90
        1
176
     0
 90
        6
176
     0
 90
        2
176
     0
 62
     7
176
     0
 90
        5
176
     0
 90
        0
176
     0
 90
        0
176
     0
290
     0
176
     0
 90
        1
176
     0
 40
0.0
176
     0
 90
        0
176
     0
290
     0
176
     0
290
     1
176
     0
290
     1
176
     0
290
     0
176
     0
290
     0
176
     0
290
     0
176
     0
290
     0
176
     0
290
     0
176
     0
290
     0
176
     0
 90
       50
176
     0
 40
0.0
176
     0
 40
1.0
176
     0
 90
        0
176
     0
 62
    18
420
        0
176
     0
 90
       50
176
     0
 90
        3
176
     0
 62
     5
420
      255
176
     0
290
     0
176
     0
 90
       50
176
     0
 90
       50
176
     0
 90
       50
176
     0
290
     0
176
     0
 90
       50
176
     0
 62
   256
176
     0
 40
1.0
176
     0
 90
        2
176
     0
  1
strokes_ogs.tif
176
     0
290
     0
176
     0
 40
1.0
176
     0
 40
1.0
176
     0
  0
VISUALSTYLE
  5
33
102
{ACAD_REACTORS
330
29
102
}
330
29
100
AcDbVisualStyle
  2
Realistic
 70
     8
177
     3
291
     0
 70
    58
 90
        2
176
     1
 90
        3
176
     1
 90
        0
176
     1
 90
        2
176
     1
 40
0.6
176
     1
 40
30.0
176
     1
 62
     7
420
 16777215
176
     1
 90
        0
176
     1
 90
        0
176
     1
 62
     7
176
     1
 62
   257
176
     1
 90
        1
176
     1
 90
        1
176
     1
 40
1.0
176
     1
 90
        8
176
     1
 62
   257
176
     1
 40
1.0
176
     1
 90
        1
176
     1
 90
        6
176
     1
 90
        2
176
     1
 62
     7
176
     1
 90
        3
176
     1
 90
        0
176
     1
 90
        0
176
     1
290
     0
176
     1
 90
       13
176
     1
 40
0.0
176
     1
 90
        0
176
     1
290
     0
176
     1
290
     1
176
     1
290
     1
176
     1
290
     0
176
     1
290
     0
176
     1
290
     0
176
     1
290
     0
176
     1
290
     0
176
     1
290
     0
176
     1
 90
       50
176
     1
 40
0.0
176
     1
 40
1.0
176
     1
 90
        0
176
     1
 62
    18
420
        0
176
     1
 90
       50
176
     1
 90
        3
176
     1
 62
     5
420
      255
176
     1
290
     0
176
     1
 90
       50
176
     1
 90
       50
176
     1
 90
       50
176
     1
290
     0
176
     1
 90
       50
176
     1
 62
   256
176
     0
 40
1.0
176
     0
 90
        2
176
     1
  1
strokes_ogs.tif
176
     1
290
     0
176
     1
 40
1.0
176
     1
 40
1.0
176
     1
  0
VISUALSTYLE
  5
3E
102
{ACAD_REACTORS
330
29
102
}
330
29
100
AcDbVisualStyle
  2
Shaded
 70
    27
177
     3
291
     0
 70
    58
 90
        2
176
     1
 90
        2
176
     1
 90
        1
176
     1
 90
        2
176
     1
 40
0.6
176
     1
 40
30.0
176
     1
 62
     7
420
 16777215
176
     1
 90
        0
176
     1
 90
        4
176
     1
 62
     7
176
     1
 62
   257
176
     1
 90
        1
176
     1
 90
        1
176
     1
 40
1.0
176
     1
 90
        8
176
     1
 62
   257
176
     1
 40
1.0
176
     1
 90
        1
176
     1
 90
        6
176
     1
 90
        2
176
     1
 62
     8
420
  7895160
176
     1
 90
        3
176
     1
 90
        0
176
     1
 90
        0
176
     1
290
     0
176
     1
 90
        5
176
     1
 40
0.0
176
     1
 90
        0
176
     1
290
     0
176
     1
290
     1
176
     1
290
     1
176
     1
290
     0
176
     1
290
     0
176
     1
290
     0
176
     1
290
     0
176
     1
290
     0
176
     1
290
     0
176
     1
 90
       50
176
     1
 40
0.0
176
     1
 40
1.0
176
     1
 90
        0
176
     1
 62
    18
420
        0
176
     1
 90
       50
176
     1
 90
        3
176
     1
 62
     5
420
      255
176
     1
290
     0
176
     1
 90
       50
176
     1
 90
       50
176
     1
 90
       50
176
     1
290
     0
176
     1
 90
       50
176
     1
 62
   256
176
     0
 40
1.0
176
     0
 90
        2
176
     1
  1
strokes_ogs.tif
176
     1
290
     0
176
     1
 40
1.0
176
     1
 40
1.0
176
     1
  0
VISUALSTYLE
  5
3D
102
{ACAD_REACTORS
330
29
102
}
330
29
100
AcDbVisualStyle
  2
Shaded with edges
 70
    26
177
     3
291
     0
 70
    58
 90
        2
176
     1
 90
        2
176
     1
 90
        1
176
     1
 90
        2
176
     1
 40
0.6
176
     1
 40
30.0
176
     1
 62
     7
420
 16777215
176
     1
 90
        1
176
     1
 90
        2
176
     1
 62
     7
176
     1
 62
   257
176
     1
 90
        2
176
     1
 90
        1
176
     1
 40
1.0
176
     1
 90
        8
176
     1
 62
   257
176
     1
 40
1.0
176
     1
 90
        1
176
     1
 90
        6
176
     1
 90
        2
176
     1
 62
     7
176
     1
 90
        3
176
     1
 90
        0
176
     1
 90
        0
176
     1
290
     0
176
     1
 90
        5
176
     1
 40
0.0
176
     1
 90
        0
176
     1
290
     0
176
     1
290
     1
176
     1
290
     1
176
     1
290
     0
176
     1
290
     0
176
     1
290
     0
176
     1
290
     0
176
     1
290
     0
176
     1
290
     0
176
     1
 90
       50
176
     1
 40
0.0
176
     1
 40
1.0
176
     1
 90
        0
176
     1
 62
    18
420
        0
176
     1
 90
       50
176
     1
 90
        3
176
     1
 62
     5
420
      255
176
     1
290
     0
176
     1
 90
       50
176
     1
 90
       50
176
     1
 90
       50
176
     1
290
     0
176
     1
 90
       50
176
     1
 62
   256
176
     0
 40
1.0
176
     0
 90
        2
176
     1
  1
strokes_ogs.tif
176
     1
290
     0
176
     1
 40
1.0
176
     1
 40
1.0
176
     1
  0
VISUALSTYLE
  5
3A
102
{ACAD_REACTORS
330
29
102
}
330
29
100
AcDbVisualStyle
  2
Shades of Gray
 70
    23
177
     3
291
     0
 70
    58
 90
        2
176
     1
 90
        2
176
     1
 90
        3
176
     1
 90
        0
176
     1
 40
0.6
176
     1
 40
30.0
176
     1
 62
     7
420
 16777215
176
     1
 90
        2
176
     1
 90
        2
176
     1
 62
     7
176
     1
 62
     7
176
     1
 90
        1
176
     1
 90
        1
176
     1
 40
40.0
176
     1
 90
        8
176
     1
 62
     7
176
     1
 40
1.0
176
     1
 90
        1
176
     1
 90
        6
176
     1
 90
        2
176
     1
 62
     7
176
     1
 90
        3
176
     1
 90
        0
176
     1
 90
        0
176
     1
290
     0
176
     1
 90
        1
176
     1
 40
0.0
176
     1
 90
        0
176
     1
290
     0
176
     1
290
     1
176
     1
290
     1
176
     1
290
     0
176
     1
290
     0
176
     1
290
     0
176
     1
290
     0
176
     1
290
     0
176
     1
290
     0
176
     1
 90
       50
176
     1
 40
0.0
176
     1
 40
1.0
176
     1
 90
        0
176
     1
 62
    18
420
        0
176
     1
 90
       50
176
     1
 90
        3
176
     1
 62
     5
420
      255
176
     1
290
     0
176
     1
 90
       50
176
     1
 90
       50
176
     1
 90
       50
176
     1
290
     0
176
     1
 90
       50
176
     1
 62
   256
176
     0
 40
1.0
176
     0
 90
        2
176
     1
  1
strokes_ogs.tif
176
     1
290
     0
176
     1
 40
1.0
176
     1
 40
1.0
176
     1
  0
VISUALSTYLE
  5
3B
102
{ACAD_REACTORS
330
29
102
}
330
29
100
AcDbVisualStyle
  2
Sketchy
 70
    24
177
     3
291
     0
 70
    58
 90
        1
176
     1
 90
        2
176
     1
 90
        2
176
     1
 90
        0
176
     1
 40
0.6
176
     1
 40
30.0
176
     1
 62
     7
420
 16777215
176
     1
 90
        2
176
     1
 90
        2
176
     1
 62
     7
176
     1
 62
     7
176
     1
 90
        1
176
     1
 90
        1
176
     1
 40
40.0
176
     1
 90
       11
176
     1
 62
     7
176
     1
 40
1.0
176
     1
 90
        1
176
     1
 90
        6
176
     1
 90
        2
176
     1
 62
     7
176
     1
 90
        6
176
     1
 90
        0
176
     1
 90
        0
176
     1
290
     0
176
     1
 90
        1
176
     1
 40
0.0
176
     1
 90
        0
176
     1
290
     0
176
     1
290
     1
176
     1
290
     1
176
     1
290
     0
176
     1
290
     0
176
     1
290
     0
176
     1
290
     0
176
     1
290
     0
176
     1
290
     0
176
     1
 90
       50
176
     1
 40
0.0
176
     1
 40
1.0
176
     1
 90
        0
176
     1
 62
    18
420
        0
176
     1
 90
       50
176
     1
 90
        3
176
     1
 62
     5
420
      255
176
     1
290
     0
176
     1
 90
       50
176
     1
 90
       50
176
     1
 90
       50
176
     1
290
     0
176
     1
 90
       50
176
     1
 62
   256
176
     0
 40
1.0
176
     0
 90
        2
176
     1
  1
strokes_ogs.tif
176
     1
290
     0
176
     1
 40
1.0
176
     1
 40
1.0
176
     1
  0
VISUALSTYLE
  5
36
102
{ACAD_REACTORS
330
29
102
}
330
29
100
AcDbVisualStyle
  2
Thicken
 70
    13
177
     3
291
     1
 70
    58
 90
        2
176
     1
 90
        2
176
     1
 90
        0
176
     1
 90
        0
176
     1
 40
0.6
176
     1
 40
30.0
176
     1
 62
     7
420
 16777215
176
     1
 90
        1
176
     1
 90
        4
176
     1
 62
     7
176
     1
 62
   257
176
     1
 90
        1
176
     1
 90
        1
176
     1
 40
1.0
176
     1
 90
       12
176
     1
 62
     7
176
     1
 40
1.0
176
     1
 90
        1
176
     1
 90
        6
176
     1
 90
        2
176
     1
 62
     7
176
     1
 90
        5
176
     1
 90
        0
176
     1
 90
        0
176
     1
290
     0
176
     1
 90
        1
176
     1
 40
0.0
176
     1
 90
        0
176
     1
290
     0
176
     1
290
     1
176
     1
290
     1
176
     1
290
     0
176
     1
290
     0
176
     1
290
     0
176
     1
290
     0
176
     1
290
     0
176
     1
290
     0
176
     1
 90
       50
176
     1
 40
0.0
176
     1
 40
1.0
176
     1
 90
        0
176
     1
 62
    18
420
        0
176
     1
 90
       50
176
     1
 90
        3
176
     1
 62
     5
420
      255
176
     1
290
     0
176
     1
 90
       50
176
     1
 90
       50
176
     1
 90
       50
176
     1
290
     0
176
     1
 90
       50
176
     1
 62
   256
176
     0
 40
1.0
176
     0
 90
        2
176
     1
  1
strokes_ogs.tif
176
     1
290
     0
176
     1
 40
1.0
176
     1
 40
1.0
176
     1
  0
VISUALSTYLE
  5
30
102
{ACAD_REACTORS
330
29
102
}
330
29
100
AcDbVisualStyle
  2
Wireframe
 70
     5
177
     3
291
     0
 70
    58
 90
        0
176
     1
 90
        2
176
     1
 90
        0
176
     1
 90
        0
176
     1
 40
0.6
176
     1
 40
30.0
176
     1
 62
     7
420
 16777215
176
     1
 90
        1
176
     1
 90
        4
176
     1
 62
     7
176
     1
 62
   257
176
     1
 90
        1
176
     1
 90
        1
176
     1
 40
1.0
176
     1
 90
        0
176
     1
 62
   257
176
     1
 40
1.0
176
     1
 90
        1
176
     1
 90
        6
176
     1
 90
        2
176
     1
 62
     7
176
     1
 90
        3
176
     1
 90
        0
176
     1
 90
        0
176
     1
290
     0
176
     1
 90
        1
176
     1
 40
0.0
176
     1
 90
        0
176
     1
290
     0
176
     1
290
     1
176
     1
290
     1
176
     1
290
     0
176
     1
290
     0
176
     1
290
     0
176
     1
290
     0
176
     1
290
     0
176
     1
290
     0
176
     1
 90
       50
176
     1
 40
0.0
176
     1
 40
1.0
176
     1
 90
        0
176
     1
 62
    18
420
        0
176
     1
 90
       50
176
     1
 90
        3
176
     1
 62
     5
420
      255
176
     1
290
     0
176
     1
 90
       50
176
     1
 90
       50
176
     1
 90
       50
176
     1
290
     0
176
     1
 90
       50
176
     1
 62
   256
176
     0
 40
1.0
176
     0
 90
        2
176
     1
  1
strokes_ogs.tif
176
     1
290
     0
176
     1
 40
1.0
176
     1
 40
1.0
176
     1
  0
VISUALSTYLE
  5
3C
102
{ACAD_REACTORS
330
29
102
}
330
29
100
AcDbVisualStyle
  2
X-Ray
 70
    25
177
     3
291
     0
 70
    58
 90
        2
176
     1
 90
        2
176
     1
 90
        1
176
     1
 90
        1
176
     1
 40
0.5
176
     1
 40
30.0
176
     1
 62
     7
420
 16777215
176
     1
 90
        1
176
     1
 90
        0
176
     1
 62
     7
176
     1
 62
   257
176
     1
 90
        1
176
     1
 90
        1
176
     1
 40
1.0
176
     1
 90
        8
176
     1
 62
     7
176
     1
 40
1.0
176
     1
 90
        1
176
     1
 90
        6
176
     1
 90
        2
176
     1
 62
     7
176
     1
 90
        3
176
     1
 90
        0
176
     1
 90
        0
176
     1
290
     0
176
     1
 90
       13
176
     1
 40
0.0
176
     1
 90
        0
176
     1
290
     0
176
     1
290
     1
176
     1
290
     1
176
     1
290
     0
176
     1
290
     0
176
     1
290
     0
176
     1
290
     0
176
     1
290
     0
176
     1
290
     0
176
     1
 90
       50
176
     1
 40
0.0
176
     1
 40
1.0
176
     1
 90
        0
176
     1
 62
    18
420
        0
176
     1
 90
       50
176
     1
 90
        3
176
     1
 62
     5
420
      255
176
     1
290
     0
176
     1
 90
       50
176
     1
 90
       50
176
     1
 90
       50
176
     1
290
     0
176
     1
 90
       50
176
     1
 62
   256
176
     0
 40
1.0
176
     0
 90
        2
176
     1
  1
strokes_ogs.tif
176
     1
290
     0
176
     1
 40
1.0
176
     1
 40
1.0
176
     1
  0
DICTIONARYVAR
  5
21E
102
{ACAD_REACTORS
330
219
102
}
330
219
100
DictionaryVariables
280
     0
  1
1:1
  0
DICTIONARYVAR
  5
21B
102
{ACAD_REACTORS
330
219
102
}
330
219
100
DictionaryVariables
280
     0
  1
STANDARD
  0
DICTIONARYVAR
  5
21A
102
{ACAD_REACTORS
330
219
102
}
330
219
100
DictionaryVariables
280
     0
  1
STANDARD
  0
DICTIONARYVAR
  5
21C
102
{ACAD_REACTORS
330
219
102
}
330
219
100
DictionaryVariables
280
     0
  1
Imperial24
  0
DICTIONARYVAR
  5
21D
102
{ACAD_REACTORS
330
219
102
}
330
219
100
DictionaryVariables
280
     0
  1
Imperial24
  0
DICTIONARY
  5
1A
330
19
100
AcDbDictionary
280
     1
281
     1
  3
BUMPTILE
360
1C
  3
DIFFUSETILE
360
1B
  3
OPACITYTILE
360
1F
  3
REFLECTIONTILE
360
1E
  3
REFRACTIONTILE
360
20
  3
SPECULARTILE
360
1D
  0
DICTIONARY
  5
12
330
11
100
AcDbDictionary
280
     1
281
     1
  3
BUMPTILE
360
14
  3
DIFFUSETILE
360
13
  3
OPACITYTILE
360
17
  3
REFLECTIONTILE
360
16
  3
REFRACTIONTILE
360
18
  3
SPECULARTILE
360
15
  0
DICTIONARY
  5
22
330
21
100
AcDbDictionary
280
     1
281
     1
  3
BUMPTILE
360
24
  3
DIFFUSETILE
360
23
  3
OPACITYTILE
360
27
  3
REFLECTIONTILE
360
26
  3
REFRACTIONTILE
360
28
  3
SPECULARTILE
360
25
  0
DICTIONARY
  5
21F
330
65
100
AcDbDictionary
280
     1
281
     1
  3
ACAD_ROUNDTRIP_2008_TABLESTYLE_CELLSTYLEMAP
360
220
  0
XRECORD
  5
1C
102
{ACAD_REACTORS
330
1A
102
}
330
1A
100
AcDbXrecord
280
     1
270
     1
271
     1
  0
XRECORD
  5
1B
102
{ACAD_REACTORS
330
1A
102
}
330
1A
100
AcDbXrecord
280
     1
270
     1
271
     1
  0
XRECORD
  5
1F
102
{ACAD_REACTORS
330
1A
102
}
330
1A
100
AcDbXrecord
280
     1
270
     1
271
     1
  0
XRECORD
  5
1E
102
{ACAD_REACTORS
330
1A
102
}
330
1A
100
AcDbXrecord
280
     1
270
     1
271
     1
  0
XRECORD
  5
20
102
{ACAD_REACTORS
330
1A
102
}
330
1A
100
AcDbXrecord
280
     1
270
     1
271
     1
  0
XRECORD
  5
1D
102
{ACAD_REACTORS
330
1A
102
}
330
1A
100
AcDbXrecord
280
     1
270
     1
271
     1
  0
XRECORD
  5
14
102
{ACAD_REACTORS
330
12
102
}
330
12
100
AcDbXrecord
280
     1
270
     1
271
     1
  0
XRECORD
  5
13
102
{ACAD_REACTORS
330
12
102
}
330
12
100
AcDbXrecord
280
     1
270
     1
271
     1
  0
XRECORD
  5
17
102
{ACAD_REACTORS
330
12
102
}
330
12
100
AcDbXrecord
280
     1
270
     1
271
     1
  0
XRECORD
  5
16
102
{ACAD_REACTORS
330
12
102
}
330
12
100
AcDbXrecord
280
     1
270
     1
271
     1
  0
XRECORD
  5
18
102
{ACAD_REACTORS
330
12
102
}
330
12
100
AcDbXrecord
280
     1
270
     1
271
     1
  0
XRECORD
  5
15
102
{ACAD_REACTORS
330
12
102
}
330
12
100
AcDbXrecord
280
     1
270
     1
271
     1
  0
XRECORD
  5
24
102
{ACAD_REACTORS
330
22
102
}
330
22
100
AcDbXrecord
280
     1
270
     1
271
     1
  0
XRECORD
  5
23
102
{ACAD_REACTORS
330
22
102
}
330
22
100
AcDbXrecord
280
     1
270
     1
271
     1
  0
XRECORD
  5
27
102
{ACAD_REACTORS
330
22
102
}
330
22
100
AcDbXrecord
280
     1
270
     1
271
     1
  0
XRECORD
  5
26
102
{ACAD_REACTORS
330
22
102
}
330
22
100
AcDbXrecord
280
     1
270
     1
271
     1
  0
XRECORD
  5
28
102
{ACAD_REACTORS
330
22
102
}
330
22
100
AcDbXrecord
280
     1
270
     1
271
     1
  0
XRECORD
  5
25
102
{ACAD_REACTORS
330
22
102
}
330
22
100
AcDbXrecord
280
     1
270
     1
271
     1
  0
CELLSTYLEMAP
  5
220
102
{ACAD_REACTORS
330
21F
102
}
330
21F
100
AcDbCellStyleMap
 90
        3
300
CELLSTYLE
  1
TABLEFORMAT_BEGIN
 90
        5
170
     1
 91
        0
 92
    32768
 62
   257
 93
        1
300
CONTENTFORMAT
  1
CONTENTFORMAT_BEGIN
 90
        0
 91
        0
 92
      512
 93
        0
300

 40
0.0
140
1.0
 94
        5
 62
     0
340
55
144
0.25
309
CONTENTFORMAT_END
171
     0
 94
        0
309
TABLEFORMAT_END
  1
CELLSTYLE_BEGIN
 90
        1
 91
        1
300
_TITLE
309
CELLSTYLE_END
300
CELLSTYLE
  1
TABLEFORMAT_BEGIN
 90
        5
170
     1
 91
        0
 92
        0
 62
   257
 93
        1
300
CONTENTFORMAT
  1
CONTENTFORMAT_BEGIN
 90
        0
 91
        0
 92
      512
 93
        0
300

 40
0.0
140
1.0
 94
        5
 62
     0
340
55
144
0.18
309
CONTENTFORMAT_END
171
     0
 94
        0
309
TABLEFORMAT_END
  1
CELLSTYLE_BEGIN
 90
        2
 91
        1
300
_HEADER
309
CELLSTYLE_END
300
CELLSTYLE
  1
TABLEFORMAT_BEGIN
 90
        5
170
     1
 91
        0
 92
        0
 62
   257
 93
        1
300
CONTENTFORMAT
  1
CONTENTFORMAT_BEGIN
 90
        0
 91
        0
 92
      512
 93
        0
300

 40
0.0
140
1.0
 94
        2
 62
     0
340
55
144
0.18
309
CONTENTFORMAT_END
171
     0
 94
        0
309
TABLEFORMAT_END
  1
CELLSTYLE_BEGIN
 90
        3
 91
        2
300
_DATA
309
CELLSTYLE_END
  0
ENDSEC
  0
EOF
