  0
SECTION
  2
HEADER
  9
$ACADVER
  1
AC1032
  9
$ACADMAINTVER
 90
      251
  9
$DWGCODEPAGE
  3
ANSI_1252
  9
$REQUIREDVERSIONS
160
                 0
  9
$INSBASE
 10
0.0
 20
0.0
 30
0.0
  9
$EXTMIN
 10
1.000000000000000E+20
 20
1.000000000000000E+20
 30
1.000000000000000E+20
  9
$EXTMAX
 10
-1.000000000000000E+20
 20
-1.000000000000000E+20
 30
-1.000000000000000E+20
  9
$LIMMIN
 10
0.0
 20
0.0
  9
$LIMMAX
 10
12.0
 20
9.0
  9
$ORTHOMODE
 70
     0
  9
$REGENMODE
 70
     1
  9
$FILLMODE
 70
     1
  9
$QTEXTMODE
 70
     0
  9
$MIRRTEXT
 70
     0
  9
$LTSCALE
 40
1.0
  9
$ATTMODE
 70
     1
  9
$TEXTSIZE
 40
0.2
  9
$TRACEWID
 40
0.05
  9
$TEXTSTYLE
  7
Standard
  9
$CLAYER
  8
0
  9
$CELTYPE
  6
ByLayer
  9
$CECOLOR
 62
   256
  9
$CELTSCALE
 40
1.0
  9
$DISPSILH
 70
     0
  9
$DIMSCALE
 40
1.0
  9
$DIMASZ
 40
0.18
  9
$DIMEXO
 40
0.0625
  9
$DIMDLI
 40
0.38
  9
$DIMRND
 40
0.0
  9
$DIMDLE
 40
0.0
  9
$DIMEXE
 40
0.18
  9
$DIMTP
 40
0.0
  9
$DIMTM
 40
0.0
  9
$DIMTXT
 40
0.18
  9
$DIMCEN
 40
0.09
  9
$DIMTSZ
 40
0.0
  9
$DIMTOL
 70
     0
  9
$DIMLIM
 70
     0
  9
$DIMTIH
 70
     1
  9
$DIMTOH
 70
     1
  9
$DIMSE1
 70
     0
  9
$DIMSE2
 70
     0
  9
$DIMTAD
 70
     0
  9
$DIMZIN
 70
     0
  9
$DIMBLK
  1

  9
$DIMASO
 70
     1
  9
$DIMSHO
 70
     1
  9
$DIMPOST
  1

  9
$DIMAPOST
  1

  9
$DIMALT
 70
     0
  9
$DIMALTD
 70
     2
  9
$DIMALTF
 40
25.4
  9
$DIMLFAC
 40
1.0
  9
$DIMTOFL
 70
     0
  9
$DIMTVP
 40
0.0
  9
$DIMTIX
 70
     0
  9
$DIMSOXD
 70
     0
  9
$DIMSAH
 70
     0
  9
$DIMBLK1
  1

  9
$DIMBLK2
  1

  9
$DIMSTYLE
  2
Standard
  9
$DIMCLRD
 70
     0
  9
$DIMCLRE
 70
     0
  9
$DIMCLRT
 70
     0
  9
$DIMTFAC
 40
1.0
  9
$DIMGAP
 40
0.09
  9
$DIMJUST
 70
     0
  9
$DIMSD1
 70
     0
  9
$DIMSD2
 70
     0
  9
$DIMTOLJ
 70
     1
  9
$DIMTZIN
 70
     0
  9
$DIMALTZ
 70
     0
  9
$DIMALTTZ
 70
     0
  9
$DIMUPT
 70
     0
  9
$DIMDEC
 70
     4
  9
$DIMTDEC
 70
     4
  9
$DIMALTU
 70
     2
  9
$DIMALTTD
 70
     2
  9
$DIMTXSTY
  7
Standard
  9
$DIMAUNIT
 70
     0
  9
$DIMADEC
 70
     0
  9
$DIMALTRND
 40
0.0
  9
$DIMAZIN
 70
     0
  9
$DIMDSEP
 70
    46
  9
$DIMATFIT
 70
     3
  9
$DIMFRAC
 70
     0
  9
$DIMLDRBLK
  1

  9
$DIMLUNIT
 70
     2
  9
$DIMLWD
 70
    -2
  9
$DIMLWE
 70
    -2
  9
$DIMTMOVE
 70
     0
  9
$DIMFXL
 40
1.0
  9
$DIMFXLON
 70
     0
  9
$DIMJOGANG
 40
0.7853981633974483
  9
$DIMTFILL
 70
     0
  9
$DIMTFILLCLR
 70
     0
  9
$DIMARCSYM
 70
     0
  9
$DIMLTYPE
  6

  9
$DIMLTEX1
  6

  9
$DIMLTEX2
  6

  9
$DIMTXTDIRECTION
 70
     0
  9
$LUNITS
 70
     2
  9
$LUPREC
 70
     4
  9
$SKETCHINC
 40
0.1
  9
$FILLETRAD
 40
0.0
  9
$AUNITS
 70
     0
  9
$AUPREC
 70
     0
  9
$MENU
  1
.
  9
$ELEVATION
 40
0.0
  9
$PELEVATION
 40
0.0
  9
$THICKNESS
 40
0.0
  9
$LIMCHECK
 70
     0
  9
$CHAMFERA
 40
0.0
  9
$CHAMFERB
 40
0.0
  9
$CHAMFERC
 40
0.0
  9
$CHAMFERD
 40
0.0
  9
$SKPOLY
 70
     0
  9
$TDCREATE
 40
2460035.617858796
  9
$TDUCREATE
 40
2460035.534525463
  9
$TDUPDATE
 40
2460035.617858796
  9
$TDUUPDATE
 40
2460035.534525463
  9
$TDINDWG
 40
0.0000000000
  9
$TDUSRTIMER
 40
0.0000000000
  9
$USRTIMER
 70
     1
  9
$ANGBASE
 50
0.0
  9
$ANGDIR
 70
     0
  9
$PDMODE
 70
     0
  9
$PDSIZE
 40
0.0
  9
$PLINEWID
 40
0.0
  9
$SPLFRAME
 70
     0
  9
$SPLINETYPE
 70
     6
  9
$SPLINESEGS
 70
     8
  9
$HANDSEED
  5
22C
  9
$SURFTAB1
 70
     6
  9
$SURFTAB2
 70
     6
  9
$SURFTYPE
 70
     6
  9
$SURFU
 70
     6
  9
$SURFV
 70
     6
  9
$UCSBASE
  2

  9
$UCSNAME
  2

  9
$UCSORG
 10
0.0
 20
0.0
 30
0.0
  9
$UCSXDIR
 10
1.0
 20
0.0
 30
0.0
  9
$UCSYDIR
 10
0.0
 20
1.0
 30
0.0
  9
$UCSORTHOREF
  2

  9
$UCSORTHOVIEW
 70
     0
  9
$UCSORGTOP
 10
0.0
 20
0.0
 30
0.0
  9
$UCSORGBOTTOM
 10
0.0
 20
0.0
 30
0.0
  9
$UCSORGLEFT
 10
0.0
 20
0.0
 30
0.0
  9
$UCSORGRIGHT
 10
0.0
 20
0.0
 30
0.0
  9
$UCSORGFRONT
 10
0.0
 20
0.0
 30
0.0
  9
$UCSORGBACK
 10
0.0
 20
0.0
 30
0.0
  9
$PUCSBASE
  2

  9
$PUCSNAME
  2

  9
$PUCSORG
 10
0.0
 20
0.0
 30
0.0
  9
$PUCSXDIR
 10
1.0
 20
0.0
 30
0.0
  9
$PUCSYDIR
 10
0.0
 20
1.0
 30
0.0
  9
$PUCSORTHOREF
  2

  9
$PUCSORTHOVIEW
 70
     0
  9
$PUCSORGTOP
 10
0.0
 20
0.0
 30
0.0
  9
$PUCSORGBOTTOM
 10
0.0
 20
0.0
 30
0.0
  9
$PUCSORGLEFT
 10
0.0
 20
0.0
 30
0.0
  9
$PUCSORGRIGHT
 10
0.0
 20
0.0
 30
0.0
  9
$PUCSORGFRONT
 10
0.0
 20
0.0
 30
0.0
  9
$PUCSORGBACK
 10
0.0
 20
0.0
 30
0.0
  9
$USERI1
 70
     0
  9
$USERI2
 70
     0
  9
$USERI3
 70
     0
  9
$USERI4
 70
     0
  9
$USERI5
 70
     0
  9
$USERR1
 40
0.0
  9
$USERR2
 40
0.0
  9
$USERR3
 40
0.0
  9
$USERR4
 40
0.0
  9
$USERR5
 40
0.0
  9
$WORLDVIEW
 70
     1
  9
$SHADEDGE
 70
     3
  9
$SHADEDIF
 70
    70
  9
$TILEMODE
 70
     1
  9
$MAXACTVP
 70
    64
  9
$PINSBASE
 10
0.0
 20
0.0
 30
0.0
  9
$PLIMCHECK
 70
     0
  9
$PEXTMIN
 10
1.000000000000000E+20
 20
1.000000000000000E+20
 30
1.000000000000000E+20
  9
$PEXTMAX
 10
-1.000000000000000E+20
 20
-1.000000000000000E+20
 30
-1.000000000000000E+20
  9
$PLIMMIN
 10
0.0
 20
0.0
  9
$PLIMMAX
 10
12.0
 20
9.0
  9
$UNITMODE
 70
     0
  9
$VISRETAIN
 70
     1
  9
$PLINEGEN
 70
     0
  9
$PSLTSCALE
 70
     1
  9
$TREEDEPTH
 70
  3020
  9
$CMLSTYLE
  2
Standard
  9
$CMLJUST
 70
     0
  9
$CMLSCALE
 40
1.0
  9
$PROXYGRAPHICS
 70
     1
  9
$MEASUREMENT
 70
     0
  9
$CELWEIGHT
370
    -1
  9
$ENDCAPS
280
     0
  9
$JOINSTYLE
280
     0
  9
$LWDISPLAY
290
     1
  9
$INSUNITS
 70
     4
  9
$HYPERLINKBASE
  1

  9
$STYLESHEET
  1

  9
$XEDIT
290
     1
  9
$CEPSNTYPE
380
     0
  9
$PSTYLEMODE
290
     1
  9
$FINGERPRINTGUID
  2
{BDC211B1-3201-7641-80F1-35F30806CF34}
  9
$VERSIONGUID
  2
{8EC813F6-FF63-6147-8D3D-0A0E7F6F3CDD}
  9
$EXTNAMES
290
     1
  9
$PSVPSCALE
 40
0.0
  9
$OLESTARTUP
290
     0
  9
$SORTENTS
280
   127
  9
$INDEXCTL
280
     0
  9
$HIDETEXT
280
     1
  9
$XCLIPFRAME
280
     2
  9
$HALOGAP
280
     0
  9
$OBSCOLOR
 70
   257
  9
$OBSLTYPE
280
     0
  9
$INTERSECTIONDISPLAY
280
     0
  9
$INTERSECTIONCOLOR
 70
   257
  9
$DIMASSOC
280
     2
  9
$PROJECTNAME
  1

  9
$CAMERADISPLAY
290
     0
  9
$LENSLENGTH
 40
50.0
  9
$CAMERAHEIGHT
 40
0.0
  9
$STEPSPERSEC
 40
2.0
  9
$STEPSIZE
 40
6.0
  9
$3DDWFPREC
 40
2.0
  9
$PSOLWIDTH
 40
0.25
  9
$PSOLHEIGHT
 40
4.0
  9
$LOFTANG1
 40
1.570796326794896
  9
$LOFTANG2
 40
1.570796326794896
  9
$LOFTMAG1
 40
0.0
  9
$LOFTMAG2
 40
0.0
  9
$LOFTPARAM
 70
     7
  9
$LOFTNORMALS
280
     1
  9
$LATITUDE
 40
37.795
  9
$LONGITUDE
 40
-122.394
  9
$NORTHDIRECTION
 40
0.0
  9
$TIMEZONE
 70
 -8000
  9
$LIGHTGLYPHDISPLAY
280
     1
  9
$TILEMODELIGHTSYNCH
280
     1
  9
$CMATERIAL
347
11
  9
$SOLIDHIST
280
     0
  9
$SHOWHIST
280
     1
  9
$DWFFRAME
280
     2
  9
$DGNFRAME
280
     0
  9
$REALWORLDSCALE
290
     1
  9
$INTERFERECOLOR
 62
     1
  9
$INTERFEREOBJVS
345
33
  9
$INTERFEREVPVS
346
30
  9
$CSHADOW
280
     0
  9
$SHADOWPLANELOCATION
 40
0.0
  0
ENDSEC
  0
SECTION
  2
CLASSES
  0
CLASS
  1
ACDBDICTIONARYWDFLT
  2
AcDbDictionaryWithDefault
  3
ObjectDBX Classes
 90
        0
 91
        1
280
     0
281
     0
  0
CLASS
  1
MATERIAL
  2
AcDbMaterial
  3
ObjectDBX Classes
 90
     1153
 91
        3
280
     0
281
     0
  0
CLASS
  1
VISUALSTYLE
  2
AcDbVisualStyle
  3
ObjectDBX Classes
 90
     4095
 91
       24
280
     0
281
     0
  0
CLASS
  1
SCALE
  2
AcDbScale
  3
ObjectDBX Classes
 90
     1153
 91
       17
280
     0
281
     0
  0
CLASS
  1
TABLESTYLE
  2
AcDbTableStyle
  3
ObjectDBX Classes
 90
     4095
 91
        1
280
     0
281
     0
  0
CLASS
  1
MLEADERSTYLE
  2
AcDbMLeaderStyle
  3
ACDB_MLEADERSTYLE_CLASS
 90
     4095
 91
        1
280
     0
281
     0
  0
CLASS
  1
ACDBSECTIONVIEWSTYLE
  2
AcDbSectionViewStyle
  3
ObjectDBX Classes
 90
     1025
 91
        1
280
     0
281
     0
  0
CLASS
  1
ACDBDETAILVIEWSTYLE
  2
AcDbDetailViewStyle
  3
ObjectDBX Classes
 90
     1025
 91
        1
280
     0
281
     0
  0
CLASS
  1
DICTIONARYVAR
  2
AcDbDictionaryVar
  3
ObjectDBX Classes
 90
        0
 91
        5
280
     0
281
     0
  0
CLASS
  1
CELLSTYLEMAP
  2
AcDbCellStyleMap
  3
ObjectDBX Classes
 90
     1152
 91
        1
280
     0
281
     0
  0
ENDSEC
  0
SECTION
  2
TABLES
  0
TABLE
  2
VPORT
  5
8
330
0
100
AcDbSymbolTable
 70
     1
  0
VPORT
  5
57
330
8
100
AcDbSymbolTableRecord
100
AcDbViewportTableRecord
  2
*Active
 70
     0
 10
0.0
 20
0.0
 11
1.0
 21
1.0
 12
0.0
 22
0.0
 13
0.0
 23
0.0
 14
1.0
 24
1.0
 15
0.0
 25
0.0
 16
0.0
 26
0.0
 36
1.0
 17
104.9999999737499
 27
31.49999999212523
 37
0.0
 40
302.9399999242649
 41
0.7070707070707066
 42
50.0
 43
0.0
 44
0.0
 50
0.0
 51
0.0
 71
     0
 72
   100
 73
     1
 74
     1
 75
     0
 76
     0
 77
     0
 78
     0
281
     0
 65
     1
110
0.0
120
0.0
130
0.0
111
1.0
121
0.0
131
0.0
112
0.0
122
1.0
132
0.0
 79
     0
146
0.0
 60
     3
 61
     5
292
     1
282
     1
141
0.0
142
0.0
 63
   250
421
  3355443
  0
ENDTAB
  0
TABLE
  2
LTYPE
  5
5
330
0
100
AcDbSymbolTable
 70
     1
  0
LTYPE
  5
5B
330
5
100
AcDbSymbolTableRecord
100
AcDbLinetypeTableRecord
  2
ByBlock
 70
     0
  3

 72
    65
 73
     0
 40
0.0
  0
LTYPE
  5
5C
330
5
100
AcDbSymbolTableRecord
100
AcDbLinetypeTableRecord
  2
ByLayer
 70
     0
  3

 72
    65
 73
     0
 40
0.0
  0
LTYPE
  5
5D
330
5
100
AcDbSymbolTableRecord
100
AcDbLinetypeTableRecord
  2
Continuous
 70
     0
  3
Solid line
 72
    65
 73
     0
 40
0.0
  0
ENDTAB
  0
TABLE
  2
LAYER
  5
2
330
0
100
AcDbSymbolTable
 70
     2
  0
LAYER
  5
54
330
2
100
AcDbSymbolTableRecord
100
AcDbLayerTableRecord
  2
0
 70
     0
 62
     7
  6
Continuous
370
     0
390
F
347
21
348
0
  0
LAYER
  5
1FE
330
2
100
AcDbSymbolTableRecord
100
AcDbLayerTableRecord
  2
CAPA_BASE
 70
     0
 62
     7
  6
Continuous
370
     0
390
F
347
21
348
0
  0
ENDTAB
  0
TABLE
  2
STYLE
  5
3
330
0
100
AcDbSymbolTable
 70
     2
  0
STYLE
  5
55
330
3
100
AcDbSymbolTableRecord
100
AcDbTextStyleTableRecord
  2
Standard
 70
     0
 40
0.0
 41
1.0
 50
0.0
 71
     0
 42
0.2
  3
txt
  4

  0
STYLE
  5
5A
330
3
100
AcDbSymbolTableRecord
100
AcDbTextStyleTableRecord
  2
Annotative
 70
     0
 40
0.0
 41
1.0
 50
0.0
 71
     0
 42
0.2
  3
txt
  4

1001
AcadAnnotative
1000
AnnotativeData
1002
{
1070
     1
1070
     1
1002
}
  0
ENDTAB
  0
TABLE
  2
VIEW
  5
6
330
0
100
AcDbSymbolTable
 70
     0
  0
ENDTAB
  0
TABLE
  2
UCS
  5
7
330
0
100
AcDbSymbolTable
 70
     0
  0
ENDTAB
  0
TABLE
  2
APPID
  5
9
330
0
100
AcDbSymbolTable
 70
     2
  0
APPID
  5
56
330
9
100
AcDbSymbolTableRecord
100
AcDbRegAppTableRecord
  2
ACAD
 70
     0
  0
APPID
  5
5E
330
9
100
AcDbSymbolTableRecord
100
AcDbRegAppTableRecord
  2
AcadAnnotative
 70
     0
  0
ENDTAB
  0
TABLE
  2
DIMSTYLE
  5
A
330
0
100
AcDbSymbolTable
 70
     2
100
AcDbDimStyleTable
 71
     0
  0
DIMSTYLE
105
58
330
A
100
AcDbSymbolTableRecord
100
AcDbDimStyleTableRecord
  2
Standard
 70
     0
340
55
  0
DIMSTYLE
105
59
330
A
100
AcDbSymbolTableRecord
100
AcDbDimStyleTableRecord
  2
Annotative
 70
     0
340
55
1001
AcadAnnotative
1000
AnnotativeData
1002
{
1070
     1
1070
     1
1002
}
  0
ENDTAB
  0
TABLE
  2
BLOCK_RECORD
  5
1
330
0
100
AcDbSymbolTable
 70
     4
  0
BLOCK_RECORD
  5
70
330
1
100
AcDbSymbolTableRecord
100
AcDbBlockTableRecord
  2
*Model_Space
340
73
 70
     0
280
     1
281
     0
  0
BLOCK_RECORD
  5
6C
330
1
100
AcDbSymbolTableRecord
100
AcDbBlockTableRecord
  2
*Paper_Space
340
6F
 70
     0
280
     1
281
     0
  0
BLOCK_RECORD
  5
74
330
1
100
AcDbSymbolTableRecord
100
AcDbBlockTableRecord
  2
*Paper_Space0
340
77
 70
     0
280
     1
281
     0
  0
BLOCK_RECORD
  5
1FF
330
1
100
AcDbSymbolTableRecord
100
AcDbBlockTableRecord
  2
Block_0
340
0
102
{BLKREFS
331
200
102
}
 70
     0
280
     1
281
     0
  0
BLOCK_RECORD
  5
20B
330
1
100
AcDbSymbolTableRecord
100
AcDbBlockTableRecord
  2
Block_1
340
0
102
{BLKREFS
331
20C
102
}
 70
     0
280
     1
281
     0
  0
BLOCK_RECORD
  5
217
330
1
100
AcDbSymbolTableRecord
100
AcDbBlockTableRecord
  2
Block_2
340
0
102
{BLKREFS
331
218
102
}
 70
     0
280
     1
281
     0
  0
ENDTAB
  0
ENDSEC
  0
SECTION
  2
BLOCKS
  0
BLOCK
  5
71
330
70
100
AcDbEntity
  8
0
100
AcDbBlockBegin
  2
*Model_Space
 70
     0
 10
0.0
 20
0.0
 30
0.0
  3
*Model_Space
  1

  0
ENDBLK
  5
72
330
70
100
AcDbEntity
  8
0
100
AcDbBlockEnd
  0
BLOCK
  5
6D
330
6C
100
AcDbEntity
 67
     1
  8
0
100
AcDbBlockBegin
  2
*Paper_Space
 70
     0
 10
0.0
 20
0.0
 30
0.0
  3
*Paper_Space
  1

  0
ENDBLK
  5
6E
330
6C
100
AcDbEntity
 67
     1
  8
0
100
AcDbBlockEnd
  0
BLOCK
  5
75
330
74
100
AcDbEntity
 67
     1
  8
0
100
AcDbBlockBegin
  2
*Paper_Space0
 70
     0
 10
0.0
 20
0.0
 30
0.0
  3
*Paper_Space0
  1

  0
ENDBLK
  5
76
330
74
100
AcDbEntity
 67
     1
  8
0
100
AcDbBlockEnd
  0
BLOCK
  5
201
330
1FF
100
AcDbEntity
  8
0
100
AcDbBlockBegin
  2
Block_0
 70
     0
 10
0.0
 20
0.0
 30
0.0
  3
Block_0
  1

  0
LWPOLYLINE
  5
203
330
1FF
100
AcDbEntity
  8
CAPA_BASE
100
AcDbPolyline
 90
        4
 70
     1
 43
0.0
 10
132.553212087266
 20
89.82123897821086
 10
130.0532120872656
 20
90.13123897821122
 10
130.0532120872656
 20
89.51123897821114
 10
130.0532120872656
 20
89.51123897821114
  0
HATCH
  5
204
330
1FF
100
AcDbEntity
  8
CAPA_BASE
 62
    18
420
        0
440
 33554687
100
AcDbHatch
 10
0.0
 20
0.0
 30
0.0
210
0.0
220
0.0
230
1.0
  2
SOLID
 70
     1
 71
     1
 91
        1
 92
        1
 93
        3
 72
     1
 10
132.553212087266
 20
89.82123897821086
 11
130.0532120872656
 21
90.13123897821122
 72
     1
 10
130.0532120872656
 20
90.13123897821122
 11
130.0532120872656
 21
89.51123897821114
 72
     1
 10
130.0532120872656
 20
89.51123897821114
 11
132.553212087266
 21
89.82123897821086
 97
        1
330
203
 75
     2
 76
     1
 98
        1
 10
0.0
 20
0.0
450
        0
451
        0
460
0.0
461
0.0
452
        0
462
0.0
453
        0
470

  0
LWPOLYLINE
  5
205
330
1FF
100
AcDbEntity
  8
CAPA_BASE
100
AcDbPolyline
 90
        4
 70
     1
 43
0.0
 10
11.31321208726578
 20
89.82123897821086
 10
13.81321208726587
 20
89.51123897821114
 10
13.81321208726587
 20
90.13123897821122
 10
13.81321208726587
 20
90.13123897821122
  0
HATCH
  5
206
330
1FF
100
AcDbEntity
  8
CAPA_BASE
 62
    18
420
        0
440
 33554687
100
AcDbHatch
 10
0.0
 20
0.0
 30
0.0
210
0.0
220
0.0
230
1.0
  2
SOLID
 70
     1
 71
     1
 91
        1
 92
        1
 93
        3
 72
     1
 10
11.31321208726578
 20
89.82123897821086
 11
13.81321208726587
 21
89.51123897821114
 72
     1
 10
13.81321208726587
 20
89.51123897821114
 11
13.81321208726587
 21
90.13123897821122
 72
     1
 10
13.81321208726587
 20
90.13123897821122
 11
11.31321208726578
 21
89.82123897821086
 97
        1
330
205
 75
     2
 76
     1
 98
        1
 10
0.0
 20
0.0
450
        0
451
        0
460
0.0
461
0.0
452
        0
462
0.0
453
        0
470

  0
LINE
  5
207
330
1FF
100
AcDbEntity
  8
CAPA_BASE
 62
    18
420
        0
370
    25
100
AcDbLine
 10
132.553212087266
 20
99.03251323951124
 30
0.0
 11
132.553212087266
 21
88.82123897821147
 31
0.0
  0
LINE
  5
208
330
1FF
100
AcDbEntity
  8
CAPA_BASE
 62
    18
420
        0
370
    25
100
AcDbLine
 10
11.31321208726578
 20
99.03251323951124
 30
0.0
 11
11.31321208726578
 21
88.82123897821147
 31
0.0
  0
LINE
  5
209
330
1FF
100
AcDbEntity
  8
CAPA_BASE
 62
    18
420
        0
370
    25
100
AcDbLine
 10
132.553212087266
 20
89.82123897821086
 30
0.0
 11
11.31321208726578
 21
89.82123897821086
 31
0.0
  0
MTEXT
  5
20A
330
1FF
100
AcDbEntity
  8
CAPA_BASE
100
AcDbMText
 10
69.28737820906433
 20
90.61499004217916
 30
0.0
 40
0.2
 41
0.0
 46
0.0
 71
     7
 72
     1
  1
\C18;\c0;\FArial Bold|b1|i0|c1;\H2.997200;\W0.700000;606
 73
     1
 44
1.0
  0
ENDBLK
  5
202
330
1FF
100
AcDbEntity
  8
0
100
AcDbBlockEnd
  0
BLOCK
  5
20D
330
20B
100
AcDbEntity
  8
0
100
AcDbBlockBegin
  2
Block_1
 70
     0
 10
0.0
 20
0.0
 30
0.0
  3
Block_1
  1

  0
LWPOLYLINE
  5
20F
330
20B
100
AcDbEntity
  8
CAPA_BASE
100
AcDbPolyline
 90
        4
 70
     1
 43
0.0
 10
149.8867873131661
 20
109.8325132395113
 10
149.5767873131658
 20
107.3325132395112
 10
150.1967873131659
 20
107.3325132395112
 10
150.1967873131659
 20
107.3325132395112
  0
HATCH
  5
210
330
20B
100
AcDbEntity
  8
CAPA_BASE
 62
    18
420
        0
440
 33554687
100
AcDbHatch
 10
0.0
 20
0.0
 30
0.0
210
0.0
220
0.0
230
1.0
  2
SOLID
 70
     1
 71
     1
 91
        1
 92
        1
 93
        3
 72
     1
 10
149.8867873131661
 20
109.8325132395113
 11
149.5767873131658
 21
107.3325132395112
 72
     1
 10
149.5767873131658
 20
107.3325132395112
 11
150.1967873131659
 21
107.3325132395112
 72
     1
 10
150.1967873131659
 20
107.3325132395112
 11
149.8867873131661
 21
109.8325132395113
 97
        1
330
20F
 75
     2
 76
     1
 98
        1
 10
0.0
 20
0.0
450
        0
451
        0
460
0.0
461
0.0
452
        0
462
0.0
453
        0
470

  0
LWPOLYLINE
  5
211
330
20B
100
AcDbEntity
  8
CAPA_BASE
100
AcDbPolyline
 90
        4
 70
     1
 43
0.0
 10
149.8867873131661
 20
99.83251323951126
 10
150.1967873131659
 20
102.332513239511
 10
149.5767873131658
 20
102.332513239511
 10
149.5767873131658
 20
102.332513239511
  0
HATCH
  5
212
330
20B
100
AcDbEntity
  8
CAPA_BASE
 62
    18
420
        0
440
 33554687
100
AcDbHatch
 10
0.0
 20
0.0
 30
0.0
210
0.0
220
0.0
230
1.0
  2
SOLID
 70
     1
 71
     1
 91
        1
 92
        1
 93
        3
 72
     1
 10
149.8867873131661
 20
99.83251323951126
 11
150.1967873131659
 21
102.332513239511
 72
     1
 10
150.1967873131659
 20
102.332513239511
 11
149.5767873131658
 21
102.332513239511
 72
     1
 10
149.5767873131658
 20
102.332513239511
 11
149.8867873131661
 21
99.83251323951126
 97
        1
330
211
 75
     2
 76
     1
 98
        1
 10
0.0
 20
0.0
450
        0
451
        0
460
0.0
461
0.0
452
        0
462
0.0
453
        0
470

  0
LINE
  5
213
330
20B
100
AcDbEntity
  8
CAPA_BASE
 62
    18
420
        0
370
    25
100
AcDbLine
 10
158.8867873131658
 20
109.8325132395113
 30
0.0
 11
148.8867873131661
 21
109.8325132395113
 31
0.0
  0
LINE
  5
214
330
20B
100
AcDbEntity
  8
CAPA_BASE
 62
    18
420
        0
370
    25
100
AcDbLine
 10
158.8867873131658
 20
99.83251323951126
 30
0.0
 11
148.8867873131661
 21
99.83251323951126
 31
0.0
  0
LINE
  5
215
330
20B
100
AcDbEntity
  8
CAPA_BASE
 62
    18
420
        0
370
    25
100
AcDbLine
 10
149.8867873131661
 20
109.8325132395113
 30
0.0
 11
149.8867873131661
 21
99.83251323951126
 31
0.0
  0
MTEXT
  5
216
330
20B
100
AcDbEntity
  8
CAPA_BASE
100
AcDbMText
 10
149.0930353109838
 20
103.0686441799613
 30
0.0
 40
0.2
 41
0.0
 46
0.0
 71
     7
 72
     1
  1
\C18;\c0;\FArial Bold|b1|i0|c1;\H2.997200;\W0.700000;50
 11
0.0000000000000003
 21
1.0
 31
0.0
 73
     1
 44
1.0
  0
ENDBLK
  5
20E
330
20B
100
AcDbEntity
  8
0
100
AcDbBlockEnd
  0
BLOCK
  5
219
330
217
100
AcDbEntity
  8
0
100
AcDbBlockBegin
  2
Block_2
 70
     0
 10
0.0
 20
0.0
 30
0.0
  3
Block_2
  1

  0
LWPOLYLINE
  5
21B
330
217
100
AcDbEntity
  8
CAPA_BASE
100
AcDbPolyline
 90
        4
 70
     1
 43
0.0
 10
142.5644863485661
 20
64.12864658301143
 10
142.2544863485657
 20
61.62864658301103
 10
142.8744863485658
 20
61.62864658301103
 10
142.8744863485658
 20
61.62864658301103
  0
HATCH
  5
21C
330
217
100
AcDbEntity
  8
CAPA_BASE
 62
    18
420
        0
440
 33554687
100
AcDbHatch
 10
0.0
 20
0.0
 30
0.0
210
0.0
220
0.0
230
1.0
  2
SOLID
 70
     1
 71
     1
 91
        1
 92
        1
 93
        3
 72
     1
 10
142.5644863485661
 20
64.12864658301143
 11
142.2544863485657
 21
61.62864658301103
 72
     1
 10
142.2544863485657
 20
61.62864658301103
 11
142.8744863485658
 21
61.62864658301103
 72
     1
 10
142.8744863485658
 20
61.62864658301103
 11
142.5644863485661
 21
64.12864658301143
 97
        1
330
21B
 75
     2
 76
     1
 98
        1
 10
0.0
 20
0.0
450
        0
451
        0
460
0.0
461
0.0
452
        0
462
0.0
453
        0
470

  0
LWPOLYLINE
  5
21D
330
217
100
AcDbEntity
  8
CAPA_BASE
100
AcDbPolyline
 90
        4
 70
     1
 43
0.0
 10
142.5644863485661
 20
25.12864658301134
 10
142.8744863485658
 20
27.62864658301111
 10
142.2544863485657
 20
27.62864658301111
 10
142.2544863485657
 20
27.62864658301111
  0
HATCH
  5
21E
330
217
100
AcDbEntity
  8
CAPA_BASE
 62
    18
420
        0
440
 33554687
100
AcDbHatch
 10
0.0
 20
0.0
 30
0.0
210
0.0
220
0.0
230
1.0
  2
SOLID
 70
     1
 71
     1
 91
        1
 92
        1
 93
        3
 72
     1
 10
142.5644863485661
 20
25.12864658301134
 11
142.8744863485658
 21
27.62864658301111
 72
     1
 10
142.8744863485658
 20
27.62864658301111
 11
142.2544863485657
 21
27.62864658301111
 72
     1
 10
142.2544863485657
 20
27.62864658301111
 11
142.5644863485661
 21
25.12864658301134
 97
        1
330
21D
 75
     2
 76
     1
 98
        1
 10
0.0
 20
0.0
450
        0
451
        0
460
0.0
461
0.0
452
        0
462
0.0
453
        0
470

  0
LINE
  5
21F
330
217
100
AcDbEntity
  8
CAPA_BASE
 62
    18
420
        0
370
    25
100
AcDbLine
 10
133.553212087266
 20
64.12864658301143
 30
0.0
 11
143.5644863485661
 21
64.12864658301143
 31
0.0
  0
LINE
  5
220
330
217
100
AcDbEntity
  8
CAPA_BASE
 62
    18
420
        0
370
    25
100
AcDbLine
 10
130.1532120872659
 20
25.12864658301134
 30
0.0
 11
143.5644863485661
 21
25.12864658301134
 31
0.0
  0
LINE
  5
221
330
217
100
AcDbEntity
  8
CAPA_BASE
 62
    18
420
        0
370
    25
100
AcDbLine
 10
142.5644863485661
 20
64.12864658301143
 30
0.0
 11
142.5644863485661
 21
25.12864658301134
 31
0.0
  0
MTEXT
  5
222
330
217
100
AcDbEntity
  8
CAPA_BASE
100
AcDbMText
 10
141.770737856285
 20
41.98296711189945
 30
0.0
 40
0.2
 41
0.0
 46
0.0
 71
     7
 72
     1
  1
\C18;\c0;\FArial Bold|b1|i0|c1;\H2.997200;\W0.700000;195
 11
0.0000000000000003
 21
1.0
 31
0.0
 73
     1
 44
1.0
  0
ENDBLK
  5
21A
330
217
100
AcDbEntity
  8
0
100
AcDbBlockEnd
  0
ENDSEC
  0
SECTION
  2
ENTITIES
  0
LINE
  5
78
330
70
100
AcDbEntity
  8
0
 62
    18
420
        0
370
    25
100
AcDbLine
 10
126.3042141700658
 20
105.832513217111
 30
0.0
 11
17.56221167916604
 21
105.832513217111
 31
0.0
  0
LINE
  5
79
330
70
100
AcDbEntity
  8
0
 62
    18
420
        0
370
    25
100
AcDbLine
 10
17.56221167916604
 20
103.8325132618111
 30
0.0
 11
126.3042141700658
 21
103.8325132618111
 31
0.0
  0
LWPOLYLINE
  5
7A
330
70
100
AcDbEntity
  8
0
 62
    18
420
        0
370
    25
100
AcDbPolyline
 90
        7
 70
     0
 43
0.0
 10
122.7531363273658
 20
109.6325926299113
 10
122.7544118667657
 20
109.6313170905111
 10
122.9106237198658
 20
109.475104119911
 10
123.223059346766
 20
109.1626670028111
 10
123.8479782844661
 20
108.5377476926112
 10
125.0979711319656
 20
107.287752423711
 10
126.4388491417661
 20
105.9468730169112
  0
LWPOLYLINE
  5
7B
330
70
100
AcDbEntity
  8
0
 62
    18
420
        0
370
    25
100
AcDbPolyline
 90
        4
 70
     0
 43
0.0
 10
128.6836196686658
 20
105.962919611711
 10
129.8378874565657
 20
107.1171870271111
 10
131.1383535171656
 20
108.4176603521112
 10
132.3532869125658
 20
109.6325926299113
  0
LWPOLYLINE
  5
7C
330
70
100
AcDbEntity
  8
0
 62
    18
420
        0
370
    25
100
AcDbPolyline
 90
        5
 70
     0
 43
0.0
 10
126.434688737566
 20
103.7139916609112
 10
126.2629915977661
 20
103.542289678311
 10
125.4765321518659
 20
102.755836751611
 10
124.665169885266
 20
101.9444668482112
 10
122.7531363273658
 20
100.0324338491112
  0
SPLINE
  5
7D
330
70
100
AcDbEntity
  8
0
 62
    18
420
        0
370
    25
100
AcDbSpline
210
0.0
220
0.0
230
1.0
 70
     8
 71
     3
 72
     8
 73
     4
 74
     0
 42
0.0000000001
 43
0.0000000001
 40
0.0
 40
0.0
 40
0.0
 40
0.0
 40
1.0
 40
1.0
 40
1.0
 40
1.0
 10
122.7447201515385
 20
100.0282306040742
 30
0.0
 10
122.7479644396646
 20
100.0284873703245
 30
0.0
 10
122.7509820941789
 20
100.0299944611482
 30
0.0
 10
122.7531363273806
 20
100.0324338491179
 30
0.0
  0
LINE
  5
7E
330
70
100
AcDbEntity
  8
0
 62
    18
420
        0
370
    25
100
AcDbLine
 10
122.7531363273658
 20
109.6325926299113
 30
0.0
 11
122.7447201515661
 21
109.6325892771111
 31
0.0
  0
LWPOLYLINE
  5
7F
330
70
100
AcDbEntity
  8
0
 62
    18
420
        0
370
    25
100
AcDbPolyline
 90
        5
 70
     0
 43
0.0
 10
128.6770750786661
 20
103.7086521092113
 10
128.8434316421656
 20
103.542289678311
 10
129.6298910881659
 20
102.755836751611
 10
130.4412533546656
 20
101.9444668482112
 10
132.3532869125658
 20
100.0324338491112
  0
SPLINE
  5
80
330
70
100
AcDbEntity
  8
0
 62
    18
420
        0
370
    25
100
AcDbSpline
210
0.0
220
0.0
230
1.0
 70
     8
 71
     3
 72
     8
 73
     4
 74
     0
 42
0.0000000001
 43
0.0000000001
 40
0.0
 40
0.0
 40
0.0
 40
0.0
 40
1.0
 40
1.0
 40
1.0
 40
1.0
 10
132.3574950005065
 20
100.0240173006848
 30
0.0
 10
132.3572353987011
 20
100.0272619656558
 30
0.0
 10
132.3557268071884
 20
100.0302792822321
 30
0.0
 10
132.353286912585
 20
100.032433849056
 30
0.0
  0
LWPOLYLINE
  5
81
330
70
100
AcDbEntity
  8
0
 62
    18
420
        0
370
    25
100
AcDbPolyline
 90
        7
 70
     0
 43
0.0
 10
122.7531363273658
 20
100.024015438111
 10
123.1531311775661
 20
100.0238567407113
 10
124.7531344200657
 20
100.023288633911
 10
127.953140905066
 20
100.0228185023111
 10
129.1720201278658
 20
100.0229790623109
 10
132.3532869125658
 20
100.024015438111
 10
132.357495000466
 20
100.0240173007111
  0
LINE
  5
82
330
70
100
AcDbEntity
  8
0
 62
    18
420
        0
370
    25
100
AcDbLine
 10
122.7531363273658
 20
100.0324338491112
 30
0.0
 11
122.7531363273658
 21
100.024015438111
 31
0.0
  0
SPLINE
  5
83
330
70
100
AcDbEntity
  8
0
 62
    18
420
        0
370
    25
100
AcDbSpline
210
0.0
220
0.0
230
1.0
 70
     8
 71
     3
 72
     8
 73
     4
 74
     0
 42
0.0000000001
 43
0.0000000001
 40
0.0
 40
0.0
 40
0.0
 40
0.0
 40
1.0
 40
1.0
 40
1.0
 40
1.0
 10
132.3617030883932
 20
109.6367958749486
 30
0.0
 10
132.358458800267
 20
109.6365391086981
 30
0.0
 10
132.3554411457527
 20
109.6350320178746
 30
0.0
 10
132.353286912551
 20
109.6325926299049
 30
0.0
  0
LWPOLYLINE
  5
84
330
70
100
AcDbEntity
  8
0
 62
    18
420
        0
370
    25
100
AcDbPolyline
 90
        7
 70
     0
 43
0.0
 10
132.3617150093659
 20
100.0324372018112
 10
132.3618699814659
 20
100.4324372674112
 10
132.3624421859656
 20
102.032436970911
 10
132.3629071022657
 20
105.232436936611
 10
132.3627521301657
 20
106.4513178358111
 10
132.3617150093659
 20
109.6325892771111
 10
132.3617030884657
 20
109.6367958749111
  0
LINE
  5
85
330
70
100
AcDbEntity
  8
0
 62
    18
420
        0
370
    25
100
AcDbLine
 10
132.3532869125658
 20
100.0324338491112
 30
0.0
 11
132.3617150093659
 21
100.0324372018112
 31
0.0
  0
SPLINE
  5
86
330
70
100
AcDbEntity
  8
0
 62
    18
420
        0
370
    25
100
AcDbSpline
210
0.0
220
0.0
230
1.0
 70
     8
 71
     3
 72
     8
 73
     4
 74
     0
 42
0.0000000001
 43
0.0000000001
 40
0.0
 40
0.0
 40
0.0
 40
0.0
 40
1.0
 40
1.0
 40
1.0
 40
1.0
 10
132.5532128120317
 20
109.6325132812368
 30
0.0
 10
132.4869301583312
 20
109.6409838191806
 30
0.0
 10
132.4200492749959
 20
109.6438265607986
 30
0.0
 10
132.353286912526
 20
109.6410110409365
 30
0.0
  0
SPLINE
  5
87
330
70
100
AcDbEntity
  8
0
 62
    18
420
        0
370
    25
100
AcDbSpline
210
0.0
220
0.0
230
1.0
 70
     8
 71
     3
 72
     8
 73
     4
 74
     0
 42
0.0000000001
 43
0.0000000001
 40
0.0
 40
0.0
 40
0.0
 40
0.0
 40
1.0
 40
1.0
 40
1.0
 40
1.0
 10
132.5532128121004
 20
109.6325132811835
 30
0.0
 10
132.4895099813234
 20
109.6375886103326
 30
0.0
 10
132.4255691175092
 20
109.6390184737203
 30
0.0
 10
132.3617030884362
 20
109.6367958749105
 30
0.0
  0
LINE
  5
88
330
70
100
AcDbEntity
  8
0
 62
    18
420
        0
370
    25
100
AcDbLine
 10
132.3532869125658
 20
109.6325926299113
 30
0.0
 11
132.3532869125658
 21
109.6410110409112
 31
0.0
  0
LINE
  5
89
330
70
100
AcDbEntity
  8
0
 62
    18
420
        0
370
    25
100
AcDbLine
 10
132.5532128120657
 20
109.6325132812111
 30
0.0
 11
132.5532128120657
 21
100.0325131978111
 31
0.0
  0
SPLINE
  5
8A
330
70
100
AcDbEntity
  8
0
 62
    18
420
        0
370
    25
100
AcDbSpline
210
0.0
220
0.0
230
1.0
 70
     8
 71
     3
 72
     8
 73
     4
 74
     0
 42
0.0000000001
 43
0.0000000001
 40
0.0
 40
0.0
 40
0.0
 40
0.0
 40
1.0
 40
1.0
 40
1.0
 40
1.0
 10
132.3617150092106
 20
100.0324372018087
 30
0.0
 10
132.4255476202211
 20
100.0324133382605
 30
0.0
 10
132.489380240134
 20
100.032438670242
 30
0.0
 10
132.5532128120984
 20
100.0325131977308
 30
0.0
  0
SPLINE
  5
8B
330
70
100
AcDbEntity
  8
0
 62
    18
420
        0
370
    25
100
AcDbSpline
210
0.0
220
0.0
230
1.0
 70
     8
 71
     3
 72
     8
 73
     4
 74
     0
 42
0.0000000001
 43
0.0000000001
 40
0.0
 40
0.0
 40
0.0
 40
0.0
 40
1.0
 40
1.0
 40
1.0
 40
1.0
 10
122.5532104278723
 20
100.0325131977228
 30
0.0
 10
122.6194931147076
 20
100.0240430496156
 30
0.0
 10
122.6863739649742
 20
100.021200309403
 30
0.0
 10
122.7531363273787
 20
100.0240154380231
 30
0.0
  0
SPLINE
  5
8C
330
70
100
AcDbEntity
  8
0
 62
    18
420
        0
370
    25
100
AcDbSpline
210
0.0
220
0.0
230
1.0
 70
     8
 71
     3
 72
     8
 73
     4
 74
     0
 42
0.0000000001
 43
0.0000000001
 40
0.0
 40
0.0
 40
0.0
 40
0.0
 40
1.0
 40
1.0
 40
1.0
 40
1.0
 10
122.5532104279301
 20
100.0325131977228
 30
0.0
 10
122.6169132587071
 20
100.0274378685734
 30
0.0
 10
122.6808541225206
 20
100.0260080051857
 30
0.0
 10
122.744720151593
 20
100.0282306039956
 30
0.0
  0
LINE
  5
8D
330
70
100
AcDbEntity
  8
0
 62
    18
420
        0
370
    25
100
AcDbLine
 10
122.5532104278659
 20
100.0325131978111
 30
0.0
 11
122.5532104278659
 21
103.8325132618111
 31
0.0
  0
LINE
  5
8E
330
70
100
AcDbEntity
  8
0
 62
    18
420
        0
370
    25
100
AcDbLine
 10
122.5532104278659
 20
105.832513217111
 30
0.0
 11
122.5532104278659
 21
109.6325132812111
 31
0.0
  0
SPLINE
  5
8F
330
70
100
AcDbEntity
  8
0
 62
    18
420
        0
370
    25
100
AcDbSpline
210
0.0
220
0.0
230
1.0
 70
     8
 71
     3
 72
     8
 73
     4
 74
     0
 42
0.0000000001
 43
0.0000000001
 40
0.0
 40
0.0
 40
0.0
 40
0.0
 40
1.0
 40
1.0
 40
1.0
 40
1.0
 10
122.7447201514833
 20
109.6325892771577
 30
0.0
 10
122.6808835669356
 20
109.6326131449147
 30
0.0
 10
122.6170469734888
 20
109.6325878129333
 30
0.0
 10
122.5532104279885
 20
109.6325132812358
 30
0.0
  0
LINE
  5
90
330
70
100
AcDbEntity
  8
0
 62
    18
420
        0
370
    25
100
AcDbLine
 10
132.3532153869659
 20
99.83251316501128
 30
0.0
 11
122.7532078529658
 21
99.83251316501128
 31
0.0
  0
SPLINE
  5
91
330
70
100
AcDbEntity
  8
0
 62
    18
420
        0
370
    25
100
AcDbSpline
210
0.0
220
0.0
230
1.0
 70
     8
 71
     3
 72
     8
 73
     4
 74
     0
 42
0.0000000001
 43
0.0000000001
 40
0.0
 40
0.0
 40
0.0
 40
0.0
 40
1.0
 40
1.0
 40
1.0
 40
1.0
 10
122.7531363273928
 20
100.0240154379563
 30
0.0
 10
122.7531224973526
 20
99.96018133847258
 30
0.0
 10
122.7531463392146
 20
99.89634723638737
 30
0.0
 10
122.7532078529664
 20
99.832513165044
 30
0.0
  0
SPLINE
  5
92
330
70
100
AcDbEntity
  8
0
 62
    18
420
        0
370
    25
100
AcDbSpline
210
0.0
220
0.0
230
1.0
 70
     8
 71
     3
 72
     8
 73
     4
 74
     0
 42
0.0000000001
 43
0.0000000001
 40
0.0
 40
0.0
 40
0.0
 40
0.0
 40
1.0
 40
1.0
 40
1.0
 40
1.0
 10
132.3532153869556
 20
99.83251316496478
 30
0.0
 10
132.3582901664882
 20
99.89621416340062
 30
0.0
 10
132.3597190355446
 20
99.9601531929553
 30
0.0
 10
132.3574950004506
 20
100.0240173006912
 30
0.0
  0
SPLINE
  5
93
330
70
100
AcDbEntity
  8
0
 62
    18
420
        0
370
    25
100
AcDbSpline
210
0.0
220
0.0
230
1.0
 70
     8
 71
     3
 72
     8
 73
     4
 74
     0
 42
0.0000000001
 43
0.0000000001
 40
0.0
 40
0.0
 40
0.0
 40
0.0
 40
1.0
 40
1.0
 40
1.0
 40
1.0
 10
132.3532153870268
 20
99.83251316495385
 30
0.0
 10
132.3616759851382
 20
99.89879603905132
 30
0.0
 10
132.3645193120062
 20
99.96567540880597
 30
0.0
 10
132.3617150093716
 20
100.0324372018148
 30
0.0
  0
SPLINE
  5
94
330
70
100
AcDbEntity
  8
0
 62
    18
420
        0
370
    25
100
AcDbSpline
210
0.0
220
0.0
230
1.0
 70
     8
 71
     3
 72
     8
 73
     4
 74
     0
 42
0.0000000001
 43
0.0000000001
 40
0.0
 40
0.0
 40
0.0
 40
0.0
 40
1.0
 40
1.0
 40
1.0
 40
1.0
 10
122.753207852926
 20
109.8325133140385
 30
0.0
 10
122.7447408698347
 20
109.7662309829943
 30
0.0
 10
122.7419014935579
 20
109.6993507359597
 30
0.0
 10
122.7447201515096
 20
109.6325892771779
 30
0.0
  0
SPLINE
  5
95
330
70
100
AcDbEntity
  8
0
 62
    18
420
        0
370
    25
100
AcDbSpline
210
0.0
220
0.0
230
1.0
 70
     8
 71
     3
 72
     8
 73
     4
 74
     0
 42
0.0000000001
 43
0.0000000001
 40
0.0
 40
0.0
 40
0.0
 40
0.0
 40
1.0
 40
1.0
 40
1.0
 40
1.0
 10
122.7532078529594
 20
109.8325133139586
 30
0.0
 10
122.7481330734268
 20
109.7688123155224
 30
0.0
 10
122.7467042043703
 20
109.7048732859668
 30
0.0
 10
122.748928239465
 20
109.6410091782302
 30
0.0
  0
SPLINE
  5
96
330
70
100
AcDbEntity
  8
0
 62
    18
420
        0
370
    25
100
AcDbSpline
210
0.0
220
0.0
230
1.0
 70
     8
 71
     3
 72
     8
 73
     4
 74
     0
 42
0.0000000001
 43
0.0000000001
 40
0.0
 40
0.0
 40
0.0
 40
0.0
 40
1.0
 40
1.0
 40
1.0
 40
1.0
 10
122.7489282395259
 20
109.6410091782376
 30
0.0
 10
122.7491878413313
 20
109.6377645132666
 30
0.0
 10
122.750696432844
 20
109.6347471966903
 30
0.0
 10
122.7531363274467
 20
109.6325926298664
 30
0.0
  0
LWPOLYLINE
  5
97
330
70
100
AcDbEntity
  8
0
 62
    18
420
        0
370
    25
100
AcDbPolyline
 90
        6
 70
     0
 43
0.0
 10
127.5532175804656
 20
109.6422176624112
 10
127.1532108093658
 20
109.642206859111
 10
125.5532075668656
 20
109.6419613625112
 10
124.1531779075661
 20
109.6415418948112
 10
122.7531363273658
 20
109.6410110409112
 10
122.7489282394656
 20
109.6410091783111
  0
LINE
  5
98
330
70
100
AcDbEntity
  8
0
 62
    18
420
        0
370
    25
100
AcDbLine
 10
122.7532078529658
 20
109.8325133140112
 30
0.0
 11
127.5532175804656
 21
109.8325133140112
 31
0.0
  0
LINE
  5
99
330
70
100
AcDbEntity
  8
0
 62
    18
420
        0
370
    25
100
AcDbLine
 10
127.5532175804656
 20
109.6422176624112
 30
0.0
 11
127.5532175804656
 21
109.8325133140112
 31
0.0
  0
LINE
  5
9A
330
70
100
AcDbEntity
  8
0
 62
    18
420
        0
370
    25
100
AcDbLine
 10
127.5532175804656
 20
109.6325926299113
 30
0.0
 11
127.5532175804656
 21
109.6422176624112
 31
0.0
  0
LINE
  5
9B
330
70
100
AcDbEntity
  8
0
 62
    18
420
        0
370
    25
100
AcDbLine
 10
127.5532175804656
 20
109.6325926299113
 30
0.0
 11
122.7531363273658
 21
109.6325926299113
 31
0.0
  0
LWPOLYLINE
  5
9C
330
70
100
AcDbEntity
  8
0
 62
    18
420
        0
370
    25
100
AcDbPolyline
 90
        5
 70
     0
 43
0.0
 10
132.3532869125658
 20
109.6410110409112
 10
131.9532920623661
 20
109.6411697383112
 10
130.3532888199661
 20
109.6417397077113
 10
128.9532472397658
 20
109.6420880223112
 10
127.5532175804656
 20
109.6422176624112
  0
LINE
  5
9D
330
70
100
AcDbEntity
  8
0
 62
    18
420
        0
370
    25
100
AcDbLine
 10
132.3532869125658
 20
109.6325926299113
 30
0.0
 11
127.5532175804656
 21
109.6325926299113
 31
0.0
  0
LINE
  5
9E
330
70
100
AcDbEntity
  8
0
 62
    18
420
        0
370
    25
100
AcDbLine
 10
127.5532175804656
 20
109.8325133140112
 30
0.0
 11
132.3532153869659
 21
109.8325133140112
 31
0.0
  0
SPLINE
  5
9F
330
70
100
AcDbEntity
  8
0
 62
    18
420
        0
370
    25
100
AcDbSpline
210
0.0
220
0.0
230
1.0
 70
     8
 71
     3
 72
     8
 73
     4
 74
     0
 42
0.0000000001
 43
0.0000000001
 40
0.0
 40
0.0
 40
0.0
 40
0.0
 40
1.0
 40
1.0
 40
1.0
 40
1.0
 10
132.3532869125369
 20
109.6410110409705
 30
0.0
 10
132.3533130322232
 20
109.7048451408496
 30
0.0
 10
132.353289190358
 20
109.7686792513982
 30
0.0
 10
132.3532153869633
 20
109.8325133139561
 30
0.0
  0
SPLINE
  5
A0
330
70
100
AcDbEntity
  8
0
 62
    18
420
        0
370
    25
100
AcDbSpline
210
0.0
220
0.0
230
1.0
 70
     8
 71
     3
 72
     8
 73
     4
 74
     0
 42
0.0000000001
 43
0.0000000001
 40
0.0
 40
0.0
 40
0.0
 40
0.0
 40
1.0
 40
1.0
 40
1.0
 40
1.0
 10
132.553212087266
 20
109.6325132395899
 30
0.0
 10
132.5532120872224
 20
109.7429701895253
 30
0.0
 10
132.4636690372014
 20
109.8325132395113
 30
0.0
 10
132.353212087266
 20
109.8325132395113
 30
0.0
  0
SPLINE
  5
A1
330
70
100
AcDbEntity
  8
0
 62
    18
420
        0
370
    25
100
AcDbSpline
210
0.0
220
0.0
230
1.0
 70
     8
 71
     3
 72
    11
 73
     7
 74
     0
 42
0.0000000001
 43
0.0000000001
 40
0.0
 40
0.0
 40
0.0
 40
0.0
 40
1.0
 40
1.0
 40
1.0
 40
2.0
 40
2.0
 40
2.0
 40
2.0
 10
122.5532120872656
 20
100.0325132399842
 30
0.0
 10
122.5532120870045
 20
99.92205629001801
 30
0.0
 10
122.6427551368265
 20
99.83251323977242
 30
0.0
 10
122.7532120867927
 20
99.83251323951126
 30
0.0
 10
122.7532120870295
 20
99.83251323951126
 30
0.0
 10
122.7532120870295
 20
99.83251323951126
 30
0.0
 10
122.7532120872656
 20
99.83251323951126
 30
0.0
  0
SPLINE
  5
A2
330
70
100
AcDbEntity
  8
0
 62
    18
420
        0
370
    25
100
AcDbSpline
210
0.0
220
0.0
230
1.0
 70
     8
 71
     3
 72
     8
 73
     4
 74
     0
 42
0.0000000001
 43
0.0000000001
 40
0.0
 40
0.0
 40
0.0
 40
0.0
 40
1.0
 40
1.0
 40
1.0
 40
1.0
 10
122.7532120872656
 20
109.8325132395113
 30
0.0
 10
122.6427551372994
 20
109.8325132395113
 30
0.0
 10
122.5532120872656
 20
109.7429701894771
 30
0.0
 10
122.5532120872656
 20
109.6325132395113
 30
0.0
  0
SPLINE
  5
A3
330
70
100
AcDbEntity
  8
0
 62
    18
420
        0
370
    25
100
AcDbSpline
210
0.0
220
0.0
230
1.0
 70
     8
 71
     3
 72
     8
 73
     4
 74
     0
 42
0.0000000001
 43
0.0000000001
 40
0.0
 40
0.0
 40
0.0
 40
0.0
 40
1.0
 40
1.0
 40
1.0
 40
1.0
 10
132.353212087266
 20
99.83251323951126
 30
0.0
 10
132.4636690372322
 20
99.83251323951126
 30
0.0
 10
132.553212087266
 20
99.92205628954508
 30
0.0
 10
132.553212087266
 20
100.0325132395112
 30
0.0
  0
CIRCLE
  5
A4
330
70
100
AcDbEntity
  8
0
 62
    18
420
        0
370
    25
100
AcDbCircle
 10
16.31321208726595
 20
104.8325132395111
 30
0.0
 40
1.600000000000056
  0
LINE
  5
A5
330
70
100
AcDbEntity
  8
0
 62
    18
420
        0
370
    25
100
AcDbLine
 10
17.42856018426578
 20
105.9478613364111
 30
0.0
 11
21.11329147766584
 21
109.6325926299113
 31
0.0
  0
SPLINE
  5
A6
330
70
100
AcDbEntity
  8
0
 62
    18
420
        0
370
    25
100
AcDbSpline
210
0.0
220
0.0
230
1.0
 70
     8
 71
     3
 72
     8
 73
     4
 74
     0
 42
0.0000000001
 43
0.0000000001
 40
0.0
 40
0.0
 40
0.0
 40
0.0
 40
1.0
 40
1.0
 40
1.0
 40
1.0
 10
21.12170802606594
 20
109.6367958748935
 30
0.0
 10
21.11846368422638
 20
109.6365389203186
 30
0.0
 10
21.115445980033
 20
109.6350318713911
 30
0.0
 10
21.1132914776944
 20
109.6325926298497
 30
0.0
  0
LINE
  5
A7
330
70
100
AcDbEntity
  8
0
 62
    18
420
        0
370
    25
100
AcDbLine
 10
21.11329147766584
 20
100.0324338491112
 30
0.0
 11
21.12170988866606
 21
100.0324372018112
 31
0.0
  0
LINE
  5
A8
330
70
100
AcDbEntity
  8
0
 62
    18
420
        0
370
    25
100
AcDbLine
 10
17.42525035696577
 20
103.7204749698113
 30
0.0
 11
21.11329147766584
 21
100.0324338491112
 31
0.0
  0
LINE
  5
A9
330
70
100
AcDbEntity
  8
0
 62
    18
420
        0
370
    25
100
AcDbLine
 10
15.18904483126588
 20
105.9566804955112
 30
0.0
 11
11.51313269686575
 21
109.6325926299113
 31
0.0
  0
SPLINE
  5
AA
330
70
100
AcDbEntity
  8
0
 62
    18
420
        0
370
    25
100
AcDbSpline
210
0.0
220
0.0
230
1.0
 70
     8
 71
     3
 72
     8
 73
     4
 74
     0
 42
0.0000000001
 43
0.0000000001
 40
0.0
 40
0.0
 40
0.0
 40
0.0
 40
1.0
 40
1.0
 40
1.0
 40
1.0
 10
11.5089294518839
 20
109.6410091783111
 30
0.0
 10
11.50918640645841
 20
109.6377648364715
 30
0.0
 10
11.51069345538594
 20
109.6347471322781
 30
0.0
 10
11.51313269692735
 20
109.6325926299395
 30
0.0
  0
LWPOLYLINE
  5
AB
330
70
100
AcDbEntity
  8
0
 62
    18
420
        0
370
    25
100
AcDbPolyline
 90
        7
 70
     0
 43
0.0
 10
21.11328812496579
 20
109.6410110409112
 10
20.71328805936585
 20
109.6411697383112
 10
19.11328835586604
 20
109.6417378450111
 10
15.91328839016602
 20
109.6422079767111
 10
14.69440749096596
 20
109.6420474167112
 10
11.51313604966591
 20
109.6410110409112
 10
11.50892945186594
 20
109.6410091783111
  0
LINE
  5
AC
330
70
100
AcDbEntity
  8
0
 62
    18
420
        0
370
    25
100
AcDbLine
 10
21.11329147766584
 20
109.6325926299113
 30
0.0
 11
21.11328812496579
 21
109.6410110409112
 31
0.0
  0
SPLINE
  5
AD
330
70
100
AcDbEntity
  8
0
 62
    18
420
        0
370
    25
100
AcDbSpline
210
0.0
220
0.0
230
1.0
 70
     8
 71
     3
 72
     8
 73
     4
 74
     0
 42
0.0000000001
 43
0.0000000001
 40
0.0
 40
0.0
 40
0.0
 40
0.0
 40
1.0
 40
1.0
 40
1.0
 40
1.0
 10
11.50471614846598
 20
100.0282306040293
 30
0.0
 10
11.50796049030553
 20
100.0284875586038
 30
0.0
 10
11.51097819449892
 20
100.0299946075313
 30
0.0
 10
11.5131326968372
 20
100.032433849073
 30
0.0
  0
LWPOLYLINE
  5
AE
330
70
100
AcDbEntity
  8
0
 62
    18
420
        0
370
    25
100
AcDbPolyline
 90
        7
 70
     0
 43
0.0
 10
11.50471428586585
 20
109.6325892771111
 10
11.5045555884658
 20
109.232589211611
 10
11.50398748176597
 20
107.6325895081112
 10
11.50351735006595
 20
104.4325895424112
 10
11.50367791006581
 20
103.213708643111
 10
11.50471428586585
 20
100.0324372018112
 10
11.50471614846598
 20
100.0282306040113
  0
LINE
  5
AF
330
70
100
AcDbEntity
  8
0
 62
    18
420
        0
370
    25
100
AcDbLine
 10
11.51313269686575
 20
109.6325926299113
 30
0.0
 11
11.50471428586585
 21
109.6325892771111
 31
0.0
  0
LINE
  5
B0
330
70
100
AcDbEntity
  8
0
 62
    18
420
        0
370
    25
100
AcDbLine
 10
15.20333932886586
 20
103.722640481111
 30
0.0
 11
11.51313269686575
 21
100.0324338491112
 31
0.0
  0
LWPOLYLINE
  5
B1
330
70
100
AcDbEntity
  8
0
 62
    18
420
        0
370
    25
100
AcDbPolyline
 90
        5
 70
     0
 43
0.0
 10
11.51313604966591
 20
100.024015438111
 10
11.91313611516575
 20
100.0238567407113
 10
13.51313581866588
 20
100.0232867713112
 10
14.91317385986581
 20
100.0229384566112
 10
16.31321208726595
 20
100.0228088165112
  0
LINE
  5
B2
330
70
100
AcDbEntity
  8
0
 62
    18
420
        0
370
    25
100
AcDbLine
 10
11.51313269686575
 20
100.0324338491112
 30
0.0
 11
11.51313604966591
 21
100.024015438111
 31
0.0
  0
SPLINE
  5
B3
330
70
100
AcDbEntity
  8
0
 62
    18
420
        0
370
    25
100
AcDbSpline
210
0.0
220
0.0
230
1.0
 70
     8
 71
     3
 72
     8
 73
     4
 74
     0
 42
0.0000000001
 43
0.0000000001
 40
0.0
 40
0.0
 40
0.0
 40
0.0
 40
1.0
 40
1.0
 40
1.0
 40
1.0
 10
21.11749472274844
 20
100.0240173007114
 30
0.0
 10
21.11723776817361
 20
100.0272616425507
 30
0.0
 10
21.11573071924608
 20
100.0302793467444
 30
0.0
 10
21.11329147770466
 20
100.0324338490827
 30
0.0
  0
LWPOLYLINE
  5
B4
330
70
100
AcDbEntity
  8
0
 62
    18
420
        0
370
    25
100
AcDbPolyline
 90
        6
 70
     0
 43
0.0
 10
16.31321208726595
 20
100.0228088165112
 10
16.71321210626604
 20
100.0228196199111
 10
18.31321204256591
 20
100.023065116511
 10
19.71325027006584
 20
100.0234845842113
 10
21.11328812496579
 20
100.024015438111
 10
21.11749472276576
 20
100.0240173007111
  0
SPLINE
  5
B5
330
70
100
AcDbEntity
  8
0
 62
    18
420
        0
370
    25
100
AcDbSpline
210
0.0
220
0.0
230
1.0
 70
     8
 71
     3
 72
     8
 73
     4
 74
     0
 42
0.0000000001
 43
0.0000000001
 40
0.0
 40
0.0
 40
0.0
 40
0.0
 40
1.0
 40
1.0
 40
1.0
 40
1.0
 10
11.31321201273404
 20
100.032513197779
 30
0.0
 10
11.37949401625991
 20
100.0240423546893
 30
0.0
 10
11.44637430683313
 20
100.0211996117812
 30
0.0
 10
11.51313604959275
 20
100.0240154380792
 30
0.0
  0
SPLINE
  5
B6
330
70
100
AcDbEntity
  8
0
 62
    18
420
        0
370
    25
100
AcDbSpline
210
0.0
220
0.0
230
1.0
 70
     8
 71
     3
 72
     8
 73
     4
 74
     0
 42
0.0000000001
 43
0.0000000001
 40
0.0
 40
0.0
 40
0.0
 40
0.0
 40
1.0
 40
1.0
 40
1.0
 40
1.0
 10
11.3132120128104
 20
100.0325131978011
 30
0.0
 10
11.37691296607611
 20
100.0274376536585
 30
0.0
 10
11.44085198258921
 20
100.0260077898594
 30
0.0
 10
11.50471614853753
 20
100.0282306040739
 30
0.0
  0
LINE
  5
B7
330
70
100
AcDbEntity
  8
0
 62
    18
420
        0
370
    25
100
AcDbLine
 10
11.3132120127658
 20
100.0325131978111
 30
0.0
 11
11.3132120127658
 21
109.6325132812111
 31
0.0
  0
SPLINE
  5
B8
330
70
100
AcDbEntity
  8
0
 62
    18
420
        0
370
    25
100
AcDbSpline
210
0.0
220
0.0
230
1.0
 70
     8
 71
     3
 72
     8
 73
     4
 74
     0
 42
0.0000000001
 43
0.0000000001
 40
0.0
 40
0.0
 40
0.0
 40
0.0
 40
1.0
 40
1.0
 40
1.0
 40
1.0
 10
11.50471428598906
 20
109.6325892771021
 30
0.0
 10
11.44088018489815
 20
109.6326131457274
 30
0.0
 10
11.37704607490815
 20
109.6325878137457
 30
0.0
 10
11.31321201286687
 20
109.6325132811803
 30
0.0
  0
SPLINE
  5
B9
330
70
100
AcDbEntity
  8
0
 62
    18
420
        0
370
    25
100
AcDbSpline
210
0.0
220
0.0
230
1.0
 70
     8
 71
     3
 72
     8
 73
     4
 74
     0
 42
0.0000000001
 43
0.0000000001
 40
0.0
 40
0.0
 40
0.0
 40
0.0
 40
1.0
 40
1.0
 40
1.0
 40
1.0
 10
21.31321216179755
 20
109.6325132812432
 30
0.0
 10
21.24693015827168
 20
109.6409841243329
 30
0.0
 10
21.18004986769879
 20
109.643826867241
 30
0.0
 10
21.11328812493884
 20
109.641011040943
 30
0.0
  0
SPLINE
  5
BA
330
70
100
AcDbEntity
  8
0
 62
    18
420
        0
370
    25
100
AcDbSpline
210
0.0
220
0.0
230
1.0
 70
     8
 71
     3
 72
     8
 73
     4
 74
     0
 42
0.0000000001
 43
0.0000000001
 40
0.0
 40
0.0
 40
0.0
 40
0.0
 40
1.0
 40
1.0
 40
1.0
 40
1.0
 10
21.31321216182065
 20
109.6325132812127
 30
0.0
 10
21.24951120855431
 20
109.6375888253554
 30
0.0
 10
21.18557219204057
 20
109.6390186891544
 30
0.0
 10
21.12170802609161
 20
109.6367958749397
 30
0.0
  0
LINE
  5
BB
330
70
100
AcDbEntity
  8
0
 62
    18
420
        0
370
    25
100
AcDbLine
 10
21.31321216176579
 20
109.6325132812111
 30
0.0
 11
21.31321216176579
 21
105.832513217111
 31
0.0
  0
LINE
  5
BC
330
70
100
AcDbEntity
  8
0
 62
    18
420
        0
370
    25
100
AcDbLine
 10
21.31321216176579
 20
103.8325132618111
 30
0.0
 11
21.31321216176579
 21
100.0325131978111
 31
0.0
  0
SPLINE
  5
BD
330
70
100
AcDbEntity
  8
0
 62
    18
420
        0
370
    25
100
AcDbSpline
210
0.0
220
0.0
230
1.0
 70
     8
 71
     3
 72
     8
 73
     4
 74
     0
 42
0.0000000001
 43
0.0000000001
 40
0.0
 40
0.0
 40
0.0
 40
0.0
 40
1.0
 40
1.0
 40
1.0
 40
1.0
 10
21.12170988864296
 20
100.0324372018215
 30
0.0
 10
21.18554398973355
 20
100.0324133331966
 30
0.0
 10
21.24937809972387
 20
100.032438665178
 30
0.0
 10
21.31321216176515
 20
100.0325131977434
 30
0.0
  0
SPLINE
  5
BE
330
70
100
AcDbEntity
  8
0
 62
    18
420
        0
370
    25
100
AcDbSpline
210
0.0
220
0.0
230
1.0
 70
     8
 71
     3
 72
     8
 73
     4
 74
     0
 42
0.0000000001
 43
0.0000000001
 40
0.0
 40
0.0
 40
0.0
 40
0.0
 40
1.0
 40
1.0
 40
1.0
 40
1.0
 10
11.51321204554187
 20
109.832513314044
 30
0.0
 10
11.50474120245184
 20
109.7662313105171
 30
0.0
 10
11.50189845954376
 20
109.699351019943
 30
0.0
 10
11.50471428584179
 20
109.6325892771824
 30
0.0
  0
SPLINE
  5
BF
330
70
100
AcDbEntity
  8
0
 62
    18
420
        0
370
    25
100
AcDbSpline
210
0.0
220
0.0
230
1.0
 70
     8
 71
     3
 72
     8
 73
     4
 74
     0
 42
0.0000000001
 43
0.0000000001
 40
0.0
 40
0.0
 40
0.0
 40
0.0
 40
1.0
 40
1.0
 40
1.0
 40
1.0
 10
11.51321204557428
 20
109.832513313965
 30
0.0
 10
11.50813650143132
 20
109.768812360699
 30
0.0
 10
11.50670663763257
 20
109.7048733441859
 30
0.0
 10
11.50892945184701
 20
109.6410091782373
 30
0.0
  0
LINE
  5
C0
330
70
100
AcDbEntity
  8
0
 62
    18
420
        0
370
    25
100
AcDbLine
 10
11.51321204556594
 20
109.8325133140112
 30
0.0
 11
21.11321212896598
 21
109.8325133140112
 31
0.0
  0
SPLINE
  5
C1
330
70
100
AcDbEntity
  8
0
 62
    18
420
        0
370
    25
100
AcDbSpline
210
0.0
220
0.0
230
1.0
 70
     8
 71
     3
 72
     8
 73
     4
 74
     0
 42
0.0000000001
 43
0.0000000001
 40
0.0
 40
0.0
 40
0.0
 40
0.0
 40
1.0
 40
1.0
 40
1.0
 40
1.0
 10
21.11328812496964
 20
109.6410110409478
 30
0.0
 10
21.11331199359492
 20
109.7048451420172
 30
0.0
 10
21.11328666161316
 20
109.7686792520194
 30
0.0
 10
21.11321212904747
 20
109.8325133140392
 30
0.0
  0
SPLINE
  5
C2
330
70
100
AcDbEntity
  8
0
 62
    18
420
        0
370
    25
100
AcDbSpline
210
0.0
220
0.0
230
1.0
 70
     8
 71
     3
 72
     8
 73
     4
 74
     0
 42
0.0000000001
 43
0.0000000001
 40
0.0
 40
0.0
 40
0.0
 40
0.0
 40
1.0
 40
1.0
 40
1.0
 40
1.0
 10
21.11321212905742
 20
99.83251316495707
 30
0.0
 10
21.11828767320038
 20
99.89621411822309
 30
0.0
 10
21.11971753699945
 20
99.9601531347365
 30
0.0
 10
21.11749472278469
 20
100.0240173006851
 30
0.0
  0
LINE
  5
C3
330
70
100
AcDbEntity
  8
0
 62
    18
420
        0
370
    25
100
AcDbLine
 10
21.11321212896598
 20
99.83251316501128
 30
0.0
 11
16.31321208726595
 21
99.83251316501128
 31
0.0
  0
LINE
  5
C4
330
70
100
AcDbEntity
  8
0
 62
    18
420
        0
370
    25
100
AcDbLine
 10
16.31321208726595
 20
100.0228088165112
 30
0.0
 11
16.31321208726595
 21
99.83251316501128
 31
0.0
  0
SPLINE
  5
C5
330
70
100
AcDbEntity
  8
0
 62
    18
420
        0
370
    25
100
AcDbSpline
210
0.0
220
0.0
230
1.0
 70
     8
 71
     3
 72
     8
 73
     4
 74
     0
 42
0.0000000001
 43
0.0000000001
 40
0.0
 40
0.0
 40
0.0
 40
0.0
 40
1.0
 40
1.0
 40
1.0
 40
1.0
 10
21.11321212899036
 20
99.83251316497824
 30
0.0
 10
21.12168297208008
 20
99.89879516850507
 30
0.0
 10
21.12452571498816
 20
99.96567545907925
 30
0.0
 10
21.12170988869012
 20
100.0324372018398
 30
0.0
  0
LINE
  5
C6
330
70
100
AcDbEntity
  8
0
 62
    18
420
        0
370
    25
100
AcDbLine
 10
16.31321208726595
 20
99.83251316501128
 30
0.0
 11
11.51321204556594
 21
99.83251316501128
 31
0.0
  0
SPLINE
  5
C7
330
70
100
AcDbEntity
  8
0
 62
    18
420
        0
370
    25
100
AcDbSpline
210
0.0
220
0.0
230
1.0
 70
     8
 71
     3
 72
     8
 73
     4
 74
     0
 42
0.0000000001
 43
0.0000000001
 40
0.0
 40
0.0
 40
0.0
 40
0.0
 40
1.0
 40
1.0
 40
1.0
 40
1.0
 10
11.51313604968388
 20
100.0240154380725
 30
0.0
 10
11.51311218105892
 20
99.96018133700566
 30
0.0
 10
11.51313751304067
 20
99.89634722700571
 30
0.0
 10
11.51321204560636
 20
99.83251316498883
 30
0.0
  0
SPLINE
  5
C8
330
70
100
AcDbEntity
  8
0
 62
    18
420
        0
370
    25
100
AcDbSpline
210
0.0
220
0.0
230
1.0
 70
     8
 71
     3
 72
    11
 73
     7
 74
     0
 42
0.0000000001
 43
0.0000000001
 40
0.0
 40
0.0
 40
0.0
 40
0.0
 40
1.0
 40
1.0
 40
1.0
 40
2.0
 40
2.0
 40
2.0
 40
2.0
 10
11.31321208726578
 20
100.0325132395899
 30
0.0
 10
11.31321208722247
 20
99.92205628962402
 30
0.0
 10
11.40275513722099
 20
99.83251323955457
 30
0.0
 10
11.51321208718686
 20
99.83251323951126
 30
0.0
 10
11.51321208722632
 20
99.83251323951126
 30
0.0
 10
11.51321208722632
 20
99.83251323951126
 30
0.0
 10
11.51321208726579
 20
99.83251323951126
 30
0.0
  0
SPLINE
  5
C9
330
70
100
AcDbEntity
  8
0
 62
    18
420
        0
370
    25
100
AcDbSpline
210
0.0
220
0.0
230
1.0
 70
     8
 71
     3
 72
     8
 73
     4
 74
     0
 42
0.0000000001
 43
0.0000000001
 40
0.0
 40
0.0
 40
0.0
 40
0.0
 40
1.0
 40
1.0
 40
1.0
 40
1.0
 10
21.31321208726582
 20
109.6325132399842
 30
0.0
 10
21.31321208700464
 20
109.7429701897656
 30
0.0
 10
21.22366903704751
 20
109.8325132395113
 30
0.0
 10
21.11321208726581
 20
109.8325132395113
 30
0.0
  0
SPLINE
  5
CA
330
70
100
AcDbEntity
  8
0
 62
    18
420
        0
370
    25
100
AcDbSpline
210
0.0
220
0.0
230
1.0
 70
     8
 71
     3
 72
     8
 73
     4
 74
     0
 42
0.0000000001
 43
0.0000000001
 40
0.0
 40
0.0
 40
0.0
 40
0.0
 40
1.0
 40
1.0
 40
1.0
 40
1.0
 10
21.11321208726581
 20
99.83251323951126
 30
0.0
 10
21.223669037232
 20
99.83251323951126
 30
0.0
 10
21.31321208726582
 20
99.92205628954508
 30
0.0
 10
21.31321208726582
 20
100.0325132395112
 30
0.0
  0
SPLINE
  5
CB
330
70
100
AcDbEntity
  8
0
 62
    18
420
        0
370
    25
100
AcDbSpline
210
0.0
220
0.0
230
1.0
 70
     8
 71
     3
 72
     8
 73
     4
 74
     0
 42
0.0000000001
 43
0.0000000001
 40
0.0
 40
0.0
 40
0.0
 40
0.0
 40
1.0
 40
1.0
 40
1.0
 40
1.0
 10
11.51321208726579
 20
109.8325132395113
 30
0.0
 10
11.4027551372996
 20
109.8325132395113
 30
0.0
 10
11.31321208726578
 20
109.7429701894771
 30
0.0
 10
11.31321208726578
 20
109.6325132395113
 30
0.0
  0
CIRCLE
  5
CC
330
70
100
AcDbEntity
  8
0
 62
    18
420
        0
370
    25
100
AcDbCircle
 10
127.5532120872658
 20
104.8325132395111
 30
0.0
 40
1.600000000000056
  0
LWPOLYLINE
  5
CD
330
70
100
AcDbEntity
  8
0
 62
     8
420
  8421504
370
    25
100
AcDbPolyline
 90
        4
 70
     0
 43
0.0
 10
122.7447201515661
 20
109.6325892771111
 10
122.7445532585659
 20
109.232589211611
 10
122.7439929748662
 20
107.6325895081112
 10
122.7437187935656
 20
105.832513217111
  0
LWPOLYLINE
  5
CE
330
70
100
AcDbEntity
  8
0
 62
     8
420
  8421504
370
    25
100
AcDbPolyline
 90
        4
 70
     0
 43
0.0
 10
122.7435995842661
 20
103.8325132618111
 10
122.7436830307656
 20
103.213708643111
 10
122.7447201515661
 20
100.0324372018112
 10
122.7447201515661
 20
100.0282306040113
  0
LWPOLYLINE
  5
CF
330
70
100
AcDbEntity
  8
0
 62
     8
420
  8421504
370
    25
100
AcDbPolyline
 90
        4
 70
     0
 43
0.0
 10
21.12170988866606
 20
100.0324372018112
 10
21.12186858606579
 20
100.4324372674112
 10
21.12243669286605
 20
102.032436970911
 10
21.12270118846595
 20
103.8325132618111
  0
LWPOLYLINE
  5
D0
330
70
100
AcDbEntity
  8
0
 62
     8
420
  8421504
370
    25
100
AcDbPolyline
 90
        4
 70
     0
 43
0.0
 10
21.12282784836575
 20
105.832513217111
 10
21.12274626446578
 20
106.4513178358111
 10
21.12170988866606
 20
109.6325892771111
 10
21.12170802606594
 20
109.6367958749111
  0
LINE
  5
D1
330
70
100
AcDbEntity
  8
0
 62
     8
420
  8421504
370
    25
100
AcDbLine
 10
16.31321208726595
 20
103.2615858878113
 30
0.0
 11
16.31321208726595
 21
100.0228088165112
 31
0.0
  0
LINE
  5
D2
330
70
100
AcDbEntity
  8
0
 62
    18
420
        0
370
    25
100
AcDbLine
 10
165.5868102626656
 20
103.2325131635111
 30
0.0
 11
198.6867879347657
 21
103.2325131635111
 31
0.0
  0
LINE
  5
D3
330
70
100
AcDbEntity
  8
0
 62
    18
420
        0
370
    25
100
AcDbLine
 10
161.086786987066
 20
103.2325131635111
 30
0.0
 11
164.7845958189656
 21
103.2325131635111
 31
0.0
  0
LINE
  5
D4
330
70
100
AcDbEntity
  8
0
 62
    18
420
        0
370
    25
100
AcDbLine
 10
163.1867167369659
 20
106.4325133155111
 30
0.0
 11
161.086786987066
 21
106.4325133155111
 31
0.0
  0
LINE
  5
D5
330
70
100
AcDbEntity
  8
0
 62
    18
420
        0
370
    25
100
AcDbLine
 10
198.6867879347657
 20
106.4325133155111
 30
0.0
 11
163.9903818087659
 21
106.4325133155111
 31
0.0
  0
LINE
  5
D6
330
70
100
AcDbEntity
  8
0
 62
    18
420
        0
370
    25
100
AcDbLine
 10
158.497898853249
 20
164.7768741019273
 30
0.0
 11
158.6978992585493
 21
164.7768741019273
 31
0.0
  0
LINE
  5
D7
330
70
100
AcDbEntity
  8
0
 62
    18
420
        0
370
    25
100
AcDbLine
 10
158.6978992585493
 20
167.9768742539273
 30
0.0
 11
158.497898853249
 21
167.9768742539273
 31
0.0
  0
LWPOLYLINE
  5
D8
330
70
100
AcDbEntity
  8
0
 62
    18
420
        0
370
    25
100
AcDbPolyline
 90
        5
 70
     0
 43
0.0
 10
161.0878397540657
 20
103.9649939912111
 10
161.087894143266
 20
104.361591376611
 10
161.0879217104661
 20
104.833546775311
 10
161.087894143266
 20
105.3062945421111
 10
161.0878397540657
 20
105.7000324878111
  0
LWPOLYLINE
  5
D9
330
70
100
AcDbEntity
  8
0
 62
    18
420
        0
370
    25
100
AcDbPolyline
 90
        5
 70
     0
 43
0.0
 10
161.0878330485661
 20
105.690376442211
 10
161.0878784970661
 20
105.8675782571112
 10
161.0879306511658
 20
106.0145021232111
 10
161.0879701392661
 20
106.1229007135112
 10
161.0879760996659
 20
106.1839360560111
  0
LWPOLYLINE
  5
DA
330
70
100
AcDbEntity
  8
0
 62
    18
420
        0
370
    25
100
AcDbPolyline
 90
        3
 70
     0
 43
0.0
 10
161.0879768447657
 20
106.1834587532111
 10
161.0598114149658
 20
107.685579154911
 10
160.9834921376658
 20
109.6421353335111
  0
LWPOLYLINE
  5
DB
330
70
100
AcDbEntity
  8
0
 62
    18
420
        0
370
    25
100
AcDbPolyline
 90
        3
 70
     0
 43
0.0
 10
161.0877309755662
 20
103.9070097546111
 10
161.0877883450658
 20
103.9184402491112
 10
161.0878330485661
 20
103.974656928611
  0
SPLINE
  5
DC
330
70
100
AcDbEntity
  8
0
 62
    18
420
        0
370
    25
100
AcDbSpline
210
0.0
220
0.0
230
1.0
 70
     8
 71
     3
 72
     8
 73
     4
 74
     0
 42
0.0000000001
 43
0.0000000001
 40
0.0
 40
0.0
 40
0.0
 40
0.0
 40
1.0
 40
1.0
 40
1.0
 40
1.0
 10
160.9839448158226
 20
109.6420574512235
 30
0.0
 10
160.9788506503015
 20
109.7486846279592
 30
0.0
 10
160.8909154171548
 20
109.8325164706328
 30
0.0
 10
160.7841666217021
 20
109.8325132394195
 30
0.0
  0
LINE
  5
DD
330
70
100
AcDbEntity
  8
0
 62
    18
420
        0
370
    25
100
AcDbLine
 10
158.497898853249
 20
167.9768742539273
 30
0.0
 11
158.497898853249
 21
164.7768741019273
 31
0.0
  0
LINE
  5
DE
330
70
100
AcDbEntity
  8
0
 62
    18
420
        0
370
    25
100
AcDbLine
 10
161.086786987066
 20
105.7201068665112
 30
0.0
 11
161.086786987066
 21
103.5021981972113
 31
0.0
  0
SPLINE
  5
DF
330
70
100
AcDbEntity
  8
0
 62
    18
420
        0
370
    25
100
AcDbSpline
210
0.0
220
0.0
230
1.0
 70
     8
 71
     3
 72
     8
 73
     4
 74
     0
 42
0.0000000001
 43
0.0000000001
 40
0.0
 40
0.0
 40
0.0
 40
0.0
 40
1.0
 40
1.0
 40
1.0
 40
1.0
 10
163.1867167370178
 20
106.431523692148
 30
0.0
 10
163.2287988009873
 20
106.4231036104661
 30
0.0
 10
163.271117753505
 20
106.415914089374
 30
0.0
 10
163.3136194960944
 20
106.4099643196037
 30
0.0
  0
LWPOLYLINE
  5
E0
330
70
100
AcDbEntity
  8
0
 62
    18
420
        0
370
    25
100
AcDbPolyline
 90
        9
 70
     0
 43
0.0
 10
163.9903818087659
 20
106.4322350363111
 10
163.9916856603657
 20
106.4324926401111
 10
163.9711153523657
 20
106.4284357990112
 10
163.9182668940658
 20
106.4189182411112
 10
163.8328824953657
 20
106.4063712771111
 10
163.7151834384659
 20
106.3950191999111
 10
163.5748256759657
 20
106.3907760943111
 10
163.4316165761657
 20
106.3969841043111
 10
163.3136194960661
 20
106.4099643196111
  0
LWPOLYLINE
  5
E1
330
70
100
AcDbEntity
  8
0
 62
    18
420
        0
370
    25
100
AcDbPolyline
 90
        8
 70
     0
 43
0.0
 10
164.9136197583658
 20
103.2550621594111
 10
165.0338862852657
 20
103.2682230512113
 10
165.1708152906659
 20
103.2742212343111
 10
165.3151725248658
 20
103.2700080241112
 10
165.4453080908656
 20
103.2570509056111
 10
165.5409392730658
 20
103.242186252311
 10
165.5869272367662
 20
103.2334895621112
 10
165.5868102626656
 20
103.233512845111
  0
LWPOLYLINE
  5
E2
330
70
100
AcDbEntity
  8
0
 62
    18
420
        0
370
    25
100
AcDbPolyline
 90
        5
 70
     0
 43
0.0
 10
164.7845958189656
 20
103.233072143311
 10
164.7822920994662
 20
103.232615050211
 10
164.8058776573661
 20
103.237245772311
 10
164.8615446702662
 20
103.2471442411111
 10
164.9136197583658
 20
103.2550621594111
  0
LINE
  5
E3
330
70
100
AcDbEntity
  8
0
 62
    18
420
        0
370
    25
100
AcDbLine
 10
158.6978992585493
 20
167.5735961191274
 30
0.0
 11
158.6978992585493
 21
167.9768742539273
 31
0.0
  0
LINE
  5
E4
330
70
100
AcDbEntity
  8
0
 62
    18
420
        0
370
    25
100
AcDbLine
 10
158.6978992585493
 20
164.7768741019273
 30
0.0
 11
158.6978992585493
 21
167.5735961191274
 31
0.0
  0
LINE
  5
E5
330
70
100
AcDbEntity
  8
0
 62
    18
420
        0
370
    25
100
AcDbLine
 10
158.497898853249
 20
167.5735961191274
 30
0.0
 11
158.497898853249
 21
167.9768742539273
 31
0.0
  0
LINE
  5
E6
330
70
100
AcDbEntity
  8
0
 62
    18
420
        0
370
    25
100
AcDbLine
 10
158.497898853249
 20
164.7768741019273
 30
0.0
 11
158.497898853249
 21
167.5735961191274
 31
0.0
  0
LWPOLYLINE
  5
E7
330
70
100
AcDbEntity
  8
0
 62
    18
420
        0
370
    25
100
AcDbPolyline
 90
        4
 70
     0
 43
0.0
 10
160.783049912866
 20
100.0325131978111
 10
160.7840162531658
 20
103.2137458960112
 10
160.7840244488657
 20
106.3949785011111
 10
160.783049912866
 20
109.6325132812111
  0
LWPOLYLINE
  5
E8
330
70
100
AcDbEntity
  8
0
 62
    18
420
        0
370
    25
100
AcDbPolyline
 90
        9
 70
     0
 43
0.0
 10
160.783049912866
 20
109.6325132812111
 10
160.8210247771662
 20
109.6325278098112
 10
160.8576183037662
 20
109.632541593411
 10
160.8914990739662
 20
109.6325546319112
 10
160.9214340166657
 20
109.632565807811
 10
160.9463338570661
 20
109.6325754936112
 10
160.9652926043656
 20
109.6325825716113
 10
160.9776203350662
 20
109.632587414511
 10
160.9828692690659
 20
109.6325892771111
  0
LWPOLYLINE
  5
E9
330
70
100
AcDbEntity
  8
0
 62
    18
420
        0
370
    25
100
AcDbPolyline
 90
        7
 70
     0
 43
0.0
 10
160.9828692690659
 20
109.6325892771111
 10
160.9830123202657
 20
109.232589211611
 10
160.9835174695658
 20
107.6325895081112
 10
160.983927996566
 20
104.4325895424112
 10
160.983788670766
 20
103.213708643111
 10
160.9828692690659
 20
100.0324372018112
 10
160.9828677789656
 20
100.0282306040113
  0
LWPOLYLINE
  5
EA
330
70
100
AcDbEntity
  8
0
 62
    18
420
        0
370
    25
100
AcDbPolyline
 90
        7
 70
     0
 43
0.0
 10
160.783049912866
 20
100.0325131978111
 10
160.789212288066
 20
100.0323809500111
 10
160.818662943066
 20
100.0317495132111
 10
160.881796182866
 20
100.030396115311
 10
160.933790804566
 20
100.0292818810111
 10
160.9687951223657
 20
100.0285319800112
 10
160.9828677789656
 20
100.0282306040113
  0
LWPOLYLINE
  5
EB
330
70
100
AcDbEntity
  8
0
 62
    18
420
        0
370
    25
100
AcDbPolyline
 90
        9
 70
     0
 43
0.0
 10
160.783049912866
 20
100.0325131978111
 10
160.8220231549662
 20
100.030855816111
 10
160.8594995753658
 20
100.0292621369113
 10
160.8940397219661
 20
100.0277932549111
 10
160.9243166462658
 20
100.0265054221111
 10
160.9491665677659
 20
100.0254485572111
 10
160.9676365570658
 20
100.0246632660112
 10
160.9790165738657
 20
100.0241793508112
 10
160.9828692690659
 20
100.024015438111
  0
SPLINE
  5
EC
330
70
100
AcDbEntity
  8
0
 62
    18
420
        0
370
    25
100
AcDbSpline
210
0.0
220
0.0
230
1.0
 70
     8
 71
     3
 72
     8
 73
     4
 74
     0
 42
0.0000000001
 43
0.0000000001
 40
0.0
 40
0.0
 40
0.0
 40
0.0
 40
1.0
 40
1.0
 40
1.0
 40
1.0
 10
160.9828677790035
 20
100.0282306040495
 30
0.0
 10
160.9831109106906
 20
100.0296183920186
 30
0.0
 10
160.9832310829248
 20
100.0310249307342
 30
0.0
 10
160.9832268969885
 20
100.0324338490932
 30
0.0
  0
LWPOLYLINE
  5
ED
330
70
100
AcDbEntity
  8
0
 62
    18
420
        0
370
    25
100
AcDbPolyline
 90
        3
 70
     0
 43
0.0
 10
160.9832268969661
 20
100.0324338491112
 10
160.9832261518656
 20
100.0324219281113
 10
160.9828692690659
 20
100.024015438111
  0
LINE
  5
EE
330
70
100
AcDbEntity
  8
0
 62
    18
420
        0
370
    25
100
AcDbLine
 10
159.8867867903659
 20
109.6325132812111
 30
0.0
 11
159.8867867903659
 21
100.0325131978111
 31
0.0
  0
LINE
  5
EF
330
70
100
AcDbEntity
  8
0
 62
    18
420
        0
370
    25
100
AcDbLine
 10
160.783049912866
 20
109.6325132812111
 30
0.0
 11
159.8867867903659
 21
109.6325132812111
 31
0.0
  0
LINE
  5
F0
330
70
100
AcDbEntity
  8
0
 62
    18
420
        0
370
    25
100
AcDbLine
 10
159.8867867903659
 20
100.0325131978111
 30
0.0
 11
160.783049912866
 21
100.0325131978111
 31
0.0
  0
LINE
  5
F1
330
70
100
AcDbEntity
  8
0
 62
    18
420
        0
370
    25
100
AcDbLine
 10
159.8867867903659
 20
109.6325132812111
 30
0.0
 11
159.8867867903659
 21
109.8325133140112
 31
0.0
  0
LINE
  5
F2
330
70
100
AcDbEntity
  8
0
 62
    18
420
        0
370
    25
100
AcDbLine
 10
159.8867867903659
 20
109.8325133140112
 30
0.0
 11
160.783049912866
 21
109.8325133140112
 31
0.0
  0
LINE
  5
F3
330
70
100
AcDbEntity
  8
0
 62
    18
420
        0
370
    25
100
AcDbLine
 10
160.783049912866
 20
109.6325132812111
 30
0.0
 11
160.783049912866
 21
109.8325133140112
 31
0.0
  0
SPLINE
  5
F4
330
70
100
AcDbEntity
  8
0
 62
    18
420
        0
370
    25
100
AcDbSpline
210
0.0
220
0.0
230
1.0
 70
     8
 71
     3
 72
     8
 73
     4
 74
     0
 42
0.0000000001
 43
0.0000000001
 40
0.0
 40
0.0
 40
0.0
 40
0.0
 40
1.0
 40
1.0
 40
1.0
 40
1.0
 10
160.9828692690864
 20
109.6325892771285
 30
0.0
 10
160.9828766229812
 20
109.7429664449341
 30
0.0
 10
160.8934270694016
 20
109.8324628590295
 30
0.0
 10
160.7830499128827
 20
109.8325133139891
 30
0.0
  0
LINE
  5
F5
330
70
100
AcDbEntity
  8
0
 62
    18
420
        0
370
    25
100
AcDbLine
 10
159.8867867903659
 20
99.83251316501128
 30
0.0
 11
159.8867867903659
 21
100.0325131978111
 31
0.0
  0
LINE
  5
F6
330
70
100
AcDbEntity
  8
0
 62
    18
420
        0
370
    25
100
AcDbLine
 10
160.783049912866
 20
99.83251316501128
 30
0.0
 11
160.783049912866
 21
100.0325131978111
 31
0.0
  0
LINE
  5
F7
330
70
100
AcDbEntity
  8
0
 62
    18
420
        0
370
    25
100
AcDbLine
 10
160.783049912866
 20
99.83251316501128
 30
0.0
 11
159.8867867903659
 21
99.83251316501128
 31
0.0
  0
SPLINE
  5
F8
330
70
100
AcDbEntity
  8
0
 62
    18
420
        0
370
    25
100
AcDbSpline
210
0.0
220
0.0
230
1.0
 70
     8
 71
     3
 72
     8
 73
     4
 74
     0
 42
0.0000000001
 43
0.0000000001
 40
0.0
 40
0.0
 40
0.0
 40
0.0
 40
1.0
 40
1.0
 40
1.0
 40
1.0
 10
160.7830499128904
 20
99.83251316494518
 30
0.0
 10
160.8902015839178
 20
99.83251348137629
 30
0.0
 10
160.9783162428666
 20
99.91696054296838
 30
0.0
 10
160.9828692690935
 20
100.0240154380279
 30
0.0
  0
LINE
  5
F9
330
70
100
AcDbEntity
  8
0
 62
    18
420
        0
370
    25
100
AcDbLine
 10
160.9832268969661
 20
109.6325926299113
 30
0.0
 11
160.9828692690659
 21
109.6325892771111
 31
0.0
  0
SPLINE
  5
FA
330
70
100
AcDbEntity
  8
0
 62
    18
420
        0
370
    25
100
AcDbSpline
210
0.0
220
0.0
230
1.0
 70
     8
 71
     3
 72
     8
 73
     4
 74
     0
 42
0.0000000001
 43
0.0000000001
 40
0.0
 40
0.0
 40
0.0
 40
0.0
 40
1.0
 40
1.0
 40
1.0
 40
1.0
 10
161.0855904238378
 20
105.9638812023723
 30
0.0
 10
161.0736824729185
 20
107.1873038747003
 30
0.0
 10
161.0395556697202
 20
108.4104093768937
 30
0.0
 10
160.9832268970187
 20
109.6325926298584
 30
0.0
  0
SPLINE
  5
FB
330
70
100
AcDbEntity
  8
0
 62
    18
420
        0
370
    25
100
AcDbSpline
210
0.0
220
0.0
230
1.0
 70
     8
 71
     3
 72
     8
 73
     4
 74
     0
 42
0.0000000001
 43
0.0000000001
 40
0.0
 40
0.0
 40
0.0
 40
0.0
 40
1.0
 40
1.0
 40
1.0
 40
1.0
 10
160.9832268969847
 20
100.0324338490599
 30
0.0
 10
161.0395555552026
 20
101.2546171062967
 30
0.0
 10
161.0736823583438
 20
102.4777226064469
 30
0.0
 10
161.0855904238064
 20
103.7011452766569
 30
0.0
  0
LWPOLYLINE
  5
FC
330
70
100
AcDbEntity
  8
0
 62
    18
420
        0
370
    25
100
AcDbPolyline
 90
        4
 70
     0
 43
0.0
 10
160.9828677789656
 20
109.6410091783111
 10
160.9829981641661
 20
109.6379335786112
 10
160.9831501559662
 20
109.6343811418113
 10
160.9832268969661
 20
109.6325926299113
  0
LWPOLYLINE
  5
FD
330
70
100
AcDbEntity
  8
0
 62
    18
420
        0
370
    25
100
AcDbPolyline
 90
        3
 70
     0
 43
0.0
 10
161.0809457318657
 20
103.2354669462112
 10
161.0477086917661
 20
101.5885766412109
 10
160.983936192266
 20
100.0228088165112
  0
LINE
  5
FE
330
70
100
AcDbEntity
  8
0
 62
    18
420
        0
370
    25
100
AcDbLine
 10
160.9839361922185
 20
100.0228088165597
 30
0.0
 11
160.9832293576849
 21
100.0236171855656
 31
0.0
  0
SPLINE
  5
FF
330
70
100
AcDbEntity
  8
0
 62
    18
420
        0
370
    25
100
AcDbSpline
210
0.0
220
0.0
230
1.0
 70
     8
 71
     3
 72
     8
 73
     4
 74
     0
 42
0.0000000001
 43
0.0000000001
 40
0.0
 40
0.0
 40
0.0
 40
0.0
 40
1.0
 40
1.0
 40
1.0
 40
1.0
 10
160.9828677789631
 20
109.6410091782514
 30
0.0
 10
160.9783158712106
 20
109.7480642865472
 30
0.0
 10
160.8902017494229
 20
109.8325122844606
 30
0.0
 10
160.7830499128763
 20
109.8325133139792
 30
0.0
  0
SPLINE
  5
100
330
70
100
AcDbEntity
  8
0
 62
    18
420
        0
370
    25
100
AcDbSpline
210
0.0
220
0.0
230
1.0
 70
     8
 71
     3
 72
     8
 73
     4
 74
     0
 42
0.0000000001
 43
0.0000000001
 40
0.0
 40
0.0
 40
0.0
 40
0.0
 40
1.0
 40
1.0
 40
1.0
 40
1.0
 10
160.7841717454661
 20
99.83251323951126
 30
0.0
 10
160.890856126722
 20
99.83251323951126
 30
0.0
 10
160.9787595478653
 20
99.91624998494948
 30
0.0
 10
160.9839361615266
 20
100.0228087005713
 30
0.0
  0
LWPOLYLINE
  5
101
330
70
100
AcDbEntity
  8
0
 62
     8
420
  8421504
370
    25
100
AcDbPolyline
 90
        5
 70
     0
 43
0.0
 10
160.9838773326661
 20
109.6421502347112
 10
160.983927996566
 20
109.6422079767111
 10
160.983788670766
 20
109.6420474167112
 10
160.9828692690659
 20
109.6410110409112
 10
160.9828677789656
 20
109.6410091783111
  0
LWPOLYLINE
  5
102
330
70
100
AcDbEntity
  8
0
 62
    18
420
        0
370
    25
100
AcDbPolyline
 90
        3
 70
     0
 43
0.0
 10
128.8076688553656
 20
62.92864690911129
 10
130.3133775497661
 20
62.95296783931087
 10
132.3628355766657
 20
63.03197454101145
  0
LWPOLYLINE
  5
103
330
70
100
AcDbEntity
  8
0
 62
    18
420
        0
370
    25
100
AcDbPolyline
 90
        3
 70
     0
 43
0.0
 10
122.7435876632659
 20
63.03197454101145
 10
124.7930456901662
 20
62.95296783931087
 10
126.2987305427657
 20
62.92864690911129
  0
SPLINE
  5
104
330
70
100
AcDbEntity
  8
0
 62
    18
420
        0
370
    25
100
AcDbSpline
210
0.0
220
0.0
230
1.0
 70
     8
 71
     3
 72
     8
 73
     4
 74
     0
 42
0.0000000001
 43
0.0000000001
 40
0.0
 40
0.0
 40
0.0
 40
0.0
 40
1.0
 40
1.0
 40
1.0
 40
1.0
 10
122.5532120873574
 20
63.23126727447775
 30
0.0
 10
122.5532088569463
 20
63.12454502060599
 30
0.0
 10
122.6370004130155
 20
63.03662184574144
 30
0.0
 10
122.7435993245096
 20
63.03149236720266
 30
0.0
  0
LINE
  5
105
330
70
100
AcDbEntity
  8
0
 62
    18
420
        0
370
    25
100
AcDbLine
 10
14.71321201126595
 20
62.92864690911129
 30
0.0
 11
14.71321201126595
 21
25.32864596131086
 31
0.0
  0
LINE
  5
106
330
70
100
AcDbEntity
  8
0
 62
    18
420
        0
370
    25
100
AcDbLine
 10
17.91321216326596
 20
56.93747784381105
 30
0.0
 11
17.91321216326596
 21
62.92864690911129
 31
0.0
  0
LINE
  5
107
330
70
100
AcDbEntity
  8
0
 62
    18
420
        0
370
    25
100
AcDbLine
 10
17.91321216326596
 20
47.9313244242113
 30
0.0
 11
17.91321216326596
 21
54.9086467493112
 31
0.0
  0
LINE
  5
108
330
70
100
AcDbEntity
  8
0
 62
    18
420
        0
370
    25
100
AcDbLine
 10
17.91321216326596
 20
38.93747861871143
 30
0.0
 11
17.91321216326596
 21
45.91864656101139
 31
0.0
  0
LINE
  5
109
330
70
100
AcDbEntity
  8
0
 62
    18
420
        0
370
    25
100
AcDbLine
 10
17.91321216326596
 20
29.9313240815113
 30
0.0
 11
17.91321216326596
 21
36.90864677911107
 31
0.0
  0
LINE
  5
10A
330
70
100
AcDbEntity
  8
0
 62
    18
420
        0
370
    25
100
AcDbLine
 10
17.91321216326596
 20
25.32864596131086
 30
0.0
 11
17.91321216326596
 21
27.91864659081126
 31
0.0
  0
LINE
  5
10B
330
70
100
AcDbEntity
  8
0
 62
    18
420
        0
370
    25
100
AcDbLine
 10
125.9657193924662
 20
38.92864670041131
 30
0.0
 11
17.90614845406584
 21
38.92864670041131
 31
0.0
  0
LINE
  5
10C
330
70
100
AcDbEntity
  8
0
 62
    18
420
        0
370
    25
100
AcDbLine
 10
17.900637073366
 20
36.92864711771133
 30
0.0
 11
125.965790917966
 21
36.92864711771133
 31
0.0
  0
LINE
  5
10D
330
70
100
AcDbEntity
  8
0
 62
    18
420
        0
370
    25
100
AcDbLine
 10
14.71321201126595
 20
25.32864596131086
 30
0.0
 11
14.71321201126595
 21
25.12864555601117
 31
0.0
  0
LINE
  5
10E
330
70
100
AcDbEntity
  8
0
 62
    18
420
        0
370
    25
100
AcDbLine
 10
17.91321216326596
 20
25.12864555601117
 30
0.0
 11
17.91321216326596
 21
25.32864596131086
 31
0.0
  0
LINE
  5
10F
330
70
100
AcDbEntity
  8
0
 62
    18
420
        0
370
    25
100
AcDbLine
 10
125.9594728256656
 20
29.92864634281137
 30
0.0
 11
17.90694771516581
 21
29.92864634281137
 31
0.0
  0
LINE
  5
110
330
70
100
AcDbEntity
  8
0
 62
    18
420
        0
370
    25
100
AcDbLine
 10
17.90692107926605
 20
27.92864676001129
 30
0.0
 11
125.9595085884662
 21
27.92864676001129
 31
0.0
  0
LWPOLYLINE
  5
111
330
70
100
AcDbEntity
  8
0
 62
    18
420
        0
370
    25
100
AcDbPolyline
 90
        3
 70
     0
 43
0.0
 10
11.50359111086599
 20
63.03197454101145
 10
13.55305155916596
 20
62.95296783931087
 10
15.05875010216578
 20
62.92864690911129
  0
LWPOLYLINE
  5
112
330
70
100
AcDbEntity
  8
0
 62
    18
420
        0
370
    25
100
AcDbPolyline
 90
        3
 70
     0
 43
0.0
 10
17.56769437516578
 20
62.92864690911129
 10
19.07338397756604
 20
62.95296783931087
 10
21.12283306376603
 20
63.03197454101145
  0
SPLINE
  5
113
330
70
100
AcDbEntity
  8
0
 62
    18
420
        0
370
    25
100
AcDbSpline
210
0.0
220
0.0
230
1.0
 70
     8
 71
     3
 72
     8
 73
     4
 74
     0
 42
0.0000000001
 43
0.0000000001
 40
0.0
 40
0.0
 40
0.0
 40
0.0
 40
1.0
 40
1.0
 40
1.0
 40
1.0
 10
21.12275629897708
 20
63.03148908035409
 30
0.0
 10
21.22938347571408
 20
63.03658324587516
 30
0.0
 10
21.31321531838924
 20
63.12451847902379
 30
0.0
 10
21.31321208717437
 20
63.23126727447775
 30
0.0
  0
SPLINE
  5
114
330
70
100
AcDbEntity
  8
0
 62
    18
420
        0
370
    25
100
AcDbSpline
210
0.0
220
0.0
230
1.0
 70
     8
 71
     3
 72
     8
 73
     4
 74
     0
 42
0.0000000001
 43
0.0000000001
 40
0.0
 40
0.0
 40
0.0
 40
0.0
 40
1.0
 40
1.0
 40
1.0
 40
1.0
 10
11.31321208735754
 20
63.23126727447775
 30
0.0
 10
11.31320885694608
 20
63.12454502060663
 30
0.0
 10
11.39700041301503
 20
63.03662184574144
 30
0.0
 10
11.50359932450909
 20
63.03149236720201
 30
0.0
  0
LINE
  5
115
330
70
100
AcDbEntity
  8
0
 62
    18
420
        0
370
    25
100
AcDbLine
 10
125.9532143379661
 20
27.91864659081126
 30
0.0
 11
125.9532143379661
 21
25.32864596131086
 31
0.0
  0
LINE
  5
116
330
70
100
AcDbEntity
  8
0
 62
    18
420
        0
370
    25
100
AcDbLine
 10
125.9532143379661
 20
36.90864677911107
 30
0.0
 11
125.9532143379661
 21
29.9313240815113
 31
0.0
  0
LINE
  5
117
330
70
100
AcDbEntity
  8
0
 62
    18
420
        0
370
    25
100
AcDbLine
 10
125.9532143379661
 20
45.91864656101139
 30
0.0
 11
125.9532143379661
 21
38.93747861871143
 31
0.0
  0
LINE
  5
118
330
70
100
AcDbEntity
  8
0
 62
    18
420
        0
370
    25
100
AcDbLine
 10
125.9532143379661
 20
54.9086467493112
 30
0.0
 11
125.9532143379661
 21
47.9313244242113
 31
0.0
  0
LINE
  5
119
330
70
100
AcDbEntity
  8
0
 62
    18
420
        0
370
    25
100
AcDbLine
 10
125.9532143379661
 20
62.92864690911129
 30
0.0
 11
125.9532143379661
 21
56.93747784381105
 31
0.0
  0
LINE
  5
11A
330
70
100
AcDbEntity
  8
0
 62
    18
420
        0
370
    25
100
AcDbLine
 10
129.1532089019662
 20
25.32864596131086
 30
0.0
 11
129.1532089019662
 21
62.92864690911129
 31
0.0
  0
LINE
  5
11B
330
70
100
AcDbEntity
  8
0
 62
    18
420
        0
370
    25
100
AcDbLine
 10
125.9594728256656
 20
47.92864668551137
 30
0.0
 11
17.90694771516581
 21
47.92864668551137
 31
0.0
  0
LINE
  5
11C
330
70
100
AcDbEntity
  8
0
 62
    18
420
        0
370
    25
100
AcDbLine
 10
17.90692107926605
 20
45.92864673021077
 30
0.0
 11
125.9595085884662
 21
45.92864673021077
 31
0.0
  0
LINE
  5
11D
330
70
100
AcDbEntity
  8
0
 62
    18
420
        0
370
    25
100
AcDbLine
 10
125.9602715278659
 20
56.9286466706108
 30
0.0
 11
17.90614845406584
 21
56.9286466706108
 31
0.0
  0
LINE
  5
11E
330
70
100
AcDbEntity
  8
0
 62
    18
420
        0
370
    25
100
AcDbLine
 10
17.900637073366
 20
54.92864671531147
 30
0.0
 11
125.965790917966
 21
54.92864671531147
 31
0.0
  0
LINE
  5
11F
330
70
100
AcDbEntity
  8
0
 62
    18
420
        0
370
    25
100
AcDbLine
 10
125.9532143379661
 20
25.32864596131086
 30
0.0
 11
125.9532143379661
 21
25.12864555601117
 31
0.0
  0
LINE
  5
120
330
70
100
AcDbEntity
  8
0
 62
    18
420
        0
370
    25
100
AcDbLine
 10
129.1532089019662
 20
25.12864555601117
 30
0.0
 11
129.1532089019662
 21
25.32864596131086
 31
0.0
  0
LWPOLYLINE
  5
121
330
70
100
AcDbEntity
  8
0
 62
    18
420
        0
370
    25
100
AcDbPolyline
 90
        6
 70
     0
 43
0.0
 10
127.5532175804656
 20
63.03149770381123
 10
127.1532108093658
 20
63.03150738961139
 10
125.5532075668656
 20
63.03172047621147
 10
124.1531779075661
 20
63.0320892799113
 10
122.7531363273658
 20
63.03256462701128
 10
122.7489282394656
 20
63.03256611711088
  0
LWPOLYLINE
  5
122
330
70
100
AcDbEntity
  8
0
 62
    18
420
        0
370
    25
100
AcDbPolyline
 90
        7
 70
     0
 43
0.0
 10
122.7489282394656
 20
63.03256611711088
 10
122.749226262666
 20
63.0466387737108
 10
122.7499772812657
 20
63.08164309151124
 10
122.7510978485656
 20
63.13363771331125
 10
122.752444913566
 20
63.19677095301115
 10
122.7530767227662
 20
63.22622160801115
 10
122.7532078529658
 20
63.23238398321115
  0
LWPOLYLINE
  5
123
330
70
100
AcDbEntity
  8
0
 62
    18
420
        0
370
    25
100
AcDbPolyline
 90
        4
 70
     0
 43
0.0
 10
122.7532078529658
 20
63.23238398321115
 10
125.0310351158657
 20
63.23162476901103
 10
126.2921263481657
 20
63.23135878331088
 10
127.5532175804656
 20
63.23126192581101
  0
LINE
  5
124
330
70
100
AcDbEntity
  8
0
 62
    18
420
        0
370
    25
100
AcDbLine
 10
127.5532175804656
 20
63.03149770381123
 30
0.0
 11
127.5532175804656
 21
63.23126192581101
 31
0.0
  0
LWPOLYLINE
  5
125
330
70
100
AcDbEntity
  8
0
 62
    18
420
        0
370
    25
100
AcDbPolyline
 90
        3
 70
     0
 43
0.0
 10
122.7531363273658
 20
63.03220699911111
 10
122.7531244064657
 20
63.0322077442116
 10
122.7447201515661
 20
63.03256462701128
  0
LWPOLYLINE
  5
126
330
70
100
AcDbEntity
  8
0
 62
    18
420
        0
370
    25
100
AcDbPolyline
 90
        9
 70
     0
 43
0.0
 10
122.7447201515661
 20
63.03256462701128
 10
122.7448751236661
 20
63.03641732221079
 10
122.7453638817658
 20
63.04779733901075
 10
122.746150663066
 20
63.06626732831126
 10
122.7471997047659
 20
63.09111724981077
 10
122.748487165066
 20
63.12139417421124
 10
122.7499653602661
 20
63.15593432071137
 10
122.751550843866
 20
63.193410741111
 10
122.7532078529658
 20
63.23238398321115
  0
SPLINE
  5
127
330
70
100
AcDbEntity
  8
0
 62
    18
420
        0
370
    25
100
AcDbSpline
210
0.0
220
0.0
230
1.0
 70
     8
 71
     3
 72
     8
 73
     4
 74
     0
 42
0.0000000001
 43
0.0000000001
 40
0.0
 40
0.0
 40
0.0
 40
0.0
 40
1.0
 40
1.0
 40
1.0
 40
1.0
 10
122.7489282394592
 20
63.03256611715709
 30
0.0
 10
122.7503176885978
 20
63.03232322809645
 30
0.0
 10
122.7517258138293
 20
63.03220305876907
 30
0.0
 10
122.7531363273806
 20
63.03220699917207
 30
0.0
  0
LINE
  5
128
330
70
100
AcDbEntity
  8
0
 62
    18
420
        0
370
    25
100
AcDbLine
 10
132.3532153869659
 20
63.23238398321115
 30
0.0
 11
132.3532153869659
 21
64.12864710581134
 31
0.0
  0
LWPOLYLINE
  5
129
330
70
100
AcDbEntity
  8
0
 62
    18
420
        0
370
    25
100
AcDbPolyline
 90
        4
 70
     0
 43
0.0
 10
127.5532175804656
 20
63.23126192581101
 10
129.8310448433662
 20
63.23156218421089
 10
131.0921241546659
 20
63.23193098791136
 10
132.3532153869659
 20
63.23238398321115
  0
LINE
  5
12A
330
70
100
AcDbEntity
  8
0
 62
    18
420
        0
370
    25
100
AcDbLine
 10
122.7532078529658
 20
64.12864710581134
 30
0.0
 11
122.7532078529658
 21
63.23238398321115
 31
0.0
  0
LINE
  5
12B
330
70
100
AcDbEntity
  8
0
 62
    18
420
        0
370
    25
100
AcDbLine
 10
132.3532153869659
 20
64.12864710581134
 30
0.0
 11
122.7532078529658
 21
64.12864710581134
 31
0.0
  0
LINE
  5
12C
330
70
100
AcDbEntity
  8
0
 62
    18
420
        0
370
    25
100
AcDbLine
 10
132.5532128120657
 20
64.12864710581134
 30
0.0
 11
132.5532128120657
 21
63.23238398321115
 31
0.0
  0
LINE
  5
12D
330
70
100
AcDbEntity
  8
0
 62
    18
420
        0
370
    25
100
AcDbLine
 10
132.3532153869659
 20
63.23238398321115
 30
0.0
 11
132.5532128120657
 21
63.23238398321115
 31
0.0
  0
LINE
  5
12E
330
70
100
AcDbEntity
  8
0
 62
    18
420
        0
370
    25
100
AcDbLine
 10
132.3532153869659
 20
64.12864710581134
 30
0.0
 11
132.5532128120657
 21
64.12864710581134
 31
0.0
  0
SPLINE
  5
12F
330
70
100
AcDbEntity
  8
0
 62
    18
420
        0
370
    25
100
AcDbSpline
210
0.0
220
0.0
230
1.0
 70
     8
 71
     3
 72
     8
 73
     4
 74
     0
 42
0.0000000001
 43
0.0000000001
 40
0.0
 40
0.0
 40
0.0
 40
0.0
 40
1.0
 40
1.0
 40
1.0
 40
1.0
 10
132.353286912569
 20
63.03256462702796
 30
0.0
 10
132.4636634506145
 20
63.03255952247124
 30
0.0
 10
132.5531590797592
 20
63.12200745814598
 30
0.0
 10
132.5532128120747
 20
63.2323839832304
 30
0.0
  0
LWPOLYLINE
  5
130
330
70
100
AcDbEntity
  8
0
 62
    18
420
        0
370
    25
100
AcDbPolyline
 90
        9
 70
     0
 43
0.0
 10
132.3532869125658
 20
63.03256462701128
 10
132.3532869125658
 20
63.037813561011
 10
132.3532869125658
 20
63.05014129171159
 10
132.3532749916656
 20
63.06910003911122
 10
132.353263070666
 20
63.09399987941149
 10
132.3532511497658
 20
63.12393482211103
 10
132.3532392288657
 20
63.15781559231098
 10
132.3532273079661
 20
63.19440911891097
 10
132.3532153869659
 20
63.23238398321115
  0
LWPOLYLINE
  5
131
330
70
100
AcDbEntity
  8
0
 62
    18
420
        0
370
    25
100
AcDbPolyline
 90
        5
 70
     0
 43
0.0
 10
132.3532869125658
 20
63.03256462701128
 10
131.9532920623661
 20
63.03242157581142
 10
130.3532888199661
 20
63.0319141913113
 10
128.9532472397658
 20
63.03161020761108
 10
127.5532175804656
 20
63.03149770381123
  0
LINE
  5
132
330
70
100
AcDbEntity
  8
0
 62
    18
420
        0
370
    25
100
AcDbLine
 10
122.5532104278659
 20
63.23238398321115
 30
0.0
 11
122.7532078529658
 21
63.23238398321115
 31
0.0
  0
LINE
  5
133
330
70
100
AcDbEntity
  8
0
 62
    18
420
        0
370
    25
100
AcDbLine
 10
122.5532104278659
 20
63.23238398321115
 30
0.0
 11
122.5532104278659
 21
64.12864710581134
 31
0.0
  0
LINE
  5
134
330
70
100
AcDbEntity
  8
0
 62
    18
420
        0
370
    25
100
AcDbLine
 10
122.5532104278659
 20
64.12864710581134
 30
0.0
 11
122.7532078529658
 21
64.12864710581134
 31
0.0
  0
SPLINE
  5
135
330
70
100
AcDbEntity
  8
0
 62
    18
420
        0
370
    25
100
AcDbSpline
210
0.0
220
0.0
230
1.0
 70
     8
 71
     3
 72
     8
 73
     4
 74
     0
 42
0.0000000001
 43
0.0000000001
 40
0.0
 40
0.0
 40
0.0
 40
0.0
 40
1.0
 40
1.0
 40
1.0
 40
1.0
 10
122.5532104279263
 20
63.23238398321628
 30
0.0
 10
122.5532136568397
 20
63.12523064984701
 30
0.0
 10
122.6376635424241
 20
63.03711647242533
 30
0.0
 10
122.7447201515891
 20
63.0325646270132
 30
0.0
  0
SPLINE
  5
136
330
70
100
AcDbEntity
  8
0
 62
    18
420
        0
370
    25
100
AcDbSpline
210
0.0
220
0.0
230
1.0
 70
     8
 71
     3
 72
     8
 73
     4
 74
     0
 42
0.0000000001
 43
0.0000000001
 40
0.0
 40
0.0
 40
0.0
 40
0.0
 40
1.0
 40
1.0
 40
1.0
 40
1.0
 10
128.6845733429803
 20
62.93011616357317
 30
0.0
 10
129.9079434431182
 20
62.94461014817522
 30
0.0
 10
131.1310039809234
 20
62.97864476818271
 30
0.0
 10
132.3532869125382
 20
63.03220699914255
 30
0.0
  0
LWPOLYLINE
  5
137
330
70
100
AcDbEntity
  8
0
 62
    18
420
        0
370
    25
100
AcDbPolyline
 90
        4
 70
     0
 43
0.0
 10
132.3617030884657
 20
63.03256611711088
 10
132.3586274887662
 20
63.03243573191106
 10
132.3550750519659
 20
63.032283740111
 10
132.3532869125658
 20
63.03220699911111
  0
SPLINE
  5
138
330
70
100
AcDbEntity
  8
0
 62
    18
420
        0
370
    25
100
AcDbSpline
210
0.0
220
0.0
230
1.0
 70
     8
 71
     3
 72
     8
 73
     4
 74
     0
 42
0.0000000001
 43
0.0000000001
 40
0.0
 40
0.0
 40
0.0
 40
0.0
 40
1.0
 40
1.0
 40
1.0
 40
1.0
 10
122.7531363274454
 20
63.03220699913421
 30
0.0
 10
123.9754352561052
 20
62.97916953134307
 30
0.0
 10
125.1984968050857
 20
62.94547354086489
 30
0.0
 10
126.4218618180537
 20
62.93113167769959
 30
0.0
  0
LINE
  5
139
330
70
100
AcDbEntity
  8
0
 62
    18
420
        0
370
    25
100
AcDbLine
 10
127.5532175804656
 20
63.03103055241117
 30
0.0
 11
127.5532175804656
 21
63.03149770381123
 31
0.0
  0
LWPOLYLINE
  5
13A
330
70
100
AcDbEntity
  8
0
 62
    18
420
        0
370
    25
100
AcDbPolyline
 90
        4
 70
     0
 43
0.0
 10
127.5532175804656
 20
63.03103055241117
 10
126.303212812066
 20
63.03113039021099
 10
125.0532080436657
 20
63.03140531661147
 10
122.7531363273658
 20
63.03220699911111
  0
LINE
  5
13B
330
70
100
AcDbEntity
  8
0
 62
    18
420
        0
370
    25
100
AcDbLine
 10
132.3532869125658
 20
63.03220699911111
 30
0.0
 11
132.3532869125658
 21
63.03256462701128
 31
0.0
  0
LWPOLYLINE
  5
13C
330
70
100
AcDbEntity
  8
0
 62
    18
420
        0
370
    25
100
AcDbPolyline
 90
        4
 70
     0
 43
0.0
 10
132.3532869125658
 20
63.03220699911111
 10
131.1032940651658
 20
63.0317368675112
 10
129.8532892967661
 20
63.03135167251099
 10
127.5532175804656
 20
63.03103055241117
  0
SPLINE
  5
13D
330
70
100
AcDbEntity
  8
0
 62
    18
420
        0
370
    25
100
AcDbSpline
210
0.0
220
0.0
230
1.0
 70
     8
 71
     3
 72
     8
 73
     4
 74
     0
 42
0.0000000001
 43
0.0000000001
 40
0.0
 40
0.0
 40
0.0
 40
0.0
 40
1.0
 40
1.0
 40
1.0
 40
1.0
 10
132.3617030884259
 20
63.03256611715259
 30
0.0
 10
132.4687588390407
 20
63.03711856227353
 30
0.0
 10
132.5532081492091
 20
63.12523148222115
 30
0.0
 10
132.5532128120894
 20
63.23238398323939
 30
0.0
  0
LWPOLYLINE
  5
13E
330
70
100
AcDbEntity
  8
0
 62
    18
420
        0
370
    25
100
AcDbPolyline
 90
       13
 70
     0
 43
0.0
 10
17.90611827926582
 20
56.93747784381105
 10
17.90310451936605
 20
56.93271729531111
 10
17.84847900446591
 20
56.84376630371108
 10
17.7540525811659
 20
56.67458298991146
 10
17.63471625926589
 20
56.40485371831143
 10
17.56093381146576
 20
56.12154390101109
 10
17.55156889736598
 20
55.810631545211
 10
17.60133877576584
 20
55.55492165871105
 10
17.71481018686575
 20
55.26165525801111
 10
17.83170011076595
 20
55.04196408581132
 10
17.90542407136595
 20
54.92090705221081
 10
17.91321216326596
 20
54.9086467493112
 10
17.91321216326596
 20
54.9086467493112
  0
LINE
  5
13F
330
70
100
AcDbEntity
  8
0
 62
    18
420
        0
370
    25
100
AcDbLine
 10
17.91321216326596
 20
25.32864596131086
 30
0.0
 11
14.71321201126595
 21
25.32864596131086
 31
0.0
  0
LINE
  5
140
330
70
100
AcDbEntity
  8
0
 62
    18
420
        0
370
    25
100
AcDbLine
 10
17.91321216326596
 20
62.92864690911129
 30
0.0
 11
15.47255870136604
 21
62.92864690911129
 31
0.0
  0
LWPOLYLINE
  5
141
330
70
100
AcDbEntity
  8
0
 62
    18
420
        0
370
    25
100
AcDbPolyline
 90
       13
 70
     0
 43
0.0
 10
17.90862241936589
 20
47.9313244242113
 10
17.89515121086578
 20
47.90978442321121
 10
17.83227836886577
 20
47.80480984041122
 10
17.73201599896579
 20
47.61647257391113
 10
17.615980936166
 20
47.32526551371076
 10
17.56007224496589
 20
47.05013829651146
 10
17.56572928456589
 20
46.75864811431081
 10
17.62279141866582
 20
46.51019956361104
 10
17.719240674666
 20
46.26757438671095
 10
17.83504141676602
 20
46.04770142021139
 10
17.90608009496576
 20
45.92998336441069
 10
17.91321216326596
 20
45.91864656101139
 10
17.91321216326596
 20
45.91864656101139
  0
LWPOLYLINE
  5
142
330
70
100
AcDbEntity
  8
0
 62
    18
420
        0
370
    25
100
AcDbPolyline
 90
       13
 70
     0
 43
0.0
 10
17.90862241936589
 20
29.9313240815113
 10
17.89515121086578
 20
29.90978445301108
 10
17.83227836886577
 20
29.80481024271096
 10
17.73201599896579
 20
29.61647297631099
 10
17.615980936166
 20
29.32526554351128
 10
17.56007224496589
 20
29.05013795381146
 10
17.56572928456589
 20
28.75864888911107
 10
17.62279141866582
 20
28.51019884831106
 10
17.719240674666
 20
28.26757367141097
 10
17.83504141676602
 20
28.04770107751138
 10
17.90608009496576
 20
27.9299833942112
 10
17.91321216326596
 20
27.91864659081126
 10
17.91321216326596
 20
27.91864659081126
  0
LWPOLYLINE
  5
143
330
70
100
AcDbEntity
  8
0
 62
    18
420
        0
370
    25
100
AcDbPolyline
 90
       12
 70
     0
 43
0.0
 10
17.91321216326596
 20
36.90864677911107
 10
17.884104234966
 20
36.95494170671157
 10
17.80738178816593
 20
37.0842867661115
 10
17.6975595782659
 20
37.29871149551156
 10
17.58421296426578
 20
37.61906112921148
 10
17.54653696146592
 20
37.89004321581123
 10
17.56860157656577
 20
38.16613938101152
 10
17.63697527526597
 20
38.41108764891123
 10
17.74409543896581
 20
38.65516419891109
 10
17.85817407246577
 20
38.85994042641073
 10
17.90823219516593
 20
38.94081647881139
 10
17.90611827926582
 20
38.93747861871143
  0
LWPOLYLINE
  5
144
330
70
100
AcDbEntity
  8
0
 62
    18
420
        0
370
    25
100
AcDbPolyline
 90
       20
 70
     0
 43
0.0
 10
16.04554013056581
 20
60.70181440001106
 10
16.12904160456584
 20
60.77736552241121
 10
16.24685782766591
 20
60.82677851801141
 10
16.36091507276577
 20
60.83011116271141
 10
16.46248315406594
 20
60.79761769061136
 10
16.55201171706599
 20
60.73328565251144
 10
16.62492070056596
 20
60.63594009171121
 10
16.66928362276595
 20
60.50831835161101
 10
16.67180322286602
 20
60.36441336761102
 10
16.62706320816601
 20
60.22539596441152
 10
16.53890188496606
 20
60.11180739291102
 10
16.42299937256581
 20
60.04273007991105
 10
16.30510502756578
 20
60.0237482358116
 10
16.19905872676582
 20
60.04431854371149
 10
16.10507960606604
 20
60.09716700201073
 10
16.02516591256587
 20
60.18255140071083
 10
15.96886485526585
 20
60.30025045761128
 10
15.95014620286594
 20
60.44060822021159
 10
15.97790504046594
 20
60.58381731991148
 10
16.04554013056581
 20
60.70181440001106
  0
CIRCLE
  5
145
330
70
100
AcDbEntity
  8
0
 62
    18
420
        0
370
    25
100
AcDbCircle
 10
16.31321208726587
 20
60.42864658301098
 30
0.0
 40
0.3299999999999073
  0
LINE
  5
146
330
70
100
AcDbEntity
  8
0
 62
    18
420
        0
370
    25
100
AcDbLine
 10
15.2512061427659
 20
25.12864555601117
 30
0.0
 11
17.91321216326596
 21
25.12864555601117
 31
0.0
  0
LINE
  5
147
330
70
100
AcDbEntity
  8
0
 62
    18
420
        0
370
    25
100
AcDbLine
 10
14.71321201126595
 20
25.12864555601117
 30
0.0
 11
15.2512061427659
 21
25.12864555601117
 31
0.0
  0
LINE
  5
148
330
70
100
AcDbEntity
  8
0
 62
    18
420
        0
370
    25
100
AcDbLine
 10
15.2512061427659
 20
25.32864596131086
 30
0.0
 11
17.91321216326596
 21
25.32864596131086
 31
0.0
  0
LINE
  5
149
330
70
100
AcDbEntity
  8
0
 62
    18
420
        0
370
    25
100
AcDbLine
 10
14.71321201126595
 20
25.32864596131086
 30
0.0
 11
15.2512061427659
 21
25.32864596131086
 31
0.0
  0
LWPOLYLINE
  5
14A
330
70
100
AcDbEntity
  8
0
 62
    18
420
        0
370
    25
100
AcDbPolyline
 90
        9
 70
     0
 43
0.0
 10
11.51321204556594
 20
63.23238398321115
 10
11.51155466386587
 20
63.193410741111
 10
11.5099609847659
 20
63.15593432071137
 10
11.50849210276603
 20
63.12139417421124
 10
11.50720426986598
 20
63.09111724981077
 10
11.50614740506576
 20
63.06626732831126
 10
11.50536211386585
 20
63.04779733901075
 10
11.50487819866586
 20
63.03641732221079
 10
11.50471428586585
 20
63.03256462701128
  0
LWPOLYLINE
  5
14B
330
70
100
AcDbEntity
  8
0
 62
    18
420
        0
370
    25
100
AcDbPolyline
 90
        7
 70
     0
 43
0.0
 10
11.51321204556594
 20
63.23238398321115
 10
11.51307979776598
 20
63.22622160801115
 10
11.51244836106604
 20
63.19677095301115
 10
11.51109496306588
 20
63.13363771331125
 10
11.509980728766
 20
63.08164309151124
 10
11.50923082786586
 20
63.0466387737108
 10
11.50892945186594
 20
63.03256611711088
  0
SPLINE
  5
14C
330
70
100
AcDbEntity
  8
0
 62
    18
420
        0
370
    25
100
AcDbSpline
210
0.0
220
0.0
230
1.0
 70
     8
 71
     3
 72
     8
 73
     4
 74
     0
 42
0.0000000001
 43
0.0000000001
 40
0.0
 40
0.0
 40
0.0
 40
0.0
 40
1.0
 40
1.0
 40
1.0
 40
1.0
 10
11.50892945180433
 20
63.03256611707302
 30
0.0
 10
11.51031723977343
 20
63.03232298538597
 30
0.0
 10
11.51172377848909
 20
63.03220281315169
 30
0.0
 10
11.5131326968481
 20
63.03220699908865
 30
0.0
  0
LWPOLYLINE
  5
14D
330
70
100
AcDbEntity
  8
0
 62
    18
420
        0
370
    25
100
AcDbPolyline
 90
        3
 70
     0
 43
0.0
 10
11.51313269686575
 20
63.03220699911111
 10
11.51312077596591
 20
63.0322077442116
 10
11.50471428586585
 20
63.03256462701128
  0
LWPOLYLINE
  5
14E
330
70
100
AcDbEntity
  8
0
 62
    18
420
        0
370
    25
100
AcDbPolyline
 90
        4
 70
     0
 43
0.0
 10
11.51321204556594
 20
63.23238398321115
 10
14.69444474386585
 20
63.23141764291142
 10
17.87567734896604
 20
63.23140944731097
 10
21.11321212896598
 20
63.23238398321115
  0
LWPOLYLINE
  5
14F
330
70
100
AcDbEntity
  8
0
 62
    18
420
        0
370
    25
100
AcDbPolyline
 90
        9
 70
     0
 43
0.0
 10
21.11321212896598
 20
63.23238398321115
 10
21.11322665766591
 20
63.19440911891097
 10
21.11324044126599
 20
63.15781559231098
 10
21.11325347976588
 20
63.12393482211103
 10
21.11326465556587
 20
63.09399987941149
 10
21.11327434136604
 20
63.06910003911122
 10
21.1132814193658
 20
63.05014129171159
 10
21.11328626226589
 20
63.037813561011
 10
21.11328812496579
 20
63.03256462701128
  0
LWPOLYLINE
  5
150
330
70
100
AcDbEntity
  8
0
 62
    18
420
        0
370
    25
100
AcDbPolyline
 90
        7
 70
     0
 43
0.0
 10
21.11328812496579
 20
63.03256462701128
 10
20.71328805936585
 20
63.03242157581142
 10
19.11328835586604
 20
63.03191642651076
 10
15.91328839016602
 20
63.03150589951115
 10
14.69440749096596
 20
63.03164522531119
 10
11.51313604966591
 20
63.03256462701128
 10
11.50892945186594
 20
63.03256611711088
  0
LINE
  5
151
330
70
100
AcDbEntity
  8
0
 62
    18
420
        0
370
    25
100
AcDbLine
 10
21.11321212896598
 20
64.12864710581134
 30
0.0
 11
11.51321204556594
 21
64.12864710581134
 31
0.0
  0
LINE
  5
152
330
70
100
AcDbEntity
  8
0
 62
    18
420
        0
370
    25
100
AcDbLine
 10
21.11321212896598
 20
63.23238398321115
 30
0.0
 11
21.11321212896598
 21
64.12864710581134
 31
0.0
  0
LINE
  5
153
330
70
100
AcDbEntity
  8
0
 62
    18
420
        0
370
    25
100
AcDbLine
 10
11.51321204556594
 20
64.12864710581134
 30
0.0
 11
11.51321204556594
 21
63.23238398321115
 31
0.0
  0
LINE
  5
154
330
70
100
AcDbEntity
  8
0
 62
    18
420
        0
370
    25
100
AcDbLine
 10
21.31321216176579
 20
64.12864710581134
 30
0.0
 11
21.31321216176579
 21
63.23238398321115
 31
0.0
  0
LINE
  5
155
330
70
100
AcDbEntity
  8
0
 62
    18
420
        0
370
    25
100
AcDbLine
 10
21.11321212896598
 20
63.23238398321115
 30
0.0
 11
21.31321216176579
 21
63.23238398321115
 31
0.0
  0
LINE
  5
156
330
70
100
AcDbEntity
  8
0
 62
    18
420
        0
370
    25
100
AcDbLine
 10
21.11321212896598
 20
64.12864710581134
 30
0.0
 11
21.31321216176579
 21
64.12864710581134
 31
0.0
  0
SPLINE
  5
157
330
70
100
AcDbEntity
  8
0
 62
    18
420
        0
370
    25
100
AcDbSpline
210
0.0
220
0.0
230
1.0
 70
     8
 71
     3
 72
     8
 73
     4
 74
     0
 42
0.0000000001
 43
0.0000000001
 40
0.0
 40
0.0
 40
0.0
 40
0.0
 40
1.0
 40
1.0
 40
1.0
 40
1.0
 10
21.11328812488333
 20
63.03256462699074
 30
0.0
 10
21.22366529268902
 20
63.03255727309537
 30
0.0
 10
21.3131617067844
 20
63.12200682667563
 30
0.0
 10
21.31321216174397
 20
63.23238398319446
 30
0.0
  0
LINE
  5
158
330
70
100
AcDbEntity
  8
0
 62
    18
420
        0
370
    25
100
AcDbLine
 10
11.3132120127658
 20
63.23238398321115
 30
0.0
 11
11.51321204556594
 21
63.23238398321115
 31
0.0
  0
LINE
  5
159
330
70
100
AcDbEntity
  8
0
 62
    18
420
        0
370
    25
100
AcDbLine
 10
11.3132120127658
 20
63.23238398321115
 30
0.0
 11
11.3132120127658
 21
64.12864710581134
 31
0.0
  0
LINE
  5
15A
330
70
100
AcDbEntity
  8
0
 62
    18
420
        0
370
    25
100
AcDbLine
 10
11.3132120127658
 20
64.12864710581134
 30
0.0
 11
11.51321204556594
 21
64.12864710581134
 31
0.0
  0
SPLINE
  5
15B
330
70
100
AcDbEntity
  8
0
 62
    18
420
        0
370
    25
100
AcDbSpline
210
0.0
220
0.0
230
1.0
 70
     8
 71
     3
 72
     8
 73
     4
 74
     0
 42
0.0000000001
 43
0.0000000001
 40
0.0
 40
0.0
 40
0.0
 40
0.0
 40
1.0
 40
1.0
 40
1.0
 40
1.0
 10
11.31321201279981
 20
63.23238398318676
 30
0.0
 10
11.31321232923092
 20
63.12523231215874
 30
0.0
 10
11.39765939082267
 20
63.03711765321059
 30
0.0
 10
11.50471428588222
 20
63.03256462698304
 30
0.0
  0
SPLINE
  5
15C
330
70
100
AcDbEntity
  8
0
 62
    18
420
        0
370
    25
100
AcDbSpline
210
0.0
220
0.0
230
1.0
 70
     8
 71
     3
 72
     8
 73
     4
 74
     0
 42
0.0000000001
 43
0.0000000001
 40
0.0
 40
0.0
 40
0.0
 40
0.0
 40
1.0
 40
1.0
 40
1.0
 40
1.0
 10
11.51313269691869
 20
63.03220699915796
 30
0.0
 10
12.73531594988308
 20
62.97587822645707
 30
0.0
 10
13.95842145207679
 20
62.94175142325877
 30
0.0
 10
15.1818441244047
 20
62.92984347234008
 30
0.0
  0
LINE
  5
15D
330
70
100
AcDbEntity
  8
0
 62
    18
420
        0
370
    25
100
AcDbLine
 10
21.11329147766584
 20
63.03220699911111
 30
0.0
 11
21.11328812496579
 21
63.03256462701128
 31
0.0
  0
SPLINE
  5
15E
330
70
100
AcDbEntity
  8
0
 62
    18
420
        0
370
    25
100
AcDbSpline
210
0.0
220
0.0
230
1.0
 70
     8
 71
     3
 72
     8
 73
     4
 74
     0
 42
0.0000000001
 43
0.0000000001
 40
0.0
 40
0.0
 40
0.0
 40
0.0
 40
1.0
 40
1.0
 40
1.0
 40
1.0
 10
17.44458005012721
 20
62.92984347234008
 30
0.0
 10
18.66800272245512
 20
62.94175142325877
 30
0.0
 10
19.89110822464851
 20
62.97587822645707
 30
0.0
 10
21.11329147761322
 20
63.03220699915796
 30
0.0
  0
LWPOLYLINE
  5
15F
330
70
100
AcDbEntity
  8
0
 62
    18
420
        0
370
    25
100
AcDbPolyline
 90
        4
 70
     0
 43
0.0
 10
21.12170802606594
 20
63.03256611711088
 10
21.11863242636577
 20
63.03243573191106
 10
21.11507998956581
 20
63.032283740111
 10
21.11329147766584
 20
63.03220699911111
  0
SPLINE
  5
160
330
70
100
AcDbEntity
  8
0
 62
    18
420
        0
370
    25
100
AcDbSpline
210
0.0
220
0.0
230
1.0
 70
     8
 71
     3
 72
     8
 73
     4
 74
     0
 42
0.0000000001
 43
0.0000000001
 40
0.0
 40
0.0
 40
0.0
 40
0.0
 40
1.0
 40
1.0
 40
1.0
 40
1.0
 10
21.12170802610636
 20
63.03256611711345
 30
0.0
 10
21.22876313440218
 20
63.03711802486599
 30
0.0
 10
21.31321113231529
 20
63.12523214665429
 30
0.0
 10
21.31321216183413
 20
63.23238398320088
 30
0.0
  0
LWPOLYLINE
  5
161
330
70
100
AcDbEntity
  8
0
 62
    18
420
        0
370
    25
100
AcDbPolyline
 90
       12
 70
     0
 43
0.0
 10
125.9532143379661
 20
54.9086467493112
 10
125.9823252464659
 20
54.95494130441118
 10
126.0590483452659
 20
55.08428710881151
 10
126.168863942766
 20
55.29871146571105
 10
126.282208135266
 20
55.6190610993115
 10
126.3198901916656
 20
55.89004281351084
 10
126.2978245521661
 20
56.16613935121101
 10
126.2294461036661
 20
56.41108724661148
 10
126.1223246360662
 20
56.6551637966107
 10
126.0082532669658
 20
56.85994002411099
 10
125.9581972862657
 20
56.94081719401127
 10
125.9603072906659
 20
56.93747784381105
  0
LINE
  5
162
330
70
100
AcDbEntity
  8
0
 62
    18
420
        0
370
    25
100
AcDbLine
 10
129.1532089019662
 20
25.32864596131086
 30
0.0
 11
125.9532143379661
 21
25.32864596131086
 31
0.0
  0
LINE
  5
163
330
70
100
AcDbEntity
  8
0
 62
    18
420
        0
370
    25
100
AcDbLine
 10
128.6867787147659
 20
62.92864690911129
 30
0.0
 11
126.4196445251657
 21
62.92864690911129
 31
0.0
  0
LINE
  5
164
330
70
100
AcDbEntity
  8
0
 62
    18
420
        0
370
    25
100
AcDbLine
 10
126.2056280876659
 20
62.92864690911129
 30
0.0
 11
125.9532143379661
 21
62.92864690911129
 31
0.0
  0
LWPOLYLINE
  5
165
330
70
100
AcDbEntity
  8
0
 62
    18
420
        0
370
    25
100
AcDbPolyline
 90
       12
 70
     0
 43
0.0
 10
125.9532143379661
 20
45.91864656101139
 10
125.981860330266
 20
45.9646661896108
 10
126.0573317314657
 20
46.09331685491098
 10
126.1650730873656
 20
46.30653682541121
 10
126.2754370475657
 20
46.62399190851142
 10
126.3117958809661
 20
46.89375284501106
 10
126.2893845344659
 20
47.1681450624112
 10
126.2214710022659
 20
47.41199846751159
 10
126.1159350181659
 20
47.65381972681076
 10
126.005118062666
 20
47.85422432611102
 10
125.9543825889661
 20
47.93679203281103
 10
125.9578038955662
 20
47.9313244242113
  0
LWPOLYLINE
  5
166
330
70
100
AcDbEntity
  8
0
 62
    18
420
        0
370
    25
100
AcDbPolyline
 90
       12
 70
     0
 43
0.0
 10
125.9532143379661
 20
27.91864659081126
 10
125.981860330266
 20
27.96466584691144
 10
126.0573317314657
 20
28.09331651221097
 10
126.1650730873656
 20
28.30653722771095
 10
126.2754370475657
 20
28.62399156581141
 10
126.3117958809661
 20
28.89375324731081
 10
126.2893845344659
 20
29.1681447197112
 10
126.2214710022659
 20
29.41199775221161
 10
126.1159350181659
 20
29.65381975661128
 10
126.005118062666
 20
29.85422398331155
 10
125.9543825889661
 20
29.9367928076113
 10
125.9578038955662
 20
29.9313240815113
  0
LWPOLYLINE
  5
167
330
70
100
AcDbEntity
  8
0
 62
    18
420
        0
370
    25
100
AcDbPolyline
 90
       13
 70
     0
 43
0.0
 10
125.9603072906659
 20
38.93747861871143
 10
125.9633232856656
 20
38.9327176977116
 10
126.0179449821661
 20
38.84376670601147
 10
126.112370660466
 20
38.6745833922112
 10
126.2317110801656
 20
38.40485449321116
 10
126.3054897094657
 20
38.12154467591145
 10
126.3148595596659
 20
37.81063194761085
 10
126.2650896812661
 20
37.55492206101143
 10
126.1516143585658
 20
37.26165528781162
 10
126.0347296501657
 20
37.04196448811106
 10
125.9609987045658
 20
36.9209074545112
 10
125.9532143379661
 20
36.90864677911107
 10
125.9532143379661
 20
36.90864677911107
  0
LWPOLYLINE
  5
168
330
70
100
AcDbEntity
  8
0
 62
    18
420
        0
370
    25
100
AcDbPolyline
 90
       20
 70
     0
 43
0.0
 10
127.8208781982658
 20
60.70249016771107
 10
127.8893639351657
 20
60.58222364071109
 10
127.9161502624662
 20
60.445294635411
 10
127.8975655342658
 20
60.30093740111098
 10
127.8323461319661
 20
60.17080183511118
 10
127.7288843895657
 20
60.07517065291101
 10
127.6091028953658
 20
60.02918268921123
 10
127.4959852005657
 20
60.02941887271134
 10
127.3954917694656
 20
60.06477113251104
 10
127.3071338440659
 20
60.13197536951123
 10
127.2361923958659
 20
60.23225273381073
 10
127.1950651909658
 20
60.36206419951086
 10
127.1966745163661
 20
60.50640951281126
 10
127.2455622459661
 20
60.64398671871131
 10
127.337043454766
 20
60.75432907231121
 10
127.4541665817656
 20
60.81885780581157
 10
127.5712658668661
 20
60.83381782661069
 10
127.6761819626662
 20
60.81023226861131
 10
127.769093682866
 20
60.75456451061072
 10
127.8208781982658
 20
60.70249016771107
  0
CIRCLE
  5
169
330
70
100
AcDbEntity
  8
0
 62
    18
420
        0
370
    25
100
AcDbCircle
 10
127.5532120872658
 20
60.42932257151114
 30
0.0
 40
0.3299999999998673
  0
LINE
  5
16A
330
70
100
AcDbEntity
  8
0
 62
    18
420
        0
370
    25
100
AcDbLine
 10
127.5345017219662
 20
25.12864555601117
 30
0.0
 11
129.1532089019662
 21
25.12864555601117
 31
0.0
  0
LINE
  5
16B
330
70
100
AcDbEntity
  8
0
 62
    18
420
        0
370
    25
100
AcDbLine
 10
125.9532143379661
 20
25.12864555601117
 30
0.0
 11
127.5345017219662
 21
25.12864555601117
 31
0.0
  0
LINE
  5
16C
330
70
100
AcDbEntity
  8
0
 62
    18
420
        0
370
    25
100
AcDbLine
 10
127.5345017219662
 20
25.32864596131086
 30
0.0
 11
129.1532089019662
 21
25.32864596131086
 31
0.0
  0
LINE
  5
16D
330
70
100
AcDbEntity
  8
0
 62
    18
420
        0
370
    25
100
AcDbLine
 10
125.9532143379661
 20
25.32864596131086
 30
0.0
 11
127.5345017219662
 21
25.32864596131086
 31
0.0
  0
LWPOLYLINE
  5
16E
330
70
100
AcDbEntity
  8
0
 62
     8
420
  8421504
370
    25
100
AcDbPolyline
 90
        5
 70
     0
 43
0.0
 10
132.3628474975659
 20
63.03155656341114
 10
132.3629071022657
 20
63.03150589951115
 10
132.3627521301657
 20
63.03164522531119
 10
132.3617150093659
 20
63.03256462701128
 10
132.3617030884657
 20
63.03256611711088
  0
LWPOLYLINE
  5
16F
330
70
100
AcDbEntity
  8
0
 62
     8
420
  8421504
370
    25
100
AcDbPolyline
 90
        4
 70
     0
 43
0.0
 10
122.7447201515661
 20
63.03256462701128
 10
122.7445532585659
 20
63.03242157581142
 10
122.7439929748662
 20
63.03191642651076
 10
122.7435757423657
 20
63.03155656341114
  0
LINE
  5
170
330
70
100
AcDbEntity
  8
0
 62
     8
420
  8421504
370
    25
100
AcDbLine
 10
11.50357509214025
 20
63.03155656340921
 30
0.0
 11
11.50433817736864
 21
63.03222453391917
 31
0.0
  0
LWPOLYLINE
  5
171
330
70
100
AcDbEntity
  8
0
 62
     8
420
  8421504
370
    25
100
AcDbPolyline
 90
        5
 70
     0
 43
0.0
 10
21.12284908246579
 20
63.03155656341114
 10
21.12290682446596
 20
63.03150589951115
 10
21.12274626446578
 20
63.03164522531119
 10
21.12170988866606
 20
63.03256462701128
 10
21.12170802606594
 20
63.03256611711088
  0
SPLINE
  5
172
330
70
100
AcDbEntity
  8
0
 62
    18
420
        0
370
    25
100
AcDbSpline
210
0.0
220
0.0
230
1.0
 70
     8
 71
     3
 72
     8
 73
     4
 74
     0
 42
0.0000000001
 43
0.0000000001
 40
0.0
 40
0.0
 40
0.0
 40
0.0
 40
1.0
 40
1.0
 40
1.0
 40
1.0
 10
188.2560757357394
 20
-42.05120088841929
 30
0.0
 10
188.3169288380118
 20
-42.08346456435029
 30
0.0
 10
188.3901016062995
 20
-42.08214565270995
 30
0.0
 10
188.4497524771296
 20
-42.04770993796515
 30
0.0
  0
SPLINE
  5
173
330
70
100
AcDbEntity
  8
0
 62
    18
420
        0
370
    25
100
AcDbSpline
210
0.0
220
0.0
230
1.0
 70
     8
 71
     3
 72
     8
 73
     4
 74
     0
 42
0.0000000001
 43
0.0000000001
 40
0.0
 40
0.0
 40
0.0
 40
0.0
 40
1.0
 40
1.0
 40
1.0
 40
1.0
 10
181.461543631202
 20
-29.94373966221251
 30
0.0
 10
181.3996792371501
 20
-29.9794532167148
 30
0.0
 10
181.3615590653849
 20
-30.04545058826993
 30
0.0
 10
181.3615355153349
 20
-30.11688349855659
 30
0.0
  0
LINE
  5
174
330
70
100
AcDbEntity
  8
0
 62
    18
420
        0
370
    25
100
AcDbLine
 10
188.254631475566
 20
-42.04961266718878
 30
0.0
 11
188.2567477742657
 21
-42.05074770198879
 31
0.0
  0
LWPOLYLINE
  5
175
330
70
100
AcDbEntity
  8
0
 62
    18
420
        0
370
    25
100
AcDbPolyline
 90
        3
 70
     0
 43
0.0
 10
182.9605953369658
 20
-38.99491203098868
 10
183.0495957832662
 20
-39.04632647888869
 10
188.2522586080656
 20
-42.04872482748867
  0
LWPOLYLINE
  5
176
330
70
100
AcDbEntity
  8
0
 62
    18
420
        0
370
    25
100
AcDbPolyline
 90
        3
 70
     0
 43
0.0
 10
181.3615486459661
 20
-30.116877846089
 10
181.3610007369659
 20
-31.95168828568903
 10
181.3616413690658
 20
-36.2230287811888
  0
LINE
  5
177
330
70
100
AcDbEntity
  8
0
 62
    18
420
        0
370
    25
100
AcDbLine
 10
188.4497518912661
 20
-42.0477099255887
 30
0.0
 11
189.083505622966
 21
-41.68185168378909
 31
0.0
  0
LINE
  5
178
330
70
100
AcDbEntity
  8
0
 62
    18
420
        0
370
    25
100
AcDbLine
 10
182.095296829466
 20
-29.57788131598857
 30
0.0
 11
181.4615430977659
 21
-29.94373955778882
 31
0.0
  0
LINE
  5
179
330
70
100
AcDbEntity
  8
0
 62
    18
420
        0
370
    25
100
AcDbLine
 10
105.2823799392659
 20
10.67458571851104
 30
0.0
 11
78.69516429656575
 21
-4.6738871705886
 31
0.0
  0
LINE
  5
17A
330
70
100
AcDbEntity
  8
0
 62
    18
420
        0
370
    25
100
AcDbLine
 10
80.29503429986597
 20
-7.445243524488762
 30
0.0
 11
82.64073295876611
 21
-6.091100512388758
 31
0.0
  0
LINE
  5
17B
330
70
100
AcDbEntity
  8
0
 62
    18
420
        0
370
    25
100
AcDbLine
 10
84.64089594856586
 20
-4.936430996288756
 30
0.0
 11
89.00469424236574
 21
-2.417263863189088
 31
0.0
  0
LINE
  5
17C
330
70
100
AcDbEntity
  8
0
 62
    18
420
        0
370
    25
100
AcDbLine
 10
91.00485670526575
 20
-1.262594651188976
 30
0.0
 11
95.36865499906626
 21
1.256572481811227
 31
0.0
  0
LINE
  5
17D
330
70
100
AcDbEntity
  8
0
 62
    18
420
        0
370
    25
100
AcDbLine
 10
97.36881759376615
 20
2.411241769911069
 30
0.0
 11
101.7326160192664
 21
4.930408978910898
 31
0.0
  0
LINE
  5
17E
330
70
100
AcDbEntity
  8
0
 62
    18
420
        0
370
    25
100
AcDbLine
 10
103.7327787455659
 20
6.085078343011008
 30
0.0
 11
106.8822499425661
 21
7.903229364610882
 31
0.0
  0
LINE
  5
17F
330
70
100
AcDbEntity
  8
0
 62
    18
420
        0
370
    25
100
AcDbLine
 10
166.463150835266
 20
-44.82374093848915
 30
0.0
 11
89.81571590666606
 21
-0.5761185912890232
 31
0.0
  0
LINE
  5
180
330
70
100
AcDbEntity
  8
0
 62
    18
420
        0
370
    25
100
AcDbLine
 10
88.91955543516605
 20
-2.368114008589082
 30
0.0
 11
164.462995221166
 21
-45.97841352568888
 31
0.0
  0
LINE
  5
181
330
70
100
AcDbEntity
  8
0
 62
    18
420
        0
370
    25
100
AcDbLine
 10
78.69516429656575
 20
-4.6738871705886
 30
0.0
 11
78.55374265366631
 21
-4.755528147189134
 31
0.0
  0
LINE
  5
182
330
70
100
AcDbEntity
  8
0
 62
    18
420
        0
370
    25
100
AcDbLine
 10
80.153612657066
 20
-7.526884501088654
 30
0.0
 11
80.29503429986597
 21
-7.445243524488762
 31
0.0
  0
LINE
  5
183
330
70
100
AcDbEntity
  8
0
 62
    18
420
        0
370
    25
100
AcDbLine
 10
160.0991895516658
 20
-48.49757758768881
 30
0.0
 11
83.40348818386599
 21
-4.222091618188623
 31
0.0
  0
LINE
  5
184
330
70
100
AcDbEntity
  8
0
 62
    18
420
        0
370
    25
100
AcDbLine
 10
82.52784835436576
 20
-6.025933349988987
 30
0.0
 11
158.0990339375657
 21
-49.65225017488855
 31
0.0
  0
SPLINE
  5
185
330
70
100
AcDbEntity
  8
0
 62
    18
420
        0
370
    25
100
AcDbSpline
210
0.0
220
0.0
230
1.0
 70
     8
 71
     3
 72
     8
 73
     4
 74
     0
 42
0.0000000001
 43
0.0000000001
 40
0.0
 40
0.0
 40
0.0
 40
0.0
 40
1.0
 40
1.0
 40
1.0
 40
1.0
 10
109.5975173965396
 20
3.357418291080676
 30
0.0
 10
109.6583704988114
 20
3.325154615149671
 30
0.0
 10
109.7315432670997
 20
3.326473526790008
 30
0.0
 10
109.7911941379292
 20
3.360909241534808
 30
0.0
  0
SPLINE
  5
186
330
70
100
AcDbEntity
  8
0
 62
    18
420
        0
370
    25
100
AcDbSpline
210
0.0
220
0.0
230
1.0
 70
     8
 71
     3
 72
     8
 73
     4
 74
     0
 42
0.0000000001
 43
0.0000000001
 40
0.0
 40
0.0
 40
0.0
 40
0.0
 40
1.0
 40
1.0
 40
1.0
 40
1.0
 10
102.8029852920022
 20
15.46487951738692
 30
0.0
 10
102.7411208979496
 20
15.42916596288527
 30
0.0
 10
102.7030007261851
 20
15.36316859133014
 30
0.0
 10
102.7029771761352
 20
15.29173568104347
 30
0.0
  0
LINE
  5
187
330
70
100
AcDbEntity
  8
0
 62
    18
420
        0
370
    25
100
AcDbLine
 10
109.5960747839658
 20
3.359005561311278
 30
0.0
 11
109.5981889752661
 21
3.357871743010932
 31
0.0
  0
LINE
  5
188
330
70
100
AcDbEntity
  8
0
 62
    18
420
        0
370
    25
100
AcDbLine
 10
106.196407786266
 20
5.31988814831133
 30
0.0
 11
109.5934593085658
 21
3.359739050611217
 31
0.0
  0
LWPOLYLINE
  5
189
330
70
100
AcDbEntity
  8
0
 62
    18
420
        0
370
    25
100
AcDbPolyline
 90
        3
 70
     0
 43
0.0
 10
102.702992217766
 20
15.29174023031106
 10
102.7024464160662
 20
13.45692857421137
 10
102.7030838870662
 20
9.185589903511159
  0
LINE
  5
18A
330
70
100
AcDbEntity
  8
0
 62
    18
420
        0
370
    25
100
AcDbLine
 10
109.7911938825657
 20
3.360909063311241
 30
0.0
 11
110.4249476142657
 21
3.726767305110858
 31
0.0
  0
LINE
  5
18B
330
70
100
AcDbEntity
  8
0
 62
    18
420
        0
370
    25
100
AcDbLine
 10
103.4367388206655
 20
15.83073767291138
 30
0.0
 11
102.8029850889661
 21
15.46487943111112
 31
0.0
  0
LINE
  5
18C
330
70
100
AcDbEntity
  8
0
 62
    18
420
        0
370
    25
100
AcDbLine
 10
104.3021563930658
 20
6.413772955311188
 30
0.0
 11
106.1964310558659
 21
5.319909083510838
 31
0.0
  0
LINE
  5
18D
330
70
100
AcDbEntity
  8
0
 62
    18
420
        0
370
    25
100
AcDbLine
 10
183.9409384090661
 20
-34.73403353638856
 30
0.0
 11
157.3537227662659
 21
-50.08250642558895
 31
0.0
  0
LINE
  5
18E
330
70
100
AcDbEntity
  8
0
 62
    18
420
        0
370
    25
100
AcDbLine
 10
158.953591847666
 20
-52.85386224718885
 30
0.0
 11
185.5408074903661
 21
-37.50538935808857
 31
0.0
  0
LINE
  5
18F
330
70
100
AcDbEntity
  8
0
 62
    18
420
        0
370
    25
100
AcDbLine
 10
172.8271118553661
 20
-41.14990444128873
 30
0.0
 11
96.22089068356613
 21
3.073925710411045
 31
0.0
  0
LINE
  5
190
330
70
100
AcDbEntity
  8
0
 62
    18
420
        0
370
    25
100
AcDbLine
 10
95.25577013126577
 20
1.321739492211104
 30
0.0
 11
170.8269557144657
 21
-42.3045773326891
 31
0.0
  0
LINE
  5
191
330
70
100
AcDbEntity
  8
0
 62
    18
420
        0
370
    25
100
AcDbLine
 10
179.1910728755662
 20
-37.47606794418906
 30
0.0
 11
102.5433155893658
 21
6.771740496010997
 31
0.0
  0
LINE
  5
192
330
70
100
AcDbEntity
  8
0
 62
    18
420
        0
370
    25
100
AcDbLine
 10
101.5914204546658
 20
5.011919406610969
 30
0.0
 11
177.1909167346658
 21
-38.63074083558879
 31
0.0
  0
LINE
  5
193
330
70
100
AcDbEntity
  8
0
 62
    18
420
        0
370
    25
100
AcDbLine
 10
157.3537227662659
 20
-50.08250642558895
 30
0.0
 11
157.2123011234659
 21
-50.16414740218884
 31
0.0
  0
LINE
  5
194
330
70
100
AcDbEntity
  8
0
 62
    18
420
        0
370
    25
100
AcDbLine
 10
158.8121702047659
 20
-52.93550322378873
 30
0.0
 11
158.953591847666
 21
-52.85386224718885
 31
0.0
  0
SPLINE
  5
195
330
70
100
AcDbEntity
  8
0
 62
    18
420
        0
370
    25
100
AcDbSpline
210
0.0
220
0.0
230
1.0
 70
     8
 71
     3
 72
     8
 73
     4
 74
     0
 42
0.0000000001
 43
0.0000000001
 40
0.0
 40
0.0
 40
0.0
 40
0.0
 40
1.0
 40
1.0
 40
1.0
 40
1.0
 10
188.4911822434104
 20
-34.11734957674403
 30
0.0
 10
188.4866417128689
 20
-34.01757231098402
 30
0.0
 10
188.4339016844719
 20
-33.92622310839135
 30
0.0
 10
188.3497627079167
 20
-33.87240162750949
 30
0.0
  0
SPLINE
  5
196
330
70
100
AcDbEntity
  8
0
 62
    18
420
        0
370
    25
100
AcDbSpline
210
0.0
220
0.0
230
1.0
 70
     8
 71
     3
 72
     8
 73
     4
 74
     0
 42
0.0000000001
 43
0.0000000001
 40
0.0
 40
0.0
 40
0.0
 40
0.0
 40
1.0
 40
1.0
 40
1.0
 40
1.0
 10
188.2085196623397
 20
-34.11036731768941
 30
0.0
 10
188.2965253807234
 20
-34.15653471458558
 30
0.0
 10
188.4010044178392
 20
-34.15911552912403
 30
0.0
 10
188.4911822433989
 20
-34.11734957670167
 30
0.0
  0
SPLINE
  5
197
330
70
100
AcDbEntity
  8
0
 62
    18
420
        0
370
    25
100
AcDbSpline
210
0.0
220
0.0
230
1.0
 70
     8
 71
     3
 72
     8
 73
     4
 74
     0
 42
0.0000000001
 43
0.0000000001
 40
0.0
 40
0.0
 40
0.0
 40
0.0
 40
1.0
 40
1.0
 40
1.0
 40
1.0
 10
188.3497627078988
 20
-33.87240162749665
 30
0.0
 10
188.2678423993297
 20
-33.92506254971878
 30
0.0
 10
188.2155099016926
 20
-34.01323212204234
 30
0.0
 10
188.2085196623333
 20
-34.11036731771829
 30
0.0
  0
SPLINE
  5
198
330
70
100
AcDbEntity
  8
0
 62
    18
420
        0
370
    25
100
AcDbSpline
210
0.0
220
0.0
230
1.0
 70
     8
 71
     3
 72
     8
 73
     4
 74
     0
 42
0.0000000001
 43
0.0000000001
 40
0.0
 40
0.0
 40
0.0
 40
0.0
 40
1.0
 40
1.0
 40
1.0
 40
1.0
 10
188.2144718510375
 20
-34.11724408158558
 30
0.0
 10
188.3014091786914
 20
-34.16142487897293
 30
0.0
 10
188.4042112534088
 20
-34.16146407199949
 30
0.0
 10
188.4911822434156
 20
-34.11734957671001
 30
0.0
  0
SPLINE
  5
199
330
70
100
AcDbEntity
  8
0
 62
    18
420
        0
370
    25
100
AcDbSpline
210
0.0
220
0.0
230
1.0
 70
     8
 71
     3
 72
     8
 73
     4
 74
     0
 42
0.0000000001
 43
0.0000000001
 40
0.0
 40
0.0
 40
0.0
 40
0.0
 40
1.0
 40
1.0
 40
1.0
 40
1.0
 10
188.2144718510599
 20
-34.11724408156697
 30
0.0
 10
188.2125312017834
 20
-34.11616047837834
 30
0.0
 10
188.2101553775411
 20
-34.11621530643409
 30
0.0
 10
188.2082667812877
 20
-34.11738727899142
 30
0.0
  0
LWPOLYLINE
  5
19A
330
70
100
AcDbEntity
  8
0
 62
    18
420
        0
370
    25
100
AcDbPolyline
 90
        3
 70
     0
 43
0.0
 10
188.2082667812659
 20
-34.11738727898885
 10
188.2082673080662
 20
-34.11737724088886
 10
188.208519662366
 20
-34.11036731768877
  0
LWPOLYLINE
  5
19B
330
70
100
AcDbEntity
  8
0
 62
    18
420
        0
370
    25
100
AcDbPolyline
 90
        4
 70
     0
 43
0.0
 10
188.4911822433662
 20
-34.11734957668884
 10
188.4904989375659
 20
-36.715350370989
 10
188.4904931423658
 20
-39.31295997068913
 10
188.4911822433662
 20
-41.9561414388891
  0
SPLINE
  5
19C
330
70
100
AcDbEntity
  8
0
 62
    18
420
        0
370
    25
100
AcDbSpline
210
0.0
220
0.0
230
1.0
 70
     8
 71
     3
 72
     8
 73
     4
 74
     0
 42
0.0000000001
 43
0.0000000001
 40
0.0
 40
0.0
 40
0.0
 40
0.0
 40
1.0
 40
1.0
 40
1.0
 40
1.0
 10
188.2144792267295
 20
-41.95960038457348
 30
0.0
 10
188.3021091916228
 20
-42.0020977908553
 30
0.0
 10
188.4046419787706
 20
-42.00081607249043
 30
0.0
 10
188.4911822434085
 20
-41.9561414389244
 30
0.0
  0
LWPOLYLINE
  5
19D
330
70
100
AcDbEntity
  8
0
 62
    18
420
        0
370
    25
100
AcDbPolyline
 90
        7
 70
     0
 43
0.0
 10
188.2144792266659
 20
-41.95960038458888
 10
188.2144876560662
 20
-41.63310566058862
 10
188.214535071266
 20
-40.32708038398889
 10
188.2145735302659
 20
-37.71450717338887
 10
188.2145624667661
 20
-36.71912104068859
 10
188.2144792266659
 20
-34.12068441478868
 10
188.2144718509656
 20
-34.11724408158879
  0
LWPOLYLINE
  5
19E
330
70
100
AcDbEntity
  8
0
 62
    18
420
        0
370
    25
100
AcDbPolyline
 90
        4
 70
     0
 43
0.0
 10
185.5306126945661
 20
-35.66365764278878
 10
186.3708180221657
 20
-35.178462681889
 10
187.3164289300659
 20
-34.6323946208887
 10
188.2082667812659
 20
-34.11738727898885
  0
LWPOLYLINE
  5
19F
330
70
100
AcDbEntity
  8
0
 62
    18
420
        0
370
    25
100
AcDbPolyline
 90
        3
 70
     0
 43
0.0
 10
188.2082667812659
 20
-41.95630872408869
 10
188.2082757374658
 20
-41.95631328618897
 10
188.2144792266659
 20
-41.95960038458888
  0
SPLINE
  5
1A0
330
70
100
AcDbEntity
  8
0
 62
    18
420
        0
370
    25
100
AcDbSpline
210
0.0
220
0.0
230
1.0
 70
     8
 71
     3
 72
     8
 73
     4
 74
     0
 42
0.0000000001
 43
0.0000000001
 40
0.0
 40
0.0
 40
0.0
 40
0.0
 40
1.0
 40
1.0
 40
1.0
 40
1.0
 10
185.5355454563115
 20
-37.49423690398948
 30
0.0
 10
186.4107607437317
 20
-38.99093730817837
 30
0.0
 10
187.3017172773765
 20
-40.47837709648844
 30
0.0
 10
188.2082667812749
 20
-41.95630872420804
 30
0.0
  0
LWPOLYLINE
  5
1A1
330
70
100
AcDbEntity
  8
0
 62
    18
420
        0
370
    25
100
AcDbPolyline
 90
        5
 70
     0
 43
0.0
 10
188.208519662366
 20
-34.11036731768877
 10
187.9255794388658
 20
-33.94701660868864
 10
186.7938475211662
 20
-33.29363050878875
 10
185.8036536769661
 20
-32.72196753148886
 10
184.8136036588656
 20
-32.15040981428856
  0
SPLINE
  5
1A2
330
70
100
AcDbEntity
  8
0
 62
    18
420
        0
370
    25
100
AcDbSpline
210
0.0
220
0.0
230
1.0
 70
     8
 71
     3
 72
     8
 73
     4
 74
     0
 42
0.0000000001
 43
0.0000000001
 40
0.0
 40
0.0
 40
0.0
 40
0.0
 40
1.0
 40
1.0
 40
1.0
 40
1.0
 10
184.9548582948081
 20
-31.91348108282682
 30
0.0
 10
184.8732274274784
 20
-31.96593946423228
 30
0.0
 10
184.8209330854458
 20
-32.05365362692373
 30
0.0
 10
184.8136036588598
 20
-32.15040981425392
 30
0.0
  0
LWPOLYLINE
  5
1A3
330
70
100
AcDbEntity
  8
0
 62
    18
420
        0
370
    25
100
AcDbPolyline
 90
        4
 70
     0
 43
0.0
 10
184.9548582947658
 20
-31.91348108288906
 10
186.5657377134662
 20
-32.8431768434889
 10
187.4577162297659
 20
-33.3578039860887
 10
188.349762707866
 20
-33.87240162748895
  0
SPLINE
  5
1A4
330
70
100
AcDbEntity
  8
0
 62
    18
420
        0
370
    25
100
AcDbSpline
210
0.0
220
0.0
230
1.0
 70
     8
 71
     3
 72
     8
 73
     4
 74
     0
 42
0.0000000001
 43
0.0000000001
 40
0.0
 40
0.0
 40
0.0
 40
0.0
 40
1.0
 40
1.0
 40
1.0
 40
1.0
 10
189.1249359751104
 20
-33.75149133494377
 30
0.0
 10
189.1203954445689
 20
-33.6517140691844
 30
0.0
 10
189.0676554161719
 20
-33.56036486659109
 30
0.0
 10
188.9835164396167
 20
-33.50654338570923
 30
0.0
  0
LINE
  5
1A5
330
70
100
AcDbEntity
  8
0
 62
    18
420
        0
370
    25
100
AcDbLine
 10
189.1249359750661
 20
-33.75149133488858
 30
0.0
 11
188.4911822433662
 21
-34.11734957668884
 31
0.0
  0
LINE
  5
1A6
330
70
100
AcDbEntity
  8
0
 62
    18
420
        0
370
    25
100
AcDbLine
 10
188.349762707866
 20
-33.87240162748895
 30
0.0
 11
188.983516439566
 21
-33.50654338568869
 31
0.0
  0
SPLINE
  5
1A7
330
70
100
AcDbEntity
  8
0
 62
    18
420
        0
370
    25
100
AcDbSpline
210
0.0
220
0.0
230
1.0
 70
     8
 71
     3
 72
     8
 73
     4
 74
     0
 42
0.0000000001
 43
0.0000000001
 40
0.0
 40
0.0
 40
0.0
 40
0.0
 40
1.0
 40
1.0
 40
1.0
 40
1.0
 10
181.4199352019234
 20
-30.19856687253223
 30
0.0
 10
182.2499552007128
 20
-31.72312176995398
 30
0.0
 10
183.0939165909847
 20
-33.24004507230077
 30
0.0
 10
183.9517132508749
 20
-34.74914603775192
 30
0.0
  0
LWPOLYLINE
  5
1A8
330
70
100
AcDbEntity
  8
0
 62
    18
420
        0
370
    25
100
AcDbPolyline
 90
        3
 70
     0
 43
0.0
 10
184.813273332866
 20
-32.15845973928869
 10
184.8134582521657
 20
-32.15395173258857
 10
184.8136036588656
 20
-32.15040981428856
  0
LWPOLYLINE
  5
1A9
330
70
100
AcDbEntity
  8
0
 62
    18
420
        0
370
    25
100
AcDbPolyline
 90
        4
 70
     0
 43
0.0
 10
188.2082667812659
 20
-34.11738727898885
 10
187.3240559290658
 20
-33.60732703848883
 10
186.4398967068661
 20
-33.09722726028899
 10
184.813273332866
 20
-32.15845973928869
  0
LINE
  5
1AA
330
70
100
AcDbEntity
  8
0
 62
    18
420
        0
370
    25
100
AcDbLine
 10
189.1249359750661
 20
-41.59028319718895
 30
0.0
 11
189.1249359750661
 21
-33.75149133488858
 31
0.0
  0
LINE
  5
1AB
330
70
100
AcDbEntity
  8
0
 62
    18
420
        0
370
    25
100
AcDbLine
 10
188.4911822433662
 20
-41.9561414388891
 30
0.0
 11
189.1249359750661
 21
-41.59028319718895
 31
0.0
  0
LINE
  5
1AC
330
70
100
AcDbEntity
  8
0
 62
    18
420
        0
370
    25
100
AcDbLine
 10
188.983516439566
 20
-33.50654338568869
 30
0.0
 11
182.195286012866
 21
-29.58778137348915
 31
0.0
  0
LWPOLYLINE
  5
1AD
330
70
100
AcDbEntity
  8
0
 62
    18
420
        0
370
    25
100
AcDbPolyline
 90
        4
 70
     0
 43
0.0
 10
181.561532281166
 20
-29.95363961528877
 10
183.1716625395662
 20
-30.88376785698903
 10
184.063200621366
 20
-31.39865898928861
 10
184.9548582947658
 20
-31.91348108288906
  0
LINE
  5
1AE
330
70
100
AcDbEntity
  8
0
 62
    18
420
        0
370
    25
100
AcDbLine
 10
182.195286012866
 20
-29.58778137348915
 30
0.0
 11
181.561532281166
 21
-29.95363961528877
 31
0.0
  0
LWPOLYLINE
  5
1AF
330
70
100
AcDbEntity
  8
0
 62
    18
420
        0
370
    25
100
AcDbPolyline
 90
        6
 70
     0
 43
0.0
 10
184.8136036588656
 20
-32.15040981428856
 10
184.5307630073657
 20
-31.98713029558906
 10
183.3995405396658
 20
-31.33411595768897
 10
182.409830857366
 20
-30.76281013768899
 10
181.420188083166
 20
-30.19154691148882
 10
181.4172135692657
 20
-30.18983006558868
  0
SPLINE
  5
1B0
330
70
100
AcDbEntity
  8
0
 62
    18
420
        0
370
    25
100
AcDbSpline
210
0.0
220
0.0
230
1.0
 70
     8
 71
     3
 72
     8
 73
     4
 74
     0
 42
0.0000000001
 43
0.0000000001
 40
0.0
 40
0.0
 40
0.0
 40
0.0
 40
1.0
 40
1.0
 40
1.0
 40
1.0
 10
181.5615322811724
 20
-29.95363961534011
 30
0.0
 10
181.4772824396602
 20
-30.0036140078614
 30
0.0
 10
181.4232400960007
 20
-30.0920591257512
 30
0.0
 10
181.4172135693369
 20
-30.18983006560088
 30
0.0
  0
SPLINE
  5
1B1
330
70
100
AcDbEntity
  8
0
 62
    18
420
        0
370
    25
100
AcDbSpline
210
0.0
220
0.0
230
1.0
 70
     8
 71
     3
 72
     8
 73
     4
 74
     0
 42
0.0000000001
 43
0.0000000001
 40
0.0
 40
0.0
 40
0.0
 40
0.0
 40
1.0
 40
1.0
 40
1.0
 40
1.0
 10
181.4172135693196
 20
-30.18983006553734
 30
0.0
 10
181.4173875174176
 20
-30.19292201431088
 30
0.0
 10
181.4183224094123
 20
-30.19592314337444
 30
0.0
 10
181.419935202062
 20
-30.19856687275297
 30
0.0
  0
LWPOLYLINE
  5
1B2
330
70
100
AcDbEntity
  8
0
 62
    18
420
        0
370
    25
100
AcDbPolyline
 90
        4
 70
     0
 43
0.0
 10
184.813273332866
 20
-32.15845973928869
 10
183.9294570806659
 20
-31.64816196868889
 10
183.0457646347662
 20
-31.13779272628857
 10
181.4199352020659
 20
-30.19856687278891
  0
LWPOLYLINE
  5
1B3
330
70
100
AcDbEntity
  8
0
 62
    18
420
        0
370
    25
100
AcDbPolyline
 90
        3
 70
     0
 43
0.0
 10
181.4199352020659
 20
-30.19856687278891
 10
181.4199272994658
 20
-30.19856170248884
 10
181.4142369481657
 20
-30.1949881081891
  0
SPLINE
  5
1B4
330
70
100
AcDbEntity
  8
0
 62
    18
420
        0
370
    25
100
AcDbSpline
210
0.0
220
0.0
230
1.0
 70
     8
 71
     3
 72
     8
 73
     4
 74
     0
 42
0.0000000001
 43
0.0000000001
 40
0.0
 40
0.0
 40
0.0
 40
0.0
 40
1.0
 40
1.0
 40
1.0
 40
1.0
 10
188.2114962834956
 20
-41.96475234452539
 30
0.0
 10
188.2110896372633
 20
-41.96172531787659
 30
0.0
 10
188.2099839618153
 20
-41.95883449973346
 30
0.0
 10
188.208266781228
 20
-41.9563087241458
 30
0.0
  0
SPLINE
  5
1B5
330
70
100
AcDbEntity
  8
0
 62
    18
420
        0
370
    25
100
AcDbSpline
210
0.0
220
0.0
230
1.0
 70
     8
 71
     3
 72
     8
 73
     4
 74
     0
 42
0.0000000001
 43
0.0000000001
 40
0.0
 40
0.0
 40
0.0
 40
0.0
 40
1.0
 40
1.0
 40
1.0
 40
1.0
 10
181.5615322811108
 20
-29.95363961529647
 30
0.0
 10
181.4747819042005
 20
-30.00400669872263
 30
0.0
 10
181.4193660712185
 20
-30.09480745594003
 30
0.0
 10
181.4142369480995
 20
-30.19498810817883
 30
0.0
  0
SPLINE
  5
1B6
330
70
100
AcDbEntity
  8
0
 62
    18
420
        0
370
    25
100
AcDbSpline
210
0.0
220
0.0
230
1.0
 70
     8
 71
     3
 72
     8
 73
     4
 74
     0
 42
0.0000000001
 43
0.0000000001
 40
0.0
 40
0.0
 40
0.0
 40
0.0
 40
1.0
 40
1.0
 40
1.0
 40
1.0
 10
188.2144792266864
 20
-41.95960038457156
 30
0.0
 10
188.2100480316655
 20
-41.99552056601246
 30
0.0
 10
188.2261112577307
 20
-42.03089598412215
 30
0.0
 10
188.256072370975
 20
-42.05119934879976
 30
0.0
  0
LWPOLYLINE
  5
1B7
330
70
100
AcDbEntity
  8
0
 62
    18
420
        0
370
    25
100
AcDbPolyline
 90
        4
 70
     0
 43
0.0
 10
188.2552905469662
 20
-42.04823507918891
 10
188.2454571603658
 20
-42.0446803201889
 10
188.2212364201658
 20
-42.01249424578902
 10
188.2114962834661
 20
-41.96475234448882
  0
SPLINE
  5
1B8
330
70
100
AcDbEntity
  8
0
 62
    18
420
        0
370
    25
100
AcDbSpline
210
0.0
220
0.0
230
1.0
 70
     8
 71
     3
 72
     8
 73
     4
 74
     0
 42
0.0000000001
 43
0.0000000001
 40
0.0
 40
0.0
 40
0.0
 40
0.0
 40
1.0
 40
1.0
 40
1.0
 40
1.0
 10
189.0835056229808
 20
-41.68185168377369
 30
0.0
 10
189.1136908199226
 20
-41.66176362565141
 30
0.0
 10
189.1297737509578
 20
-41.62621747214649
 30
0.0
 10
189.1249359750674
 20
-41.59028319717163
 30
0.0
  0
SPLINE
  5
1B9
330
70
100
AcDbEntity
  8
0
 62
    18
420
        0
370
    25
100
AcDbSpline
210
0.0
220
0.0
230
1.0
 70
     8
 71
     3
 72
     8
 73
     4
 74
     0
 42
0.0000000001
 43
0.0000000001
 40
0.0
 40
0.0
 40
0.0
 40
0.0
 40
1.0
 40
1.0
 40
1.0
 40
1.0
 10
182.195286012787
 20
-29.58778137348081
 30
0.0
 10
182.1661095935737
 20
-29.56687852343392
 30
0.0
 10
182.1280058076159
 20
-29.5631058186192
 30
0.0
 10
182.0952968293799
 20
-29.57788131593466
 30
0.0
  0
LWPOLYLINE
  5
1BA
330
70
100
AcDbEntity
  8
0
 62
    18
420
        0
370
    25
100
AcDbPolyline
 90
       12
 70
     0
 43
0.0
 10
80.62647020186606
 20
-6.71269186798868
 10
80.60001936656584
 20
-6.416570708488819
 10
80.52190367306604
 20
-6.10375634288866
 10
80.39577580446595
 20
-5.788875703789092
 10
80.22753329026622
 20
-5.486652244488714
 10
80.02504293826548
 20
-5.211217498089057
 10
79.79777307116633
 20
-4.975450554989021
 10
79.5563504817656
 20
-4.790375604389175
 10
79.31206386566552
 20
-4.664646676589127
 10
79.07633578466593
 20
-4.60414243248883
 10
78.86018863546583
 20
-4.611692247388603
 10
78.69516429656575
 20
-4.6738871705886
  0
SPLINE
  5
1BB
330
70
100
AcDbEntity
  8
0
 62
    18
420
        0
370
    25
100
AcDbSpline
210
0.0
220
0.0
230
1.0
 70
     8
 71
     3
 72
     8
 73
     4
 74
     0
 42
0.0000000001
 43
0.0000000001
 40
0.0
 40
0.0
 40
0.0
 40
0.0
 40
1.0
 40
1.0
 40
1.0
 40
1.0
 10
80.29503429987817
 20
-7.44524352448812
 30
0.0
 10
80.53056291737183
 20
-7.279546190059947
 30
0.0
 10
80.65749784739184
 20
-6.99899000198359
 30
0.0
 10
80.62647020185066
 20
-6.712691868027182
 30
0.0
  0
LWPOLYLINE
  5
1BC
330
70
100
AcDbEntity
  8
0
 62
    18
420
        0
370
    25
100
AcDbPolyline
 90
        5
 70
     0
 43
0.0
 10
101.5426893464659
 20
5.361984427511003
 10
101.5548421268654
 20
5.144694434911428
 10
101.5920524598659
 20
5.009625803711265
 10
101.6660173472661
 20
4.954182591011127
 10
101.6834768109661
 20
4.958776384911261
  0
LWPOLYLINE
  5
1BD
330
70
100
AcDbEntity
  8
0
 62
    18
420
        0
370
    25
100
AcDbPolyline
 90
       10
 70
     0
 43
0.0
 10
102.7460389014661
 20
6.654710760511211
 10
102.678852017566
 20
6.715872206011403
 10
102.4037410980662
 20
6.82295539771125
 10
102.1512387359658
 20
6.818737818111348
 10
101.924768506566
 20
6.705080676910927
 10
101.7791469302659
 20
6.528057047510991
 10
101.652012673866
 20
6.217197907210975
 10
101.5793212140656
 20
5.861359576210895
 10
101.5458516772662
 20
5.498915800211456
 10
101.5426893464659
 20
5.361984427511003
  0
LWPOLYLINE
  5
1BE
330
70
100
AcDbEntity
  8
0
 62
    18
420
        0
370
    25
100
AcDbPolyline
 90
       12
 70
     0
 43
0.0
 10
107.2136858445662
 20
8.635781021110965
 10
107.1872350092659
 20
8.931902180610824
 10
107.1091193158656
 20
9.244716546311089
 10
106.9829914472661
 20
9.559597185311194
 10
106.8147489329657
 20
9.861820644610931
 10
106.6122585810657
 20
10.13725539111133
 10
106.3849887139659
 20
10.37302233411126
 10
106.1435661244657
 20
10.55809728471111
 10
105.8992795084657
 20
10.68382621261126
 10
105.663551427366
 20
10.74433045661081
 10
105.4474042782654
 20
10.73678064171104
 10
105.2823799392659
 20
10.67458571851104
  0
SPLINE
  5
1BF
330
70
100
AcDbEntity
  8
0
 62
    18
420
        0
370
    25
100
AcDbSpline
210
0.0
220
0.0
230
1.0
 70
     8
 71
     3
 72
     8
 73
     4
 74
     0
 42
0.0000000001
 43
0.0000000001
 40
0.0
 40
0.0
 40
0.0
 40
0.0
 40
1.0
 40
1.0
 40
1.0
 40
1.0
 10
106.8822499425783
 20
7.903229364611524
 30
0.0
 10
107.1177785600713
 20
8.068926699040339
 30
0.0
 10
107.2447134900913
 20
8.349482887116053
 30
0.0
 10
107.2136858445507
 20
8.635781021073103
 30
0.0
  0
LWPOLYLINE
  5
1C0
330
70
100
AcDbEntity
  8
0
 62
    18
420
        0
370
    25
100
AcDbPolyline
 90
        5
 70
     0
 43
0.0
 10
95.18579925046616
 20
1.692229888011423
 10
95.19808532016568
 20
1.476602924611151
 10
95.23569018726551
 20
1.34245089461134
 10
95.31026831126547
 20
1.287360906011179
 10
95.3137537897658
 20
1.288266207911107
  0
LWPOLYLINE
  5
1C1
330
70
100
AcDbEntity
  8
0
 62
    18
420
        0
370
    25
100
AcDbPolyline
 90
       10
 70
     0
 43
0.0
 10
96.31338734276603
 20
3.020528616810948
 10
96.25821850096613
 20
3.063160909811358
 10
95.97025483416578
 20
3.146205992611092
 10
95.73617709856602
 20
3.116980549511082
 10
95.53406254506636
 20
2.989906155511417
 10
95.39873191216607
 20
2.802852022511253
 10
95.29536992716579
 20
2.537353350311285
 10
95.22177975156543
 20
2.180190993211451
 10
95.18877244716561
 20
1.822986863110965
 10
95.18579925046616
 20
1.692229888011423
  0
LWPOLYLINE
  5
1C2
330
70
100
AcDbEntity
  8
0
 62
    18
420
        0
370
    25
100
AcDbPolyline
 90
        5
 70
     0
 43
0.0
 10
82.45787721016602
 20
-5.655443106288667
 10
82.47016301646606
 20
-5.871070221688832
 10
82.50776788356587
 20
-6.005222251688643
 10
82.58234653446619
 20
-6.060311936088807
 10
82.58583227636602
 20
-6.059406482188986
  0
LWPOLYLINE
  5
1C3
330
70
100
AcDbEntity
  8
0
 62
    18
420
        0
370
    25
100
AcDbPolyline
 90
       10
 70
     0
 43
0.0
 10
83.58546477556553
 20
-4.327144681589033
 10
83.53029672406547
 20
-4.284511932388734
 10
83.24233279386563
 20
-4.201467001588893
 10
83.00825479486638
 20
-4.230692596788901
 10
82.80614103166593
 20
-4.357766534588676
 10
82.67080934506566
 20
-4.544821275788622
 10
82.56744736006602
 20
-4.810319948088696
 10
82.49385744786579
 20
-5.167482153089173
 10
82.46085040686546
 20
-5.52468613108902
 10
82.45787721016602
 20
-5.655443106288667
  0
LWPOLYLINE
  5
1C4
330
70
100
AcDbEntity
  8
0
 62
    18
420
        0
370
    25
100
AcDbPolyline
 90
       10
 70
     0
 43
0.0
 10
88.81476730626586
 20
-1.985688566789086
 10
88.8269203499661
 20
-1.706839222988971
 10
88.86413015616628
 20
-1.403535104088965
 10
88.93809530696593
 20
-1.083374211888823
 10
89.08446854596588
 20
-0.7678135494887966
 10
89.24944085996598
 20
-0.6031253332886463
 10
89.46027236956554
 20
-0.5217225824891063
 10
89.68182445686631
 20
-0.5258047138888906
 10
89.93015803466617
 20
-0.6191230538887492
 10
89.99707596896609
 20
-0.6808158330886403
  0
LWPOLYLINE
  5
1C5
330
70
100
AcDbEntity
  8
0
 62
    18
420
        0
370
    25
100
AcDbPolyline
 90
        5
 70
     0
 43
0.0
 10
88.95096010566584
 20
-2.386244607889159
 10
88.92409063366596
 20
-2.390726053489165
 10
88.85139943716628
 20
-2.309675107588756
 10
88.81792990036556
 20
-2.106252115288947
 10
88.81476730626586
 20
-1.985688566789086
  0
LWPOLYLINE
  5
1C6
330
70
100
AcDbEntity
  8
0
 62
    18
420
        0
370
    25
100
AcDbPolyline
 90
       20
 70
     0
 43
0.0
 10
104.3184339175656
 20
9.777223443611411
 10
104.4309010870659
 20
9.783706375410911
 10
104.5491500015659
 20
9.763343814211243
 10
104.6321571886659
 20
9.718688705811189
 10
104.6810003132657
 20
9.65884692911128
 10
104.698816946766
 20
9.5871054250109
 10
104.6815376772661
 20
9.507207347311402
 10
104.6226648025663
 20
9.429272177211023
 10
104.5226902388659
 20
9.369029657111095
 10
104.3927541225658
 20
9.338398240911093
 10
104.2500954039662
 20
9.340337473310993
 10
104.1192949150655
 20
9.369435066510817
 10
104.0225088334662
 20
9.412873934611186
 10
103.9620681793658
 20
9.461246771511435
 10
103.9329844090659
 20
9.513410910311405
 10
103.9368527817654
 20
9.570641153811092
 10
103.9802677235659
 20
9.632399271811436
 10
104.0662795632655
 20
9.693870240711104
 10
104.1871721511661
 20
9.746066599511175
 10
104.3184339175656
 20
9.777223443611411
  0
LWPOLYLINE
  5
1C7
330
70
100
AcDbEntity
  8
0
 62
    18
420
        0
370
    25
100
AcDbPolyline
 90
       14
 70
     0
 43
0.0
 10
104.5479307351656
 20
9.378936470711146
 10
104.6194280398656
 20
9.440718952911311
 10
104.6445477426656
 20
9.513622005711011
 10
104.6194281633657
 20
9.586525196311088
 10
104.5478930664656
 20
9.648329400411324
 10
104.440833444666
 20
9.689625732811002
 10
104.3145477311659
 20
9.704126957311231
 10
104.1882622563657
 20
9.689625661511179
 10
104.0812023299664
 20
9.648329248311325
 10
104.0096676199659
 20
9.586525172511112
 10
103.9845479171658
 20
9.513622119711412
 10
104.0096674964658
 20
9.440718929111335
 10
104.0812025933659
 20
9.3789147250111
 10
104.0812025933659
 20
9.3789147250111
  0
LWPOLYLINE
  5
1C8
330
70
100
AcDbEntity
  8
0
 62
    18
420
        0
370
    25
100
AcDbPolyline
 90
       30
 70
     0
 43
0.0
 10
78.60272605026556
 20
-4.730518884688866
 10
78.80219302436572
 20
-4.682098321088875
 10
79.02744685626626
 20
-4.701903973288609
 10
79.26795485086637
 20
-4.789009863488947
 10
79.51247115896594
 20
-4.939342933489075
 10
79.74956244366603
 20
-5.145873805088873
 10
79.96814261836553
 20
-5.398945326288719
 10
80.15799105606552
 20
-5.686724123088572
 10
80.31023074116584
 20
-5.995753972088984
 10
80.41774307126596
 20
-6.311585073388632
 10
80.47550084896597
 20
-6.619449443088674
 10
80.48080344936586
 20
-6.904951686588991
 10
80.43340286446586
 20
-7.154742043688806
 10
80.33551555756609
 20
-7.357140556389101
 10
80.19171861056568
 20
-7.502683414588839
 10
80.00873576286609
 20
-7.584565061089176
 10
79.7951231539661
 20
-7.598956864989166
 10
79.56086902726553
 20
-7.545185925288767
 10
79.31692687116582
 20
-7.42576632138886
 10
79.07470315406624
 20
-7.246282326289127
 10
78.84552393586627
 20
-7.015126039788772
 10
78.64010543166587
 20
-6.743106274589129
 10
78.46805284226637
 20
-6.442942430288556
 10
78.33741098036589
 20
-6.128669596488556
 10
78.25428870236591
 20
-5.814983069489159
 10
78.22257254026594
 20
-5.516550306888661
 10
78.24374566816588
 20
-5.247325811089021
 10
78.31681796436561
 20
-5.019898154188722
 10
78.43837270236564
 20
-4.844901689489121
 10
78.60272605026556
 20
-4.730518884688866
  0
LWPOLYLINE
  5
1C9
330
70
100
AcDbEntity
  8
0
 62
    18
420
        0
370
    25
100
AcDbPolyline
 90
       17
 70
     0
 43
0.0
 10
78.69516429656575
 20
-4.6738871705886
 10
78.74414769316628
 20
-4.648877908088973
 10
78.94361466716635
 20
-4.600457344388877
 10
79.1688684990656
 20
-4.620262996688716
 10
79.40937649376582
 20
-4.707368886889054
 10
79.65389280186602
 20
-4.857701956789077
 10
79.89098408646602
 20
-5.064232828488981
 10
80.10956426126625
 20
-5.317304349688828
 10
80.29941269886615
 20
-5.60508314648868
 10
80.45165238406593
 20
-5.914112995489093
 10
80.55916471406595
 20
-6.229944096688636
 10
80.61692249186606
 20
-6.537808466388677
 10
80.62222509226595
 20
-6.823310709888994
 10
80.57482450736594
 20
-7.073101066988808
 10
80.47693720046554
 20
-7.275499579788567
 10
80.33314025336629
 20
-7.421042437888842
 10
80.29503429986597
 20
-7.445243524488762
  0
SPLINE
  5
1CA
330
70
100
AcDbEntity
  8
0
 62
    18
420
        0
370
    25
100
AcDbSpline
210
0.0
220
0.0
230
1.0
 70
     8
 71
     3
 72
     8
 73
     4
 74
     0
 42
0.0000000001
 43
0.0000000001
 40
0.0
 40
0.0
 40
0.0
 40
0.0
 40
1.0
 40
1.0
 40
1.0
 40
1.0
 10
109.5499621804248
 20
11.29825136704006
 30
0.0
 10
109.6379671588468
 20
11.25208270726349
 30
0.0
 10
109.7424465104978
 20
11.24950215397228
 30
0.0
 10
109.8326234443948
 20
11.29126986836672
 30
0.0
  0
SPLINE
  5
1CB
330
70
100
AcDbEntity
  8
0
 62
    18
420
        0
370
    25
100
AcDbSpline
210
0.0
220
0.0
230
1.0
 70
     8
 71
     3
 72
     8
 73
     4
 74
     0
 42
0.0000000001
 43
0.0000000001
 40
0.0
 40
0.0
 40
0.0
 40
0.0
 40
1.0
 40
1.0
 40
1.0
 40
1.0
 10
109.691202064984
 20
11.53621888205868
 30
0.0
 10
109.6092823684816
 20
11.48355698001602
 30
0.0
 10
109.5569510108934
 20
11.39538667909005
 30
0.0
 10
109.5499621804319
 20
11.29825136702209
 30
0.0
  0
SPLINE
  5
1CC
330
70
100
AcDbEntity
  8
0
 62
    18
420
        0
370
    25
100
AcDbSpline
210
0.0
220
0.0
230
1.0
 70
     8
 71
     3
 72
     8
 73
     4
 74
     0
 42
0.0000000001
 43
0.0000000001
 40
0.0
 40
0.0
 40
0.0
 40
0.0
 40
1.0
 40
1.0
 40
1.0
 40
1.0
 10
109.8326234443948
 20
11.29126986833079
 30
0.0
 10
109.8280828778206
 20
11.39104787540462
 30
0.0
 10
109.7753420706917
 20
11.48239763271595
 30
0.0
 10
109.691202064977
 20
11.53621888204007
 30
0.0
  0
LWPOLYLINE
  5
1CD
330
70
100
AcDbEntity
  8
0
 62
    18
420
        0
370
    25
100
AcDbPolyline
 90
        3
 70
     0
 43
0.0
 10
109.5497116700658
 20
11.29123003711143
 10
109.549712196866
 20
11.29124007511132
 10
109.5499621803658
 20
11.29825136701118
  0
SPLINE
  5
1CE
330
70
100
AcDbEntity
  8
0
 62
    18
420
        0
370
    25
100
AcDbSpline
210
0.0
220
0.0
230
1.0
 70
     8
 71
     3
 72
     8
 73
     4
 74
     0
 42
0.0000000001
 43
0.0000000001
 40
0.0
 40
0.0
 40
0.0
 40
0.0
 40
1.0
 40
1.0
 40
1.0
 40
1.0
 10
109.5559170032901
 20
11.29137308243652
 30
0.0
 10
109.64285307746
 20
11.24719206475325
 30
0.0
 10
109.7456544345571
 20
11.24715371887915
 30
0.0
 10
109.8326234444012
 20
11.29126986833014
 30
0.0
  0
SPLINE
  5
1CF
330
70
100
AcDbEntity
  8
0
 62
    18
420
        0
370
    25
100
AcDbSpline
210
0.0
220
0.0
230
1.0
 70
     8
 71
     3
 72
     8
 73
     4
 74
     0
 42
0.0000000001
 43
0.0000000001
 40
0.0
 40
0.0
 40
0.0
 40
0.0
 40
1.0
 40
1.0
 40
1.0
 40
1.0
 10
109.5559170032984
 20
11.29137308248209
 30
0.0
 10
109.5539762379796
 20
11.29245652883754
 30
0.0
 10
109.5516004492117
 20
11.29240176214876
 30
0.0
 10
109.5497116701088
 20
11.29123003712554
 30
0.0
  0
LWPOLYLINE
  5
1D0
330
70
100
AcDbEntity
  8
0
 62
    18
420
        0
370
    25
100
AcDbPolyline
 90
        7
 70
     0
 43
0.0
 10
109.5559172666658
 20
3.449020885211046
 10
109.5559283302657
 20
3.775514088611104
 10
109.5559728478658
 20
5.081541037911036
 10
109.5560149946658
 20
7.694112119610971
 10
109.5559999798656
 20
8.689500533311338
 10
109.5559172666658
 20
11.28793685501126
 10
109.5559170032657
 20
11.29137308241086
  0
LWPOLYLINE
  5
1D1
330
70
100
AcDbEntity
  8
0
 62
    18
420
        0
370
    25
100
AcDbPolyline
 90
        4
 70
     0
 43
0.0
 10
109.8326234443659
 20
11.29126986831089
 10
109.8319401385657
 20
8.693269074110839
 10
109.8319343433656
 20
6.095659474411351
 10
109.8326234443659
 20
3.452478006111268
  0
SPLINE
  5
1D2
330
70
100
AcDbEntity
  8
0
 62
    18
420
        0
370
    25
100
AcDbSpline
210
0.0
220
0.0
230
1.0
 70
     8
 71
     3
 72
     8
 73
     4
 74
     0
 42
0.0000000001
 43
0.0000000001
 40
0.0
 40
0.0
 40
0.0
 40
0.0
 40
1.0
 40
1.0
 40
1.0
 40
1.0
 10
109.5559172667204
 20
3.449020885237356
 30
0.0
 10
109.6435473368492
 20
3.4065197080291
 30
0.0
 10
109.7460825668894
 20
3.407800766092723
 30
0.0
 10
109.8326234444134
 20
3.452478006072766
 30
0.0
  0
LWPOLYLINE
  5
1D3
330
70
100
AcDbEntity
  8
0
 62
    18
420
        0
370
    25
100
AcDbPolyline
 90
        4
 70
     0
 43
0.0
 10
102.9029769065657
 20
15.4549778528114
 10
105.151764814266
 20
14.15599129861118
 10
107.4012301666658
 20
12.85739590091139
 10
109.691202064966
 20
11.53621888201119
  0
LWPOLYLINE
  5
1D4
330
70
100
AcDbEntity
  8
0
 62
    18
420
        0
370
    25
100
AcDbPolyline
 90
        7
 70
     0
 43
0.0
 10
109.5499621803658
 20
11.29825136701118
 10
109.2670182691662
 20
11.46160420491141
 10
108.1352904343659
 20
12.11498825171125
 10
105.8722584723659
 20
13.42145751951123
 10
105.0104780413657
 20
13.91893541581115
 10
102.7616295475659
 20
15.21707238151101
 10
102.7586560873656
 20
15.21878861911127
  0
SPLINE
  5
1D5
330
70
100
AcDbEntity
  8
0
 62
    18
420
        0
370
    25
100
AcDbSpline
210
0.0
220
0.0
230
1.0
 70
     8
 71
     3
 72
     8
 73
     4
 74
     0
 42
0.0000000001
 43
0.0000000001
 40
0.0
 40
0.0
 40
0.0
 40
0.0
 40
1.0
 40
1.0
 40
1.0
 40
1.0
 10
102.9029769065542
 20
15.45497785282809
 30
0.0
 10
102.8187225989341
 20
15.40500825128702
 30
0.0
 10
102.7646780315467
 20
15.31656124114353
 30
0.0
 10
102.7586560873765
 20
15.21878861911063
 30
0.0
  0
LWPOLYLINE
  5
1D6
330
70
100
AcDbEntity
  8
0
 62
    18
420
        0
370
    25
100
AcDbPolyline
 90
        5
 70
     0
 43
0.0
 10
106.8798347964659
 20
9.749455466111038
 10
106.9960468945659
 20
9.816564983311071
 10
107.5619295804658
 20
10.14334646671139
 10
108.1498065992657
 20
10.48282831471104
 10
109.5497116700658
 20
11.29123003711143
  0
LWPOLYLINE
  5
1D7
330
70
100
AcDbEntity
  8
0
 62
    18
420
        0
370
    25
100
AcDbPolyline
 90
        3
 70
     0
 43
0.0
 10
109.5497116700658
 20
3.452308592010955
 10
109.5497206262657
 20
3.452304029911313
 10
109.5559172666658
 20
3.449020885211046
  0
SPLINE
  5
1D8
330
70
100
AcDbEntity
  8
0
 62
    18
420
        0
370
    25
100
AcDbSpline
210
0.0
220
0.0
230
1.0
 70
     8
 71
     3
 72
     8
 73
     4
 74
     0
 42
0.0000000001
 43
0.0000000001
 40
0.0
 40
0.0
 40
0.0
 40
0.0
 40
1.0
 40
1.0
 40
1.0
 40
1.0
 10
106.8705558385947
 20
7.925443408575421
 30
0.0
 10
107.7478216077443
 20
6.425000033206949
 30
0.0
 10
108.6409234452595
 20
4.933871791542993
 30
0.0
 10
109.5497116701633
 20
3.452308591849247
 30
0.0
  0
SPLINE
  5
1D9
330
70
100
AcDbEntity
  8
0
 62
    18
420
        0
370
    25
100
AcDbSpline
210
0.0
220
0.0
230
1.0
 70
     8
 71
     3
 72
     8
 73
     4
 74
     0
 42
0.0000000001
 43
0.0000000001
 40
0.0
 40
0.0
 40
0.0
 40
0.0
 40
1.0
 40
1.0
 40
1.0
 40
1.0
 10
102.7613742956657
 20
15.21005378896076
 30
0.0
 10
103.5882731757322
 20
13.68554299664851
 30
0.0
 10
104.4312100112577
 20
12.16978598317088
 30
0.0
 10
105.290044475334
 20
10.66303508237548
 30
0.0
  0
SPLINE
  5
1DA
330
70
100
AcDbEntity
  8
0
 62
    18
420
        0
370
    25
100
AcDbSpline
210
0.0
220
0.0
230
1.0
 70
     8
 71
     3
 72
     8
 73
     4
 74
     0
 42
0.0000000001
 43
0.0000000001
 40
0.0
 40
0.0
 40
0.0
 40
0.0
 40
1.0
 40
1.0
 40
1.0
 40
1.0
 10
102.7586560874304
 20
15.21878861916453
 30
0.0
 10
102.75882825991
 20
15.21569745416028
 30
0.0
 10
102.7597620359149
 20
15.21269681034054
 30
0.0
 10
102.761374295742
 20
15.21005378883178
 30
0.0
  0
SPLINE
  5
1DB
330
70
100
AcDbEntity
  8
0
 62
    18
420
        0
370
    25
100
AcDbSpline
210
0.0
220
0.0
230
1.0
 70
     8
 71
     3
 72
     8
 73
     4
 74
     0
 42
0.0000000001
 43
0.0000000001
 40
0.0
 40
0.0
 40
0.0
 40
0.0
 40
1.0
 40
1.0
 40
1.0
 40
1.0
 10
110.4663771760948
 20
11.6571281101304
 30
0.0
 10
110.4618366095199
 20
11.75690611720488
 30
0.0
 10
110.4090958023917
 20
11.84825587451557
 30
0.0
 10
110.324955796677
 20
11.90207712384033
 30
0.0
  0
LINE
  5
1DC
330
70
100
AcDbEntity
  8
0
 62
    18
420
        0
370
    25
100
AcDbLine
 10
110.4663771760659
 20
11.65712811011115
 30
0.0
 11
109.8326234443659
 21
11.29126986831089
 31
0.0
  0
LINE
  5
1DD
330
70
100
AcDbEntity
  8
0
 62
    18
420
        0
370
    25
100
AcDbLine
 10
109.691202064966
 20
11.53621888201119
 30
0.0
 11
110.3249557966661
 21
11.90207712381081
 31
0.0
  0
LINE
  5
1DE
330
70
100
AcDbEntity
  8
0
 62
    18
420
        0
370
    25
100
AcDbLine
 10
110.4663771760659
 20
3.818336247910885
 30
0.0
 11
110.4663771760659
 21
11.65712811011115
 31
0.0
  0
LINE
  5
1DF
330
70
100
AcDbEntity
  8
0
 62
    18
420
        0
370
    25
100
AcDbLine
 10
109.8326234443659
 20
3.452478006111268
 30
0.0
 11
110.4663771760659
 21
3.818336247910885
 31
0.0
  0
LINE
  5
1E0
330
70
100
AcDbEntity
  8
0
 62
    18
420
        0
370
    25
100
AcDbLine
 10
110.3249557966661
 20
11.90207712381081
 30
0.0
 11
103.5367306382657
 21
15.82083609461102
 31
0.0
  0
LINE
  5
1E1
330
70
100
AcDbEntity
  8
0
 62
    18
420
        0
370
    25
100
AcDbLine
 10
103.5367306382657
 20
15.82083609461102
 30
0.0
 11
102.9029769065657
 21
15.4549778528114
 31
0.0
  0
LWPOLYLINE
  5
1E2
330
70
100
AcDbEntity
  8
0
 62
    18
420
        0
370
    25
100
AcDbPolyline
 90
        3
 70
     0
 43
0.0
 10
102.7613742956663
 20
15.21005378881124
 10
102.7613663931657
 20
15.21005895911131
 10
102.7556744612658
 20
15.21363346581083
  0
SPLINE
  5
1E3
330
70
100
AcDbEntity
  8
0
 62
    18
420
        0
370
    25
100
AcDbSpline
210
0.0
220
0.0
230
1.0
 70
     8
 71
     3
 72
     8
 73
     4
 74
     0
 42
0.0000000001
 43
0.0000000001
 40
0.0
 40
0.0
 40
0.0
 40
0.0
 40
1.0
 40
1.0
 40
1.0
 40
1.0
 10
109.5529377479051
 20
3.443866948474443
 30
0.0
 10
109.5525328498721
 20
3.446893256626948
 30
0.0
 10
109.5514282807325
 20
3.449783570925317
 30
0.0
 10
109.549711670069
 20
3.45230859197117
 30
0.0
  0
LWPOLYLINE
  5
1E4
330
70
100
AcDbEntity
  8
0
 62
    18
420
        0
370
    25
100
AcDbPolyline
 90
        6
 70
     0
 43
0.0
 10
106.1550414353659
 20
5.403571698711342
 10
106.4378910101658
 20
5.240302843711283
 10
107.569412489966
 20
4.587463821111271
 10
108.5596497981656
 20
4.016455597911027
 10
109.5499621803658
 20
3.445581969510857
 10
109.552937747866
 20
3.44386694851102
  0
SPLINE
  5
1E5
330
70
100
AcDbEntity
  8
0
 62
    18
420
        0
370
    25
100
AcDbSpline
210
0.0
220
0.0
230
1.0
 70
     8
 71
     3
 72
     8
 73
     4
 74
     0
 42
0.0000000001
 43
0.0000000001
 40
0.0
 40
0.0
 40
0.0
 40
0.0
 40
1.0
 40
1.0
 40
1.0
 40
1.0
 10
102.9029769065901
 20
15.45497785285055
 30
0.0
 10
102.8162249709313
 20
15.40461328818681
 30
0.0
 10
102.7608064494074
 20
15.3138140548012
 30
0.0
 10
102.7556744612979
 20
15.2136334658012
 30
0.0
  0
LWPOLYLINE
  5
1E6
330
70
100
AcDbEntity
  8
0
 62
    18
420
        0
370
    25
100
AcDbPolyline
 90
        4
 70
     0
 43
0.0
 10
109.552937747866
 20
3.44386694851102
 10
109.5626755138657
 20
3.39612641581113
 10
109.5868970442661
 20
3.363939885111261
 10
109.5967341186659
 20
3.360382997211151
  0
SPLINE
  5
1E7
330
70
100
AcDbEntity
  8
0
 62
    18
420
        0
370
    25
100
AcDbSpline
210
0.0
220
0.0
230
1.0
 70
     8
 71
     3
 72
     8
 73
     4
 74
     0
 42
0.0000000001
 43
0.0000000001
 40
0.0
 40
0.0
 40
0.0
 40
0.0
 40
1.0
 40
1.0
 40
1.0
 40
1.0
 10
110.4249476142779
 20
3.726767305108932
 30
0.0
 10
110.4549252153084
 20
3.747031245214431
 30
0.0
 10
110.4709464454371
 20
3.782441880529107
 30
0.0
 10
110.4663771761102
 20
3.818336247914735
 30
0.0
  0
SPLINE
  5
1E8
330
70
100
AcDbEntity
  8
0
 62
    18
420
        0
370
    25
100
AcDbSpline
210
0.0
220
0.0
230
1.0
 70
     8
 71
     3
 72
     8
 73
     4
 74
     0
 42
0.0000000001
 43
0.0000000001
 40
0.0
 40
0.0
 40
0.0
 40
0.0
 40
1.0
 40
1.0
 40
1.0
 40
1.0
 10
103.5367306382811
 20
15.82083609463476
 30
0.0
 10
103.5075531582693
 20
15.84173851265007
 30
0.0
 10
103.4694491231045
 20
15.8455117222381
 30
0.0
 10
103.4367388206956
 20
15.83073767286005
 30
0.0
  0
LWPOLYLINE
  5
1E9
330
70
100
AcDbEntity
  8
0
 62
    18
420
        0
370
    25
100
AcDbPolyline
 90
       17
 70
     0
 43
0.0
 10
158.953591847666
 20
-52.85386224718885
 10
158.9750277347661
 20
-52.84080689028911
 10
159.1230811842659
 20
-52.70137406608885
 10
159.2258014834657
 20
-52.50427636268899
 10
159.278392320966
 20
-52.25873378748912
 10
159.278392320966
 20
-51.97622629118858
 10
159.2258014834657
 20
-51.66996362738907
 10
159.1230811842659
 20
-51.35426759088912
 10
158.9750277347661
 20
-51.04389589258915
 10
158.7885700769661
 20
-50.75336470048902
 10
158.5724241790656
 20
-50.49625742138896
 10
158.3366968553659
 20
-50.28459625358912
 10
158.0924052919658
 20
-50.12827500198889
 10
157.8509797143658
 20
-50.03460763898871
 10
157.6237154778658
 20
-50.00797762928868
 10
157.4212251588657
 20
-50.0496220107891
 10
157.3537227662659
 20
-50.08250642558895
  0
LWPOLYLINE
  5
1EA
330
70
100
AcDbEntity
  8
0
 62
    18
420
        0
370
    25
100
AcDbPolyline
 90
       17
 70
     0
 43
0.0
 10
185.5408074903661
 20
-37.50538935808857
 10
185.5622433775657
 20
-37.49233400108873
 10
185.710296826966
 20
-37.35290117698857
 10
185.8130171261658
 20
-37.15580347358871
 10
185.8656079637662
 20
-36.91026089838884
 10
185.8656079637662
 20
-36.62775340198883
 10
185.8130171261658
 20
-36.32149073818868
 10
185.710296826966
 20
-36.00579470178884
 10
185.5622433775657
 20
-35.69542300348887
 10
185.3757857197657
 20
-35.40489181138875
 10
185.1596398218659
 20
-35.14778453228868
 10
184.923912498066
 20
-34.93612336438874
 10
184.679620934766
 20
-34.77980211288861
 10
184.438195357166
 20
-34.68613474978897
 10
184.2109311205659
 20
-34.65950474018903
 10
184.0084408015658
 20
-34.70114912168881
 10
183.9409384090661
 20
-34.73403353638856
  0
LWPOLYLINE
  5
1EB
330
70
100
AcDbEntity
  8
0
 62
    18
420
        0
370
    25
100
AcDbPolyline
 90
       20
 70
     0
 43
0.0
 10
183.3560112744656
 20
-35.84964705538897
 10
183.3193967266657
 20
-35.9374429003888
 10
183.241514092166
 20
-36.00916992448875
 10
183.1262967255658
 20
-36.05707051348876
 10
182.9881599027658
 20
-36.07298953868868
 10
182.8473799456662
 20
-36.05765547618912
 10
182.7301632378662
 20
-36.02043145528872
 10
182.6503439556662
 20
-35.97419857388855
 10
182.604282191766
 20
-35.92427300828889
 10
182.5893242752662
 20
-35.8699525148886
 10
182.6100679004656
 20
-35.81041810988916
 10
182.6727771426659
 20
-35.74788867938891
 10
182.7759826574658
 20
-35.68932220288917
 10
182.9078332777658
 20
-35.64464959978917
 10
183.0505440873656
 20
-35.62454923148898
 10
183.1789913497656
 20
-35.63654584618918
 10
183.2723713804658
 20
-35.67581682548897
 10
183.3298807552658
 20
-35.73205289528893
 10
183.3562162135658
 20
-35.8007861447886
 10
183.3560112744656
 20
-35.84964705538897
  0
LWPOLYLINE
  5
1EC
330
70
100
AcDbEntity
  8
0
 62
    18
420
        0
370
    25
100
AcDbPolyline
 90
        9
 70
     0
 43
0.0
 10
183.2069331297657
 20
-35.76001617038892
 10
183.0998701246657
 20
-35.71871788488902
 10
182.9735828883657
 20
-35.7042157812887
 10
182.8472956519662
 20
-35.71871606008882
 10
182.7402379151659
 20
-35.76001312908905
 10
182.6687010155657
 20
-35.82181654908888
 10
182.6435830743662
 20
-35.89472061878905
 10
182.6687041765656
 20
-35.96762468858868
 10
182.740200509866
 20
-36.02940651498911
  0
LWPOLYLINE
  5
1ED
330
70
100
AcDbEntity
  8
0
 62
    18
420
        0
370
    25
100
AcDbPolyline
 90
        5
 70
     0
 43
0.0
 10
183.2069679009661
 20
-36.02940681908901
 10
183.2784663415657
 20
-35.9676256009891
 10
183.3035842827659
 20
-35.89472153128893
 10
183.2784631805659
 20
-35.82181746148866
 10
183.2069331297657
 20
-35.76001617038892
  0
LWPOLYLINE
  5
1EE
330
70
100
AcDbEntity
  8
0
 62
    18
420
        0
370
    25
100
AcDbPolyline
 90
       30
 70
     0
 43
0.0
 10
157.9990057683662
 20
-50.23581192608896
 10
158.2425049709661
 20
-50.40363890348885
 10
158.4752482977661
 20
-50.62506667208864
 10
158.6863365738662
 20
-50.88973221008871
 10
158.8658990072662
 20
-51.18525975798899
 10
159.0055483751662
 20
-51.49783591428881
 10
159.0987519159657
 20
-51.81284321798894
 10
159.1411516455656
 20
-52.11555236788862
 10
159.1307666620661
 20
-52.39180998588913
 10
159.0680774395655
 20
-52.62869562908859
 10
158.956017398766
 20
-52.81513400208897
 10
158.7998296075658
 20
-52.94240938478869
 10
158.6068139000658
 20
-53.00456856918891
 10
158.3859981313661
 20
-52.99870650018894
 10
158.1476998498658
 20
-52.9250931625888
 10
157.9030711117656
 20
-52.787175753089
 10
157.6635505716661
 20
-52.59140359648856
 10
157.4403324325659
 20
-52.34692728108871
 10
157.2438522542662
 20
-52.06517733398912
 10
157.0832980494657
 20
-51.75932852098876
 10
156.9661888162661
 20
-51.44368866408915
 10
156.8979867859658
 20
-51.13300888098911
 10
156.8818866898656
 20
-50.84181947378878
 10
156.9186387417662
 20
-50.58373465398915
 10
157.0065233502656
 20
-50.37082151298898
 10
157.1414438416657
 20
-50.21304299348888
 10
157.317069759466
 20
-50.1177641640891
 10
157.5252077561661
 20
-50.08945085148892
 10
157.756121909766
 20
-50.12942489338903
 10
157.9990057683662
 20
-50.23581192608896
  0
LWPOLYLINE
  5
1EF
330
70
100
AcDbEntity
  8
0
 62
    18
420
        0
370
    25
100
AcDbPolyline
 90
       12
 70
     0
 43
0.0
 10
158.1404274111662
 20
-50.15417094948906
 10
158.3839266137661
 20
-50.32199792678884
 10
158.6166699406661
 20
-50.54342569538865
 10
158.8277582167656
 20
-50.80809123338872
 10
159.0073206500662
 20
-51.1036187813891
 10
159.1469700179662
 20
-51.41619493768891
 10
159.2401735587657
 20
-51.73120224128894
 10
159.2825732883662
 20
-52.03391139128873
 10
159.2721883048661
 20
-52.3101690092886
 10
159.2094990824656
 20
-52.5470546524887
 10
159.097439041566
 20
-52.73349302538896
 10
158.953591847666
 20
-52.85386224718885
  0
SPLINE
  5
1F0
330
70
100
AcDbEntity
  8
0
 62
    18
420
        0
370
    25
100
AcDbSpline
210
0.0
220
0.0
230
1.0
 70
     8
 71
     3
 72
     8
 73
     4
 74
     0
 42
0.0000000001
 43
0.0000000001
 40
0.0
 40
0.0
 40
0.0
 40
0.0
 40
1.0
 40
1.0
 40
1.0
 40
1.0
 10
158.1404274111957
 20
-50.15417094951025
 30
0.0
 10
157.9104067967519
 20
-49.98988406564031
 30
0.0
 10
157.609642229577
 20
-49.9624860457308
 30
0.0
 10
157.3537227662608
 20
-50.08250642556905
 30
0.0
  0
LWPOLYLINE
  5
1F1
330
70
100
AcDbEntity
  8
0
 62
     8
420
  8421504
370
    25
100
AcDbPolyline
 90
        6
 70
     0
 43
0.0
 10
181.4142369481657
 20
-30.1949881081891
 10
181.414017784566
 20
-30.52159475408882
 10
181.4132644095659
 20
-31.82803730498865
 10
181.4126369483657
 20
-34.44094080688902
 10
181.4128534778659
 20
-35.43621805898907
 10
181.4132538728658
 20
-36.1932354429889
  0
LWPOLYLINE
  5
1F2
330
70
100
AcDbEntity
  8
0
 62
     8
420
  8421504
370
    25
100
AcDbPolyline
 90
        5
 70
     0
 43
0.0
 10
183.0127899941662
 20
-38.96478566618917
 10
185.0963979487662
 20
-40.16828879198873
 10
185.9583742309656
 20
-40.66565225728883
 10
188.208519662366
 20
-41.96303671508899
 10
188.2114962834661
 20
-41.96475234448882
  0
SPLINE
  5
1F3
330
70
100
AcDbEntity
  8
0
 62
     8
420
  8421504
370
    25
100
AcDbSpline
210
0.0
220
0.0
230
1.0
 70
     8
 71
     3
 72
     8
 73
     4
 74
     0
 42
0.0000000001
 43
0.0000000001
 40
0.0
 40
0.0
 40
0.0
 40
0.0
 40
1.0
 40
1.0
 40
1.0
 40
1.0
 10
188.4497518912808
 20
-42.04770992557395
 30
0.0
 10
188.4799370882226
 20
-42.02762186745102
 30
0.0
 10
188.4960200192578
 20
-41.99207571394611
 30
0.0
 10
188.4911822433674
 20
-41.95614143897124
 30
0.0
  0
SPLINE
  5
1F4
330
70
100
AcDbEntity
  8
0
 62
     8
420
  8421504
370
    25
100
AcDbSpline
210
0.0
220
0.0
230
1.0
 70
     8
 71
     3
 72
     8
 73
     4
 74
     0
 42
0.0000000001
 43
0.0000000001
 40
0.0
 40
0.0
 40
0.0
 40
0.0
 40
1.0
 40
1.0
 40
1.0
 40
1.0
 10
181.3615370555409
 20
-30.1168845371343
 30
0.0
 10
181.3643913295
 20
-30.15028915145862
 30
0.0
 10
181.3843290599551
 20
-30.17983774961957
 30
0.0
 10
181.4142369480828
 20
-30.19498810821926
 30
0.0
  0
SPLINE
  5
1F5
330
70
100
AcDbEntity
  8
0
 62
     8
420
  8421504
370
    25
100
AcDbSpline
210
0.0
220
0.0
230
1.0
 70
     8
 71
     3
 72
     8
 73
     4
 74
     0
 42
0.0000000001
 43
0.0000000001
 40
0.0
 40
0.0
 40
0.0
 40
0.0
 40
1.0
 40
1.0
 40
1.0
 40
1.0
 10
181.5615322811872
 20
-29.95363961528043
 30
0.0
 10
181.5323558619732
 20
-29.93273676523418
 30
0.0
 10
181.494252076016
 20
-29.92896406041881
 30
0.0
 10
181.4615430977801
 20
-29.94373955773428
 30
0.0
  0
LWPOLYLINE
  5
1F6
330
70
100
AcDbEntity
  8
0
 62
     8
420
  8421504
370
    25
100
AcDbPolyline
 90
        6
 70
     0
 43
0.0
 10
102.7556744612658
 20
15.21363346581083
 10
102.7554610928656
 20
14.88702347441124
 10
102.7547021861657
 20
13.58058411691128
 10
102.7540794664663
 20
10.96767787771082
 10
102.7542915177658
 20
9.972403210810865
 10
102.754694810466
 20
9.215384154110839
  0
LWPOLYLINE
  5
1F7
330
70
100
AcDbEntity
  8
0
 62
     8
420
  8421504
370
    25
100
AcDbPolyline
 90
        3
 70
     0
 43
0.0
 10
106.0959425975657
 20
7.44930379101087
 10
106.109947468466
 20
6.656052836510848
 10
106.1550414353659
 20
5.403571698711342
  0
SPLINE
  5
1F8
330
70
100
AcDbEntity
  8
0
 62
     8
420
  8421504
370
    25
100
AcDbSpline
210
0.0
220
0.0
230
1.0
 70
     8
 71
     3
 72
     8
 73
     4
 74
     0
 42
0.0000000001
 43
0.0000000001
 40
0.0
 40
0.0
 40
0.0
 40
0.0
 40
1.0
 40
1.0
 40
1.0
 40
1.0
 10
109.7911938825779
 20
3.360909063308675
 30
0.0
 10
109.8211714836084
 20
3.381173003414173
 30
0.0
 10
109.8371927137371
 20
3.416583638728849
 30
0.0
 10
109.8326234444102
 20
3.452478006114477
 30
0.0
  0
SPLINE
  5
1F9
330
70
100
AcDbEntity
  8
0
 62
     8
420
  8421504
370
    25
100
AcDbSpline
210
0.0
220
0.0
230
1.0
 70
     8
 71
     3
 72
     8
 73
     4
 74
     0
 42
0.0000000001
 43
0.0000000001
 40
0.0
 40
0.0
 40
0.0
 40
0.0
 40
1.0
 40
1.0
 40
1.0
 40
1.0
 10
109.5559172666607
 20
3.449020885237997
 30
0.0
 10
109.5507663810984
 20
3.412991468014524
 30
0.0
 10
109.566998446582
 20
3.377248563973112
 30
0.0
 10
109.5975172598121
 20
3.357417967245331
 30
0.0
  0
SPLINE
  5
1FA
330
70
100
AcDbEntity
  8
0
 62
     8
420
  8421504
370
    25
100
AcDbSpline
210
0.0
220
0.0
230
1.0
 70
     8
 71
     3
 72
     8
 73
     4
 74
     0
 42
0.0000000001
 43
0.0000000001
 40
0.0
 40
0.0
 40
0.0
 40
0.0
 40
1.0
 40
1.0
 40
1.0
 40
1.0
 10
102.7029772028837
 20
15.29173551619484
 30
0.0
 10
102.7058336455423
 20
15.25833279259567
 30
0.0
 10
102.7257695669163
 20
15.22878597394957
 30
0.0
 10
102.7556744612472
 20
15.21363346578837
 30
0.0
  0
SPLINE
  5
1FB
330
70
100
AcDbEntity
  8
0
 62
     8
420
  8421504
370
    25
100
AcDbSpline
210
0.0
220
0.0
230
1.0
 70
     8
 71
     3
 72
     8
 73
     4
 74
     0
 42
0.0000000001
 43
0.0000000001
 40
0.0
 40
0.0
 40
0.0
 40
0.0
 40
1.0
 40
1.0
 40
1.0
 40
1.0
 10
102.9029769065811
 20
15.45497785283514
 30
0.0
 10
102.8737994265693
 20
15.47588027084982
 30
0.0
 10
102.8356953914045
 20
15.47965348043784
 30
0.0
 10
102.8029850889956
 20
15.46487943105979
 30
0.0
  0
SPLINE
  5
1FC
330
70
100
AcDbEntity
  8
0
 62
     8
420
  8421504
370
    25
100
AcDbSpline
210
0.0
220
0.0
230
1.0
 70
     8
 71
     3
 72
     8
 73
     4
 74
     0
 42
0.0000000001
 43
0.0000000001
 40
0.0
 40
0.0
 40
0.0
 40
0.0
 40
1.0
 40
1.0
 40
1.0
 40
1.0
 10
106.1550414353531
 20
5.403571698690807
 30
0.0
 10
106.1534412833223
 20
5.370374064159354
 30
0.0
 10
106.1690750315214
 20
5.338698300081881
 30
0.0
 10
106.1963990841257
 20
5.319776366399159
 30
0.0
  0
LWPOLYLINE
  5
1FD
330
70
100
AcDbEntity
  8
0
 62
     8
420
  8421504
370
    25
100
AcDbPolyline
 90
        3
 70
     0
 43
0.0
 10
104.3541936580655
 20
6.443813474111165
 10
105.1651444630658
 20
5.975224762511222
 10
106.1550414353659
 20
5.403571698711342
  0
INSERT
  5
200
330
70
100
AcDbEntity
  8
CAPA_BASE
100
AcDbBlockReference
  2
Block_0
 10
0.0
 20
0.0
 30
0.0
  0
INSERT
  5
20C
330
70
100
AcDbEntity
  8
CAPA_BASE
100
AcDbBlockReference
  2
Block_1
 10
0.0
 20
0.0
 30
0.0
  0
INSERT
  5
218
330
70
100
AcDbEntity
  8
CAPA_BASE
100
AcDbBlockReference
  2
Block_2
 10
0.0
 20
0.0
 30
0.0
  0
ENDSEC
  0
SECTION
  2
OBJECTS
  0
DICTIONARY
  5
C
330
0
100
AcDbDictionary
281
     1
  3
ACAD_COLOR
350
63
  3
ACAD_DETAILVIEWSTYLE
350
6A
  3
ACAD_GROUP
350
D
  3
ACAD_LAYOUT
350
62
  3
ACAD_MATERIAL
350
10
  3
ACAD_MLEADERSTYLE
350
66
  3
ACAD_MLINESTYLE
350
5F
  3
ACAD_PLOTSETTINGS
350
61
  3
ACAD_PLOTSTYLENAME
350
E
  3
ACAD_SCALELIST
350
42
  3
ACAD_SECTIONVIEWSTYLE
350
68
  3
ACAD_TABLESTYLE
350
64
  3
ACAD_VISUALSTYLE
350
29
  3
ACDB_RECOMPOSE_DATA
350
22B
  3
AcDbVariableDictionary
350
223
  0
DICTIONARY
  5
63
102
{ACAD_REACTORS
330
C
102
}
330
C
100
AcDbDictionary
281
     1
  0
DICTIONARY
  5
6A
102
{ACAD_REACTORS
330
C
102
}
330
C
100
AcDbDictionary
281
     1
  3
Imperial24
350
6B
  0
DICTIONARY
  5
D
102
{ACAD_REACTORS
330
C
102
}
330
C
100
AcDbDictionary
281
     1
  0
DICTIONARY
  5
62
102
{ACAD_REACTORS
330
C
102
}
330
C
100
AcDbDictionary
281
     1
  3
Layout1
350
6F
  3
Layout2
350
77
  3
Model
350
73
  0
DICTIONARY
  5
10
102
{ACAD_REACTORS
330
C
102
}
330
C
100
AcDbDictionary
281
     1
  3
ByBlock
350
19
  3
ByLayer
350
11
  3
Global
350
21
  0
DICTIONARY
  5
66
102
{ACAD_REACTORS
330
C
102
}
330
C
100
AcDbDictionary
281
     1
  3
Standard
350
67
  0
DICTIONARY
  5
5F
102
{ACAD_REACTORS
330
C
102
}
330
C
100
AcDbDictionary
281
     1
  3
Standard
350
60
  0
DICTIONARY
  5
61
102
{ACAD_REACTORS
330
C
102
}
330
C
100
AcDbDictionary
281
     1
  0
ACDBDICTIONARYWDFLT
  5
E
102
{ACAD_REACTORS
330
C
102
}
330
C
100
AcDbDictionary
281
     1
  3
Normal
350
F
100
AcDbDictionaryWithDefault
340
F
  0
DICTIONARY
  5
42
102
{ACAD_REACTORS
330
C
102
}
330
C
100
AcDbDictionary
281
     1
  3
A0
350
43
  3
A1
350
44
  3
A2
350
45
  3
A3
350
46
  3
A4
350
47
  3
A5
350
48
  3
A6
350
49
  3
A7
350
4A
  3
A8
350
4B
  3
A9
350
4C
  3
B0
350
4D
  3
B1
350
4E
  3
B2
350
4F
  3
B3
350
50
  3
B4
350
51
  3
B5
350
52
  3
B6
350
53
  0
DICTIONARY
  5
68
102
{ACAD_REACTORS
330
C
102
}
330
C
100
AcDbDictionary
281
     1
  3
Imperial24
350
69
  0
DICTIONARY
  5
64
102
{ACAD_REACTORS
330
C
102
}
330
C
100
AcDbDictionary
281
     1
  3
Standard
350
65
  0
DICTIONARY
  5
29
102
{ACAD_REACTORS
330
C
102
}
330
C
100
AcDbDictionary
281
     1
  3
2dWireframe
350
2F
  3
Basic
350
2E
  3
Brighten
350
35
  3
ColorChange
350
39
  3
Conceptual
350
32
  3
Dim
350
34
  3
EdgeColorOff
350
41
  3
Facepattern
350
38
  3
Flat
350
2A
  3
FlatWithEdges
350
2B
  3
Gouraud
350
2C
  3
GouraudWithEdges
350
2D
  3
Hidden
350
31
  3
JitterOff
350
3F
  3
Linepattern
350
37
  3
OverhangOff
350
40
  3
Realistic
350
33
  3
Shaded
350
3E
  3
Shaded with edges
350
3D
  3
Shades of Gray
350
3A
  3
Sketchy
350
3B
  3
Thicken
350
36
  3
Wireframe
350
30
  3
X-Ray
350
3C
  0
XRECORD
  5
22B
102
{ACAD_REACTORS
330
C
102
}
330
C
100
AcDbXrecord
280
     1
 90
        1
330
65
  0
DICTIONARY
  5
223
102
{ACAD_REACTORS
330
C
102
}
330
C
100
AcDbDictionary
281
     1
  3
CANNOSCALE
350
228
  3
CMLEADERSTYLE
350
225
  3
CTABLESTYLE
350
224
  3
CVIEWDETAILSTYLE
350
226
  3
CVIEWSECTIONSTYLE
350
227
  0
ACDBDETAILVIEWSTYLE
  5
6B
102
{ACAD_REACTORS
330
6A
102
}
330
6A
100
AcDbModelDocViewStyle
 70
     0
  3
Imperial24
290
     1
300
Imperial24
 90
        0
100
AcDbDetailViewStyle
 70
     0
 71
     0
 90
        3
 71
     1
340
55
 62
   256
 40
0.24
340
0
 62
   256
 40
0.24
300

 40
0.36
280
     3
 71
     2
340
5D
 90
       25
 62
   256
 71
     3
340
55
 62
   256
 40
0.24
 90
        1
 40
0.75
 90
        1
300
%<\AcVar ViewType \f "%tc1">% %<\AcVar ViewDetailId>%\PSCALE %<\AcVar ViewScale \f "%sn">%
 71
     4
340
5D
 90
       25
 62
   256
340
5D
 90
       25
 62
   256
280
     0
  0
LAYOUT
  5
6F
102
{ACAD_REACTORS
330
62
102
}
330
62
100
AcDbPlotSettings
  1

  2

  4

  6

 40
0.0
 41
0.0
 42
0.0
 43
0.0
 44
0.0
 45
0.0
 46
0.0
 47
0.0
 48
0.0
 49
0.0
140
0.0
141
0.0
142
1.0
143
1.0
 70
   688
 72
     0
 73
     0
 74
     5
  7

 75
    16
147
1.0
 76
     0
 77
     2
 78
   300
148
0.0
149
0.0
100
AcDbLayout
  1
Layout1
 70
     1
 71
     1
 10
0.0
 20
0.0
 11
12.0
 21
9.0
 12
0.0
 22
0.0
 32
0.0
 14
0.0
 24
0.0
 34
0.0
 15
0.0
 25
0.0
 35
0.0
146
0.0
 13
0.0
 23
0.0
 33
0.0
 16
1.0
 26
0.0
 36
0.0
 17
0.0
 27
1.0
 37
0.0
 76
     0
330
6C
  0
LAYOUT
  5
77
102
{ACAD_REACTORS
330
62
102
}
330
62
100
AcDbPlotSettings
  1

  2

  4

  6

 40
0.0
 41
0.0
 42
0.0
 43
0.0
 44
0.0
 45
0.0
 46
0.0
 47
0.0
 48
0.0
 49
0.0
140
0.0
141
0.0
142
1.0
143
1.0
 70
   688
 72
     0
 73
     0
 74
     5
  7

 75
    16
147
1.0
 76
     0
 77
     2
 78
   300
148
0.0
149
0.0
100
AcDbLayout
  1
Layout2
 70
     1
 71
     2
 10
0.0
 20
0.0
 11
12.0
 21
9.0
 12
0.0
 22
0.0
 32
0.0
 14
0.0
 24
0.0
 34
0.0
 15
0.0
 25
0.0
 35
0.0
146
0.0
 13
0.0
 23
0.0
 33
0.0
 16
1.0
 26
0.0
 36
0.0
 17
0.0
 27
1.0
 37
0.0
 76
     0
330
74
  0
LAYOUT
  5
73
102
{ACAD_REACTORS
330
62
102
}
330
62
100
AcDbPlotSettings
  1

  2

  4

  6

 40
0.0
 41
0.0
 42
0.0
 43
0.0
 44
0.0
 45
0.0
 46
0.0
 47
0.0
 48
0.0
 49
0.0
140
0.0
141
0.0
142
1.0
143
1.0
 70
  1712
 72
     0
 73
     0
 74
     0
  7

 75
     0
147
1.0
 76
     0
 77
     2
 78
   300
148
0.0
149
0.0
100
AcDbLayout
  1
Model
 70
     1
 71
     0
 10
0.0
 20
0.0
 11
12.0
 21
9.0
 12
0.0
 22
0.0
 32
0.0
 14
0.0
 24
0.0
 34
0.0
 15
0.0
 25
0.0
 35
0.0
146
0.0
 13
0.0
 23
0.0
 33
0.0
 16
1.0
 26
0.0
 36
0.0
 17
0.0
 27
1.0
 37
0.0
 76
     0
330
70
  0
MATERIAL
  5
19
102
{ACAD_XDICTIONARY
360
1A
102
}
102
{ACAD_REACTORS
330
10
102
}
330
10
100
AcDbMaterial
  1
ByBlock
 72
     0
 43
0.0208333333333333
 43
0.0
 43
0.0
 43
0.0
 43
0.0
 43
0.0208333333333333
 43
0.0
 43
0.0
 43
0.0
 43
0.0
 43
1.0
 43
0.0
 43
0.0
 43
0.0
 43
0.0
 43
1.0
 77
     0
 47
0.0208333333333333
 47
0.0
 47
0.0
 47
0.0
 47
0.0
 47
0.0208333333333333
 47
0.0
 47
0.0
 47
0.0
 47
0.0
 47
1.0
 47
0.0
 47
0.0
 47
0.0
 47
0.0
 47
1.0
171
     0
 49
0.0208333333333333
 49
0.0
 49
0.0
 49
0.0
 49
0.0
 49
0.0208333333333333
 49
0.0
 49
0.0
 49
0.0
 49
0.0
 49
1.0
 49
0.0
 49
0.0
 49
0.0
 49
0.0
 49
1.0
175
     0
142
0.0208333333333333
142
0.0
142
0.0
142
0.0
142
0.0
142
0.0208333333333333
142
0.0
142
0.0
142
0.0
142
0.0
142
1.0
142
0.0
142
0.0
142
0.0
142
0.0
142
1.0
179
     0
144
0.0208333333333333
144
0.0
144
0.0
144
0.0
144
0.0
144
0.0208333333333333
144
0.0
144
0.0
144
0.0
144
0.0
144
1.0
144
0.0
144
0.0
144
0.0
144
0.0
144
1.0
147
0.0208333333333333
147
0.0
147
0.0
147
0.0
147
0.0
147
0.0208333333333333
147
0.0
147
0.0
147
0.0
147
0.0
147
1.0
147
0.0
147
0.0
147
0.0
147
0.0
147
1.0
  0
MATERIAL
  5
11
102
{ACAD_XDICTIONARY
360
12
102
}
102
{ACAD_REACTORS
330
10
102
}
330
10
100
AcDbMaterial
  1
ByLayer
 72
     0
 43
0.0208333333333333
 43
0.0
 43
0.0
 43
0.0
 43
0.0
 43
0.0208333333333333
 43
0.0
 43
0.0
 43
0.0
 43
0.0
 43
1.0
 43
0.0
 43
0.0
 43
0.0
 43
0.0
 43
1.0
 77
     0
 47
0.0208333333333333
 47
0.0
 47
0.0
 47
0.0
 47
0.0
 47
0.0208333333333333
 47
0.0
 47
0.0
 47
0.0
 47
0.0
 47
1.0
 47
0.0
 47
0.0
 47
0.0
 47
0.0
 47
1.0
171
     0
 49
0.0208333333333333
 49
0.0
 49
0.0
 49
0.0
 49
0.0
 49
0.0208333333333333
 49
0.0
 49
0.0
 49
0.0
 49
0.0
 49
1.0
 49
0.0
 49
0.0
 49
0.0
 49
0.0
 49
1.0
175
     0
142
0.0208333333333333
142
0.0
142
0.0
142
0.0
142
0.0
142
0.0208333333333333
142
0.0
142
0.0
142
0.0
142
0.0
142
1.0
142
0.0
142
0.0
142
0.0
142
0.0
142
1.0
179
     0
144
0.0208333333333333
144
0.0
144
0.0
144
0.0
144
0.0
144
0.0208333333333333
144
0.0
144
0.0
144
0.0
144
0.0
144
1.0
144
0.0
144
0.0
144
0.0
144
0.0
144
1.0
147
0.0208333333333333
147
0.0
147
0.0
147
0.0
147
0.0
147
0.0208333333333333
147
0.0
147
0.0
147
0.0
147
0.0
147
1.0
147
0.0
147
0.0
147
0.0
147
0.0
147
1.0
  0
MATERIAL
  5
21
102
{ACAD_XDICTIONARY
360
22
102
}
102
{ACAD_REACTORS
330
10
102
}
330
10
100
AcDbMaterial
  1
Global
 72
     0
 43
0.0208333333333333
 43
0.0
 43
0.0
 43
0.0
 43
0.0
 43
0.0208333333333333
 43
0.0
 43
0.0
 43
0.0
 43
0.0
 43
1.0
 43
0.0
 43
0.0
 43
0.0
 43
0.0
 43
1.0
 77
     0
 47
0.0208333333333333
 47
0.0
 47
0.0
 47
0.0
 47
0.0
 47
0.0208333333333333
 47
0.0
 47
0.0
 47
0.0
 47
0.0
 47
1.0
 47
0.0
 47
0.0
 47
0.0
 47
0.0
 47
1.0
171
     0
 49
0.0208333333333333
 49
0.0
 49
0.0
 49
0.0
 49
0.0
 49
0.0208333333333333
 49
0.0
 49
0.0
 49
0.0
 49
0.0
 49
1.0
 49
0.0
 49
0.0
 49
0.0
 49
0.0
 49
1.0
175
     0
142
0.0208333333333333
142
0.0
142
0.0
142
0.0
142
0.0
142
0.0208333333333333
142
0.0
142
0.0
142
0.0
142
0.0
142
1.0
142
0.0
142
0.0
142
0.0
142
0.0
142
1.0
179
     0
144
0.0208333333333333
144
0.0
144
0.0
144
0.0
144
0.0
144
0.0208333333333333
144
0.0
144
0.0
144
0.0
144
0.0
144
1.0
144
0.0
144
0.0
144
0.0
144
0.0
144
1.0
147
0.0208333333333333
147
0.0
147
0.0
147
0.0
147
0.0
147
0.0208333333333333
147
0.0
147
0.0
147
0.0
147
0.0
147
1.0
147
0.0
147
0.0
147
0.0
147
0.0
147
1.0
  0
MLEADERSTYLE
  5
67
102
{ACAD_REACTORS
330
66
102
}
330
66
100
AcDbMLeaderStyle
179
     2
170
     2
171
     1
172
     0
 90
        2
 40
0.0
 41
0.0
173
     1
 91
-1056964608
340
5B
 92
       -2
290
     1
 42
0.09
291
     1
 43
0.36
  3
Standard
 44
0.18
300

342
55
174
     1
178
     6
175
     1
176
     0
 93
-1056964608
 45
0.18
292
     0
297
     0
 46
0.18
 94
-1056964608
 47
1.0
 49
1.0
140
1.0
293
     1
141
0.0
294
     1
177
     0
142
1.0
295
     1
296
     0
143
0.125
271
     0
272
     9
273
     9
298
     1
  0
MLINESTYLE
  5
60
102
{ACAD_REACTORS
330
5F
102
}
330
5F
100
AcDbMlineStyle
  2
STANDARD
 70
     0
  3

 62
   256
 51
90.0
 52
90.0
 71
     2
 49
0.5
 62
   256
  6
BYLAYER
 49
-0.5
 62
   256
  6
BYLAYER
  0
ACDBPLACEHOLDER
  5
F
102
{ACAD_REACTORS
330
E
102
}
330
E
  0
SCALE
  5
43
102
{ACAD_REACTORS
330
42
102
}
330
42
100
AcDbScale
 70
     0
300
1:1
140
1.0
141
1.0
290
     1
  0
SCALE
  5
44
102
{ACAD_REACTORS
330
42
102
}
330
42
100
AcDbScale
 70
     0
300
1/128" = 1'-0"
140
0.0078125
141
12.0
290
     0
  0
SCALE
  5
45
102
{ACAD_REACTORS
330
42
102
}
330
42
100
AcDbScale
 70
     0
300
1/64" = 1'-0"
140
0.015625
141
12.0
290
     0
  0
SCALE
  5
46
102
{ACAD_REACTORS
330
42
102
}
330
42
100
AcDbScale
 70
     0
300
1/32" = 1'-0"
140
0.03125
141
12.0
290
     0
  0
SCALE
  5
47
102
{ACAD_REACTORS
330
42
102
}
330
42
100
AcDbScale
 70
     0
300
1/16" = 1'-0"
140
0.0625
141
12.0
290
     0
  0
SCALE
  5
48
102
{ACAD_REACTORS
330
42
102
}
330
42
100
AcDbScale
 70
     0
300
3/32" = 1'-0"
140
0.09375
141
12.0
290
     0
  0
SCALE
  5
49
102
{ACAD_REACTORS
330
42
102
}
330
42
100
AcDbScale
 70
     0
300
1/8" = 1'-0"
140
0.125
141
12.0
290
     0
  0
SCALE
  5
4A
102
{ACAD_REACTORS
330
42
102
}
330
42
100
AcDbScale
 70
     0
300
3/16" = 1'-0"
140
0.1875
141
12.0
290
     0
  0
SCALE
  5
4B
102
{ACAD_REACTORS
330
42
102
}
330
42
100
AcDbScale
 70
     0
300
1/4" = 1'-0"
140
0.25
141
12.0
290
     0
  0
SCALE
  5
4C
102
{ACAD_REACTORS
330
42
102
}
330
42
100
AcDbScale
 70
     0
300
3/8" = 1'-0"
140
0.375
141
12.0
290
     0
  0
SCALE
  5
4D
102
{ACAD_REACTORS
330
42
102
}
330
42
100
AcDbScale
 70
     0
300
1/2" = 1'-0"
140
0.5
141
12.0
290
     0
  0
SCALE
  5
4E
102
{ACAD_REACTORS
330
42
102
}
330
42
100
AcDbScale
 70
     0
300
3/4" = 1'-0"
140
0.75
141
12.0
290
     0
  0
SCALE
  5
4F
102
{ACAD_REACTORS
330
42
102
}
330
42
100
AcDbScale
 70
     0
300
1" = 1'-0"
140
1.0
141
12.0
290
     0
  0
SCALE
  5
50
102
{ACAD_REACTORS
330
42
102
}
330
42
100
AcDbScale
 70
     0
300
1-1/2" = 1'-0"
140
1.5
141
12.0
290
     0
  0
SCALE
  5
51
102
{ACAD_REACTORS
330
42
102
}
330
42
100
AcDbScale
 70
     0
300
3" = 1'-0"
140
3.0
141
12.0
290
     0
  0
SCALE
  5
52
102
{ACAD_REACTORS
330
42
102
}
330
42
100
AcDbScale
 70
     0
300
6" = 1'-0"
140
6.0
141
12.0
290
     0
  0
SCALE
  5
53
102
{ACAD_REACTORS
330
42
102
}
330
42
100
AcDbScale
 70
     0
300
1'-0" = 1'-0"
140
12.0
141
12.0
290
     0
  0
ACDBSECTIONVIEWSTYLE
  5
69
102
{ACAD_REACTORS
330
68
102
}
330
68
100
AcDbModelDocViewStyle
 70
     0
  3
Imperial24
290
     1
300
Imperial24
 90
        0
100
AcDbSectionViewStyle
 70
     0
 71
     0
 90
       78
 71
     1
340
55
 62
   256
 40
0.24
340
0
340
0
 62
   256
 40
0.24
300
I, O, Q, S, X, Z
 40
0.48
 90
        3
 40
0.18
 90
        1
 71
     2
340
5D
 90
       25
 62
   256
340
5D
 90
       50
 62
   256
 40
0.24
 40
0.0
 40
0.24
 71
     3
340
55
 62
   256
 40
0.24
 90
        1
 40
0.75
 90
        1
300
%<\AcVar ViewType \f "%tc1">% %<\AcVar ViewSectionStartId>%-%<\AcVar ViewSectionEndId>%\PSCALE %<\AcVar ViewScale \f "%sn">%
 71
     4
 62
   256
 62
   257
300
ANSI31
 40
1.0
 90
        0
290
     0
290
     0
 90
        6
 40
0.0
 40
1.570796326794896
 40
0.2617993877991494
 40
1.308996938995747
 40
-0.2617993877991494
 40
1.832595714594046
  0
TABLESTYLE
  5
65
102
{ACAD_XDICTIONARY
360
229
102
}
102
{ACAD_REACTORS
330
64
102
}
330
64
100
AcDbTableStyle
280
     0
  3
Standard
 70
     0
 71
     0
 40
0.06
 41
0.06
280
     0
281
     0
  7
Standard
140
0.18
170
     2
 62
     0
 63
     7
283
     0
 90
      512
 91
        0
  1

274
    -2
284
     1
 64
     0
275
    -2
285
     1
 65
     0
276
    -2
286
     1
 66
     0
277
    -2
287
     1
 67
     0
278
    -2
288
     1
 68
     0
279
    -2
289
     1
 69
     0
  7
Standard
140
0.25
170
     5
 62
     0
 63
     7
283
     0
 90
      512
 91
        0
  1

274
    -2
284
     1
 64
     0
275
    -2
285
     1
 65
     0
276
    -2
286
     1
 66
     0
277
    -2
287
     1
 67
     0
278
    -2
288
     1
 68
     0
279
    -2
289
     1
 69
     0
  7
Standard
140
0.18
170
     5
 62
     0
 63
     7
283
     0
 90
      512
 91
        0
  1

274
    -2
284
     1
 64
     0
275
    -2
285
     1
 65
     0
276
    -2
286
     1
 66
     0
277
    -2
287
     1
 67
     0
278
    -2
288
     1
 68
     0
279
    -2
289
     1
 69
     0
  0
VISUALSTYLE
  5
2F
102
{ACAD_REACTORS
330
29
102
}
330
29
100
AcDbVisualStyle
  2
2dWireframe
 70
     4
177
     3
291
     0
 70
    58
 90
        0
176
     1
 90
        2
176
     1
 90
        0
176
     1
 90
        0
176
     1
 40
0.6
176
     1
 40
30.0
176
     1
 62
     7
420
 16777215
176
     1
 90
        1
176
     1
 90
        4
176
     1
 62
     7
176
     1
 62
   257
176
     1
 90
        1
176
     1
 90
        1
176
     1
 40
1.0
176
     1
 90
        0
176
     1
 62
   257
176
     1
 40
1.0
176
     1
 90
        1
176
     1
 90
        6
176
     1
 90
        2
176
     1
 62
     7
176
     1
 90
        5
176
     1
 90
        0
176
     1
 90
        0
176
     1
290
     0
176
     1
 90
        1
176
     1
 40
0.0
176
     1
 90
        0
176
     1
290
     1
176
     1
290
     1
176
     1
290
     0
176
     1
290
     0
176
     1
290
     0
176
     1
290
     0
176
     1
290
     0
176
     1
290
     0
176
     1
290
     0
176
     1
 90
       50
176
     1
 40
0.0
176
     1
 40
1.0
176
     1
 90
        0
176
     1
 62
    18
420
        0
176
     1
 90
       50
176
     1
 90
        3
176
     1
 62
     5
420
      255
176
     1
290
     0
176
     1
 90
       50
176
     1
 90
       50
176
     1
 90
       50
176
     1
290
     0
176
     1
 90
       50
176
     1
 62
   256
176
     0
 40
1.0
176
     0
 90
        2
176
     1
  1
strokes_ogs.tif
176
     1
290
     0
176
     1
 40
1.0
176
     1
 40
1.0
176
     1
  0
VISUALSTYLE
  5
2E
102
{ACAD_REACTORS
330
29
102
}
330
29
100
AcDbVisualStyle
  2
Basic
 70
     7
177
     3
291
     1
 70
    58
 90
        1
176
     1
 90
        0
176
     1
 90
        1
176
     1
 90
        0
176
     1
 40
0.6
176
     1
 40
30.0
176
     1
 62
     7
420
 16777215
176
     1
 90
        0
176
     1
 90
        4
176
     1
 62
     7
176
     1
 62
   257
176
     1
 90
        1
176
     1
 90
        1
176
     1
 40
1.0
176
     1
 90
        8
176
     1
 62
     7
176
     1
 40
1.0
176
     1
 90
        1
176
     1
 90
        6
176
     1
 90
        2
176
     1
 62
     7
176
     1
 90
        5
176
     1
 90
        0
176
     1
 90
        0
176
     1
290
     0
176
     1
 90
        1
176
     1
 40
0.0
176
     1
 90
        0
176
     1
290
     0
176
     1
290
     1
176
     1
290
     1
176
     1
290
     0
176
     1
290
     0
176
     1
290
     0
176
     1
290
     0
176
     1
290
     0
176
     1
290
     0
176
     1
 90
       50
176
     1
 40
0.0
176
     1
 40
1.0
176
     1
 90
        0
176
     1
 62
    18
420
        0
176
     1
 90
       50
176
     1
 90
        3
176
     1
 62
     5
420
      255
176
     1
290
     0
176
     1
 90
       50
176
     1
 90
       50
176
     1
 90
       50
176
     1
290
     0
176
     1
 90
       50
176
     1
 62
   256
176
     0
 40
1.0
176
     0
 90
        2
176
     1
  1
strokes_ogs.tif
176
     1
290
     0
176
     1
 40
1.0
176
     1
 40
1.0
176
     1
  0
VISUALSTYLE
  5
35
102
{ACAD_REACTORS
330
29
102
}
330
29
100
AcDbVisualStyle
  2
Brighten
 70
    12
177
     3
291
     1
 70
    58
 90
        2
176
     1
 90
        2
176
     1
 90
        0
176
     1
 90
        0
176
     1
 40
0.6
176
     1
 40
30.0
176
     1
 62
     7
420
 16777215
176
     1
 90
        1
176
     1
 90
        4
176
     1
 62
     7
176
     1
 62
   257
176
     1
 90
        1
176
     1
 90
        1
176
     1
 40
1.0
176
     1
 90
        8
176
     1
 62
     7
176
     1
 40
1.0
176
     1
 90
        1
176
     1
 90
        6
176
     1
 90
        2
176
     1
 62
     7
176
     1
 90
        5
176
     1
 90
        0
176
     1
 90
        0
176
     1
290
     0
176
     1
 90
        1
176
     1
 40
50.0
176
     1
 90
        0
176
     1
290
     0
176
     1
290
     1
176
     1
290
     1
176
     1
290
     0
176
     1
290
     0
176
     1
290
     0
176
     1
290
     0
176
     1
290
     0
176
     1
290
     0
176
     1
 90
       50
176
     1
 40
0.0
176
     1
 40
1.0
176
     1
 90
        0
176
     1
 62
    18
420
        0
176
     1
 90
       50
176
     1
 90
        3
176
     1
 62
     5
420
      255
176
     1
290
     0
176
     1
 90
       50
176
     1
 90
       50
176
     1
 90
       50
176
     1
290
     0
176
     1
 90
       50
176
     1
 62
   256
176
     0
 40
1.0
176
     0
 90
        2
176
     1
  1
strokes_ogs.tif
176
     1
290
     0
176
     1
 40
1.0
176
     1
 40
1.0
176
     1
  0
VISUALSTYLE
  5
39
102
{ACAD_REACTORS
330
29
102
}
330
29
100
AcDbVisualStyle
  2
ColorChange
 70
    16
177
     3
291
     1
 70
    58
 90
        2
176
     1
 90
        2
176
     1
 90
        3
176
     1
 90
        0
176
     1
 40
0.6
176
     1
 40
30.0
176
     1
 62
     8
420
  8421504
176
     1
 90
        1
176
     1
 90
        4
176
     1
 62
     7
176
     1
 62
   257
176
     1
 90
        1
176
     1
 90
        1
176
     1
 40
1.0
176
     1
 90
        8
176
     1
 62
     8
420
  8421504
176
     1
 40
1.0
176
     1
 90
        1
176
     1
 90
        6
176
     1
 90
        2
176
     1
 62
     7
176
     1
 90
        5
176
     1
 90
        0
176
     1
 90
        0
176
     1
290
     0
176
     1
 90
        1
176
     1
 40
0.0
176
     1
 90
        0
176
     1
290
     0
176
     1
290
     1
176
     1
290
     1
176
     1
290
     0
176
     1
290
     0
176
     1
290
     0
176
     1
290
     0
176
     1
290
     0
176
     1
290
     0
176
     1
 90
       50
176
     1
 40
0.0
176
     1
 40
1.0
176
     1
 90
        0
176
     1
 62
    18
420
        0
176
     1
 90
       50
176
     1
 90
        3
176
     1
 62
     5
420
      255
176
     1
290
     0
176
     1
 90
       50
176
     1
 90
       50
176
     1
 90
       50
176
     1
290
     0
176
     1
 90
       50
176
     1
 62
   256
176
     0
 40
1.0
176
     0
 90
        2
176
     1
  1
strokes_ogs.tif
176
     1
290
     0
176
     1
 40
1.0
176
     1
 40
1.0
176
     1
  0
VISUALSTYLE
  5
32
102
{ACAD_REACTORS
330
29
102
}
330
29
100
AcDbVisualStyle
  2
Conceptual
 70
     9
177
     3
291
     0
 70
    58
 90
        3
176
     1
 90
        2
176
     1
 90
        0
176
     1
 90
        0
176
     1
 40
0.6
176
     1
 40
30.0
176
     1
 62
     7
420
 16777215
176
     1
 90
        2
176
     1
 90
        2
176
     1
 62
     7
176
     1
 62
   257
176
     1
 90
        1
176
     1
 90
        1
176
     1
 40
179.0
176
     1
 90
        8
176
     1
 62
     7
176
     1
 40
1.0
176
     1
 90
        1
176
     1
 90
        6
176
     1
 90
        2
176
     1
 62
     7
176
     1
 90
        3
176
     1
 90
        0
176
     1
 90
        0
176
     1
290
     0
176
     1
 90
        1
176
     1
 40
0.0
176
     1
 90
        0
176
     1
290
     0
176
     1
290
     1
176
     1
290
     1
176
     1
290
     0
176
     1
290
     0
176
     1
290
     0
176
     1
290
     0
176
     1
290
     0
176
     1
290
     0
176
     1
 90
       50
176
     1
 40
0.0
176
     1
 40
1.0
176
     1
 90
        0
176
     1
 62
    18
420
        0
176
     1
 90
       50
176
     1
 90
        3
176
     1
 62
     5
420
      255
176
     1
290
     0
176
     1
 90
       50
176
     1
 90
       50
176
     1
 90
       50
176
     1
290
     0
176
     1
 90
       50
176
     1
 62
   256
176
     0
 40
1.0
176
     0
 90
        2
176
     1
  1
strokes_ogs.tif
176
     1
290
     0
176
     1
 40
1.0
176
     1
 40
1.0
176
     1
  0
VISUALSTYLE
  5
34
102
{ACAD_REACTORS
330
29
102
}
330
29
100
AcDbVisualStyle
  2
Dim
 70
    11
177
     3
291
     1
 70
    58
 90
        2
176
     1
 90
        2
176
     1
 90
        0
176
     1
 90
        0
176
     1
 40
0.6
176
     1
 40
30.0
176
     1
 62
     7
420
 16777215
176
     1
 90
        1
176
     1
 90
        4
176
     1
 62
     7
176
     1
 62
   257
176
     1
 90
        1
176
     1
 90
        1
176
     1
 40
1.0
176
     1
 90
        8
176
     1
 62
     7
176
     1
 40
1.0
176
     1
 90
        1
176
     1
 90
        6
176
     1
 90
        2
176
     1
 62
     7
176
     1
 90
        5
176
     1
 90
        0
176
     1
 90
        0
176
     1
290
     0
176
     1
 90
        1
176
     1
 40
-50.0
176
     1
 90
        0
176
     1
290
     0
176
     1
290
     1
176
     1
290
     1
176
     1
290
     0
176
     1
290
     0
176
     1
290
     0
176
     1
290
     0
176
     1
290
     0
176
     1
290
     0
176
     1
 90
       50
176
     1
 40
0.0
176
     1
 40
1.0
176
     1
 90
        0
176
     1
 62
    18
420
        0
176
     1
 90
       50
176
     1
 90
        3
176
     1
 62
     5
420
      255
176
     1
290
     0
176
     1
 90
       50
176
     1
 90
       50
176
     1
 90
       50
176
     1
290
     0
176
     1
 90
       50
176
     1
 62
   256
176
     0
 40
1.0
176
     0
 90
        2
176
     1
  1
strokes_ogs.tif
176
     1
290
     0
176
     1
 40
1.0
176
     1
 40
1.0
176
     1
  0
VISUALSTYLE
  5
41
102
{ACAD_REACTORS
330
29
102
}
330
29
100
AcDbVisualStyle
  2
EdgeColorOff
 70
    22
177
     3
291
     1
 70
    58
 90
        2
176
     0
 90
        2
176
     0
 90
        0
176
     0
 90
        0
176
     0
 40
0.6
176
     0
 40
30.0
176
     0
 62
     7
420
 16777215
176
     0
 90
        1
176
     0
 90
        4
176
     0
 62
     7
176
     0
 62
   257
176
     0
 90
        1
176
     0
 90
        1
176
     0
 40
1.0
176
     0
 90
        8
176
     2
 62
     7
176
     0
 40
1.0
176
     0
 90
        1
176
     0
 90
        6
176
     0
 90
        2
176
     0
 62
     7
176
     0
 90
        5
176
     0
 90
        0
176
     0
 90
        0
176
     0
290
     0
176
     0
 90
        1
176
     0
 40
0.0
176
     0
 90
        0
176
     0
290
     0
176
     0
290
     1
176
     0
290
     1
176
     0
290
     0
176
     0
290
     0
176
     0
290
     0
176
     0
290
     0
176
     0
290
     0
176
     0
290
     0
176
     0
 90
       50
176
     0
 40
0.0
176
     0
 40
1.0
176
     0
 90
        0
176
     0
 62
    18
420
        0
176
     0
 90
       50
176
     0
 90
        3
176
     0
 62
     5
420
      255
176
     0
290
     0
176
     0
 90
       50
176
     0
 90
       50
176
     0
 90
       50
176
     0
290
     0
176
     0
 90
       50
176
     0
 62
   256
176
     0
 40
1.0
176
     0
 90
        2
176
     0
  1
strokes_ogs.tif
176
     0
290
     0
176
     0
 40
1.0
176
     0
 40
1.0
176
     0
  0
VISUALSTYLE
  5
38
102
{ACAD_REACTORS
330
29
102
}
330
29
100
AcDbVisualStyle
  2
Facepattern
 70
    15
177
     3
291
     1
 70
    58
 90
        2
176
     1
 90
        2
176
     1
 90
        0
176
     1
 90
        0
176
     1
 40
0.6
176
     1
 40
30.0
176
     1
 62
     7
420
 16777215
176
     1
 90
        1
176
     1
 90
        4
176
     1
 62
     7
176
     1
 62
   257
176
     1
 90
        1
176
     1
 90
        1
176
     1
 40
1.0
176
     1
 90
        8
176
     1
 62
     7
176
     1
 40
1.0
176
     1
 90
        1
176
     1
 90
        6
176
     1
 90
        2
176
     1
 62
     7
176
     1
 90
        5
176
     1
 90
        0
176
     1
 90
        0
176
     1
290
     0
176
     1
 90
        1
176
     1
 40
0.0
176
     1
 90
        0
176
     1
290
     0
176
     1
290
     1
176
     1
290
     1
176
     1
290
     0
176
     1
290
     0
176
     1
290
     0
176
     1
290
     0
176
     1
290
     0
176
     1
290
     0
176
     1
 90
       50
176
     1
 40
0.0
176
     1
 40
1.0
176
     1
 90
        0
176
     1
 62
    18
420
        0
176
     1
 90
       50
176
     1
 90
        3
176
     1
 62
     5
420
      255
176
     1
290
     0
176
     1
 90
       50
176
     1
 90
       50
176
     1
 90
       50
176
     1
290
     0
176
     1
 90
       50
176
     1
 62
   256
176
     0
 40
1.0
176
     0
 90
        2
176
     1
  1
strokes_ogs.tif
176
     1
290
     0
176
     1
 40
1.0
176
     1
 40
1.0
176
     1
  0
VISUALSTYLE
  5
2A
102
{ACAD_REACTORS
330
29
102
}
330
29
100
AcDbVisualStyle
  2
Flat
 70
     0
177
     3
291
     1
 70
    58
 90
        2
176
     1
 90
        1
176
     1
 90
        1
176
     1
 90
        2
176
     1
 40
0.6
176
     1
 40
30.0
176
     1
 62
     7
420
 16777215
176
     1
 90
        0
176
     1
 90
        0
176
     1
 62
     7
176
     1
 62
   257
176
     1
 90
        1
176
     1
 90
        1
176
     1
 40
1.0
176
     1
 90
        8
176
     1
 62
     7
176
     1
 40
1.0
176
     1
 90
        1
176
     1
 90
        6
176
     1
 90
        2
176
     1
 62
     7
176
     1
 90
        5
176
     1
 90
        0
176
     1
 90
        0
176
     1
290
     0
176
     1
 90
       13
176
     1
 40
0.0
176
     1
 90
        0
176
     1
290
     0
176
     1
290
     1
176
     1
290
     1
176
     1
290
     0
176
     1
290
     0
176
     1
290
     0
176
     1
290
     0
176
     1
290
     0
176
     1
290
     0
176
     1
 90
       50
176
     1
 40
0.0
176
     1
 40
1.0
176
     1
 90
        0
176
     1
 62
    18
420
        0
176
     1
 90
       50
176
     1
 90
        3
176
     1
 62
     5
420
      255
176
     1
290
     0
176
     1
 90
       50
176
     1
 90
       50
176
     1
 90
       50
176
     1
290
     0
176
     1
 90
       50
176
     1
 62
   256
176
     0
 40
1.0
176
     0
 90
        2
176
     1
  1
strokes_ogs.tif
176
     1
290
     0
176
     1
 40
1.0
176
     1
 40
1.0
176
     1
  0
VISUALSTYLE
  5
2B
102
{ACAD_REACTORS
330
29
102
}
330
29
100
AcDbVisualStyle
  2
FlatWithEdges
 70
     1
177
     3
291
     1
 70
    58
 90
        2
176
     1
 90
        1
176
     1
 90
        1
176
     1
 90
        2
176
     1
 40
0.6
176
     1
 40
30.0
176
     1
 62
     7
420
 16777215
176
     1
 90
        1
176
     1
 90
        0
176
     1
 62
     7
176
     1
 62
   257
176
     1
 90
        1
176
     1
 90
        1
176
     1
 40
1.0
176
     1
 90
        0
176
     1
 62
   257
176
     1
 40
1.0
176
     1
 90
        1
176
     1
 90
        6
176
     1
 90
        2
176
     1
 62
     7
176
     1
 90
        5
176
     1
 90
        0
176
     1
 90
        0
176
     1
290
     0
176
     1
 90
       13
176
     1
 40
0.0
176
     1
 90
        0
176
     1
290
     0
176
     1
290
     1
176
     1
290
     1
176
     1
290
     0
176
     1
290
     0
176
     1
290
     0
176
     1
290
     0
176
     1
290
     0
176
     1
290
     0
176
     1
 90
       50
176
     1
 40
0.0
176
     1
 40
1.0
176
     1
 90
        0
176
     1
 62
    18
420
        0
176
     1
 90
       50
176
     1
 90
        3
176
     1
 62
     5
420
      255
176
     1
290
     0
176
     1
 90
       50
176
     1
 90
       50
176
     1
 90
       50
176
     1
290
     0
176
     1
 90
       50
176
     1
 62
   256
176
     0
 40
1.0
176
     0
 90
        2
176
     1
  1
strokes_ogs.tif
176
     1
290
     0
176
     1
 40
1.0
176
     1
 40
1.0
176
     1
  0
VISUALSTYLE
  5
2C
102
{ACAD_REACTORS
330
29
102
}
330
29
100
AcDbVisualStyle
  2
Gouraud
 70
     2
177
     3
291
     1
 70
    58
 90
        2
176
     1
 90
        2
176
     1
 90
        1
176
     1
 90
        2
176
     1
 40
0.6
176
     1
 40
30.0
176
     1
 62
     7
420
 16777215
176
     1
 90
        0
176
     1
 90
        0
176
     1
 62
     7
176
     1
 62
   257
176
     1
 90
        1
176
     1
 90
        1
176
     1
 40
1.0
176
     1
 90
        0
176
     1
 62
     7
176
     1
 40
1.0
176
     1
 90
        1
176
     1
 90
        6
176
     1
 90
        2
176
     1
 62
     7
176
     1
 90
        5
176
     1
 90
        0
176
     1
 90
        0
176
     1
290
     0
176
     1
 90
       13
176
     1
 40
0.0
176
     1
 90
        0
176
     1
290
     0
176
     1
290
     1
176
     1
290
     1
176
     1
290
     0
176
     1
290
     0
176
     1
290
     0
176
     1
290
     0
176
     1
290
     0
176
     1
290
     0
176
     1
 90
       50
176
     1
 40
0.0
176
     1
 40
1.0
176
     1
 90
        0
176
     1
 62
    18
420
        0
176
     1
 90
       50
176
     1
 90
        3
176
     1
 62
     5
420
      255
176
     1
290
     0
176
     1
 90
       50
176
     1
 90
       50
176
     1
 90
       50
176
     1
290
     0
176
     1
 90
       50
176
     1
 62
   256
176
     0
 40
1.0
176
     0
 90
        2
176
     1
  1
strokes_ogs.tif
176
     1
290
     0
176
     1
 40
1.0
176
     1
 40
1.0
176
     1
  0
VISUALSTYLE
  5
2D
102
{ACAD_REACTORS
330
29
102
}
330
29
100
AcDbVisualStyle
  2
GouraudWithEdges
 70
     3
177
     3
291
     1
 70
    58
 90
        2
176
     1
 90
        2
176
     1
 90
        1
176
     1
 90
        2
176
     1
 40
0.6
176
     1
 40
30.0
176
     1
 62
     7
420
 16777215
176
     1
 90
        1
176
     1
 90
        0
176
     1
 62
     7
176
     1
 62
   257
176
     1
 90
        1
176
     1
 90
        1
176
     1
 40
1.0
176
     1
 90
        0
176
     1
 62
   257
176
     1
 40
1.0
176
     1
 90
        1
176
     1
 90
        6
176
     1
 90
        2
176
     1
 62
     7
176
     1
 90
        5
176
     1
 90
        0
176
     1
 90
        0
176
     1
290
     0
176
     1
 90
       13
176
     1
 40
0.0
176
     1
 90
        0
176
     1
290
     0
176
     1
290
     1
176
     1
290
     1
176
     1
290
     0
176
     1
290
     0
176
     1
290
     0
176
     1
290
     0
176
     1
290
     0
176
     1
290
     0
176
     1
 90
       50
176
     1
 40
0.0
176
     1
 40
1.0
176
     1
 90
        0
176
     1
 62
    18
420
        0
176
     1
 90
       50
176
     1
 90
        3
176
     1
 62
     5
420
      255
176
     1
290
     0
176
     1
 90
       50
176
     1
 90
       50
176
     1
 90
       50
176
     1
290
     0
176
     1
 90
       50
176
     1
 62
   256
176
     0
 40
1.0
176
     0
 90
        2
176
     1
  1
strokes_ogs.tif
176
     1
290
     0
176
     1
 40
1.0
176
     1
 40
1.0
176
     1
  0
VISUALSTYLE
  5
31
102
{ACAD_REACTORS
330
29
102
}
330
29
100
AcDbVisualStyle
  2
Hidden
 70
     6
177
     3
291
     0
 70
    58
 90
        1
176
     1
 90
        2
176
     1
 90
        2
176
     1
 90
        0
176
     1
 40
0.6
176
     1
 40
30.0
176
     1
 62
     7
420
 16777215
176
     1
 90
        2
176
     1
 90
        2
176
     1
 62
     7
176
     1
 62
   257
176
     1
 90
        2
176
     1
 90
        1
176
     1
 40
40.0
176
     1
 90
        0
176
     1
 62
   257
176
     1
 40
1.0
176
     1
 90
        1
176
     1
 90
        6
176
     1
 90
        2
176
     1
 62
     7
176
     1
 90
        3
176
     1
 90
        0
176
     1
 90
        0
176
     1
290
     0
176
     1
 90
        1
176
     1
 40
0.0
176
     1
 90
        0
176
     1
290
     0
176
     1
290
     1
176
     1
290
     1
176
     1
290
     0
176
     1
290
     0
176
     1
290
     0
176
     1
290
     0
176
     1
290
     0
176
     1
290
     0
176
     1
 90
       50
176
     1
 40
0.0
176
     1
 40
1.0
176
     1
 90
        0
176
     1
 62
    18
420
        0
176
     1
 90
       50
176
     1
 90
        3
176
     1
 62
     5
420
      255
176
     1
290
     0
176
     1
 90
       50
176
     1
 90
       50
176
     1
 90
       50
176
     1
290
     0
176
     1
 90
       50
176
     1
 62
   256
176
     0
 40
1.0
176
     0
 90
        2
176
     1
  1
strokes_ogs.tif
176
     1
290
     0
176
     1
 40
1.0
176
     1
 40
1.0
176
     1
  0
VISUALSTYLE
  5
3F
102
{ACAD_REACTORS
330
29
102
}
330
29
100
AcDbVisualStyle
  2
JitterOff
 70
    20
177
     3
291
     1
 70
    58
 90
        2
176
     0
 90
        2
176
     0
 90
        0
176
     0
 90
        0
176
     0
 40
0.6
176
     0
 40
30.0
176
     0
 62
     7
420
 16777215
176
     0
 90
        1
176
     0
 90
        4
176
     0
 62
     7
176
     0
 62
   257
176
     0
 90
        1
176
     0
 90
        1
176
     0
 40
1.0
176
     0
 90
       10
176
     2
 62
     7
176
     0
 40
1.0
176
     0
 90
        1
176
     0
 90
        6
176
     0
 90
        2
176
     0
 62
     7
176
     0
 90
        5
176
     0
 90
        0
176
     0
 90
        0
176
     0
290
     0
176
     0
 90
        1
176
     0
 40
0.0
176
     0
 90
        0
176
     0
290
     0
176
     0
290
     1
176
     0
290
     1
176
     0
290
     0
176
     0
290
     0
176
     0
290
     0
176
     0
290
     0
176
     0
290
     0
176
     0
290
     0
176
     0
 90
       50
176
     0
 40
0.0
176
     0
 40
1.0
176
     0
 90
        0
176
     0
 62
    18
420
        0
176
     0
 90
       50
176
     0
 90
        3
176
     0
 62
     5
420
      255
176
     0
290
     0
176
     0
 90
       50
176
     0
 90
       50
176
     0
 90
       50
176
     0
290
     0
176
     0
 90
       50
176
     0
 62
   256
176
     0
 40
1.0
176
     0
 90
        2
176
     0
  1
strokes_ogs.tif
176
     0
290
     0
176
     0
 40
1.0
176
     0
 40
1.0
176
     0
  0
VISUALSTYLE
  5
37
102
{ACAD_REACTORS
330
29
102
}
330
29
100
AcDbVisualStyle
  2
Linepattern
 70
    14
177
     3
291
     1
 70
    58
 90
        2
176
     1
 90
        2
176
     1
 90
        0
176
     1
 90
        0
176
     1
 40
0.6
176
     1
 40
30.0
176
     1
 62
     7
420
 16777215
176
     1
 90
        1
176
     1
 90
        4
176
     1
 62
     7
176
     1
 62
   257
176
     1
 90
        7
176
     1
 90
        7
176
     1
 40
1.0
176
     1
 90
        8
176
     1
 62
     7
176
     1
 40
1.0
176
     1
 90
        1
176
     1
 90
        6
176
     1
 90
        2
176
     1
 62
     7
176
     1
 90
        5
176
     1
 90
        0
176
     1
 90
        0
176
     1
290
     0
176
     1
 90
        1
176
     1
 40
0.0
176
     1
 90
        0
176
     1
290
     0
176
     1
290
     1
176
     1
290
     1
176
     1
290
     0
176
     1
290
     0
176
     1
290
     0
176
     1
290
     0
176
     1
290
     0
176
     1
290
     0
176
     1
 90
       50
176
     1
 40
0.0
176
     1
 40
1.0
176
     1
 90
        0
176
     1
 62
    18
420
        0
176
     1
 90
       50
176
     1
 90
        3
176
     1
 62
     5
420
      255
176
     1
290
     0
176
     1
 90
       50
176
     1
 90
       50
176
     1
 90
       50
176
     1
290
     0
176
     1
 90
       50
176
     1
 62
   256
176
     0
 40
1.0
176
     0
 90
        2
176
     1
  1
strokes_ogs.tif
176
     1
290
     0
176
     1
 40
1.0
176
     1
 40
1.0
176
     1
  0
VISUALSTYLE
  5
40
102
{ACAD_REACTORS
330
29
102
}
330
29
100
AcDbVisualStyle
  2
OverhangOff
 70
    21
177
     3
291
     1
 70
    58
 90
        2
176
     0
 90
        2
176
     0
 90
        0
176
     0
 90
        0
176
     0
 40
0.6
176
     0
 40
30.0
176
     0
 62
     7
420
 16777215
176
     0
 90
        1
176
     0
 90
        4
176
     0
 62
     7
176
     0
 62
   257
176
     0
 90
        1
176
     0
 90
        1
176
     0
 40
1.0
176
     0
 90
        9
176
     2
 62
     7
176
     0
 40
1.0
176
     0
 90
        1
176
     0
 90
        6
176
     0
 90
        2
176
     0
 62
     7
176
     0
 90
        5
176
     0
 90
        0
176
     0
 90
        0
176
     0
290
     0
176
     0
 90
        1
176
     0
 40
0.0
176
     0
 90
        0
176
     0
290
     0
176
     0
290
     1
176
     0
290
     1
176
     0
290
     0
176
     0
290
     0
176
     0
290
     0
176
     0
290
     0
176
     0
290
     0
176
     0
290
     0
176
     0
 90
       50
176
     0
 40
0.0
176
     0
 40
1.0
176
     0
 90
        0
176
     0
 62
    18
420
        0
176
     0
 90
       50
176
     0
 90
        3
176
     0
 62
     5
420
      255
176
     0
290
     0
176
     0
 90
       50
176
     0
 90
       50
176
     0
 90
       50
176
     0
290
     0
176
     0
 90
       50
176
     0
 62
   256
176
     0
 40
1.0
176
     0
 90
        2
176
     0
  1
strokes_ogs.tif
176
     0
290
     0
176
     0
 40
1.0
176
     0
 40
1.0
176
     0
  0
VISUALSTYLE
  5
33
102
{ACAD_REACTORS
330
29
102
}
330
29
100
AcDbVisualStyle
  2
Realistic
 70
     8
177
     3
291
     0
 70
    58
 90
        2
176
     1
 90
        3
176
     1
 90
        0
176
     1
 90
        2
176
     1
 40
0.6
176
     1
 40
30.0
176
     1
 62
     7
420
 16777215
176
     1
 90
        0
176
     1
 90
        0
176
     1
 62
     7
176
     1
 62
   257
176
     1
 90
        1
176
     1
 90
        1
176
     1
 40
1.0
176
     1
 90
        8
176
     1
 62
   257
176
     1
 40
1.0
176
     1
 90
        1
176
     1
 90
        6
176
     1
 90
        2
176
     1
 62
     7
176
     1
 90
        3
176
     1
 90
        0
176
     1
 90
        0
176
     1
290
     0
176
     1
 90
       13
176
     1
 40
0.0
176
     1
 90
        0
176
     1
290
     0
176
     1
290
     1
176
     1
290
     1
176
     1
290
     0
176
     1
290
     0
176
     1
290
     0
176
     1
290
     0
176
     1
290
     0
176
     1
290
     0
176
     1
 90
       50
176
     1
 40
0.0
176
     1
 40
1.0
176
     1
 90
        0
176
     1
 62
    18
420
        0
176
     1
 90
       50
176
     1
 90
        3
176
     1
 62
     5
420
      255
176
     1
290
     0
176
     1
 90
       50
176
     1
 90
       50
176
     1
 90
       50
176
     1
290
     0
176
     1
 90
       50
176
     1
 62
   256
176
     0
 40
1.0
176
     0
 90
        2
176
     1
  1
strokes_ogs.tif
176
     1
290
     0
176
     1
 40
1.0
176
     1
 40
1.0
176
     1
  0
VISUALSTYLE
  5
3E
102
{ACAD_REACTORS
330
29
102
}
330
29
100
AcDbVisualStyle
  2
Shaded
 70
    27
177
     3
291
     0
 70
    58
 90
        2
176
     1
 90
        2
176
     1
 90
        1
176
     1
 90
        2
176
     1
 40
0.6
176
     1
 40
30.0
176
     1
 62
     7
420
 16777215
176
     1
 90
        0
176
     1
 90
        4
176
     1
 62
     7
176
     1
 62
   257
176
     1
 90
        1
176
     1
 90
        1
176
     1
 40
1.0
176
     1
 90
        8
176
     1
 62
   257
176
     1
 40
1.0
176
     1
 90
        1
176
     1
 90
        6
176
     1
 90
        2
176
     1
 62
     8
420
  7895160
176
     1
 90
        3
176
     1
 90
        0
176
     1
 90
        0
176
     1
290
     0
176
     1
 90
        5
176
     1
 40
0.0
176
     1
 90
        0
176
     1
290
     0
176
     1
290
     1
176
     1
290
     1
176
     1
290
     0
176
     1
290
     0
176
     1
290
     0
176
     1
290
     0
176
     1
290
     0
176
     1
290
     0
176
     1
 90
       50
176
     1
 40
0.0
176
     1
 40
1.0
176
     1
 90
        0
176
     1
 62
    18
420
        0
176
     1
 90
       50
176
     1
 90
        3
176
     1
 62
     5
420
      255
176
     1
290
     0
176
     1
 90
       50
176
     1
 90
       50
176
     1
 90
       50
176
     1
290
     0
176
     1
 90
       50
176
     1
 62
   256
176
     0
 40
1.0
176
     0
 90
        2
176
     1
  1
strokes_ogs.tif
176
     1
290
     0
176
     1
 40
1.0
176
     1
 40
1.0
176
     1
  0
VISUALSTYLE
  5
3D
102
{ACAD_REACTORS
330
29
102
}
330
29
100
AcDbVisualStyle
  2
Shaded with edges
 70
    26
177
     3
291
     0
 70
    58
 90
        2
176
     1
 90
        2
176
     1
 90
        1
176
     1
 90
        2
176
     1
 40
0.6
176
     1
 40
30.0
176
     1
 62
     7
420
 16777215
176
     1
 90
        1
176
     1
 90
        2
176
     1
 62
     7
176
     1
 62
   257
176
     1
 90
        2
176
     1
 90
        1
176
     1
 40
1.0
176
     1
 90
        8
176
     1
 62
   257
176
     1
 40
1.0
176
     1
 90
        1
176
     1
 90
        6
176
     1
 90
        2
176
     1
 62
     7
176
     1
 90
        3
176
     1
 90
        0
176
     1
 90
        0
176
     1
290
     0
176
     1
 90
        5
176
     1
 40
0.0
176
     1
 90
        0
176
     1
290
     0
176
     1
290
     1
176
     1
290
     1
176
     1
290
     0
176
     1
290
     0
176
     1
290
     0
176
     1
290
     0
176
     1
290
     0
176
     1
290
     0
176
     1
 90
       50
176
     1
 40
0.0
176
     1
 40
1.0
176
     1
 90
        0
176
     1
 62
    18
420
        0
176
     1
 90
       50
176
     1
 90
        3
176
     1
 62
     5
420
      255
176
     1
290
     0
176
     1
 90
       50
176
     1
 90
       50
176
     1
 90
       50
176
     1
290
     0
176
     1
 90
       50
176
     1
 62
   256
176
     0
 40
1.0
176
     0
 90
        2
176
     1
  1
strokes_ogs.tif
176
     1
290
     0
176
     1
 40
1.0
176
     1
 40
1.0
176
     1
  0
VISUALSTYLE
  5
3A
102
{ACAD_REACTORS
330
29
102
}
330
29
100
AcDbVisualStyle
  2
Shades of Gray
 70
    23
177
     3
291
     0
 70
    58
 90
        2
176
     1
 90
        2
176
     1
 90
        3
176
     1
 90
        0
176
     1
 40
0.6
176
     1
 40
30.0
176
     1
 62
     7
420
 16777215
176
     1
 90
        2
176
     1
 90
        2
176
     1
 62
     7
176
     1
 62
     7
176
     1
 90
        1
176
     1
 90
        1
176
     1
 40
40.0
176
     1
 90
        8
176
     1
 62
     7
176
     1
 40
1.0
176
     1
 90
        1
176
     1
 90
        6
176
     1
 90
        2
176
     1
 62
     7
176
     1
 90
        3
176
     1
 90
        0
176
     1
 90
        0
176
     1
290
     0
176
     1
 90
        1
176
     1
 40
0.0
176
     1
 90
        0
176
     1
290
     0
176
     1
290
     1
176
     1
290
     1
176
     1
290
     0
176
     1
290
     0
176
     1
290
     0
176
     1
290
     0
176
     1
290
     0
176
     1
290
     0
176
     1
 90
       50
176
     1
 40
0.0
176
     1
 40
1.0
176
     1
 90
        0
176
     1
 62
    18
420
        0
176
     1
 90
       50
176
     1
 90
        3
176
     1
 62
     5
420
      255
176
     1
290
     0
176
     1
 90
       50
176
     1
 90
       50
176
     1
 90
       50
176
     1
290
     0
176
     1
 90
       50
176
     1
 62
   256
176
     0
 40
1.0
176
     0
 90
        2
176
     1
  1
strokes_ogs.tif
176
     1
290
     0
176
     1
 40
1.0
176
     1
 40
1.0
176
     1
  0
VISUALSTYLE
  5
3B
102
{ACAD_REACTORS
330
29
102
}
330
29
100
AcDbVisualStyle
  2
Sketchy
 70
    24
177
     3
291
     0
 70
    58
 90
        1
176
     1
 90
        2
176
     1
 90
        2
176
     1
 90
        0
176
     1
 40
0.6
176
     1
 40
30.0
176
     1
 62
     7
420
 16777215
176
     1
 90
        2
176
     1
 90
        2
176
     1
 62
     7
176
     1
 62
     7
176
     1
 90
        1
176
     1
 90
        1
176
     1
 40
40.0
176
     1
 90
       11
176
     1
 62
     7
176
     1
 40
1.0
176
     1
 90
        1
176
     1
 90
        6
176
     1
 90
        2
176
     1
 62
     7
176
     1
 90
        6
176
     1
 90
        0
176
     1
 90
        0
176
     1
290
     0
176
     1
 90
        1
176
     1
 40
0.0
176
     1
 90
        0
176
     1
290
     0
176
     1
290
     1
176
     1
290
     1
176
     1
290
     0
176
     1
290
     0
176
     1
290
     0
176
     1
290
     0
176
     1
290
     0
176
     1
290
     0
176
     1
 90
       50
176
     1
 40
0.0
176
     1
 40
1.0
176
     1
 90
        0
176
     1
 62
    18
420
        0
176
     1
 90
       50
176
     1
 90
        3
176
     1
 62
     5
420
      255
176
     1
290
     0
176
     1
 90
       50
176
     1
 90
       50
176
     1
 90
       50
176
     1
290
     0
176
     1
 90
       50
176
     1
 62
   256
176
     0
 40
1.0
176
     0
 90
        2
176
     1
  1
strokes_ogs.tif
176
     1
290
     0
176
     1
 40
1.0
176
     1
 40
1.0
176
     1
  0
VISUALSTYLE
  5
36
102
{ACAD_REACTORS
330
29
102
}
330
29
100
AcDbVisualStyle
  2
Thicken
 70
    13
177
     3
291
     1
 70
    58
 90
        2
176
     1
 90
        2
176
     1
 90
        0
176
     1
 90
        0
176
     1
 40
0.6
176
     1
 40
30.0
176
     1
 62
     7
420
 16777215
176
     1
 90
        1
176
     1
 90
        4
176
     1
 62
     7
176
     1
 62
   257
176
     1
 90
        1
176
     1
 90
        1
176
     1
 40
1.0
176
     1
 90
       12
176
     1
 62
     7
176
     1
 40
1.0
176
     1
 90
        1
176
     1
 90
        6
176
     1
 90
        2
176
     1
 62
     7
176
     1
 90
        5
176
     1
 90
        0
176
     1
 90
        0
176
     1
290
     0
176
     1
 90
        1
176
     1
 40
0.0
176
     1
 90
        0
176
     1
290
     0
176
     1
290
     1
176
     1
290
     1
176
     1
290
     0
176
     1
290
     0
176
     1
290
     0
176
     1
290
     0
176
     1
290
     0
176
     1
290
     0
176
     1
 90
       50
176
     1
 40
0.0
176
     1
 40
1.0
176
     1
 90
        0
176
     1
 62
    18
420
        0
176
     1
 90
       50
176
     1
 90
        3
176
     1
 62
     5
420
      255
176
     1
290
     0
176
     1
 90
       50
176
     1
 90
       50
176
     1
 90
       50
176
     1
290
     0
176
     1
 90
       50
176
     1
 62
   256
176
     0
 40
1.0
176
     0
 90
        2
176
     1
  1
strokes_ogs.tif
176
     1
290
     0
176
     1
 40
1.0
176
     1
 40
1.0
176
     1
  0
VISUALSTYLE
  5
30
102
{ACAD_REACTORS
330
29
102
}
330
29
100
AcDbVisualStyle
  2
Wireframe
 70
     5
177
     3
291
     0
 70
    58
 90
        0
176
     1
 90
        2
176
     1
 90
        0
176
     1
 90
        0
176
     1
 40
0.6
176
     1
 40
30.0
176
     1
 62
     7
420
 16777215
176
     1
 90
        1
176
     1
 90
        4
176
     1
 62
     7
176
     1
 62
   257
176
     1
 90
        1
176
     1
 90
        1
176
     1
 40
1.0
176
     1
 90
        0
176
     1
 62
   257
176
     1
 40
1.0
176
     1
 90
        1
176
     1
 90
        6
176
     1
 90
        2
176
     1
 62
     7
176
     1
 90
        3
176
     1
 90
        0
176
     1
 90
        0
176
     1
290
     0
176
     1
 90
        1
176
     1
 40
0.0
176
     1
 90
        0
176
     1
290
     0
176
     1
290
     1
176
     1
290
     1
176
     1
290
     0
176
     1
290
     0
176
     1
290
     0
176
     1
290
     0
176
     1
290
     0
176
     1
290
     0
176
     1
 90
       50
176
     1
 40
0.0
176
     1
 40
1.0
176
     1
 90
        0
176
     1
 62
    18
420
        0
176
     1
 90
       50
176
     1
 90
        3
176
     1
 62
     5
420
      255
176
     1
290
     0
176
     1
 90
       50
176
     1
 90
       50
176
     1
 90
       50
176
     1
290
     0
176
     1
 90
       50
176
     1
 62
   256
176
     0
 40
1.0
176
     0
 90
        2
176
     1
  1
strokes_ogs.tif
176
     1
290
     0
176
     1
 40
1.0
176
     1
 40
1.0
176
     1
  0
VISUALSTYLE
  5
3C
102
{ACAD_REACTORS
330
29
102
}
330
29
100
AcDbVisualStyle
  2
X-Ray
 70
    25
177
     3
291
     0
 70
    58
 90
        2
176
     1
 90
        2
176
     1
 90
        1
176
     1
 90
        1
176
     1
 40
0.5
176
     1
 40
30.0
176
     1
 62
     7
420
 16777215
176
     1
 90
        1
176
     1
 90
        0
176
     1
 62
     7
176
     1
 62
   257
176
     1
 90
        1
176
     1
 90
        1
176
     1
 40
1.0
176
     1
 90
        8
176
     1
 62
     7
176
     1
 40
1.0
176
     1
 90
        1
176
     1
 90
        6
176
     1
 90
        2
176
     1
 62
     7
176
     1
 90
        3
176
     1
 90
        0
176
     1
 90
        0
176
     1
290
     0
176
     1
 90
       13
176
     1
 40
0.0
176
     1
 90
        0
176
     1
290
     0
176
     1
290
     1
176
     1
290
     1
176
     1
290
     0
176
     1
290
     0
176
     1
290
     0
176
     1
290
     0
176
     1
290
     0
176
     1
290
     0
176
     1
 90
       50
176
     1
 40
0.0
176
     1
 40
1.0
176
     1
 90
        0
176
     1
 62
    18
420
        0
176
     1
 90
       50
176
     1
 90
        3
176
     1
 62
     5
420
      255
176
     1
290
     0
176
     1
 90
       50
176
     1
 90
       50
176
     1
 90
       50
176
     1
290
     0
176
     1
 90
       50
176
     1
 62
   256
176
     0
 40
1.0
176
     0
 90
        2
176
     1
  1
strokes_ogs.tif
176
     1
290
     0
176
     1
 40
1.0
176
     1
 40
1.0
176
     1
  0
DICTIONARYVAR
  5
228
102
{ACAD_REACTORS
330
223
102
}
330
223
100
DictionaryVariables
280
     0
  1
1:1
  0
DICTIONARYVAR
  5
225
102
{ACAD_REACTORS
330
223
102
}
330
223
100
DictionaryVariables
280
     0
  1
STANDARD
  0
DICTIONARYVAR
  5
224
102
{ACAD_REACTORS
330
223
102
}
330
223
100
DictionaryVariables
280
     0
  1
STANDARD
  0
DICTIONARYVAR
  5
226
102
{ACAD_REACTORS
330
223
102
}
330
223
100
DictionaryVariables
280
     0
  1
Imperial24
  0
DICTIONARYVAR
  5
227
102
{ACAD_REACTORS
330
223
102
}
330
223
100
DictionaryVariables
280
     0
  1
Imperial24
  0
DICTIONARY
  5
1A
330
19
100
AcDbDictionary
280
     1
281
     1
  3
BUMPTILE
360
1C
  3
DIFFUSETILE
360
1B
  3
OPACITYTILE
360
1F
  3
REFLECTIONTILE
360
1E
  3
REFRACTIONTILE
360
20
  3
SPECULARTILE
360
1D
  0
DICTIONARY
  5
12
330
11
100
AcDbDictionary
280
     1
281
     1
  3
BUMPTILE
360
14
  3
DIFFUSETILE
360
13
  3
OPACITYTILE
360
17
  3
REFLECTIONTILE
360
16
  3
REFRACTIONTILE
360
18
  3
SPECULARTILE
360
15
  0
DICTIONARY
  5
22
330
21
100
AcDbDictionary
280
     1
281
     1
  3
BUMPTILE
360
24
  3
DIFFUSETILE
360
23
  3
OPACITYTILE
360
27
  3
REFLECTIONTILE
360
26
  3
REFRACTIONTILE
360
28
  3
SPECULARTILE
360
25
  0
DICTIONARY
  5
229
330
65
100
AcDbDictionary
280
     1
281
     1
  3
ACAD_ROUNDTRIP_2008_TABLESTYLE_CELLSTYLEMAP
360
22A
  0
XRECORD
  5
1C
102
{ACAD_REACTORS
330
1A
102
}
330
1A
100
AcDbXrecord
280
     1
270
     1
271
     1
  0
XRECORD
  5
1B
102
{ACAD_REACTORS
330
1A
102
}
330
1A
100
AcDbXrecord
280
     1
270
     1
271
     1
  0
XRECORD
  5
1F
102
{ACAD_REACTORS
330
1A
102
}
330
1A
100
AcDbXrecord
280
     1
270
     1
271
     1
  0
XRECORD
  5
1E
102
{ACAD_REACTORS
330
1A
102
}
330
1A
100
AcDbXrecord
280
     1
270
     1
271
     1
  0
XRECORD
  5
20
102
{ACAD_REACTORS
330
1A
102
}
330
1A
100
AcDbXrecord
280
     1
270
     1
271
     1
  0
XRECORD
  5
1D
102
{ACAD_REACTORS
330
1A
102
}
330
1A
100
AcDbXrecord
280
     1
270
     1
271
     1
  0
XRECORD
  5
14
102
{ACAD_REACTORS
330
12
102
}
330
12
100
AcDbXrecord
280
     1
270
     1
271
     1
  0
XRECORD
  5
13
102
{ACAD_REACTORS
330
12
102
}
330
12
100
AcDbXrecord
280
     1
270
     1
271
     1
  0
XRECORD
  5
17
102
{ACAD_REACTORS
330
12
102
}
330
12
100
AcDbXrecord
280
     1
270
     1
271
     1
  0
XRECORD
  5
16
102
{ACAD_REACTORS
330
12
102
}
330
12
100
AcDbXrecord
280
     1
270
     1
271
     1
  0
XRECORD
  5
18
102
{ACAD_REACTORS
330
12
102
}
330
12
100
AcDbXrecord
280
     1
270
     1
271
     1
  0
XRECORD
  5
15
102
{ACAD_REACTORS
330
12
102
}
330
12
100
AcDbXrecord
280
     1
270
     1
271
     1
  0
XRECORD
  5
24
102
{ACAD_REACTORS
330
22
102
}
330
22
100
AcDbXrecord
280
     1
270
     1
271
     1
  0
XRECORD
  5
23
102
{ACAD_REACTORS
330
22
102
}
330
22
100
AcDbXrecord
280
     1
270
     1
271
     1
  0
XRECORD
  5
27
102
{ACAD_REACTORS
330
22
102
}
330
22
100
AcDbXrecord
280
     1
270
     1
271
     1
  0
XRECORD
  5
26
102
{ACAD_REACTORS
330
22
102
}
330
22
100
AcDbXrecord
280
     1
270
     1
271
     1
  0
XRECORD
  5
28
102
{ACAD_REACTORS
330
22
102
}
330
22
100
AcDbXrecord
280
     1
270
     1
271
     1
  0
XRECORD
  5
25
102
{ACAD_REACTORS
330
22
102
}
330
22
100
AcDbXrecord
280
     1
270
     1
271
     1
  0
CELLSTYLEMAP
  5
22A
102
{ACAD_REACTORS
330
229
102
}
330
229
100
AcDbCellStyleMap
 90
        3
300
CELLSTYLE
  1
TABLEFORMAT_BEGIN
 90
        5
170
     1
 91
        0
 92
    32768
 62
   257
 93
        1
300
CONTENTFORMAT
  1
CONTENTFORMAT_BEGIN
 90
        0
 91
        0
 92
      512
 93
        0
300

 40
0.0
140
1.0
 94
        5
 62
     0
340
55
144
0.25
309
CONTENTFORMAT_END
171
     0
 94
        0
309
TABLEFORMAT_END
  1
CELLSTYLE_BEGIN
 90
        1
 91
        1
300
_TITLE
309
CELLSTYLE_END
300
CELLSTYLE
  1
TABLEFORMAT_BEGIN
 90
        5
170
     1
 91
        0
 92
        0
 62
   257
 93
        1
300
CONTENTFORMAT
  1
CONTENTFORMAT_BEGIN
 90
        0
 91
        0
 92
      512
 93
        0
300

 40
0.0
140
1.0
 94
        5
 62
     0
340
55
144
0.18
309
CONTENTFORMAT_END
171
     0
 94
        0
309
TABLEFORMAT_END
  1
CELLSTYLE_BEGIN
 90
        2
 91
        1
300
_HEADER
309
CELLSTYLE_END
300
CELLSTYLE
  1
TABLEFORMAT_BEGIN
 90
        5
170
     1
 91
        0
 92
        0
 62
   257
 93
        1
300
CONTENTFORMAT
  1
CONTENTFORMAT_BEGIN
 90
        0
 91
        0
 92
      512
 93
        0
300

 40
0.0
140
1.0
 94
        2
 62
     0
340
55
144
0.18
309
CONTENTFORMAT_END
171
     0
 94
        0
309
TABLEFORMAT_END
  1
CELLSTYLE_BEGIN
 90
        3
 91
        2
300
_DATA
309
CELLSTYLE_END
  0
ENDSEC
  0
EOF
