  0
SECTION
  2
HEADER
  9
$ACADVER
  1
AC1032
  9
$ACADMAINTVER
 90
      251
  9
$DWGCODEPAGE
  3
ANSI_1252
  9
$REQUIREDVERSIONS
160
                 0
  9
$INSBASE
 10
0.0
 20
0.0
 30
0.0
  9
$EXTMIN
 10
1.000000000000000E+20
 20
1.000000000000000E+20
 30
1.000000000000000E+20
  9
$EXTMAX
 10
-1.000000000000000E+20
 20
-1.000000000000000E+20
 30
-1.000000000000000E+20
  9
$LIMMIN
 10
0.0
 20
0.0
  9
$LIMMAX
 10
12.0
 20
9.0
  9
$ORTHOMODE
 70
     0
  9
$REGENMODE
 70
     1
  9
$FILLMODE
 70
     1
  9
$QTEXTMODE
 70
     0
  9
$MIRRTEXT
 70
     0
  9
$LTSCALE
 40
1.0
  9
$ATTMODE
 70
     1
  9
$TEXTSIZE
 40
0.2
  9
$TRACEWID
 40
0.05
  9
$TEXTSTYLE
  7
Standard
  9
$CLAYER
  8
0
  9
$CELTYPE
  6
ByLayer
  9
$CECOLOR
 62
   256
  9
$CELTSCALE
 40
1.0
  9
$DISPSILH
 70
     0
  9
$DIMSCALE
 40
1.0
  9
$DIMASZ
 40
0.18
  9
$DIMEXO
 40
0.0625
  9
$DIMDLI
 40
0.38
  9
$DIMRND
 40
0.0
  9
$DIMDLE
 40
0.0
  9
$DIMEXE
 40
0.18
  9
$DIMTP
 40
0.0
  9
$DIMTM
 40
0.0
  9
$DIMTXT
 40
0.18
  9
$DIMCEN
 40
0.09
  9
$DIMTSZ
 40
0.0
  9
$DIMTOL
 70
     0
  9
$DIMLIM
 70
     0
  9
$DIMTIH
 70
     1
  9
$DIMTOH
 70
     1
  9
$DIMSE1
 70
     0
  9
$DIMSE2
 70
     0
  9
$DIMTAD
 70
     0
  9
$DIMZIN
 70
     0
  9
$DIMBLK
  1

  9
$DIMASO
 70
     1
  9
$DIMSHO
 70
     1
  9
$DIMPOST
  1

  9
$DIMAPOST
  1

  9
$DIMALT
 70
     0
  9
$DIMALTD
 70
     2
  9
$DIMALTF
 40
25.4
  9
$DIMLFAC
 40
1.0
  9
$DIMTOFL
 70
     0
  9
$DIMTVP
 40
0.0
  9
$DIMTIX
 70
     0
  9
$DIMSOXD
 70
     0
  9
$DIMSAH
 70
     0
  9
$DIMBLK1
  1

  9
$DIMBLK2
  1

  9
$DIMSTYLE
  2
Standard
  9
$DIMCLRD
 70
     0
  9
$DIMCLRE
 70
     0
  9
$DIMCLRT
 70
     0
  9
$DIMTFAC
 40
1.0
  9
$DIMGAP
 40
0.09
  9
$DIMJUST
 70
     0
  9
$DIMSD1
 70
     0
  9
$DIMSD2
 70
     0
  9
$DIMTOLJ
 70
     1
  9
$DIMTZIN
 70
     0
  9
$DIMALTZ
 70
     0
  9
$DIMALTTZ
 70
     0
  9
$DIMUPT
 70
     0
  9
$DIMDEC
 70
     4
  9
$DIMTDEC
 70
     4
  9
$DIMALTU
 70
     2
  9
$DIMALTTD
 70
     2
  9
$DIMTXSTY
  7
Standard
  9
$DIMAUNIT
 70
     0
  9
$DIMADEC
 70
     0
  9
$DIMALTRND
 40
0.0
  9
$DIMAZIN
 70
     0
  9
$DIMDSEP
 70
    46
  9
$DIMATFIT
 70
     3
  9
$DIMFRAC
 70
     0
  9
$DIMLDRBLK
  1

  9
$DIMLUNIT
 70
     2
  9
$DIMLWD
 70
    -2
  9
$DIMLWE
 70
    -2
  9
$DIMTMOVE
 70
     0
  9
$DIMFXL
 40
1.0
  9
$DIMFXLON
 70
     0
  9
$DIMJOGANG
 40
0.7853981633974483
  9
$DIMTFILL
 70
     0
  9
$DIMTFILLCLR
 70
     0
  9
$DIMARCSYM
 70
     0
  9
$DIMLTYPE
  6

  9
$DIMLTEX1
  6

  9
$DIMLTEX2
  6

  9
$DIMTXTDIRECTION
 70
     0
  9
$LUNITS
 70
     2
  9
$LUPREC
 70
     4
  9
$SKETCHINC
 40
0.1
  9
$FILLETRAD
 40
0.0
  9
$AUNITS
 70
     0
  9
$AUPREC
 70
     0
  9
$MENU
  1
.
  9
$ELEVATION
 40
0.0
  9
$PELEVATION
 40
0.0
  9
$THICKNESS
 40
0.0
  9
$LIMCHECK
 70
     0
  9
$CHAMFERA
 40
0.0
  9
$CHAMFERB
 40
0.0
  9
$CHAMFERC
 40
0.0
  9
$CHAMFERD
 40
0.0
  9
$SKPOLY
 70
     0
  9
$TDCREATE
 40
2460035.626435185
  9
$TDUCREATE
 40
2460035.543101852
  9
$TDUPDATE
 40
2460035.626435185
  9
$TDUUPDATE
 40
2460035.543101852
  9
$TDINDWG
 40
0.0000000000
  9
$TDUSRTIMER
 40
0.0000000000
  9
$USRTIMER
 70
     1
  9
$ANGBASE
 50
0.0
  9
$ANGDIR
 70
     0
  9
$PDMODE
 70
     0
  9
$PDSIZE
 40
0.0
  9
$PLINEWID
 40
0.0
  9
$SPLFRAME
 70
     0
  9
$SPLINETYPE
 70
     6
  9
$SPLINESEGS
 70
     8
  9
$HANDSEED
  5
302
  9
$SURFTAB1
 70
     6
  9
$SURFTAB2
 70
     6
  9
$SURFTYPE
 70
     6
  9
$SURFU
 70
     6
  9
$SURFV
 70
     6
  9
$UCSBASE
  2

  9
$UCSNAME
  2

  9
$UCSORG
 10
0.0
 20
0.0
 30
0.0
  9
$UCSXDIR
 10
1.0
 20
0.0
 30
0.0
  9
$UCSYDIR
 10
0.0
 20
1.0
 30
0.0
  9
$UCSORTHOREF
  2

  9
$UCSORTHOVIEW
 70
     0
  9
$UCSORGTOP
 10
0.0
 20
0.0
 30
0.0
  9
$UCSORGBOTTOM
 10
0.0
 20
0.0
 30
0.0
  9
$UCSORGLEFT
 10
0.0
 20
0.0
 30
0.0
  9
$UCSORGRIGHT
 10
0.0
 20
0.0
 30
0.0
  9
$UCSORGFRONT
 10
0.0
 20
0.0
 30
0.0
  9
$UCSORGBACK
 10
0.0
 20
0.0
 30
0.0
  9
$PUCSBASE
  2

  9
$PUCSNAME
  2

  9
$PUCSORG
 10
0.0
 20
0.0
 30
0.0
  9
$PUCSXDIR
 10
1.0
 20
0.0
 30
0.0
  9
$PUCSYDIR
 10
0.0
 20
1.0
 30
0.0
  9
$PUCSORTHOREF
  2

  9
$PUCSORTHOVIEW
 70
     0
  9
$PUCSORGTOP
 10
0.0
 20
0.0
 30
0.0
  9
$PUCSORGBOTTOM
 10
0.0
 20
0.0
 30
0.0
  9
$PUCSORGLEFT
 10
0.0
 20
0.0
 30
0.0
  9
$PUCSORGRIGHT
 10
0.0
 20
0.0
 30
0.0
  9
$PUCSORGFRONT
 10
0.0
 20
0.0
 30
0.0
  9
$PUCSORGBACK
 10
0.0
 20
0.0
 30
0.0
  9
$USERI1
 70
     0
  9
$USERI2
 70
     0
  9
$USERI3
 70
     0
  9
$USERI4
 70
     0
  9
$USERI5
 70
     0
  9
$USERR1
 40
0.0
  9
$USERR2
 40
0.0
  9
$USERR3
 40
0.0
  9
$USERR4
 40
0.0
  9
$USERR5
 40
0.0
  9
$WORLDVIEW
 70
     1
  9
$SHADEDGE
 70
     3
  9
$SHADEDIF
 70
    70
  9
$TILEMODE
 70
     1
  9
$MAXACTVP
 70
    64
  9
$PINSBASE
 10
0.0
 20
0.0
 30
0.0
  9
$PLIMCHECK
 70
     0
  9
$PEXTMIN
 10
1.000000000000000E+20
 20
1.000000000000000E+20
 30
1.000000000000000E+20
  9
$PEXTMAX
 10
-1.000000000000000E+20
 20
-1.000000000000000E+20
 30
-1.000000000000000E+20
  9
$PLIMMIN
 10
0.0
 20
0.0
  9
$PLIMMAX
 10
12.0
 20
9.0
  9
$UNITMODE
 70
     0
  9
$VISRETAIN
 70
     1
  9
$PLINEGEN
 70
     0
  9
$PSLTSCALE
 70
     1
  9
$TREEDEPTH
 70
  3020
  9
$CMLSTYLE
  2
Standard
  9
$CMLJUST
 70
     0
  9
$CMLSCALE
 40
1.0
  9
$PROXYGRAPHICS
 70
     1
  9
$MEASUREMENT
 70
     0
  9
$CELWEIGHT
370
    -1
  9
$ENDCAPS
280
     0
  9
$JOINSTYLE
280
     0
  9
$LWDISPLAY
290
     1
  9
$INSUNITS
 70
     4
  9
$HYPERLINKBASE
  1

  9
$STYLESHEET
  1

  9
$XEDIT
290
     1
  9
$CEPSNTYPE
380
     0
  9
$PSTYLEMODE
290
     1
  9
$FINGERPRINTGUID
  2
{6ACE7D35-DD32-5946-B8C2-97560C631FA1}
  9
$VERSIONGUID
  2
{90B58B9C-A6D2-1340-9426-93F3E34FE758}
  9
$EXTNAMES
290
     1
  9
$PSVPSCALE
 40
0.0
  9
$OLESTARTUP
290
     0
  9
$SORTENTS
280
   127
  9
$INDEXCTL
280
     0
  9
$HIDETEXT
280
     1
  9
$XCLIPFRAME
280
     2
  9
$HALOGAP
280
     0
  9
$OBSCOLOR
 70
   257
  9
$OBSLTYPE
280
     0
  9
$INTERSECTIONDISPLAY
280
     0
  9
$INTERSECTIONCOLOR
 70
   257
  9
$DIMASSOC
280
     2
  9
$PROJECTNAME
  1

  9
$CAMERADISPLAY
290
     0
  9
$LENSLENGTH
 40
50.0
  9
$CAMERAHEIGHT
 40
0.0
  9
$STEPSPERSEC
 40
2.0
  9
$STEPSIZE
 40
6.0
  9
$3DDWFPREC
 40
2.0
  9
$PSOLWIDTH
 40
0.25
  9
$PSOLHEIGHT
 40
4.0
  9
$LOFTANG1
 40
1.570796326794896
  9
$LOFTANG2
 40
1.570796326794896
  9
$LOFTMAG1
 40
0.0
  9
$LOFTMAG2
 40
0.0
  9
$LOFTPARAM
 70
     7
  9
$LOFTNORMALS
280
     1
  9
$LATITUDE
 40
37.795
  9
$LONGITUDE
 40
-122.394
  9
$NORTHDIRECTION
 40
0.0
  9
$TIMEZONE
 70
 -8000
  9
$LIGHTGLYPHDISPLAY
280
     1
  9
$TILEMODELIGHTSYNCH
280
     1
  9
$CMATERIAL
347
11
  9
$SOLIDHIST
280
     0
  9
$SHOWHIST
280
     1
  9
$DWFFRAME
280
     2
  9
$DGNFRAME
280
     0
  9
$REALWORLDSCALE
290
     1
  9
$INTERFERECOLOR
 62
     1
  9
$INTERFEREOBJVS
345
33
  9
$INTERFEREVPVS
346
30
  9
$CSHADOW
280
     0
  9
$SHADOWPLANELOCATION
 40
0.0
  0
ENDSEC
  0
SECTION
  2
CLASSES
  0
CLASS
  1
ACDBDICTIONARYWDFLT
  2
AcDbDictionaryWithDefault
  3
ObjectDBX Classes
 90
        0
 91
        1
280
     0
281
     0
  0
CLASS
  1
MATERIAL
  2
AcDbMaterial
  3
ObjectDBX Classes
 90
     1153
 91
        3
280
     0
281
     0
  0
CLASS
  1
VISUALSTYLE
  2
AcDbVisualStyle
  3
ObjectDBX Classes
 90
     4095
 91
       24
280
     0
281
     0
  0
CLASS
  1
SCALE
  2
AcDbScale
  3
ObjectDBX Classes
 90
     1153
 91
       17
280
     0
281
     0
  0
CLASS
  1
TABLESTYLE
  2
AcDbTableStyle
  3
ObjectDBX Classes
 90
     4095
 91
        1
280
     0
281
     0
  0
CLASS
  1
MLEADERSTYLE
  2
AcDbMLeaderStyle
  3
ACDB_MLEADERSTYLE_CLASS
 90
     4095
 91
        1
280
     0
281
     0
  0
CLASS
  1
ACDBSECTIONVIEWSTYLE
  2
AcDbSectionViewStyle
  3
ObjectDBX Classes
 90
     1025
 91
        1
280
     0
281
     0
  0
CLASS
  1
ACDBDETAILVIEWSTYLE
  2
AcDbDetailViewStyle
  3
ObjectDBX Classes
 90
     1025
 91
        1
280
     0
281
     0
  0
CLASS
  1
DICTIONARYVAR
  2
AcDbDictionaryVar
  3
ObjectDBX Classes
 90
        0
 91
        5
280
     0
281
     0
  0
CLASS
  1
CELLSTYLEMAP
  2
AcDbCellStyleMap
  3
ObjectDBX Classes
 90
     1152
 91
        1
280
     0
281
     0
  0
ENDSEC
  0
SECTION
  2
TABLES
  0
TABLE
  2
VPORT
  5
8
330
0
100
AcDbSymbolTable
 70
     1
  0
VPORT
  5
57
330
8
100
AcDbSymbolTableRecord
100
AcDbViewportTableRecord
  2
*Active
 70
     0
 10
0.0
 20
0.0
 11
1.0
 21
1.0
 12
0.0
 22
0.0
 13
0.0
 23
0.0
 14
1.0
 24
1.0
 15
0.0
 25
0.0
 16
0.0
 26
0.0
 36
1.0
 17
104.9999999737499
 27
31.49999999212523
 37
0.0
 40
302.9399999242649
 41
0.7070707070707066
 42
50.0
 43
0.0
 44
0.0
 50
0.0
 51
0.0
 71
     0
 72
   100
 73
     1
 74
     1
 75
     0
 76
     0
 77
     0
 78
     0
281
     0
 65
     1
110
0.0
120
0.0
130
0.0
111
1.0
121
0.0
131
0.0
112
0.0
122
1.0
132
0.0
 79
     0
146
0.0
 60
     3
 61
     5
292
     1
282
     1
141
0.0
142
0.0
 63
   250
421
  3355443
  0
ENDTAB
  0
TABLE
  2
LTYPE
  5
5
330
0
100
AcDbSymbolTable
 70
     1
  0
LTYPE
  5
5B
330
5
100
AcDbSymbolTableRecord
100
AcDbLinetypeTableRecord
  2
ByBlock
 70
     0
  3

 72
    65
 73
     0
 40
0.0
  0
LTYPE
  5
5C
330
5
100
AcDbSymbolTableRecord
100
AcDbLinetypeTableRecord
  2
ByLayer
 70
     0
  3

 72
    65
 73
     0
 40
0.0
  0
LTYPE
  5
5D
330
5
100
AcDbSymbolTableRecord
100
AcDbLinetypeTableRecord
  2
Continuous
 70
     0
  3
Solid line
 72
    65
 73
     0
 40
0.0
  0
ENDTAB
  0
TABLE
  2
LAYER
  5
2
330
0
100
AcDbSymbolTable
 70
     2
  0
LAYER
  5
54
330
2
100
AcDbSymbolTableRecord
100
AcDbLayerTableRecord
  2
0
 70
     0
 62
     7
  6
Continuous
370
     0
390
F
347
21
348
0
  0
LAYER
  5
2D4
330
2
100
AcDbSymbolTableRecord
100
AcDbLayerTableRecord
  2
CAPA_BASE
 70
     0
 62
     7
  6
Continuous
370
     0
390
F
347
21
348
0
  0
ENDTAB
  0
TABLE
  2
STYLE
  5
3
330
0
100
AcDbSymbolTable
 70
     2
  0
STYLE
  5
55
330
3
100
AcDbSymbolTableRecord
100
AcDbTextStyleTableRecord
  2
Standard
 70
     0
 40
0.0
 41
1.0
 50
0.0
 71
     0
 42
0.2
  3
txt
  4

  0
STYLE
  5
5A
330
3
100
AcDbSymbolTableRecord
100
AcDbTextStyleTableRecord
  2
Annotative
 70
     0
 40
0.0
 41
1.0
 50
0.0
 71
     0
 42
0.2
  3
txt
  4

1001
AcadAnnotative
1000
AnnotativeData
1002
{
1070
     1
1070
     1
1002
}
  0
ENDTAB
  0
TABLE
  2
VIEW
  5
6
330
0
100
AcDbSymbolTable
 70
     0
  0
ENDTAB
  0
TABLE
  2
UCS
  5
7
330
0
100
AcDbSymbolTable
 70
     0
  0
ENDTAB
  0
TABLE
  2
APPID
  5
9
330
0
100
AcDbSymbolTable
 70
     2
  0
APPID
  5
56
330
9
100
AcDbSymbolTableRecord
100
AcDbRegAppTableRecord
  2
ACAD
 70
     0
  0
APPID
  5
5E
330
9
100
AcDbSymbolTableRecord
100
AcDbRegAppTableRecord
  2
AcadAnnotative
 70
     0
  0
ENDTAB
  0
TABLE
  2
DIMSTYLE
  5
A
330
0
100
AcDbSymbolTable
 70
     2
100
AcDbDimStyleTable
 71
     0
  0
DIMSTYLE
105
58
330
A
100
AcDbSymbolTableRecord
100
AcDbDimStyleTableRecord
  2
Standard
 70
     0
340
55
  0
DIMSTYLE
105
59
330
A
100
AcDbSymbolTableRecord
100
AcDbDimStyleTableRecord
  2
Annotative
 70
     0
340
55
1001
AcadAnnotative
1000
AnnotativeData
1002
{
1070
     1
1070
     1
1002
}
  0
ENDTAB
  0
TABLE
  2
BLOCK_RECORD
  5
1
330
0
100
AcDbSymbolTable
 70
     4
  0
BLOCK_RECORD
  5
70
330
1
100
AcDbSymbolTableRecord
100
AcDbBlockTableRecord
  2
*Model_Space
340
73
 70
     0
280
     1
281
     0
  0
BLOCK_RECORD
  5
6C
330
1
100
AcDbSymbolTableRecord
100
AcDbBlockTableRecord
  2
*Paper_Space
340
6F
 70
     0
280
     1
281
     0
  0
BLOCK_RECORD
  5
74
330
1
100
AcDbSymbolTableRecord
100
AcDbBlockTableRecord
  2
*Paper_Space0
340
77
 70
     0
280
     1
281
     0
  0
BLOCK_RECORD
  5
2D5
330
1
100
AcDbSymbolTableRecord
100
AcDbBlockTableRecord
  2
Block_0
340
0
102
{BLKREFS
331
2D6
102
}
 70
     0
280
     1
281
     0
  0
BLOCK_RECORD
  5
2E1
330
1
100
AcDbSymbolTableRecord
100
AcDbBlockTableRecord
  2
Block_1
340
0
102
{BLKREFS
331
2E2
102
}
 70
     0
280
     1
281
     0
  0
BLOCK_RECORD
  5
2ED
330
1
100
AcDbSymbolTableRecord
100
AcDbBlockTableRecord
  2
Block_2
340
0
102
{BLKREFS
331
2EE
102
}
 70
     0
280
     1
281
     0
  0
ENDTAB
  0
ENDSEC
  0
SECTION
  2
BLOCKS
  0
BLOCK
  5
71
330
70
100
AcDbEntity
  8
0
100
AcDbBlockBegin
  2
*Model_Space
 70
     0
 10
0.0
 20
0.0
 30
0.0
  3
*Model_Space
  1

  0
ENDBLK
  5
72
330
70
100
AcDbEntity
  8
0
100
AcDbBlockEnd
  0
BLOCK
  5
6D
330
6C
100
AcDbEntity
 67
     1
  8
0
100
AcDbBlockBegin
  2
*Paper_Space
 70
     0
 10
0.0
 20
0.0
 30
0.0
  3
*Paper_Space
  1

  0
ENDBLK
  5
6E
330
6C
100
AcDbEntity
 67
     1
  8
0
100
AcDbBlockEnd
  0
BLOCK
  5
75
330
74
100
AcDbEntity
 67
     1
  8
0
100
AcDbBlockBegin
  2
*Paper_Space0
 70
     0
 10
0.0
 20
0.0
 30
0.0
  3
*Paper_Space0
  1

  0
ENDBLK
  5
76
330
74
100
AcDbEntity
 67
     1
  8
0
100
AcDbBlockEnd
  0
BLOCK
  5
2D7
330
2D5
100
AcDbEntity
  8
0
100
AcDbBlockBegin
  2
Block_0
 70
     0
 10
0.0
 20
0.0
 30
0.0
  3
Block_0
  1

  0
LWPOLYLINE
  5
2D9
330
2D5
100
AcDbEntity
  8
CAPA_BASE
100
AcDbPolyline
 90
        4
 70
     1
 43
0.0
 10
80.17646207581918
 20
32.25926978454401
 10
77.67646207581877
 20
32.56926978454373
 10
77.67646207581877
 20
31.94926978454365
 10
77.67646207581877
 20
31.94926978454365
  0
HATCH
  5
2DA
330
2D5
100
AcDbEntity
  8
CAPA_BASE
 62
    18
420
        0
440
 33554687
100
AcDbHatch
 10
0.0
 20
0.0
 30
0.0
210
0.0
220
0.0
230
1.0
  2
SOLID
 70
     1
 71
     1
 91
        1
 92
        1
 93
        3
 72
     1
 10
80.17646207581918
 20
32.25926978454401
 11
77.67646207581877
 21
32.56926978454373
 72
     1
 10
77.67646207581877
 20
32.56926978454373
 11
77.67646207581877
 21
31.94926978454365
 72
     1
 10
77.67646207581877
 20
31.94926978454365
 11
80.17646207581918
 21
32.25926978454401
 97
        1
330
2D9
 75
     2
 76
     1
 98
        1
 10
0.0
 20
0.0
450
        0
451
        0
460
0.0
461
0.0
452
        0
462
0.0
453
        0
470

  0
LWPOLYLINE
  5
2DB
330
2D5
100
AcDbEntity
  8
CAPA_BASE
100
AcDbPolyline
 90
        4
 70
     1
 43
0.0
 10
29.32646207581916
 20
32.25926978454401
 10
31.82646207581925
 20
31.94926978454365
 10
31.82646207581925
 20
32.56926978454373
 10
31.82646207581925
 20
32.56926978454373
  0
HATCH
  5
2DC
330
2D5
100
AcDbEntity
  8
CAPA_BASE
 62
    18
420
        0
440
 33554687
100
AcDbHatch
 10
0.0
 20
0.0
 30
0.0
210
0.0
220
0.0
230
1.0
  2
SOLID
 70
     1
 71
     1
 91
        1
 92
        1
 93
        3
 72
     1
 10
29.32646207581916
 20
32.25926978454401
 11
31.82646207581925
 21
31.94926978454365
 72
     1
 10
31.82646207581925
 20
31.94926978454365
 11
31.82646207581925
 21
32.56926978454373
 72
     1
 10
31.82646207581925
 20
32.56926978454373
 11
29.32646207581916
 21
32.25926978454401
 97
        1
330
2DB
 75
     2
 76
     1
 98
        1
 10
0.0
 20
0.0
450
        0
451
        0
460
0.0
461
0.0
452
        0
462
0.0
453
        0
470

  0
LINE
  5
2DD
330
2D5
100
AcDbEntity
  8
CAPA_BASE
 62
    18
420
        0
370
    25
100
AcDbLine
 10
80.17646207581918
 20
42.00926978454355
 30
0.0
 11
80.17646207581918
 21
31.25926978454334
 31
0.0
  0
LINE
  5
2DE
330
2D5
100
AcDbEntity
  8
CAPA_BASE
 62
    18
420
        0
370
    25
100
AcDbLine
 10
29.32646207581916
 20
42.00926978454355
 30
0.0
 11
29.32646207581916
 21
31.25926978454334
 31
0.0
  0
LINE
  5
2DF
330
2D5
100
AcDbEntity
  8
CAPA_BASE
 62
    18
420
        0
370
    25
100
AcDbLine
 10
80.17646207581918
 20
32.25926978454401
 30
0.0
 11
29.32646207581916
 21
32.25926978454401
 31
0.0
  0
MTEXT
  5
2E0
330
2D5
100
AcDbEntity
  8
CAPA_BASE
100
AcDbMText
 10
52.10562658066934
 20
33.05301584900943
 30
0.0
 40
0.2
 41
0.0
 46
0.0
 71
     7
 72
     1
  1
\C18;\c0;\FArial Bold|b1|i0|c1;\H2.997200;\W0.700000;203
 73
     1
 44
1.0
  0
ENDBLK
  5
2D8
330
2D5
100
AcDbEntity
  8
0
100
AcDbBlockEnd
  0
BLOCK
  5
2E3
330
2E1
100
AcDbEntity
  8
0
100
AcDbBlockBegin
  2
Block_1
 70
     0
 10
0.0
 20
0.0
 30
0.0
  3
Block_1
  1

  0
LWPOLYLINE
  5
2E5
330
2E1
100
AcDbEntity
  8
CAPA_BASE
100
AcDbPolyline
 90
        4
 70
     1
 43
0.0
 10
116.5294121170191
 20
117.6342697845437
 10
116.2194121170194
 20
115.1342697845436
 10
116.8394121170188
 20
115.1342697845436
 10
116.8394121170188
 20
115.1342697845436
  0
HATCH
  5
2E6
330
2E1
100
AcDbEntity
  8
CAPA_BASE
 62
    18
420
        0
440
 33554687
100
AcDbHatch
 10
0.0
 20
0.0
 30
0.0
210
0.0
220
0.0
230
1.0
  2
SOLID
 70
     1
 71
     1
 91
        1
 92
        1
 93
        3
 72
     1
 10
116.5294121170191
 20
117.6342697845437
 11
116.2194121170194
 21
115.1342697845436
 72
     1
 10
116.2194121170194
 20
115.1342697845436
 11
116.8394121170188
 21
115.1342697845436
 72
     1
 10
116.8394121170188
 20
115.1342697845436
 11
116.5294121170191
 21
117.6342697845437
 97
        1
330
2E5
 75
     2
 76
     1
 98
        1
 10
0.0
 20
0.0
450
        0
451
        0
460
0.0
461
0.0
452
        0
462
0.0
453
        0
470

  0
LWPOLYLINE
  5
2E7
330
2E1
100
AcDbEntity
  8
CAPA_BASE
100
AcDbPolyline
 90
        4
 70
     1
 43
0.0
 10
116.5294121170191
 20
42.25926978454372
 10
116.8394121170188
 20
44.75926978454348
 10
116.2194121170194
 20
44.75926978454348
 10
116.2194121170194
 20
44.75926978454348
  0
HATCH
  5
2E8
330
2E1
100
AcDbEntity
  8
CAPA_BASE
 62
    18
420
        0
440
 33554687
100
AcDbHatch
 10
0.0
 20
0.0
 30
0.0
210
0.0
220
0.0
230
1.0
  2
SOLID
 70
     1
 71
     1
 91
        1
 92
        1
 93
        3
 72
     1
 10
116.5294121170191
 20
42.25926978454372
 11
116.8394121170188
 21
44.75926978454348
 72
     1
 10
116.8394121170188
 20
44.75926978454348
 11
116.2194121170194
 21
44.75926978454348
 72
     1
 10
116.2194121170194
 20
44.75926978454348
 11
116.5294121170191
 21
42.25926978454372
 97
        1
330
2E7
 75
     2
 76
     1
 98
        1
 10
0.0
 20
0.0
450
        0
451
        0
460
0.0
461
0.0
452
        0
462
0.0
453
        0
470

  0
LINE
  5
2E9
330
2E1
100
AcDbEntity
  8
CAPA_BASE
 62
    18
420
        0
370
    25
100
AcDbLine
 10
140.6044121170189
 20
117.6342697845437
 30
0.0
 11
115.5294121170191
 21
117.6342697845437
 31
0.0
  0
LINE
  5
2EA
330
2E1
100
AcDbEntity
  8
CAPA_BASE
 62
    18
420
        0
370
    25
100
AcDbLine
 10
145.0294121170191
 20
42.25926978454372
 30
0.0
 11
115.5294121170191
 21
42.25926978454372
 31
0.0
  0
LINE
  5
2EB
330
2E1
100
AcDbEntity
  8
CAPA_BASE
 62
    18
420
        0
370
    25
100
AcDbLine
 10
116.5294121170191
 20
117.6342697845437
 30
0.0
 11
116.5294121170191
 21
42.25926978454372
 31
0.0
  0
MTEXT
  5
2EC
330
2E1
100
AcDbEntity
  8
CAPA_BASE
100
AcDbMText
 10
115.7356600789972
 20
77.30070798848668
 30
0.0
 40
0.2
 41
0.0
 46
0.0
 71
     7
 72
     1
  1
\C18;\c0;\FArial Bold|b1|i0|c1;\H2.997200;\W0.700000;302
 11
0.0000000000000003
 21
1.0
 31
0.0
 73
     1
 44
1.0
  0
ENDBLK
  5
2E4
330
2E1
100
AcDbEntity
  8
0
100
AcDbBlockEnd
  0
BLOCK
  5
2EF
330
2ED
100
AcDbEntity
  8
0
100
AcDbBlockBegin
  2
Block_2
 70
     0
 10
0.0
 20
0.0
 30
0.0
  3
Block_2
  1

  0
LWPOLYLINE
  5
2F1
330
2ED
100
AcDbEntity
  8
CAPA_BASE
100
AcDbPolyline
 90
        4
 70
     1
 43
0.0
 10
90.45146207581915
 20
6.794374525943692
 10
90.14146207581879
 20
4.294374525943925
 10
90.76146207581951
 20
4.294374525943925
 10
90.76146207581951
 20
4.294374525943925
  0
HATCH
  5
2F2
330
2ED
100
AcDbEntity
  8
CAPA_BASE
 62
    18
420
        0
440
 33554687
100
AcDbHatch
 10
0.0
 20
0.0
 30
0.0
210
0.0
220
0.0
230
1.0
  2
SOLID
 70
     1
 71
     1
 91
        1
 92
        1
 93
        3
 72
     1
 10
90.45146207581915
 20
6.794374525943692
 11
90.14146207581879
 21
4.294374525943925
 72
     1
 10
90.14146207581879
 20
4.294374525943925
 11
90.76146207581951
 21
4.294374525943925
 72
     1
 10
90.76146207581951
 20
4.294374525943925
 11
90.45146207581915
 21
6.794374525943692
 97
        1
330
2F1
 75
     2
 76
     1
 98
        1
 10
0.0
 20
0.0
450
        0
451
        0
460
0.0
461
0.0
452
        0
462
0.0
453
        0
470

  0
LWPOLYLINE
  5
2F3
330
2ED
100
AcDbEntity
  8
CAPA_BASE
100
AcDbPolyline
 90
        4
 70
     1
 43
0.0
 10
90.45146207581915
 20
-44.60562547405619
 10
90.76146207581951
 20
-42.10562547405642
 10
90.14146207581879
 20
-42.10562547405642
 10
90.14146207581879
 20
-42.10562547405642
  0
HATCH
  5
2F4
330
2ED
100
AcDbEntity
  8
CAPA_BASE
 62
    18
420
        0
440
 33554687
100
AcDbHatch
 10
0.0
 20
0.0
 30
0.0
210
0.0
220
0.0
230
1.0
  2
SOLID
 70
     1
 71
     1
 91
        1
 92
        1
 93
        3
 72
     1
 10
90.45146207581915
 20
-44.60562547405619
 11
90.76146207581951
 21
-42.10562547405642
 72
     1
 10
90.76146207581951
 20
-42.10562547405642
 11
90.14146207581879
 21
-42.10562547405642
 72
     1
 10
90.14146207581879
 20
-42.10562547405642
 11
90.45146207581915
 21
-44.60562547405619
 97
        1
330
2F3
 75
     2
 76
     1
 98
        1
 10
0.0
 20
0.0
450
        0
451
        0
460
0.0
461
0.0
452
        0
462
0.0
453
        0
470

  0
LINE
  5
2F5
330
2ED
100
AcDbEntity
  8
CAPA_BASE
 62
    18
420
        0
370
    25
100
AcDbLine
 10
66.45146207581894
 20
6.794374525943692
 30
0.0
 11
91.45146207581918
 21
6.794374525943692
 31
0.0
  0
LINE
  5
2F6
330
2ED
100
AcDbEntity
  8
CAPA_BASE
 62
    18
420
        0
370
    25
100
AcDbLine
 10
66.45146207581894
 20
-44.60562547405619
 30
0.0
 11
91.45146207581918
 21
-44.60562547405619
 31
0.0
  0
LINE
  5
2F7
330
2ED
100
AcDbEntity
  8
CAPA_BASE
 62
    18
420
        0
370
    25
100
AcDbLine
 10
90.45146207581915
 20
6.794374525943692
 30
0.0
 11
90.45146207581915
 21
-44.60562547405619
 31
0.0
  0
MTEXT
  5
2F8
330
2ED
100
AcDbEntity
  8
CAPA_BASE
100
AcDbMText
 10
89.65771104902447
 20
-21.55113931752953
 30
0.0
 40
0.2
 41
0.0
 46
0.0
 71
     7
 72
     1
  1
\C18;\c0;\FArial Bold|b1|i0|c1;\H2.997200;\W0.700000;206
 11
0.0000000000000003
 21
1.0
 31
0.0
 73
     1
 44
1.0
  0
ENDBLK
  5
2F0
330
2ED
100
AcDbEntity
  8
0
100
AcDbBlockEnd
  0
ENDSEC
  0
SECTION
  2
ENTITIES
  0
LINE
  5
78
330
70
100
AcDbEntity
  8
0
 62
    18
420
        0
370
    25
100
AcDbLine
 10
43.66109497461904
 20
42.63426978124403
 30
0.0
 11
43.66109497461904
 21
43.00926978454358
 31
0.0
  0
LINE
  5
79
330
70
100
AcDbEntity
  8
0
 62
    18
420
        0
370
    25
100
AcDbLine
 10
43.78178506711918
 20
43.00926978454358
 30
0.0
 11
44.051461625819
 21
43.00926978454358
 31
0.0
  0
LINE
  5
7A
330
70
100
AcDbEntity
  8
0
 62
    18
420
        0
370
    25
100
AcDbLine
 10
44.051461625819
 20
43.00926978454358
 30
0.0
 11
44.051461625819
 21
42.63426978124403
 31
0.0
  0
LINE
  5
7B
330
70
100
AcDbEntity
  8
0
 62
    18
420
        0
370
    25
100
AcDbLine
 10
43.66109497461904
 20
42.63426978124403
 30
0.0
 11
44.051461625819
 21
42.63426978124403
 31
0.0
  0
LINE
  5
7C
330
70
100
AcDbEntity
  8
0
 62
    18
420
        0
370
    25
100
AcDbLine
 10
44.051461625819
 20
42.63426978124403
 30
0.0
 11
65.45146252581869
 21
42.63426978124403
 31
0.0
  0
LINE
  5
7D
330
70
100
AcDbEntity
  8
0
 62
    18
420
        0
370
    25
100
AcDbLine
 10
65.45146252581869
 20
42.63426978124403
 30
0.0
 11
65.45146252581869
 21
43.00926978454358
 31
0.0
  0
LINE
  5
7E
330
70
100
AcDbEntity
  8
0
 62
    18
420
        0
370
    25
100
AcDbLine
 10
44.051461625819
 20
43.00926978454358
 30
0.0
 11
65.45146252581869
 21
43.00926978454358
 31
0.0
  0
LINE
  5
7F
330
70
100
AcDbEntity
  8
0
 62
    18
420
        0
370
    25
100
AcDbLine
 10
65.8418291769192
 20
42.63426978124403
 30
0.0
 11
65.8418291769192
 21
43.00926978454358
 31
0.0
  0
LINE
  5
80
330
70
100
AcDbEntity
  8
0
 62
    18
420
        0
370
    25
100
AcDbLine
 10
65.8418291769192
 20
42.63426978124403
 30
0.0
 11
65.45146252581869
 21
42.63426978124403
 31
0.0
  0
LINE
  5
81
330
70
100
AcDbEntity
  8
0
 62
    18
420
        0
370
    25
100
AcDbLine
 10
65.72113908451915
 20
43.00926978454358
 30
0.0
 11
65.45146252581869
 21
43.00926978454358
 31
0.0
  0
LINE
  5
82
330
70
100
AcDbEntity
  8
0
 62
    18
420
        0
370
    25
100
AcDbLine
 10
66.20642147581896
 20
42.63426978124403
 30
0.0
 11
66.20642147581896
 21
43.00926978454358
 31
0.0
  0
LINE
  5
83
330
70
100
AcDbEntity
  8
0
 62
    18
420
        0
370
    25
100
AcDbLine
 10
66.20642147581896
 20
42.63426978124403
 30
0.0
 11
65.8418291769192
 21
42.63426978124403
 31
0.0
  0
LINE
  5
84
330
70
100
AcDbEntity
  8
0
 62
    18
420
        0
370
    25
100
AcDbLine
 10
43.29650267581906
 20
42.63426978124403
 30
0.0
 11
43.29650267581906
 21
43.00926978454358
 31
0.0
  0
LINE
  5
85
330
70
100
AcDbEntity
  8
0
 62
    18
420
        0
370
    25
100
AcDbLine
 10
43.29650267581906
 20
42.63426978124403
 30
0.0
 11
43.66109497461904
 21
42.63426978124403
 31
0.0
  0
LINE
  5
86
330
70
100
AcDbEntity
  8
0
 62
    18
420
        0
370
    25
100
AcDbLine
 10
80.07698949041932
 20
42.63426978124403
 30
0.0
 11
80.07698949041932
 21
43.00926978454358
 31
0.0
  0
LINE
  5
87
330
70
100
AcDbEntity
  8
0
 62
    18
420
        0
370
    25
100
AcDbLine
 10
80.07698949041932
 20
42.63426978124403
 30
0.0
 11
66.20642147581896
 21
42.63426978124403
 31
0.0
  0
LINE
  5
88
330
70
100
AcDbEntity
  8
0
 62
    18
420
        0
370
    25
100
AcDbLine
 10
29.42593466111924
 20
42.63426978124403
 30
0.0
 11
29.42593466111924
 21
43.00926978454358
 31
0.0
  0
LINE
  5
89
330
70
100
AcDbEntity
  8
0
 62
    18
420
        0
370
    25
100
AcDbLine
 10
29.42593466111924
 20
42.63426978124403
 30
0.0
 11
43.29650267581906
 21
42.63426978124403
 31
0.0
  0
LINE
  5
8A
330
70
100
AcDbEntity
  8
0
 62
    18
420
        0
370
    25
100
AcDbLine
 10
60.951462253819
 20
42.58426977894402
 30
0.0
 11
48.55146189771923
 21
42.58426977894402
 31
0.0
  0
LINE
  5
8B
330
70
100
AcDbEntity
  8
0
 62
    18
420
        0
370
    25
100
AcDbLine
 10
48.55146189771923
 20
42.63426978124403
 30
0.0
 11
48.55146189771923
 21
42.58426977894402
 31
0.0
  0
LINE
  5
8C
330
70
100
AcDbEntity
  8
0
 62
    18
420
        0
370
    25
100
AcDbLine
 10
60.951462253819
 20
42.58426977894402
 30
0.0
 11
60.951462253819
 21
42.63426978124403
 31
0.0
  0
LINE
  5
8D
330
70
100
AcDbEntity
  8
0
 62
    18
420
        0
370
    25
100
AcDbLine
 10
60.951462253819
 20
42.58426977894402
 30
0.0
 11
61.00146216891918
 21
42.58426977894402
 31
0.0
  0
SPLINE
  5
8E
330
70
100
AcDbEntity
  8
0
 62
    18
420
        0
370
    25
100
AcDbSpline
210
0.0
220
0.0
230
1.0
 70
     8
 71
     3
 72
     8
 73
     4
 74
     0
 42
0.0000000001
 43
0.0000000001
 40
0.0
 40
0.0
 40
0.0
 40
0.0
 40
1.0
 40
1.0
 40
1.0
 40
1.0
 10
61.05146207581907
 20
42.63426978454365
 30
0.0
 10
61.02384783832769
 20
42.63426978454365
 30
0.0
 10
61.00146207581923
 20
42.61188402203552
 30
0.0
 10
61.00146207581923
 20
42.58426978454349
 30
0.0
  0
LINE
  5
8F
330
70
100
AcDbEntity
  8
0
 62
    18
420
        0
370
    25
100
AcDbLine
 10
48.50146198261906
 20
42.58426977894402
 30
0.0
 11
48.55146189771923
 21
42.58426977894402
 31
0.0
  0
SPLINE
  5
90
330
70
100
AcDbEntity
  8
0
 62
    18
420
        0
370
    25
100
AcDbSpline
210
0.0
220
0.0
230
1.0
 70
     8
 71
     3
 72
     8
 73
     4
 74
     0
 42
0.0000000001
 43
0.0000000001
 40
0.0
 40
0.0
 40
0.0
 40
0.0
 40
1.0
 40
1.0
 40
1.0
 40
1.0
 10
48.50146207581911
 20
42.58426978454349
 30
0.0
 10
48.50146207581911
 20
42.61188402203552
 30
0.0
 10
48.47907631331065
 20
42.63426978454365
 30
0.0
 10
48.45146207581895
 20
42.63426978454365
 30
0.0
  0
LINE
  5
91
330
70
100
AcDbEntity
  8
0
 62
    18
420
        0
370
    25
100
AcDbLine
 10
60.951462253819
 20
42.30926980954383
 30
0.0
 11
61.00146216891918
 21
42.30926980954383
 31
0.0
  0
SPLINE
  5
92
330
70
100
AcDbEntity
  8
0
 62
    18
420
        0
370
    25
100
AcDbSpline
210
0.0
220
0.0
230
1.0
 70
     8
 71
     3
 72
     8
 73
     4
 74
     0
 42
0.0000000001
 43
0.0000000001
 40
0.0
 40
0.0
 40
0.0
 40
0.0
 40
1.0
 40
1.0
 40
1.0
 40
1.0
 10
60.95146207581907
 20
42.25926978454372
 30
0.0
 10
60.97907631331078
 20
42.25926978454372
 30
0.0
 10
61.00146207581923
 20
42.28165554705249
 30
0.0
 10
61.00146207581923
 20
42.30926978454323
 30
0.0
  0
LINE
  5
93
330
70
100
AcDbEntity
  8
0
 62
    18
420
        0
370
    25
100
AcDbLine
 10
60.951462253819
 20
42.30926980954383
 30
0.0
 11
60.951462253819
 21
42.25926977804395
 31
0.0
  0
LINE
  5
94
330
70
100
AcDbEntity
  8
0
 62
    18
420
        0
370
    25
100
AcDbLine
 10
48.55146189771923
 20
42.30926980954383
 30
0.0
 11
60.951462253819
 21
42.30926980954383
 31
0.0
  0
LINE
  5
95
330
70
100
AcDbEntity
  8
0
 62
    18
420
        0
370
    25
100
AcDbLine
 10
48.55146189771923
 20
42.58426977894402
 30
0.0
 11
48.55146189771923
 21
42.30926980954383
 31
0.0
  0
LINE
  5
96
330
70
100
AcDbEntity
  8
0
 62
    18
420
        0
370
    25
100
AcDbLine
 10
60.951462253819
 20
42.30926980954383
 30
0.0
 11
60.951462253819
 21
42.58426977894402
 31
0.0
  0
LINE
  5
97
330
70
100
AcDbEntity
  8
0
 62
    18
420
        0
370
    25
100
AcDbLine
 10
61.00146216891918
 20
42.58426977894402
 30
0.0
 11
61.00146216891918
 21
42.30926980954383
 31
0.0
  0
LINE
  5
98
330
70
100
AcDbEntity
  8
0
 62
    18
420
        0
370
    25
100
AcDbLine
 10
60.951462253819
 20
42.25926977804395
 30
0.0
 11
48.55146189771923
 21
42.25926977804395
 31
0.0
  0
LINE
  5
99
330
70
100
AcDbEntity
  8
0
 62
    18
420
        0
370
    25
100
AcDbLine
 10
48.55146189771923
 20
42.25926977804395
 30
0.0
 11
48.55146189771923
 21
42.30926980954383
 31
0.0
  0
LINE
  5
9A
330
70
100
AcDbEntity
  8
0
 62
    18
420
        0
370
    25
100
AcDbLine
 10
48.50146198261906
 20
42.30926980954383
 30
0.0
 11
48.50146198261906
 21
42.58426977894402
 31
0.0
  0
LINE
  5
9B
330
70
100
AcDbEntity
  8
0
 62
    18
420
        0
370
    25
100
AcDbLine
 10
48.50146198261906
 20
42.30926980954383
 30
0.0
 11
48.55146189771923
 21
42.30926980954383
 31
0.0
  0
SPLINE
  5
9C
330
70
100
AcDbEntity
  8
0
 62
    18
420
        0
370
    25
100
AcDbSpline
210
0.0
220
0.0
230
1.0
 70
     8
 71
     3
 72
     8
 73
     4
 74
     0
 42
0.0000000001
 43
0.0000000001
 40
0.0
 40
0.0
 40
0.0
 40
0.0
 40
1.0
 40
1.0
 40
1.0
 40
1.0
 10
48.50146207581911
 20
42.30926978454323
 30
0.0
 10
48.50146207581911
 20
42.28165554705249
 30
0.0
 10
48.52384783832757
 20
42.25926978454372
 30
0.0
 10
48.55146207581896
 20
42.25926978454372
 30
0.0
  0
LINE
  5
9D
330
70
100
AcDbEntity
  8
0
 62
    18
420
        0
370
    25
100
AcDbLine
 10
29.23903125891924
 20
42.63426978124403
 30
0.0
 11
29.23903125891924
 21
43.00926978454358
 31
0.0
  0
LINE
  5
9E
330
70
100
AcDbEntity
  8
0
 62
    18
420
        0
370
    25
100
AcDbLine
 10
29.23903125891924
 20
42.63426978124403
 30
0.0
 11
29.42593466111924
 21
42.63426978124403
 31
0.0
  0
LINE
  5
9F
330
70
100
AcDbEntity
  8
0
 62
    18
420
        0
370
    25
100
AcDbLine
 10
80.26389289271911
 20
42.63426978124403
 30
0.0
 11
80.26389289271911
 21
43.00926978454358
 31
0.0
  0
LINE
  5
A0
330
70
100
AcDbEntity
  8
0
 62
    18
420
        0
370
    25
100
AcDbLine
 10
80.26389289271911
 20
42.63426978124403
 30
0.0
 11
80.07698949041932
 21
42.63426978124403
 31
0.0
  0
LINE
  5
A1
330
70
100
AcDbEntity
  8
0
 62
    18
420
        0
370
    25
100
AcDbLine
 10
29.05146289231901
 20
42.63426978124403
 30
0.0
 11
29.05146289231901
 21
43.00926978454358
 31
0.0
  0
LINE
  5
A2
330
70
100
AcDbEntity
  8
0
 62
    18
420
        0
370
    25
100
AcDbLine
 10
29.05146289231901
 20
43.00926978454358
 30
0.0
 11
29.12646229931908
 21
43.00926978454358
 31
0.0
  0
LINE
  5
A3
330
70
100
AcDbEntity
  8
0
 62
    18
420
        0
370
    25
100
AcDbLine
 10
29.05146289231901
 20
42.63426978124403
 30
0.0
 11
29.23903125891924
 21
42.63426978124403
 31
0.0
  0
LINE
  5
A4
330
70
100
AcDbEntity
  8
0
 62
    18
420
        0
370
    25
100
AcDbLine
 10
80.4514612592189
 20
43.00926978454358
 30
0.0
 11
80.4514612592189
 21
42.63426978124403
 31
0.0
  0
LINE
  5
A5
330
70
100
AcDbEntity
  8
0
 62
    18
420
        0
370
    25
100
AcDbLine
 10
80.4514612592189
 20
43.00926978454358
 30
0.0
 11
80.37646185221916
 21
43.00926978454358
 31
0.0
  0
LINE
  5
A6
330
70
100
AcDbEntity
  8
0
 62
    18
420
        0
370
    25
100
AcDbLine
 10
80.4514612592189
 20
42.63426978124403
 30
0.0
 11
80.26389289271911
 21
42.63426978124403
 31
0.0
  0
SPLINE
  5
A7
330
70
100
AcDbEntity
  8
0
 62
    18
420
        0
370
    25
100
AcDbSpline
210
0.0
220
0.0
230
1.0
 70
     8
 71
     3
 72
     8
 73
     4
 74
     0
 42
0.0000000001
 43
0.0000000001
 40
0.0
 40
0.0
 40
0.0
 40
0.0
 40
1.0
 40
1.0
 40
1.0
 40
1.0
 10
79.62646207581869
 20
42.63426978454365
 30
0.0
 10
79.59884783832794
 20
42.63426978454365
 30
0.0
 10
79.57646207581916
 20
42.61188402203552
 30
0.0
 10
79.57646207581916
 20
42.58426978454349
 30
0.0
  0
LINE
  5
A8
330
70
100
AcDbEntity
  8
0
 62
    18
420
        0
370
    25
100
AcDbLine
 10
79.52646236481908
 20
42.58426977894402
 30
0.0
 11
79.5764613486195
 21
42.58426977894402
 31
0.0
  0
LINE
  5
A9
330
70
100
AcDbEntity
  8
0
 62
    18
420
        0
370
    25
100
AcDbLine
 10
79.52646236481908
 20
42.63426978124403
 30
0.0
 11
79.52646236481908
 21
42.58426977894402
 31
0.0
  0
LINE
  5
AA
330
70
100
AcDbEntity
  8
0
 62
    18
420
        0
370
    25
100
AcDbLine
 10
78.37646152441933
 20
42.63426978124403
 30
0.0
 11
78.37646152441933
 21
42.58426977894402
 31
0.0
  0
LINE
  5
AB
330
70
100
AcDbEntity
  8
0
 62
    18
420
        0
370
    25
100
AcDbLine
 10
78.326462540719
 20
42.58426977894402
 30
0.0
 11
78.37646152441933
 21
42.58426977894402
 31
0.0
  0
SPLINE
  5
AC
330
70
100
AcDbEntity
  8
0
 62
    18
420
        0
370
    25
100
AcDbSpline
210
0.0
220
0.0
230
1.0
 70
     8
 71
     3
 72
     8
 73
     4
 74
     0
 42
0.0000000001
 43
0.0000000001
 40
0.0
 40
0.0
 40
0.0
 40
0.0
 40
1.0
 40
1.0
 40
1.0
 40
1.0
 10
78.32646207581897
 20
42.58426978454349
 30
0.0
 10
78.32646207581897
 20
42.61188402203552
 30
0.0
 10
78.30407631331019
 20
42.63426978454365
 30
0.0
 10
78.27646207581944
 20
42.63426978454365
 30
0.0
  0
SPLINE
  5
AD
330
70
100
AcDbEntity
  8
0
 62
    18
420
        0
370
    25
100
AcDbSpline
210
0.0
220
0.0
230
1.0
 70
     8
 71
     3
 72
     8
 73
     4
 74
     0
 42
0.0000000001
 43
0.0000000001
 40
0.0
 40
0.0
 40
0.0
 40
0.0
 40
1.0
 40
1.0
 40
1.0
 40
1.0
 10
31.22646207581923
 20
42.63426978454365
 30
0.0
 10
31.19884783832752
 20
42.63426978454365
 30
0.0
 10
31.17646207581906
 20
42.61188402203552
 30
0.0
 10
31.17646207581906
 20
42.58426978454349
 30
0.0
  0
LINE
  5
AE
330
70
100
AcDbEntity
  8
0
 62
    18
420
        0
370
    25
100
AcDbLine
 10
31.12646262711923
 20
42.58426977894402
 30
0.0
 11
31.17646161081923
 21
42.58426977894402
 31
0.0
  0
LINE
  5
AF
330
70
100
AcDbEntity
  8
0
 62
    18
420
        0
370
    25
100
AcDbLine
 10
31.12646262711923
 20
42.63426978124403
 30
0.0
 11
31.12646262711923
 21
42.58426977894402
 31
0.0
  0
LINE
  5
B0
330
70
100
AcDbEntity
  8
0
 62
    18
420
        0
370
    25
100
AcDbLine
 10
29.97646178671917
 20
42.63426978124403
 30
0.0
 11
29.97646178671917
 21
42.58426977894402
 31
0.0
  0
LINE
  5
B1
330
70
100
AcDbEntity
  8
0
 62
    18
420
        0
370
    25
100
AcDbLine
 10
29.92646280291906
 20
42.58426977894402
 30
0.0
 11
29.97646178671917
 21
42.58426977894402
 31
0.0
  0
SPLINE
  5
B2
330
70
100
AcDbEntity
  8
0
 62
    18
420
        0
370
    25
100
AcDbSpline
210
0.0
220
0.0
230
1.0
 70
     8
 71
     3
 72
     8
 73
     4
 74
     0
 42
0.0000000001
 43
0.0000000001
 40
0.0
 40
0.0
 40
0.0
 40
0.0
 40
1.0
 40
1.0
 40
1.0
 40
1.0
 10
29.92646207581918
 20
42.58426978454349
 30
0.0
 10
29.92646207581918
 20
42.61188402203552
 30
0.0
 10
29.90407631331073
 20
42.63426978454365
 30
0.0
 10
29.87646207581902
 20
42.63426978454365
 30
0.0
  0
LINE
  5
B3
330
70
100
AcDbEntity
  8
0
 62
    18
420
        0
370
    25
100
AcDbLine
 10
31.12646262711923
 20
42.58426977894402
 30
0.0
 11
29.97646178671917
 21
42.58426977894402
 31
0.0
  0
LINE
  5
B4
330
70
100
AcDbEntity
  8
0
 62
    18
420
        0
370
    25
100
AcDbLine
 10
79.52646236481908
 20
42.58426977894402
 30
0.0
 11
78.37646152441933
 21
42.58426977894402
 31
0.0
  0
LINE
  5
B5
330
70
100
AcDbEntity
  8
0
 62
    18
420
        0
370
    25
100
AcDbLine
 10
78.37646152441933
 20
42.30926980954383
 30
0.0
 11
79.52646236481908
 21
42.30926980954383
 31
0.0
  0
LINE
  5
B6
330
70
100
AcDbEntity
  8
0
 62
    18
420
        0
370
    25
100
AcDbLine
 10
78.37646152441933
 20
42.58426977894402
 30
0.0
 11
78.37646152441933
 21
42.30926980954383
 31
0.0
  0
LINE
  5
B7
330
70
100
AcDbEntity
  8
0
 62
    18
420
        0
370
    25
100
AcDbLine
 10
79.52646236481908
 20
42.30926980954383
 30
0.0
 11
79.52646236481908
 21
42.58426977894402
 31
0.0
  0
LINE
  5
B8
330
70
100
AcDbEntity
  8
0
 62
    18
420
        0
370
    25
100
AcDbLine
 10
79.52646236481908
 20
42.30926980954383
 30
0.0
 11
79.52646236481908
 21
42.25926977804395
 31
0.0
  0
LINE
  5
B9
330
70
100
AcDbEntity
  8
0
 62
    18
420
        0
370
    25
100
AcDbLine
 10
79.52646236481908
 20
42.25926977804395
 30
0.0
 11
78.37646152441933
 21
42.25926977804395
 31
0.0
  0
LINE
  5
BA
330
70
100
AcDbEntity
  8
0
 62
    18
420
        0
370
    25
100
AcDbLine
 10
78.37646152441933
 20
42.30926980954383
 30
0.0
 11
78.37646152441933
 21
42.25926977804395
 31
0.0
  0
SPLINE
  5
BB
330
70
100
AcDbEntity
  8
0
 62
    18
420
        0
370
    25
100
AcDbSpline
210
0.0
220
0.0
230
1.0
 70
     8
 71
     3
 72
     8
 73
     4
 74
     0
 42
0.0000000001
 43
0.0000000001
 40
0.0
 40
0.0
 40
0.0
 40
0.0
 40
1.0
 40
1.0
 40
1.0
 40
1.0
 10
78.32646207581897
 20
42.30926978454323
 30
0.0
 10
78.32646207581897
 20
42.28165554705249
 30
0.0
 10
78.34884783832774
 20
42.25926978454372
 30
0.0
 10
78.37646207581911
 20
42.25926978454372
 30
0.0
  0
LINE
  5
BC
330
70
100
AcDbEntity
  8
0
 62
    18
420
        0
370
    25
100
AcDbLine
 10
78.326462540719
 20
42.30926980954383
 30
0.0
 11
78.37646152441933
 21
42.30926980954383
 31
0.0
  0
LINE
  5
BD
330
70
100
AcDbEntity
  8
0
 62
    18
420
        0
370
    25
100
AcDbLine
 10
29.97646178671917
 20
42.30926980954383
 30
0.0
 11
31.12646262711923
 21
42.30926980954383
 31
0.0
  0
LINE
  5
BE
330
70
100
AcDbEntity
  8
0
 62
    18
420
        0
370
    25
100
AcDbLine
 10
29.97646178671917
 20
42.58426977894402
 30
0.0
 11
29.97646178671917
 21
42.30926980954383
 31
0.0
  0
LINE
  5
BF
330
70
100
AcDbEntity
  8
0
 62
    18
420
        0
370
    25
100
AcDbLine
 10
31.12646262711923
 20
42.30926980954383
 30
0.0
 11
31.12646262711923
 21
42.58426977894402
 31
0.0
  0
LINE
  5
C0
330
70
100
AcDbEntity
  8
0
 62
    18
420
        0
370
    25
100
AcDbLine
 10
31.17646161081923
 20
42.58426977894402
 30
0.0
 11
31.17646161081923
 21
42.30926980954383
 31
0.0
  0
LINE
  5
C1
330
70
100
AcDbEntity
  8
0
 62
    18
420
        0
370
    25
100
AcDbLine
 10
31.12646262711923
 20
42.30926980954383
 30
0.0
 11
31.17646161081923
 21
42.30926980954383
 31
0.0
  0
LINE
  5
C2
330
70
100
AcDbEntity
  8
0
 62
    18
420
        0
370
    25
100
AcDbLine
 10
78.326462540719
 20
42.30926980954383
 30
0.0
 11
78.326462540719
 21
42.58426977894402
 31
0.0
  0
LINE
  5
C3
330
70
100
AcDbEntity
  8
0
 62
    18
420
        0
370
    25
100
AcDbLine
 10
79.52646236481908
 20
42.30926980954383
 30
0.0
 11
79.5764613486195
 21
42.30926980954383
 31
0.0
  0
SPLINE
  5
C4
330
70
100
AcDbEntity
  8
0
 62
    18
420
        0
370
    25
100
AcDbSpline
210
0.0
220
0.0
230
1.0
 70
     8
 71
     3
 72
     8
 73
     4
 74
     0
 42
0.0000000001
 43
0.0000000001
 40
0.0
 40
0.0
 40
0.0
 40
0.0
 40
1.0
 40
1.0
 40
1.0
 40
1.0
 10
79.52646207581901
 20
42.25926978454372
 30
0.0
 10
79.55407631331039
 20
42.25926978454372
 30
0.0
 10
79.57646207581916
 20
42.28165554705249
 30
0.0
 10
79.57646207581916
 20
42.30926978454323
 30
0.0
  0
LINE
  5
C5
330
70
100
AcDbEntity
  8
0
 62
    18
420
        0
370
    25
100
AcDbLine
 10
29.92646280291906
 20
42.30926980954383
 30
0.0
 11
29.92646280291906
 21
42.58426977894402
 31
0.0
  0
LINE
  5
C6
330
70
100
AcDbEntity
  8
0
 62
    18
420
        0
370
    25
100
AcDbLine
 10
29.92646280291906
 20
42.30926980954383
 30
0.0
 11
29.97646178671917
 21
42.30926980954383
 31
0.0
  0
LINE
  5
C7
330
70
100
AcDbEntity
  8
0
 62
    18
420
        0
370
    25
100
AcDbLine
 10
29.97646178671917
 20
42.30926980954383
 30
0.0
 11
29.97646178671917
 21
42.25926977804395
 31
0.0
  0
SPLINE
  5
C8
330
70
100
AcDbEntity
  8
0
 62
    18
420
        0
370
    25
100
AcDbSpline
210
0.0
220
0.0
230
1.0
 70
     8
 71
     3
 72
     8
 73
     4
 74
     0
 42
0.0000000001
 43
0.0000000001
 40
0.0
 40
0.0
 40
0.0
 40
0.0
 40
1.0
 40
1.0
 40
1.0
 40
1.0
 10
29.92646207581918
 20
42.30926978454323
 30
0.0
 10
29.92646207581918
 20
42.28165554705249
 30
0.0
 10
29.94884783832763
 20
42.25926978454372
 30
0.0
 10
29.97646207581902
 20
42.25926978454372
 30
0.0
  0
LINE
  5
C9
330
70
100
AcDbEntity
  8
0
 62
    18
420
        0
370
    25
100
AcDbLine
 10
31.12646262711923
 20
42.30926980954383
 30
0.0
 11
31.12646262711923
 21
42.25926977804395
 31
0.0
  0
LINE
  5
CA
330
70
100
AcDbEntity
  8
0
 62
    18
420
        0
370
    25
100
AcDbLine
 10
31.12646262711923
 20
42.25926977804395
 30
0.0
 11
29.97646178671917
 21
42.25926977804395
 31
0.0
  0
SPLINE
  5
CB
330
70
100
AcDbEntity
  8
0
 62
    18
420
        0
370
    25
100
AcDbSpline
210
0.0
220
0.0
230
1.0
 70
     8
 71
     3
 72
     8
 73
     4
 74
     0
 42
0.0000000001
 43
0.0000000001
 40
0.0
 40
0.0
 40
0.0
 40
0.0
 40
1.0
 40
1.0
 40
1.0
 40
1.0
 10
31.12646207581923
 20
42.25926978454372
 30
0.0
 10
31.15407631331061
 20
42.25926978454372
 30
0.0
 10
31.17646207581906
 20
42.28165554705249
 30
0.0
 10
31.17646207581906
 20
42.30926978454323
 30
0.0
  0
LINE
  5
CC
330
70
100
AcDbEntity
  8
0
 62
    18
420
        0
370
    25
100
AcDbLine
 10
79.5764613486195
 20
42.58426977894402
 30
0.0
 11
79.5764613486195
 21
42.30926980954383
 31
0.0
  0
LINE
  5
CD
330
70
100
AcDbEntity
  8
0
 62
    18
420
        0
370
    25
100
AcDbLine
 10
44.12646196401902
 20
116.2592729435437
 30
0.0
 11
44.12646196401902
 21
43.00926978454358
 31
0.0
  0
LINE
  5
CE
330
70
100
AcDbEntity
  8
0
 62
    18
420
        0
370
    25
100
AcDbLine
 10
44.12646196401902
 20
116.2592729435437
 30
0.0
 11
65.37646218751922
 21
116.2592729435437
 31
0.0
  0
LINE
  5
CF
330
70
100
AcDbEntity
  8
0
 62
    18
420
        0
370
    25
100
AcDbLine
 10
65.37646218751922
 20
116.2592729435437
 30
0.0
 11
65.37646218751922
 21
43.00926978454358
 31
0.0
  0
LINE
  5
D0
330
70
100
AcDbEntity
  8
0
 62
    18
420
        0
370
    25
100
AcDbLine
 10
65.37646218751922
 20
116.2592729435437
 30
0.0
 11
80.37646185221916
 21
116.2592729435437
 31
0.0
  0
LINE
  5
D1
330
70
100
AcDbEntity
  8
0
 62
    18
420
        0
370
    25
100
AcDbLine
 10
80.37646185221916
 20
116.2592729435437
 30
0.0
 11
80.37646185221916
 21
43.00926978454358
 31
0.0
  0
LINE
  5
D2
330
70
100
AcDbEntity
  8
0
 62
    18
420
        0
370
    25
100
AcDbLine
 10
65.72113908451915
 20
43.00926978454358
 30
0.0
 11
80.37250186871922
 21
43.00926978454358
 31
0.0
  0
LINE
  5
D3
330
70
100
AcDbEntity
  8
0
 62
    18
420
        0
370
    25
100
AcDbLine
 10
29.12646229931908
 20
116.2592729435437
 30
0.0
 11
29.12646229931908
 21
43.00926978454358
 31
0.0
  0
LINE
  5
D4
330
70
100
AcDbEntity
  8
0
 62
    18
420
        0
370
    25
100
AcDbLine
 10
29.13042228291912
 20
43.00926978454358
 30
0.0
 11
43.78178506711918
 21
43.00926978454358
 31
0.0
  0
LINE
  5
D5
330
70
100
AcDbEntity
  8
0
 62
    18
420
        0
370
    25
100
AcDbLine
 10
29.12646229931908
 20
116.2592729435437
 30
0.0
 11
44.12646196401902
 21
116.2592729435437
 31
0.0
  0
LINE
  5
D6
330
70
100
AcDbEntity
  8
0
 62
    18
420
        0
370
    25
100
AcDbLine
 10
29.25255778801922
 20
117.6342701421436
 30
0.0
 11
44.12646196401902
 21
117.6342701421436
 31
0.0
  0
LINE
  5
D7
330
70
100
AcDbEntity
  8
0
 62
    18
420
        0
370
    25
100
AcDbLine
 10
44.12646196401902
 20
117.6342701421436
 30
0.0
 11
44.12646196401902
 21
117.5081765161434
 31
0.0
  0
LINE
  5
D8
330
70
100
AcDbEntity
  8
0
 62
    18
420
        0
370
    25
100
AcDbLine
 10
44.12646196401902
 20
117.5081765161434
 30
0.0
 11
29.12756312261918
 21
117.5081765161434
 31
0.0
  0
SPLINE
  5
D9
330
70
100
AcDbEntity
  8
0
 62
    18
420
        0
370
    25
100
AcDbSpline
210
0.0
220
0.0
230
1.0
 70
     8
 71
     3
 72
    11
 73
     7
 74
     0
 42
0.0000000001
 43
0.0000000001
 40
0.0
 40
0.0
 40
0.0
 40
0.0
 40
1.0
 40
1.0
 40
1.0
 40
2.0
 40
2.0
 40
2.0
 40
2.0
 10
29.25255769401897
 20
117.6342697845437
 30
0.0
 10
29.18352210029018
 20
117.6342697845437
 30
0.0
 10
29.1275576940192
 20
117.5783053782724
 30
0.0
 10
29.1275576940192
 20
117.5092697845436
 30
0.0
 10
29.1275576940192
 20
117.508906173706
 30
0.0
 10
29.12755928057324
 20
117.5085425645987
 30
0.0
 10
29.12756245363606
 20
117.5081789676064
 30
0.0
  0
LINE
  5
DA
330
70
100
AcDbEntity
  8
0
 62
    18
420
        0
370
    25
100
AcDbLine
 10
65.37646218751922
 20
117.6342701421436
 30
0.0
 11
80.25036636361914
 21
117.6342701421436
 31
0.0
  0
SPLINE
  5
DB
330
70
100
AcDbEntity
  8
0
 62
    18
420
        0
370
    25
100
AcDbSpline
210
0.0
220
0.0
230
1.0
 70
     8
 71
     3
 72
    11
 73
     7
 74
     0
 42
0.0000000001
 43
0.0000000001
 40
0.0
 40
0.0
 40
0.0
 40
0.0
 40
1.0
 40
1.0
 40
1.0
 40
2.0
 40
2.0
 40
2.0
 40
2.0
 10
80.37536169790218
 20
117.5081789676064
 30
0.0
 10
80.37596413946152
 20
117.5772119326712
 30
0.0
 10
80.32049023952103
 20
117.6336625833672
 30
0.0
 10
80.25145727445652
 20
117.6342650249265
 30
0.0
 10
80.2510936774642
 20
117.6342681979897
 30
0.0
 10
80.25073006835723
 20
117.6342697845437
 30
0.0
 10
80.25036645751894
 20
117.6342697845437
 30
0.0
  0
LINE
  5
DC
330
70
100
AcDbEntity
  8
0
 62
    18
420
        0
370
    25
100
AcDbLine
 10
80.37536102901949
 20
117.5081765161434
 30
0.0
 11
65.37646218751922
 21
117.5081765161434
 31
0.0
  0
LINE
  5
DD
330
70
100
AcDbEntity
  8
0
 62
    18
420
        0
370
    25
100
AcDbLine
 10
65.37646218751922
 20
117.6342701421436
 30
0.0
 11
65.37646218751922
 21
117.5081765161434
 31
0.0
  0
LINE
  5
DE
330
70
100
AcDbEntity
  8
0
 62
    18
420
        0
370
    25
100
AcDbLine
 10
44.12646196401902
 20
117.6342701421436
 30
0.0
 11
65.37646218751922
 21
117.6342701421436
 31
0.0
  0
LINE
  5
DF
330
70
100
AcDbEntity
  8
0
 62
    18
420
        0
370
    25
100
AcDbLine
 10
65.37646218751922
 20
117.5081765161434
 30
0.0
 11
44.12646196401902
 21
117.5081765161434
 31
0.0
  0
LINE
  5
E0
330
70
100
AcDbEntity
  8
0
 62
    18
420
        0
370
    25
100
AcDbLine
 10
44.12646196401902
 20
116.6342681156436
 30
0.0
 11
29.13518879181911
 21
116.6342681156436
 31
0.0
  0
LINE
  5
E1
330
70
100
AcDbEntity
  8
0
 62
    18
420
        0
370
    25
100
AcDbLine
 10
29.13518879181911
 20
116.6342681156436
 30
0.0
 11
29.12756312261918
 21
117.5081765161434
 31
0.0
  0
LINE
  5
E2
330
70
100
AcDbEntity
  8
0
 62
    18
420
        0
370
    25
100
AcDbLine
 10
44.12646196401902
 20
117.5081765161434
 30
0.0
 11
44.12646196401902
 21
116.6342681156436
 31
0.0
  0
LINE
  5
E3
330
70
100
AcDbEntity
  8
0
 62
    18
420
        0
370
    25
100
AcDbLine
 10
44.12646196401902
 20
116.6342681156436
 30
0.0
 11
65.37646218751922
 21
116.6342681156436
 31
0.0
  0
LINE
  5
E4
330
70
100
AcDbEntity
  8
0
 62
    18
420
        0
370
    25
100
AcDbLine
 10
65.37646218751922
 20
116.6342681156436
 30
0.0
 11
65.37646218751922
 21
117.5081765161434
 31
0.0
  0
LINE
  5
E5
330
70
100
AcDbEntity
  8
0
 62
    18
420
        0
370
    25
100
AcDbLine
 10
80.36773535971946
 20
116.6342681156436
 30
0.0
 11
65.37646218751922
 21
116.6342681156436
 31
0.0
  0
LINE
  5
E6
330
70
100
AcDbEntity
  8
0
 62
    18
420
        0
370
    25
100
AcDbLine
 10
80.37536102901949
 20
117.5081765161434
 30
0.0
 11
80.36773535971946
 21
116.6342681156436
 31
0.0
  0
LINE
  5
E7
330
70
100
AcDbEntity
  8
0
 62
    18
420
        0
370
    25
100
AcDbLine
 10
30.01228045291917
 20
116.2592729435437
 30
0.0
 11
30.00900778541911
 21
116.6342681156436
 31
0.0
  0
LINE
  5
E8
330
70
100
AcDbEntity
  8
0
 62
    18
420
        0
370
    25
100
AcDbLine
 10
79.49064369861908
 20
116.2592729435437
 30
0.0
 11
79.49391636621955
 21
116.6342681156436
 31
0.0
  0
LINE
  5
E9
330
70
100
AcDbEntity
  8
0
 62
     8
420
  8421504
370
    25
100
AcDbLine
 10
44.12646196401902
 20
116.2592729435437
 30
0.0
 11
44.12646196401902
 21
116.6342681156436
 31
0.0
  0
LINE
  5
EA
330
70
100
AcDbEntity
  8
0
 62
     8
420
  8421504
370
    25
100
AcDbLine
 10
65.37646218751922
 20
116.2592729435437
 30
0.0
 11
65.37646218751922
 21
116.6342681156436
 31
0.0
  0
LINE
  5
EB
330
70
100
AcDbEntity
  8
0
 62
    18
420
        0
370
    25
100
AcDbLine
 10
141.5294116670189
 20
43.00926978454358
 30
0.0
 11
141.5294116670189
 21
42.63426978124403
 31
0.0
  0
LINE
  5
EC
330
70
100
AcDbEntity
  8
0
 62
    18
420
        0
370
    25
100
AcDbLine
 10
162.9294125671193
 20
42.63426978124403
 30
0.0
 11
162.9294125671193
 21
43.00926978454358
 31
0.0
  0
LINE
  5
ED
330
70
100
AcDbEntity
  8
0
 62
    18
420
        0
370
    25
100
AcDbLine
 10
141.5294116670189
 20
43.00926978454358
 30
0.0
 11
162.9294125671193
 21
43.00926978454358
 31
0.0
  0
LINE
  5
EE
330
70
100
AcDbEntity
  8
0
 62
    18
420
        0
370
    25
100
AcDbLine
 10
141.5294116670189
 20
42.63426978124403
 30
0.0
 11
162.9294125671193
 21
42.63426978124403
 31
0.0
  0
LINE
  5
EF
330
70
100
AcDbEntity
  8
0
 62
    18
420
        0
370
    25
100
AcDbLine
 10
141.139045015919
 20
42.63426978124403
 30
0.0
 11
141.139045015919
 21
43.00926978454358
 31
0.0
  0
LINE
  5
F0
330
70
100
AcDbEntity
  8
0
 62
    18
420
        0
370
    25
100
AcDbLine
 10
141.5294116670189
 20
43.00926978454358
 30
0.0
 11
141.2597351084192
 21
43.00926978454358
 31
0.0
  0
LINE
  5
F1
330
70
100
AcDbEntity
  8
0
 62
    18
420
        0
370
    25
100
AcDbLine
 10
141.5294116670189
 20
42.63426978124403
 30
0.0
 11
141.139045015919
 21
42.63426978124403
 31
0.0
  0
LINE
  5
F2
330
70
100
AcDbEntity
  8
0
 62
    18
420
        0
370
    25
100
AcDbLine
 10
163.3197792182192
 20
42.63426978124403
 30
0.0
 11
163.3197792182192
 21
43.00926978454358
 31
0.0
  0
LINE
  5
F3
330
70
100
AcDbEntity
  8
0
 62
    18
420
        0
370
    25
100
AcDbLine
 10
162.9294125671193
 20
43.00926978454358
 30
0.0
 11
163.199089125719
 21
43.00926978454358
 31
0.0
  0
LINE
  5
F4
330
70
100
AcDbEntity
  8
0
 62
    18
420
        0
370
    25
100
AcDbLine
 10
162.9294125671193
 20
42.63426978124403
 30
0.0
 11
163.3197792182192
 21
42.63426978124403
 31
0.0
  0
LINE
  5
F5
330
70
100
AcDbEntity
  8
0
 62
    18
420
        0
370
    25
100
AcDbLine
 10
140.7744527170193
 20
42.63426978124403
 30
0.0
 11
140.7744527170193
 21
43.00926978454358
 31
0.0
  0
LINE
  5
F6
330
70
100
AcDbEntity
  8
0
 62
    18
420
        0
370
    25
100
AcDbLine
 10
141.139045015919
 20
42.63426978124403
 30
0.0
 11
140.7744527170193
 21
42.63426978124403
 31
0.0
  0
LINE
  5
F7
330
70
100
AcDbEntity
  8
0
 62
    18
420
        0
370
    25
100
AcDbLine
 10
163.6843715170188
 20
42.63426978124403
 30
0.0
 11
163.6843715170188
 21
43.00926978454358
 31
0.0
  0
LINE
  5
F8
330
70
100
AcDbEntity
  8
0
 62
    18
420
        0
370
    25
100
AcDbLine
 10
163.3197792182192
 20
42.63426978124403
 30
0.0
 11
163.6843715170188
 21
42.63426978124403
 31
0.0
  0
LINE
  5
F9
330
70
100
AcDbEntity
  8
0
 62
    18
420
        0
370
    25
100
AcDbLine
 10
126.9038847024189
 20
42.63426978124403
 30
0.0
 11
126.9038847024189
 21
43.00926978454358
 31
0.0
  0
LINE
  5
FA
330
70
100
AcDbEntity
  8
0
 62
    18
420
        0
370
    25
100
AcDbLine
 10
140.7744527170193
 20
42.63426978124403
 30
0.0
 11
126.9038847024189
 21
42.63426978124403
 31
0.0
  0
LINE
  5
FB
330
70
100
AcDbEntity
  8
0
 62
    18
420
        0
370
    25
100
AcDbLine
 10
177.5549395317193
 20
42.63426978124403
 30
0.0
 11
177.5549395317193
 21
43.00926978454358
 31
0.0
  0
LINE
  5
FC
330
70
100
AcDbEntity
  8
0
 62
    18
420
        0
370
    25
100
AcDbLine
 10
163.6843715170188
 20
42.63426978124403
 30
0.0
 11
177.5549395317193
 21
42.63426978124403
 31
0.0
  0
LINE
  5
FD
330
70
100
AcDbEntity
  8
0
 62
    18
420
        0
370
    25
100
AcDbLine
 10
145.9794120239187
 20
42.58426977894402
 30
0.0
 11
146.0294119390189
 21
42.58426977894402
 31
0.0
  0
SPLINE
  5
FE
330
70
100
AcDbEntity
  8
0
 62
    18
420
        0
370
    25
100
AcDbSpline
210
0.0
220
0.0
230
1.0
 70
     8
 71
     3
 72
     8
 73
     4
 74
     0
 42
0.0000000001
 43
0.0000000001
 40
0.0
 40
0.0
 40
0.0
 40
0.0
 40
1.0
 40
1.0
 40
1.0
 40
1.0
 10
145.979412117019
 20
42.58426978454349
 30
0.0
 10
145.979412117019
 20
42.61188402203552
 30
0.0
 10
145.9570263545109
 20
42.63426978454365
 30
0.0
 10
145.9294121170188
 20
42.63426978454365
 30
0.0
  0
LINE
  5
FF
330
70
100
AcDbEntity
  8
0
 62
    18
420
        0
370
    25
100
AcDbLine
 10
146.0294119390189
 20
42.58426977894402
 30
0.0
 11
146.0294119390189
 21
42.63426978124403
 31
0.0
  0
LINE
  5
100
330
70
100
AcDbEntity
  8
0
 62
    18
420
        0
370
    25
100
AcDbLine
 10
158.4294122951193
 20
42.58426977894402
 30
0.0
 11
146.0294119390189
 21
42.58426977894402
 31
0.0
  0
LINE
  5
101
330
70
100
AcDbEntity
  8
0
 62
    18
420
        0
370
    25
100
AcDbLine
 10
158.4294122951193
 20
42.63426978124403
 30
0.0
 11
158.4294122951193
 21
42.58426977894402
 31
0.0
  0
SPLINE
  5
102
330
70
100
AcDbEntity
  8
0
 62
    18
420
        0
370
    25
100
AcDbSpline
210
0.0
220
0.0
230
1.0
 70
     8
 71
     3
 72
     8
 73
     4
 74
     0
 42
0.0000000001
 43
0.0000000001
 40
0.0
 40
0.0
 40
0.0
 40
0.0
 40
1.0
 40
1.0
 40
1.0
 40
1.0
 10
158.5294121170193
 20
42.63426978454365
 30
0.0
 10
158.5017978795273
 20
42.63426978454365
 30
0.0
 10
158.4794121170191
 20
42.61188402203552
 30
0.0
 10
158.4794121170191
 20
42.58426978454349
 30
0.0
  0
LINE
  5
103
330
70
100
AcDbEntity
  8
0
 62
    18
420
        0
370
    25
100
AcDbLine
 10
158.4294122951193
 20
42.58426977894402
 30
0.0
 11
158.4794122102188
 21
42.58426977894402
 31
0.0
  0
LINE
  5
104
330
70
100
AcDbEntity
  8
0
 62
    18
420
        0
370
    25
100
AcDbLine
 10
146.0294119390189
 20
42.30926980954383
 30
0.0
 11
158.4294122951193
 21
42.30926980954383
 31
0.0
  0
LINE
  5
105
330
70
100
AcDbEntity
  8
0
 62
    18
420
        0
370
    25
100
AcDbLine
 10
158.4294122951193
 20
42.30926980954383
 30
0.0
 11
158.4294122951193
 21
42.25926977804395
 31
0.0
  0
LINE
  5
106
330
70
100
AcDbEntity
  8
0
 62
    18
420
        0
370
    25
100
AcDbLine
 10
158.4294122951193
 20
42.25926977804395
 30
0.0
 11
146.0294119390189
 21
42.25926977804395
 31
0.0
  0
LINE
  5
107
330
70
100
AcDbEntity
  8
0
 62
    18
420
        0
370
    25
100
AcDbLine
 10
146.0294119390189
 20
42.25926977804395
 30
0.0
 11
146.0294119390189
 21
42.30926980954383
 31
0.0
  0
LINE
  5
108
330
70
100
AcDbEntity
  8
0
 62
    18
420
        0
370
    25
100
AcDbLine
 10
145.9794120239187
 20
42.30926980954383
 30
0.0
 11
145.9794120239187
 21
42.58426977894402
 31
0.0
  0
LINE
  5
109
330
70
100
AcDbEntity
  8
0
 62
    18
420
        0
370
    25
100
AcDbLine
 10
146.0294119390189
 20
42.58426977894402
 30
0.0
 11
146.0294119390189
 21
42.30926980954383
 31
0.0
  0
LINE
  5
10A
330
70
100
AcDbEntity
  8
0
 62
    18
420
        0
370
    25
100
AcDbLine
 10
145.9794120239187
 20
42.30926980954383
 30
0.0
 11
146.0294119390189
 21
42.30926980954383
 31
0.0
  0
SPLINE
  5
10B
330
70
100
AcDbEntity
  8
0
 62
    18
420
        0
370
    25
100
AcDbSpline
210
0.0
220
0.0
230
1.0
 70
     8
 71
     3
 72
     8
 73
     4
 74
     0
 42
0.0000000001
 43
0.0000000001
 40
0.0
 40
0.0
 40
0.0
 40
0.0
 40
1.0
 40
1.0
 40
1.0
 40
1.0
 10
145.979412117019
 20
42.30926978454323
 30
0.0
 10
145.979412117019
 20
42.28165554705249
 30
0.0
 10
146.0017978795278
 20
42.25926978454372
 30
0.0
 10
146.0294121170192
 20
42.25926978454372
 30
0.0
  0
LINE
  5
10C
330
70
100
AcDbEntity
  8
0
 62
    18
420
        0
370
    25
100
AcDbLine
 10
158.4294122951193
 20
42.30926980954383
 30
0.0
 11
158.4294122951193
 21
42.58426977894402
 31
0.0
  0
SPLINE
  5
10D
330
70
100
AcDbEntity
  8
0
 62
    18
420
        0
370
    25
100
AcDbSpline
210
0.0
220
0.0
230
1.0
 70
     8
 71
     3
 72
     8
 73
     4
 74
     0
 42
0.0000000001
 43
0.0000000001
 40
0.0
 40
0.0
 40
0.0
 40
0.0
 40
1.0
 40
1.0
 40
1.0
 40
1.0
 10
158.429412117019
 20
42.25926978454372
 30
0.0
 10
158.4570263545103
 20
42.25926978454372
 30
0.0
 10
158.4794121170191
 20
42.28165554705249
 30
0.0
 10
158.4794121170191
 20
42.30926978454323
 30
0.0
  0
LINE
  5
10E
330
70
100
AcDbEntity
  8
0
 62
    18
420
        0
370
    25
100
AcDbLine
 10
158.4294122951193
 20
42.30926980954383
 30
0.0
 11
158.4794122102188
 21
42.30926980954383
 31
0.0
  0
LINE
  5
10F
330
70
100
AcDbEntity
  8
0
 62
    18
420
        0
370
    25
100
AcDbLine
 10
158.4794122102188
 20
42.58426977894402
 30
0.0
 11
158.4794122102188
 21
42.30926980954383
 31
0.0
  0
LINE
  5
110
330
70
100
AcDbEntity
  8
0
 62
    18
420
        0
370
    25
100
AcDbLine
 10
126.7169813002192
 20
42.63426978124403
 30
0.0
 11
126.7169813002192
 21
43.00926978454358
 31
0.0
  0
LINE
  5
111
330
70
100
AcDbEntity
  8
0
 62
    18
420
        0
370
    25
100
AcDbLine
 10
126.9038847024189
 20
42.63426978124403
 30
0.0
 11
126.7169813002192
 21
42.63426978124403
 31
0.0
  0
LINE
  5
112
330
70
100
AcDbEntity
  8
0
 62
    18
420
        0
370
    25
100
AcDbLine
 10
177.741842933919
 20
42.63426978124403
 30
0.0
 11
177.741842933919
 21
43.00926978454358
 31
0.0
  0
LINE
  5
113
330
70
100
AcDbEntity
  8
0
 62
    18
420
        0
370
    25
100
AcDbLine
 10
177.5549395317193
 20
42.63426978124403
 30
0.0
 11
177.741842933919
 21
42.63426978124403
 31
0.0
  0
LINE
  5
114
330
70
100
AcDbEntity
  8
0
 62
    18
420
        0
370
    25
100
AcDbLine
 10
126.5294129336193
 20
42.63426978124403
 30
0.0
 11
126.5294129336193
 21
43.00926978454358
 31
0.0
  0
LINE
  5
115
330
70
100
AcDbEntity
  8
0
 62
    18
420
        0
370
    25
100
AcDbLine
 10
126.6044123406191
 20
43.00926978454358
 30
0.0
 11
126.5294129336193
 21
43.00926978454358
 31
0.0
  0
LINE
  5
116
330
70
100
AcDbEntity
  8
0
 62
    18
420
        0
370
    25
100
AcDbLine
 10
126.7169813002192
 20
42.63426978124403
 30
0.0
 11
126.5294129336193
 21
42.63426978124403
 31
0.0
  0
LINE
  5
117
330
70
100
AcDbEntity
  8
0
 62
    18
420
        0
370
    25
100
AcDbLine
 10
177.9294113005189
 20
43.00926978454358
 30
0.0
 11
177.9294113005189
 21
42.63426978124403
 31
0.0
  0
LINE
  5
118
330
70
100
AcDbEntity
  8
0
 62
    18
420
        0
370
    25
100
AcDbLine
 10
177.8544118935192
 20
43.00926978454358
 30
0.0
 11
177.9294113005189
 21
43.00926978454358
 31
0.0
  0
LINE
  5
119
330
70
100
AcDbEntity
  8
0
 62
    18
420
        0
370
    25
100
AcDbLine
 10
177.741842933919
 20
42.63426978124403
 30
0.0
 11
177.9294113005189
 21
42.63426978124403
 31
0.0
  0
LINE
  5
11A
330
70
100
AcDbEntity
  8
0
 62
    18
420
        0
370
    25
100
AcDbLine
 10
177.0044124061191
 20
42.63426978124403
 30
0.0
 11
177.0044124061191
 21
42.58426977894402
 31
0.0
  0
LINE
  5
11B
330
70
100
AcDbEntity
  8
0
 62
    18
420
        0
370
    25
100
AcDbLine
 10
177.0044124061191
 20
42.58426977894402
 30
0.0
 11
175.8544115657193
 21
42.58426977894402
 31
0.0
  0
LINE
  5
11C
330
70
100
AcDbEntity
  8
0
 62
    18
420
        0
370
    25
100
AcDbLine
 10
175.8544115657193
 20
42.63426978124403
 30
0.0
 11
175.8544115657193
 21
42.58426977894402
 31
0.0
  0
SPLINE
  5
11D
330
70
100
AcDbEntity
  8
0
 62
    18
420
        0
370
    25
100
AcDbSpline
210
0.0
220
0.0
230
1.0
 70
     8
 71
     3
 72
     8
 73
     4
 74
     0
 42
0.0000000001
 43
0.0000000001
 40
0.0
 40
0.0
 40
0.0
 40
0.0
 40
1.0
 40
1.0
 40
1.0
 40
1.0
 10
177.1044121170192
 20
42.63426978454365
 30
0.0
 10
177.0767978795272
 20
42.63426978454365
 30
0.0
 10
177.054412117019
 20
42.61188402203552
 30
0.0
 10
177.054412117019
 20
42.58426978454349
 30
0.0
  0
LINE
  5
11E
330
70
100
AcDbEntity
  8
0
 62
    18
420
        0
370
    25
100
AcDbLine
 10
177.0044124061191
 20
42.58426977894402
 30
0.0
 11
177.0544113899189
 21
42.58426977894402
 31
0.0
  0
LINE
  5
11F
330
70
100
AcDbEntity
  8
0
 62
    18
420
        0
370
    25
100
AcDbLine
 10
175.804412582019
 20
42.58426977894402
 30
0.0
 11
175.8544115657193
 21
42.58426977894402
 31
0.0
  0
SPLINE
  5
120
330
70
100
AcDbEntity
  8
0
 62
    18
420
        0
370
    25
100
AcDbSpline
210
0.0
220
0.0
230
1.0
 70
     8
 71
     3
 72
     8
 73
     4
 74
     0
 42
0.0000000001
 43
0.0000000001
 40
0.0
 40
0.0
 40
0.0
 40
0.0
 40
1.0
 40
1.0
 40
1.0
 40
1.0
 10
175.8044121170188
 20
42.58426978454349
 30
0.0
 10
175.8044121170188
 20
42.61188402203552
 30
0.0
 10
175.7820263545107
 20
42.63426978454365
 30
0.0
 10
175.7544121170193
 20
42.63426978454365
 30
0.0
  0
LINE
  5
121
330
70
100
AcDbEntity
  8
0
 62
    18
420
        0
370
    25
100
AcDbLine
 10
128.6044126684189
 20
42.58426977894402
 30
0.0
 11
127.4544118280192
 21
42.58426977894402
 31
0.0
  0
LINE
  5
122
330
70
100
AcDbEntity
  8
0
 62
    18
420
        0
370
    25
100
AcDbLine
 10
127.4544118280192
 20
42.58426977894402
 30
0.0
 11
127.4544118280192
 21
42.63426978124403
 31
0.0
  0
LINE
  5
123
330
70
100
AcDbEntity
  8
0
 62
    18
420
        0
370
    25
100
AcDbLine
 10
128.6044126684189
 20
42.58426977894402
 30
0.0
 11
128.6044126684189
 21
42.63426978124403
 31
0.0
  0
LINE
  5
124
330
70
100
AcDbEntity
  8
0
 62
    18
420
        0
370
    25
100
AcDbLine
 10
127.4044128442194
 20
42.58426977894402
 30
0.0
 11
127.4544118280192
 21
42.58426977894402
 31
0.0
  0
SPLINE
  5
125
330
70
100
AcDbEntity
  8
0
 62
    18
420
        0
370
    25
100
AcDbSpline
210
0.0
220
0.0
230
1.0
 70
     8
 71
     3
 72
     8
 73
     4
 74
     0
 42
0.0000000001
 43
0.0000000001
 40
0.0
 40
0.0
 40
0.0
 40
0.0
 40
1.0
 40
1.0
 40
1.0
 40
1.0
 10
127.4044121170191
 20
42.58426978454349
 30
0.0
 10
127.4044121170191
 20
42.61188402203552
 30
0.0
 10
127.3820263545103
 20
42.63426978454365
 30
0.0
 10
127.3544121170189
 20
42.63426978454365
 30
0.0
  0
LINE
  5
126
330
70
100
AcDbEntity
  8
0
 62
    18
420
        0
370
    25
100
AcDbLine
 10
128.6044126684189
 20
42.58426977894402
 30
0.0
 11
128.6544116521192
 21
42.58426977894402
 31
0.0
  0
SPLINE
  5
127
330
70
100
AcDbEntity
  8
0
 62
    18
420
        0
370
    25
100
AcDbSpline
210
0.0
220
0.0
230
1.0
 70
     8
 71
     3
 72
     8
 73
     4
 74
     0
 42
0.0000000001
 43
0.0000000001
 40
0.0
 40
0.0
 40
0.0
 40
0.0
 40
1.0
 40
1.0
 40
1.0
 40
1.0
 10
128.7044121170188
 20
42.63426978454365
 30
0.0
 10
128.6767978795274
 20
42.63426978454365
 30
0.0
 10
128.6544121170193
 20
42.61188402203552
 30
0.0
 10
128.6544121170193
 20
42.58426978454349
 30
0.0
  0
LINE
  5
128
330
70
100
AcDbEntity
  8
0
 62
    18
420
        0
370
    25
100
AcDbLine
 10
175.8544115657193
 20
42.30926980954383
 30
0.0
 11
177.0044124061191
 21
42.30926980954383
 31
0.0
  0
LINE
  5
129
330
70
100
AcDbEntity
  8
0
 62
    18
420
        0
370
    25
100
AcDbLine
 10
175.8544115657193
 20
42.58426977894402
 30
0.0
 11
175.8544115657193
 21
42.30926980954383
 31
0.0
  0
LINE
  5
12A
330
70
100
AcDbEntity
  8
0
 62
    18
420
        0
370
    25
100
AcDbLine
 10
177.0044124061191
 20
42.30926980954383
 30
0.0
 11
177.0044124061191
 21
42.58426977894402
 31
0.0
  0
LINE
  5
12B
330
70
100
AcDbEntity
  8
0
 62
    18
420
        0
370
    25
100
AcDbLine
 10
177.0044124061191
 20
42.30926980954383
 30
0.0
 11
177.0044124061191
 21
42.25926977804395
 31
0.0
  0
LINE
  5
12C
330
70
100
AcDbEntity
  8
0
 62
    18
420
        0
370
    25
100
AcDbLine
 10
177.0044124061191
 20
42.25926977804395
 30
0.0
 11
175.8544115657193
 21
42.25926977804395
 31
0.0
  0
LINE
  5
12D
330
70
100
AcDbEntity
  8
0
 62
    18
420
        0
370
    25
100
AcDbLine
 10
175.8544115657193
 20
42.30926980954383
 30
0.0
 11
175.8544115657193
 21
42.25926977804395
 31
0.0
  0
LINE
  5
12E
330
70
100
AcDbEntity
  8
0
 62
    18
420
        0
370
    25
100
AcDbLine
 10
177.0544113899189
 20
42.58426977894402
 30
0.0
 11
177.0544113899189
 21
42.30926980954383
 31
0.0
  0
LINE
  5
12F
330
70
100
AcDbEntity
  8
0
 62
    18
420
        0
370
    25
100
AcDbLine
 10
177.0044124061191
 20
42.30926980954383
 30
0.0
 11
177.0544113899189
 21
42.30926980954383
 31
0.0
  0
SPLINE
  5
130
330
70
100
AcDbEntity
  8
0
 62
    18
420
        0
370
    25
100
AcDbSpline
210
0.0
220
0.0
230
1.0
 70
     8
 71
     3
 72
     8
 73
     4
 74
     0
 42
0.0000000001
 43
0.0000000001
 40
0.0
 40
0.0
 40
0.0
 40
0.0
 40
1.0
 40
1.0
 40
1.0
 40
1.0
 10
177.0044121170189
 20
42.25926978454372
 30
0.0
 10
177.0320263545103
 20
42.25926978454372
 30
0.0
 10
177.054412117019
 20
42.28165554705249
 30
0.0
 10
177.054412117019
 20
42.30926978454323
 30
0.0
  0
SPLINE
  5
131
330
70
100
AcDbEntity
  8
0
 62
    18
420
        0
370
    25
100
AcDbSpline
210
0.0
220
0.0
230
1.0
 70
     8
 71
     3
 72
     8
 73
     4
 74
     0
 42
0.0000000001
 43
0.0000000001
 40
0.0
 40
0.0
 40
0.0
 40
0.0
 40
1.0
 40
1.0
 40
1.0
 40
1.0
 10
175.8044121170188
 20
42.30926978454323
 30
0.0
 10
175.8044121170188
 20
42.28165554705249
 30
0.0
 10
175.8267978795276
 20
42.25926978454372
 30
0.0
 10
175.854412117019
 20
42.25926978454372
 30
0.0
  0
LINE
  5
132
330
70
100
AcDbEntity
  8
0
 62
    18
420
        0
370
    25
100
AcDbLine
 10
175.804412582019
 20
42.30926980954383
 30
0.0
 11
175.8544115657193
 21
42.30926980954383
 31
0.0
  0
LINE
  5
133
330
70
100
AcDbEntity
  8
0
 62
    18
420
        0
370
    25
100
AcDbLine
 10
175.804412582019
 20
42.30926980954383
 30
0.0
 11
175.804412582019
 21
42.58426977894402
 31
0.0
  0
LINE
  5
134
330
70
100
AcDbEntity
  8
0
 62
    18
420
        0
370
    25
100
AcDbLine
 10
127.4544118280192
 20
42.30926980954383
 30
0.0
 11
128.6044126684189
 21
42.30926980954383
 31
0.0
  0
LINE
  5
135
330
70
100
AcDbEntity
  8
0
 62
    18
420
        0
370
    25
100
AcDbLine
 10
127.4544118280192
 20
42.58426977894402
 30
0.0
 11
127.4544118280192
 21
42.30926980954383
 31
0.0
  0
LINE
  5
136
330
70
100
AcDbEntity
  8
0
 62
    18
420
        0
370
    25
100
AcDbLine
 10
128.6044126684189
 20
42.30926980954383
 30
0.0
 11
128.6044126684189
 21
42.58426977894402
 31
0.0
  0
LINE
  5
137
330
70
100
AcDbEntity
  8
0
 62
    18
420
        0
370
    25
100
AcDbLine
 10
128.6044126684189
 20
42.25926977804395
 30
0.0
 11
127.4544118280192
 21
42.25926977804395
 31
0.0
  0
LINE
  5
138
330
70
100
AcDbEntity
  8
0
 62
    18
420
        0
370
    25
100
AcDbLine
 10
127.4544118280192
 20
42.25926977804395
 30
0.0
 11
127.4544118280192
 21
42.30926980954383
 31
0.0
  0
LINE
  5
139
330
70
100
AcDbEntity
  8
0
 62
    18
420
        0
370
    25
100
AcDbLine
 10
128.6044126684189
 20
42.25926977804395
 30
0.0
 11
128.6044126684189
 21
42.30926980954383
 31
0.0
  0
LINE
  5
13A
330
70
100
AcDbEntity
  8
0
 62
    18
420
        0
370
    25
100
AcDbLine
 10
128.6544116521192
 20
42.58426977894402
 30
0.0
 11
128.6544116521192
 21
42.30926980954383
 31
0.0
  0
LINE
  5
13B
330
70
100
AcDbEntity
  8
0
 62
    18
420
        0
370
    25
100
AcDbLine
 10
128.6044126684189
 20
42.30926980954383
 30
0.0
 11
128.6544116521192
 21
42.30926980954383
 31
0.0
  0
SPLINE
  5
13C
330
70
100
AcDbEntity
  8
0
 62
    18
420
        0
370
    25
100
AcDbSpline
210
0.0
220
0.0
230
1.0
 70
     8
 71
     3
 72
     8
 73
     4
 74
     0
 42
0.0000000001
 43
0.0000000001
 40
0.0
 40
0.0
 40
0.0
 40
0.0
 40
1.0
 40
1.0
 40
1.0
 40
1.0
 10
128.6044121170191
 20
42.25926978454372
 30
0.0
 10
128.6320263545105
 20
42.25926978454372
 30
0.0
 10
128.6544121170193
 20
42.28165554705249
 30
0.0
 10
128.6544121170193
 20
42.30926978454323
 30
0.0
  0
LINE
  5
13D
330
70
100
AcDbEntity
  8
0
 62
    18
420
        0
370
    25
100
AcDbLine
 10
127.4044128442194
 20
42.30926980954383
 30
0.0
 11
127.4544118280192
 21
42.30926980954383
 31
0.0
  0
SPLINE
  5
13E
330
70
100
AcDbEntity
  8
0
 62
    18
420
        0
370
    25
100
AcDbSpline
210
0.0
220
0.0
230
1.0
 70
     8
 71
     3
 72
     8
 73
     4
 74
     0
 42
0.0000000001
 43
0.0000000001
 40
0.0
 40
0.0
 40
0.0
 40
0.0
 40
1.0
 40
1.0
 40
1.0
 40
1.0
 10
127.4044121170191
 20
42.30926978454323
 30
0.0
 10
127.4044121170191
 20
42.28165554705249
 30
0.0
 10
127.4267978795272
 20
42.25926978454372
 30
0.0
 10
127.4544121170192
 20
42.25926978454372
 30
0.0
  0
LINE
  5
13F
330
70
100
AcDbEntity
  8
0
 62
    18
420
        0
370
    25
100
AcDbLine
 10
127.4044128442194
 20
42.30926980954383
 30
0.0
 11
127.4044128442194
 21
42.58426977894402
 31
0.0
  0
LINE
  5
140
330
70
100
AcDbEntity
  8
0
 62
    18
420
        0
370
    25
100
AcDbLine
 10
126.6044123406191
 20
116.2592729435437
 30
0.0
 11
126.6044123406191
 21
43.00926978454358
 31
0.0
  0
LINE
  5
141
330
70
100
AcDbEntity
  8
0
 62
    18
420
        0
370
    25
100
AcDbLine
 10
126.6044123406191
 20
116.2592729435437
 30
0.0
 11
141.604412005319
 21
116.2592729435437
 31
0.0
  0
LINE
  5
142
330
70
100
AcDbEntity
  8
0
 62
    18
420
        0
370
    25
100
AcDbLine
 10
141.604412005319
 20
116.2592729435437
 30
0.0
 11
141.604412005319
 21
43.00926978454358
 31
0.0
  0
LINE
  5
143
330
70
100
AcDbEntity
  8
0
 62
    18
420
        0
370
    25
100
AcDbLine
 10
126.6083723242191
 20
43.00926978454358
 30
0.0
 11
141.2597351084192
 21
43.00926978454358
 31
0.0
  0
LINE
  5
144
330
70
100
AcDbEntity
  8
0
 62
    18
420
        0
370
    25
100
AcDbLine
 10
162.8544122288192
 20
116.2592729435437
 30
0.0
 11
162.8544122288192
 21
43.00926978454358
 31
0.0
  0
LINE
  5
145
330
70
100
AcDbEntity
  8
0
 62
    18
420
        0
370
    25
100
AcDbLine
 10
141.604412005319
 20
116.2592729435437
 30
0.0
 11
162.8544122288192
 21
116.2592729435437
 31
0.0
  0
LINE
  5
146
330
70
100
AcDbEntity
  8
0
 62
    18
420
        0
370
    25
100
AcDbLine
 10
177.8544118935192
 20
116.2592729435437
 30
0.0
 11
177.8544118935192
 21
43.00926978454358
 31
0.0
  0
LINE
  5
147
330
70
100
AcDbEntity
  8
0
 62
    18
420
        0
370
    25
100
AcDbLine
 10
162.8544122288192
 20
116.2592729435437
 30
0.0
 11
177.8544118935192
 21
116.2592729435437
 31
0.0
  0
LINE
  5
148
330
70
100
AcDbEntity
  8
0
 62
    18
420
        0
370
    25
100
AcDbLine
 10
163.199089125719
 20
43.00926978454358
 30
0.0
 11
177.8504519099191
 21
43.00926978454358
 31
0.0
  0
LINE
  5
149
330
70
100
AcDbEntity
  8
0
 62
    18
420
        0
370
    25
100
AcDbLine
 10
141.604412005319
 20
117.5081765161434
 30
0.0
 11
126.6055131638188
 21
117.5081765161434
 31
0.0
  0
SPLINE
  5
14A
330
70
100
AcDbEntity
  8
0
 62
    18
420
        0
370
    25
100
AcDbSpline
210
0.0
220
0.0
230
1.0
 70
     8
 71
     3
 72
    11
 73
     7
 74
     0
 42
0.0000000001
 43
0.0000000001
 40
0.0
 40
0.0
 40
0.0
 40
0.0
 40
1.0
 40
1.0
 40
1.0
 40
2.0
 40
2.0
 40
2.0
 40
2.0
 10
126.7305077353193
 20
117.6342697845437
 30
0.0
 10
126.6614721415905
 20
117.6342697845437
 30
0.0
 10
126.6055077353189
 20
117.5783053782724
 30
0.0
 10
126.6055077353189
 20
117.5092697845436
 30
0.0
 10
126.6055077353189
 20
117.508906173706
 30
0.0
 10
126.6055093218729
 20
117.5085425645987
 30
0.0
 10
126.6055124949361
 20
117.5081789676064
 30
0.0
  0
LINE
  5
14B
330
70
100
AcDbEntity
  8
0
 62
    18
420
        0
370
    25
100
AcDbLine
 10
126.7305078292191
 20
117.6342701421436
 30
0.0
 11
141.604412005319
 21
117.6342701421436
 31
0.0
  0
LINE
  5
14C
330
70
100
AcDbEntity
  8
0
 62
    18
420
        0
370
    25
100
AcDbLine
 10
141.604412005319
 20
117.5081765161434
 30
0.0
 11
141.604412005319
 21
117.6342701421436
 31
0.0
  0
LINE
  5
14D
330
70
100
AcDbEntity
  8
0
 62
    18
420
        0
370
    25
100
AcDbLine
 10
141.604412005319
 20
117.6342701421436
 30
0.0
 11
162.8544122288192
 21
117.6342701421436
 31
0.0
  0
LINE
  5
14E
330
70
100
AcDbEntity
  8
0
 62
    18
420
        0
370
    25
100
AcDbLine
 10
162.8544122288192
 20
117.5081765161434
 30
0.0
 11
162.8544122288192
 21
117.6342701421436
 31
0.0
  0
LINE
  5
14F
330
70
100
AcDbEntity
  8
0
 62
    18
420
        0
370
    25
100
AcDbLine
 10
162.8544122288192
 20
117.5081765161434
 30
0.0
 11
141.604412005319
 21
117.5081765161434
 31
0.0
  0
LINE
  5
150
330
70
100
AcDbEntity
  8
0
 62
    18
420
        0
370
    25
100
AcDbLine
 10
162.8544122288192
 20
117.6342701421436
 30
0.0
 11
177.7283164049191
 21
117.6342701421436
 31
0.0
  0
SPLINE
  5
151
330
70
100
AcDbEntity
  8
0
 62
    18
420
        0
370
    25
100
AcDbSpline
210
0.0
220
0.0
230
1.0
 70
     8
 71
     3
 72
    11
 73
     7
 74
     0
 42
0.0000000001
 43
0.0000000001
 40
0.0
 40
0.0
 40
0.0
 40
0.0
 40
1.0
 40
1.0
 40
1.0
 40
2.0
 40
2.0
 40
2.0
 40
2.0
 10
177.8533117392022
 20
117.5081789676064
 30
0.0
 10
177.8539141807615
 20
117.5772119326712
 30
0.0
 10
177.798440280821
 20
117.6336625833672
 30
0.0
 10
177.7294073157565
 20
117.6342650249265
 30
0.0
 10
177.7290437187635
 20
117.6342681979897
 30
0.0
 10
177.7286801096566
 20
117.6342697845437
 30
0.0
 10
177.7283164988189
 20
117.6342697845437
 30
0.0
  0
LINE
  5
152
330
70
100
AcDbEntity
  8
0
 62
    18
420
        0
370
    25
100
AcDbLine
 10
177.8533110702187
 20
117.5081765161434
 30
0.0
 11
162.8544122288192
 21
117.5081765161434
 31
0.0
  0
LINE
  5
153
330
70
100
AcDbEntity
  8
0
 62
    18
420
        0
370
    25
100
AcDbLine
 10
141.604412005319
 20
116.6342681156436
 30
0.0
 11
126.6131388331188
 21
116.6342681156436
 31
0.0
  0
LINE
  5
154
330
70
100
AcDbEntity
  8
0
 62
    18
420
        0
370
    25
100
AcDbLine
 10
126.6131388331188
 20
116.6342681156436
 30
0.0
 11
126.6055131638188
 21
117.5081765161434
 31
0.0
  0
LINE
  5
155
330
70
100
AcDbEntity
  8
0
 62
    18
420
        0
370
    25
100
AcDbLine
 10
141.604412005319
 20
117.5081765161434
 30
0.0
 11
141.604412005319
 21
116.6342681156436
 31
0.0
  0
LINE
  5
156
330
70
100
AcDbEntity
  8
0
 62
    18
420
        0
370
    25
100
AcDbLine
 10
162.8544122288192
 20
116.6342681156436
 30
0.0
 11
162.8544122288192
 21
117.5081765161434
 31
0.0
  0
LINE
  5
157
330
70
100
AcDbEntity
  8
0
 62
    18
420
        0
370
    25
100
AcDbLine
 10
162.8544122288192
 20
116.6342681156436
 30
0.0
 11
141.604412005319
 21
116.6342681156436
 31
0.0
  0
LINE
  5
158
330
70
100
AcDbEntity
  8
0
 62
    18
420
        0
370
    25
100
AcDbLine
 10
177.8456854010188
 20
116.6342681156436
 30
0.0
 11
162.8544122288192
 21
116.6342681156436
 31
0.0
  0
LINE
  5
159
330
70
100
AcDbEntity
  8
0
 62
    18
420
        0
370
    25
100
AcDbLine
 10
177.8533110702187
 20
117.5081765161434
 30
0.0
 11
177.8456854010188
 21
116.6342681156436
 31
0.0
  0
LINE
  5
15A
330
70
100
AcDbEntity
  8
0
 62
    18
420
        0
370
    25
100
AcDbLine
 10
127.4902304942192
 20
116.2592729435437
 30
0.0
 11
127.4869578267188
 21
116.6342681156436
 31
0.0
  0
LINE
  5
15B
330
70
100
AcDbEntity
  8
0
 62
    18
420
        0
370
    25
100
AcDbLine
 10
176.9685937399191
 20
116.2592729435437
 30
0.0
 11
176.9718664074188
 21
116.6342681156436
 31
0.0
  0
LINE
  5
15C
330
70
100
AcDbEntity
  8
0
 62
     8
420
  8421504
370
    25
100
AcDbLine
 10
141.604412005319
 20
116.2592729435437
 30
0.0
 11
141.604412005319
 21
116.6342681156436
 31
0.0
  0
LINE
  5
15D
330
70
100
AcDbEntity
  8
0
 62
     8
420
  8421504
370
    25
100
AcDbLine
 10
162.8544122288192
 20
116.2592729435437
 30
0.0
 11
162.8544122288192
 21
116.6342681156436
 31
0.0
  0
LWPOLYLINE
  5
15E
330
70
100
AcDbEntity
  8
0
 62
    18
420
        0
370
    25
100
AcDbPolyline
 90
        8
 70
     0
 43
0.0
 10
34.87790632611897
 20
-15.68812903055654
 10
34.87771819901908
 20
-15.64945888745641
 10
34.87755242351916
 20
-15.51081708675614
 10
34.877846721519
 20
-15.3745655253561
 10
34.87855452661917
 20
-15.26059678795666
 10
34.87955849241908
 20
-15.18595384475663
 10
34.88006885711906
 20
-15.16817256845631
 10
34.88003346691908
 20
-15.16838747115642
  0
LWPOLYLINE
  5
15F
330
70
100
AcDbEntity
  8
0
 62
    18
420
        0
370
    25
100
AcDbPolyline
 90
        6
 70
     0
 43
0.0
 10
34.88009679681908
 20
-15.89378624265615
 10
34.88010238471924
 20
-15.89379881545644
 10
34.87982112531908
 20
-15.88598315645639
 10
34.879135671919
 20
-15.8511810288566
 10
34.87830120691903
 20
-15.76955293345628
 10
34.87790632611897
 20
-15.68812903055654
  0
LWPOLYLINE
  5
160
330
70
100
AcDbEntity
  8
0
 62
    18
420
        0
370
    25
100
AcDbPolyline
 90
        8
 70
     0
 43
0.0
 10
74.62501782541895
 20
-15.37312197535628
 10
74.62520595261896
 20
-15.41179211845641
 10
74.6253717280194
 20
-15.55043391925615
 10
74.62507743011935
 20
-15.68668548055607
 10
74.62436962491906
 20
-15.80065421795616
 10
74.62336565921926
 20
-15.8752971612563
 10
74.62285529441918
 20
-15.89307820465645
 10
74.62289068471863
 20
-15.8928635347564
  0
LWPOLYLINE
  5
161
330
70
100
AcDbEntity
  8
0
 62
    18
420
        0
370
    25
100
AcDbPolyline
 90
        6
 70
     0
 43
0.0
 10
74.62282735471916
 20
-15.16746453045661
 10
74.62282176681933
 20
-15.16745195765631
 10
74.62310302621884
 20
-15.17526784955654
 10
74.62378847961892
 20
-15.21006997715633
 10
74.6246229446192
 20
-15.29169807245654
 10
74.62501782541895
 20
-15.37312197535628
  0
LWPOLYLINE
  5
162
330
70
100
AcDbEntity
  8
0
 62
    18
420
        0
370
    25
100
AcDbPolyline
 90
        8
 70
     0
 43
0.0
 10
74.62501782541895
 20
-22.12312191765607
 10
74.62520595261896
 20
-22.1617920607562
 10
74.6253717280194
 20
-22.30043386145647
 10
74.62507743011935
 20
-22.4366854228565
 10
74.62436962491906
 20
-22.55065416025659
 10
74.62336565921926
 20
-22.62529710345662
 10
74.62285529441918
 20
-22.6430783797563
 10
74.62289068471863
 20
-22.64286347705619
  0
LWPOLYLINE
  5
163
330
70
100
AcDbEntity
  8
0
 62
    18
420
        0
370
    25
100
AcDbPolyline
 90
        6
 70
     0
 43
0.0
 10
74.62282735471916
 20
-21.91746470555646
 10
74.62282176681933
 20
-21.91745213275616
 10
74.62310302621884
 20
-21.92526779175622
 10
74.62378847961892
 20
-21.96006991935665
 10
74.6246229446192
 20
-22.04169801475633
 10
74.62501782541895
 20
-22.12312191765607
  0
LWPOLYLINE
  5
164
330
70
100
AcDbEntity
  8
0
 62
    18
420
        0
370
    25
100
AcDbPolyline
 90
        8
 70
     0
 43
0.0
 10
34.87790632611897
 20
-22.43812897285632
 10
34.87771819901908
 20
-22.3994588297562
 10
34.87755242351916
 20
-22.26081702895646
 10
34.877846721519
 20
-22.12456546765654
 10
34.87855452661917
 20
-22.01059673025644
 10
34.87955849241908
 20
-21.93595378695631
 10
34.88006885711906
 20
-21.91817274355616
 10
34.88003346691908
 20
-21.9183874134562
  0
LWPOLYLINE
  5
165
330
70
100
AcDbEntity
  8
0
 62
    18
420
        0
370
    25
100
AcDbPolyline
 90
        6
 70
     0
 43
0.0
 10
34.88009679681908
 20
-22.64378641775664
 10
34.88010238471924
 20
-22.64379899055629
 10
34.87982112531908
 20
-22.63598309865607
 10
34.879135671919
 20
-22.60118097105628
 10
34.87830120691903
 20
-22.51955287575606
 10
34.87790632611897
 20
-22.43812897285632
  0
SPLINE
  5
166
330
70
100
AcDbEntity
  8
0
 62
    18
420
        0
370
    25
100
AcDbSpline
210
0.0
220
0.0
230
1.0
 70
     8
 71
     3
 72
     8
 73
     4
 74
     0
 42
0.0000000001
 43
0.0000000001
 40
0.0
 40
0.0
 40
0.0
 40
0.0
 40
1.0
 40
1.0
 40
1.0
 40
1.0
 10
34.90591049481921
 20
-15.90562547405614
 30
0.0
 10
34.90591049481921
 20
-15.87859999926373
 30
0.0
 10
34.89715173221586
 20
-15.8523023925974
 30
0.0
 10
34.88094696639333
 20
-15.83067412747044
 30
0.0
  0
SPLINE
  5
167
330
70
100
AcDbEntity
  8
0
 62
    18
420
        0
370
    25
100
AcDbSpline
210
0.0
220
0.0
230
1.0
 70
     8
 71
     3
 72
     8
 73
     4
 74
     0
 42
0.0000000001
 43
0.0000000001
 40
0.0
 40
0.0
 40
0.0
 40
0.0
 40
1.0
 40
1.0
 40
1.0
 40
1.0
 10
34.88073824096474
 20
-15.230854598067
 30
0.0
 10
34.89707460794069
 20
-15.20917652169894
 30
0.0
 10
34.90591049481921
 20
-15.18276982670991
 30
0.0
 10
34.90591049481921
 20
-15.15562547405628
 30
0.0
  0
SPLINE
  5
168
330
70
100
AcDbEntity
  8
0
 62
    18
420
        0
370
    25
100
AcDbSpline
210
0.0
220
0.0
230
1.0
 70
     8
 71
     3
 72
     8
 73
     4
 74
     0
 42
0.0000000001
 43
0.0000000001
 40
0.0
 40
0.0
 40
0.0
 40
0.0
 40
1.0
 40
1.0
 40
1.0
 40
1.0
 10
74.59701365681945
 20
-15.15562547405628
 30
0.0
 10
74.59701365681945
 20
-15.1827594396251
 30
0.0
 10
74.60584279148434
 20
-15.20915660644541
 30
0.0
 10
74.622167644165
 20
-15.23083035260204
 30
0.0
  0
SPLINE
  5
169
330
70
100
AcDbEntity
  8
0
 62
    18
420
        0
370
    25
100
AcDbSpline
210
0.0
220
0.0
230
1.0
 70
     8
 71
     3
 72
     8
 73
     4
 74
     0
 42
0.0000000001
 43
0.0000000001
 40
0.0
 40
0.0
 40
0.0
 40
0.0
 40
1.0
 40
1.0
 40
1.0
 40
1.0
 10
34.90591049481921
 20
-22.65562547405622
 30
0.0
 10
34.90591049481921
 20
-22.62859999926381
 30
0.0
 10
34.89715173221586
 20
-22.60230239259748
 30
0.0
 10
34.88094696639333
 20
-22.58067412747053
 30
0.0
  0
LINE
  5
16A
330
70
100
AcDbEntity
  8
0
 62
    18
420
        0
370
    25
100
AcDbLine
 10
71.71390276021878
 20
-2.119960990156513
 30
0.0
 11
71.9841688461192
 21
-1.849694904356206
 31
0.0
  0
LINE
  5
16B
330
70
100
AcDbEntity
  8
0
 62
    18
420
        0
370
    25
100
AcDbLine
 10
74.18896142011907
 20
-18.78062546815606
 30
0.0
 11
74.62218474211912
 21
-18.78062546815606
 31
0.0
  0
LINE
  5
16C
330
70
100
AcDbEntity
  8
0
 62
    18
420
        0
370
    25
100
AcDbLine
 10
74.18896142011907
 20
-19.03062548005654
 30
0.0
 11
74.62218474211912
 21
-19.03062548005654
 31
0.0
  0
LINE
  5
16D
330
70
100
AcDbEntity
  8
0
 62
    18
420
        0
370
    25
100
AcDbLine
 10
71.71390276021878
 20
-35.6912899580561
 30
0.0
 11
71.9841688461192
 21
-35.96155604385641
 31
0.0
  0
LINE
  5
16E
330
70
100
AcDbEntity
  8
0
 62
    18
420
        0
370
    25
100
AcDbLine
 10
71.53712655971922
 20
-35.86806615855629
 30
0.0
 11
71.80739264551954
 21
-36.1383322443566
 31
0.0
  0
LINE
  5
16F
330
70
100
AcDbEntity
  8
0
 62
    18
420
        0
370
    25
100
AcDbLine
 10
54.87646208171904
 20
-38.34312481845657
 30
0.0
 11
54.87646208171904
 21
-38.75118194185622
 31
0.0
  0
LINE
  5
170
330
70
100
AcDbEntity
  8
0
 62
    18
420
        0
370
    25
100
AcDbLine
 10
54.6264620698192
 20
-38.34312481845657
 30
0.0
 11
54.6264620698192
 21
-38.75118194185622
 31
0.0
  0
LINE
  5
171
330
70
100
AcDbEntity
  8
0
 62
    18
420
        0
370
    25
100
AcDbLine
 10
37.69553150601903
 20
-36.1383322443566
 30
0.0
 11
37.96579759191911
 21
-35.86806615855629
 31
0.0
  0
LINE
  5
172
330
70
100
AcDbEntity
  8
0
 62
    18
420
        0
370
    25
100
AcDbLine
 10
37.51875530551915
 20
-35.96155604385641
 30
0.0
 11
37.78902139131914
 21
-35.6912899580561
 31
0.0
  0
LINE
  5
173
330
70
100
AcDbEntity
  8
0
 62
    18
420
        0
370
    25
100
AcDbLine
 10
34.88073940941912
 20
-19.03062548005654
 30
0.0
 11
35.31396273141917
 21
-19.03062548005654
 31
0.0
  0
LINE
  5
174
330
70
100
AcDbEntity
  8
0
 62
    18
420
        0
370
    25
100
AcDbLine
 10
34.88073940941912
 20
-18.78062546815606
 30
0.0
 11
35.31396273141917
 21
-18.78062546815606
 31
0.0
  0
LINE
  5
175
330
70
100
AcDbEntity
  8
0
 62
    18
420
        0
370
    25
100
AcDbLine
 10
37.51875530551915
 20
-1.849694904356206
 30
0.0
 11
37.78902139131914
 21
-2.119960990156513
 31
0.0
  0
LINE
  5
176
330
70
100
AcDbEntity
  8
0
 62
    18
420
        0
370
    25
100
AcDbLine
 10
37.69553150601903
 20
-1.672918703756549
 30
0.0
 11
37.96579759191911
 21
-1.943184789656319
 31
0.0
  0
LINE
  5
177
330
70
100
AcDbEntity
  8
0
 62
    18
420
        0
370
    25
100
AcDbLine
 10
54.6264620698192
 20
0.9399309936436065
 30
0.0
 11
54.6264620698192
 21
0.5318738702439631
 31
0.0
  0
LINE
  5
178
330
70
100
AcDbEntity
  8
0
 62
    18
420
        0
370
    25
100
AcDbLine
 10
54.87646208171904
 20
0.9399309936436065
 30
0.0
 11
54.87646208171904
 21
0.5318738702439631
 31
0.0
  0
LINE
  5
179
330
70
100
AcDbEntity
  8
0
 62
    18
420
        0
370
    25
100
AcDbLine
 10
71.53712655971922
 20
-1.943184789656319
 30
0.0
 11
71.80739264551954
 21
-1.672918703756549
 31
0.0
  0
LINE
  5
17A
330
70
100
AcDbEntity
  8
0
 62
    18
420
        0
370
    25
100
AcDbLine
 10
54.88955337751924
 20
0.5318738702439631
 30
0.0
 11
54.88955337751924
 21
0.9399309936436065
 31
0.0
  0
LINE
  5
17B
330
70
100
AcDbEntity
  8
0
 62
    18
420
        0
370
    25
100
AcDbLine
 10
54.613370774019
 20
0.5318738702439631
 30
0.0
 11
54.613370774019
 21
0.9399309936436065
 31
0.0
  0
LINE
  5
17C
330
70
100
AcDbEntity
  8
0
 62
    18
420
        0
370
    25
100
AcDbLine
 10
37.97519277401898
 20
-1.934067141656584
 30
0.0
 11
37.70492110021905
 21
-1.663793605256214
 31
0.0
  0
LINE
  5
17D
330
70
100
AcDbEntity
  8
0
 62
    18
420
        0
370
    25
100
AcDbLine
 10
71.79800305131919
 20
-1.663793605256214
 30
0.0
 11
71.52773137751895
 21
-1.934067141656584
 31
0.0
  0
LINE
  5
17E
330
70
100
AcDbEntity
  8
0
 62
    18
420
        0
370
    25
100
AcDbLine
 10
71.993293944719
 20
-1.859084498556553
 30
0.0
 11
71.72302040821915
 21
-2.129356172356158
 31
0.0
  0
LINE
  5
17F
330
70
100
AcDbEntity
  8
0
 62
    18
420
        0
370
    25
100
AcDbLine
 10
37.77990374331908
 20
-2.129356172356158
 30
0.0
 11
37.50963020691904
 21
-1.859084498556553
 31
0.0
  0
LINE
  5
180
330
70
100
AcDbEntity
  8
0
 62
    18
420
        0
370
    25
100
AcDbLine
 10
35.31396273141917
 20
-18.76753417235619
 30
0.0
 11
34.88076921171895
 21
-18.76753417235619
 31
0.0
  0
LINE
  5
181
330
70
100
AcDbEntity
  8
0
 62
    18
420
        0
370
    25
100
AcDbLine
 10
74.62215493981897
 20
-18.76753417235619
 30
0.0
 11
74.18896142011907
 21
-18.76753417235619
 31
0.0
  0
LINE
  5
182
330
70
100
AcDbEntity
  8
0
 62
    18
420
        0
370
    25
100
AcDbLine
 10
35.31396273141917
 20
-19.04371677585642
 30
0.0
 11
34.88076921171895
 21
-19.04371677585642
 31
0.0
  0
LINE
  5
183
330
70
100
AcDbEntity
  8
0
 62
    18
420
        0
370
    25
100
AcDbLine
 10
74.62215493981897
 20
-19.04371677585642
 30
0.0
 11
74.18896142011907
 21
-19.04371677585642
 31
0.0
  0
LINE
  5
184
330
70
100
AcDbEntity
  8
0
 62
    18
420
        0
370
    25
100
AcDbLine
 10
71.993293944719
 20
-35.95216644965606
 30
0.0
 11
71.72302040821915
 21
-35.68189477585645
 31
0.0
  0
LINE
  5
185
330
70
100
AcDbEntity
  8
0
 62
    18
420
        0
370
    25
100
AcDbLine
 10
37.77990374331908
 20
-35.68189477585645
 30
0.0
 11
37.50963020691904
 21
-35.95216644965606
 31
0.0
  0
LINE
  5
186
330
70
100
AcDbEntity
  8
0
 62
    18
420
        0
370
    25
100
AcDbLine
 10
37.97519277401898
 20
-35.87718380655667
 30
0.0
 11
37.70492110021905
 21
-36.14745734295639
 31
0.0
  0
LINE
  5
187
330
70
100
AcDbEntity
  8
0
 62
    18
420
        0
370
    25
100
AcDbLine
 10
71.79800305131919
 20
-36.14745734295639
 30
0.0
 11
71.52773137751895
 21
-35.87718380655667
 31
0.0
  0
LINE
  5
188
330
70
100
AcDbEntity
  8
0
 62
    18
420
        0
370
    25
100
AcDbLine
 10
54.88955337751924
 20
-38.75118194185622
 30
0.0
 11
54.88955337751924
 21
-38.34312481845657
 31
0.0
  0
LINE
  5
189
330
70
100
AcDbEntity
  8
0
 62
    18
420
        0
370
    25
100
AcDbLine
 10
54.613370774019
 20
-38.75118194185622
 30
0.0
 11
54.613370774019
 21
-38.34312481845657
 31
0.0
  0
SPLINE
  5
18A
330
70
100
AcDbEntity
  8
0
 62
    18
420
        0
370
    25
100
AcDbSpline
210
0.0
220
0.0
230
1.0
 70
     8
 71
     3
 72
     8
 73
     4
 74
     0
 42
0.0000000001
 43
0.0000000001
 40
0.0
 40
0.0
 40
0.0
 40
0.0
 40
1.0
 40
1.0
 40
1.0
 40
1.0
 10
44.05146207581911
 20
6.794374525943692
 30
0.0
 10
43.95515208460944
 20
6.794374525943692
 30
0.0
 10
43.86089150699581
 20
6.766559312552863
 30
0.0
 10
43.78001079147572
 20
6.714272370935007
 30
0.0
  0
LINE
  5
18B
330
70
100
AcDbEntity
  8
0
 62
    18
420
        0
370
    25
100
AcDbLine
 10
65.45146252581869
 20
6.794373709343805
 30
0.0
 11
44.051461625819
 21
6.794373709343805
 31
0.0
  0
SPLINE
  5
18C
330
70
100
AcDbEntity
  8
0
 62
    18
420
        0
370
    25
100
AcDbSpline
210
0.0
220
0.0
230
1.0
 70
     8
 71
     3
 72
     8
 73
     4
 74
     0
 42
0.0000000001
 43
0.0000000001
 40
0.0
 40
0.0
 40
0.0
 40
0.0
 40
1.0
 40
1.0
 40
1.0
 40
1.0
 10
65.72291336016231
 20
6.714272370935007
 30
0.0
 10
65.64203264464253
 20
6.766559312552863
 30
0.0
 10
65.54777206702922
 20
6.794374525943692
 30
0.0
 10
65.45146207581955
 20
6.794374525943692
 30
0.0
  0
SPLINE
  5
18D
330
70
100
AcDbEntity
  8
0
 62
    18
420
        0
370
    25
100
AcDbSpline
210
0.0
220
0.0
230
1.0
 70
     8
 71
     3
 72
     8
 73
     4
 74
     0
 42
0.0000000001
 43
0.0000000001
 40
0.0
 40
0.0
 40
0.0
 40
0.0
 40
1.0
 40
1.0
 40
1.0
 40
1.0
 10
80.45146207581943
 20
-8.205625474056194
 30
0.0
 10
80.45146207581943
 20
-8.109315482847154
 30
0.0
 10
80.4236468624286
 20
-8.01505490523386
 30
0.0
 10
80.37135992081074
 20
-7.934174189713443
 30
0.0
  0
LINE
  5
18E
330
70
100
AcDbEntity
  8
0
 62
    18
420
        0
370
    25
100
AcDbLine
 10
80.4514612592189
 20
-29.60562592415621
 30
0.0
 11
80.4514612592189
 21
-8.2056250240564
 31
0.0
  0
SPLINE
  5
18F
330
70
100
AcDbEntity
  8
0
 62
    18
420
        0
370
    25
100
AcDbSpline
210
0.0
220
0.0
230
1.0
 70
     8
 71
     3
 72
     8
 73
     4
 74
     0
 42
0.0000000001
 43
0.0000000001
 40
0.0
 40
0.0
 40
0.0
 40
0.0
 40
1.0
 40
1.0
 40
1.0
 40
1.0
 10
80.37135992081074
 20
-29.87707675839906
 30
0.0
 10
80.4236468624286
 20
-29.79619604287929
 30
0.0
 10
80.45146207581943
 20
-29.70193546526599
 30
0.0
 10
80.45146207581943
 20
-29.60562547405631
 30
0.0
  0
SPLINE
  5
190
330
70
100
AcDbEntity
  8
0
 62
    18
420
        0
370
    25
100
AcDbSpline
210
0.0
220
0.0
230
1.0
 70
     8
 71
     3
 72
     8
 73
     4
 74
     0
 42
0.0000000001
 43
0.0000000001
 40
0.0
 40
0.0
 40
0.0
 40
0.0
 40
1.0
 40
1.0
 40
1.0
 40
1.0
 10
29.13156423082727
 20
-7.934174189713443
 30
0.0
 10
29.07927728920974
 20
-8.01505490523386
 30
0.0
 10
29.05146207581923
 20
-8.109315482847154
 30
0.0
 10
29.05146207581923
 20
-8.205625474056194
 30
0.0
  0
SPLINE
  5
191
330
70
100
AcDbEntity
  8
0
 62
    18
420
        0
370
    25
100
AcDbSpline
210
0.0
220
0.0
230
1.0
 70
     8
 71
     3
 72
     8
 73
     4
 74
     0
 42
0.0000000001
 43
0.0000000001
 40
0.0
 40
0.0
 40
0.0
 40
0.0
 40
1.0
 40
1.0
 40
1.0
 40
1.0
 10
29.05146207581923
 20
-29.60562547405631
 30
0.0
 10
29.05146207581923
 20
-29.70193546526599
 30
0.0
 10
29.07927728920974
 20
-29.79619604287929
 30
0.0
 10
29.13156423082727
 20
-29.87707675839906
 30
0.0
  0
LINE
  5
192
330
70
100
AcDbEntity
  8
0
 62
    18
420
        0
370
    25
100
AcDbLine
 10
29.05146289231901
 20
-8.2056250240564
 30
0.0
 11
29.05146289231901
 21
-29.60562592415621
 31
0.0
  0
LINE
  5
193
330
70
100
AcDbEntity
  8
0
 62
    18
420
        0
370
    25
100
AcDbLine
 10
44.051461625819
 20
-44.60562465755641
 30
0.0
 11
65.45146252581869
 21
-44.60562465755641
 31
0.0
  0
SPLINE
  5
194
330
70
100
AcDbEntity
  8
0
 62
    18
420
        0
370
    25
100
AcDbSpline
210
0.0
220
0.0
230
1.0
 70
     8
 71
     3
 72
     8
 73
     4
 74
     0
 42
0.0000000001
 43
0.0000000001
 40
0.0
 40
0.0
 40
0.0
 40
0.0
 40
1.0
 40
1.0
 40
1.0
 40
1.0
 10
43.78001079147701
 20
-44.52552331904879
 30
0.0
 10
43.86089150699709
 20
-44.57781026066601
 30
0.0
 10
43.95515208461008
 20
-44.60562547405619
 30
0.0
 10
44.05146207581911
 20
-44.60562547405619
 30
0.0
  0
SPLINE
  5
195
330
70
100
AcDbEntity
  8
0
 62
    18
420
        0
370
    25
100
AcDbSpline
210
0.0
220
0.0
230
1.0
 70
     8
 71
     3
 72
     8
 73
     4
 74
     0
 42
0.0000000001
 43
0.0000000001
 40
0.0
 40
0.0
 40
0.0
 40
0.0
 40
1.0
 40
1.0
 40
1.0
 40
1.0
 10
65.45146207581955
 20
-44.60562547405619
 30
0.0
 10
65.54777206702794
 20
-44.60562547405619
 30
0.0
 10
65.64203264464125
 20
-44.57781026066601
 30
0.0
 10
65.72291336016101
 20
-44.52552331904879
 30
0.0
  0
LINE
  5
196
330
70
100
AcDbEntity
  8
0
 62
    18
420
        0
370
    25
100
AcDbLine
 10
73.68896226951907
 20
-29.59312571255623
 30
0.0
 11
73.68896226951907
 21
-8.21812523565638
 31
0.0
  0
SPLINE
  5
197
330
70
100
AcDbEntity
  8
0
 62
    18
420
        0
370
    25
100
AcDbSpline
210
0.0
220
0.0
230
1.0
 70
     8
 71
     3
 72
     8
 73
     4
 74
     0
 42
0.0000000001
 43
0.0000000001
 40
0.0
 40
0.0
 40
0.0
 40
0.0
 40
1.0
 40
1.0
 40
1.0
 40
1.0
 10
65.43896207581919
 20
-37.8431254740564
 30
0.0
 10
69.99531126192313
 20
-37.8431254740564
 30
0.0
 10
73.68896207581901
 20
-34.14947466016053
 30
0.0
 10
73.68896207581901
 20
-29.59312547405659
 30
0.0
  0
LINE
  5
198
330
70
100
AcDbEntity
  8
0
 62
    18
420
        0
370
    25
100
AcDbLine
 10
44.0639618373192
 20
-37.84312566785657
 30
0.0
 11
65.43896231421936
 21
-37.84312566785657
 31
0.0
  0
SPLINE
  5
199
330
70
100
AcDbEntity
  8
0
 62
    18
420
        0
370
    25
100
AcDbSpline
210
0.0
220
0.0
230
1.0
 70
     8
 71
     3
 72
     8
 73
     4
 74
     0
 42
0.0000000001
 43
0.0000000001
 40
0.0
 40
0.0
 40
0.0
 40
0.0
 40
1.0
 40
1.0
 40
1.0
 40
1.0
 10
35.81396207581903
 20
-29.59312547405659
 30
0.0
 10
35.81396207581903
 20
-34.14947466016053
 30
0.0
 10
39.5076128897149
 20
-37.8431254740564
 30
0.0
 10
44.06396207581916
 20
-37.8431254740564
 30
0.0
  0
LINE
  5
19A
330
70
100
AcDbEntity
  8
0
 62
    18
420
        0
370
    25
100
AcDbLine
 10
35.81396188211896
 20
-8.21812523565638
 30
0.0
 11
35.81396188211896
 21
-29.59312571255623
 31
0.0
  0
SPLINE
  5
19B
330
70
100
AcDbEntity
  8
0
 62
    18
420
        0
370
    25
100
AcDbSpline
210
0.0
220
0.0
230
1.0
 70
     8
 71
     3
 72
     8
 73
     4
 74
     0
 42
0.0000000001
 43
0.0000000001
 40
0.0
 40
0.0
 40
0.0
 40
0.0
 40
1.0
 40
1.0
 40
1.0
 40
1.0
 10
44.06396207581916
 20
0.0318745259438953
 30
0.0
 10
39.5076128897149
 20
0.0318745259438953
 30
0.0
 10
35.81396207581903
 20
-3.661776287952618
 30
0.0
 10
35.81396207581903
 20
-8.218125474056556
 30
0.0
  0
LINE
  5
19C
330
70
100
AcDbEntity
  8
0
 62
    18
420
        0
370
    25
100
AcDbLine
 10
65.43896231421936
 20
0.0318747196439588
 30
0.0
 11
44.0639618373192
 21
0.0318747196439588
 31
0.0
  0
SPLINE
  5
19D
330
70
100
AcDbEntity
  8
0
 62
    18
420
        0
370
    25
100
AcDbSpline
210
0.0
220
0.0
230
1.0
 70
     8
 71
     3
 72
     8
 73
     4
 74
     0
 42
0.0000000001
 43
0.0000000001
 40
0.0
 40
0.0
 40
0.0
 40
0.0
 40
1.0
 40
1.0
 40
1.0
 40
1.0
 10
73.68896207581901
 20
-8.218125474056556
 30
0.0
 10
73.68896207581901
 20
-3.661776287952618
 30
0.0
 10
69.99531126192313
 20
0.0318745259438953
 30
0.0
 10
65.43896207581919
 20
0.0318745259438953
 30
0.0
  0
LINE
  5
19E
330
70
100
AcDbEntity
  8
0
 62
    18
420
        0
370
    25
100
AcDbLine
 10
44.0639618373192
 20
0.5318738702439631
 30
0.0
 11
65.43896231421936
 21
0.5318738702439631
 31
0.0
  0
LINE
  5
19F
330
70
100
AcDbEntity
  8
0
 62
    18
420
        0
370
    25
100
AcDbLine
 10
65.43896231421936
 20
0.0318747196439588
 30
0.0
 11
65.43896231421936
 21
0.5318738702439631
 31
0.0
  0
LINE
  5
1A0
330
70
100
AcDbEntity
  8
0
 62
    18
420
        0
370
    25
100
AcDbLine
 10
44.0639618373192
 20
0.5318738702439631
 30
0.0
 11
44.0639618373192
 21
0.0318747196439588
 31
0.0
  0
SPLINE
  5
1A1
330
70
100
AcDbEntity
  8
0
 62
    18
420
        0
370
    25
100
AcDbSpline
210
0.0
220
0.0
230
1.0
 70
     8
 71
     3
 72
     8
 73
     4
 74
     0
 42
0.0000000001
 43
0.0000000001
 40
0.0
 40
0.0
 40
0.0
 40
0.0
 40
1.0
 40
1.0
 40
1.0
 40
1.0
 10
44.06396207581916
 20
0.5318745259435921
 30
0.0
 10
39.23147051479974
 20
0.5318745259435921
 30
0.0
 10
35.31396207581901
 20
-3.385633913036819
 30
0.0
 10
35.31396207581901
 20
-8.218125474056556
 30
0.0
  0
LINE
  5
1A2
330
70
100
AcDbEntity
  8
0
 62
    18
420
        0
370
    25
100
AcDbLine
 10
35.31396273141917
 20
-8.21812523565638
 30
0.0
 11
35.81396188211896
 21
-8.21812523565638
 31
0.0
  0
LINE
  5
1A3
330
70
100
AcDbEntity
  8
0
 62
    18
420
        0
370
    25
100
AcDbLine
 10
35.31396273141917
 20
-29.59312571255623
 30
0.0
 11
35.31396273141917
 21
-8.21812523565638
 31
0.0
  0
LINE
  5
1A4
330
70
100
AcDbEntity
  8
0
 62
    18
420
        0
370
    25
100
AcDbLine
 10
35.31396273141917
 20
-29.59312571255623
 30
0.0
 11
35.81396188211896
 21
-29.59312571255623
 31
0.0
  0
SPLINE
  5
1A5
330
70
100
AcDbEntity
  8
0
 62
    18
420
        0
370
    25
100
AcDbSpline
210
0.0
220
0.0
230
1.0
 70
     8
 71
     3
 72
     8
 73
     4
 74
     0
 42
0.0000000001
 43
0.0000000001
 40
0.0
 40
0.0
 40
0.0
 40
0.0
 40
1.0
 40
1.0
 40
1.0
 40
1.0
 10
74.18896207581934
 20
-8.218125474056556
 30
0.0
 10
74.18896207581934
 20
-3.385633913036819
 30
0.0
 10
70.27145363683828
 20
0.5318745259435921
 30
0.0
 10
65.43896207581919
 20
0.5318745259435921
 30
0.0
  0
LINE
  5
1A6
330
70
100
AcDbEntity
  8
0
 62
    18
420
        0
370
    25
100
AcDbLine
 10
73.68896226951907
 20
-8.21812523565638
 30
0.0
 11
74.18896142011907
 21
-8.21812523565638
 31
0.0
  0
LINE
  5
1A7
330
70
100
AcDbEntity
  8
0
 62
    18
420
        0
370
    25
100
AcDbLine
 10
74.18896142011907
 20
-8.21812523565638
 30
0.0
 11
74.18896142011907
 21
-29.59312571255623
 31
0.0
  0
LINE
  5
1A8
330
70
100
AcDbEntity
  8
0
 62
    18
420
        0
370
    25
100
AcDbLine
 10
73.68896226951907
 20
-29.59312571255623
 30
0.0
 11
74.18896142011907
 21
-29.59312571255623
 31
0.0
  0
SPLINE
  5
1A9
330
70
100
AcDbEntity
  8
0
 62
    18
420
        0
370
    25
100
AcDbSpline
210
0.0
220
0.0
230
1.0
 70
     8
 71
     3
 72
     8
 73
     4
 74
     0
 42
0.0000000001
 43
0.0000000001
 40
0.0
 40
0.0
 40
0.0
 40
0.0
 40
1.0
 40
1.0
 40
1.0
 40
1.0
 10
65.43896207581919
 20
-38.34312547405609
 30
0.0
 10
70.27145363683828
 20
-38.34312547405609
 30
0.0
 10
74.18896207581934
 20
-34.42561703507568
 30
0.0
 10
74.18896207581934
 20
-29.59312547405659
 30
0.0
  0
LINE
  5
1AA
330
70
100
AcDbEntity
  8
0
 62
    18
420
        0
370
    25
100
AcDbLine
 10
65.43896231421936
 20
-37.84312566785657
 30
0.0
 11
65.43896231421936
 21
-38.34312481845657
 31
0.0
  0
SPLINE
  5
1AB
330
70
100
AcDbEntity
  8
0
 62
    18
420
        0
370
    25
100
AcDbSpline
210
0.0
220
0.0
230
1.0
 70
     8
 71
     3
 72
     8
 73
     4
 74
     0
 42
0.0000000001
 43
0.0000000001
 40
0.0
 40
0.0
 40
0.0
 40
0.0
 40
1.0
 40
1.0
 40
1.0
 40
1.0
 10
35.31396207581901
 20
-29.59312547405659
 30
0.0
 10
35.31396207581901
 20
-34.42561703507568
 30
0.0
 10
39.23147051479974
 20
-38.34312547405609
 30
0.0
 10
44.06396207581916
 20
-38.34312547405609
 30
0.0
  0
LINE
  5
1AC
330
70
100
AcDbEntity
  8
0
 62
    18
420
        0
370
    25
100
AcDbLine
 10
44.0639618373192
 20
-38.34312481845657
 30
0.0
 11
44.0639618373192
 21
-37.84312566785657
 31
0.0
  0
LINE
  5
1AD
330
70
100
AcDbEntity
  8
0
 62
    18
420
        0
370
    25
100
AcDbLine
 10
65.43896231421936
 20
-38.34312481845657
 30
0.0
 11
44.0639618373192
 21
-38.34312481845657
 31
0.0
  0
SPLINE
  5
1AE
330
70
100
AcDbEntity
  8
0
 62
    18
420
        0
370
    25
100
AcDbSpline
210
0.0
220
0.0
230
1.0
 70
     8
 71
     3
 72
     8
 73
     4
 74
     0
 42
0.0000000001
 43
0.0000000001
 40
0.0
 40
0.0
 40
0.0
 40
0.0
 40
1.0
 40
1.0
 40
1.0
 40
1.0
 10
80.3764620758192
 20
-8.280625474056439
 30
0.0
 10
80.3764620758192
 20
0.0036457734053259
 30
0.0
 10
73.66073332328108
 20
6.719374525943449
 30
0.0
 10
65.37646207581866
 20
6.719374525943449
 30
0.0
  0
LINE
  5
1AF
330
70
100
AcDbEntity
  8
0
 62
    18
420
        0
370
    25
100
AcDbLine
 10
80.37646185221916
 20
-29.53062558585608
 30
0.0
 11
80.37646185221916
 21
-8.280625362356527
 31
0.0
  0
SPLINE
  5
1B0
330
70
100
AcDbEntity
  8
0
 62
    18
420
        0
370
    25
100
AcDbSpline
210
0.0
220
0.0
230
1.0
 70
     8
 71
     3
 72
     8
 73
     4
 74
     0
 42
0.0000000001
 43
0.0000000001
 40
0.0
 40
0.0
 40
0.0
 40
0.0
 40
1.0
 40
1.0
 40
1.0
 40
1.0
 10
65.37646207581866
 20
-44.53062547405659
 30
0.0
 10
73.66073332328108
 20
-44.53062547405659
 30
0.0
 10
80.3764620758192
 20
-37.81489672151848
 30
0.0
 10
80.3764620758192
 20
-29.53062547405607
 30
0.0
  0
LINE
  5
1B1
330
70
100
AcDbEntity
  8
0
 62
    18
420
        0
370
    25
100
AcDbLine
 10
44.12646196401902
 20
-44.53062525055666
 30
0.0
 11
65.37646218751922
 21
-44.53062525055666
 31
0.0
  0
SPLINE
  5
1B2
330
70
100
AcDbEntity
  8
0
 62
    18
420
        0
370
    25
100
AcDbSpline
210
0.0
220
0.0
230
1.0
 70
     8
 71
     3
 72
     8
 73
     4
 74
     0
 42
0.0000000001
 43
0.0000000001
 40
0.0
 40
0.0
 40
0.0
 40
0.0
 40
1.0
 40
1.0
 40
1.0
 40
1.0
 10
29.12646207581915
 20
-29.53062547405607
 30
0.0
 10
29.12646207581915
 20
-37.81489672151848
 30
0.0
 10
35.84219082835728
 20
-44.53062547405659
 30
0.0
 10
44.12646207581904
 20
-44.53062547405659
 30
0.0
  0
LINE
  5
1B3
330
70
100
AcDbEntity
  8
0
 62
    18
420
        0
370
    25
100
AcDbLine
 10
29.12646229931908
 20
-8.280625362356527
 30
0.0
 11
29.12646229931908
 21
-29.53062558585608
 31
0.0
  0
LINE
  5
1B4
330
70
100
AcDbEntity
  8
0
 62
    18
420
        0
370
    25
100
AcDbLine
 10
54.750212075819
 20
6.719374302343418
 30
0.0
 11
44.12646196401902
 21
6.719374302343418
 31
0.0
  0
LINE
  5
1B5
330
70
100
AcDbEntity
  8
0
 62
    18
420
        0
370
    25
100
AcDbLine
 10
54.750212075819
 20
6.719374302343418
 30
0.0
 11
54.750212075819
 21
6.718273479143743
 31
0.0
  0
LINE
  5
1B6
330
70
100
AcDbEntity
  8
0
 62
    18
420
        0
370
    25
100
AcDbLine
 10
65.37646218751922
 20
6.719374302343418
 30
0.0
 11
54.75271207571923
 21
6.719374302343418
 31
0.0
  0
LINE
  5
1B7
330
70
100
AcDbEntity
  8
0
 62
    18
420
        0
370
    25
100
AcDbLine
 10
54.75271207571923
 20
6.718273479143743
 30
0.0
 11
54.75271207571923
 21
6.719374302343418
 31
0.0
  0
SPLINE
  5
1B8
330
70
100
AcDbEntity
  8
0
 62
    18
420
        0
370
    25
100
AcDbSpline
210
0.0
220
0.0
230
1.0
 70
     8
 71
     3
 72
     8
 73
     4
 74
     0
 42
0.0000000001
 43
0.0000000001
 40
0.0
 40
0.0
 40
0.0
 40
0.0
 40
1.0
 40
1.0
 40
1.0
 40
1.0
 10
44.12646207581904
 20
6.719374525943449
 30
0.0
 10
35.84219082835728
 20
6.719374525943449
 30
0.0
 10
29.12646207581915
 20
0.0036457734053259
 30
0.0
 10
29.12646207581915
 20
-8.280625474056439
 30
0.0
  0
SPLINE
  5
1B9
330
70
100
AcDbEntity
  8
0
 62
    18
420
        0
370
    25
100
AcDbSpline
210
0.0
220
0.0
230
1.0
 70
     8
 71
     3
 72
     8
 73
     4
 74
     0
 42
0.0000000001
 43
0.0000000001
 40
0.0
 40
0.0
 40
0.0
 40
0.0
 40
1.0
 40
1.0
 40
1.0
 40
1.0
 10
65.37646207581866
 20
-44.40452985578459
 30
0.0
 10
73.59109263628846
 20
-44.40452985578459
 30
0.0
 10
80.25036645754719
 20
-37.74525603452587
 30
0.0
 10
80.25036645754719
 20
-29.53062547405607
 30
0.0
  0
LINE
  5
1BA
330
70
100
AcDbEntity
  8
0
 62
    18
420
        0
370
    25
100
AcDbLine
 10
44.12646196401902
 20
-44.40452976195664
 30
0.0
 11
65.37646218751922
 21
-44.40452976195664
 31
0.0
  0
SPLINE
  5
1BB
330
70
100
AcDbEntity
  8
0
 62
    18
420
        0
370
    25
100
AcDbSpline
210
0.0
220
0.0
230
1.0
 70
     8
 71
     3
 72
     8
 73
     4
 74
     0
 42
0.0000000001
 43
0.0000000001
 40
0.0
 40
0.0
 40
0.0
 40
0.0
 40
1.0
 40
1.0
 40
1.0
 40
1.0
 10
29.25255769409116
 20
-29.53062547405607
 30
0.0
 10
29.25255769409116
 20
-37.74525603452587
 30
0.0
 10
35.91183151534924
 20
-44.40452985578459
 30
0.0
 10
44.12646207581904
 20
-44.40452985578459
 30
0.0
  0
LINE
  5
1BC
330
70
100
AcDbEntity
  8
0
 62
    18
420
        0
370
    25
100
AcDbLine
 10
29.25255778801922
 20
-8.280625362356527
 30
0.0
 11
29.25255778801922
 21
-29.53062558585608
 31
0.0
  0
SPLINE
  5
1BD
330
70
100
AcDbEntity
  8
0
 62
    18
420
        0
370
    25
100
AcDbSpline
210
0.0
220
0.0
230
1.0
 70
     8
 71
     3
 72
     8
 73
     4
 74
     0
 42
0.0000000001
 43
0.0000000001
 40
0.0
 40
0.0
 40
0.0
 40
0.0
 40
1.0
 40
1.0
 40
1.0
 40
1.0
 10
44.12646207581904
 20
6.593278907671439
 30
0.0
 10
35.91183151534924
 20
6.593278907671439
 30
0.0
 10
29.25255769409116
 20
-0.0659949135866388
 30
0.0
 10
29.25255769409116
 20
-8.280625474056439
 30
0.0
  0
LINE
  5
1BE
330
70
100
AcDbEntity
  8
0
 62
    18
420
        0
370
    25
100
AcDbLine
 10
65.37646218751922
 20
6.593278813743385
 30
0.0
 11
44.12646196401902
 21
6.593278813743385
 31
0.0
  0
SPLINE
  5
1BF
330
70
100
AcDbEntity
  8
0
 62
    18
420
        0
370
    25
100
AcDbSpline
210
0.0
220
0.0
230
1.0
 70
     8
 71
     3
 72
     8
 73
     4
 74
     0
 42
0.0000000001
 43
0.0000000001
 40
0.0
 40
0.0
 40
0.0
 40
0.0
 40
1.0
 40
1.0
 40
1.0
 40
1.0
 10
80.25036645754719
 20
-8.280625474056439
 30
0.0
 10
80.25036645754719
 20
-0.0659949135866388
 30
0.0
 10
73.59109263628846
 20
6.593278907671439
 30
0.0
 10
65.37646207581866
 20
6.593278907671439
 30
0.0
  0
LINE
  5
1C0
330
70
100
AcDbEntity
  8
0
 62
    18
420
        0
370
    25
100
AcDbLine
 10
80.25036636361914
 20
-29.53062558585608
 30
0.0
 11
80.25036636361914
 21
-8.280625362356527
 31
0.0
  0
SPLINE
  5
1C1
330
70
100
AcDbEntity
  8
0
 62
    18
420
        0
370
    25
100
AcDbSpline
210
0.0
220
0.0
230
1.0
 70
     8
 71
     3
 72
     8
 73
     4
 74
     0
 42
0.0000000001
 43
0.0000000001
 40
0.0
 40
0.0
 40
0.0
 40
0.0
 40
1.0
 40
1.0
 40
1.0
 40
1.0
 10
34.62427083927486
 20
-29.53062547405607
 30
0.0
 10
34.62427083927486
 20
-34.77854078397553
 30
0.0
 10
38.8785467658999
 20
-39.03281671060057
 30
0.0
 10
44.12646207581904
 20
-39.03281671060057
 30
0.0
  0
LINE
  5
1C2
330
70
100
AcDbEntity
  8
0
 62
    18
420
        0
370
    25
100
AcDbLine
 10
65.37646218751922
 20
-39.03281761375668
 30
0.0
 11
44.12646196401902
 21
-39.03281761375668
 31
0.0
  0
SPLINE
  5
1C3
330
70
100
AcDbEntity
  8
0
 62
    18
420
        0
370
    25
100
AcDbSpline
210
0.0
220
0.0
230
1.0
 70
     8
 71
     3
 72
     8
 73
     4
 74
     0
 42
0.0000000001
 43
0.0000000001
 40
0.0
 40
0.0
 40
0.0
 40
0.0
 40
1.0
 40
1.0
 40
1.0
 40
1.0
 10
65.37646207581866
 20
-39.03281671060057
 30
0.0
 10
70.62437738573812
 20
-39.03281671060057
 30
0.0
 10
74.87865331236317
 20
-34.77854078397553
 30
0.0
 10
74.87865331236317
 20
-29.53062547405607
 30
0.0
  0
LINE
  5
1C4
330
70
100
AcDbEntity
  8
0
 62
    18
420
        0
370
    25
100
AcDbLine
 10
74.87865421541918
 20
-8.280625362356527
 30
0.0
 11
74.87865421541918
 21
-29.53062558585608
 31
0.0
  0
SPLINE
  5
1C5
330
70
100
AcDbEntity
  8
0
 62
    18
420
        0
370
    25
100
AcDbSpline
210
0.0
220
0.0
230
1.0
 70
     8
 71
     3
 72
     8
 73
     4
 74
     0
 42
0.0000000001
 43
0.0000000001
 40
0.0
 40
0.0
 40
0.0
 40
0.0
 40
1.0
 40
1.0
 40
1.0
 40
1.0
 10
74.87865331236317
 20
-8.280625474056439
 30
0.0
 10
74.87865331236317
 20
-3.032710164136973
 30
0.0
 10
70.62437738573812
 20
1.221565762488067
 30
0.0
 10
65.37646207581866
 20
1.221565762488067
 30
0.0
  0
LINE
  5
1C6
330
70
100
AcDbEntity
  8
0
 62
    18
420
        0
370
    25
100
AcDbLine
 10
44.12646196401902
 20
1.221566665543424
 30
0.0
 11
65.37646218751922
 21
1.221566665543424
 31
0.0
  0
SPLINE
  5
1C7
330
70
100
AcDbEntity
  8
0
 62
    18
420
        0
370
    25
100
AcDbSpline
210
0.0
220
0.0
230
1.0
 70
     8
 71
     3
 72
     8
 73
     4
 74
     0
 42
0.0000000001
 43
0.0000000001
 40
0.0
 40
0.0
 40
0.0
 40
0.0
 40
1.0
 40
1.0
 40
1.0
 40
1.0
 10
44.12646207581904
 20
1.221565762488067
 30
0.0
 10
38.8785467658999
 20
1.221565762488067
 30
0.0
 10
34.62427083927486
 20
-3.032710164136973
 30
0.0
 10
34.62427083927486
 20
-8.280625474056439
 30
0.0
  0
LINE
  5
1C8
330
70
100
AcDbEntity
  8
0
 62
    18
420
        0
370
    25
100
AcDbLine
 10
34.62426993611907
 20
-29.53062558585608
 30
0.0
 11
34.62426993611907
 21
-8.280625362356527
 31
0.0
  0
SPLINE
  5
1C9
330
70
100
AcDbEntity
  8
0
 62
    18
420
        0
370
    25
100
AcDbSpline
210
0.0
220
0.0
230
1.0
 70
     8
 71
     3
 72
     8
 73
     4
 74
     0
 42
0.0000000001
 43
0.0000000001
 40
0.0
 40
0.0
 40
0.0
 40
0.0
 40
1.0
 40
1.0
 40
1.0
 40
1.0
 10
44.12646207581904
 20
6.718274148054671
 30
0.0
 10
35.84279855028441
 20
6.718274148054671
 30
0.0
 10
29.12756245370825
 20
0.0030380514785049
 30
0.0
 10
29.12756245370825
 20
-8.280625474056439
 30
0.0
  0
LINE
  5
1CA
330
70
100
AcDbEntity
  8
0
 62
    18
420
        0
370
    25
100
AcDbLine
 10
44.12646196401902
 20
6.718273479143743
 30
0.0
 11
44.12646196401902
 21
6.593278813743385
 31
0.0
  0
LINE
  5
1CB
330
70
100
AcDbEntity
  8
0
 62
    18
420
        0
370
    25
100
AcDbLine
 10
29.12756312261918
 20
-8.280625362356527
 30
0.0
 11
29.25255778801922
 21
-8.280625362356527
 31
0.0
  0
LINE
  5
1CC
330
70
100
AcDbEntity
  8
0
 62
    18
420
        0
370
    25
100
AcDbLine
 10
44.12646196401902
 20
0.9715754721438688
 30
0.0
 11
44.12646196401902
 21
1.221566665543424
 31
0.0
  0
SPLINE
  5
1CD
330
70
100
AcDbEntity
  8
0
 62
    18
420
        0
370
    25
100
AcDbSpline
210
0.0
220
0.0
230
1.0
 70
     8
 71
     3
 72
     8
 73
     4
 74
     0
 42
0.0000000001
 43
0.0000000001
 40
0.0
 40
0.0
 40
0.0
 40
0.0
 40
1.0
 40
1.0
 40
1.0
 40
1.0
 10
44.12646207581904
 20
0.971575281721604
 30
0.0
 10
39.01661269602986
 20
0.971575281721604
 30
0.0
 10
34.874261320041
 20
-3.170776094267261
 30
0.0
 10
34.874261320041
 20
-8.280625474056439
 30
0.0
  0
LINE
  5
1CE
330
70
100
AcDbEntity
  8
0
 62
    18
420
        0
370
    25
100
AcDbLine
 10
34.62426993611907
 20
-8.280625362356527
 30
0.0
 11
34.87426112961905
 21
-8.280625362356527
 31
0.0
  0
LINE
  5
1CF
330
70
100
AcDbEntity
  8
0
 62
    18
420
        0
370
    25
100
AcDbLine
 10
65.37646218751922
 20
6.718273479143743
 30
0.0
 11
65.37646218751922
 21
6.593278813743385
 31
0.0
  0
SPLINE
  5
1D0
330
70
100
AcDbEntity
  8
0
 62
    18
420
        0
370
    25
100
AcDbSpline
210
0.0
220
0.0
230
1.0
 70
     8
 71
     3
 72
     8
 73
     4
 74
     0
 42
0.0000000001
 43
0.0000000001
 40
0.0
 40
0.0
 40
0.0
 40
0.0
 40
1.0
 40
1.0
 40
1.0
 40
1.0
 10
80.37536169793041
 20
-8.280625474056439
 30
0.0
 10
80.37536169793041
 20
0.0030380514785049
 30
0.0
 10
73.66012560135361
 20
6.718274148054671
 30
0.0
 10
65.37646207581866
 20
6.718274148054671
 30
0.0
  0
LINE
  5
1D1
330
70
100
AcDbEntity
  8
0
 62
    18
420
        0
370
    25
100
AcDbLine
 10
80.25036636361914
 20
-8.280625362356527
 30
0.0
 11
80.37536102901949
 21
-8.280625362356527
 31
0.0
  0
LINE
  5
1D2
330
70
100
AcDbEntity
  8
0
 62
    18
420
        0
370
    25
100
AcDbLine
 10
44.12646196401902
 20
6.718273479143743
 30
0.0
 11
65.37646218751922
 21
6.718273479143743
 31
0.0
  0
LINE
  5
1D3
330
70
100
AcDbEntity
  8
0
 62
    18
420
        0
370
    25
100
AcDbLine
 10
29.12756312261918
 20
-29.53062558585608
 30
0.0
 11
29.25255778801922
 21
-29.53062558585608
 31
0.0
  0
LINE
  5
1D4
330
70
100
AcDbEntity
  8
0
 62
    18
420
        0
370
    25
100
AcDbLine
 10
29.12756312261918
 20
-29.53062558585608
 30
0.0
 11
29.12756312261918
 21
-8.280625362356527
 31
0.0
  0
LINE
  5
1D5
330
70
100
AcDbEntity
  8
0
 62
    18
420
        0
370
    25
100
AcDbLine
 10
65.37646218751922
 20
0.9715754721438688
 30
0.0
 11
44.12646196401902
 21
0.9715754721438688
 31
0.0
  0
LINE
  5
1D6
330
70
100
AcDbEntity
  8
0
 62
    18
420
        0
370
    25
100
AcDbLine
 10
65.37646218751922
 20
0.9715754721438688
 30
0.0
 11
65.37646218751922
 21
1.221566665543424
 31
0.0
  0
SPLINE
  5
1D7
330
70
100
AcDbEntity
  8
0
 62
    18
420
        0
370
    25
100
AcDbSpline
210
0.0
220
0.0
230
1.0
 70
     8
 71
     3
 72
     8
 73
     4
 74
     0
 42
0.0000000001
 43
0.0000000001
 40
0.0
 40
0.0
 40
0.0
 40
0.0
 40
1.0
 40
1.0
 40
1.0
 40
1.0
 10
74.62866283159671
 20
-8.280625474056439
 30
0.0
 10
74.62866283159671
 20
-3.170776094267261
 30
0.0
 10
70.48631145560785
 20
0.971575281721604
 30
0.0
 10
65.37646207581866
 20
0.971575281721604
 30
0.0
  0
LINE
  5
1D8
330
70
100
AcDbEntity
  8
0
 62
    18
420
        0
370
    25
100
AcDbLine
 10
74.62866302201897
 20
-8.280625362356527
 30
0.0
 11
74.87865421541918
 21
-8.280625362356527
 31
0.0
  0
LINE
  5
1D9
330
70
100
AcDbEntity
  8
0
 62
    18
420
        0
370
    25
100
AcDbLine
 10
34.87426112961905
 20
-8.280625362356527
 30
0.0
 11
34.87426112961905
 21
-29.53062558585608
 31
0.0
  0
LINE
  5
1DA
330
70
100
AcDbEntity
  8
0
 62
    18
420
        0
370
    25
100
AcDbLine
 10
34.62426993611907
 20
-29.53062558585608
 30
0.0
 11
34.87426112961905
 21
-29.53062558585608
 31
0.0
  0
LINE
  5
1DB
330
70
100
AcDbEntity
  8
0
 62
    18
420
        0
370
    25
100
AcDbLine
 10
74.62866302201897
 20
-29.53062558585608
 30
0.0
 11
74.87865421541918
 21
-29.53062558585608
 31
0.0
  0
LINE
  5
1DC
330
70
100
AcDbEntity
  8
0
 62
    18
420
        0
370
    25
100
AcDbLine
 10
74.62866302201897
 20
-29.53062558585608
 30
0.0
 11
74.62866302201897
 21
-8.280625362356527
 31
0.0
  0
LINE
  5
1DD
330
70
100
AcDbEntity
  8
0
 62
    18
420
        0
370
    25
100
AcDbLine
 10
80.37536102901949
 20
-8.280625362356527
 30
0.0
 11
80.37536102901949
 21
-29.53062558585608
 31
0.0
  0
LINE
  5
1DE
330
70
100
AcDbEntity
  8
0
 62
    18
420
        0
370
    25
100
AcDbLine
 10
80.25036636361914
 20
-29.53062558585608
 30
0.0
 11
80.37536102901949
 21
-29.53062558585608
 31
0.0
  0
SPLINE
  5
1DF
330
70
100
AcDbEntity
  8
0
 62
    18
420
        0
370
    25
100
AcDbSpline
210
0.0
220
0.0
230
1.0
 70
     8
 71
     3
 72
     8
 73
     4
 74
     0
 42
0.0000000001
 43
0.0000000001
 40
0.0
 40
0.0
 40
0.0
 40
0.0
 40
1.0
 40
1.0
 40
1.0
 40
1.0
 10
34.874261320041
 20
-29.53062547405607
 30
0.0
 10
34.874261320041
 20
-34.64047485384524
 30
0.0
 10
39.01661269602986
 20
-38.78282622983475
 30
0.0
 10
44.12646207581904
 20
-38.78282622983475
 30
0.0
  0
LINE
  5
1E0
330
70
100
AcDbEntity
  8
0
 62
    18
420
        0
370
    25
100
AcDbLine
 10
44.12646196401902
 20
-39.03281761375668
 30
0.0
 11
44.12646196401902
 21
-38.78282642035648
 31
0.0
  0
LINE
  5
1E1
330
70
100
AcDbEntity
  8
0
 62
    18
420
        0
370
    25
100
AcDbLine
 10
44.12646196401902
 20
-44.40452976195664
 30
0.0
 11
44.12646196401902
 21
-44.52952442725624
 31
0.0
  0
SPLINE
  5
1E2
330
70
100
AcDbEntity
  8
0
 62
    18
420
        0
370
    25
100
AcDbSpline
210
0.0
220
0.0
230
1.0
 70
     8
 71
     3
 72
     8
 73
     4
 74
     0
 42
0.0000000001
 43
0.0000000001
 40
0.0
 40
0.0
 40
0.0
 40
0.0
 40
1.0
 40
1.0
 40
1.0
 40
1.0
 10
29.12756245370825
 20
-29.53062547405607
 30
0.0
 10
29.12756245370825
 20
-37.81428899959101
 30
0.0
 10
35.84279855028441
 20
-44.52952509616717
 30
0.0
 10
44.12646207581904
 20
-44.52952509616717
 30
0.0
  0
LINE
  5
1E3
330
70
100
AcDbEntity
  8
0
 62
    18
420
        0
370
    25
100
AcDbLine
 10
65.37646218751922
 20
-39.03281761375668
 30
0.0
 11
65.37646218751922
 21
-38.78282642035648
 31
0.0
  0
SPLINE
  5
1E4
330
70
100
AcDbEntity
  8
0
 62
    18
420
        0
370
    25
100
AcDbSpline
210
0.0
220
0.0
230
1.0
 70
     8
 71
     3
 72
     8
 73
     4
 74
     0
 42
0.0000000001
 43
0.0000000001
 40
0.0
 40
0.0
 40
0.0
 40
0.0
 40
1.0
 40
1.0
 40
1.0
 40
1.0
 10
65.37646207581866
 20
-38.78282622983411
 30
0.0
 10
70.48631145560785
 20
-38.78282622983411
 30
0.0
 10
74.62866283159671
 20
-34.64047485384524
 30
0.0
 10
74.62866283159671
 20
-29.53062547405607
 30
0.0
  0
SPLINE
  5
1E5
330
70
100
AcDbEntity
  8
0
 62
    18
420
        0
370
    25
100
AcDbSpline
210
0.0
220
0.0
230
1.0
 70
     8
 71
     3
 72
     8
 73
     4
 74
     0
 42
0.0000000001
 43
0.0000000001
 40
0.0
 40
0.0
 40
0.0
 40
0.0
 40
1.0
 40
1.0
 40
1.0
 40
1.0
 10
65.37646207581866
 20
-44.52952509616717
 30
0.0
 10
73.66012560135361
 20
-44.52952509616717
 30
0.0
 10
80.37536169793041
 20
-37.81428899959101
 30
0.0
 10
80.37536169793041
 20
-29.53062547405607
 30
0.0
  0
LINE
  5
1E6
330
70
100
AcDbEntity
  8
0
 62
    18
420
        0
370
    25
100
AcDbLine
 10
65.37646218751922
 20
-44.40452976195664
 30
0.0
 11
65.37646218751922
 21
-44.52952442725624
 31
0.0
  0
LINE
  5
1E7
330
70
100
AcDbEntity
  8
0
 62
    18
420
        0
370
    25
100
AcDbLine
 10
44.12646196401902
 20
-38.78282642035648
 30
0.0
 11
65.37646218751922
 21
-38.78282642035648
 31
0.0
  0
LINE
  5
1E8
330
70
100
AcDbEntity
  8
0
 62
    18
420
        0
370
    25
100
AcDbLine
 10
65.37646218751922
 20
-44.52952442725624
 30
0.0
 11
44.12646196401902
 21
-44.52952442725624
 31
0.0
  0
LINE
  5
1E9
330
70
100
AcDbEntity
  8
0
 62
    18
420
        0
370
    25
100
AcDbLine
 10
44.12646196401902
 20
0.9715754721438688
 30
0.0
 11
44.12646196401902
 21
0.9399309936436065
 31
0.0
  0
SPLINE
  5
1EA
330
70
100
AcDbEntity
  8
0
 62
    18
420
        0
370
    25
100
AcDbSpline
210
0.0
220
0.0
230
1.0
 70
     8
 71
     3
 72
     8
 73
     4
 74
     0
 42
0.0000000001
 43
0.0000000001
 40
0.0
 40
0.0
 40
0.0
 40
0.0
 40
1.0
 40
1.0
 40
1.0
 40
1.0
 10
44.12646207581904
 20
0.9399308665647371
 30
0.0
 10
39.03408942393833
 20
0.9399308665647371
 30
0.0
 10
34.90590573519786
 20
-3.188252822175412
 30
0.0
 10
34.90590573519786
 20
-8.280625474056439
 30
0.0
  0
LINE
  5
1EB
330
70
100
AcDbEntity
  8
0
 62
    18
420
        0
370
    25
100
AcDbLine
 10
34.87426112961905
 20
-8.280625362356527
 30
0.0
 11
34.90590560801921
 21
-8.280625362356527
 31
0.0
  0
LINE
  5
1EC
330
70
100
AcDbEntity
  8
0
 62
    18
420
        0
370
    25
100
AcDbLine
 10
65.37646218751922
 20
0.9715754721438688
 30
0.0
 11
65.37646218751922
 21
0.9399309936436065
 31
0.0
  0
LINE
  5
1ED
330
70
100
AcDbEntity
  8
0
 62
    18
420
        0
370
    25
100
AcDbLine
 10
44.12646196401902
 20
0.9399309936436065
 30
0.0
 11
65.37646218751922
 21
0.9399309936436065
 31
0.0
  0
LINE
  5
1EE
330
70
100
AcDbEntity
  8
0
 62
    18
420
        0
370
    25
100
AcDbLine
 10
74.62866302201897
 20
-8.280625362356527
 30
0.0
 11
74.59701854351935
 21
-8.280625362356527
 31
0.0
  0
SPLINE
  5
1EF
330
70
100
AcDbEntity
  8
0
 62
    18
420
        0
370
    25
100
AcDbSpline
210
0.0
220
0.0
230
1.0
 70
     8
 71
     3
 72
     8
 73
     4
 74
     0
 42
0.0000000001
 43
0.0000000001
 40
0.0
 40
0.0
 40
0.0
 40
0.0
 40
1.0
 40
1.0
 40
1.0
 40
1.0
 10
74.59701841644047
 20
-8.280625474056439
 30
0.0
 10
74.59701841644047
 20
-3.188252822175412
 30
0.0
 10
70.46883472770034
 20
0.9399308665647371
 30
0.0
 10
65.37646207581866
 20
0.9399308665647371
 30
0.0
  0
SPLINE
  5
1F0
330
70
100
AcDbEntity
  8
0
 62
    18
420
        0
370
    25
100
AcDbSpline
210
0.0
220
0.0
230
1.0
 70
     8
 71
     3
 72
     8
 73
     4
 74
     0
 42
0.0000000001
 43
0.0000000001
 40
0.0
 40
0.0
 40
0.0
 40
0.0
 40
1.0
 40
1.0
 40
1.0
 40
1.0
 10
34.88081577782929
 20
-15.1556255578949
 30
0.0
 10
34.87522903125404
 20
-15.40559430952742
 30
0.0
 10
34.87522903125404
 20
-15.6556566963854
 30
0.0
 10
34.88081577782929
 20
-15.90562544801792
 30
0.0
  0
LINE
  5
1F1
330
70
100
AcDbEntity
  8
0
 62
    18
420
        0
370
    25
100
AcDbLine
 10
34.90590560801921
 20
-15.90562544805642
 30
0.0
 11
34.88081577781902
 21
-15.90562544805642
 31
0.0
  0
LINE
  5
1F2
330
70
100
AcDbEntity
  8
0
 62
    18
420
        0
370
    25
100
AcDbLine
 10
34.90590560801921
 20
-18.29990112965613
 30
0.0
 11
34.90590560801921
 21
-15.90562544805642
 31
0.0
  0
LINE
  5
1F3
330
70
100
AcDbEntity
  8
0
 62
    18
420
        0
370
    25
100
AcDbLine
 10
34.90590560801921
 20
-18.29990112965613
 30
0.0
 11
34.88787892821896
 21
-18.48062546845605
 31
0.0
  0
LWPOLYLINE
  5
1F4
330
70
100
AcDbEntity
  8
0
 62
    18
420
        0
370
    25
100
AcDbPolyline
 90
       26
 70
     0
 43
0.0
 10
34.88787892821896
 20
-18.48062546845605
 10
34.88718788691905
 20
-18.43325572475603
 10
34.88643537821913
 20
-18.40045725035607
 10
34.88564561671913
 20
-18.38324175255628
 10
34.88484095401898
 20
-18.38214034715654
 10
34.88404746721894
 20
-18.39718696935624
 10
34.88328937061921
 20
-18.42791750015611
 10
34.88258901601899
 20
-18.47338394065646
 10
34.88196875521915
 20
-18.53218383545643
 10
34.88144907721919
 20
-18.60250334645634
 10
34.88104302051905
 20
-18.68217332155633
 10
34.88076548641924
 20
-18.76873616055615
 10
34.88062578801923
 20
-18.85952164515609
 10
34.88062578801923
 20
-18.95172930305651
 10
34.88076548641924
 20
-19.04251478765646
 10
34.88104302051905
 20
-19.12907762665628
 10
34.88144907721919
 20
-19.20874760175626
 10
34.88196875521915
 20
-19.27906711275618
 10
34.88258901601899
 20
-19.33786700755615
 10
34.88328937061921
 20
-19.38333344805649
 10
34.88404746721894
 20
-19.41406397885636
 10
34.88484095401898
 20
-19.42911060105607
 10
34.88564561671913
 20
-19.42800919565633
 10
34.88643537821913
 20
-19.41079369785654
 10
34.88718788691905
 20
-19.37799522345657
 10
34.88787892821896
 20
-19.33062547975656
  0
LINE
  5
1F5
330
70
100
AcDbEntity
  8
0
 62
    18
420
        0
370
    25
100
AcDbLine
 10
34.88787892821896
 20
-19.33062547975656
 30
0.0
 11
34.90590560801921
 21
-19.51134981855648
 31
0.0
  0
LINE
  5
1F6
330
70
100
AcDbEntity
  8
0
 62
    18
420
        0
370
    25
100
AcDbLine
 10
34.90590560801921
 20
-21.90562550015618
 30
0.0
 11
34.90590560801921
 21
-19.51134981855648
 31
0.0
  0
LINE
  5
1F7
330
70
100
AcDbEntity
  8
0
 62
    18
420
        0
370
    25
100
AcDbLine
 10
34.88081577781902
 20
-21.90562550015618
 30
0.0
 11
34.90590560801921
 21
-21.90562550015618
 31
0.0
  0
SPLINE
  5
1F8
330
70
100
AcDbEntity
  8
0
 62
    18
420
        0
370
    25
100
AcDbSpline
210
0.0
220
0.0
230
1.0
 70
     8
 71
     3
 72
     8
 73
     4
 74
     0
 42
0.0000000001
 43
0.0000000001
 40
0.0
 40
0.0
 40
0.0
 40
0.0
 40
1.0
 40
1.0
 40
1.0
 40
1.0
 10
34.88081577782929
 20
-21.90562550019468
 30
0.0
 10
34.87522903125404
 20
-22.1555942518272
 30
0.0
 10
34.87522903125404
 20
-22.40565663868519
 30
0.0
 10
34.88081577782929
 20
-22.65562539031771
 30
0.0
  0
LINE
  5
1F9
330
70
100
AcDbEntity
  8
0
 62
    18
420
        0
370
    25
100
AcDbLine
 10
34.90590560801921
 20
-22.6556253902561
 30
0.0
 11
34.88081577781902
 21
-22.6556253902561
 31
0.0
  0
LINE
  5
1FA
330
70
100
AcDbEntity
  8
0
 62
    18
420
        0
370
    25
100
AcDbLine
 10
34.90590560801921
 20
-29.53062558585608
 30
0.0
 11
34.90590560801921
 21
-22.6556253902561
 31
0.0
  0
LINE
  5
1FB
330
70
100
AcDbEntity
  8
0
 62
    18
420
        0
370
    25
100
AcDbLine
 10
34.87426112961905
 20
-29.53062558585608
 30
0.0
 11
34.90590560801921
 21
-29.53062558585608
 31
0.0
  0
LINE
  5
1FC
330
70
100
AcDbEntity
  8
0
 62
    18
420
        0
370
    25
100
AcDbLine
 10
34.90590560801921
 20
-15.1556255579565
 30
0.0
 11
34.90590560801921
 21
-8.280625362356527
 31
0.0
  0
LINE
  5
1FD
330
70
100
AcDbEntity
  8
0
 62
    18
420
        0
370
    25
100
AcDbLine
 10
34.88081577781902
 20
-15.1556255579565
 30
0.0
 11
34.90590560801921
 21
-15.1556255579565
 31
0.0
  0
SPLINE
  5
1FE
330
70
100
AcDbEntity
  8
0
 62
    18
420
        0
370
    25
100
AcDbSpline
210
0.0
220
0.0
230
1.0
 70
     8
 71
     3
 72
     8
 73
     4
 74
     0
 42
0.0000000001
 43
0.0000000001
 40
0.0
 40
0.0
 40
0.0
 40
0.0
 40
1.0
 40
1.0
 40
1.0
 40
1.0
 10
74.6221083736852
 20
-15.90562544801022
 30
0.0
 10
74.62783449912035
 20
-15.65565827315866
 30
0.0
 10
74.62783449912035
 20
-15.40559273275416
 30
0.0
 10
74.6221083736852
 20
-15.1556255579026
 30
0.0
  0
LINE
  5
1FF
330
70
100
AcDbEntity
  8
0
 62
    18
420
        0
370
    25
100
AcDbLine
 10
74.59701854351935
 20
-15.1556255579565
 30
0.0
 11
74.62210837371921
 21
-15.1556255579565
 31
0.0
  0
LINE
  5
200
330
70
100
AcDbEntity
  8
0
 62
    18
420
        0
370
    25
100
AcDbLine
 10
74.59701854351935
 20
-8.280625362356527
 30
0.0
 11
74.59701854351935
 21
-15.1556255579565
 31
0.0
  0
LINE
  5
201
330
70
100
AcDbEntity
  8
0
 62
    18
420
        0
370
    25
100
AcDbLine
 10
74.62866302201897
 20
-29.53062558585608
 30
0.0
 11
74.59701854351935
 21
-29.53062558585608
 31
0.0
  0
LINE
  5
202
330
70
100
AcDbEntity
  8
0
 62
    18
420
        0
370
    25
100
AcDbLine
 10
74.59701854351935
 20
-22.6556253902561
 30
0.0
 11
74.59701854351935
 21
-29.53062558585608
 31
0.0
  0
LINE
  5
203
330
70
100
AcDbEntity
  8
0
 62
    18
420
        0
370
    25
100
AcDbLine
 10
74.62210837371921
 20
-22.6556253902561
 30
0.0
 11
74.59701854351935
 21
-22.6556253902561
 31
0.0
  0
SPLINE
  5
204
330
70
100
AcDbEntity
  8
0
 62
    18
420
        0
370
    25
100
AcDbSpline
210
0.0
220
0.0
230
1.0
 70
     8
 71
     3
 72
     8
 73
     4
 74
     0
 42
0.0000000001
 43
0.0000000001
 40
0.0
 40
0.0
 40
0.0
 40
0.0
 40
1.0
 40
1.0
 40
1.0
 40
1.0
 10
74.6221083736852
 20
-22.65562539031065
 30
0.0
 10
74.62783449912035
 20
-22.40565821545844
 30
0.0
 10
74.62783449912035
 20
-22.15559267505459
 30
0.0
 10
74.6221083736852
 20
-21.90562550020239
 30
0.0
  0
LINE
  5
205
330
70
100
AcDbEntity
  8
0
 62
    18
420
        0
370
    25
100
AcDbLine
 10
74.59701854351935
 20
-21.90562550015618
 30
0.0
 11
74.62210837371921
 21
-21.90562550015618
 31
0.0
  0
LINE
  5
206
330
70
100
AcDbEntity
  8
0
 62
    18
420
        0
370
    25
100
AcDbLine
 10
74.59701854351935
 20
-19.51134981855648
 30
0.0
 11
74.59701854351935
 21
-21.90562550015618
 31
0.0
  0
LINE
  5
207
330
70
100
AcDbEntity
  8
0
 62
    18
420
        0
370
    25
100
AcDbLine
 10
74.61504522331896
 20
-19.33062547975656
 30
0.0
 11
74.59701854351935
 21
-19.51134981855648
 31
0.0
  0
LWPOLYLINE
  5
208
330
70
100
AcDbEntity
  8
0
 62
    18
420
        0
370
    25
100
AcDbPolyline
 90
       26
 70
     0
 43
0.0
 10
74.61504522331896
 20
-18.48062546845605
 10
74.61573626461888
 20
-18.43325572475603
 10
74.61648877331879
 20
-18.40045725035607
 10
74.61727853481943
 20
-18.38324175255628
 10
74.61808319751894
 20
-18.38214034715654
 10
74.61887668441876
 20
-18.39718696935624
 10
74.61963478091904
 20
-18.42791750015611
 10
74.62033513551862
 20
-18.47338394065646
 10
74.62095539641921
 20
-18.53218383545643
 10
74.62147507431936
 20
-18.60250334645634
 10
74.62188113101952
 20
-18.68217332155633
 10
74.62215866511868
 20
-18.76873616055615
 10
74.62229836351935
 20
-18.85952164515609
 10
74.62229836351935
 20
-18.95172930305651
 10
74.62215866511868
 20
-19.04251478765646
 10
74.62188113101952
 20
-19.12907762665628
 10
74.62147507431936
 20
-19.20874760175626
 10
74.62095539641921
 20
-19.27906711275618
 10
74.62033513551862
 20
-19.33786700755615
 10
74.61963478091904
 20
-19.38333344805649
 10
74.61887668441876
 20
-19.41406397885636
 10
74.61808319751894
 20
-19.42911060105607
 10
74.61727853481943
 20
-19.42800919565633
 10
74.61648877331879
 20
-19.41079369785654
 10
74.61573626461888
 20
-19.37799522345657
 10
74.61504522331896
 20
-19.33062547975656
  0
LINE
  5
209
330
70
100
AcDbEntity
  8
0
 62
    18
420
        0
370
    25
100
AcDbLine
 10
74.59701854351935
 20
-18.29990112965613
 30
0.0
 11
74.61504522331896
 21
-18.48062546845605
 31
0.0
  0
LINE
  5
20A
330
70
100
AcDbEntity
  8
0
 62
    18
420
        0
370
    25
100
AcDbLine
 10
74.59701854351935
 20
-15.90562544805642
 30
0.0
 11
74.59701854351935
 21
-18.29990112965613
 31
0.0
  0
LINE
  5
20B
330
70
100
AcDbEntity
  8
0
 62
    18
420
        0
370
    25
100
AcDbLine
 10
74.62210837371921
 20
-15.90562544805642
 30
0.0
 11
74.59701854351935
 21
-15.90562544805642
 31
0.0
  0
SPLINE
  5
20C
330
70
100
AcDbEntity
  8
0
 62
    18
420
        0
370
    25
100
AcDbSpline
210
0.0
220
0.0
230
1.0
 70
     8
 71
     3
 72
     8
 73
     4
 74
     0
 42
0.0000000001
 43
0.0000000001
 40
0.0
 40
0.0
 40
0.0
 40
0.0
 40
1.0
 40
1.0
 40
1.0
 40
1.0
 10
34.90590573519786
 20
-29.53062547405607
 30
0.0
 10
34.90590573519754
 20
-34.62299812593709
 30
0.0
 10
39.03408942393833
 20
-38.75118181467789
 30
0.0
 10
44.12646207581904
 20
-38.75118181467789
 30
0.0
  0
LINE
  5
20D
330
70
100
AcDbEntity
  8
0
 62
    18
420
        0
370
    25
100
AcDbLine
 10
44.12646196401902
 20
-38.78282642035648
 30
0.0
 11
44.12646196401902
 21
-38.75118194185622
 31
0.0
  0
LINE
  5
20E
330
70
100
AcDbEntity
  8
0
 62
    18
420
        0
370
    25
100
AcDbLine
 10
65.37646218751922
 20
-38.78282642035648
 30
0.0
 11
65.37646218751922
 21
-38.75118194185622
 31
0.0
  0
SPLINE
  5
20F
330
70
100
AcDbEntity
  8
0
 62
    18
420
        0
370
    25
100
AcDbSpline
210
0.0
220
0.0
230
1.0
 70
     8
 71
     3
 72
     8
 73
     4
 74
     0
 42
0.0000000001
 43
0.0000000001
 40
0.0
 40
0.0
 40
0.0
 40
0.0
 40
1.0
 40
1.0
 40
1.0
 40
1.0
 10
65.37646207581866
 20
-38.75118181467789
 30
0.0
 10
70.46883472770034
 20
-38.75118181467789
 30
0.0
 10
74.59701841644047
 20
-34.62299812593709
 30
0.0
 10
74.59701841644047
 20
-29.53062547405607
 30
0.0
  0
LINE
  5
210
330
70
100
AcDbEntity
  8
0
 62
    18
420
        0
370
    25
100
AcDbLine
 10
65.37646218751922
 20
-38.75118194185622
 30
0.0
 11
44.12646196401902
 21
-38.75118194185622
 31
0.0
  0
LINE
  5
211
330
70
100
AcDbEntity
  8
0
 62
    18
420
        0
370
    25
100
AcDbLine
 10
34.88249960901909
 20
-19.33062547975656
 30
0.0
 11
34.88787892821896
 21
-19.33062547975656
 31
0.0
  0
LINE
  5
212
330
70
100
AcDbEntity
  8
0
 62
    18
420
        0
370
    25
100
AcDbLine
 10
34.88249960901909
 20
-18.48062546845605
 30
0.0
 11
34.88787892821896
 21
-18.48062546845605
 31
0.0
  0
LINE
  5
213
330
70
100
AcDbEntity
  8
0
 62
    18
420
        0
370
    25
100
AcDbLine
 10
74.62042454251916
 20
-19.33062547975656
 30
0.0
 11
74.61504522331896
 21
-19.33062547975656
 31
0.0
  0
LINE
  5
214
330
70
100
AcDbEntity
  8
0
 62
    18
420
        0
370
    25
100
AcDbLine
 10
74.62042454251916
 20
-18.48062546845605
 30
0.0
 11
74.61504522331896
 21
-18.48062546845605
 31
0.0
  0
SPLINE
  5
215
330
70
100
AcDbEntity
  8
0
 62
    18
420
        0
370
    25
100
AcDbSpline
210
0.0
220
0.0
230
1.0
 70
     8
 71
     3
 72
     8
 73
     4
 74
     0
 42
0.0000000001
 43
0.0000000001
 40
0.0
 40
0.0
 40
0.0
 40
0.0
 40
1.0
 40
1.0
 40
1.0
 40
1.0
 10
74.62218474212875
 20
-15.83040205800586
 30
0.0
 10
74.60585162787968
 20
-15.85207928118435
 30
0.0
 10
74.59701794316498
 20
-15.87848373426624
 30
0.0
 10
74.59701854351678
 20
-15.90562544801921
 30
0.0
  0
SPLINE
  5
216
330
70
100
AcDbEntity
  8
0
 62
    18
420
        0
370
    25
100
AcDbSpline
210
0.0
220
0.0
230
1.0
 70
     8
 71
     3
 72
     8
 73
     4
 74
     0
 42
0.0000000001
 43
0.0000000001
 40
0.0
 40
0.0
 40
0.0
 40
0.0
 40
1.0
 40
1.0
 40
1.0
 40
1.0
 10
34.88073940940981
 20
-21.98084889020675
 30
0.0
 10
34.89707252365889
 20
-21.95917166702825
 30
0.0
 10
34.90590620837262
 20
-21.93276721394636
 30
0.0
 10
34.90590560802114
 20
-21.9056255001934
 30
0.0
  0
SPLINE
  5
217
330
70
100
AcDbEntity
  8
0
 62
    18
420
        0
370
    25
100
AcDbSpline
210
0.0
220
0.0
230
1.0
 70
     8
 71
     3
 72
     8
 73
     4
 74
     0
 42
0.0000000001
 43
0.0000000001
 40
0.0
 40
0.0
 40
0.0
 40
0.0
 40
1.0
 40
1.0
 40
1.0
 40
1.0
 10
74.62199661504425
 20
-22.58065392305585
 30
0.0
 10
74.60578089273103
 20
-22.60228501990505
 30
0.0
 10
74.59701656353257
 20
-22.62859107883285
 30
0.0
 10
74.59701854359315
 20
-22.65562539031193
 30
0.0
  0
SPLINE
  5
218
330
70
100
AcDbEntity
  8
0
 62
    18
420
        0
370
    25
100
AcDbSpline
210
0.0
220
0.0
230
1.0
 70
     8
 71
     3
 72
     8
 73
     4
 74
     0
 42
0.0000000001
 43
0.0000000001
 40
0.0
 40
0.0
 40
0.0
 40
0.0
 40
1.0
 40
1.0
 40
1.0
 40
1.0
 10
74.59701854359251
 20
-21.90562550020175
 30
0.0
 10
74.59701746659435
 20
-21.93279040899684
 30
0.0
 10
74.60586635621121
 20
-21.95921619271886
 30
0.0
 10
74.62222572039732
 20
-21.98090267409366
 30
0.0
  0
LINE
  5
219
330
70
100
AcDbEntity
  8
0
 62
     8
420
  8421504
370
    25
100
AcDbLine
 10
34.88081577781902
 20
-15.1556255579565
 30
0.0
 11
34.88017502791922
 21
-15.16827710945641
 31
0.0
  0
LINE
  5
21A
330
70
100
AcDbEntity
  8
0
 62
     8
420
  8421504
370
    25
100
AcDbLine
 10
74.62210837371921
 20
-15.1556255579565
 30
0.0
 11
74.62265412871928
 21
-15.16729805655648
 31
0.0
  0
LINE
  5
21B
330
70
100
AcDbEntity
  8
0
 62
     8
420
  8421504
370
    25
100
AcDbLine
 10
74.62265599141886
 20
-21.91731383135613
 30
0.0
 11
74.62210837371921
 21
-21.90562550015618
 31
0.0
  0
LINE
  5
21C
330
70
100
AcDbEntity
  8
0
 62
     8
420
  8421504
370
    25
100
AcDbLine
 10
74.62274912361903
 20
-22.64297663275617
 30
0.0
 11
74.62210837371921
 21
-22.6556253902561
 31
0.0
  0
LINE
  5
21D
330
70
100
AcDbEntity
  8
0
 62
     8
420
  8421504
370
    25
100
AcDbLine
 10
34.88017502791922
 20
-21.91827449055629
 30
0.0
 11
34.88081577781902
 21
-21.90562550015618
 31
0.0
  0
SPLINE
  5
21E
330
70
100
AcDbEntity
  8
0
 62
     8
420
  8421504
370
    25
100
AcDbSpline
210
0.0
220
0.0
230
1.0
 70
     8
 71
     3
 72
     8
 73
     4
 74
     0
 42
0.0000000001
 43
0.0000000001
 40
0.0
 40
0.0
 40
0.0
 40
0.0
 40
1.0
 40
1.0
 40
1.0
 40
1.0
 10
34.88092753659377
 20
-15.2305970251574
 30
0.0
 10
34.89714325890699
 20
-15.20896592830755
 30
0.0
 10
34.90590758810512
 20
-15.18265986937976
 30
0.0
 10
34.90590560804488
 20
-15.15562555790067
 30
0.0
  0
SPLINE
  5
21F
330
70
100
AcDbEntity
  8
0
 62
     8
420
  8421504
370
    25
100
AcDbSpline
210
0.0
220
0.0
230
1.0
 70
     8
 71
     3
 72
     8
 73
     4
 74
     0
 42
0.0000000001
 43
0.0000000001
 40
0.0
 40
0.0
 40
0.0
 40
0.0
 40
1.0
 40
1.0
 40
1.0
 40
1.0
 10
34.9059056080436
 20
-15.90562544803332
 30
0.0
 10
34.90590637479117
 20
-15.87856860145657
 30
0.0
 10
34.89712773646391
 20
-15.85224200041998
 30
0.0
 10
34.88088842104435
 20
-15.83060042972889
 30
0.0
  0
SPLINE
  5
220
330
70
100
AcDbEntity
  8
0
 62
     8
420
  8421504
370
    25
100
AcDbSpline
210
0.0
220
0.0
230
1.0
 70
     8
 71
     3
 72
     8
 73
     4
 74
     0
 42
0.0000000001
 43
0.0000000001
 40
0.0
 40
0.0
 40
0.0
 40
0.0
 40
1.0
 40
1.0
 40
1.0
 40
1.0
 10
74.59701854359507
 20
-15.1556255578795
 30
0.0
 10
74.59701777684685
 20
-15.18268240445626
 30
0.0
 10
74.60579641517412
 20
-15.20900900549284
 30
0.0
 10
74.62203573059399
 20
-15.23065057618393
 30
0.0
  0
SPLINE
  5
221
330
70
100
AcDbEntity
  8
0
 62
     8
420
  8421504
370
    25
100
AcDbSpline
210
0.0
220
0.0
230
1.0
 70
     8
 71
     3
 72
     8
 73
     4
 74
     0
 42
0.0000000001
 43
0.0000000001
 40
0.0
 40
0.0
 40
0.0
 40
0.0
 40
1.0
 40
1.0
 40
1.0
 40
1.0
 10
34.90590560804552
 20
-22.65562539031065
 30
0.0
 10
34.90590668504399
 20
-22.62846048151555
 30
0.0
 10
34.89705779542682
 20
-22.60203469779418
 30
0.0
 10
34.88069843124069
 20
-22.58034821641873
 30
0.0
  0
LINE
  5
222
330
70
100
AcDbEntity
  8
0
 62
    18
420
        0
370
    25
100
AcDbLine
 10
179.3045299257188
 20
-58.51057567975614
 30
0.0
 11
179.3045299257188
 21
-58.25914634715664
 31
0.0
  0
LINE
  5
223
330
70
100
AcDbEntity
  8
0
 62
    18
420
        0
370
    25
100
AcDbLine
 10
127.5342612013192
 20
-58.25914634715664
 30
0.0
 11
127.5342612013192
 21
-58.51057567975614
 31
0.0
  0
LWPOLYLINE
  5
224
330
70
100
AcDbEntity
  8
0
 62
    18
420
        0
370
    25
100
AcDbPolyline
 90
       11
 70
     0
 43
0.0
 10
177.2757472501188
 20
8.222392917443729
 10
177.2814713190189
 20
8.36377123714395
 10
177.2229543711188
 20
8.86823349494389
 10
177.0870400043192
 20
9.364051681543369
 10
176.8751111620188
 20
9.848258693143881
 10
176.588126026519
 20
10.31801718704373
 10
176.227378637719
 20
10.7697516399439
 10
175.7952792686191
 20
11.19914793724393
 10
175.2956797460192
 20
11.60164528334389
 10
174.7620038378188
 20
11.95592301074346
 10
174.6174138057191
 20
12.04138115504368
  0
LWPOLYLINE
  5
225
330
70
100
AcDbEntity
  8
0
 62
    18
420
        0
370
    25
100
AcDbPolyline
 90
       10
 70
     0
 43
0.0
 10
132.221377321319
 20
12.04138115504368
 10
131.9097000595188
 20
11.8519451316437
 10
131.3642967907188
 20
11.46678358744376
 10
130.8812221254189
 20
11.04865372514335
 10
130.4664892335192
 20
10.60136128354357
 10
130.1252874458189
 20
10.12944842314382
 10
129.8619341799192
 20
9.638600939343492
 10
129.679201908419
 20
9.135404251443652
 10
129.5779269827192
 20
8.626477384143546
 10
129.5630438768191
 20
8.258953669743345
  0
LINE
  5
226
330
70
100
AcDbEntity
  8
0
 62
    18
420
        0
370
    25
100
AcDbLine
 10
177.2838025666191
 20
6.918921867943787
 30
0.0
 11
177.2838025666191
 21
8.240673293543805
 31
0.0
  0
LINE
  5
227
330
70
100
AcDbEntity
  8
0
 62
    18
420
        0
370
    25
100
AcDbLine
 10
129.5549885604189
 20
8.240673293543805
 30
0.0
 11
129.5549885604189
 21
6.921245842543731
 31
0.0
  0
LINE
  5
228
330
70
100
AcDbEntity
  8
0
 62
    18
420
        0
370
    25
100
AcDbLine
 10
174.6174138057191
 20
12.04138115504368
 30
0.0
 11
159.5030060206194
 21
20.7667430447438
 31
0.0
  0
LINE
  5
229
330
70
100
AcDbEntity
  8
0
 62
    18
420
        0
370
    25
100
AcDbLine
 10
147.3357851063192
 20
20.7667430447438
 30
0.0
 11
132.221377321319
 21
12.04138115504368
 31
0.0
  0
LWPOLYLINE
  5
22A
330
70
100
AcDbEntity
  8
0
 62
    18
420
        0
370
    25
100
AcDbPolyline
 90
       18
 70
     0
 43
0.0
 10
159.5030060206194
 20
20.7667430447438
 10
159.176400871919
 20
20.94584286034361
 10
158.520788204019
 20
21.25529817104366
 10
157.8198768937193
 20
21.52509454644375
 10
157.0801035548191
 20
21.75328027074392
 10
156.3081655851193
 20
21.93820318094335
 10
155.5109322623191
 20
22.07854526954345
 10
154.695432231919
 20
22.1733131818437
 10
153.868813994619
 20
22.22182757144371
 10
153.038306393419
 20
22.22374743514376
 10
152.2111560521193
 20
22.17906821174385
 10
151.3946622781188
 20
22.08811987984376
 10
150.5959399861188
 20
21.95157000134388
 10
149.8219420892192
 20
21.77037885614376
 10
149.079419985619
 20
21.5458100906436
 10
148.3748833877188
 20
21.27936950144357
 10
147.7145871513189
 20
20.97280503544336
 10
147.3357851063192
 20
20.7667430447438
  0
LINE
  5
22B
330
70
100
AcDbEntity
  8
0
 62
    18
420
        0
370
    25
100
AcDbLine
 10
183.4454136694192
 20
-52.28541385215653
 30
0.0
 11
183.4454136694192
 21
7.52620319804395
 31
0.0
  0
LINE
  5
22C
330
70
100
AcDbEntity
  8
0
 62
    18
420
        0
370
    25
100
AcDbLine
 10
123.3933774575193
 20
7.52620319804395
 30
0.0
 11
123.3933774575193
 21
-52.28541385215653
 31
0.0
  0
LWPOLYLINE
  5
22D
330
70
100
AcDbEntity
  8
0
 62
    18
420
        0
370
    25
100
AcDbPolyline
 90
       19
 70
     0
 43
0.0
 10
160.013469552019
 20
-3.891848105556513
 10
159.6927452057191
 20
-4.068326890256524
 10
159.040817094419
 20
-4.380067058756104
 10
158.3404036437189
 20
-4.656943187856221
 10
157.5976036343192
 20
-4.896278470356254
 10
156.8187272396188
 20
-5.09584737055667
 10
156.0104521010187
 20
-5.253773351256266
 10
155.1797298143189
 20
-5.368573737856233
 10
154.3337319292191
 20
-5.439177204356101
 10
153.4797696069192
 20
-5.464912365256451
 10
152.6252290824191
 20
-5.445535911056072
 10
151.7775216158193
 20
-5.381218919056411
 10
150.9440057833193
 20
-5.27255369745657
 10
150.1319005499193
 20
-5.120564433256062
 10
149.3482352195191
 20
-4.926669170156372
 10
148.5997842397193
 20
-4.69270148405656
 10
147.893000688019
 20
-4.420891854156045
 10
147.2339458080192
 20
-4.113837629156384
 10
146.825321575019
 20
-3.891848105556513
  0
LINE
  5
22E
330
70
100
AcDbEntity
  8
0
 62
    18
420
        0
370
    25
100
AcDbLine
 10
175.0394888103188
 20
4.782488173743816
 30
0.0
 11
160.013469552019
 21
-3.891848105556513
 31
0.0
  0
LINE
  5
22F
330
70
100
AcDbEntity
  8
0
 62
    18
420
        0
370
    25
100
AcDbLine
 10
146.825321575019
 20
-3.891848105556513
 30
0.0
 11
131.7993023167192
 21
4.782488173743816
 31
0.0
  0
LWPOLYLINE
  5
230
330
70
100
AcDbEntity
  8
0
 62
    18
420
        0
370
    25
100
AcDbPolyline
 90
        3
 70
     0
 43
0.0
 10
179.495213463619
 20
14.43531156694395
 10
179.180596459119
 20
14.63576686854346
 10
179.0253478841193
 20
14.72672064494354
  0
LWPOLYLINE
  5
231
330
70
100
AcDbEntity
  8
0
 62
    18
420
        0
370
    25
100
AcDbPolyline
 90
        3
 70
     0
 43
0.0
 10
127.8134432429188
 20
14.72672064494354
 10
127.4145924689193
 20
14.48746938194363
 10
127.0903053968193
 20
14.2699626853434
  0
LINE
  5
232
330
70
100
AcDbEntity
  8
0
 62
    18
420
        0
370
    25
100
AcDbLine
 10
183.436402146419
 20
7.779006472243712
 30
0.0
 11
183.4440294088191
 21
8.492561735243517
 31
0.0
  0
LINE
  5
233
330
70
100
AcDbEntity
  8
0
 62
    18
420
        0
370
    25
100
AcDbLine
 10
123.3947617181188
 20
8.492561735243517
 30
0.0
 11
123.402388980619
 21
7.779006472243712
 31
0.0
  0
SPLINE
  5
234
330
70
100
AcDbEntity
  8
0
 62
    18
420
        0
370
    25
100
AcDbSpline
210
0.0
220
0.0
230
1.0
 70
     8
 71
     3
 72
     8
 73
     4
 74
     0
 42
0.0000000001
 43
0.0000000001
 40
0.0
 40
0.0
 40
0.0
 40
0.0
 40
1.0
 40
1.0
 40
1.0
 40
1.0
 10
175.0394888103072
 20
4.78248817378296
 30
0.0
 10
176.0632664770592
 20
5.320789232120694
 30
0.0
 10
176.8941982875768
 20
6.164284781695528
 30
0.0
 10
177.4170761699622
 20
7.196024797620021
 30
0.0
  0
LWPOLYLINE
  5
235
330
70
100
AcDbEntity
  8
0
 62
    18
420
        0
370
    25
100
AcDbPolyline
 90
        8
 70
     0
 43
0.0
 10
131.7993023167192
 20
4.782488173743816
 10
131.4942223537192
 20
4.967253069043702
 10
130.9584200053191
 20
5.340637620543423
 10
130.4860822497193
 20
5.738848813043524
 10
130.0809133997193
 20
6.158089063743495
 10
129.745720830619
 20
6.594674078243601
 10
129.4826013481187
 20
7.045189880743767
 10
129.4090465363188
 20
7.224370409543929
  0
LINE
  5
236
330
70
100
AcDbEntity
  8
0
 62
    18
420
        0
370
    25
100
AcDbLine
 10
179.0253478841193
 20
14.72672064494354
 30
0.0
 11
163.9993286258189
 21
23.40105692434334
 31
0.0
  0
LINE
  5
237
330
70
100
AcDbEntity
  8
0
 62
    18
420
        0
370
    25
100
AcDbLine
 10
142.8394625011191
 20
23.40105692434334
 30
0.0
 11
127.8134432429188
 21
14.72672064494354
 31
0.0
  0
LWPOLYLINE
  5
238
330
70
100
AcDbEntity
  8
0
 62
    18
420
        0
370
    25
100
AcDbPolyline
 90
        6
 70
     0
 43
0.0
 10
136.846402572419
 20
14.71134850424373
 10
136.8799939399193
 20
14.75553579504334
 10
136.9404603442189
 20
14.80784213724387
 10
136.9846796323189
 20
14.83054917484395
 10
137.0115367237189
 20
14.83551257344347
 10
137.0168389948194
 20
14.8345156312436
  0
LINE
  5
239
330
70
100
AcDbEntity
  8
0
 62
    18
420
        0
370
    25
100
AcDbLine
 10
136.967242032319
 20
14.80770484184376
 30
0.0
 11
136.9674409127188
 21
14.78122326134366
 31
0.0
  0
LINE
  5
23A
330
70
100
AcDbEntity
  8
0
 62
    18
420
        0
370
    25
100
AcDbLine
 10
143.1146149089194
 20
23.5482720531435
 30
0.0
 11
142.8394625011191
 21
23.40105692434334
 31
0.0
  0
SPLINE
  5
23B
330
70
100
AcDbEntity
  8
0
 62
    18
420
        0
370
    25
100
AcDbSpline
210
0.0
220
0.0
230
1.0
 70
     8
 71
     3
 72
     8
 73
     4
 74
     0
 42
0.0000000001
 43
0.0000000001
 40
0.0
 40
0.0
 40
0.0
 40
0.0
 40
1.0
 40
1.0
 40
1.0
 40
1.0
 10
162.2523786335495
 20
24.2585166265984
 30
0.0
 10
161.6799941264089
 20
24.51227369559162
 30
0.0
 10
161.0909458879956
 20
24.7266395569252
 30
0.0
 10
160.4893463258344
 20
24.90011762725773
 30
0.0
  0
SPLINE
  5
23C
330
70
100
AcDbEntity
  8
0
 62
    18
420
        0
370
    25
100
AcDbSpline
210
0.0
220
0.0
230
1.0
 70
     8
 71
     3
 72
     8
 73
     4
 74
     0
 42
0.0000000001
 43
0.0000000001
 40
0.0
 40
0.0
 40
0.0
 40
0.0
 40
1.0
 40
1.0
 40
1.0
 40
1.0
 10
163.9993286258131
 20
23.40105692431574
 30
0.0
 10
163.437649804987
 20
23.72713391358081
 30
0.0
 10
162.8539174793405
 20
24.01364866692921
 30
0.0
 10
162.2523786335232
 20
24.258516626583
 30
0.0
  0
LWPOLYLINE
  5
23D
330
70
100
AcDbEntity
  8
0
 62
    18
420
        0
370
    25
100
AcDbPolyline
 90
        6
 70
     0
 43
0.0
 10
141.6193733046188
 20
17.46672585804355
 10
141.6529646721191
 20
17.51091314894391
 10
141.7134310764194
 20
17.56321949104369
 10
141.7576503645193
 20
17.58592652864377
 10
141.7845074559193
 20
17.59088992724393
 10
141.7898097270192
 20
17.58989298504342
  0
LINE
  5
23E
330
70
100
AcDbEntity
  8
0
 62
    18
420
        0
370
    25
100
AcDbLine
 10
141.7402127644193
 20
17.56308219574369
 30
0.0
 11
141.7404116449192
 21
17.53660061514348
 31
0.0
  0
LWPOLYLINE
  5
23F
330
70
100
AcDbEntity
  8
0
 62
    18
420
        0
370
    25
100
AcDbPolyline
 90
       19
 70
     0
 43
0.0
 10
163.2273682656193
 20
-67.60556055535637
 10
162.3090095099193
 20
-68.04585023655604
 10
161.3315832632189
 20
-68.44149811605624
 10
160.3015854084193
 20
-68.78987494065626
 10
159.2258575644189
 20
-69.08866585735655
 10
158.1115502075192
 20
-69.33588714095626
 10
156.9660660366193
 20
-69.52989455755615
 10
155.7970165089191
 20
-69.66939933215662
 10
154.6121684985188
 20
-69.75347461115614
 10
153.4193955635193
 20
-69.78156230535667
 10
152.2266226285192
 20
-69.75347461115614
 10
151.0417746181189
 20
-69.66939933215662
 10
149.8727250904194
 20
-69.52989455755615
 10
148.7272409194193
 20
-69.33588714095626
 10
147.612933562519
 20
-69.08866585735655
 10
146.5372057185192
 20
-68.78987494065626
 10
145.507207863719
 20
-68.44149811605624
 10
144.5297816170192
 20
-68.04585023655604
 10
143.6114228614193
 20
-67.60556055535637
  0
SPLINE
  5
240
330
70
100
AcDbEntity
  8
0
 62
    18
420
        0
370
    25
100
AcDbSpline
210
0.0
220
0.0
230
1.0
 70
     8
 71
     3
 72
     8
 73
     4
 74
     0
 42
0.0000000001
 43
0.0000000001
 40
0.0
 40
0.0
 40
0.0
 40
0.0
 40
1.0
 40
1.0
 40
1.0
 40
1.0
 10
179.1580821394691
 20
-58.40847417377962
 30
0.0
 10
179.2182698117451
 20
-58.37823357387304
 30
0.0
 10
179.2659789999861
 20
-58.32788621213512
 30
0.0
 10
179.2929395423584
 20
-58.26615956528236
 30
0.0
  0
LINE
  5
241
330
70
100
AcDbEntity
  8
0
 62
    18
420
        0
370
    25
100
AcDbLine
 10
164.0259963857192
 20
-67.14404133765651
 30
0.0
 11
179.1580821395192
 21
-58.40847417375652
 31
0.0
  0
SPLINE
  5
242
330
70
100
AcDbEntity
  8
0
 62
    18
420
        0
370
    25
100
AcDbSpline
210
0.0
220
0.0
230
1.0
 70
     8
 71
     3
 72
     8
 73
     4
 74
     0
 42
0.0000000001
 43
0.0000000001
 40
0.0
 40
0.0
 40
0.0
 40
0.0
 40
1.0
 40
1.0
 40
1.0
 40
1.0
 10
163.7794735418686
 20
-67.22189285918384
 30
0.0
 10
163.8659009095247
 20
-67.21209003646428
 30
0.0
 10
163.9496143462721
 20
-67.18565346642825
 30
0.0
 10
164.0259963857095
 20
-67.14404133761222
 30
0.0
  0
LINE
  5
243
330
70
100
AcDbEntity
  8
0
 62
    18
420
        0
370
    25
100
AcDbLine
 10
127.6807089875188
 20
-58.40847417375652
 30
0.0
 11
142.8127947413188
 21
-67.14404133765651
 31
0.0
  0
SPLINE
  5
244
330
70
100
AcDbEntity
  8
0
 62
    18
420
        0
370
    25
100
AcDbSpline
210
0.0
220
0.0
230
1.0
 70
     8
 71
     3
 72
     8
 73
     4
 74
     0
 42
0.0000000001
 43
0.0000000001
 40
0.0
 40
0.0
 40
0.0
 40
0.0
 40
1.0
 40
1.0
 40
1.0
 40
1.0
 10
127.5458515845801
 20
-58.26615956528172
 30
0.0
 10
127.5728121269524
 20
-58.32788621213512
 30
0.0
 10
127.6205213151927
 20
-58.3782335738724
 30
0.0
 10
127.6807089874687
 20
-58.40847417377962
 30
0.0
  0
SPLINE
  5
245
330
70
100
AcDbEntity
  8
0
 62
    18
420
        0
370
    25
100
AcDbSpline
210
0.0
220
0.0
230
1.0
 70
     8
 71
     3
 72
     8
 73
     4
 74
     0
 42
0.0000000001
 43
0.0000000001
 40
0.0
 40
0.0
 40
0.0
 40
0.0
 40
1.0
 40
1.0
 40
1.0
 40
1.0
 10
142.8127947413285
 20
-67.14404133761286
 30
0.0
 10
142.8891767807659
 20
-67.18565346642889
 30
0.0
 10
142.9728902175133
 20
-67.21209003646492
 30
0.0
 10
143.0593175851694
 20
-67.22189285918448
 30
0.0
  0
SPLINE
  5
246
330
70
100
AcDbEntity
  8
0
 62
    18
420
        0
370
    25
100
AcDbSpline
210
0.0
220
0.0
230
1.0
 70
     8
 71
     3
 72
     8
 73
     4
 74
     0
 42
0.0000000001
 43
0.0000000001
 40
0.0
 40
0.0
 40
0.0
 40
0.0
 40
1.0
 40
1.0
 40
1.0
 40
1.0
 10
163.6173346155595
 20
-67.53302722706256
 30
0.0
 10
163.4832166126934
 20
-67.52225236227331
 30
0.0
 10
163.348642589152
 20
-67.54728298819874
 30
0.0
 10
163.2273682655346
 20
-67.60556055536793
 30
0.0
  0
SPLINE
  5
247
330
70
100
AcDbEntity
  8
0
 62
    18
420
        0
370
    25
100
AcDbSpline
210
0.0
220
0.0
230
1.0
 70
     8
 71
     3
 72
     8
 73
     4
 74
     0
 42
0.0000000001
 43
0.0000000001
 40
0.0
 40
0.0
 40
0.0
 40
0.0
 40
1.0
 40
1.0
 40
1.0
 40
1.0
 10
143.6114228614033
 20
-67.60556055536793
 30
0.0
 10
143.4901485377865
 20
-67.5472829881981
 30
0.0
 10
143.3555745142445
 20
-67.52225236227331
 30
0.0
 10
143.221456511379
 20
-67.53302722706256
 30
0.0
  0
LINE
  5
248
330
70
100
AcDbEntity
  8
0
 62
    18
420
        0
370
    25
100
AcDbLine
 10
164.0259963857192
 20
-67.14404133765651
 30
0.0
 11
164.0259963857192
 21
-67.45024414475654
 31
0.0
  0
SPLINE
  5
249
330
70
100
AcDbEntity
  8
0
 62
    18
420
        0
370
    25
100
AcDbSpline
210
0.0
220
0.0
230
1.0
 70
     8
 71
     3
 72
     8
 73
     4
 74
     0
 42
0.0000000001
 43
0.0000000001
 40
0.0
 40
0.0
 40
0.0
 40
0.0
 40
1.0
 40
1.0
 40
1.0
 40
1.0
 10
163.6173346156199
 20
-67.53302722704138
 30
0.0
 10
163.7586603590228
 20
-67.54493450062684
 30
0.0
 10
163.9004460600947
 20
-67.51621280894709
 30
0.0
 10
164.0259963856826
 20
-67.45024414473985
 30
0.0
  0
LINE
  5
24A
330
70
100
AcDbEntity
  8
0
 62
    18
420
        0
370
    25
100
AcDbLine
 10
142.8127947413188
 20
-67.45024414475654
 30
0.0
 11
142.8127947413188
 21
-67.14404133765651
 31
0.0
  0
SPLINE
  5
24B
330
70
100
AcDbEntity
  8
0
 62
    18
420
        0
370
    25
100
AcDbSpline
210
0.0
220
0.0
230
1.0
 70
     8
 71
     3
 72
     8
 73
     4
 74
     0
 42
0.0000000001
 43
0.0000000001
 40
0.0
 40
0.0
 40
0.0
 40
0.0
 40
1.0
 40
1.0
 40
1.0
 40
1.0
 10
142.8127947413554
 20
-67.45024414473985
 30
0.0
 10
142.9383450669439
 20
-67.51621280894773
 30
0.0
 10
143.0801307680152
 20
-67.54493450062748
 30
0.0
 10
143.2214565114182
 20
-67.53302722704202
 30
0.0
  0
LINE
  5
24C
330
70
100
AcDbEntity
  8
0
 62
    18
420
        0
370
    25
100
AcDbLine
 10
179.1580821395192
 20
-58.71467698085656
 30
0.0
 11
179.1580821395192
 21
-58.40847417375652
 31
0.0
  0
LINE
  5
24D
330
70
100
AcDbEntity
  8
0
 62
    18
420
        0
370
    25
100
AcDbLine
 10
164.0259963857192
 20
-67.45024414475654
 30
0.0
 11
179.1580821395192
 21
-58.71467698085656
 31
0.0
  0
LINE
  5
24E
330
70
100
AcDbEntity
  8
0
 62
    18
420
        0
370
    25
100
AcDbLine
 10
127.6807089875188
 20
-58.40847417375652
 30
0.0
 11
127.6807089875188
 21
-58.71467698085656
 31
0.0
  0
LINE
  5
24F
330
70
100
AcDbEntity
  8
0
 62
    18
420
        0
370
    25
100
AcDbLine
 10
127.6807089875188
 20
-58.71467698085656
 30
0.0
 11
142.8127947413188
 21
-67.45024414475654
 31
0.0
  0
SPLINE
  5
250
330
70
100
AcDbEntity
  8
0
 62
    18
420
        0
370
    25
100
AcDbSpline
210
0.0
220
0.0
230
1.0
 70
     8
 71
     3
 72
     8
 73
     4
 74
     0
 42
0.0000000001
 43
0.0000000001
 40
0.0
 40
0.0
 40
0.0
 40
0.0
 40
1.0
 40
1.0
 40
1.0
 40
1.0
 10
179.1580821394954
 20
-58.71467698091303
 30
0.0
 10
179.2405999453392
 20
-58.67860613440345
 30
0.0
 10
179.2967870032375
 20
-58.60029937459691
 30
0.0
 10
179.3045299257252
 20
-58.51057567984212
 30
0.0
  0
SPLINE
  5
251
330
70
100
AcDbEntity
  8
0
 62
    18
420
        0
370
    25
100
AcDbSpline
210
0.0
220
0.0
230
1.0
 70
     8
 71
     3
 72
     8
 73
     4
 74
     0
 42
0.0000000001
 43
0.0000000001
 40
0.0
 40
0.0
 40
0.0
 40
0.0
 40
1.0
 40
1.0
 40
1.0
 40
1.0
 10
127.5342612013134
 20
-58.51057567984212
 30
0.0
 10
127.5420041238005
 20
-58.60029937459691
 30
0.0
 10
127.5981911816988
 20
-58.67860613440345
 30
0.0
 10
127.6807089875426
 20
-58.71467698091303
 30
0.0
  0
SPLINE
  5
252
330
70
100
AcDbEntity
  8
0
 62
    18
420
        0
370
    25
100
AcDbSpline
210
0.0
220
0.0
230
1.0
 70
     8
 71
     3
 72
     8
 73
     4
 74
     0
 42
0.0000000001
 43
0.0000000001
 40
0.0
 40
0.0
 40
0.0
 40
0.0
 40
1.0
 40
1.0
 40
1.0
 40
1.0
 10
179.4271272054958
 20
-58.25363878064627
 30
0.0
 10
179.3692291859865
 20
-58.28613275149535
 30
0.0
 10
179.3255189129105
 20
-58.33903757447055
 30
0.0
 10
179.3045292671668
 20
-58.40202545883085
 30
0.0
  0
SPLINE
  5
253
330
70
100
AcDbEntity
  8
0
 62
    18
420
        0
370
    25
100
AcDbSpline
210
0.0
220
0.0
230
1.0
 70
     8
 71
     3
 72
     8
 73
     4
 74
     0
 42
0.0000000001
 43
0.0000000001
 40
0.0
 40
0.0
 40
0.0
 40
0.0
 40
1.0
 40
1.0
 40
1.0
 40
1.0
 10
127.5342618597711
 20
-58.40202545883021
 30
0.0
 10
127.513272214028
 20
-58.33903757446991
 30
0.0
 10
127.4695619409514
 20
-58.28613275149535
 30
0.0
 10
127.4116639214427
 20
-58.25363878064627
 30
0.0
  0
SPLINE
  5
254
330
70
100
AcDbEntity
  8
0
 62
    18
420
        0
370
    25
100
AcDbSpline
210
0.0
220
0.0
230
1.0
 70
     8
 71
     3
 72
     8
 73
     4
 74
     0
 42
0.0000000001
 43
0.0000000001
 40
0.0
 40
0.0
 40
0.0
 40
0.0
 40
1.0
 40
1.0
 40
1.0
 40
1.0
 10
179.427127205526
 20
-58.25363878058851
 30
0.0
 10
180.1352773736812
 20
-57.80810269591388
 30
0.0
 10
180.787740437089
 20
-57.2796667697075
 30
0.0
 10
181.3706823679512
 20
-56.6795353102348
 30
0.0
  0
SPLINE
  5
255
330
70
100
AcDbEntity
  8
0
 62
    18
420
        0
370
    25
100
AcDbSpline
210
0.0
220
0.0
230
1.0
 70
     8
 71
     3
 72
     8
 73
     4
 74
     0
 42
0.0000000001
 43
0.0000000001
 40
0.0
 40
0.0
 40
0.0
 40
0.0
 40
1.0
 40
1.0
 40
1.0
 40
1.0
 10
125.4681087590868
 20
-56.67953531023544
 30
0.0
 10
126.0510506899483
 20
-57.27966676970814
 30
0.0
 10
126.7035137533562
 20
-57.80810269591452
 30
0.0
 10
127.4116639215113
 20
-58.25363878058979
 30
0.0
  0
LWPOLYLINE
  5
256
330
70
100
AcDbEntity
  8
0
 62
    18
420
        0
370
    25
100
AcDbPolyline
 90
       16
 70
     0
 43
0.0
 10
147.5857646503189
 20
-3.444100805856607
 10
148.227503102419
 20
-3.777670782856296
 10
148.9261226779191
 20
-4.070689583756637
 10
149.6739743822193
 20
-4.319945915456444
 10
150.4628593363193
 20
-4.522709399556117
 10
151.2841380948192
 20
-4.676758704656576
 10
152.1288109883189
 20
-4.780405117356178
 10
152.9876234910188
 20
-4.83251383105656
 10
153.8511676360192
 20
-4.83251383105656
 10
154.709980138619
 20
-4.780405117356178
 10
155.5546530322188
 20
-4.676758704656576
 10
156.3759317906192
 20
-4.522709399556117
 10
157.1648167447193
 20
-4.319945915456444
 10
157.9126684490188
 20
-4.070689583756637
 10
158.6112880245189
 20
-3.777670782856296
 10
159.2530264767191
 20
-3.444100805856607
  0
SPLINE
  5
257
330
70
100
AcDbEntity
  8
0
 62
    18
420
        0
370
    25
100
AcDbSpline
210
0.0
220
0.0
230
1.0
 70
     8
 71
     3
 72
     8
 73
     4
 74
     0
 42
0.0000000001
 43
0.0000000001
 40
0.0
 40
0.0
 40
0.0
 40
0.0
 40
1.0
 40
1.0
 40
1.0
 40
1.0
 10
159.606579266704
 20
-4.056473720438537
 30
0.0
 10
159.5952297804357
 20
-3.807028204463408
 30
0.0
 10
159.4633775981966
 20
-3.578652959199984
 30
0.0
 10
159.2530264767031
 20
-3.444100805871366
 30
0.0
  0
SPLINE
  5
258
330
70
100
AcDbEntity
  8
0
 62
    18
420
        0
370
    25
100
AcDbSpline
210
0.0
220
0.0
230
1.0
 70
     8
 71
     3
 72
     8
 73
     4
 74
     0
 42
0.0000000001
 43
0.0000000001
 40
0.0
 40
0.0
 40
0.0
 40
0.0
 40
1.0
 40
1.0
 40
1.0
 40
1.0
 10
147.5857646503349
 20
-3.444100805871366
 30
0.0
 10
147.3754135288414
 20
-3.578652959199984
 30
0.0
 10
147.2435613466023
 20
-3.807028204463408
 30
0.0
 10
147.232211860334
 20
-4.056473720438537
 30
0.0
  0
LINE
  5
259
330
70
100
AcDbEntity
  8
0
 62
    18
420
        0
370
    25
100
AcDbLine
 10
159.2530264767191
 20
-3.444100805856607
 30
0.0
 11
174.3674342617194
 21
5.281261083843521
 31
0.0
  0
LINE
  5
25A
330
70
100
AcDbEntity
  8
0
 62
    18
420
        0
370
    25
100
AcDbLine
 10
132.4713568653193
 20
5.281261083843521
 30
0.0
 11
147.5857646503189
 21
-3.444100805856607
 31
0.0
  0
LWPOLYLINE
  5
25B
330
70
100
AcDbEntity
  8
0
 62
    18
420
        0
370
    25
100
AcDbPolyline
 90
       16
 70
     0
 43
0.0
 10
132.4713568653193
 20
12.01662796994388
 10
131.8935341089187
 20
11.64616024714364
 10
131.3859556610192
 20
11.24285575074395
 10
130.9541842471188
 20
10.81113015134368
 10
130.6029495337189
 20
10.35571656114346
 10
130.3360993966192
 20
9.881602425743722
 10
130.1565590903188
 20
9.393983143543469
 10
130.0662943702189
 20
8.898201238743718
 10
130.0662943702189
 20
8.399687815043682
 10
130.1565590903188
 20
7.903905910243931
 10
130.3360993966192
 20
7.416286628043679
 10
130.6029495337189
 20
6.942172492643941
 10
130.9541842471188
 20
6.486758902343611
 10
131.3859556610192
 20
6.055033303043445
 10
131.8935341089194
 20
5.651728806643761
 10
132.4713568653193
 20
5.281261083843521
  0
LINE
  5
25C
330
70
100
AcDbEntity
  8
0
 62
    18
420
        0
370
    25
100
AcDbLine
 10
147.5857646503189
 20
20.74198985964337
 30
0.0
 11
132.4713568653193
 21
12.01662796994388
 31
0.0
  0
LWPOLYLINE
  5
25D
330
70
100
AcDbEntity
  8
0
 62
    18
420
        0
370
    25
100
AcDbPolyline
 90
       16
 70
     0
 43
0.0
 10
159.2530264767191
 20
20.74198985964337
 10
158.6112880245189
 20
21.0755598366437
 10
157.9126684490188
 20
21.3685786375434
 10
157.1648167447193
 20
21.61783496924384
 10
156.3759317906192
 20
21.82059845334352
 10
155.5546530322188
 20
21.97464775844334
 10
154.709980138619
 20
22.07829417114358
 10
153.8511676360192
 20
22.13040288484396
 10
152.9876234910188
 20
22.13040288484396
 10
152.1288109883189
 20
22.07829417114358
 10
151.2841380948192
 20
21.97464775844334
 10
150.4628593363193
 20
21.82059845334352
 10
149.6739743822193
 20
21.61783496924384
 10
148.9261226779191
 20
21.3685786375434
 10
148.227503102419
 20
21.0755598366437
 10
147.5857646503189
 20
20.74198985964337
  0
LINE
  5
25E
330
70
100
AcDbEntity
  8
0
 62
    18
420
        0
370
    25
100
AcDbLine
 10
174.3674342617194
 20
12.01662796994388
 30
0.0
 11
159.2530264767191
 21
20.74198985964337
 31
0.0
  0
LWPOLYLINE
  5
25F
330
70
100
AcDbEntity
  8
0
 62
    18
420
        0
370
    25
100
AcDbPolyline
 90
       16
 70
     0
 43
0.0
 10
174.3674342617194
 20
5.281261083843521
 10
174.9452570181193
 20
5.651728806643761
 10
175.4528354659193
 20
6.055033303043445
 10
175.8846068799192
 20
6.486758902343611
 10
176.235841593219
 20
6.942172492643941
 10
176.5026917304188
 20
7.416286628043679
 10
176.6822320367192
 20
7.903905910243931
 10
176.7724967568191
 20
8.399687815043682
 10
176.7724967568191
 20
8.898201238743718
 10
176.6822320367192
 20
9.393983143543469
 10
176.5026917304188
 20
9.881602425743722
 10
176.235841593219
 20
10.35571656114346
 10
175.8846068799192
 20
10.81113015134368
 10
175.4528354659193
 20
11.24285575074395
 10
174.9452570181193
 20
11.64616024714364
 10
174.3674342617194
 20
12.01662796994388
  0
SPLINE
  5
260
330
70
100
AcDbEntity
  8
0
 62
    18
420
        0
370
    25
100
AcDbSpline
210
0.0
220
0.0
230
1.0
 70
     8
 71
     3
 72
     8
 73
     4
 74
     0
 42
0.0000000001
 43
0.0000000001
 40
0.0
 40
0.0
 40
0.0
 40
0.0
 40
1.0
 40
1.0
 40
1.0
 40
1.0
 10
174.7209870517036
 20
4.668888169261591
 30
0.0
 10
174.7096375654359
 20
4.91833368523672
 30
0.0
 10
174.5777853831969
 20
5.146708930500143
 30
0.0
 10
174.3674342617033
 20
5.28126108382812
 30
0.0
  0
LINE
  5
261
330
70
100
AcDbEntity
  8
0
 62
    18
420
        0
370
    25
100
AcDbLine
 10
174.720987051719
 20
4.668888169343728
 30
0.0
 11
159.6065792667187
 21
-4.056473720456504
 31
0.0
  0
LINE
  5
262
330
70
100
AcDbEntity
  8
0
 62
    18
420
        0
370
    25
100
AcDbLine
 10
147.2322118603192
 20
-4.056473720456504
 30
0.0
 11
132.117804075319
 21
4.668888169343728
 31
0.0
  0
SPLINE
  5
263
330
70
100
AcDbEntity
  8
0
 62
    18
420
        0
370
    25
100
AcDbSpline
210
0.0
220
0.0
230
1.0
 70
     8
 71
     3
 72
     8
 73
     4
 74
     0
 42
0.0000000001
 43
0.0000000001
 40
0.0
 40
0.0
 40
0.0
 40
0.0
 40
1.0
 40
1.0
 40
1.0
 40
1.0
 10
132.4713568652352
 20
5.28126108382812
 30
0.0
 10
132.2610057437417
 20
5.146708930500143
 30
0.0
 10
132.129153561502
 20
4.91833368523672
 30
0.0
 10
132.1178040752343
 20
4.668888169261591
 30
0.0
  0
SPLINE
  5
264
330
70
100
AcDbEntity
  8
0
 62
    18
420
        0
370
    25
100
AcDbSpline
210
0.0
220
0.0
230
1.0
 70
     8
 71
     3
 72
     8
 73
     4
 74
     0
 42
0.0000000001
 43
0.0000000001
 40
0.0
 40
0.0
 40
0.0
 40
0.0
 40
1.0
 40
1.0
 40
1.0
 40
1.0
 10
124.5021662114757
 20
4.578399648212234
 30
0.0
 10
125.3787214367447
 20
3.286636764543996
 30
0.0
 10
126.5539787915452
 20
2.22540968597297
 30
0.0
 10
127.928195940515
 20
1.484783168728295
 30
0.0
  0
LINE
  5
265
330
70
100
AcDbEntity
  8
0
 62
    18
420
        0
370
    25
100
AcDbLine
 10
127.9281959405188
 20
1.484783168743695
 30
0.0
 11
142.9542151988192
 21
-7.189553110656097
 31
0.0
  0
LWPOLYLINE
  5
266
330
70
100
AcDbEntity
  8
0
 62
    18
420
        0
370
    25
100
AcDbPolyline
 90
       21
 70
     0
 43
0.0
 10
142.9542151988192
 20
-7.189553110656097
 10
143.8075644162191
 20
-7.644933626156094
 10
144.720174078319
 20
-8.060259086856504
 10
145.6864169222191
 20
-8.432969810656143
 10
146.7003364128188
 20
-8.760766151156211
 10
147.755680987219
 20
-9.041628267056285
 10
148.845943567019
 20
-9.273825245956391
 10
149.9644050226191
 20
-9.455923468056292
 10
151.1041664418191
 20
-9.586802193256179
 10
152.2582011547188
 20
-9.665653180856288
 10
153.4193955635193
 20
-9.691990573956518
 10
154.5805899722191
 20
-9.665653180856288
 10
155.7346246851188
 20
-9.586802193256179
 10
156.8743861043188
 20
-9.455923468056292
 10
157.992847560019
 20
-9.273825245956391
 10
159.0831101398191
 20
-9.041628267056285
 10
160.1384547142192
 20
-8.760766151156211
 10
161.1523742048189
 20
-8.432969810656143
 10
162.118617048719
 20
-8.060259086856504
 10
163.0312267108189
 20
-7.644933626156094
 10
163.8845759282188
 20
-7.189553110656097
  0
LINE
  5
267
330
70
100
AcDbEntity
  8
0
 62
    18
420
        0
370
    25
100
AcDbLine
 10
163.8845759282188
 20
-7.189553110656097
 30
0.0
 11
178.9105951865192
 21
1.484783168743695
 31
0.0
  0
SPLINE
  5
268
330
70
100
AcDbEntity
  8
0
 62
    18
420
        0
370
    25
100
AcDbSpline
210
0.0
220
0.0
230
1.0
 70
     8
 71
     3
 72
     8
 73
     4
 74
     0
 42
0.0000000001
 43
0.0000000001
 40
0.0
 40
0.0
 40
0.0
 40
0.0
 40
1.0
 40
1.0
 40
1.0
 40
1.0
 10
178.9105951865231
 20
1.484783168728295
 30
0.0
 10
180.2848123354928
 20
2.22540968597297
 30
0.0
 10
181.4600696902934
 20
3.286636764543996
 30
0.0
 10
182.3366249155623
 20
4.578399648212234
 30
0.0
  0
LWPOLYLINE
  5
269
330
70
100
AcDbEntity
  8
0
 62
    18
420
        0
370
    25
100
AcDbPolyline
 90
       12
 70
     0
 43
0.0
 10
179.0520163025189
 20
1.403142496243694
 10
179.851503823119
 20
1.902427664343666
 10
180.5806699856194
 20
2.43638468494375
 10
181.2350169309193
 20
3.001723569743422
 10
181.8105123910194
 20
3.594956262443624
 10
182.3036068109191
 20
4.212426291043344
 10
182.711262983519
 20
4.850327397043573
 10
183.0309639517189
 20
5.504726345443709
 10
183.2607406672192
 20
6.171588015243949
 10
183.3991746253192
 20
6.846801252043566
 10
183.4454136694192
 20
7.52620319804395
 10
183.4368302003191
 20
7.819107948043352
  0
LINE
  5
26A
330
70
100
AcDbEntity
  8
0
 62
    18
420
        0
370
    25
100
AcDbLine
 10
164.0259970442192
 20
-7.271193783156098
 30
0.0
 11
179.0520163025189
 21
1.403142496243694
 31
0.0
  0
LWPOLYLINE
  5
26B
330
70
100
AcDbEntity
  8
0
 62
    18
420
        0
370
    25
100
AcDbPolyline
 90
       21
 70
     0
 43
0.0
 10
142.8127940828188
 20
-7.271193783156098
 10
143.6776750731189
 20
-7.732728104756637
 10
144.602615981019
 20
-8.153666770456405
 10
145.5819177625193
 20
-8.531413221456485
 10
146.6095382717192
 20
-8.863639678856369
 10
147.6791436273191
 20
-9.148297028456552
 10
148.7841404820188
 20
-9.383631927656645
 10
149.9177155341193
 20
-9.568191368056188
 10
151.0728789923188
 20
-9.700838642456563
 10
152.2425093562191
 20
-9.780754865456056
 10
153.4193955635193
 20
-9.807448097356537
 10
154.5962817708189
 20
-9.780754865456056
 10
155.7659121347192
 20
-9.700838642456563
 10
156.9210755929193
 20
-9.568191368056188
 10
158.0546506450192
 20
-9.383631927656645
 10
159.1596474996188
 20
-9.148297028456552
 10
160.2292528553188
 20
-8.863639678856369
 10
161.2568733644192
 20
-8.531413221456485
 10
162.2361751459189
 20
-8.153666770456405
 10
163.1611160539192
 20
-7.732728104756637
 10
164.0259970442192
 20
-7.271193783156098
  0
LINE
  5
26C
330
70
100
AcDbEntity
  8
0
 62
    18
420
        0
370
    25
100
AcDbLine
 10
127.7867748245191
 20
1.403142496243694
 30
0.0
 11
142.8127940828188
 21
-7.271193783156098
 31
0.0
  0
LWPOLYLINE
  5
26D
330
70
100
AcDbEntity
  8
0
 62
    18
420
        0
370
    25
100
AcDbPolyline
 90
       12
 70
     0
 43
0.0
 10
123.401960926719
 20
7.819107948043352
 10
123.3933774575193
 20
7.52620319804395
 10
123.4396165016193
 20
6.846801252043566
 10
123.5780504597193
 20
6.171588015243949
 10
123.8078271753191
 20
5.504726345443709
 10
124.1275281434189
 20
4.850327397043573
 10
124.5351843160188
 20
4.212426291043344
 10
125.0282787360193
 20
3.594956262443624
 10
125.6037741961194
 20
3.001723569743422
 10
126.2581211413192
 20
2.43638468494375
 10
126.9872873038189
 20
1.902427664343666
 10
127.7867748245191
 20
1.403142496243694
  0
LINE
  5
26E
330
70
100
AcDbEntity
  8
0
 62
    18
420
        0
370
    25
100
AcDbLine
 10
142.8127940828188
 20
-7.271193783156098
 30
0.0
 11
142.8127940828188
 21
-67.08281083325648
 31
0.0
  0
LINE
  5
26F
330
70
100
AcDbEntity
  8
0
 62
    18
420
        0
370
    25
100
AcDbLine
 10
164.0259970442192
 20
-7.271193783156098
 30
0.0
 11
164.0259970442192
 21
-67.08281083325648
 31
0.0
  0
LWPOLYLINE
  5
270
330
70
100
AcDbEntity
  8
0
 62
    18
420
        0
370
    25
100
AcDbPolyline
 90
       21
 70
     0
 43
0.0
 10
142.8127940828188
 20
-67.08281083325648
 10
143.6776750731189
 20
-67.54434515495647
 10
144.602615981019
 20
-67.96528382055614
 10
145.5819177625193
 20
-68.34303027155621
 10
146.6095382717192
 20
-68.67525672905621
 10
147.6791436273191
 20
-68.95991407855629
 10
148.7841404820188
 20
-69.19524897775637
 10
149.9177155341193
 20
-69.37980841815657
 10
151.0728789923188
 20
-69.5124556925563
 10
152.2425093562191
 20
-69.59237191555644
 10
153.4193955635193
 20
-69.61906514755638
 10
154.5962817708189
 20
-69.59237191555644
 10
155.7659121347192
 20
-69.5124556925563
 10
156.9210755929193
 20
-69.37980841815657
 10
158.0546506450192
 20
-69.19524897775637
 10
159.1596474996188
 20
-68.95991407855629
 10
160.2292528553188
 20
-68.67525672905621
 10
161.2568733644192
 20
-68.34303027155621
 10
162.2361751459189
 20
-67.96528382055614
 10
163.1611160539192
 20
-67.54434515495647
 10
164.0259970442192
 20
-67.08281083325648
  0
LINE
  5
271
330
70
100
AcDbEntity
  8
0
 62
    18
420
        0
370
    25
100
AcDbLine
 10
179.0520163025189
 20
1.403142496243694
 30
0.0
 11
179.0520163025189
 21
-58.40847455395614
 31
0.0
  0
LINE
  5
272
330
70
100
AcDbEntity
  8
0
 62
    18
420
        0
370
    25
100
AcDbLine
 10
164.0259970442192
 20
-67.08281083325648
 30
0.0
 11
179.0520163025189
 21
-58.40847455395614
 31
0.0
  0
LINE
  5
273
330
70
100
AcDbEntity
  8
0
 62
    18
420
        0
370
    25
100
AcDbLine
 10
127.7867748245191
 20
1.403142496243694
 30
0.0
 11
127.7867748245191
 21
-58.40847455395614
 31
0.0
  0
LINE
  5
274
330
70
100
AcDbEntity
  8
0
 62
    18
420
        0
370
    25
100
AcDbLine
 10
127.7867748245191
 20
-58.40847455395614
 30
0.0
 11
142.8127940828188
 21
-67.08281083325648
 31
0.0
  0
LWPOLYLINE
  5
275
330
70
100
AcDbEntity
  8
0
 62
    18
420
        0
370
    25
100
AcDbPolyline
 90
       11
 70
     0
 43
0.0
 10
179.0520163025189
 20
-58.40847455395614
 10
179.851503823119
 20
-57.90918938575607
 10
180.5806699856194
 20
-57.37523236525609
 10
181.2350169309193
 20
-56.80989348035631
 10
181.8105123910194
 20
-56.21666078775621
 10
182.3036068109191
 20
-55.5991907591565
 10
182.711262983519
 20
-54.96128965305616
 10
183.0309639517189
 20
-54.30689070475613
 10
183.2607406672192
 20
-53.64002903485642
 10
183.3991746253192
 20
-52.96481579815627
 10
183.4454136694192
 20
-52.28541385215653
  0
LWPOLYLINE
  5
276
330
70
100
AcDbEntity
  8
0
 62
    18
420
        0
370
    25
100
AcDbPolyline
 90
       11
 70
     0
 43
0.0
 10
123.3933774575193
 20
-52.28541385215653
 10
123.4396165016193
 20
-52.96481579815627
 10
123.5780504597193
 20
-53.64002903485642
 10
123.8078271753191
 20
-54.30689070475613
 10
124.1275281434189
 20
-54.96128965305616
 10
124.5351843160188
 20
-55.5991907591565
 10
125.0282787360193
 20
-56.21666078775621
 10
125.6037741961194
 20
-56.80989348035631
 10
126.2581211413192
 20
-57.37523236525609
 10
126.9872873038189
 20
-57.90918938575607
 10
127.7867748245191
 20
-58.40847455395614
  0
LWPOLYLINE
  5
277
330
70
100
AcDbEntity
  8
0
 62
    18
420
        0
370
    25
100
AcDbPolyline
 90
       21
 70
     0
 43
0.0
 10
143.0471924637189
 20
-6.179680349856373
 10
143.7595670583192
 20
-6.554634454756209
 10
144.676733848319
 20
-6.972034121056249
 10
145.6478018478189
 20
-7.346605775256252
 10
146.6667848872189
 20
-7.676038746156593
 10
147.7273991347189
 20
-7.958303688056659
 10
148.8231065605188
 20
-8.191659424056069
 10
149.9471511565191
 20
-8.374667772356335
 10
151.0926037174193
 20
-8.506199628956215
 10
152.2524020118188
 20
-8.585444472356071
 10
153.4193955635193
 20
-8.611913404156355
 10
154.5863891152192
 20
-8.585444472356071
 10
155.7461874096193
 20
-8.506199628956215
 10
156.8916399704188
 20
-8.374667772356335
 10
158.0156845664191
 20
-8.191659424056069
 10
159.111391992219
 20
-7.958303688056659
 10
160.1720062398191
 20
-7.676038746156593
 10
161.190989279119
 20
-7.346605775256252
 10
162.162057278619
 20
-6.972034121056249
 10
163.0792240687188
 20
-6.554634454756209
 10
163.4485687560194
 20
-6.366332624256097
  0
SPLINE
  5
278
330
70
100
AcDbEntity
  8
0
 62
    18
420
        0
370
    25
100
AcDbSpline
210
0.0
220
0.0
230
1.0
 70
     8
 71
     3
 72
     8
 73
     4
 74
     0
 42
0.0000000001
 43
0.0000000001
 40
0.0
 40
0.0
 40
0.0
 40
0.0
 40
1.0
 40
1.0
 40
1.0
 40
1.0
 10
164.0252186446167
 20
-6.250963685507115
 30
0.0
 10
164.0227112599079
 20
-6.188270435010976
 30
0.0
 10
163.9897042425041
 20
-6.130765492140092
 30
0.0
 10
163.9368340691113
 20
-6.096979764364755
 30
0.0
  0
LWPOLYLINE
  5
279
330
70
100
AcDbEntity
  8
0
 62
    18
420
        0
370
    25
100
AcDbPolyline
 90
       21
 70
     0
 43
0.0
 10
164.0252186446193
 20
-6.250963685556526
 10
163.160401533119
 20
-6.712464172056311
 10
162.2355277966193
 20
-7.133371663856319
 10
161.2562991136189
 20
-7.511091122756554
 10
160.228753020019
 20
-7.843292869156147
 10
159.1592260311192
 20
-8.127929309356332
 10
158.0543095189193
 20
-8.363246720756666
 10
156.9208187605189
 20
-8.547792475156313
 10
155.7657409131189
 20
-8.680429865156442
 10
154.5961961600188
 20
-8.760340765656406
 10
153.4193955635193
 20
-8.78703323735657
 10
152.2425949670193
 20
-8.760340765656406
 10
151.073050213819
 20
-8.680429865156442
 10
149.917972366419
 20
-8.547792475156313
 10
148.7844816080192
 20
-8.363246720756666
 10
147.6795650958193
 20
-8.127929309356332
 10
146.6100381069189
 20
-7.843292869156147
 10
145.582492013319
 20
-7.511091122756554
 10
144.6032633303192
 20
-7.133371663856319
 10
143.678389593919
 20
-6.712464172056311
 10
142.8135724824187
 20
-6.250963685556526
  0
SPLINE
  5
27A
330
70
100
AcDbEntity
  8
0
 62
    18
420
        0
370
    25
100
AcDbSpline
210
0.0
220
0.0
230
1.0
 70
     8
 71
     3
 72
     8
 73
     4
 74
     0
 42
0.0000000001
 43
0.0000000001
 40
0.0
 40
0.0
 40
0.0
 40
0.0
 40
1.0
 40
1.0
 40
1.0
 40
1.0
 10
142.9019570579267
 20
-6.096979764364755
 30
0.0
 10
142.8490868845345
 20
-6.130765492140092
 30
0.0
 10
142.8160798671301
 20
-6.188270435010976
 30
0.0
 10
142.813572482422
 20
-6.250963685507115
 30
0.0
  0
LWPOLYLINE
  5
27B
330
70
100
AcDbEntity
  8
0
 62
    18
420
        0
370
    25
100
AcDbPolyline
 90
       21
 70
     0
 43
0.0
 10
164.019826482219
 20
-6.961432731256375
 10
163.1554479613189
 20
-7.422698272956579
 10
162.2310450842188
 20
-7.843391729256258
 10
161.2523149193192
 20
-8.220919202456101
 10
160.2252910515189
 20
-8.552951773456515
 10
159.1563073619191
 20
-8.837444889656469
 10
158.0519532467193
 20
-9.072641407156236
 10
156.9190380562192
 20
-9.257093639756497
 10
155.7645463134192
 20
-9.389663359556401
 10
154.5955968845191
 20
-9.469533201756361
 10
153.4193955635193
 20
-9.496211226956637
 10
152.2431942425189
 20
-9.469533201756361
 10
151.0742448136188
 20
-9.389663359556401
 10
149.9197530708188
 20
-9.257093639756497
 10
148.7868378803187
 20
-9.072641407156236
 10
147.6824837651189
 20
-8.837444889656469
 10
146.613500075419
 20
-8.552951773456515
 10
145.5864762076194
 20
-8.220919202456101
 10
144.6077460428192
 20
-7.843391729256258
 10
143.683343165619
 20
-7.422698272956579
 10
142.818964644819
 20
-6.961432731256375
  0
LINE
  5
27C
330
70
100
AcDbEntity
  8
0
 62
    18
420
        0
370
    25
100
AcDbLine
 10
142.818964644819
 20
-6.961432731256375
 30
0.0
 11
142.8135724824187
 21
-6.250963685556526
 31
0.0
  0
LINE
  5
27D
330
70
100
AcDbEntity
  8
0
 62
    18
420
        0
370
    25
100
AcDbLine
 10
164.0252186446193
 20
-6.250963685556526
 30
0.0
 11
164.019826482219
 21
-6.961432731256375
 31
0.0
  0
LINE
  5
27E
330
70
100
AcDbEntity
  8
0
 62
    18
420
        0
370
    25
100
AcDbLine
 10
127.8759377996193
 20
2.577356514943916
 30
0.0
 11
142.901957057919
 21
-6.096979764356413
 31
0.0
  0
LWPOLYLINE
  5
27F
330
70
100
AcDbEntity
  8
0
 62
    18
420
        0
370
    25
100
AcDbPolyline
 90
       21
 70
     0
 43
0.0
 10
127.8759377996193
 20
14.72053253874338
 10
127.083170725619
 20
14.22544482384384
 10
126.3601349540192
 20
13.69597570594355
 10
125.7112875139188
 20
13.13539008224388
 10
125.140631038819
 20
12.54714369484364
 10
124.651680839519
 20
11.93486412244376
 10
124.2474530496191
 20
11.30232568944381
 10
123.930438943019
 20
10.65342855634373
 10
123.7025943971191
 20
9.992172868243491
 10
123.5653234286189
 20
9.322635564343553
 10
123.5194729258192
 20
8.648944526843648
 10
123.5653234286189
 20
7.975253489443848
 10
123.7025943971191
 20
7.305716185543909
 10
123.930438943019
 20
6.644460497343568
 10
124.2474530496191
 20
5.995563364243487
 10
124.651680839519
 20
5.363024931343641
 10
125.140631038819
 20
4.75074535894376
 10
125.7112875139188
 20
4.162498971543521
 10
126.3601349540192
 20
3.601913347843848
 10
127.083170725619
 20
3.072444229943562
 10
127.8759377996193
 20
2.577356514943916
  0
LINE
  5
280
330
70
100
AcDbEntity
  8
0
 62
    18
420
        0
370
    25
100
AcDbLine
 10
142.901957057919
 20
23.39486881814381
 30
0.0
 11
127.8759377996193
 21
14.72053253874338
 31
0.0
  0
LWPOLYLINE
  5
281
330
70
100
AcDbEntity
  8
0
 62
    18
420
        0
370
    25
100
AcDbPolyline
 90
       18
 70
     0
 43
0.0
 10
160.452969644319
 20
24.8890956031433
 10
160.1720062398191
 20
24.97392779994399
 10
159.111391992219
 20
25.25619274184342
 10
158.0156845664191
 20
25.48954847784347
 10
156.8916399704188
 20
25.67255682604363
 10
155.7461874096193
 20
25.80408868274362
 10
154.5863891152192
 20
25.88333352604337
 10
153.4193955635193
 20
25.90980245794376
 10
152.2524020118188
 20
25.88333352604337
 10
151.0926037174193
 20
25.80408868274362
 10
149.9471511565191
 20
25.67255682604363
 10
148.8231065605188
 20
25.48954847784347
 10
147.7273991347189
 20
25.25619274184342
 10
146.6667848872189
 20
24.97392779994399
 10
145.6478018478189
 20
24.64449482904365
 10
144.676733848319
 20
24.26992317484365
 10
143.7595670583192
 20
23.8525235084435
 10
143.168626753819
 20
23.54500617754362
  0
LINE
  5
282
330
70
100
AcDbEntity
  8
0
 62
    18
420
        0
370
    25
100
AcDbLine
 10
178.9628533273193
 20
14.72053253874338
 30
0.0
 11
163.936834069119
 21
23.39486881814381
 31
0.0
  0
LWPOLYLINE
  5
283
330
70
100
AcDbEntity
  8
0
 62
    18
420
        0
370
    25
100
AcDbPolyline
 90
       21
 70
     0
 43
0.0
 10
178.9628533273193
 20
2.577356514943916
 10
179.7556204013188
 20
3.072444229943562
 10
180.4786561730188
 20
3.601913347843848
 10
181.1275036131192
 20
4.162498971543521
 10
181.6981600881189
 20
4.75074535894376
 10
182.187110287519
 20
5.363024931343641
 10
182.5913380774189
 20
5.995563364243487
 10
182.9083521839189
 20
6.644460497343568
 10
183.1361967299189
 20
7.305716185543909
 10
183.2734676984191
 20
7.975253489443848
 10
183.3193182012188
 20
8.648944526843648
 10
183.2734676984191
 20
9.322635564343553
 10
183.1361967299189
 20
9.992172868243491
 10
182.9083521839189
 20
10.65342855634373
 10
182.5913380774189
 20
11.30232568944381
 10
182.187110287519
 20
11.93486412244376
 10
181.6981600881189
 20
12.54714369484364
 10
181.1275036131192
 20
13.13539008224388
 10
180.4786561730188
 20
13.69597570594355
 10
179.7556204013188
 20
14.22544482384384
 10
178.9628533273193
 20
14.72053253874338
  0
LINE
  5
284
330
70
100
AcDbEntity
  8
0
 62
    18
420
        0
370
    25
100
AcDbLine
 10
163.936834069119
 20
-6.096979764356413
 30
0.0
 11
178.9628533273193
 21
2.577356514943916
 31
0.0
  0
LWPOLYLINE
  5
285
330
70
100
AcDbEntity
  8
0
 62
    18
420
        0
370
    25
100
AcDbPolyline
 90
       17
 70
     0
 43
0.0
 10
131.6743118862194
 20
4.770111201043707
 10
131.0480828157191
 20
5.168981018443932
 10
130.4925926207193
 20
5.601364691443357
 10
130.0131919752189
 20
6.063098222043643
 10
129.6144959592191
 20
6.549735145843766
 10
129.300345862819
 20
7.05658835114354
 10
129.0737676979191
 20
7.57877684004352
 10
128.9369405884189
 20
8.1112713479437
 10
128.8911862331188
 20
8.648944526843648
 10
128.9369405884189
 20
9.186617705843699
 10
129.0737676979191
 20
9.71911221374388
 10
129.300345862819
 20
10.24130070254375
 10
129.6144959592191
 20
10.74815390794363
 10
130.0131919752189
 20
11.23479083174376
 10
130.4925926207193
 20
11.6965243623434
 10
131.0480828157191
 20
12.12890803534347
 10
131.6743118862187
 20
12.52777785274369
  0
LINE
  5
286
330
70
100
AcDbEntity
  8
0
 62
    18
420
        0
370
    25
100
AcDbLine
 10
146.700331144419
 20
-3.904225078256622
 30
0.0
 11
131.6743118862194
 21
4.770111201043707
 31
0.0
  0
LWPOLYLINE
  5
287
330
70
100
AcDbEntity
  8
0
 62
    18
420
        0
370
    25
100
AcDbPolyline
 90
       17
 70
     0
 43
0.0
 10
160.1384599825189
 20
-3.904225078256622
 10
159.4475223287192
 20
-4.265739425656186
 10
158.698530683819
 20
-4.586417089356519
 10
157.8986980858193
 20
-4.863169191156345
 10
157.0557268713191
 20
-5.093331502056516
 10
156.1777362355188
 20
-5.274686492556636
 10
155.273181231319
 20
-5.405487282956427
 10
154.350773744019
 20
-5.48447589195644
 10
153.4193955635193
 20
-5.510889319056297
 10
152.4880173829189
 20
-5.48447589195644
 10
151.565609895719
 20
-5.405487282956427
 10
150.6610548915192
 20
-5.274686492556636
 10
149.7830642556188
 20
-5.093331502056516
 10
148.9400930411192
 20
-4.863169191156345
 10
148.1402604431189
 20
-4.586417089356519
 10
147.3912687982193
 20
-4.265739425656186
 10
146.700331144419
 20
-3.904225078256622
  0
LINE
  5
288
330
70
100
AcDbEntity
  8
0
 62
    18
420
        0
370
    25
100
AcDbLine
 10
175.1644792408193
 20
4.770111201043707
 30
0.0
 11
160.1384599825189
 21
-3.904225078256622
 31
0.0
  0
LWPOLYLINE
  5
289
330
70
100
AcDbEntity
  8
0
 62
    18
420
        0
370
    25
100
AcDbPolyline
 90
       17
 70
     0
 43
0.0
 10
175.1644792408193
 20
12.52777785274369
 10
175.7907083112189
 20
12.12890803534347
 10
176.3461985062193
 20
11.6965243623434
 10
176.825599151719
 20
11.23479083174376
 10
177.2242951677188
 20
10.74815390794363
 10
177.538445264219
 20
10.24130070254375
 10
177.7650234291189
 20
9.71911221374388
 10
177.9018505386191
 20
9.186617705843699
 10
177.9476048939192
 20
8.648944526843648
 10
177.9018505386191
 20
8.1112713479437
 10
177.7650234291189
 20
7.57877684004352
 10
177.538445264219
 20
7.05658835114354
 10
177.2242951677188
 20
6.549735145843766
 10
176.825599151719
 20
6.063098222043643
 10
176.3461985062193
 20
5.601364691443357
 10
175.7907083112189
 20
5.168981018443932
 10
175.1644792408193
 20
4.770111201043707
  0
LINE
  5
28A
330
70
100
AcDbEntity
  8
0
 62
    18
420
        0
370
    25
100
AcDbLine
 10
160.1384599825189
 20
21.20211413204339
 30
0.0
 11
175.1644792408193
 21
12.52777785274369
 31
0.0
  0
LWPOLYLINE
  5
28B
330
70
100
AcDbEntity
  8
0
 62
    18
420
        0
370
    25
100
AcDbPolyline
 90
       17
 70
     0
 43
0.0
 10
146.700331144419
 20
21.20211413204339
 10
147.3912687982193
 20
21.56362847934348
 10
148.1402604431189
 20
21.88430614314392
 10
148.9400930411192
 20
22.16105824494375
 10
149.7830642556188
 20
22.39122055584392
 10
150.6610548915192
 20
22.57257554624393
 10
151.565609895719
 20
22.70337633664373
 10
152.4880173829189
 20
22.78236494564374
 10
153.4193955635193
 20
22.8087783728437
 10
154.350773744019
 20
22.78236494564374
 10
155.273181231319
 20
22.70337633664373
 10
156.1777362355188
 20
22.57257554624393
 10
157.0557268713191
 20
22.39122055584392
 10
157.8986980858193
 20
22.16105824494375
 10
158.698530683819
 20
21.88430614314392
 10
159.4475223287192
 20
21.56362847934348
 10
160.1384599825189
 20
21.20211413204339
  0
LINE
  5
28C
330
70
100
AcDbEntity
  8
0
 62
    18
420
        0
370
    25
100
AcDbLine
 10
131.6743118862194
 20
12.52777785274369
 30
0.0
 11
146.700331144419
 21
21.20211413204339
 31
0.0
  0
LINE
  5
28D
330
70
100
AcDbEntity
  8
0
 62
    18
420
        0
370
    25
100
AcDbLine
 10
179.051237902919
 20
2.423372593843908
 30
0.0
 11
164.0252186446193
 21
-6.250963685556526
 31
0.0
  0
SPLINE
  5
28E
330
70
100
AcDbEntity
  8
0
 62
    18
420
        0
370
    25
100
AcDbSpline
210
0.0
220
0.0
230
1.0
 70
     8
 71
     3
 72
     8
 73
     4
 74
     0
 42
0.0000000001
 43
0.0000000001
 40
0.0
 40
0.0
 40
0.0
 40
0.0
 40
1.0
 40
1.0
 40
1.0
 40
1.0
 10
179.0512379029164
 20
2.423372593792572
 30
0.0
 10
179.0487305182076
 20
2.486065844289353
 30
0.0
 10
179.0157235008038
 20
2.543570787160237
 30
0.0
 10
178.962853327411
 20
2.577356514935574
 30
0.0
  0
LINE
  5
28F
330
70
100
AcDbEntity
  8
0
 62
    18
420
        0
370
    25
100
AcDbLine
 10
142.8135724824187
 20
-6.250963685556526
 30
0.0
 11
127.787553224119
 21
2.423372593843908
 31
0.0
  0
SPLINE
  5
290
330
70
100
AcDbEntity
  8
0
 62
    18
420
        0
370
    25
100
AcDbSpline
210
0.0
220
0.0
230
1.0
 70
     8
 71
     3
 72
     8
 73
     4
 74
     0
 42
0.0000000001
 43
0.0000000001
 40
0.0
 40
0.0
 40
0.0
 40
0.0
 40
1.0
 40
1.0
 40
1.0
 40
1.0
 10
127.875937799627
 20
2.577356514935574
 30
0.0
 10
127.8230676262348
 20
2.543570787160237
 30
0.0
 10
127.7900606088304
 20
2.486065844289353
 30
0.0
 10
127.7875532241216
 20
2.423372593792572
 30
0.0
  0
LINE
  5
291
330
70
100
AcDbEntity
  8
0
 62
    18
420
        0
370
    25
100
AcDbLine
 10
179.0458457404193
 20
1.712903548043312
 30
0.0
 11
179.051237902919
 21
2.423372593843908
 31
0.0
  0
LINE
  5
292
330
70
100
AcDbEntity
  8
0
 62
    18
420
        0
370
    25
100
AcDbLine
 10
179.0458457404193
 20
1.712903548043312
 30
0.0
 11
164.019826482219
 21
-6.961432731256375
 31
0.0
  0
LINE
  5
293
330
70
100
AcDbEntity
  8
0
 62
    18
420
        0
370
    25
100
AcDbLine
 10
127.787553224119
 20
2.423372593843908
 30
0.0
 11
127.7929453865193
 21
1.712903548043312
 31
0.0
  0
LINE
  5
294
330
70
100
AcDbEntity
  8
0
 62
    18
420
        0
370
    25
100
AcDbLine
 10
127.7929453865193
 20
1.712903548043312
 30
0.0
 11
142.818964644819
 21
-6.961432731256375
 31
0.0
  0
LWPOLYLINE
  5
295
330
70
100
AcDbEntity
  8
0
 62
    18
420
        0
370
    25
100
AcDbPolyline
 90
       21
 70
     0
 43
0.0
 10
179.5278397342193
 20
14.38049967254354
 10
179.8506668131192
 20
14.16934698474344
 10
180.5797789749192
 20
13.63542874144392
 10
181.2340791635193
 20
13.07013205544365
 10
181.8095318182193
 20
12.47694232194338
 10
182.3025900182189
 20
11.85951753354369
 10
182.7102158978191
 20
11.22166280814343
 10
183.029893158319
 20
10.56731252154355
 10
183.2596527517193
 20
9.900500273743899
 10
183.3980774902187
 20
9.225336459043687
 10
183.4443152172192
 20
8.545983935143349
 10
183.3980774902194
 20
7.866631411143547
 10
183.2596527517193
 20
7.191467596443334
 10
183.029893158319
 20
6.524655348643677
 10
182.7102158978191
 20
5.870305062043805
 10
182.3025900182189
 20
5.232450336743648
 10
181.8095318182193
 20
4.615025548243848
 10
181.2340791635193
 20
4.021835814843687
 10
180.5797789749192
 20
3.456539128743958
 10
179.8506668131192
 20
2.922620885543895
 10
179.6848176471194
 20
2.812415025643831
  0
LWPOLYLINE
  5
296
330
70
100
AcDbEntity
  8
0
 62
    18
420
        0
370
    25
100
AcDbPolyline
 90
       21
 70
     0
 43
0.0
 10
127.5170817507191
 20
2.583600036043863
 10
126.9881243139188
 20
2.922620885543895
 10
126.2590121521188
 20
3.456539128743958
 10
125.6047119634192
 20
4.021835814843687
 10
125.0292593087192
 20
4.615025548243848
 10
124.536201108719
 20
5.232450336743648
 10
124.1285752292189
 20
5.870305062043805
 10
123.808897968719
 20
6.524655348643677
 10
123.5791383753193
 20
7.191467596443334
 10
123.4407136368193
 20
7.866631411143547
 10
123.3944759098188
 20
8.545983935143349
 10
123.4407136368193
 20
9.225336459043687
 10
123.5791383753193
 20
9.900500273743899
 10
123.808897968719
 20
10.56731252154355
 10
124.1285752292189
 20
11.22166280814343
 10
124.536201108719
 20
11.85951753354369
 10
125.0292593087192
 20
12.47694232194338
 10
125.6047119634192
 20
13.07013205544365
 10
126.2590121521188
 20
13.63542874144392
 10
126.9881243139188
 20
14.16934698474344
 10
127.056673528819
 20
14.21535359534395
  0
LWPOLYLINE
  5
297
330
70
100
AcDbEntity
  8
0
 62
    18
420
        0
370
    25
100
AcDbPolyline
 90
       11
 70
     0
 43
0.0
 10
183.436402146419
 20
7.779006472243712
 10
183.3904739353191
 20
7.153395490643526
 10
183.2521203196187
 20
6.478575349343873
 10
183.022477947119
 20
5.812101452543426
 10
182.7029626886188
 20
5.158083434243559
 10
182.2955462262192
 20
4.520553373743789
 10
181.8027362974193
 20
3.90344222524355
 10
181.2275766950193
 20
3.310553966343793
 10
180.573609071419
 20
2.745545068743931
 10
179.8448676701191
 20
2.211898646743433
 10
179.0458457404193
 20
1.712903548043954
  0
LWPOLYLINE
  5
298
330
70
100
AcDbEntity
  8
0
 62
    18
420
        0
370
    25
100
AcDbPolyline
 90
       11
 70
     0
 43
0.0
 10
127.7929453865193
 20
1.712903548043312
 10
126.9939234568188
 20
2.211898646743433
 10
126.265182055619
 20
2.745545068743931
 10
125.6112144319192
 20
3.310553966343793
 10
125.0360548295192
 20
3.90344222524355
 10
124.5432449008188
 20
4.520553373743789
 10
124.1358284384192
 20
5.158083434243559
 10
123.8163131798189
 20
5.812101452543426
 10
123.5866708073191
 20
6.478575349343873
 10
123.4483171917189
 20
7.153395490643526
 10
123.402388980619
 20
7.779006472243712
  0
LINE
  5
299
330
70
100
AcDbEntity
  8
0
 62
    18
420
        0
370
    25
100
AcDbLine
 10
182.1546835559192
 20
4.307029783543908
 30
0.0
 11
182.1757187846188
 21
4.358254602843348
 31
0.0
  0
LINE
  5
29A
330
70
100
AcDbEntity
  8
0
 62
    18
420
        0
370
    25
100
AcDbLine
 10
124.6630723424192
 20
4.358254602843348
 30
0.0
 11
124.6841075710193
 21
4.307029783543908
 31
0.0
  0
LINE
  5
29B
330
70
100
AcDbEntity
  8
0
 62
    18
420
        0
370
    25
100
AcDbLine
 10
182.1780368613192
 20
4.361304815343875
 30
0.0
 11
182.1578761797193
 21
4.311561137043501
 31
0.0
  0
LINE
  5
29C
330
70
100
AcDbEntity
  8
0
 62
    18
420
        0
370
    25
100
AcDbLine
 10
124.6809149473188
 20
4.311561137043501
 30
0.0
 11
124.6607542657188
 21
4.361304815343875
 31
0.0
  0
SPLINE
  5
29D
330
70
100
AcDbEntity
  8
0
 62
    18
420
        0
370
    25
100
AcDbSpline
210
0.0
220
0.0
230
1.0
 70
     8
 71
     3
 72
     8
 73
     4
 74
     0
 42
0.0000000001
 43
0.0000000001
 40
0.0
 40
0.0
 40
0.0
 40
0.0
 40
1.0
 40
1.0
 40
1.0
 40
1.0
 10
177.4130478531424
 20
7.132098216528113
 30
0.0
 10
177.7774628285777
 20
7.94430029983281
 30
0.0
 10
177.7881925093804
 20
8.87136785733136
 30
0.0
 10
177.4426731363779
 20
9.691786568311639
 30
0.0
  0
SPLINE
  5
29E
330
70
100
AcDbEntity
  8
0
 62
    18
420
        0
370
    25
100
AcDbSpline
210
0.0
220
0.0
230
1.0
 70
     8
 71
     3
 72
     8
 73
     4
 74
     0
 42
0.0000000001
 43
0.0000000001
 40
0.0
 40
0.0
 40
0.0
 40
0.0
 40
1.0
 40
1.0
 40
1.0
 40
1.0
 10
175.1644792408135
 20
12.52777785272508
 30
0.0
 10
175.0598658875239
 20
12.46080026561211
 30
0.0
 10
174.9940309212204
 20
12.34743066353447
 30
0.0
 10
174.9877087727141
 20
12.22337430013355
 30
0.0
  0
SPLINE
  5
29F
330
70
100
AcDbEntity
  8
0
 62
    18
420
        0
370
    25
100
AcDbSpline
210
0.0
220
0.0
230
1.0
 70
     8
 71
     3
 72
     8
 73
     4
 74
     0
 42
0.0000000001
 43
0.0000000001
 40
0.0
 40
0.0
 40
0.0
 40
0.0
 40
1.0
 40
1.0
 40
1.0
 40
1.0
 10
131.8510823543239
 20
12.22337430013355
 30
0.0
 10
131.8447602058175
 20
12.34743066353447
 30
0.0
 10
131.7789252395141
 20
12.46080026561275
 30
0.0
 10
131.6743118862239
 20
12.52777785272508
 30
0.0
  0
SPLINE
  5
2A0
330
70
100
AcDbEntity
  8
0
 62
    18
420
        0
370
    25
100
AcDbSpline
210
0.0
220
0.0
230
1.0
 70
     8
 71
     3
 72
     8
 73
     4
 74
     0
 42
0.0000000001
 43
0.0000000001
 40
0.0
 40
0.0
 40
0.0
 40
0.0
 40
1.0
 40
1.0
 40
1.0
 40
1.0
 10
129.4085440669472
 20
9.721336775252508
 30
0.0
 10
129.0549725748132
 20
8.90443614754567
 30
0.0
 10
129.056544361668
 20
7.977385715840065
 30
0.0
 10
129.4128838752528
 20
7.161688721450596
 30
0.0
  0
LINE
  5
2A1
330
70
100
AcDbEntity
  8
0
 62
    18
420
        0
370
    25
100
AcDbLine
 10
177.2838032251191
 20
7.002322856643675
 30
0.0
 11
177.3225934723192
 21
6.924840099643661
 31
0.0
  0
LINE
  5
2A2
330
70
100
AcDbEntity
  8
0
 62
    18
420
        0
370
    25
100
AcDbLine
 10
129.515948066319
 20
6.924326490443394
 30
0.0
 11
129.5549879018188
 21
7.002322856643675
 31
0.0
  0
LINE
  5
2A3
330
70
100
AcDbEntity
  8
0
 62
    18
420
        0
370
    25
100
AcDbLine
 10
174.9877087727193
 20
12.22337430014382
 30
0.0
 11
159.9616895144189
 21
20.8977105794435
 31
0.0
  0
SPLINE
  5
2A4
330
70
100
AcDbEntity
  8
0
 62
    18
420
        0
370
    25
100
AcDbSpline
210
0.0
220
0.0
230
1.0
 70
     8
 71
     3
 72
     8
 73
     4
 74
     0
 42
0.0000000001
 43
0.0000000001
 40
0.0
 40
0.0
 40
0.0
 40
0.0
 40
1.0
 40
1.0
 40
1.0
 40
1.0
 10
160.1384599825144
 20
21.20211413202477
 30
0.0
 10
160.0338466292242
 20
21.13513654491244
 30
0.0
 10
159.9680116629207
 20
21.0217669428348
 30
0.0
 10
159.9616895144144
 20
20.89771057943388
 30
0.0
  0
LINE
  5
2A5
330
70
100
AcDbEntity
  8
0
 62
    18
420
        0
370
    25
100
AcDbLine
 10
146.877101612519
 20
20.8977105794435
 30
0.0
 11
131.8510823543187
 21
12.22337430014382
 31
0.0
  0
SPLINE
  5
2A6
330
70
100
AcDbEntity
  8
0
 62
    18
420
        0
370
    25
100
AcDbSpline
210
0.0
220
0.0
230
1.0
 70
     8
 71
     3
 72
     8
 73
     4
 74
     0
 42
0.0000000001
 43
0.0000000001
 40
0.0
 40
0.0
 40
0.0
 40
0.0
 40
1.0
 40
1.0
 40
1.0
 40
1.0
 10
146.8771016125241
 20
20.89771057943388
 30
0.0
 10
146.8707794640178
 20
21.02176694283416
 30
0.0
 10
146.8049444977143
 20
21.13513654491244
 30
0.0
 10
146.7003311444248
 20
21.20211413202477
 30
0.0
  0
LWPOLYLINE
  5
2A7
330
70
100
AcDbEntity
  8
0
 62
    18
420
        0
370
    25
100
AcDbPolyline
 90
       17
 70
     0
 43
0.0
 10
159.9616895144189
 20
20.8977105794435
 10
159.2889290061193
 20
21.24971384244396
 10
158.5596429886189
 20
21.56195516144338
 10
157.7808522047193
 20
21.83142625404392
 10
156.9600587936188
 20
22.05553284254365
 10
156.1051679234187
 20
22.23211708404391
 10
155.2244094250188
 20
22.35947695894364
 10
154.3262693029189
 20
22.43638756064362
 10
153.4193955635193
 20
22.46210679794337
 10
152.5125218241192
 20
22.43638756064362
 10
151.614381701919
 20
22.35947695894364
 10
150.7336232035192
 20
22.23211708404391
 10
149.8787323334193
 20
22.05553284254365
 10
149.0579389223188
 20
21.83142625404392
 10
148.2791481384191
 20
21.56195516144338
 10
147.5498621208192
 20
21.24971384244332
 10
146.877101612519
 20
20.8977105794435
  0
LINE
  5
2A8
330
70
100
AcDbEntity
  8
0
 62
     8
420
  8421504
370
    25
100
AcDbLine
 10
143.6114228614193
 20
-67.60556055535637
 30
0.0
 11
143.6114228614193
 21
-67.51148649535655
 31
0.0
  0
LINE
  5
2A9
330
70
100
AcDbEntity
  8
0
 62
     8
420
  8421504
370
    25
100
AcDbLine
 10
163.2273682656193
 20
-67.60556055535637
 30
0.0
 11
163.2273682656193
 21
-67.51148649535655
 31
0.0
  0
LINE
  5
2AA
330
70
100
AcDbEntity
  8
0
 62
     8
420
  8421504
370
    25
100
AcDbLine
 10
163.6173346156192
 20
-67.53302722705614
 30
0.0
 11
163.6173346156192
 21
-67.30996786565661
 31
0.0
  0
LINE
  5
2AB
330
70
100
AcDbEntity
  8
0
 62
     8
420
  8421504
370
    25
100
AcDbLine
 10
143.2214565114188
 20
-67.53302722705614
 30
0.0
 11
143.2214565114188
 21
-67.30996786565661
 31
0.0
  0
LINE
  5
2AC
330
70
100
AcDbEntity
  8
0
 62
     8
420
  8421504
370
    25
100
AcDbLine
 10
179.427127205519
 20
-58.25363878065654
 30
0.0
 11
179.427127205519
 21
-58.18398308895647
 31
0.0
  0
LINE
  5
2AD
330
70
100
AcDbEntity
  8
0
 62
     8
420
  8421504
370
    25
100
AcDbLine
 10
127.4116639215191
 20
-58.25363878065654
 30
0.0
 11
127.4116639215191
 21
-58.18398308895647
 31
0.0
  0
LINE
  5
2AE
330
70
100
AcDbEntity
  8
0
 62
     8
420
  8421504
370
    25
100
AcDbLine
 10
147.2322118603192
 20
-4.112900066956373
 30
0.0
 11
147.2322118603192
 21
-4.056473720456504
 31
0.0
  0
LINE
  5
2AF
330
70
100
AcDbEntity
  8
0
 62
     8
420
  8421504
370
    25
100
AcDbLine
 10
159.6065792667187
 20
-4.056473720456504
 30
0.0
 11
159.6065792667187
 21
-4.109529695456278
 31
0.0
  0
LINE
  5
2B0
330
70
100
AcDbEntity
  8
0
 62
     8
420
  8421504
370
    25
100
AcDbLine
 10
132.117804075319
 20
4.668888169343728
 30
0.0
 11
132.117804075319
 21
4.598621398143401
 31
0.0
  0
LINE
  5
2B1
330
70
100
AcDbEntity
  8
0
 62
     8
420
  8421504
370
    25
100
AcDbLine
 10
174.720987051719
 20
4.598621398143401
 30
0.0
 11
174.720987051719
 21
4.668888169343728
 31
0.0
  0
SPLINE
  5
2B2
330
70
100
AcDbEntity
  8
0
 62
     8
420
  8421504
370
    25
100
AcDbSpline
210
0.0
220
0.0
230
1.0
 70
     8
 71
     3
 72
     8
 73
     4
 74
     0
 42
0.0000000001
 43
0.0000000001
 40
0.0
 40
0.0
 40
0.0
 40
0.0
 40
1.0
 40
1.0
 40
1.0
 40
1.0
 10
174.6174612208675
 20
12.04135377392341
 30
0.0
 10
174.5359359241517
 20
12.07984821178414
 30
0.0
 10
174.4398405219341
 20
12.07034509225233
 30
0.0
 10
174.3674342617001
 20
12.01662796993746
 30
0.0
  0
LWPOLYLINE
  5
2B3
330
70
100
AcDbEntity
  8
0
 62
     8
420
  8421504
370
    25
100
AcDbPolyline
 90
        9
 70
     0
 43
0.0
 10
177.2837577855188
 20
8.224459818243733
 10
177.2718117882191
 20
7.976310920743359
 10
177.1760765389194
 20
7.450480786843475
 10
176.9856544431192
 20
6.933308636543712
 10
176.7026324285189
 20
6.43046089864387
 10
176.3301096054188
 20
5.947446231243425
 10
175.872170266819
 20
5.489555835743626
 10
175.3338298879189
 20
5.061807951443768
 10
174.720987051719
 20
4.668888169343728
  0
LWPOLYLINE
  5
2B4
330
70
100
AcDbEntity
  8
0
 62
     8
420
  8421504
370
    25
100
AcDbPolyline
 90
        9
 70
     0
 43
0.0
 10
132.117804075319
 20
4.668888169343728
 10
131.504961239019
 20
5.061807951443768
 10
130.9666208601189
 20
5.489555835743626
 10
130.5086815216192
 20
5.947446231243425
 10
130.1361586985191
 20
6.43046089864387
 10
129.8531366838193
 20
6.933308636543712
 10
129.6627145881193
 20
7.450480786843475
 10
129.5669793388189
 20
7.976310920743359
 10
129.5550333414192
 20
8.256886768843877
  0
SPLINE
  5
2B5
330
70
100
AcDbEntity
  8
0
 62
     8
420
  8421504
370
    25
100
AcDbSpline
210
0.0
220
0.0
230
1.0
 70
     8
 71
     3
 72
     8
 73
     4
 74
     0
 42
0.0000000001
 43
0.0000000001
 40
0.0
 40
0.0
 40
0.0
 40
0.0
 40
1.0
 40
1.0
 40
1.0
 40
1.0
 10
132.4713568653013
 20
12.01662796994195
 30
0.0
 10
132.398427555769
 20
12.06887043653455
 30
0.0
 10
132.3031928791293
 20
12.07831287685567
 30
0.0
 10
132.2214247365431
 20
12.04140853615431
 30
0.0
  0
SPLINE
  5
2B6
330
70
100
AcDbEntity
  8
0
 62
     8
420
  8421504
370
    25
100
AcDbSpline
210
0.0
220
0.0
230
1.0
 70
     8
 71
     3
 72
     8
 73
     4
 74
     0
 42
0.0000000001
 43
0.0000000001
 40
0.0
 40
0.0
 40
0.0
 40
0.0
 40
1.0
 40
1.0
 40
1.0
 40
1.0
 10
159.5030060206463
 20
20.7667430447868
 30
0.0
 10
159.4212303661816
 20
20.80367819587825
 30
0.0
 10
159.3259703865538
 20
20.79424547242066
 30
0.0
 10
159.2530264766832
 20
20.74198985968765
 30
0.0
  0
SPLINE
  5
2B7
330
70
100
AcDbEntity
  8
0
 62
     8
420
  8421504
370
    25
100
AcDbSpline
210
0.0
220
0.0
230
1.0
 70
     8
 71
     3
 72
     8
 73
     4
 74
     0
 42
0.0000000001
 43
0.0000000001
 40
0.0
 40
0.0
 40
0.0
 40
0.0
 40
1.0
 40
1.0
 40
1.0
 40
1.0
 10
147.5857646503548
 20
20.74198985968765
 30
0.0
 10
147.5128207404842
 20
20.79424547242066
 30
0.0
 10
147.4175607608571
 20
20.80367819587825
 30
0.0
 10
147.3357851063917
 20
20.7667430447868
 30
0.0
  0
LINE
  5
2B8
330
70
100
AcDbEntity
  8
0
 62
     8
420
  8421504
370
    25
100
AcDbLine
 10
142.901957057919
 20
-6.096979764356413
 30
0.0
 11
143.0471924637189
 21
-6.179680349856373
 31
0.0
  0
LINE
  5
2B9
330
70
100
AcDbEntity
  8
0
 62
     8
420
  8421504
370
    25
100
AcDbLine
 10
163.4485687560194
 20
-6.366332624256097
 30
0.0
 11
163.936834069119
 21
-6.096979764356413
 31
0.0
  0
SPLINE
  5
2BA
330
70
100
AcDbEntity
  8
0
 62
     8
420
  8421504
370
    25
100
AcDbSpline
210
0.0
220
0.0
230
1.0
 70
     8
 71
     3
 72
     8
 73
     4
 74
     0
 42
0.0000000001
 43
0.0000000001
 40
0.0
 40
0.0
 40
0.0
 40
0.0
 40
1.0
 40
1.0
 40
1.0
 40
1.0
 10
163.936834069135
 20
23.39486881813611
 30
0.0
 10
162.8342070165747
 20
24.01990529765433
 30
0.0
 10
161.6658110635365
 20
24.52102942755083
 30
0.0
 10
160.4529696443351
 20
24.88909560316961
 30
0.0
  0
LINE
  5
2BB
330
70
100
AcDbEntity
  8
0
 62
     8
420
  8421504
370
    25
100
AcDbLine
 10
143.168626753819
 20
23.54500617754362
 30
0.0
 11
142.901957057919
 21
23.39486881814381
 31
0.0
  0
LINE
  5
2BC
330
70
100
AcDbEntity
  8
0
 62
     8
420
  8421504
370
    25
100
AcDbLine
 10
163.3954564829193
 20
-7.459298691556335
 30
0.0
 11
163.3966563510188
 21
-7.301176290456423
 31
0.0
  0
LINE
  5
2BD
330
70
100
AcDbEntity
  8
0
 62
     8
420
  8421504
370
    25
100
AcDbLine
 10
143.4433346441188
 20
-7.459298691556335
 30
0.0
 11
143.4421347760193
 21
-7.301176290456423
 31
0.0
  0
SPLINE
  5
2BE
330
70
100
AcDbEntity
  8
0
 62
     8
420
  8421504
370
    25
100
AcDbSpline
210
0.0
220
0.0
230
1.0
 70
     8
 71
     3
 72
     8
 73
     4
 74
     0
 42
0.0000000001
 43
0.0000000001
 40
0.0
 40
0.0
 40
0.0
 40
0.0
 40
1.0
 40
1.0
 40
1.0
 40
1.0
 10
146.8254993820005
 20
-3.891952305635393
 30
0.0
 10
146.7848050041876
 20
-3.87208775214521
 30
0.0
 10
146.7363921603496
 20
-3.876834641898868
 30
0.0
 10
146.7003311444569
 20
-3.904225078254056
 30
0.0
  0
SPLINE
  5
2BF
330
70
100
AcDbEntity
  8
0
 62
     8
420
  8421504
370
    25
100
AcDbSpline
210
0.0
220
0.0
230
1.0
 70
     8
 71
     3
 72
     8
 73
     4
 74
     0
 42
0.0000000001
 43
0.0000000001
 40
0.0
 40
0.0
 40
0.0
 40
0.0
 40
1.0
 40
1.0
 40
1.0
 40
1.0
 10
160.1384599825664
 20
-3.904225078279724
 30
0.0
 10
160.102159403165
 20
-3.87766687067554
 30
0.0
 10
160.0542980554621
 20
-3.872921778015443
 30
0.0
 10
160.013489308375
 20
-3.891835175837436
 30
0.0
  0
LINE
  5
2C0
330
70
100
AcDbEntity
  8
0
 62
     8
420
  8421504
370
    25
100
AcDbLine
 10
128.4174115333193
 20
1.202359901943775
 30
0.0
 11
128.416268300019
 21
1.353068544943591
 31
0.0
  0
LINE
  5
2C1
330
70
100
AcDbEntity
  8
0
 62
     8
420
  8421504
370
    25
100
AcDbLine
 10
178.4213795936192
 20
1.202359901943775
 30
0.0
 11
178.4225228269189
 21
1.353068544943591
 31
0.0
  0
SPLINE
  5
2C2
330
70
100
AcDbEntity
  8
0
 62
     8
420
  8421504
370
    25
100
AcDbSpline
210
0.0
220
0.0
230
1.0
 70
     8
 71
     3
 72
     8
 73
     4
 74
     0
 42
0.0000000001
 43
0.0000000001
 40
0.0
 40
0.0
 40
0.0
 40
0.0
 40
1.0
 40
1.0
 40
1.0
 40
1.0
 10
175.1644792408096
 20
4.770111201080283
 30
0.0
 10
175.1281825959147
 20
4.796701388200793
 30
0.0
 10
175.0802955080905
 20
4.801443328660667
 30
0.0
 10
175.0394888102835
 20
4.782488173799002
 30
0.0
  0
SPLINE
  5
2C3
330
70
100
AcDbEntity
  8
0
 62
     8
420
  8421504
370
    25
100
AcDbSpline
210
0.0
220
0.0
230
1.0
 70
     8
 71
     3
 72
     8
 73
     4
 74
     0
 42
0.0000000001
 43
0.0000000001
 40
0.0
 40
0.0
 40
0.0
 40
0.0
 40
1.0
 40
1.0
 40
1.0
 40
1.0
 10
131.7993023166782
 20
4.782488173784884
 30
0.0
 10
131.7586285946677
 20
4.802207779260982
 30
0.0
 10
131.7103282109344
 20
4.797424912850247
 30
0.0
 10
131.674311886152
 20
4.770111201065524
 30
0.0
  0
SPLINE
  5
2C4
330
70
100
AcDbEntity
  8
0
 62
     8
420
  8421504
370
    25
100
AcDbSpline
210
0.0
220
0.0
230
1.0
 70
     8
 71
     3
 72
     8
 73
     4
 74
     0
 42
0.0000000001
 43
0.0000000001
 40
0.0
 40
0.0
 40
0.0
 40
0.0
 40
1.0
 40
1.0
 40
1.0
 40
1.0
 10
179.0253426156809
 20
14.72672368731505
 30
0.0
 10
179.0049018385823
 20
14.73596723787785
 30
0.0
 10
178.9810829029459
 20
14.7336073683335
 30
0.0
 10
178.9628533273186
 20
14.72053253877931
 30
0.0
  0
LINE
  5
2C5
330
70
100
AcDbEntity
  8
0
 62
     8
420
  8421504
370
    25
100
AcDbLine
 10
179.6848176471194
 20
2.812415025643831
 30
0.0
 11
179.051237902919
 21
2.423372593843908
 31
0.0
  0
LINE
  5
2C6
330
70
100
AcDbEntity
  8
0
 62
     8
420
  8421504
370
    25
100
AcDbLine
 10
127.787553224119
 20
2.423372593843908
 30
0.0
 11
127.5170817507191
 21
2.583600036043863
 31
0.0
  0
SPLINE
  5
2C7
330
70
100
AcDbEntity
  8
0
 62
     8
420
  8421504
370
    25
100
AcDbSpline
210
0.0
220
0.0
230
1.0
 70
     8
 71
     3
 72
     8
 73
     4
 74
     0
 42
0.0000000001
 43
0.0000000001
 40
0.0
 40
0.0
 40
0.0
 40
0.0
 40
1.0
 40
1.0
 40
1.0
 40
1.0
 10
127.8759377996193
 20
14.72053253877931
 30
0.0
 10
127.857708223992
 20
14.73360736833286
 30
0.0
 10
127.8338892883555
 20
14.73596723787785
 30
0.0
 10
127.813448511257
 20
14.72672368731505
 30
0.0
  0
SPLINE
  5
2C8
330
70
100
AcDbEntity
  8
0
 62
     8
420
  8421504
370
    25
100
AcDbSpline
210
0.0
220
0.0
230
1.0
 70
     8
 71
     3
 72
     8
 73
     4
 74
     0
 42
0.0000000001
 43
0.0000000001
 40
0.0
 40
0.0
 40
0.0
 40
0.0
 40
1.0
 40
1.0
 40
1.0
 40
1.0
 10
177.4426731363779
 20
9.691786568335382
 30
0.0
 10
176.9238419637978
 20
10.78184417765819
 30
0.0
 10
176.0613107902703
 20
11.67129632997777
 30
0.0
 10
174.9877087726718
 20
12.2233743000989
 30
0.0
  0
SPLINE
  5
2C9
330
70
100
AcDbEntity
  8
0
 62
     8
420
  8421504
370
    25
100
AcDbSpline
210
0.0
220
0.0
230
1.0
 70
     8
 71
     3
 72
     8
 73
     4
 74
     0
 42
0.0000000001
 43
0.0000000001
 40
0.0
 40
0.0
 40
0.0
 40
0.0
 40
1.0
 40
1.0
 40
1.0
 40
1.0
 10
131.8510823542533
 20
12.22337430013932
 30
0.0
 10
130.7875586630184
 20
11.67570856334524
 30
0.0
 10
129.930459670905
 20
10.7977309890074
 30
0.0
 10
129.4085440668689
 20
9.721336775282026
 30
0.0
  0
LINE
  5
2CA
330
70
100
AcDbEntity
  8
0
 62
     8
420
  8421504
370
    25
100
AcDbLine
 10
174.9877087727193
 20
12.22337430014382
 30
0.0
 11
174.9845846375193
 21
11.80816489654388
 31
0.0
  0
LINE
  5
2CB
330
70
100
AcDbEntity
  8
0
 62
     8
420
  8421504
370
    25
100
AcDbLine
 10
131.8510823543187
 20
12.22337430014382
 30
0.0
 11
131.8541722451192
 21
11.81273527524392
 31
0.0
  0
LINE
  5
2CC
330
70
100
AcDbEntity
  8
0
 62
     8
420
  8421504
370
    25
100
AcDbLine
 10
159.9616895144189
 20
20.8977105794435
 30
0.0
 11
159.958724747019
 21
20.50366104084339
 31
0.0
  0
LWPOLYLINE
  5
2CD
330
70
100
AcDbEntity
  8
0
 62
     8
420
  8421504
370
    25
100
AcDbPolyline
 90
       10
 70
     0
 43
0.0
 10
141.5699678139192
 20
17.43820638874375
 10
141.5935680734188
 20
17.47543222174384
 10
141.634946235819
 20
17.52932867084343
 10
141.6804205451191
 20
17.57616917414366
 10
141.728442269219
 20
17.61436612664338
 10
141.7773749249189
 20
17.64261434754344
 10
141.8255522301193
 20
17.65995191254365
 10
141.871334573619
 20
17.66579275344379
 10
141.9131633451188
 20
17.6599306449434
 10
141.9371164199188
 20
17.6501567674438
  0
LWPOLYLINE
  5
2CE
330
70
100
AcDbEntity
  8
0
 62
     8
420
  8421504
370
    25
100
AcDbPolyline
 90
       10
 70
     0
 43
0.0
 10
136.7969970817188
 20
14.68282903494392
 10
136.8205971766193
 20
14.72005477284358
 10
136.8619755036192
 20
14.77395131694351
 10
136.907449648319
 20
14.8207917252434
 10
136.9554715370192
 20
14.85898877284356
 10
137.0044041927191
 20
14.88723699374362
 10
137.0525813333193
 20
14.90457446364339
 10
137.0983638414192
 20
14.91041539964333
 10
137.1401924483193
 20
14.90455319604378
 10
137.164145687719
 20
14.89477941364334
  0
LINE
  5
2CF
330
70
100
AcDbEntity
  8
0
 62
     8
420
  8421504
370
    25
100
AcDbLine
 10
146.877101612519
 20
20.8977105794435
 30
0.0
 11
146.8800663799189
 21
20.50366104084339
 31
0.0
  0
SPLINE
  5
2D0
330
70
100
AcDbEntity
  8
0
 62
     8
420
  8421504
370
    25
100
AcDbSpline
210
0.0
220
0.0
230
1.0
 70
     8
 71
     3
 72
     8
 73
     4
 74
     0
 42
0.0000000001
 43
0.0000000001
 40
0.0
 40
0.0
 40
0.0
 40
0.0
 40
1.0
 40
1.0
 40
1.0
 40
1.0
 10
163.9993286258182
 20
23.40105692435104
 30
0.0
 10
163.9788870157269
 20
23.41030390006139
 30
0.0
 10
163.9550652666374
 20
23.40794511042016
 30
0.0
 10
163.9368340690998
 20
23.39486881816114
 30
0.0
  0
SPLINE
  5
2D1
330
70
100
AcDbEntity
  8
0
 62
     8
420
  8421504
370
    25
100
AcDbSpline
210
0.0
220
0.0
230
1.0
 70
     8
 71
     3
 72
     8
 73
     4
 74
     0
 42
0.0000000001
 43
0.0000000001
 40
0.0
 40
0.0
 40
0.0
 40
0.0
 40
1.0
 40
1.0
 40
1.0
 40
1.0
 10
142.9019570578382
 20
23.39486881816114
 30
0.0
 10
142.8837258603005
 20
23.4079451104208
 30
0.0
 10
142.859904111211
 20
23.41030390006139
 30
0.0
 10
142.8394625011197
 20
23.40105692435104
 30
0.0
  0
LWPOLYLINE
  5
2D2
330
70
100
AcDbEntity
  8
0
 62
     8
420
  8421504
370
    25
100
AcDbPolyline
 90
        3
 70
     0
 43
0.0
 10
136.9672413737188
 20
14.80769381694347
 10
136.9696416038188
 20
14.79407340554337
 10
136.9739256005193
 20
14.78497111544353
  0
LWPOLYLINE
  5
2D3
330
70
100
AcDbEntity
  8
0
 62
     8
420
  8421504
370
    25
100
AcDbPolyline
 90
        3
 70
     0
 43
0.0
 10
141.746896332619
 20
17.54034846924335
 10
141.7426125006189
 20
17.54945085444363
 10
141.7402354842191
 20
17.56199586294381
  0
INSERT
  5
2D6
330
70
100
AcDbEntity
  8
CAPA_BASE
100
AcDbBlockReference
  2
Block_0
 10
0.0
 20
0.0
 30
0.0
  0
INSERT
  5
2E2
330
70
100
AcDbEntity
  8
CAPA_BASE
100
AcDbBlockReference
  2
Block_1
 10
0.0
 20
0.0
 30
0.0
  0
INSERT
  5
2EE
330
70
100
AcDbEntity
  8
CAPA_BASE
100
AcDbBlockReference
  2
Block_2
 10
0.0
 20
0.0
 30
0.0
  0
ENDSEC
  0
SECTION
  2
OBJECTS
  0
DICTIONARY
  5
C
330
0
100
AcDbDictionary
281
     1
  3
ACAD_COLOR
350
63
  3
ACAD_DETAILVIEWSTYLE
350
6A
  3
ACAD_GROUP
350
D
  3
ACAD_LAYOUT
350
62
  3
ACAD_MATERIAL
350
10
  3
ACAD_MLEADERSTYLE
350
66
  3
ACAD_MLINESTYLE
350
5F
  3
ACAD_PLOTSETTINGS
350
61
  3
ACAD_PLOTSTYLENAME
350
E
  3
ACAD_SCALELIST
350
42
  3
ACAD_SECTIONVIEWSTYLE
350
68
  3
ACAD_TABLESTYLE
350
64
  3
ACAD_VISUALSTYLE
350
29
  3
ACDB_RECOMPOSE_DATA
350
301
  3
AcDbVariableDictionary
350
2F9
  0
DICTIONARY
  5
63
102
{ACAD_REACTORS
330
C
102
}
330
C
100
AcDbDictionary
281
     1
  0
DICTIONARY
  5
6A
102
{ACAD_REACTORS
330
C
102
}
330
C
100
AcDbDictionary
281
     1
  3
Imperial24
350
6B
  0
DICTIONARY
  5
D
102
{ACAD_REACTORS
330
C
102
}
330
C
100
AcDbDictionary
281
     1
  0
DICTIONARY
  5
62
102
{ACAD_REACTORS
330
C
102
}
330
C
100
AcDbDictionary
281
     1
  3
Layout1
350
6F
  3
Layout2
350
77
  3
Model
350
73
  0
DICTIONARY
  5
10
102
{ACAD_REACTORS
330
C
102
}
330
C
100
AcDbDictionary
281
     1
  3
ByBlock
350
19
  3
ByLayer
350
11
  3
Global
350
21
  0
DICTIONARY
  5
66
102
{ACAD_REACTORS
330
C
102
}
330
C
100
AcDbDictionary
281
     1
  3
Standard
350
67
  0
DICTIONARY
  5
5F
102
{ACAD_REACTORS
330
C
102
}
330
C
100
AcDbDictionary
281
     1
  3
Standard
350
60
  0
DICTIONARY
  5
61
102
{ACAD_REACTORS
330
C
102
}
330
C
100
AcDbDictionary
281
     1
  0
ACDBDICTIONARYWDFLT
  5
E
102
{ACAD_REACTORS
330
C
102
}
330
C
100
AcDbDictionary
281
     1
  3
Normal
350
F
100
AcDbDictionaryWithDefault
340
F
  0
DICTIONARY
  5
42
102
{ACAD_REACTORS
330
C
102
}
330
C
100
AcDbDictionary
281
     1
  3
A0
350
43
  3
A1
350
44
  3
A2
350
45
  3
A3
350
46
  3
A4
350
47
  3
A5
350
48
  3
A6
350
49
  3
A7
350
4A
  3
A8
350
4B
  3
A9
350
4C
  3
B0
350
4D
  3
B1
350
4E
  3
B2
350
4F
  3
B3
350
50
  3
B4
350
51
  3
B5
350
52
  3
B6
350
53
  0
DICTIONARY
  5
68
102
{ACAD_REACTORS
330
C
102
}
330
C
100
AcDbDictionary
281
     1
  3
Imperial24
350
69
  0
DICTIONARY
  5
64
102
{ACAD_REACTORS
330
C
102
}
330
C
100
AcDbDictionary
281
     1
  3
Standard
350
65
  0
DICTIONARY
  5
29
102
{ACAD_REACTORS
330
C
102
}
330
C
100
AcDbDictionary
281
     1
  3
2dWireframe
350
2F
  3
Basic
350
2E
  3
Brighten
350
35
  3
ColorChange
350
39
  3
Conceptual
350
32
  3
Dim
350
34
  3
EdgeColorOff
350
41
  3
Facepattern
350
38
  3
Flat
350
2A
  3
FlatWithEdges
350
2B
  3
Gouraud
350
2C
  3
GouraudWithEdges
350
2D
  3
Hidden
350
31
  3
JitterOff
350
3F
  3
Linepattern
350
37
  3
OverhangOff
350
40
  3
Realistic
350
33
  3
Shaded
350
3E
  3
Shaded with edges
350
3D
  3
Shades of Gray
350
3A
  3
Sketchy
350
3B
  3
Thicken
350
36
  3
Wireframe
350
30
  3
X-Ray
350
3C
  0
XRECORD
  5
301
102
{ACAD_REACTORS
330
C
102
}
330
C
100
AcDbXrecord
280
     1
 90
        1
330
65
  0
DICTIONARY
  5
2F9
102
{ACAD_REACTORS
330
C
102
}
330
C
100
AcDbDictionary
281
     1
  3
CANNOSCALE
350
2FE
  3
CMLEADERSTYLE
350
2FB
  3
CTABLESTYLE
350
2FA
  3
CVIEWDETAILSTYLE
350
2FC
  3
CVIEWSECTIONSTYLE
350
2FD
  0
ACDBDETAILVIEWSTYLE
  5
6B
102
{ACAD_REACTORS
330
6A
102
}
330
6A
100
AcDbModelDocViewStyle
 70
     0
  3
Imperial24
290
     1
300
Imperial24
 90
        0
100
AcDbDetailViewStyle
 70
     0
 71
     0
 90
        3
 71
     1
340
55
 62
   256
 40
0.24
340
0
 62
   256
 40
0.24
300

 40
0.36
280
     3
 71
     2
340
5D
 90
       25
 62
   256
 71
     3
340
55
 62
   256
 40
0.24
 90
        1
 40
0.75
 90
        1
300
%<\AcVar ViewType \f "%tc1">% %<\AcVar ViewDetailId>%\PSCALE %<\AcVar ViewScale \f "%sn">%
 71
     4
340
5D
 90
       25
 62
   256
340
5D
 90
       25
 62
   256
280
     0
  0
LAYOUT
  5
6F
102
{ACAD_REACTORS
330
62
102
}
330
62
100
AcDbPlotSettings
  1

  2

  4

  6

 40
0.0
 41
0.0
 42
0.0
 43
0.0
 44
0.0
 45
0.0
 46
0.0
 47
0.0
 48
0.0
 49
0.0
140
0.0
141
0.0
142
1.0
143
1.0
 70
   688
 72
     0
 73
     0
 74
     5
  7

 75
    16
147
1.0
 76
     0
 77
     2
 78
   300
148
0.0
149
0.0
100
AcDbLayout
  1
Layout1
 70
     1
 71
     1
 10
0.0
 20
0.0
 11
12.0
 21
9.0
 12
0.0
 22
0.0
 32
0.0
 14
0.0
 24
0.0
 34
0.0
 15
0.0
 25
0.0
 35
0.0
146
0.0
 13
0.0
 23
0.0
 33
0.0
 16
1.0
 26
0.0
 36
0.0
 17
0.0
 27
1.0
 37
0.0
 76
     0
330
6C
  0
LAYOUT
  5
77
102
{ACAD_REACTORS
330
62
102
}
330
62
100
AcDbPlotSettings
  1

  2

  4

  6

 40
0.0
 41
0.0
 42
0.0
 43
0.0
 44
0.0
 45
0.0
 46
0.0
 47
0.0
 48
0.0
 49
0.0
140
0.0
141
0.0
142
1.0
143
1.0
 70
   688
 72
     0
 73
     0
 74
     5
  7

 75
    16
147
1.0
 76
     0
 77
     2
 78
   300
148
0.0
149
0.0
100
AcDbLayout
  1
Layout2
 70
     1
 71
     2
 10
0.0
 20
0.0
 11
12.0
 21
9.0
 12
0.0
 22
0.0
 32
0.0
 14
0.0
 24
0.0
 34
0.0
 15
0.0
 25
0.0
 35
0.0
146
0.0
 13
0.0
 23
0.0
 33
0.0
 16
1.0
 26
0.0
 36
0.0
 17
0.0
 27
1.0
 37
0.0
 76
     0
330
74
  0
LAYOUT
  5
73
102
{ACAD_REACTORS
330
62
102
}
330
62
100
AcDbPlotSettings
  1

  2

  4

  6

 40
0.0
 41
0.0
 42
0.0
 43
0.0
 44
0.0
 45
0.0
 46
0.0
 47
0.0
 48
0.0
 49
0.0
140
0.0
141
0.0
142
1.0
143
1.0
 70
  1712
 72
     0
 73
     0
 74
     0
  7

 75
     0
147
1.0
 76
     0
 77
     2
 78
   300
148
0.0
149
0.0
100
AcDbLayout
  1
Model
 70
     1
 71
     0
 10
0.0
 20
0.0
 11
12.0
 21
9.0
 12
0.0
 22
0.0
 32
0.0
 14
0.0
 24
0.0
 34
0.0
 15
0.0
 25
0.0
 35
0.0
146
0.0
 13
0.0
 23
0.0
 33
0.0
 16
1.0
 26
0.0
 36
0.0
 17
0.0
 27
1.0
 37
0.0
 76
     0
330
70
  0
MATERIAL
  5
19
102
{ACAD_XDICTIONARY
360
1A
102
}
102
{ACAD_REACTORS
330
10
102
}
330
10
100
AcDbMaterial
  1
ByBlock
 72
     0
 43
0.0208333333333333
 43
0.0
 43
0.0
 43
0.0
 43
0.0
 43
0.0208333333333333
 43
0.0
 43
0.0
 43
0.0
 43
0.0
 43
1.0
 43
0.0
 43
0.0
 43
0.0
 43
0.0
 43
1.0
 77
     0
 47
0.0208333333333333
 47
0.0
 47
0.0
 47
0.0
 47
0.0
 47
0.0208333333333333
 47
0.0
 47
0.0
 47
0.0
 47
0.0
 47
1.0
 47
0.0
 47
0.0
 47
0.0
 47
0.0
 47
1.0
171
     0
 49
0.0208333333333333
 49
0.0
 49
0.0
 49
0.0
 49
0.0
 49
0.0208333333333333
 49
0.0
 49
0.0
 49
0.0
 49
0.0
 49
1.0
 49
0.0
 49
0.0
 49
0.0
 49
0.0
 49
1.0
175
     0
142
0.0208333333333333
142
0.0
142
0.0
142
0.0
142
0.0
142
0.0208333333333333
142
0.0
142
0.0
142
0.0
142
0.0
142
1.0
142
0.0
142
0.0
142
0.0
142
0.0
142
1.0
179
     0
144
0.0208333333333333
144
0.0
144
0.0
144
0.0
144
0.0
144
0.0208333333333333
144
0.0
144
0.0
144
0.0
144
0.0
144
1.0
144
0.0
144
0.0
144
0.0
144
0.0
144
1.0
147
0.0208333333333333
147
0.0
147
0.0
147
0.0
147
0.0
147
0.0208333333333333
147
0.0
147
0.0
147
0.0
147
0.0
147
1.0
147
0.0
147
0.0
147
0.0
147
0.0
147
1.0
  0
MATERIAL
  5
11
102
{ACAD_XDICTIONARY
360
12
102
}
102
{ACAD_REACTORS
330
10
102
}
330
10
100
AcDbMaterial
  1
ByLayer
 72
     0
 43
0.0208333333333333
 43
0.0
 43
0.0
 43
0.0
 43
0.0
 43
0.0208333333333333
 43
0.0
 43
0.0
 43
0.0
 43
0.0
 43
1.0
 43
0.0
 43
0.0
 43
0.0
 43
0.0
 43
1.0
 77
     0
 47
0.0208333333333333
 47
0.0
 47
0.0
 47
0.0
 47
0.0
 47
0.0208333333333333
 47
0.0
 47
0.0
 47
0.0
 47
0.0
 47
1.0
 47
0.0
 47
0.0
 47
0.0
 47
0.0
 47
1.0
171
     0
 49
0.0208333333333333
 49
0.0
 49
0.0
 49
0.0
 49
0.0
 49
0.0208333333333333
 49
0.0
 49
0.0
 49
0.0
 49
0.0
 49
1.0
 49
0.0
 49
0.0
 49
0.0
 49
0.0
 49
1.0
175
     0
142
0.0208333333333333
142
0.0
142
0.0
142
0.0
142
0.0
142
0.0208333333333333
142
0.0
142
0.0
142
0.0
142
0.0
142
1.0
142
0.0
142
0.0
142
0.0
142
0.0
142
1.0
179
     0
144
0.0208333333333333
144
0.0
144
0.0
144
0.0
144
0.0
144
0.0208333333333333
144
0.0
144
0.0
144
0.0
144
0.0
144
1.0
144
0.0
144
0.0
144
0.0
144
0.0
144
1.0
147
0.0208333333333333
147
0.0
147
0.0
147
0.0
147
0.0
147
0.0208333333333333
147
0.0
147
0.0
147
0.0
147
0.0
147
1.0
147
0.0
147
0.0
147
0.0
147
0.0
147
1.0
  0
MATERIAL
  5
21
102
{ACAD_XDICTIONARY
360
22
102
}
102
{ACAD_REACTORS
330
10
102
}
330
10
100
AcDbMaterial
  1
Global
 72
     0
 43
0.0208333333333333
 43
0.0
 43
0.0
 43
0.0
 43
0.0
 43
0.0208333333333333
 43
0.0
 43
0.0
 43
0.0
 43
0.0
 43
1.0
 43
0.0
 43
0.0
 43
0.0
 43
0.0
 43
1.0
 77
     0
 47
0.0208333333333333
 47
0.0
 47
0.0
 47
0.0
 47
0.0
 47
0.0208333333333333
 47
0.0
 47
0.0
 47
0.0
 47
0.0
 47
1.0
 47
0.0
 47
0.0
 47
0.0
 47
0.0
 47
1.0
171
     0
 49
0.0208333333333333
 49
0.0
 49
0.0
 49
0.0
 49
0.0
 49
0.0208333333333333
 49
0.0
 49
0.0
 49
0.0
 49
0.0
 49
1.0
 49
0.0
 49
0.0
 49
0.0
 49
0.0
 49
1.0
175
     0
142
0.0208333333333333
142
0.0
142
0.0
142
0.0
142
0.0
142
0.0208333333333333
142
0.0
142
0.0
142
0.0
142
0.0
142
1.0
142
0.0
142
0.0
142
0.0
142
0.0
142
1.0
179
     0
144
0.0208333333333333
144
0.0
144
0.0
144
0.0
144
0.0
144
0.0208333333333333
144
0.0
144
0.0
144
0.0
144
0.0
144
1.0
144
0.0
144
0.0
144
0.0
144
0.0
144
1.0
147
0.0208333333333333
147
0.0
147
0.0
147
0.0
147
0.0
147
0.0208333333333333
147
0.0
147
0.0
147
0.0
147
0.0
147
1.0
147
0.0
147
0.0
147
0.0
147
0.0
147
1.0
  0
MLEADERSTYLE
  5
67
102
{ACAD_REACTORS
330
66
102
}
330
66
100
AcDbMLeaderStyle
179
     2
170
     2
171
     1
172
     0
 90
        2
 40
0.0
 41
0.0
173
     1
 91
-1056964608
340
5B
 92
       -2
290
     1
 42
0.09
291
     1
 43
0.36
  3
Standard
 44
0.18
300

342
55
174
     1
178
     6
175
     1
176
     0
 93
-1056964608
 45
0.18
292
     0
297
     0
 46
0.18
 94
-1056964608
 47
1.0
 49
1.0
140
1.0
293
     1
141
0.0
294
     1
177
     0
142
1.0
295
     1
296
     0
143
0.125
271
     0
272
     9
273
     9
298
     1
  0
MLINESTYLE
  5
60
102
{ACAD_REACTORS
330
5F
102
}
330
5F
100
AcDbMlineStyle
  2
STANDARD
 70
     0
  3

 62
   256
 51
90.0
 52
90.0
 71
     2
 49
0.5
 62
   256
  6
BYLAYER
 49
-0.5
 62
   256
  6
BYLAYER
  0
ACDBPLACEHOLDER
  5
F
102
{ACAD_REACTORS
330
E
102
}
330
E
  0
SCALE
  5
43
102
{ACAD_REACTORS
330
42
102
}
330
42
100
AcDbScale
 70
     0
300
1:1
140
1.0
141
1.0
290
     1
  0
SCALE
  5
44
102
{ACAD_REACTORS
330
42
102
}
330
42
100
AcDbScale
 70
     0
300
1/128" = 1'-0"
140
0.0078125
141
12.0
290
     0
  0
SCALE
  5
45
102
{ACAD_REACTORS
330
42
102
}
330
42
100
AcDbScale
 70
     0
300
1/64" = 1'-0"
140
0.015625
141
12.0
290
     0
  0
SCALE
  5
46
102
{ACAD_REACTORS
330
42
102
}
330
42
100
AcDbScale
 70
     0
300
1/32" = 1'-0"
140
0.03125
141
12.0
290
     0
  0
SCALE
  5
47
102
{ACAD_REACTORS
330
42
102
}
330
42
100
AcDbScale
 70
     0
300
1/16" = 1'-0"
140
0.0625
141
12.0
290
     0
  0
SCALE
  5
48
102
{ACAD_REACTORS
330
42
102
}
330
42
100
AcDbScale
 70
     0
300
3/32" = 1'-0"
140
0.09375
141
12.0
290
     0
  0
SCALE
  5
49
102
{ACAD_REACTORS
330
42
102
}
330
42
100
AcDbScale
 70
     0
300
1/8" = 1'-0"
140
0.125
141
12.0
290
     0
  0
SCALE
  5
4A
102
{ACAD_REACTORS
330
42
102
}
330
42
100
AcDbScale
 70
     0
300
3/16" = 1'-0"
140
0.1875
141
12.0
290
     0
  0
SCALE
  5
4B
102
{ACAD_REACTORS
330
42
102
}
330
42
100
AcDbScale
 70
     0
300
1/4" = 1'-0"
140
0.25
141
12.0
290
     0
  0
SCALE
  5
4C
102
{ACAD_REACTORS
330
42
102
}
330
42
100
AcDbScale
 70
     0
300
3/8" = 1'-0"
140
0.375
141
12.0
290
     0
  0
SCALE
  5
4D
102
{ACAD_REACTORS
330
42
102
}
330
42
100
AcDbScale
 70
     0
300
1/2" = 1'-0"
140
0.5
141
12.0
290
     0
  0
SCALE
  5
4E
102
{ACAD_REACTORS
330
42
102
}
330
42
100
AcDbScale
 70
     0
300
3/4" = 1'-0"
140
0.75
141
12.0
290
     0
  0
SCALE
  5
4F
102
{ACAD_REACTORS
330
42
102
}
330
42
100
AcDbScale
 70
     0
300
1" = 1'-0"
140
1.0
141
12.0
290
     0
  0
SCALE
  5
50
102
{ACAD_REACTORS
330
42
102
}
330
42
100
AcDbScale
 70
     0
300
1-1/2" = 1'-0"
140
1.5
141
12.0
290
     0
  0
SCALE
  5
51
102
{ACAD_REACTORS
330
42
102
}
330
42
100
AcDbScale
 70
     0
300
3" = 1'-0"
140
3.0
141
12.0
290
     0
  0
SCALE
  5
52
102
{ACAD_REACTORS
330
42
102
}
330
42
100
AcDbScale
 70
     0
300
6" = 1'-0"
140
6.0
141
12.0
290
     0
  0
SCALE
  5
53
102
{ACAD_REACTORS
330
42
102
}
330
42
100
AcDbScale
 70
     0
300
1'-0" = 1'-0"
140
12.0
141
12.0
290
     0
  0
ACDBSECTIONVIEWSTYLE
  5
69
102
{ACAD_REACTORS
330
68
102
}
330
68
100
AcDbModelDocViewStyle
 70
     0
  3
Imperial24
290
     1
300
Imperial24
 90
        0
100
AcDbSectionViewStyle
 70
     0
 71
     0
 90
       78
 71
     1
340
55
 62
   256
 40
0.24
340
0
340
0
 62
   256
 40
0.24
300
I, O, Q, S, X, Z
 40
0.48
 90
        3
 40
0.18
 90
        1
 71
     2
340
5D
 90
       25
 62
   256
340
5D
 90
       50
 62
   256
 40
0.24
 40
0.0
 40
0.24
 71
     3
340
55
 62
   256
 40
0.24
 90
        1
 40
0.75
 90
        1
300
%<\AcVar ViewType \f "%tc1">% %<\AcVar ViewSectionStartId>%-%<\AcVar ViewSectionEndId>%\PSCALE %<\AcVar ViewScale \f "%sn">%
 71
     4
 62
   256
 62
   257
300
ANSI31
 40
1.0
 90
        0
290
     0
290
     0
 90
        6
 40
0.0
 40
1.570796326794896
 40
0.2617993877991494
 40
1.308996938995747
 40
-0.2617993877991494
 40
1.832595714594046
  0
TABLESTYLE
  5
65
102
{ACAD_XDICTIONARY
360
2FF
102
}
102
{ACAD_REACTORS
330
64
102
}
330
64
100
AcDbTableStyle
280
     0
  3
Standard
 70
     0
 71
     0
 40
0.06
 41
0.06
280
     0
281
     0
  7
Standard
140
0.18
170
     2
 62
     0
 63
     7
283
     0
 90
      512
 91
        0
  1

274
    -2
284
     1
 64
     0
275
    -2
285
     1
 65
     0
276
    -2
286
     1
 66
     0
277
    -2
287
     1
 67
     0
278
    -2
288
     1
 68
     0
279
    -2
289
     1
 69
     0
  7
Standard
140
0.25
170
     5
 62
     0
 63
     7
283
     0
 90
      512
 91
        0
  1

274
    -2
284
     1
 64
     0
275
    -2
285
     1
 65
     0
276
    -2
286
     1
 66
     0
277
    -2
287
     1
 67
     0
278
    -2
288
     1
 68
     0
279
    -2
289
     1
 69
     0
  7
Standard
140
0.18
170
     5
 62
     0
 63
     7
283
     0
 90
      512
 91
        0
  1

274
    -2
284
     1
 64
     0
275
    -2
285
     1
 65
     0
276
    -2
286
     1
 66
     0
277
    -2
287
     1
 67
     0
278
    -2
288
     1
 68
     0
279
    -2
289
     1
 69
     0
  0
VISUALSTYLE
  5
2F
102
{ACAD_REACTORS
330
29
102
}
330
29
100
AcDbVisualStyle
  2
2dWireframe
 70
     4
177
     3
291
     0
 70
    58
 90
        0
176
     1
 90
        2
176
     1
 90
        0
176
     1
 90
        0
176
     1
 40
0.6
176
     1
 40
30.0
176
     1
 62
     7
420
 16777215
176
     1
 90
        1
176
     1
 90
        4
176
     1
 62
     7
176
     1
 62
   257
176
     1
 90
        1
176
     1
 90
        1
176
     1
 40
1.0
176
     1
 90
        0
176
     1
 62
   257
176
     1
 40
1.0
176
     1
 90
        1
176
     1
 90
        6
176
     1
 90
        2
176
     1
 62
     7
176
     1
 90
        5
176
     1
 90
        0
176
     1
 90
        0
176
     1
290
     0
176
     1
 90
        1
176
     1
 40
0.0
176
     1
 90
        0
176
     1
290
     1
176
     1
290
     1
176
     1
290
     0
176
     1
290
     0
176
     1
290
     0
176
     1
290
     0
176
     1
290
     0
176
     1
290
     0
176
     1
290
     0
176
     1
 90
       50
176
     1
 40
0.0
176
     1
 40
1.0
176
     1
 90
        0
176
     1
 62
    18
420
        0
176
     1
 90
       50
176
     1
 90
        3
176
     1
 62
     5
420
      255
176
     1
290
     0
176
     1
 90
       50
176
     1
 90
       50
176
     1
 90
       50
176
     1
290
     0
176
     1
 90
       50
176
     1
 62
   256
176
     0
 40
1.0
176
     0
 90
        2
176
     1
  1
strokes_ogs.tif
176
     1
290
     0
176
     1
 40
1.0
176
     1
 40
1.0
176
     1
  0
VISUALSTYLE
  5
2E
102
{ACAD_REACTORS
330
29
102
}
330
29
100
AcDbVisualStyle
  2
Basic
 70
     7
177
     3
291
     1
 70
    58
 90
        1
176
     1
 90
        0
176
     1
 90
        1
176
     1
 90
        0
176
     1
 40
0.6
176
     1
 40
30.0
176
     1
 62
     7
420
 16777215
176
     1
 90
        0
176
     1
 90
        4
176
     1
 62
     7
176
     1
 62
   257
176
     1
 90
        1
176
     1
 90
        1
176
     1
 40
1.0
176
     1
 90
        8
176
     1
 62
     7
176
     1
 40
1.0
176
     1
 90
        1
176
     1
 90
        6
176
     1
 90
        2
176
     1
 62
     7
176
     1
 90
        5
176
     1
 90
        0
176
     1
 90
        0
176
     1
290
     0
176
     1
 90
        1
176
     1
 40
0.0
176
     1
 90
        0
176
     1
290
     0
176
     1
290
     1
176
     1
290
     1
176
     1
290
     0
176
     1
290
     0
176
     1
290
     0
176
     1
290
     0
176
     1
290
     0
176
     1
290
     0
176
     1
 90
       50
176
     1
 40
0.0
176
     1
 40
1.0
176
     1
 90
        0
176
     1
 62
    18
420
        0
176
     1
 90
       50
176
     1
 90
        3
176
     1
 62
     5
420
      255
176
     1
290
     0
176
     1
 90
       50
176
     1
 90
       50
176
     1
 90
       50
176
     1
290
     0
176
     1
 90
       50
176
     1
 62
   256
176
     0
 40
1.0
176
     0
 90
        2
176
     1
  1
strokes_ogs.tif
176
     1
290
     0
176
     1
 40
1.0
176
     1
 40
1.0
176
     1
  0
VISUALSTYLE
  5
35
102
{ACAD_REACTORS
330
29
102
}
330
29
100
AcDbVisualStyle
  2
Brighten
 70
    12
177
     3
291
     1
 70
    58
 90
        2
176
     1
 90
        2
176
     1
 90
        0
176
     1
 90
        0
176
     1
 40
0.6
176
     1
 40
30.0
176
     1
 62
     7
420
 16777215
176
     1
 90
        1
176
     1
 90
        4
176
     1
 62
     7
176
     1
 62
   257
176
     1
 90
        1
176
     1
 90
        1
176
     1
 40
1.0
176
     1
 90
        8
176
     1
 62
     7
176
     1
 40
1.0
176
     1
 90
        1
176
     1
 90
        6
176
     1
 90
        2
176
     1
 62
     7
176
     1
 90
        5
176
     1
 90
        0
176
     1
 90
        0
176
     1
290
     0
176
     1
 90
        1
176
     1
 40
50.0
176
     1
 90
        0
176
     1
290
     0
176
     1
290
     1
176
     1
290
     1
176
     1
290
     0
176
     1
290
     0
176
     1
290
     0
176
     1
290
     0
176
     1
290
     0
176
     1
290
     0
176
     1
 90
       50
176
     1
 40
0.0
176
     1
 40
1.0
176
     1
 90
        0
176
     1
 62
    18
420
        0
176
     1
 90
       50
176
     1
 90
        3
176
     1
 62
     5
420
      255
176
     1
290
     0
176
     1
 90
       50
176
     1
 90
       50
176
     1
 90
       50
176
     1
290
     0
176
     1
 90
       50
176
     1
 62
   256
176
     0
 40
1.0
176
     0
 90
        2
176
     1
  1
strokes_ogs.tif
176
     1
290
     0
176
     1
 40
1.0
176
     1
 40
1.0
176
     1
  0
VISUALSTYLE
  5
39
102
{ACAD_REACTORS
330
29
102
}
330
29
100
AcDbVisualStyle
  2
ColorChange
 70
    16
177
     3
291
     1
 70
    58
 90
        2
176
     1
 90
        2
176
     1
 90
        3
176
     1
 90
        0
176
     1
 40
0.6
176
     1
 40
30.0
176
     1
 62
     8
420
  8421504
176
     1
 90
        1
176
     1
 90
        4
176
     1
 62
     7
176
     1
 62
   257
176
     1
 90
        1
176
     1
 90
        1
176
     1
 40
1.0
176
     1
 90
        8
176
     1
 62
     8
420
  8421504
176
     1
 40
1.0
176
     1
 90
        1
176
     1
 90
        6
176
     1
 90
        2
176
     1
 62
     7
176
     1
 90
        5
176
     1
 90
        0
176
     1
 90
        0
176
     1
290
     0
176
     1
 90
        1
176
     1
 40
0.0
176
     1
 90
        0
176
     1
290
     0
176
     1
290
     1
176
     1
290
     1
176
     1
290
     0
176
     1
290
     0
176
     1
290
     0
176
     1
290
     0
176
     1
290
     0
176
     1
290
     0
176
     1
 90
       50
176
     1
 40
0.0
176
     1
 40
1.0
176
     1
 90
        0
176
     1
 62
    18
420
        0
176
     1
 90
       50
176
     1
 90
        3
176
     1
 62
     5
420
      255
176
     1
290
     0
176
     1
 90
       50
176
     1
 90
       50
176
     1
 90
       50
176
     1
290
     0
176
     1
 90
       50
176
     1
 62
   256
176
     0
 40
1.0
176
     0
 90
        2
176
     1
  1
strokes_ogs.tif
176
     1
290
     0
176
     1
 40
1.0
176
     1
 40
1.0
176
     1
  0
VISUALSTYLE
  5
32
102
{ACAD_REACTORS
330
29
102
}
330
29
100
AcDbVisualStyle
  2
Conceptual
 70
     9
177
     3
291
     0
 70
    58
 90
        3
176
     1
 90
        2
176
     1
 90
        0
176
     1
 90
        0
176
     1
 40
0.6
176
     1
 40
30.0
176
     1
 62
     7
420
 16777215
176
     1
 90
        2
176
     1
 90
        2
176
     1
 62
     7
176
     1
 62
   257
176
     1
 90
        1
176
     1
 90
        1
176
     1
 40
179.0
176
     1
 90
        8
176
     1
 62
     7
176
     1
 40
1.0
176
     1
 90
        1
176
     1
 90
        6
176
     1
 90
        2
176
     1
 62
     7
176
     1
 90
        3
176
     1
 90
        0
176
     1
 90
        0
176
     1
290
     0
176
     1
 90
        1
176
     1
 40
0.0
176
     1
 90
        0
176
     1
290
     0
176
     1
290
     1
176
     1
290
     1
176
     1
290
     0
176
     1
290
     0
176
     1
290
     0
176
     1
290
     0
176
     1
290
     0
176
     1
290
     0
176
     1
 90
       50
176
     1
 40
0.0
176
     1
 40
1.0
176
     1
 90
        0
176
     1
 62
    18
420
        0
176
     1
 90
       50
176
     1
 90
        3
176
     1
 62
     5
420
      255
176
     1
290
     0
176
     1
 90
       50
176
     1
 90
       50
176
     1
 90
       50
176
     1
290
     0
176
     1
 90
       50
176
     1
 62
   256
176
     0
 40
1.0
176
     0
 90
        2
176
     1
  1
strokes_ogs.tif
176
     1
290
     0
176
     1
 40
1.0
176
     1
 40
1.0
176
     1
  0
VISUALSTYLE
  5
34
102
{ACAD_REACTORS
330
29
102
}
330
29
100
AcDbVisualStyle
  2
Dim
 70
    11
177
     3
291
     1
 70
    58
 90
        2
176
     1
 90
        2
176
     1
 90
        0
176
     1
 90
        0
176
     1
 40
0.6
176
     1
 40
30.0
176
     1
 62
     7
420
 16777215
176
     1
 90
        1
176
     1
 90
        4
176
     1
 62
     7
176
     1
 62
   257
176
     1
 90
        1
176
     1
 90
        1
176
     1
 40
1.0
176
     1
 90
        8
176
     1
 62
     7
176
     1
 40
1.0
176
     1
 90
        1
176
     1
 90
        6
176
     1
 90
        2
176
     1
 62
     7
176
     1
 90
        5
176
     1
 90
        0
176
     1
 90
        0
176
     1
290
     0
176
     1
 90
        1
176
     1
 40
-50.0
176
     1
 90
        0
176
     1
290
     0
176
     1
290
     1
176
     1
290
     1
176
     1
290
     0
176
     1
290
     0
176
     1
290
     0
176
     1
290
     0
176
     1
290
     0
176
     1
290
     0
176
     1
 90
       50
176
     1
 40
0.0
176
     1
 40
1.0
176
     1
 90
        0
176
     1
 62
    18
420
        0
176
     1
 90
       50
176
     1
 90
        3
176
     1
 62
     5
420
      255
176
     1
290
     0
176
     1
 90
       50
176
     1
 90
       50
176
     1
 90
       50
176
     1
290
     0
176
     1
 90
       50
176
     1
 62
   256
176
     0
 40
1.0
176
     0
 90
        2
176
     1
  1
strokes_ogs.tif
176
     1
290
     0
176
     1
 40
1.0
176
     1
 40
1.0
176
     1
  0
VISUALSTYLE
  5
41
102
{ACAD_REACTORS
330
29
102
}
330
29
100
AcDbVisualStyle
  2
EdgeColorOff
 70
    22
177
     3
291
     1
 70
    58
 90
        2
176
     0
 90
        2
176
     0
 90
        0
176
     0
 90
        0
176
     0
 40
0.6
176
     0
 40
30.0
176
     0
 62
     7
420
 16777215
176
     0
 90
        1
176
     0
 90
        4
176
     0
 62
     7
176
     0
 62
   257
176
     0
 90
        1
176
     0
 90
        1
176
     0
 40
1.0
176
     0
 90
        8
176
     2
 62
     7
176
     0
 40
1.0
176
     0
 90
        1
176
     0
 90
        6
176
     0
 90
        2
176
     0
 62
     7
176
     0
 90
        5
176
     0
 90
        0
176
     0
 90
        0
176
     0
290
     0
176
     0
 90
        1
176
     0
 40
0.0
176
     0
 90
        0
176
     0
290
     0
176
     0
290
     1
176
     0
290
     1
176
     0
290
     0
176
     0
290
     0
176
     0
290
     0
176
     0
290
     0
176
     0
290
     0
176
     0
290
     0
176
     0
 90
       50
176
     0
 40
0.0
176
     0
 40
1.0
176
     0
 90
        0
176
     0
 62
    18
420
        0
176
     0
 90
       50
176
     0
 90
        3
176
     0
 62
     5
420
      255
176
     0
290
     0
176
     0
 90
       50
176
     0
 90
       50
176
     0
 90
       50
176
     0
290
     0
176
     0
 90
       50
176
     0
 62
   256
176
     0
 40
1.0
176
     0
 90
        2
176
     0
  1
strokes_ogs.tif
176
     0
290
     0
176
     0
 40
1.0
176
     0
 40
1.0
176
     0
  0
VISUALSTYLE
  5
38
102
{ACAD_REACTORS
330
29
102
}
330
29
100
AcDbVisualStyle
  2
Facepattern
 70
    15
177
     3
291
     1
 70
    58
 90
        2
176
     1
 90
        2
176
     1
 90
        0
176
     1
 90
        0
176
     1
 40
0.6
176
     1
 40
30.0
176
     1
 62
     7
420
 16777215
176
     1
 90
        1
176
     1
 90
        4
176
     1
 62
     7
176
     1
 62
   257
176
     1
 90
        1
176
     1
 90
        1
176
     1
 40
1.0
176
     1
 90
        8
176
     1
 62
     7
176
     1
 40
1.0
176
     1
 90
        1
176
     1
 90
        6
176
     1
 90
        2
176
     1
 62
     7
176
     1
 90
        5
176
     1
 90
        0
176
     1
 90
        0
176
     1
290
     0
176
     1
 90
        1
176
     1
 40
0.0
176
     1
 90
        0
176
     1
290
     0
176
     1
290
     1
176
     1
290
     1
176
     1
290
     0
176
     1
290
     0
176
     1
290
     0
176
     1
290
     0
176
     1
290
     0
176
     1
290
     0
176
     1
 90
       50
176
     1
 40
0.0
176
     1
 40
1.0
176
     1
 90
        0
176
     1
 62
    18
420
        0
176
     1
 90
       50
176
     1
 90
        3
176
     1
 62
     5
420
      255
176
     1
290
     0
176
     1
 90
       50
176
     1
 90
       50
176
     1
 90
       50
176
     1
290
     0
176
     1
 90
       50
176
     1
 62
   256
176
     0
 40
1.0
176
     0
 90
        2
176
     1
  1
strokes_ogs.tif
176
     1
290
     0
176
     1
 40
1.0
176
     1
 40
1.0
176
     1
  0
VISUALSTYLE
  5
2A
102
{ACAD_REACTORS
330
29
102
}
330
29
100
AcDbVisualStyle
  2
Flat
 70
     0
177
     3
291
     1
 70
    58
 90
        2
176
     1
 90
        1
176
     1
 90
        1
176
     1
 90
        2
176
     1
 40
0.6
176
     1
 40
30.0
176
     1
 62
     7
420
 16777215
176
     1
 90
        0
176
     1
 90
        0
176
     1
 62
     7
176
     1
 62
   257
176
     1
 90
        1
176
     1
 90
        1
176
     1
 40
1.0
176
     1
 90
        8
176
     1
 62
     7
176
     1
 40
1.0
176
     1
 90
        1
176
     1
 90
        6
176
     1
 90
        2
176
     1
 62
     7
176
     1
 90
        5
176
     1
 90
        0
176
     1
 90
        0
176
     1
290
     0
176
     1
 90
       13
176
     1
 40
0.0
176
     1
 90
        0
176
     1
290
     0
176
     1
290
     1
176
     1
290
     1
176
     1
290
     0
176
     1
290
     0
176
     1
290
     0
176
     1
290
     0
176
     1
290
     0
176
     1
290
     0
176
     1
 90
       50
176
     1
 40
0.0
176
     1
 40
1.0
176
     1
 90
        0
176
     1
 62
    18
420
        0
176
     1
 90
       50
176
     1
 90
        3
176
     1
 62
     5
420
      255
176
     1
290
     0
176
     1
 90
       50
176
     1
 90
       50
176
     1
 90
       50
176
     1
290
     0
176
     1
 90
       50
176
     1
 62
   256
176
     0
 40
1.0
176
     0
 90
        2
176
     1
  1
strokes_ogs.tif
176
     1
290
     0
176
     1
 40
1.0
176
     1
 40
1.0
176
     1
  0
VISUALSTYLE
  5
2B
102
{ACAD_REACTORS
330
29
102
}
330
29
100
AcDbVisualStyle
  2
FlatWithEdges
 70
     1
177
     3
291
     1
 70
    58
 90
        2
176
     1
 90
        1
176
     1
 90
        1
176
     1
 90
        2
176
     1
 40
0.6
176
     1
 40
30.0
176
     1
 62
     7
420
 16777215
176
     1
 90
        1
176
     1
 90
        0
176
     1
 62
     7
176
     1
 62
   257
176
     1
 90
        1
176
     1
 90
        1
176
     1
 40
1.0
176
     1
 90
        0
176
     1
 62
   257
176
     1
 40
1.0
176
     1
 90
        1
176
     1
 90
        6
176
     1
 90
        2
176
     1
 62
     7
176
     1
 90
        5
176
     1
 90
        0
176
     1
 90
        0
176
     1
290
     0
176
     1
 90
       13
176
     1
 40
0.0
176
     1
 90
        0
176
     1
290
     0
176
     1
290
     1
176
     1
290
     1
176
     1
290
     0
176
     1
290
     0
176
     1
290
     0
176
     1
290
     0
176
     1
290
     0
176
     1
290
     0
176
     1
 90
       50
176
     1
 40
0.0
176
     1
 40
1.0
176
     1
 90
        0
176
     1
 62
    18
420
        0
176
     1
 90
       50
176
     1
 90
        3
176
     1
 62
     5
420
      255
176
     1
290
     0
176
     1
 90
       50
176
     1
 90
       50
176
     1
 90
       50
176
     1
290
     0
176
     1
 90
       50
176
     1
 62
   256
176
     0
 40
1.0
176
     0
 90
        2
176
     1
  1
strokes_ogs.tif
176
     1
290
     0
176
     1
 40
1.0
176
     1
 40
1.0
176
     1
  0
VISUALSTYLE
  5
2C
102
{ACAD_REACTORS
330
29
102
}
330
29
100
AcDbVisualStyle
  2
Gouraud
 70
     2
177
     3
291
     1
 70
    58
 90
        2
176
     1
 90
        2
176
     1
 90
        1
176
     1
 90
        2
176
     1
 40
0.6
176
     1
 40
30.0
176
     1
 62
     7
420
 16777215
176
     1
 90
        0
176
     1
 90
        0
176
     1
 62
     7
176
     1
 62
   257
176
     1
 90
        1
176
     1
 90
        1
176
     1
 40
1.0
176
     1
 90
        0
176
     1
 62
     7
176
     1
 40
1.0
176
     1
 90
        1
176
     1
 90
        6
176
     1
 90
        2
176
     1
 62
     7
176
     1
 90
        5
176
     1
 90
        0
176
     1
 90
        0
176
     1
290
     0
176
     1
 90
       13
176
     1
 40
0.0
176
     1
 90
        0
176
     1
290
     0
176
     1
290
     1
176
     1
290
     1
176
     1
290
     0
176
     1
290
     0
176
     1
290
     0
176
     1
290
     0
176
     1
290
     0
176
     1
290
     0
176
     1
 90
       50
176
     1
 40
0.0
176
     1
 40
1.0
176
     1
 90
        0
176
     1
 62
    18
420
        0
176
     1
 90
       50
176
     1
 90
        3
176
     1
 62
     5
420
      255
176
     1
290
     0
176
     1
 90
       50
176
     1
 90
       50
176
     1
 90
       50
176
     1
290
     0
176
     1
 90
       50
176
     1
 62
   256
176
     0
 40
1.0
176
     0
 90
        2
176
     1
  1
strokes_ogs.tif
176
     1
290
     0
176
     1
 40
1.0
176
     1
 40
1.0
176
     1
  0
VISUALSTYLE
  5
2D
102
{ACAD_REACTORS
330
29
102
}
330
29
100
AcDbVisualStyle
  2
GouraudWithEdges
 70
     3
177
     3
291
     1
 70
    58
 90
        2
176
     1
 90
        2
176
     1
 90
        1
176
     1
 90
        2
176
     1
 40
0.6
176
     1
 40
30.0
176
     1
 62
     7
420
 16777215
176
     1
 90
        1
176
     1
 90
        0
176
     1
 62
     7
176
     1
 62
   257
176
     1
 90
        1
176
     1
 90
        1
176
     1
 40
1.0
176
     1
 90
        0
176
     1
 62
   257
176
     1
 40
1.0
176
     1
 90
        1
176
     1
 90
        6
176
     1
 90
        2
176
     1
 62
     7
176
     1
 90
        5
176
     1
 90
        0
176
     1
 90
        0
176
     1
290
     0
176
     1
 90
       13
176
     1
 40
0.0
176
     1
 90
        0
176
     1
290
     0
176
     1
290
     1
176
     1
290
     1
176
     1
290
     0
176
     1
290
     0
176
     1
290
     0
176
     1
290
     0
176
     1
290
     0
176
     1
290
     0
176
     1
 90
       50
176
     1
 40
0.0
176
     1
 40
1.0
176
     1
 90
        0
176
     1
 62
    18
420
        0
176
     1
 90
       50
176
     1
 90
        3
176
     1
 62
     5
420
      255
176
     1
290
     0
176
     1
 90
       50
176
     1
 90
       50
176
     1
 90
       50
176
     1
290
     0
176
     1
 90
       50
176
     1
 62
   256
176
     0
 40
1.0
176
     0
 90
        2
176
     1
  1
strokes_ogs.tif
176
     1
290
     0
176
     1
 40
1.0
176
     1
 40
1.0
176
     1
  0
VISUALSTYLE
  5
31
102
{ACAD_REACTORS
330
29
102
}
330
29
100
AcDbVisualStyle
  2
Hidden
 70
     6
177
     3
291
     0
 70
    58
 90
        1
176
     1
 90
        2
176
     1
 90
        2
176
     1
 90
        0
176
     1
 40
0.6
176
     1
 40
30.0
176
     1
 62
     7
420
 16777215
176
     1
 90
        2
176
     1
 90
        2
176
     1
 62
     7
176
     1
 62
   257
176
     1
 90
        2
176
     1
 90
        1
176
     1
 40
40.0
176
     1
 90
        0
176
     1
 62
   257
176
     1
 40
1.0
176
     1
 90
        1
176
     1
 90
        6
176
     1
 90
        2
176
     1
 62
     7
176
     1
 90
        3
176
     1
 90
        0
176
     1
 90
        0
176
     1
290
     0
176
     1
 90
        1
176
     1
 40
0.0
176
     1
 90
        0
176
     1
290
     0
176
     1
290
     1
176
     1
290
     1
176
     1
290
     0
176
     1
290
     0
176
     1
290
     0
176
     1
290
     0
176
     1
290
     0
176
     1
290
     0
176
     1
 90
       50
176
     1
 40
0.0
176
     1
 40
1.0
176
     1
 90
        0
176
     1
 62
    18
420
        0
176
     1
 90
       50
176
     1
 90
        3
176
     1
 62
     5
420
      255
176
     1
290
     0
176
     1
 90
       50
176
     1
 90
       50
176
     1
 90
       50
176
     1
290
     0
176
     1
 90
       50
176
     1
 62
   256
176
     0
 40
1.0
176
     0
 90
        2
176
     1
  1
strokes_ogs.tif
176
     1
290
     0
176
     1
 40
1.0
176
     1
 40
1.0
176
     1
  0
VISUALSTYLE
  5
3F
102
{ACAD_REACTORS
330
29
102
}
330
29
100
AcDbVisualStyle
  2
JitterOff
 70
    20
177
     3
291
     1
 70
    58
 90
        2
176
     0
 90
        2
176
     0
 90
        0
176
     0
 90
        0
176
     0
 40
0.6
176
     0
 40
30.0
176
     0
 62
     7
420
 16777215
176
     0
 90
        1
176
     0
 90
        4
176
     0
 62
     7
176
     0
 62
   257
176
     0
 90
        1
176
     0
 90
        1
176
     0
 40
1.0
176
     0
 90
       10
176
     2
 62
     7
176
     0
 40
1.0
176
     0
 90
        1
176
     0
 90
        6
176
     0
 90
        2
176
     0
 62
     7
176
     0
 90
        5
176
     0
 90
        0
176
     0
 90
        0
176
     0
290
     0
176
     0
 90
        1
176
     0
 40
0.0
176
     0
 90
        0
176
     0
290
     0
176
     0
290
     1
176
     0
290
     1
176
     0
290
     0
176
     0
290
     0
176
     0
290
     0
176
     0
290
     0
176
     0
290
     0
176
     0
290
     0
176
     0
 90
       50
176
     0
 40
0.0
176
     0
 40
1.0
176
     0
 90
        0
176
     0
 62
    18
420
        0
176
     0
 90
       50
176
     0
 90
        3
176
     0
 62
     5
420
      255
176
     0
290
     0
176
     0
 90
       50
176
     0
 90
       50
176
     0
 90
       50
176
     0
290
     0
176
     0
 90
       50
176
     0
 62
   256
176
     0
 40
1.0
176
     0
 90
        2
176
     0
  1
strokes_ogs.tif
176
     0
290
     0
176
     0
 40
1.0
176
     0
 40
1.0
176
     0
  0
VISUALSTYLE
  5
37
102
{ACAD_REACTORS
330
29
102
}
330
29
100
AcDbVisualStyle
  2
Linepattern
 70
    14
177
     3
291
     1
 70
    58
 90
        2
176
     1
 90
        2
176
     1
 90
        0
176
     1
 90
        0
176
     1
 40
0.6
176
     1
 40
30.0
176
     1
 62
     7
420
 16777215
176
     1
 90
        1
176
     1
 90
        4
176
     1
 62
     7
176
     1
 62
   257
176
     1
 90
        7
176
     1
 90
        7
176
     1
 40
1.0
176
     1
 90
        8
176
     1
 62
     7
176
     1
 40
1.0
176
     1
 90
        1
176
     1
 90
        6
176
     1
 90
        2
176
     1
 62
     7
176
     1
 90
        5
176
     1
 90
        0
176
     1
 90
        0
176
     1
290
     0
176
     1
 90
        1
176
     1
 40
0.0
176
     1
 90
        0
176
     1
290
     0
176
     1
290
     1
176
     1
290
     1
176
     1
290
     0
176
     1
290
     0
176
     1
290
     0
176
     1
290
     0
176
     1
290
     0
176
     1
290
     0
176
     1
 90
       50
176
     1
 40
0.0
176
     1
 40
1.0
176
     1
 90
        0
176
     1
 62
    18
420
        0
176
     1
 90
       50
176
     1
 90
        3
176
     1
 62
     5
420
      255
176
     1
290
     0
176
     1
 90
       50
176
     1
 90
       50
176
     1
 90
       50
176
     1
290
     0
176
     1
 90
       50
176
     1
 62
   256
176
     0
 40
1.0
176
     0
 90
        2
176
     1
  1
strokes_ogs.tif
176
     1
290
     0
176
     1
 40
1.0
176
     1
 40
1.0
176
     1
  0
VISUALSTYLE
  5
40
102
{ACAD_REACTORS
330
29
102
}
330
29
100
AcDbVisualStyle
  2
OverhangOff
 70
    21
177
     3
291
     1
 70
    58
 90
        2
176
     0
 90
        2
176
     0
 90
        0
176
     0
 90
        0
176
     0
 40
0.6
176
     0
 40
30.0
176
     0
 62
     7
420
 16777215
176
     0
 90
        1
176
     0
 90
        4
176
     0
 62
     7
176
     0
 62
   257
176
     0
 90
        1
176
     0
 90
        1
176
     0
 40
1.0
176
     0
 90
        9
176
     2
 62
     7
176
     0
 40
1.0
176
     0
 90
        1
176
     0
 90
        6
176
     0
 90
        2
176
     0
 62
     7
176
     0
 90
        5
176
     0
 90
        0
176
     0
 90
        0
176
     0
290
     0
176
     0
 90
        1
176
     0
 40
0.0
176
     0
 90
        0
176
     0
290
     0
176
     0
290
     1
176
     0
290
     1
176
     0
290
     0
176
     0
290
     0
176
     0
290
     0
176
     0
290
     0
176
     0
290
     0
176
     0
290
     0
176
     0
 90
       50
176
     0
 40
0.0
176
     0
 40
1.0
176
     0
 90
        0
176
     0
 62
    18
420
        0
176
     0
 90
       50
176
     0
 90
        3
176
     0
 62
     5
420
      255
176
     0
290
     0
176
     0
 90
       50
176
     0
 90
       50
176
     0
 90
       50
176
     0
290
     0
176
     0
 90
       50
176
     0
 62
   256
176
     0
 40
1.0
176
     0
 90
        2
176
     0
  1
strokes_ogs.tif
176
     0
290
     0
176
     0
 40
1.0
176
     0
 40
1.0
176
     0
  0
VISUALSTYLE
  5
33
102
{ACAD_REACTORS
330
29
102
}
330
29
100
AcDbVisualStyle
  2
Realistic
 70
     8
177
     3
291
     0
 70
    58
 90
        2
176
     1
 90
        3
176
     1
 90
        0
176
     1
 90
        2
176
     1
 40
0.6
176
     1
 40
30.0
176
     1
 62
     7
420
 16777215
176
     1
 90
        0
176
     1
 90
        0
176
     1
 62
     7
176
     1
 62
   257
176
     1
 90
        1
176
     1
 90
        1
176
     1
 40
1.0
176
     1
 90
        8
176
     1
 62
   257
176
     1
 40
1.0
176
     1
 90
        1
176
     1
 90
        6
176
     1
 90
        2
176
     1
 62
     7
176
     1
 90
        3
176
     1
 90
        0
176
     1
 90
        0
176
     1
290
     0
176
     1
 90
       13
176
     1
 40
0.0
176
     1
 90
        0
176
     1
290
     0
176
     1
290
     1
176
     1
290
     1
176
     1
290
     0
176
     1
290
     0
176
     1
290
     0
176
     1
290
     0
176
     1
290
     0
176
     1
290
     0
176
     1
 90
       50
176
     1
 40
0.0
176
     1
 40
1.0
176
     1
 90
        0
176
     1
 62
    18
420
        0
176
     1
 90
       50
176
     1
 90
        3
176
     1
 62
     5
420
      255
176
     1
290
     0
176
     1
 90
       50
176
     1
 90
       50
176
     1
 90
       50
176
     1
290
     0
176
     1
 90
       50
176
     1
 62
   256
176
     0
 40
1.0
176
     0
 90
        2
176
     1
  1
strokes_ogs.tif
176
     1
290
     0
176
     1
 40
1.0
176
     1
 40
1.0
176
     1
  0
VISUALSTYLE
  5
3E
102
{ACAD_REACTORS
330
29
102
}
330
29
100
AcDbVisualStyle
  2
Shaded
 70
    27
177
     3
291
     0
 70
    58
 90
        2
176
     1
 90
        2
176
     1
 90
        1
176
     1
 90
        2
176
     1
 40
0.6
176
     1
 40
30.0
176
     1
 62
     7
420
 16777215
176
     1
 90
        0
176
     1
 90
        4
176
     1
 62
     7
176
     1
 62
   257
176
     1
 90
        1
176
     1
 90
        1
176
     1
 40
1.0
176
     1
 90
        8
176
     1
 62
   257
176
     1
 40
1.0
176
     1
 90
        1
176
     1
 90
        6
176
     1
 90
        2
176
     1
 62
     8
420
  7895160
176
     1
 90
        3
176
     1
 90
        0
176
     1
 90
        0
176
     1
290
     0
176
     1
 90
        5
176
     1
 40
0.0
176
     1
 90
        0
176
     1
290
     0
176
     1
290
     1
176
     1
290
     1
176
     1
290
     0
176
     1
290
     0
176
     1
290
     0
176
     1
290
     0
176
     1
290
     0
176
     1
290
     0
176
     1
 90
       50
176
     1
 40
0.0
176
     1
 40
1.0
176
     1
 90
        0
176
     1
 62
    18
420
        0
176
     1
 90
       50
176
     1
 90
        3
176
     1
 62
     5
420
      255
176
     1
290
     0
176
     1
 90
       50
176
     1
 90
       50
176
     1
 90
       50
176
     1
290
     0
176
     1
 90
       50
176
     1
 62
   256
176
     0
 40
1.0
176
     0
 90
        2
176
     1
  1
strokes_ogs.tif
176
     1
290
     0
176
     1
 40
1.0
176
     1
 40
1.0
176
     1
  0
VISUALSTYLE
  5
3D
102
{ACAD_REACTORS
330
29
102
}
330
29
100
AcDbVisualStyle
  2
Shaded with edges
 70
    26
177
     3
291
     0
 70
    58
 90
        2
176
     1
 90
        2
176
     1
 90
        1
176
     1
 90
        2
176
     1
 40
0.6
176
     1
 40
30.0
176
     1
 62
     7
420
 16777215
176
     1
 90
        1
176
     1
 90
        2
176
     1
 62
     7
176
     1
 62
   257
176
     1
 90
        2
176
     1
 90
        1
176
     1
 40
1.0
176
     1
 90
        8
176
     1
 62
   257
176
     1
 40
1.0
176
     1
 90
        1
176
     1
 90
        6
176
     1
 90
        2
176
     1
 62
     7
176
     1
 90
        3
176
     1
 90
        0
176
     1
 90
        0
176
     1
290
     0
176
     1
 90
        5
176
     1
 40
0.0
176
     1
 90
        0
176
     1
290
     0
176
     1
290
     1
176
     1
290
     1
176
     1
290
     0
176
     1
290
     0
176
     1
290
     0
176
     1
290
     0
176
     1
290
     0
176
     1
290
     0
176
     1
 90
       50
176
     1
 40
0.0
176
     1
 40
1.0
176
     1
 90
        0
176
     1
 62
    18
420
        0
176
     1
 90
       50
176
     1
 90
        3
176
     1
 62
     5
420
      255
176
     1
290
     0
176
     1
 90
       50
176
     1
 90
       50
176
     1
 90
       50
176
     1
290
     0
176
     1
 90
       50
176
     1
 62
   256
176
     0
 40
1.0
176
     0
 90
        2
176
     1
  1
strokes_ogs.tif
176
     1
290
     0
176
     1
 40
1.0
176
     1
 40
1.0
176
     1
  0
VISUALSTYLE
  5
3A
102
{ACAD_REACTORS
330
29
102
}
330
29
100
AcDbVisualStyle
  2
Shades of Gray
 70
    23
177
     3
291
     0
 70
    58
 90
        2
176
     1
 90
        2
176
     1
 90
        3
176
     1
 90
        0
176
     1
 40
0.6
176
     1
 40
30.0
176
     1
 62
     7
420
 16777215
176
     1
 90
        2
176
     1
 90
        2
176
     1
 62
     7
176
     1
 62
     7
176
     1
 90
        1
176
     1
 90
        1
176
     1
 40
40.0
176
     1
 90
        8
176
     1
 62
     7
176
     1
 40
1.0
176
     1
 90
        1
176
     1
 90
        6
176
     1
 90
        2
176
     1
 62
     7
176
     1
 90
        3
176
     1
 90
        0
176
     1
 90
        0
176
     1
290
     0
176
     1
 90
        1
176
     1
 40
0.0
176
     1
 90
        0
176
     1
290
     0
176
     1
290
     1
176
     1
290
     1
176
     1
290
     0
176
     1
290
     0
176
     1
290
     0
176
     1
290
     0
176
     1
290
     0
176
     1
290
     0
176
     1
 90
       50
176
     1
 40
0.0
176
     1
 40
1.0
176
     1
 90
        0
176
     1
 62
    18
420
        0
176
     1
 90
       50
176
     1
 90
        3
176
     1
 62
     5
420
      255
176
     1
290
     0
176
     1
 90
       50
176
     1
 90
       50
176
     1
 90
       50
176
     1
290
     0
176
     1
 90
       50
176
     1
 62
   256
176
     0
 40
1.0
176
     0
 90
        2
176
     1
  1
strokes_ogs.tif
176
     1
290
     0
176
     1
 40
1.0
176
     1
 40
1.0
176
     1
  0
VISUALSTYLE
  5
3B
102
{ACAD_REACTORS
330
29
102
}
330
29
100
AcDbVisualStyle
  2
Sketchy
 70
    24
177
     3
291
     0
 70
    58
 90
        1
176
     1
 90
        2
176
     1
 90
        2
176
     1
 90
        0
176
     1
 40
0.6
176
     1
 40
30.0
176
     1
 62
     7
420
 16777215
176
     1
 90
        2
176
     1
 90
        2
176
     1
 62
     7
176
     1
 62
     7
176
     1
 90
        1
176
     1
 90
        1
176
     1
 40
40.0
176
     1
 90
       11
176
     1
 62
     7
176
     1
 40
1.0
176
     1
 90
        1
176
     1
 90
        6
176
     1
 90
        2
176
     1
 62
     7
176
     1
 90
        6
176
     1
 90
        0
176
     1
 90
        0
176
     1
290
     0
176
     1
 90
        1
176
     1
 40
0.0
176
     1
 90
        0
176
     1
290
     0
176
     1
290
     1
176
     1
290
     1
176
     1
290
     0
176
     1
290
     0
176
     1
290
     0
176
     1
290
     0
176
     1
290
     0
176
     1
290
     0
176
     1
 90
       50
176
     1
 40
0.0
176
     1
 40
1.0
176
     1
 90
        0
176
     1
 62
    18
420
        0
176
     1
 90
       50
176
     1
 90
        3
176
     1
 62
     5
420
      255
176
     1
290
     0
176
     1
 90
       50
176
     1
 90
       50
176
     1
 90
       50
176
     1
290
     0
176
     1
 90
       50
176
     1
 62
   256
176
     0
 40
1.0
176
     0
 90
        2
176
     1
  1
strokes_ogs.tif
176
     1
290
     0
176
     1
 40
1.0
176
     1
 40
1.0
176
     1
  0
VISUALSTYLE
  5
36
102
{ACAD_REACTORS
330
29
102
}
330
29
100
AcDbVisualStyle
  2
Thicken
 70
    13
177
     3
291
     1
 70
    58
 90
        2
176
     1
 90
        2
176
     1
 90
        0
176
     1
 90
        0
176
     1
 40
0.6
176
     1
 40
30.0
176
     1
 62
     7
420
 16777215
176
     1
 90
        1
176
     1
 90
        4
176
     1
 62
     7
176
     1
 62
   257
176
     1
 90
        1
176
     1
 90
        1
176
     1
 40
1.0
176
     1
 90
       12
176
     1
 62
     7
176
     1
 40
1.0
176
     1
 90
        1
176
     1
 90
        6
176
     1
 90
        2
176
     1
 62
     7
176
     1
 90
        5
176
     1
 90
        0
176
     1
 90
        0
176
     1
290
     0
176
     1
 90
        1
176
     1
 40
0.0
176
     1
 90
        0
176
     1
290
     0
176
     1
290
     1
176
     1
290
     1
176
     1
290
     0
176
     1
290
     0
176
     1
290
     0
176
     1
290
     0
176
     1
290
     0
176
     1
290
     0
176
     1
 90
       50
176
     1
 40
0.0
176
     1
 40
1.0
176
     1
 90
        0
176
     1
 62
    18
420
        0
176
     1
 90
       50
176
     1
 90
        3
176
     1
 62
     5
420
      255
176
     1
290
     0
176
     1
 90
       50
176
     1
 90
       50
176
     1
 90
       50
176
     1
290
     0
176
     1
 90
       50
176
     1
 62
   256
176
     0
 40
1.0
176
     0
 90
        2
176
     1
  1
strokes_ogs.tif
176
     1
290
     0
176
     1
 40
1.0
176
     1
 40
1.0
176
     1
  0
VISUALSTYLE
  5
30
102
{ACAD_REACTORS
330
29
102
}
330
29
100
AcDbVisualStyle
  2
Wireframe
 70
     5
177
     3
291
     0
 70
    58
 90
        0
176
     1
 90
        2
176
     1
 90
        0
176
     1
 90
        0
176
     1
 40
0.6
176
     1
 40
30.0
176
     1
 62
     7
420
 16777215
176
     1
 90
        1
176
     1
 90
        4
176
     1
 62
     7
176
     1
 62
   257
176
     1
 90
        1
176
     1
 90
        1
176
     1
 40
1.0
176
     1
 90
        0
176
     1
 62
   257
176
     1
 40
1.0
176
     1
 90
        1
176
     1
 90
        6
176
     1
 90
        2
176
     1
 62
     7
176
     1
 90
        3
176
     1
 90
        0
176
     1
 90
        0
176
     1
290
     0
176
     1
 90
        1
176
     1
 40
0.0
176
     1
 90
        0
176
     1
290
     0
176
     1
290
     1
176
     1
290
     1
176
     1
290
     0
176
     1
290
     0
176
     1
290
     0
176
     1
290
     0
176
     1
290
     0
176
     1
290
     0
176
     1
 90
       50
176
     1
 40
0.0
176
     1
 40
1.0
176
     1
 90
        0
176
     1
 62
    18
420
        0
176
     1
 90
       50
176
     1
 90
        3
176
     1
 62
     5
420
      255
176
     1
290
     0
176
     1
 90
       50
176
     1
 90
       50
176
     1
 90
       50
176
     1
290
     0
176
     1
 90
       50
176
     1
 62
   256
176
     0
 40
1.0
176
     0
 90
        2
176
     1
  1
strokes_ogs.tif
176
     1
290
     0
176
     1
 40
1.0
176
     1
 40
1.0
176
     1
  0
VISUALSTYLE
  5
3C
102
{ACAD_REACTORS
330
29
102
}
330
29
100
AcDbVisualStyle
  2
X-Ray
 70
    25
177
     3
291
     0
 70
    58
 90
        2
176
     1
 90
        2
176
     1
 90
        1
176
     1
 90
        1
176
     1
 40
0.5
176
     1
 40
30.0
176
     1
 62
     7
420
 16777215
176
     1
 90
        1
176
     1
 90
        0
176
     1
 62
     7
176
     1
 62
   257
176
     1
 90
        1
176
     1
 90
        1
176
     1
 40
1.0
176
     1
 90
        8
176
     1
 62
     7
176
     1
 40
1.0
176
     1
 90
        1
176
     1
 90
        6
176
     1
 90
        2
176
     1
 62
     7
176
     1
 90
        3
176
     1
 90
        0
176
     1
 90
        0
176
     1
290
     0
176
     1
 90
       13
176
     1
 40
0.0
176
     1
 90
        0
176
     1
290
     0
176
     1
290
     1
176
     1
290
     1
176
     1
290
     0
176
     1
290
     0
176
     1
290
     0
176
     1
290
     0
176
     1
290
     0
176
     1
290
     0
176
     1
 90
       50
176
     1
 40
0.0
176
     1
 40
1.0
176
     1
 90
        0
176
     1
 62
    18
420
        0
176
     1
 90
       50
176
     1
 90
        3
176
     1
 62
     5
420
      255
176
     1
290
     0
176
     1
 90
       50
176
     1
 90
       50
176
     1
 90
       50
176
     1
290
     0
176
     1
 90
       50
176
     1
 62
   256
176
     0
 40
1.0
176
     0
 90
        2
176
     1
  1
strokes_ogs.tif
176
     1
290
     0
176
     1
 40
1.0
176
     1
 40
1.0
176
     1
  0
DICTIONARYVAR
  5
2FE
102
{ACAD_REACTORS
330
2F9
102
}
330
2F9
100
DictionaryVariables
280
     0
  1
1:1
  0
DICTIONARYVAR
  5
2FB
102
{ACAD_REACTORS
330
2F9
102
}
330
2F9
100
DictionaryVariables
280
     0
  1
STANDARD
  0
DICTIONARYVAR
  5
2FA
102
{ACAD_REACTORS
330
2F9
102
}
330
2F9
100
DictionaryVariables
280
     0
  1
STANDARD
  0
DICTIONARYVAR
  5
2FC
102
{ACAD_REACTORS
330
2F9
102
}
330
2F9
100
DictionaryVariables
280
     0
  1
Imperial24
  0
DICTIONARYVAR
  5
2FD
102
{ACAD_REACTORS
330
2F9
102
}
330
2F9
100
DictionaryVariables
280
     0
  1
Imperial24
  0
DICTIONARY
  5
1A
330
19
100
AcDbDictionary
280
     1
281
     1
  3
BUMPTILE
360
1C
  3
DIFFUSETILE
360
1B
  3
OPACITYTILE
360
1F
  3
REFLECTIONTILE
360
1E
  3
REFRACTIONTILE
360
20
  3
SPECULARTILE
360
1D
  0
DICTIONARY
  5
12
330
11
100
AcDbDictionary
280
     1
281
     1
  3
BUMPTILE
360
14
  3
DIFFUSETILE
360
13
  3
OPACITYTILE
360
17
  3
REFLECTIONTILE
360
16
  3
REFRACTIONTILE
360
18
  3
SPECULARTILE
360
15
  0
DICTIONARY
  5
22
330
21
100
AcDbDictionary
280
     1
281
     1
  3
BUMPTILE
360
24
  3
DIFFUSETILE
360
23
  3
OPACITYTILE
360
27
  3
REFLECTIONTILE
360
26
  3
REFRACTIONTILE
360
28
  3
SPECULARTILE
360
25
  0
DICTIONARY
  5
2FF
330
65
100
AcDbDictionary
280
     1
281
     1
  3
ACAD_ROUNDTRIP_2008_TABLESTYLE_CELLSTYLEMAP
360
300
  0
XRECORD
  5
1C
102
{ACAD_REACTORS
330
1A
102
}
330
1A
100
AcDbXrecord
280
     1
270
     1
271
     1
  0
XRECORD
  5
1B
102
{ACAD_REACTORS
330
1A
102
}
330
1A
100
AcDbXrecord
280
     1
270
     1
271
     1
  0
XRECORD
  5
1F
102
{ACAD_REACTORS
330
1A
102
}
330
1A
100
AcDbXrecord
280
     1
270
     1
271
     1
  0
XRECORD
  5
1E
102
{ACAD_REACTORS
330
1A
102
}
330
1A
100
AcDbXrecord
280
     1
270
     1
271
     1
  0
XRECORD
  5
20
102
{ACAD_REACTORS
330
1A
102
}
330
1A
100
AcDbXrecord
280
     1
270
     1
271
     1
  0
XRECORD
  5
1D
102
{ACAD_REACTORS
330
1A
102
}
330
1A
100
AcDbXrecord
280
     1
270
     1
271
     1
  0
XRECORD
  5
14
102
{ACAD_REACTORS
330
12
102
}
330
12
100
AcDbXrecord
280
     1
270
     1
271
     1
  0
XRECORD
  5
13
102
{ACAD_REACTORS
330
12
102
}
330
12
100
AcDbXrecord
280
     1
270
     1
271
     1
  0
XRECORD
  5
17
102
{ACAD_REACTORS
330
12
102
}
330
12
100
AcDbXrecord
280
     1
270
     1
271
     1
  0
XRECORD
  5
16
102
{ACAD_REACTORS
330
12
102
}
330
12
100
AcDbXrecord
280
     1
270
     1
271
     1
  0
XRECORD
  5
18
102
{ACAD_REACTORS
330
12
102
}
330
12
100
AcDbXrecord
280
     1
270
     1
271
     1
  0
XRECORD
  5
15
102
{ACAD_REACTORS
330
12
102
}
330
12
100
AcDbXrecord
280
     1
270
     1
271
     1
  0
XRECORD
  5
24
102
{ACAD_REACTORS
330
22
102
}
330
22
100
AcDbXrecord
280
     1
270
     1
271
     1
  0
XRECORD
  5
23
102
{ACAD_REACTORS
330
22
102
}
330
22
100
AcDbXrecord
280
     1
270
     1
271
     1
  0
XRECORD
  5
27
102
{ACAD_REACTORS
330
22
102
}
330
22
100
AcDbXrecord
280
     1
270
     1
271
     1
  0
XRECORD
  5
26
102
{ACAD_REACTORS
330
22
102
}
330
22
100
AcDbXrecord
280
     1
270
     1
271
     1
  0
XRECORD
  5
28
102
{ACAD_REACTORS
330
22
102
}
330
22
100
AcDbXrecord
280
     1
270
     1
271
     1
  0
XRECORD
  5
25
102
{ACAD_REACTORS
330
22
102
}
330
22
100
AcDbXrecord
280
     1
270
     1
271
     1
  0
CELLSTYLEMAP
  5
300
102
{ACAD_REACTORS
330
2FF
102
}
330
2FF
100
AcDbCellStyleMap
 90
        3
300
CELLSTYLE
  1
TABLEFORMAT_BEGIN
 90
        5
170
     1
 91
        0
 92
    32768
 62
   257
 93
        1
300
CONTENTFORMAT
  1
CONTENTFORMAT_BEGIN
 90
        0
 91
        0
 92
      512
 93
        0
300

 40
0.0
140
1.0
 94
        5
 62
     0
340
55
144
0.25
309
CONTENTFORMAT_END
171
     0
 94
        0
309
TABLEFORMAT_END
  1
CELLSTYLE_BEGIN
 90
        1
 91
        1
300
_TITLE
309
CELLSTYLE_END
300
CELLSTYLE
  1
TABLEFORMAT_BEGIN
 90
        5
170
     1
 91
        0
 92
        0
 62
   257
 93
        1
300
CONTENTFORMAT
  1
CONTENTFORMAT_BEGIN
 90
        0
 91
        0
 92
      512
 93
        0
300

 40
0.0
140
1.0
 94
        5
 62
     0
340
55
144
0.18
309
CONTENTFORMAT_END
171
     0
 94
        0
309
TABLEFORMAT_END
  1
CELLSTYLE_BEGIN
 90
        2
 91
        1
300
_HEADER
309
CELLSTYLE_END
300
CELLSTYLE
  1
TABLEFORMAT_BEGIN
 90
        5
170
     1
 91
        0
 92
        0
 62
   257
 93
        1
300
CONTENTFORMAT
  1
CONTENTFORMAT_BEGIN
 90
        0
 91
        0
 92
      512
 93
        0
300

 40
0.0
140
1.0
 94
        2
 62
     0
340
55
144
0.18
309
CONTENTFORMAT_END
171
     0
 94
        0
309
TABLEFORMAT_END
  1
CELLSTYLE_BEGIN
 90
        3
 91
        2
300
_DATA
309
CELLSTYLE_END
  0
ENDSEC
  0
EOF
