  0
SECTION
  2
HEADER
  9
$ACADVER
  1
AC1032
  9
$ACADMAINTVER
 90
      251
  9
$DWGCODEPAGE
  3
ANSI_1252
  9
$REQUIREDVERSIONS
160
                 0
  9
$INSBASE
 10
0.0
 20
0.0
 30
0.0
  9
$EXTMIN
 10
1.000000000000000E+20
 20
1.000000000000000E+20
 30
1.000000000000000E+20
  9
$EXTMAX
 10
-1.000000000000000E+20
 20
-1.000000000000000E+20
 30
-1.000000000000000E+20
  9
$LIMMIN
 10
0.0
 20
0.0
  9
$LIMMAX
 10
12.0
 20
9.0
  9
$ORTHOMODE
 70
     0
  9
$REGENMODE
 70
     1
  9
$FILLMODE
 70
     1
  9
$QTEXTMODE
 70
     0
  9
$MIRRTEXT
 70
     0
  9
$LTSCALE
 40
1.0
  9
$ATTMODE
 70
     1
  9
$TEXTSIZE
 40
0.2
  9
$TRACEWID
 40
0.05
  9
$TEXTSTYLE
  7
Standard
  9
$CLAYER
  8
0
  9
$CELTYPE
  6
ByLayer
  9
$CECOLOR
 62
   256
  9
$CELTSCALE
 40
1.0
  9
$DISPSILH
 70
     0
  9
$DIMSCALE
 40
1.0
  9
$DIMASZ
 40
0.18
  9
$DIMEXO
 40
0.0625
  9
$DIMDLI
 40
0.38
  9
$DIMRND
 40
0.0
  9
$DIMDLE
 40
0.0
  9
$DIMEXE
 40
0.18
  9
$DIMTP
 40
0.0
  9
$DIMTM
 40
0.0
  9
$DIMTXT
 40
0.18
  9
$DIMCEN
 40
0.09
  9
$DIMTSZ
 40
0.0
  9
$DIMTOL
 70
     0
  9
$DIMLIM
 70
     0
  9
$DIMTIH
 70
     1
  9
$DIMTOH
 70
     1
  9
$DIMSE1
 70
     0
  9
$DIMSE2
 70
     0
  9
$DIMTAD
 70
     0
  9
$DIMZIN
 70
     0
  9
$DIMBLK
  1

  9
$DIMASO
 70
     1
  9
$DIMSHO
 70
     1
  9
$DIMPOST
  1

  9
$DIMAPOST
  1

  9
$DIMALT
 70
     0
  9
$DIMALTD
 70
     2
  9
$DIMALTF
 40
25.4
  9
$DIMLFAC
 40
1.0
  9
$DIMTOFL
 70
     0
  9
$DIMTVP
 40
0.0
  9
$DIMTIX
 70
     0
  9
$DIMSOXD
 70
     0
  9
$DIMSAH
 70
     0
  9
$DIMBLK1
  1

  9
$DIMBLK2
  1

  9
$DIMSTYLE
  2
Standard
  9
$DIMCLRD
 70
     0
  9
$DIMCLRE
 70
     0
  9
$DIMCLRT
 70
     0
  9
$DIMTFAC
 40
1.0
  9
$DIMGAP
 40
0.09
  9
$DIMJUST
 70
     0
  9
$DIMSD1
 70
     0
  9
$DIMSD2
 70
     0
  9
$DIMTOLJ
 70
     1
  9
$DIMTZIN
 70
     0
  9
$DIMALTZ
 70
     0
  9
$DIMALTTZ
 70
     0
  9
$DIMUPT
 70
     0
  9
$DIMDEC
 70
     4
  9
$DIMTDEC
 70
     4
  9
$DIMALTU
 70
     2
  9
$DIMALTTD
 70
     2
  9
$DIMTXSTY
  7
Standard
  9
$DIMAUNIT
 70
     0
  9
$DIMADEC
 70
     0
  9
$DIMALTRND
 40
0.0
  9
$DIMAZIN
 70
     0
  9
$DIMDSEP
 70
    46
  9
$DIMATFIT
 70
     3
  9
$DIMFRAC
 70
     0
  9
$DIMLDRBLK
  1

  9
$DIMLUNIT
 70
     2
  9
$DIMLWD
 70
    -2
  9
$DIMLWE
 70
    -2
  9
$DIMTMOVE
 70
     0
  9
$DIMFXL
 40
1.0
  9
$DIMFXLON
 70
     0
  9
$DIMJOGANG
 40
0.7853981633974483
  9
$DIMTFILL
 70
     0
  9
$DIMTFILLCLR
 70
     0
  9
$DIMARCSYM
 70
     0
  9
$DIMLTYPE
  6

  9
$DIMLTEX1
  6

  9
$DIMLTEX2
  6

  9
$DIMTXTDIRECTION
 70
     0
  9
$LUNITS
 70
     2
  9
$LUPREC
 70
     4
  9
$SKETCHINC
 40
0.1
  9
$FILLETRAD
 40
0.0
  9
$AUNITS
 70
     0
  9
$AUPREC
 70
     0
  9
$MENU
  1
.
  9
$ELEVATION
 40
0.0
  9
$PELEVATION
 40
0.0
  9
$THICKNESS
 40
0.0
  9
$LIMCHECK
 70
     0
  9
$CHAMFERA
 40
0.0
  9
$CHAMFERB
 40
0.0
  9
$CHAMFERC
 40
0.0
  9
$CHAMFERD
 40
0.0
  9
$SKPOLY
 70
     0
  9
$TDCREATE
 40
2460047.503229167
  9
$TDUCREATE
 40
2460047.419895833
  9
$TDUPDATE
 40
2460047.503229167
  9
$TDUUPDATE
 40
2460047.419895833
  9
$TDINDWG
 40
0.0000000000
  9
$TDUSRTIMER
 40
0.0000000000
  9
$USRTIMER
 70
     1
  9
$ANGBASE
 50
0.0
  9
$ANGDIR
 70
     0
  9
$PDMODE
 70
     0
  9
$PDSIZE
 40
0.0
  9
$PLINEWID
 40
0.0
  9
$SPLFRAME
 70
     0
  9
$SPLINETYPE
 70
     6
  9
$SPLINESEGS
 70
     8
  9
$HANDSEED
  5
302
  9
$SURFTAB1
 70
     6
  9
$SURFTAB2
 70
     6
  9
$SURFTYPE
 70
     6
  9
$SURFU
 70
     6
  9
$SURFV
 70
     6
  9
$UCSBASE
  2

  9
$UCSNAME
  2

  9
$UCSORG
 10
0.0
 20
0.0
 30
0.0
  9
$UCSXDIR
 10
1.0
 20
0.0
 30
0.0
  9
$UCSYDIR
 10
0.0
 20
1.0
 30
0.0
  9
$UCSORTHOREF
  2

  9
$UCSORTHOVIEW
 70
     0
  9
$UCSORGTOP
 10
0.0
 20
0.0
 30
0.0
  9
$UCSORGBOTTOM
 10
0.0
 20
0.0
 30
0.0
  9
$UCSORGLEFT
 10
0.0
 20
0.0
 30
0.0
  9
$UCSORGRIGHT
 10
0.0
 20
0.0
 30
0.0
  9
$UCSORGFRONT
 10
0.0
 20
0.0
 30
0.0
  9
$UCSORGBACK
 10
0.0
 20
0.0
 30
0.0
  9
$PUCSBASE
  2

  9
$PUCSNAME
  2

  9
$PUCSORG
 10
0.0
 20
0.0
 30
0.0
  9
$PUCSXDIR
 10
1.0
 20
0.0
 30
0.0
  9
$PUCSYDIR
 10
0.0
 20
1.0
 30
0.0
  9
$PUCSORTHOREF
  2

  9
$PUCSORTHOVIEW
 70
     0
  9
$PUCSORGTOP
 10
0.0
 20
0.0
 30
0.0
  9
$PUCSORGBOTTOM
 10
0.0
 20
0.0
 30
0.0
  9
$PUCSORGLEFT
 10
0.0
 20
0.0
 30
0.0
  9
$PUCSORGRIGHT
 10
0.0
 20
0.0
 30
0.0
  9
$PUCSORGFRONT
 10
0.0
 20
0.0
 30
0.0
  9
$PUCSORGBACK
 10
0.0
 20
0.0
 30
0.0
  9
$USERI1
 70
     0
  9
$USERI2
 70
     0
  9
$USERI3
 70
     0
  9
$USERI4
 70
     0
  9
$USERI5
 70
     0
  9
$USERR1
 40
0.0
  9
$USERR2
 40
0.0
  9
$USERR3
 40
0.0
  9
$USERR4
 40
0.0
  9
$USERR5
 40
0.0
  9
$WORLDVIEW
 70
     1
  9
$SHADEDGE
 70
     3
  9
$SHADEDIF
 70
    70
  9
$TILEMODE
 70
     1
  9
$MAXACTVP
 70
    64
  9
$PINSBASE
 10
0.0
 20
0.0
 30
0.0
  9
$PLIMCHECK
 70
     0
  9
$PEXTMIN
 10
1.000000000000000E+20
 20
1.000000000000000E+20
 30
1.000000000000000E+20
  9
$PEXTMAX
 10
-1.000000000000000E+20
 20
-1.000000000000000E+20
 30
-1.000000000000000E+20
  9
$PLIMMIN
 10
0.0
 20
0.0
  9
$PLIMMAX
 10
12.0
 20
9.0
  9
$UNITMODE
 70
     0
  9
$VISRETAIN
 70
     1
  9
$PLINEGEN
 70
     0
  9
$PSLTSCALE
 70
     1
  9
$TREEDEPTH
 70
  3020
  9
$CMLSTYLE
  2
Standard
  9
$CMLJUST
 70
     0
  9
$CMLSCALE
 40
1.0
  9
$PROXYGRAPHICS
 70
     1
  9
$MEASUREMENT
 70
     0
  9
$CELWEIGHT
370
    -1
  9
$ENDCAPS
280
     0
  9
$JOINSTYLE
280
     0
  9
$LWDISPLAY
290
     1
  9
$INSUNITS
 70
     4
  9
$HYPERLINKBASE
  1

  9
$STYLESHEET
  1

  9
$XEDIT
290
     1
  9
$CEPSNTYPE
380
     0
  9
$PSTYLEMODE
290
     1
  9
$FINGERPRINTGUID
  2
{7B1A1660-7C64-8D42-968C-30E09B0C222B}
  9
$VERSIONGUID
  2
{F1D2814C-3CB3-5E4B-92AB-23E54977F7B0}
  9
$EXTNAMES
290
     1
  9
$PSVPSCALE
 40
0.0
  9
$OLESTARTUP
290
     0
  9
$SORTENTS
280
   127
  9
$INDEXCTL
280
     0
  9
$HIDETEXT
280
     1
  9
$XCLIPFRAME
280
     2
  9
$HALOGAP
280
     0
  9
$OBSCOLOR
 70
   257
  9
$OBSLTYPE
280
     0
  9
$INTERSECTIONDISPLAY
280
     0
  9
$INTERSECTIONCOLOR
 70
   257
  9
$DIMASSOC
280
     2
  9
$PROJECTNAME
  1

  9
$CAMERADISPLAY
290
     0
  9
$LENSLENGTH
 40
50.0
  9
$CAMERAHEIGHT
 40
0.0
  9
$STEPSPERSEC
 40
2.0
  9
$STEPSIZE
 40
6.0
  9
$3DDWFPREC
 40
2.0
  9
$PSOLWIDTH
 40
0.25
  9
$PSOLHEIGHT
 40
4.0
  9
$LOFTANG1
 40
1.570796326794896
  9
$LOFTANG2
 40
1.570796326794896
  9
$LOFTMAG1
 40
0.0
  9
$LOFTMAG2
 40
0.0
  9
$LOFTPARAM
 70
     7
  9
$LOFTNORMALS
280
     1
  9
$LATITUDE
 40
37.795
  9
$LONGITUDE
 40
-122.394
  9
$NORTHDIRECTION
 40
0.0
  9
$TIMEZONE
 70
 -8000
  9
$LIGHTGLYPHDISPLAY
280
     1
  9
$TILEMODELIGHTSYNCH
280
     1
  9
$CMATERIAL
347
11
  9
$SOLIDHIST
280
     0
  9
$SHOWHIST
280
     1
  9
$DWFFRAME
280
     2
  9
$DGNFRAME
280
     0
  9
$REALWORLDSCALE
290
     1
  9
$INTERFERECOLOR
 62
     1
  9
$INTERFEREOBJVS
345
33
  9
$INTERFEREVPVS
346
30
  9
$CSHADOW
280
     0
  9
$SHADOWPLANELOCATION
 40
0.0
  0
ENDSEC
  0
SECTION
  2
CLASSES
  0
CLASS
  1
ACDBDICTIONARYWDFLT
  2
AcDbDictionaryWithDefault
  3
ObjectDBX Classes
 90
        0
 91
        1
280
     0
281
     0
  0
CLASS
  1
MATERIAL
  2
AcDbMaterial
  3
ObjectDBX Classes
 90
     1153
 91
        3
280
     0
281
     0
  0
CLASS
  1
VISUALSTYLE
  2
AcDbVisualStyle
  3
ObjectDBX Classes
 90
     4095
 91
       24
280
     0
281
     0
  0
CLASS
  1
SCALE
  2
AcDbScale
  3
ObjectDBX Classes
 90
     1153
 91
       17
280
     0
281
     0
  0
CLASS
  1
TABLESTYLE
  2
AcDbTableStyle
  3
ObjectDBX Classes
 90
     4095
 91
        1
280
     0
281
     0
  0
CLASS
  1
MLEADERSTYLE
  2
AcDbMLeaderStyle
  3
ACDB_MLEADERSTYLE_CLASS
 90
     4095
 91
        1
280
     0
281
     0
  0
CLASS
  1
ACDBSECTIONVIEWSTYLE
  2
AcDbSectionViewStyle
  3
ObjectDBX Classes
 90
     1025
 91
        1
280
     0
281
     0
  0
CLASS
  1
ACDBDETAILVIEWSTYLE
  2
AcDbDetailViewStyle
  3
ObjectDBX Classes
 90
     1025
 91
        1
280
     0
281
     0
  0
CLASS
  1
DICTIONARYVAR
  2
AcDbDictionaryVar
  3
ObjectDBX Classes
 90
        0
 91
        5
280
     0
281
     0
  0
CLASS
  1
CELLSTYLEMAP
  2
AcDbCellStyleMap
  3
ObjectDBX Classes
 90
     1152
 91
        1
280
     0
281
     0
  0
ENDSEC
  0
SECTION
  2
TABLES
  0
TABLE
  2
VPORT
  5
8
330
0
100
AcDbSymbolTable
 70
     1
  0
VPORT
  5
57
330
8
100
AcDbSymbolTableRecord
100
AcDbViewportTableRecord
  2
*Active
 70
     0
 10
0.0
 20
0.0
 11
1.0
 21
1.0
 12
0.0
 22
0.0
 13
0.0
 23
0.0
 14
1.0
 24
1.0
 15
0.0
 25
0.0
 16
0.0
 26
0.0
 36
1.0
 17
104.9999999737499
 27
51.49999998712516
 37
0.0
 40
302.9399999242649
 41
0.7070707070707066
 42
50.0
 43
0.0
 44
0.0
 50
0.0
 51
0.0
 71
     0
 72
   100
 73
     1
 74
     1
 75
     0
 76
     0
 77
     0
 78
     0
281
     0
 65
     1
110
0.0
120
0.0
130
0.0
111
1.0
121
0.0
131
0.0
112
0.0
122
1.0
132
0.0
 79
     0
146
0.0
 60
     3
 61
     5
292
     1
282
     1
141
0.0
142
0.0
 63
   250
421
  3355443
  0
ENDTAB
  0
TABLE
  2
LTYPE
  5
5
330
0
100
AcDbSymbolTable
 70
     1
  0
LTYPE
  5
5B
330
5
100
AcDbSymbolTableRecord
100
AcDbLinetypeTableRecord
  2
ByBlock
 70
     0
  3

 72
    65
 73
     0
 40
0.0
  0
LTYPE
  5
5C
330
5
100
AcDbSymbolTableRecord
100
AcDbLinetypeTableRecord
  2
ByLayer
 70
     0
  3

 72
    65
 73
     0
 40
0.0
  0
LTYPE
  5
5D
330
5
100
AcDbSymbolTableRecord
100
AcDbLinetypeTableRecord
  2
Continuous
 70
     0
  3
Solid line
 72
    65
 73
     0
 40
0.0
  0
ENDTAB
  0
TABLE
  2
LAYER
  5
2
330
0
100
AcDbSymbolTable
 70
     2
  0
LAYER
  5
54
330
2
100
AcDbSymbolTableRecord
100
AcDbLayerTableRecord
  2
0
 70
     0
 62
     7
  6
Continuous
370
     0
390
F
347
21
348
0
  0
LAYER
  5
2D4
330
2
100
AcDbSymbolTableRecord
100
AcDbLayerTableRecord
  2
CAPA_BASE
 70
     0
 62
     7
  6
Continuous
370
     0
390
F
347
21
348
0
  0
ENDTAB
  0
TABLE
  2
STYLE
  5
3
330
0
100
AcDbSymbolTable
 70
     2
  0
STYLE
  5
55
330
3
100
AcDbSymbolTableRecord
100
AcDbTextStyleTableRecord
  2
Standard
 70
     0
 40
0.0
 41
1.0
 50
0.0
 71
     0
 42
0.2
  3
txt
  4

  0
STYLE
  5
5A
330
3
100
AcDbSymbolTableRecord
100
AcDbTextStyleTableRecord
  2
Annotative
 70
     0
 40
0.0
 41
1.0
 50
0.0
 71
     0
 42
0.2
  3
txt
  4

1001
AcadAnnotative
1000
AnnotativeData
1002
{
1070
     1
1070
     1
1002
}
  0
ENDTAB
  0
TABLE
  2
VIEW
  5
6
330
0
100
AcDbSymbolTable
 70
     0
  0
ENDTAB
  0
TABLE
  2
UCS
  5
7
330
0
100
AcDbSymbolTable
 70
     0
  0
ENDTAB
  0
TABLE
  2
APPID
  5
9
330
0
100
AcDbSymbolTable
 70
     2
  0
APPID
  5
56
330
9
100
AcDbSymbolTableRecord
100
AcDbRegAppTableRecord
  2
ACAD
 70
     0
  0
APPID
  5
5E
330
9
100
AcDbSymbolTableRecord
100
AcDbRegAppTableRecord
  2
AcadAnnotative
 70
     0
  0
ENDTAB
  0
TABLE
  2
DIMSTYLE
  5
A
330
0
100
AcDbSymbolTable
 70
     2
100
AcDbDimStyleTable
 71
     0
  0
DIMSTYLE
105
58
330
A
100
AcDbSymbolTableRecord
100
AcDbDimStyleTableRecord
  2
Standard
 70
     0
340
55
  0
DIMSTYLE
105
59
330
A
100
AcDbSymbolTableRecord
100
AcDbDimStyleTableRecord
  2
Annotative
 70
     0
340
55
1001
AcadAnnotative
1000
AnnotativeData
1002
{
1070
     1
1070
     1
1002
}
  0
ENDTAB
  0
TABLE
  2
BLOCK_RECORD
  5
1
330
0
100
AcDbSymbolTable
 70
     4
  0
BLOCK_RECORD
  5
70
330
1
100
AcDbSymbolTableRecord
100
AcDbBlockTableRecord
  2
*Model_Space
340
73
 70
     0
280
     1
281
     0
  0
BLOCK_RECORD
  5
6C
330
1
100
AcDbSymbolTableRecord
100
AcDbBlockTableRecord
  2
*Paper_Space
340
6F
 70
     0
280
     1
281
     0
  0
BLOCK_RECORD
  5
74
330
1
100
AcDbSymbolTableRecord
100
AcDbBlockTableRecord
  2
*Paper_Space0
340
77
 70
     0
280
     1
281
     0
  0
BLOCK_RECORD
  5
2D5
330
1
100
AcDbSymbolTableRecord
100
AcDbBlockTableRecord
  2
Block_0
340
0
102
{BLKREFS
331
2D6
102
}
 70
     0
280
     1
281
     0
  0
BLOCK_RECORD
  5
2E1
330
1
100
AcDbSymbolTableRecord
100
AcDbBlockTableRecord
  2
Block_1
340
0
102
{BLKREFS
331
2E2
102
}
 70
     0
280
     1
281
     0
  0
BLOCK_RECORD
  5
2ED
330
1
100
AcDbSymbolTableRecord
100
AcDbBlockTableRecord
  2
Block_2
340
0
102
{BLKREFS
331
2EE
102
}
 70
     0
280
     1
281
     0
  0
ENDTAB
  0
ENDSEC
  0
SECTION
  2
BLOCKS
  0
BLOCK
  5
71
330
70
100
AcDbEntity
  8
0
100
AcDbBlockBegin
  2
*Model_Space
 70
     0
 10
0.0
 20
0.0
 30
0.0
  3
*Model_Space
  1

  0
ENDBLK
  5
72
330
70
100
AcDbEntity
  8
0
100
AcDbBlockEnd
  0
BLOCK
  5
6D
330
6C
100
AcDbEntity
 67
     1
  8
0
100
AcDbBlockBegin
  2
*Paper_Space
 70
     0
 10
0.0
 20
0.0
 30
0.0
  3
*Paper_Space
  1

  0
ENDBLK
  5
6E
330
6C
100
AcDbEntity
 67
     1
  8
0
100
AcDbBlockEnd
  0
BLOCK
  5
75
330
74
100
AcDbEntity
 67
     1
  8
0
100
AcDbBlockBegin
  2
*Paper_Space0
 70
     0
 10
0.0
 20
0.0
 30
0.0
  3
*Paper_Space0
  1

  0
ENDBLK
  5
76
330
74
100
AcDbEntity
 67
     1
  8
0
100
AcDbBlockEnd
  0
BLOCK
  5
2D7
330
2D5
100
AcDbEntity
  8
0
100
AcDbBlockBegin
  2
Block_0
 70
     0
 10
0.0
 20
0.0
 30
0.0
  3
Block_0
  1

  0
LWPOLYLINE
  5
2D9
330
2D5
100
AcDbEntity
  8
CAPA_BASE
100
AcDbPolyline
 90
        4
 70
     1
 43
0.0
 10
75.61413389465228
 20
69.08704755985249
 10
73.1141338946522
 20
69.39704755985221
 10
73.1141338946522
 20
68.77704755985213
 10
73.1141338946522
 20
68.77704755985213
  0
HATCH
  5
2DA
330
2D5
100
AcDbEntity
  8
CAPA_BASE
 62
    18
420
        0
440
 33554687
100
AcDbHatch
 10
0.0
 20
0.0
 30
0.0
210
0.0
220
0.0
230
1.0
  2
SOLID
 70
     1
 71
     1
 91
        1
 92
        1
 93
        3
 72
     1
 10
75.61413389465228
 20
69.08704755985249
 11
73.1141338946522
 21
69.39704755985221
 72
     1
 10
73.1141338946522
 20
69.39704755985221
 11
73.1141338946522
 21
68.77704755985213
 72
     1
 10
73.1141338946522
 20
68.77704755985213
 11
75.61413389465228
 21
69.08704755985249
 97
        1
330
2D9
 75
     2
 76
     1
 98
        1
 10
0.0
 20
0.0
450
        0
451
        0
460
0.0
461
0.0
452
        0
462
0.0
453
        0
470

  0
LWPOLYLINE
  5
2DB
330
2D5
100
AcDbEntity
  8
CAPA_BASE
100
AcDbPolyline
 90
        4
 70
     1
 43
0.0
 10
24.76413389465225
 20
69.08704755985249
 10
27.26413389465234
 20
68.77704755985213
 10
27.26413389465234
 20
69.39704755985221
 10
27.26413389465234
 20
69.39704755985221
  0
HATCH
  5
2DC
330
2D5
100
AcDbEntity
  8
CAPA_BASE
 62
    18
420
        0
440
 33554687
100
AcDbHatch
 10
0.0
 20
0.0
 30
0.0
210
0.0
220
0.0
230
1.0
  2
SOLID
 70
     1
 71
     1
 91
        1
 92
        1
 93
        3
 72
     1
 10
24.76413389465225
 20
69.08704755985249
 11
27.26413389465234
 21
68.77704755985213
 72
     1
 10
27.26413389465234
 20
68.77704755985213
 11
27.26413389465234
 21
69.39704755985221
 72
     1
 10
27.26413389465234
 20
69.39704755985221
 11
24.76413389465225
 21
69.08704755985249
 97
        1
330
2DB
 75
     2
 76
     1
 98
        1
 10
0.0
 20
0.0
450
        0
451
        0
460
0.0
461
0.0
452
        0
462
0.0
453
        0
470

  0
LINE
  5
2DD
330
2D5
100
AcDbEntity
  8
CAPA_BASE
 62
    18
420
        0
370
    25
100
AcDbLine
 10
75.61413389465228
 20
78.83704755985204
 30
0.0
 11
75.61413389465228
 21
68.08704755985181
 31
0.0
  0
LINE
  5
2DE
330
2D5
100
AcDbEntity
  8
CAPA_BASE
 62
    18
420
        0
370
    25
100
AcDbLine
 10
24.76413389465225
 20
78.83704755985204
 30
0.0
 11
24.76413389465225
 21
68.08704755985181
 31
0.0
  0
LINE
  5
2DF
330
2D5
100
AcDbEntity
  8
CAPA_BASE
 62
    18
420
        0
370
    25
100
AcDbLine
 10
75.61413389465228
 20
69.08704755985249
 30
0.0
 11
24.76413389465225
 21
69.08704755985249
 31
0.0
  0
MTEXT
  5
2E0
330
2D5
100
AcDbEntity
  8
CAPA_BASE
100
AcDbMText
 10
47.54330277843807
 20
69.88079052343692
 30
0.0
 40
0.2
 41
0.0
 46
0.0
 71
     7
 72
     1
  1
\C18;\c0;\FArial Bold|b1|i0|c1;\H2.997200;\W0.700000;203
 73
     1
 44
1.0
  0
ENDBLK
  5
2D8
330
2D5
100
AcDbEntity
  8
0
100
AcDbBlockEnd
  0
BLOCK
  5
2E3
330
2E1
100
AcDbEntity
  8
0
100
AcDbBlockBegin
  2
Block_1
 70
     0
 10
0.0
 20
0.0
 30
0.0
  3
Block_1
  1

  0
LWPOLYLINE
  5
2E5
330
2E1
100
AcDbEntity
  8
CAPA_BASE
100
AcDbPolyline
 90
        4
 70
     1
 43
0.0
 10
111.9670839358522
 20
154.4620475598522
 10
111.6570839358525
 20
151.9620475598521
 10
112.2770839358519
 20
151.9620475598521
 10
112.2770839358519
 20
151.9620475598521
  0
HATCH
  5
2E6
330
2E1
100
AcDbEntity
  8
CAPA_BASE
 62
    18
420
        0
440
 33554687
100
AcDbHatch
 10
0.0
 20
0.0
 30
0.0
210
0.0
220
0.0
230
1.0
  2
SOLID
 70
     1
 71
     1
 91
        1
 92
        1
 93
        3
 72
     1
 10
111.9670839358522
 20
154.4620475598522
 11
111.6570839358525
 21
151.9620475598521
 72
     1
 10
111.6570839358525
 20
151.9620475598521
 11
112.2770839358519
 21
151.9620475598521
 72
     1
 10
112.2770839358519
 20
151.9620475598521
 11
111.9670839358522
 21
154.4620475598522
 97
        1
330
2E5
 75
     2
 76
     1
 98
        1
 10
0.0
 20
0.0
450
        0
451
        0
460
0.0
461
0.0
452
        0
462
0.0
453
        0
470

  0
LWPOLYLINE
  5
2E7
330
2E1
100
AcDbEntity
  8
CAPA_BASE
100
AcDbPolyline
 90
        4
 70
     1
 43
0.0
 10
111.9670839358522
 20
79.08704755985221
 10
112.2770839358519
 20
81.58704755985196
 10
111.6570839358525
 20
81.58704755985196
 10
111.6570839358525
 20
81.58704755985196
  0
HATCH
  5
2E8
330
2E1
100
AcDbEntity
  8
CAPA_BASE
 62
    18
420
        0
440
 33554687
100
AcDbHatch
 10
0.0
 20
0.0
 30
0.0
210
0.0
220
0.0
230
1.0
  2
SOLID
 70
     1
 71
     1
 91
        1
 92
        1
 93
        3
 72
     1
 10
111.9670839358522
 20
79.08704755985221
 11
112.2770839358519
 21
81.58704755985196
 72
     1
 10
112.2770839358519
 20
81.58704755985196
 11
111.6570839358525
 21
81.58704755985196
 72
     1
 10
111.6570839358525
 20
81.58704755985196
 11
111.9670839358522
 21
79.08704755985221
 97
        1
330
2E7
 75
     2
 76
     1
 98
        1
 10
0.0
 20
0.0
450
        0
451
        0
460
0.0
461
0.0
452
        0
462
0.0
453
        0
470

  0
LINE
  5
2E9
330
2E1
100
AcDbEntity
  8
CAPA_BASE
 62
    18
420
        0
370
    25
100
AcDbLine
 10
136.042083935852
 20
154.4620475598522
 30
0.0
 11
110.9670839358521
 21
154.4620475598522
 31
0.0
  0
LINE
  5
2EA
330
2E1
100
AcDbEntity
  8
CAPA_BASE
 62
    18
420
        0
370
    25
100
AcDbLine
 10
140.4670839358522
 20
79.08704755985221
 30
0.0
 11
110.9670839358521
 21
79.08704755985221
 31
0.0
  0
LINE
  5
2EB
330
2E1
100
AcDbEntity
  8
CAPA_BASE
 62
    18
420
        0
370
    25
100
AcDbLine
 10
111.9670839358522
 20
154.4620475598522
 30
0.0
 11
111.9670839358522
 21
79.08704755985221
 31
0.0
  0
MTEXT
  5
2EC
330
2E1
100
AcDbEntity
  8
CAPA_BASE
100
AcDbMText
 10
111.1733335852851
 20
114.1287787258074
 30
0.0
 40
0.2
 41
0.0
 46
0.0
 71
     7
 72
     1
  1
\C18;\c0;\FArial Bold|b1|i0|c1;\H2.997200;\W0.700000;302
 11
0.0000000000000003
 21
1.0
 31
0.0
 73
     1
 44
1.0
  0
ENDBLK
  5
2E4
330
2E1
100
AcDbEntity
  8
0
100
AcDbBlockEnd
  0
BLOCK
  5
2EF
330
2ED
100
AcDbEntity
  8
0
100
AcDbBlockBegin
  2
Block_2
 70
     0
 10
0.0
 20
0.0
 30
0.0
  3
Block_2
  1

  0
LWPOLYLINE
  5
2F1
330
2ED
100
AcDbEntity
  8
CAPA_BASE
100
AcDbPolyline
 90
        4
 70
     1
 43
0.0
 10
85.88913389465224
 20
43.62215230125218
 10
85.5791338946522
 20
41.1221523012524
 10
86.1991338946523
 20
41.1221523012524
 10
86.1991338946523
 20
41.1221523012524
  0
HATCH
  5
2F2
330
2ED
100
AcDbEntity
  8
CAPA_BASE
 62
    18
420
        0
440
 33554687
100
AcDbHatch
 10
0.0
 20
0.0
 30
0.0
210
0.0
220
0.0
230
1.0
  2
SOLID
 70
     1
 71
     1
 91
        1
 92
        1
 93
        3
 72
     1
 10
85.88913389465224
 20
43.62215230125218
 11
85.5791338946522
 21
41.1221523012524
 72
     1
 10
85.5791338946522
 20
41.1221523012524
 11
86.1991338946523
 21
41.1221523012524
 72
     1
 10
86.1991338946523
 20
41.1221523012524
 11
85.88913389465224
 21
43.62215230125218
 97
        1
330
2F1
 75
     2
 76
     1
 98
        1
 10
0.0
 20
0.0
450
        0
451
        0
460
0.0
461
0.0
452
        0
462
0.0
453
        0
470

  0
LWPOLYLINE
  5
2F3
330
2ED
100
AcDbEntity
  8
CAPA_BASE
100
AcDbPolyline
 90
        4
 70
     1
 43
0.0
 10
85.88913389465224
 20
-7.777847698747713
 10
86.1991338946523
 20
-5.277847698747946
 10
85.5791338946522
 20
-5.277847698747946
 10
85.5791338946522
 20
-5.277847698747946
  0
HATCH
  5
2F4
330
2ED
100
AcDbEntity
  8
CAPA_BASE
 62
    18
420
        0
440
 33554687
100
AcDbHatch
 10
0.0
 20
0.0
 30
0.0
210
0.0
220
0.0
230
1.0
  2
SOLID
 70
     1
 71
     1
 91
        1
 92
        1
 93
        3
 72
     1
 10
85.88913389465224
 20
-7.777847698747713
 11
86.1991338946523
 21
-5.277847698747946
 72
     1
 10
86.1991338946523
 20
-5.277847698747946
 11
85.5791338946522
 21
-5.277847698747946
 72
     1
 10
85.5791338946522
 20
-5.277847698747946
 11
85.88913389465224
 21
-7.777847698747713
 97
        1
330
2F3
 75
     2
 76
     1
 98
        1
 10
0.0
 20
0.0
450
        0
451
        0
460
0.0
461
0.0
452
        0
462
0.0
453
        0
470

  0
LINE
  5
2F5
330
2ED
100
AcDbEntity
  8
CAPA_BASE
 62
    18
420
        0
370
    25
100
AcDbLine
 10
61.88913389465203
 20
43.62215230125218
 30
0.0
 11
86.88913389465227
 21
43.62215230125218
 31
0.0
  0
LINE
  5
2F6
330
2ED
100
AcDbEntity
  8
CAPA_BASE
 62
    18
420
        0
370
    25
100
AcDbLine
 10
61.88913389465203
 20
-7.777847698747713
 30
0.0
 11
86.88913389465227
 21
-7.777847698747713
 31
0.0
  0
LINE
  5
2F7
330
2ED
100
AcDbEntity
  8
CAPA_BASE
 62
    18
420
        0
370
    25
100
AcDbLine
 10
85.88913389465224
 20
43.62215230125218
 30
0.0
 11
85.88913389465224
 21
-7.777847698747713
 31
0.0
  0
MTEXT
  5
2F8
330
2ED
100
AcDbEntity
  8
CAPA_BASE
100
AcDbMText
 10
85.09537648086981
 20
15.27658691024271
 30
0.0
 40
0.2
 41
0.0
 46
0.0
 71
     7
 72
     1
  1
\C18;\c0;\FArial Bold|b1|i0|c1;\H2.997200;\W0.700000;206
 11
0.0000000000000003
 21
1.0
 31
0.0
 73
     1
 44
1.0
  0
ENDBLK
  5
2F0
330
2ED
100
AcDbEntity
  8
0
100
AcDbBlockEnd
  0
ENDSEC
  0
SECTION
  2
ENTITIES
  0
LINE
  5
78
330
70
100
AcDbEntity
  8
0
 62
    18
420
        0
370
    25
100
AcDbLine
 10
39.09876679345213
 20
79.46204755655251
 30
0.0
 11
39.09876679345213
 21
79.83704755985207
 31
0.0
  0
LINE
  5
79
330
70
100
AcDbEntity
  8
0
 62
    18
420
        0
370
    25
100
AcDbLine
 10
39.21945688595228
 20
79.83704755985207
 30
0.0
 11
39.4891334446521
 21
79.83704755985207
 31
0.0
  0
LINE
  5
7A
330
70
100
AcDbEntity
  8
0
 62
    18
420
        0
370
    25
100
AcDbLine
 10
39.4891334446521
 20
79.83704755985207
 30
0.0
 11
39.4891334446521
 21
79.46204755655251
 31
0.0
  0
LINE
  5
7B
330
70
100
AcDbEntity
  8
0
 62
    18
420
        0
370
    25
100
AcDbLine
 10
39.09876679345213
 20
79.46204755655251
 30
0.0
 11
39.4891334446521
 21
79.46204755655251
 31
0.0
  0
LINE
  5
7C
330
70
100
AcDbEntity
  8
0
 62
    18
420
        0
370
    25
100
AcDbLine
 10
39.4891334446521
 20
79.46204755655251
 30
0.0
 11
60.88913434465212
 21
79.46204755655251
 31
0.0
  0
LINE
  5
7D
330
70
100
AcDbEntity
  8
0
 62
    18
420
        0
370
    25
100
AcDbLine
 10
60.88913434465212
 20
79.46204755655251
 30
0.0
 11
60.88913434465212
 21
79.83704755985207
 31
0.0
  0
LINE
  5
7E
330
70
100
AcDbEntity
  8
0
 62
    18
420
        0
370
    25
100
AcDbLine
 10
39.4891334446521
 20
79.83704755985207
 30
0.0
 11
60.88913434465212
 21
79.83704755985207
 31
0.0
  0
LINE
  5
7F
330
70
100
AcDbEntity
  8
0
 62
    18
420
        0
370
    25
100
AcDbLine
 10
61.2795009957523
 20
79.46204755655251
 30
0.0
 11
61.2795009957523
 21
79.83704755985207
 31
0.0
  0
LINE
  5
80
330
70
100
AcDbEntity
  8
0
 62
    18
420
        0
370
    25
100
AcDbLine
 10
61.2795009957523
 20
79.46204755655251
 30
0.0
 11
60.88913434465212
 21
79.46204755655251
 31
0.0
  0
LINE
  5
81
330
70
100
AcDbEntity
  8
0
 62
    18
420
        0
370
    25
100
AcDbLine
 10
61.15881090335225
 20
79.83704755985207
 30
0.0
 11
60.88913434465212
 21
79.83704755985207
 31
0.0
  0
LINE
  5
82
330
70
100
AcDbEntity
  8
0
 62
    18
420
        0
370
    25
100
AcDbLine
 10
61.64409329465205
 20
79.46204755655251
 30
0.0
 11
61.64409329465205
 21
79.83704755985207
 31
0.0
  0
LINE
  5
83
330
70
100
AcDbEntity
  8
0
 62
    18
420
        0
370
    25
100
AcDbLine
 10
61.64409329465205
 20
79.46204755655251
 30
0.0
 11
61.2795009957523
 21
79.46204755655251
 31
0.0
  0
LINE
  5
84
330
70
100
AcDbEntity
  8
0
 62
    18
420
        0
370
    25
100
AcDbLine
 10
38.73417449465216
 20
79.46204755655251
 30
0.0
 11
38.73417449465216
 21
79.83704755985207
 31
0.0
  0
LINE
  5
85
330
70
100
AcDbEntity
  8
0
 62
    18
420
        0
370
    25
100
AcDbLine
 10
38.73417449465216
 20
79.46204755655251
 30
0.0
 11
39.09876679345213
 21
79.46204755655251
 31
0.0
  0
LINE
  5
86
330
70
100
AcDbEntity
  8
0
 62
    18
420
        0
370
    25
100
AcDbLine
 10
75.51466130925209
 20
79.46204755655251
 30
0.0
 11
75.51466130925209
 21
79.83704755985207
 31
0.0
  0
LINE
  5
87
330
70
100
AcDbEntity
  8
0
 62
    18
420
        0
370
    25
100
AcDbLine
 10
75.51466130925209
 20
79.46204755655251
 30
0.0
 11
61.64409329465205
 21
79.46204755655251
 31
0.0
  0
LINE
  5
88
330
70
100
AcDbEntity
  8
0
 62
    18
420
        0
370
    25
100
AcDbLine
 10
24.86360647995233
 20
79.46204755655251
 30
0.0
 11
24.86360647995233
 21
79.83704755985207
 31
0.0
  0
LINE
  5
89
330
70
100
AcDbEntity
  8
0
 62
    18
420
        0
370
    25
100
AcDbLine
 10
24.86360647995233
 20
79.46204755655251
 30
0.0
 11
38.73417449465216
 21
79.46204755655251
 31
0.0
  0
LINE
  5
8A
330
70
100
AcDbEntity
  8
0
 62
    18
420
        0
370
    25
100
AcDbLine
 10
56.3891340726521
 20
79.41204755425251
 30
0.0
 11
43.98913371655233
 21
79.41204755425251
 31
0.0
  0
LINE
  5
8B
330
70
100
AcDbEntity
  8
0
 62
    18
420
        0
370
    25
100
AcDbLine
 10
43.98913371655233
 20
79.46204755655251
 30
0.0
 11
43.98913371655233
 21
79.41204755425251
 31
0.0
  0
LINE
  5
8C
330
70
100
AcDbEntity
  8
0
 62
    18
420
        0
370
    25
100
AcDbLine
 10
56.3891340726521
 20
79.41204755425251
 30
0.0
 11
56.3891340726521
 21
79.46204755655251
 31
0.0
  0
LINE
  5
8D
330
70
100
AcDbEntity
  8
0
 62
    18
420
        0
370
    25
100
AcDbLine
 10
56.3891340726521
 20
79.41204755425251
 30
0.0
 11
56.43913398775227
 21
79.41204755425251
 31
0.0
  0
SPLINE
  5
8E
330
70
100
AcDbEntity
  8
0
 62
    18
420
        0
370
    25
100
AcDbSpline
210
0.0
220
0.0
230
1.0
 70
     8
 71
     3
 72
     8
 73
     4
 74
     0
 42
0.0000000001
 43
0.0000000001
 40
0.0
 40
0.0
 40
0.0
 40
0.0
 40
1.0
 40
1.0
 40
1.0
 40
1.0
 10
56.48913389465217
 20
79.46204755985213
 30
0.0
 10
56.46151965716078
 20
79.46204755985213
 30
0.0
 10
56.43913389465232
 20
79.439661797344
 30
0.0
 10
56.43913389465232
 20
79.41204755985197
 30
0.0
  0
LINE
  5
8F
330
70
100
AcDbEntity
  8
0
 62
    18
420
        0
370
    25
100
AcDbLine
 10
43.93913380145216
 20
79.41204755425251
 30
0.0
 11
43.98913371655233
 21
79.41204755425251
 31
0.0
  0
SPLINE
  5
90
330
70
100
AcDbEntity
  8
0
 62
    18
420
        0
370
    25
100
AcDbSpline
210
0.0
220
0.0
230
1.0
 70
     8
 71
     3
 72
     8
 73
     4
 74
     0
 42
0.0000000001
 43
0.0000000001
 40
0.0
 40
0.0
 40
0.0
 40
0.0
 40
1.0
 40
1.0
 40
1.0
 40
1.0
 10
43.93913389465221
 20
79.41204755985197
 30
0.0
 10
43.93913389465221
 20
79.439661797344
 30
0.0
 10
43.91674813214375
 20
79.46204755985213
 30
0.0
 10
43.88913389465204
 20
79.46204755985213
 30
0.0
  0
LINE
  5
91
330
70
100
AcDbEntity
  8
0
 62
    18
420
        0
370
    25
100
AcDbLine
 10
56.3891340726521
 20
79.13704758485232
 30
0.0
 11
56.43913398775227
 21
79.13704758485232
 31
0.0
  0
SPLINE
  5
92
330
70
100
AcDbEntity
  8
0
 62
    18
420
        0
370
    25
100
AcDbSpline
210
0.0
220
0.0
230
1.0
 70
     8
 71
     3
 72
     8
 73
     4
 74
     0
 42
0.0000000001
 43
0.0000000001
 40
0.0
 40
0.0
 40
0.0
 40
0.0
 40
1.0
 40
1.0
 40
1.0
 40
1.0
 10
56.38913389465216
 20
79.08704755985221
 30
0.0
 10
56.41674813214387
 20
79.08704755985221
 30
0.0
 10
56.43913389465232
 20
79.10943332236098
 30
0.0
 10
56.43913389465232
 20
79.13704755985172
 30
0.0
  0
LINE
  5
93
330
70
100
AcDbEntity
  8
0
 62
    18
420
        0
370
    25
100
AcDbLine
 10
56.3891340726521
 20
79.13704758485232
 30
0.0
 11
56.3891340726521
 21
79.08704755335243
 31
0.0
  0
LINE
  5
94
330
70
100
AcDbEntity
  8
0
 62
    18
420
        0
370
    25
100
AcDbLine
 10
43.98913371655233
 20
79.13704758485232
 30
0.0
 11
56.3891340726521
 21
79.13704758485232
 31
0.0
  0
LINE
  5
95
330
70
100
AcDbEntity
  8
0
 62
    18
420
        0
370
    25
100
AcDbLine
 10
43.98913371655233
 20
79.41204755425251
 30
0.0
 11
43.98913371655233
 21
79.13704758485232
 31
0.0
  0
LINE
  5
96
330
70
100
AcDbEntity
  8
0
 62
    18
420
        0
370
    25
100
AcDbLine
 10
56.3891340726521
 20
79.13704758485232
 30
0.0
 11
56.3891340726521
 21
79.41204755425251
 31
0.0
  0
LINE
  5
97
330
70
100
AcDbEntity
  8
0
 62
    18
420
        0
370
    25
100
AcDbLine
 10
56.43913398775227
 20
79.41204755425251
 30
0.0
 11
56.43913398775227
 21
79.13704758485232
 31
0.0
  0
LINE
  5
98
330
70
100
AcDbEntity
  8
0
 62
    18
420
        0
370
    25
100
AcDbLine
 10
56.3891340726521
 20
79.08704755335243
 30
0.0
 11
43.98913371655233
 21
79.08704755335243
 31
0.0
  0
LINE
  5
99
330
70
100
AcDbEntity
  8
0
 62
    18
420
        0
370
    25
100
AcDbLine
 10
43.98913371655233
 20
79.08704755335243
 30
0.0
 11
43.98913371655233
 21
79.13704758485232
 31
0.0
  0
LINE
  5
9A
330
70
100
AcDbEntity
  8
0
 62
    18
420
        0
370
    25
100
AcDbLine
 10
43.93913380145216
 20
79.13704758485232
 30
0.0
 11
43.93913380145216
 21
79.41204755425251
 31
0.0
  0
LINE
  5
9B
330
70
100
AcDbEntity
  8
0
 62
    18
420
        0
370
    25
100
AcDbLine
 10
43.93913380145216
 20
79.13704758485232
 30
0.0
 11
43.98913371655233
 21
79.13704758485232
 31
0.0
  0
SPLINE
  5
9C
330
70
100
AcDbEntity
  8
0
 62
    18
420
        0
370
    25
100
AcDbSpline
210
0.0
220
0.0
230
1.0
 70
     8
 71
     3
 72
     8
 73
     4
 74
     0
 42
0.0000000001
 43
0.0000000001
 40
0.0
 40
0.0
 40
0.0
 40
0.0
 40
1.0
 40
1.0
 40
1.0
 40
1.0
 10
43.93913389465221
 20
79.13704755985172
 30
0.0
 10
43.93913389465221
 20
79.10943332236098
 30
0.0
 10
43.96151965716065
 20
79.08704755985221
 30
0.0
 10
43.98913389465205
 20
79.08704755985221
 30
0.0
  0
LINE
  5
9D
330
70
100
AcDbEntity
  8
0
 62
    18
420
        0
370
    25
100
AcDbLine
 10
24.67670307775233
 20
79.46204755655251
 30
0.0
 11
24.67670307775233
 21
79.83704755985207
 31
0.0
  0
LINE
  5
9E
330
70
100
AcDbEntity
  8
0
 62
    18
420
        0
370
    25
100
AcDbLine
 10
24.67670307775233
 20
79.46204755655251
 30
0.0
 11
24.86360647995233
 21
79.46204755655251
 31
0.0
  0
LINE
  5
9F
330
70
100
AcDbEntity
  8
0
 62
    18
420
        0
370
    25
100
AcDbLine
 10
75.70156471155219
 20
79.46204755655251
 30
0.0
 11
75.70156471155219
 21
79.83704755985207
 31
0.0
  0
LINE
  5
A0
330
70
100
AcDbEntity
  8
0
 62
    18
420
        0
370
    25
100
AcDbLine
 10
75.70156471155219
 20
79.46204755655251
 30
0.0
 11
75.51466130925209
 21
79.46204755655251
 31
0.0
  0
LINE
  5
A1
330
70
100
AcDbEntity
  8
0
 62
    18
420
        0
370
    25
100
AcDbLine
 10
24.4891347111521
 20
79.46204755655251
 30
0.0
 11
24.4891347111521
 21
79.83704755985207
 31
0.0
  0
LINE
  5
A2
330
70
100
AcDbEntity
  8
0
 62
    18
420
        0
370
    25
100
AcDbLine
 10
24.4891347111521
 20
79.83704755985207
 30
0.0
 11
24.56413411815217
 21
79.83704755985207
 31
0.0
  0
LINE
  5
A3
330
70
100
AcDbEntity
  8
0
 62
    18
420
        0
370
    25
100
AcDbLine
 10
24.4891347111521
 20
79.46204755655251
 30
0.0
 11
24.67670307775233
 21
79.46204755655251
 31
0.0
  0
LINE
  5
A4
330
70
100
AcDbEntity
  8
0
 62
    18
420
        0
370
    25
100
AcDbLine
 10
75.88913307805232
 20
79.83704755985207
 30
0.0
 11
75.88913307805232
 21
79.46204755655251
 31
0.0
  0
LINE
  5
A5
330
70
100
AcDbEntity
  8
0
 62
    18
420
        0
370
    25
100
AcDbLine
 10
75.88913307805232
 20
79.83704755985207
 30
0.0
 11
75.81413367105226
 21
79.83704755985207
 31
0.0
  0
LINE
  5
A6
330
70
100
AcDbEntity
  8
0
 62
    18
420
        0
370
    25
100
AcDbLine
 10
75.88913307805232
 20
79.46204755655251
 30
0.0
 11
75.70156471155219
 21
79.46204755655251
 31
0.0
  0
SPLINE
  5
A7
330
70
100
AcDbEntity
  8
0
 62
    18
420
        0
370
    25
100
AcDbSpline
210
0.0
220
0.0
230
1.0
 70
     8
 71
     3
 72
     8
 73
     4
 74
     0
 42
0.0000000001
 43
0.0000000001
 40
0.0
 40
0.0
 40
0.0
 40
0.0
 40
1.0
 40
1.0
 40
1.0
 40
1.0
 10
75.0641338946521
 20
79.46204755985213
 30
0.0
 10
75.03651965716071
 20
79.46204755985213
 30
0.0
 10
75.01413389465226
 20
79.439661797344
 30
0.0
 10
75.01413389465226
 20
79.41204755985197
 30
0.0
  0
LINE
  5
A8
330
70
100
AcDbEntity
  8
0
 62
    18
420
        0
370
    25
100
AcDbLine
 10
74.96413418365216
 20
79.41204755425251
 30
0.0
 11
75.01413316745227
 21
79.41204755425251
 31
0.0
  0
LINE
  5
A9
330
70
100
AcDbEntity
  8
0
 62
    18
420
        0
370
    25
100
AcDbLine
 10
74.96413418365216
 20
79.46204755655251
 30
0.0
 11
74.96413418365216
 21
79.41204755425251
 31
0.0
  0
LINE
  5
AA
330
70
100
AcDbEntity
  8
0
 62
    18
420
        0
370
    25
100
AcDbLine
 10
73.81413334325211
 20
79.46204755655251
 30
0.0
 11
73.81413334325211
 21
79.41204755425251
 31
0.0
  0
LINE
  5
AB
330
70
100
AcDbEntity
  8
0
 62
    18
420
        0
370
    25
100
AcDbLine
 10
73.7641343595521
 20
79.41204755425251
 30
0.0
 11
73.81413334325211
 21
79.41204755425251
 31
0.0
  0
SPLINE
  5
AC
330
70
100
AcDbEntity
  8
0
 62
    18
420
        0
370
    25
100
AcDbSpline
210
0.0
220
0.0
230
1.0
 70
     8
 71
     3
 72
     8
 73
     4
 74
     0
 42
0.0000000001
 43
0.0000000001
 40
0.0
 40
0.0
 40
0.0
 40
0.0
 40
1.0
 40
1.0
 40
1.0
 40
1.0
 10
73.76413389465205
 20
79.41204755985197
 30
0.0
 10
73.76413389465205
 20
79.439661797344
 30
0.0
 10
73.74174813214359
 20
79.46204755985213
 30
0.0
 10
73.71413389465221
 20
79.46204755985213
 30
0.0
  0
SPLINE
  5
AD
330
70
100
AcDbEntity
  8
0
 62
    18
420
        0
370
    25
100
AcDbSpline
210
0.0
220
0.0
230
1.0
 70
     8
 71
     3
 72
     8
 73
     4
 74
     0
 42
0.0000000001
 43
0.0000000001
 40
0.0
 40
0.0
 40
0.0
 40
0.0
 40
1.0
 40
1.0
 40
1.0
 40
1.0
 10
26.66413389465232
 20
79.46204755985213
 30
0.0
 10
26.63651965716061
 20
79.46204755985213
 30
0.0
 10
26.61413389465216
 20
79.439661797344
 30
0.0
 10
26.61413389465216
 20
79.41204755985197
 30
0.0
  0
LINE
  5
AE
330
70
100
AcDbEntity
  8
0
 62
    18
420
        0
370
    25
100
AcDbLine
 10
26.56413444595232
 20
79.41204755425251
 30
0.0
 11
26.61413342965233
 21
79.41204755425251
 31
0.0
  0
LINE
  5
AF
330
70
100
AcDbEntity
  8
0
 62
    18
420
        0
370
    25
100
AcDbLine
 10
26.56413444595232
 20
79.46204755655251
 30
0.0
 11
26.56413444595232
 21
79.41204755425251
 31
0.0
  0
LINE
  5
B0
330
70
100
AcDbEntity
  8
0
 62
    18
420
        0
370
    25
100
AcDbLine
 10
25.41413360555226
 20
79.46204755655251
 30
0.0
 11
25.41413360555226
 21
79.41204755425251
 31
0.0
  0
LINE
  5
B1
330
70
100
AcDbEntity
  8
0
 62
    18
420
        0
370
    25
100
AcDbLine
 10
25.36413462175215
 20
79.41204755425251
 30
0.0
 11
25.41413360555226
 21
79.41204755425251
 31
0.0
  0
SPLINE
  5
B2
330
70
100
AcDbEntity
  8
0
 62
    18
420
        0
370
    25
100
AcDbSpline
210
0.0
220
0.0
230
1.0
 70
     8
 71
     3
 72
     8
 73
     4
 74
     0
 42
0.0000000001
 43
0.0000000001
 40
0.0
 40
0.0
 40
0.0
 40
0.0
 40
1.0
 40
1.0
 40
1.0
 40
1.0
 10
25.36413389465228
 20
79.41204755985197
 30
0.0
 10
25.36413389465228
 20
79.439661797344
 30
0.0
 10
25.34174813214382
 20
79.46204755985213
 30
0.0
 10
25.31413389465211
 20
79.46204755985213
 30
0.0
  0
LINE
  5
B3
330
70
100
AcDbEntity
  8
0
 62
    18
420
        0
370
    25
100
AcDbLine
 10
26.56413444595232
 20
79.41204755425251
 30
0.0
 11
25.41413360555226
 21
79.41204755425251
 31
0.0
  0
LINE
  5
B4
330
70
100
AcDbEntity
  8
0
 62
    18
420
        0
370
    25
100
AcDbLine
 10
74.96413418365216
 20
79.41204755425251
 30
0.0
 11
73.81413334325211
 21
79.41204755425251
 31
0.0
  0
LINE
  5
B5
330
70
100
AcDbEntity
  8
0
 62
    18
420
        0
370
    25
100
AcDbLine
 10
73.81413334325211
 20
79.13704758485232
 30
0.0
 11
74.96413418365216
 21
79.13704758485232
 31
0.0
  0
LINE
  5
B6
330
70
100
AcDbEntity
  8
0
 62
    18
420
        0
370
    25
100
AcDbLine
 10
73.81413334325211
 20
79.41204755425251
 30
0.0
 11
73.81413334325211
 21
79.13704758485232
 31
0.0
  0
LINE
  5
B7
330
70
100
AcDbEntity
  8
0
 62
    18
420
        0
370
    25
100
AcDbLine
 10
74.96413418365216
 20
79.13704758485232
 30
0.0
 11
74.96413418365216
 21
79.41204755425251
 31
0.0
  0
LINE
  5
B8
330
70
100
AcDbEntity
  8
0
 62
    18
420
        0
370
    25
100
AcDbLine
 10
74.96413418365216
 20
79.13704758485232
 30
0.0
 11
74.96413418365216
 21
79.08704755335243
 31
0.0
  0
LINE
  5
B9
330
70
100
AcDbEntity
  8
0
 62
    18
420
        0
370
    25
100
AcDbLine
 10
74.96413418365216
 20
79.08704755335243
 30
0.0
 11
73.81413334325211
 21
79.08704755335243
 31
0.0
  0
LINE
  5
BA
330
70
100
AcDbEntity
  8
0
 62
    18
420
        0
370
    25
100
AcDbLine
 10
73.81413334325211
 20
79.13704758485232
 30
0.0
 11
73.81413334325211
 21
79.08704755335243
 31
0.0
  0
SPLINE
  5
BB
330
70
100
AcDbEntity
  8
0
 62
    18
420
        0
370
    25
100
AcDbSpline
210
0.0
220
0.0
230
1.0
 70
     8
 71
     3
 72
     8
 73
     4
 74
     0
 42
0.0000000001
 43
0.0000000001
 40
0.0
 40
0.0
 40
0.0
 40
0.0
 40
1.0
 40
1.0
 40
1.0
 40
1.0
 10
73.76413389465205
 20
79.13704755985172
 30
0.0
 10
73.76413389465205
 20
79.10943332236098
 30
0.0
 10
73.78651965716051
 20
79.08704755985221
 30
0.0
 10
73.81413389465222
 20
79.08704755985221
 30
0.0
  0
LINE
  5
BC
330
70
100
AcDbEntity
  8
0
 62
    18
420
        0
370
    25
100
AcDbLine
 10
73.7641343595521
 20
79.13704758485232
 30
0.0
 11
73.81413334325211
 21
79.13704758485232
 31
0.0
  0
LINE
  5
BD
330
70
100
AcDbEntity
  8
0
 62
    18
420
        0
370
    25
100
AcDbLine
 10
25.41413360555226
 20
79.13704758485232
 30
0.0
 11
26.56413444595232
 21
79.13704758485232
 31
0.0
  0
LINE
  5
BE
330
70
100
AcDbEntity
  8
0
 62
    18
420
        0
370
    25
100
AcDbLine
 10
25.41413360555226
 20
79.41204755425251
 30
0.0
 11
25.41413360555226
 21
79.13704758485232
 31
0.0
  0
LINE
  5
BF
330
70
100
AcDbEntity
  8
0
 62
    18
420
        0
370
    25
100
AcDbLine
 10
26.56413444595232
 20
79.13704758485232
 30
0.0
 11
26.56413444595232
 21
79.41204755425251
 31
0.0
  0
LINE
  5
C0
330
70
100
AcDbEntity
  8
0
 62
    18
420
        0
370
    25
100
AcDbLine
 10
26.61413342965233
 20
79.41204755425251
 30
0.0
 11
26.61413342965233
 21
79.13704758485232
 31
0.0
  0
LINE
  5
C1
330
70
100
AcDbEntity
  8
0
 62
    18
420
        0
370
    25
100
AcDbLine
 10
26.56413444595232
 20
79.13704758485232
 30
0.0
 11
26.61413342965233
 21
79.13704758485232
 31
0.0
  0
LINE
  5
C2
330
70
100
AcDbEntity
  8
0
 62
    18
420
        0
370
    25
100
AcDbLine
 10
73.7641343595521
 20
79.13704758485232
 30
0.0
 11
73.7641343595521
 21
79.41204755425251
 31
0.0
  0
LINE
  5
C3
330
70
100
AcDbEntity
  8
0
 62
    18
420
        0
370
    25
100
AcDbLine
 10
74.96413418365216
 20
79.13704758485232
 30
0.0
 11
75.01413316745227
 21
79.13704758485232
 31
0.0
  0
SPLINE
  5
C4
330
70
100
AcDbEntity
  8
0
 62
    18
420
        0
370
    25
100
AcDbSpline
210
0.0
220
0.0
230
1.0
 70
     8
 71
     3
 72
     8
 73
     4
 74
     0
 42
0.0000000001
 43
0.0000000001
 40
0.0
 40
0.0
 40
0.0
 40
0.0
 40
1.0
 40
1.0
 40
1.0
 40
1.0
 10
74.96413389465209
 20
79.08704755985221
 30
0.0
 10
74.99174813214381
 20
79.08704755985221
 30
0.0
 10
75.01413389465226
 20
79.10943332236098
 30
0.0
 10
75.01413389465226
 20
79.13704755985172
 30
0.0
  0
LINE
  5
C5
330
70
100
AcDbEntity
  8
0
 62
    18
420
        0
370
    25
100
AcDbLine
 10
25.36413462175215
 20
79.13704758485232
 30
0.0
 11
25.36413462175215
 21
79.41204755425251
 31
0.0
  0
LINE
  5
C6
330
70
100
AcDbEntity
  8
0
 62
    18
420
        0
370
    25
100
AcDbLine
 10
25.36413462175215
 20
79.13704758485232
 30
0.0
 11
25.41413360555226
 21
79.13704758485232
 31
0.0
  0
LINE
  5
C7
330
70
100
AcDbEntity
  8
0
 62
    18
420
        0
370
    25
100
AcDbLine
 10
25.41413360555226
 20
79.13704758485232
 30
0.0
 11
25.41413360555226
 21
79.08704755335243
 31
0.0
  0
SPLINE
  5
C8
330
70
100
AcDbEntity
  8
0
 62
    18
420
        0
370
    25
100
AcDbSpline
210
0.0
220
0.0
230
1.0
 70
     8
 71
     3
 72
     8
 73
     4
 74
     0
 42
0.0000000001
 43
0.0000000001
 40
0.0
 40
0.0
 40
0.0
 40
0.0
 40
1.0
 40
1.0
 40
1.0
 40
1.0
 10
25.36413389465228
 20
79.13704755985172
 30
0.0
 10
25.36413389465228
 20
79.10943332236098
 30
0.0
 10
25.38651965716073
 20
79.08704755985221
 30
0.0
 10
25.41413389465212
 20
79.08704755985221
 30
0.0
  0
LINE
  5
C9
330
70
100
AcDbEntity
  8
0
 62
    18
420
        0
370
    25
100
AcDbLine
 10
26.56413444595232
 20
79.13704758485232
 30
0.0
 11
26.56413444595232
 21
79.08704755335243
 31
0.0
  0
LINE
  5
CA
330
70
100
AcDbEntity
  8
0
 62
    18
420
        0
370
    25
100
AcDbLine
 10
26.56413444595232
 20
79.08704755335243
 30
0.0
 11
25.41413360555226
 21
79.08704755335243
 31
0.0
  0
SPLINE
  5
CB
330
70
100
AcDbEntity
  8
0
 62
    18
420
        0
370
    25
100
AcDbSpline
210
0.0
220
0.0
230
1.0
 70
     8
 71
     3
 72
     8
 73
     4
 74
     0
 42
0.0000000001
 43
0.0000000001
 40
0.0
 40
0.0
 40
0.0
 40
0.0
 40
1.0
 40
1.0
 40
1.0
 40
1.0
 10
26.56413389465232
 20
79.08704755985221
 30
0.0
 10
26.5917481321437
 20
79.08704755985221
 30
0.0
 10
26.61413389465216
 20
79.10943332236098
 30
0.0
 10
26.61413389465216
 20
79.13704755985172
 30
0.0
  0
LINE
  5
CC
330
70
100
AcDbEntity
  8
0
 62
    18
420
        0
370
    25
100
AcDbLine
 10
75.01413316745227
 20
79.41204755425251
 30
0.0
 11
75.01413316745227
 21
79.13704758485232
 31
0.0
  0
LINE
  5
CD
330
70
100
AcDbEntity
  8
0
 62
    18
420
        0
370
    25
100
AcDbLine
 10
39.56413378285212
 20
153.0870507188522
 30
0.0
 11
39.56413378285212
 21
79.83704755985207
 31
0.0
  0
LINE
  5
CE
330
70
100
AcDbEntity
  8
0
 62
    18
420
        0
370
    25
100
AcDbLine
 10
39.56413378285212
 20
153.0870507188522
 30
0.0
 11
60.81413400635231
 21
153.0870507188522
 31
0.0
  0
LINE
  5
CF
330
70
100
AcDbEntity
  8
0
 62
    18
420
        0
370
    25
100
AcDbLine
 10
60.81413400635231
 20
153.0870507188522
 30
0.0
 11
60.81413400635231
 21
79.83704755985207
 31
0.0
  0
LINE
  5
D0
330
70
100
AcDbEntity
  8
0
 62
    18
420
        0
370
    25
100
AcDbLine
 10
60.81413400635231
 20
153.0870507188522
 30
0.0
 11
75.81413367105226
 21
153.0870507188522
 31
0.0
  0
LINE
  5
D1
330
70
100
AcDbEntity
  8
0
 62
    18
420
        0
370
    25
100
AcDbLine
 10
75.81413367105226
 20
153.0870507188522
 30
0.0
 11
75.81413367105226
 21
79.83704755985207
 31
0.0
  0
LINE
  5
D2
330
70
100
AcDbEntity
  8
0
 62
    18
420
        0
370
    25
100
AcDbLine
 10
61.15881090335225
 20
79.83704755985207
 30
0.0
 11
75.81017368755232
 21
79.83704755985207
 31
0.0
  0
LINE
  5
D3
330
70
100
AcDbEntity
  8
0
 62
    18
420
        0
370
    25
100
AcDbLine
 10
24.56413411815217
 20
153.0870507188522
 30
0.0
 11
24.56413411815217
 21
79.83704755985207
 31
0.0
  0
LINE
  5
D4
330
70
100
AcDbEntity
  8
0
 62
    18
420
        0
370
    25
100
AcDbLine
 10
24.56809410175222
 20
79.83704755985207
 30
0.0
 11
39.21945688595228
 21
79.83704755985207
 31
0.0
  0
LINE
  5
D5
330
70
100
AcDbEntity
  8
0
 62
    18
420
        0
370
    25
100
AcDbLine
 10
24.56413411815217
 20
153.0870507188522
 30
0.0
 11
39.56413378285212
 21
153.0870507188522
 31
0.0
  0
LINE
  5
D6
330
70
100
AcDbEntity
  8
0
 62
    18
420
        0
370
    25
100
AcDbLine
 10
24.69022960685231
 20
154.4620479174521
 30
0.0
 11
39.56413378285212
 21
154.4620479174521
 31
0.0
  0
LINE
  5
D7
330
70
100
AcDbEntity
  8
0
 62
    18
420
        0
370
    25
100
AcDbLine
 10
39.56413378285212
 20
154.4620479174521
 30
0.0
 11
39.56413378285212
 21
154.3359542914519
 31
0.0
  0
LINE
  5
D8
330
70
100
AcDbEntity
  8
0
 62
    18
420
        0
370
    25
100
AcDbLine
 10
39.56413378285212
 20
154.3359542914519
 30
0.0
 11
24.56523494145227
 21
154.3359542914519
 31
0.0
  0
SPLINE
  5
D9
330
70
100
AcDbEntity
  8
0
 62
    18
420
        0
370
    25
100
AcDbSpline
210
0.0
220
0.0
230
1.0
 70
     8
 71
     3
 72
    11
 73
     7
 74
     0
 42
0.0000000001
 43
0.0000000001
 40
0.0
 40
0.0
 40
0.0
 40
0.0
 40
1.0
 40
1.0
 40
1.0
 40
2.0
 40
2.0
 40
2.0
 40
2.0
 10
24.69022951285206
 20
154.4620475598522
 30
0.0
 10
24.62119391912327
 20
154.4620475598522
 30
0.0
 10
24.5652295128523
 20
154.4060831535809
 30
0.0
 10
24.5652295128523
 20
154.3370475598521
 30
0.0
 10
24.5652295128523
 20
154.3366839490145
 30
0.0
 10
24.56523109940633
 20
154.3363203399072
 30
0.0
 10
24.56523427246915
 20
154.3359567429148
 30
0.0
  0
LINE
  5
DA
330
70
100
AcDbEntity
  8
0
 62
    18
420
        0
370
    25
100
AcDbLine
 10
60.81413400635231
 20
154.4620479174521
 30
0.0
 11
75.68803818245221
 21
154.4620479174521
 31
0.0
  0
SPLINE
  5
DB
330
70
100
AcDbEntity
  8
0
 62
    18
420
        0
370
    25
100
AcDbSpline
210
0.0
220
0.0
230
1.0
 70
     8
 71
     3
 72
    11
 73
     7
 74
     0
 42
0.0000000001
 43
0.0000000001
 40
0.0
 40
0.0
 40
0.0
 40
0.0
 40
1.0
 40
1.0
 40
1.0
 40
2.0
 40
2.0
 40
2.0
 40
2.0
 10
75.81303351673527
 20
154.3359567429148
 30
0.0
 10
75.8136359582946
 20
154.4049897079797
 30
0.0
 10
75.75816205835444
 20
154.4614403586757
 30
0.0
 10
75.68912909328962
 20
154.462042800235
 30
0.0
 10
75.68876549629696
 20
154.4620459732982
 30
0.0
 10
75.68840188719
 20
154.4620475598522
 30
0.0
 10
75.68803827635204
 20
154.4620475598522
 30
0.0
  0
LINE
  5
DC
330
70
100
AcDbEntity
  8
0
 62
    18
420
        0
370
    25
100
AcDbLine
 10
75.81303284785225
 20
154.3359542914519
 30
0.0
 11
60.81413400635231
 21
154.3359542914519
 31
0.0
  0
LINE
  5
DD
330
70
100
AcDbEntity
  8
0
 62
    18
420
        0
370
    25
100
AcDbLine
 10
60.81413400635231
 20
154.4620479174521
 30
0.0
 11
60.81413400635231
 21
154.3359542914519
 31
0.0
  0
LINE
  5
DE
330
70
100
AcDbEntity
  8
0
 62
    18
420
        0
370
    25
100
AcDbLine
 10
39.56413378285212
 20
154.4620479174521
 30
0.0
 11
60.81413400635231
 21
154.4620479174521
 31
0.0
  0
LINE
  5
DF
330
70
100
AcDbEntity
  8
0
 62
    18
420
        0
370
    25
100
AcDbLine
 10
60.81413400635231
 20
154.3359542914519
 30
0.0
 11
39.56413378285212
 21
154.3359542914519
 31
0.0
  0
LINE
  5
E0
330
70
100
AcDbEntity
  8
0
 62
    18
420
        0
370
    25
100
AcDbLine
 10
39.56413378285212
 20
153.4620458909521
 30
0.0
 11
24.5728606106522
 21
153.4620458909521
 31
0.0
  0
LINE
  5
E1
330
70
100
AcDbEntity
  8
0
 62
    18
420
        0
370
    25
100
AcDbLine
 10
24.5728606106522
 20
153.4620458909521
 30
0.0
 11
24.56523494145227
 21
154.3359542914519
 31
0.0
  0
LINE
  5
E2
330
70
100
AcDbEntity
  8
0
 62
    18
420
        0
370
    25
100
AcDbLine
 10
39.56413378285212
 20
154.3359542914519
 30
0.0
 11
39.56413378285212
 21
153.4620458909521
 31
0.0
  0
LINE
  5
E3
330
70
100
AcDbEntity
  8
0
 62
    18
420
        0
370
    25
100
AcDbLine
 10
39.56413378285212
 20
153.4620458909521
 30
0.0
 11
60.81413400635231
 21
153.4620458909521
 31
0.0
  0
LINE
  5
E4
330
70
100
AcDbEntity
  8
0
 62
    18
420
        0
370
    25
100
AcDbLine
 10
60.81413400635231
 20
153.4620458909521
 30
0.0
 11
60.81413400635231
 21
154.3359542914519
 31
0.0
  0
LINE
  5
E5
330
70
100
AcDbEntity
  8
0
 62
    18
420
        0
370
    25
100
AcDbLine
 10
75.80540717855223
 20
153.4620458909521
 30
0.0
 11
60.81413400635231
 21
153.4620458909521
 31
0.0
  0
LINE
  5
E6
330
70
100
AcDbEntity
  8
0
 62
    18
420
        0
370
    25
100
AcDbLine
 10
75.81303284785225
 20
154.3359542914519
 30
0.0
 11
75.80540717855223
 21
153.4620458909521
 31
0.0
  0
LINE
  5
E7
330
70
100
AcDbEntity
  8
0
 62
    18
420
        0
370
    25
100
AcDbLine
 10
25.44995227175226
 20
153.0870507188522
 30
0.0
 11
25.44667960425221
 21
153.4620458909521
 31
0.0
  0
LINE
  5
E8
330
70
100
AcDbEntity
  8
0
 62
    18
420
        0
370
    25
100
AcDbLine
 10
74.92831551745216
 20
153.0870507188522
 30
0.0
 11
74.93158818505233
 21
153.4620458909521
 31
0.0
  0
LINE
  5
E9
330
70
100
AcDbEntity
  8
0
 62
     8
420
  8421504
370
    25
100
AcDbLine
 10
39.56413378285212
 20
153.0870507188522
 30
0.0
 11
39.56413378285212
 21
153.4620458909521
 31
0.0
  0
LINE
  5
EA
330
70
100
AcDbEntity
  8
0
 62
     8
420
  8421504
370
    25
100
AcDbLine
 10
60.81413400635231
 20
153.0870507188522
 30
0.0
 11
60.81413400635231
 21
153.4620458909521
 31
0.0
  0
LINE
  5
EB
330
70
100
AcDbEntity
  8
0
 62
    18
420
        0
370
    25
100
AcDbLine
 10
136.967083485852
 20
79.83704755985207
 30
0.0
 11
136.967083485852
 21
79.46204755655251
 31
0.0
  0
LINE
  5
EC
330
70
100
AcDbEntity
  8
0
 62
    18
420
        0
370
    25
100
AcDbLine
 10
158.3670843859524
 20
79.46204755655251
 30
0.0
 11
158.3670843859524
 21
79.83704755985207
 31
0.0
  0
LINE
  5
ED
330
70
100
AcDbEntity
  8
0
 62
    18
420
        0
370
    25
100
AcDbLine
 10
136.967083485852
 20
79.83704755985207
 30
0.0
 11
158.3670843859524
 21
79.83704755985207
 31
0.0
  0
LINE
  5
EE
330
70
100
AcDbEntity
  8
0
 62
    18
420
        0
370
    25
100
AcDbLine
 10
136.967083485852
 20
79.46204755655251
 30
0.0
 11
158.3670843859524
 21
79.46204755655251
 31
0.0
  0
LINE
  5
EF
330
70
100
AcDbEntity
  8
0
 62
    18
420
        0
370
    25
100
AcDbLine
 10
136.5767168347521
 20
79.46204755655251
 30
0.0
 11
136.5767168347521
 21
79.83704755985207
 31
0.0
  0
LINE
  5
F0
330
70
100
AcDbEntity
  8
0
 62
    18
420
        0
370
    25
100
AcDbLine
 10
136.967083485852
 20
79.83704755985207
 30
0.0
 11
136.6974069272523
 21
79.83704755985207
 31
0.0
  0
LINE
  5
F1
330
70
100
AcDbEntity
  8
0
 62
    18
420
        0
370
    25
100
AcDbLine
 10
136.967083485852
 20
79.46204755655251
 30
0.0
 11
136.5767168347521
 21
79.46204755655251
 31
0.0
  0
LINE
  5
F2
330
70
100
AcDbEntity
  8
0
 62
    18
420
        0
370
    25
100
AcDbLine
 10
158.7574510370523
 20
79.46204755655251
 30
0.0
 11
158.7574510370523
 21
79.83704755985207
 31
0.0
  0
LINE
  5
F3
330
70
100
AcDbEntity
  8
0
 62
    18
420
        0
370
    25
100
AcDbLine
 10
158.3670843859524
 20
79.83704755985207
 30
0.0
 11
158.6367609445521
 21
79.83704755985207
 31
0.0
  0
LINE
  5
F4
330
70
100
AcDbEntity
  8
0
 62
    18
420
        0
370
    25
100
AcDbLine
 10
158.3670843859524
 20
79.46204755655251
 30
0.0
 11
158.7574510370523
 21
79.46204755655251
 31
0.0
  0
LINE
  5
F5
330
70
100
AcDbEntity
  8
0
 62
    18
420
        0
370
    25
100
AcDbLine
 10
136.2121245358524
 20
79.46204755655251
 30
0.0
 11
136.2121245358524
 21
79.83704755985207
 31
0.0
  0
LINE
  5
F6
330
70
100
AcDbEntity
  8
0
 62
    18
420
        0
370
    25
100
AcDbLine
 10
136.5767168347521
 20
79.46204755655251
 30
0.0
 11
136.2121245358524
 21
79.46204755655251
 31
0.0
  0
LINE
  5
F7
330
70
100
AcDbEntity
  8
0
 62
    18
420
        0
370
    25
100
AcDbLine
 10
159.122043335852
 20
79.46204755655251
 30
0.0
 11
159.122043335852
 21
79.83704755985207
 31
0.0
  0
LINE
  5
F8
330
70
100
AcDbEntity
  8
0
 62
    18
420
        0
370
    25
100
AcDbLine
 10
158.7574510370523
 20
79.46204755655251
 30
0.0
 11
159.122043335852
 21
79.46204755655251
 31
0.0
  0
LINE
  5
F9
330
70
100
AcDbEntity
  8
0
 62
    18
420
        0
370
    25
100
AcDbLine
 10
122.341556521252
 20
79.46204755655251
 30
0.0
 11
122.341556521252
 21
79.83704755985207
 31
0.0
  0
LINE
  5
FA
330
70
100
AcDbEntity
  8
0
 62
    18
420
        0
370
    25
100
AcDbLine
 10
136.2121245358524
 20
79.46204755655251
 30
0.0
 11
122.341556521252
 21
79.46204755655251
 31
0.0
  0
LINE
  5
FB
330
70
100
AcDbEntity
  8
0
 62
    18
420
        0
370
    25
100
AcDbLine
 10
172.9926113505524
 20
79.46204755655251
 30
0.0
 11
172.9926113505524
 21
79.83704755985207
 31
0.0
  0
LINE
  5
FC
330
70
100
AcDbEntity
  8
0
 62
    18
420
        0
370
    25
100
AcDbLine
 10
159.122043335852
 20
79.46204755655251
 30
0.0
 11
172.9926113505524
 21
79.46204755655251
 31
0.0
  0
LINE
  5
FD
330
70
100
AcDbEntity
  8
0
 62
    18
420
        0
370
    25
100
AcDbLine
 10
141.4170838427518
 20
79.41204755425251
 30
0.0
 11
141.467083757852
 21
79.41204755425251
 31
0.0
  0
SPLINE
  5
FE
330
70
100
AcDbEntity
  8
0
 62
    18
420
        0
370
    25
100
AcDbSpline
210
0.0
220
0.0
230
1.0
 70
     8
 71
     3
 72
     8
 73
     4
 74
     0
 42
0.0000000001
 43
0.0000000001
 40
0.0
 40
0.0
 40
0.0
 40
0.0
 40
1.0
 40
1.0
 40
1.0
 40
1.0
 10
141.4170839358521
 20
79.41204755985197
 30
0.0
 10
141.4170839358521
 20
79.439661797344
 30
0.0
 10
141.394698173344
 20
79.46204755985213
 30
0.0
 10
141.3670839358519
 20
79.46204755985213
 30
0.0
  0
LINE
  5
FF
330
70
100
AcDbEntity
  8
0
 62
    18
420
        0
370
    25
100
AcDbLine
 10
141.467083757852
 20
79.41204755425251
 30
0.0
 11
141.467083757852
 21
79.46204755655251
 31
0.0
  0
LINE
  5
100
330
70
100
AcDbEntity
  8
0
 62
    18
420
        0
370
    25
100
AcDbLine
 10
153.8670841139524
 20
79.41204755425251
 30
0.0
 11
141.467083757852
 21
79.41204755425251
 31
0.0
  0
LINE
  5
101
330
70
100
AcDbEntity
  8
0
 62
    18
420
        0
370
    25
100
AcDbLine
 10
153.8670841139524
 20
79.46204755655251
 30
0.0
 11
153.8670841139524
 21
79.41204755425251
 31
0.0
  0
SPLINE
  5
102
330
70
100
AcDbEntity
  8
0
 62
    18
420
        0
370
    25
100
AcDbSpline
210
0.0
220
0.0
230
1.0
 70
     8
 71
     3
 72
     8
 73
     4
 74
     0
 42
0.0000000001
 43
0.0000000001
 40
0.0
 40
0.0
 40
0.0
 40
0.0
 40
1.0
 40
1.0
 40
1.0
 40
1.0
 10
153.9670839358524
 20
79.46204755985213
 30
0.0
 10
153.9394696983603
 20
79.46204755985213
 30
0.0
 10
153.9170839358522
 20
79.439661797344
 30
0.0
 10
153.9170839358522
 20
79.41204755985197
 30
0.0
  0
LINE
  5
103
330
70
100
AcDbEntity
  8
0
 62
    18
420
        0
370
    25
100
AcDbLine
 10
153.8670841139524
 20
79.41204755425251
 30
0.0
 11
153.917084029052
 21
79.41204755425251
 31
0.0
  0
LINE
  5
104
330
70
100
AcDbEntity
  8
0
 62
    18
420
        0
370
    25
100
AcDbLine
 10
141.467083757852
 20
79.13704758485232
 30
0.0
 11
153.8670841139524
 21
79.13704758485232
 31
0.0
  0
LINE
  5
105
330
70
100
AcDbEntity
  8
0
 62
    18
420
        0
370
    25
100
AcDbLine
 10
153.8670841139524
 20
79.13704758485232
 30
0.0
 11
153.8670841139524
 21
79.08704755335243
 31
0.0
  0
LINE
  5
106
330
70
100
AcDbEntity
  8
0
 62
    18
420
        0
370
    25
100
AcDbLine
 10
153.8670841139524
 20
79.08704755335243
 30
0.0
 11
141.467083757852
 21
79.08704755335243
 31
0.0
  0
LINE
  5
107
330
70
100
AcDbEntity
  8
0
 62
    18
420
        0
370
    25
100
AcDbLine
 10
141.467083757852
 20
79.08704755335243
 30
0.0
 11
141.467083757852
 21
79.13704758485232
 31
0.0
  0
LINE
  5
108
330
70
100
AcDbEntity
  8
0
 62
    18
420
        0
370
    25
100
AcDbLine
 10
141.4170838427518
 20
79.13704758485232
 30
0.0
 11
141.4170838427518
 21
79.41204755425251
 31
0.0
  0
LINE
  5
109
330
70
100
AcDbEntity
  8
0
 62
    18
420
        0
370
    25
100
AcDbLine
 10
141.467083757852
 20
79.41204755425251
 30
0.0
 11
141.467083757852
 21
79.13704758485232
 31
0.0
  0
LINE
  5
10A
330
70
100
AcDbEntity
  8
0
 62
    18
420
        0
370
    25
100
AcDbLine
 10
141.4170838427518
 20
79.13704758485232
 30
0.0
 11
141.467083757852
 21
79.13704758485232
 31
0.0
  0
SPLINE
  5
10B
330
70
100
AcDbEntity
  8
0
 62
    18
420
        0
370
    25
100
AcDbSpline
210
0.0
220
0.0
230
1.0
 70
     8
 71
     3
 72
     8
 73
     4
 74
     0
 42
0.0000000001
 43
0.0000000001
 40
0.0
 40
0.0
 40
0.0
 40
0.0
 40
1.0
 40
1.0
 40
1.0
 40
1.0
 10
141.4170839358521
 20
79.13704755985172
 30
0.0
 10
141.4170839358521
 20
79.10943332236098
 30
0.0
 10
141.4394696983609
 20
79.08704755985221
 30
0.0
 10
141.4670839358523
 20
79.08704755985221
 30
0.0
  0
LINE
  5
10C
330
70
100
AcDbEntity
  8
0
 62
    18
420
        0
370
    25
100
AcDbLine
 10
153.8670841139524
 20
79.13704758485232
 30
0.0
 11
153.8670841139524
 21
79.41204755425251
 31
0.0
  0
SPLINE
  5
10D
330
70
100
AcDbEntity
  8
0
 62
    18
420
        0
370
    25
100
AcDbSpline
210
0.0
220
0.0
230
1.0
 70
     8
 71
     3
 72
     8
 73
     4
 74
     0
 42
0.0000000001
 43
0.0000000001
 40
0.0
 40
0.0
 40
0.0
 40
0.0
 40
1.0
 40
1.0
 40
1.0
 40
1.0
 10
153.867083935852
 20
79.08704755985221
 30
0.0
 10
153.8946981733434
 20
79.08704755985221
 30
0.0
 10
153.9170839358522
 20
79.10943332236098
 30
0.0
 10
153.9170839358522
 20
79.13704755985172
 30
0.0
  0
LINE
  5
10E
330
70
100
AcDbEntity
  8
0
 62
    18
420
        0
370
    25
100
AcDbLine
 10
153.8670841139524
 20
79.13704758485232
 30
0.0
 11
153.917084029052
 21
79.13704758485232
 31
0.0
  0
LINE
  5
10F
330
70
100
AcDbEntity
  8
0
 62
    18
420
        0
370
    25
100
AcDbLine
 10
153.917084029052
 20
79.41204755425251
 30
0.0
 11
153.917084029052
 21
79.13704758485232
 31
0.0
  0
LINE
  5
110
330
70
100
AcDbEntity
  8
0
 62
    18
420
        0
370
    25
100
AcDbLine
 10
122.1546531190523
 20
79.46204755655251
 30
0.0
 11
122.1546531190523
 21
79.83704755985207
 31
0.0
  0
LINE
  5
111
330
70
100
AcDbEntity
  8
0
 62
    18
420
        0
370
    25
100
AcDbLine
 10
122.341556521252
 20
79.46204755655251
 30
0.0
 11
122.1546531190523
 21
79.46204755655251
 31
0.0
  0
LINE
  5
112
330
70
100
AcDbEntity
  8
0
 62
    18
420
        0
370
    25
100
AcDbLine
 10
173.1795147527521
 20
79.46204755655251
 30
0.0
 11
173.1795147527521
 21
79.83704755985207
 31
0.0
  0
LINE
  5
113
330
70
100
AcDbEntity
  8
0
 62
    18
420
        0
370
    25
100
AcDbLine
 10
172.9926113505524
 20
79.46204755655251
 30
0.0
 11
173.1795147527521
 21
79.46204755655251
 31
0.0
  0
LINE
  5
114
330
70
100
AcDbEntity
  8
0
 62
    18
420
        0
370
    25
100
AcDbLine
 10
121.9670847524524
 20
79.46204755655251
 30
0.0
 11
121.9670847524524
 21
79.83704755985207
 31
0.0
  0
LINE
  5
115
330
70
100
AcDbEntity
  8
0
 62
    18
420
        0
370
    25
100
AcDbLine
 10
122.0420841594522
 20
79.83704755985207
 30
0.0
 11
121.9670847524524
 21
79.83704755985207
 31
0.0
  0
LINE
  5
116
330
70
100
AcDbEntity
  8
0
 62
    18
420
        0
370
    25
100
AcDbLine
 10
122.1546531190523
 20
79.46204755655251
 30
0.0
 11
121.9670847524524
 21
79.46204755655251
 31
0.0
  0
LINE
  5
117
330
70
100
AcDbEntity
  8
0
 62
    18
420
        0
370
    25
100
AcDbLine
 10
173.367083119352
 20
79.83704755985207
 30
0.0
 11
173.367083119352
 21
79.46204755655251
 31
0.0
  0
LINE
  5
118
330
70
100
AcDbEntity
  8
0
 62
    18
420
        0
370
    25
100
AcDbLine
 10
173.2920837123522
 20
79.83704755985207
 30
0.0
 11
173.367083119352
 21
79.83704755985207
 31
0.0
  0
LINE
  5
119
330
70
100
AcDbEntity
  8
0
 62
    18
420
        0
370
    25
100
AcDbLine
 10
173.1795147527521
 20
79.46204755655251
 30
0.0
 11
173.367083119352
 21
79.46204755655251
 31
0.0
  0
LINE
  5
11A
330
70
100
AcDbEntity
  8
0
 62
    18
420
        0
370
    25
100
AcDbLine
 10
172.4420842249522
 20
79.46204755655251
 30
0.0
 11
172.4420842249522
 21
79.41204755425251
 31
0.0
  0
LINE
  5
11B
330
70
100
AcDbEntity
  8
0
 62
    18
420
        0
370
    25
100
AcDbLine
 10
172.4420842249522
 20
79.41204755425251
 30
0.0
 11
171.2920833845524
 21
79.41204755425251
 31
0.0
  0
LINE
  5
11C
330
70
100
AcDbEntity
  8
0
 62
    18
420
        0
370
    25
100
AcDbLine
 10
171.2920833845524
 20
79.46204755655251
 30
0.0
 11
171.2920833845524
 21
79.41204755425251
 31
0.0
  0
SPLINE
  5
11D
330
70
100
AcDbEntity
  8
0
 62
    18
420
        0
370
    25
100
AcDbSpline
210
0.0
220
0.0
230
1.0
 70
     8
 71
     3
 72
     8
 73
     4
 74
     0
 42
0.0000000001
 43
0.0000000001
 40
0.0
 40
0.0
 40
0.0
 40
0.0
 40
1.0
 40
1.0
 40
1.0
 40
1.0
 10
172.5420839358523
 20
79.46204755985213
 30
0.0
 10
172.5144696983603
 20
79.46204755985213
 30
0.0
 10
172.4920839358522
 20
79.439661797344
 30
0.0
 10
172.4920839358522
 20
79.41204755985197
 30
0.0
  0
LINE
  5
11E
330
70
100
AcDbEntity
  8
0
 62
    18
420
        0
370
    25
100
AcDbLine
 10
172.4420842249522
 20
79.41204755425251
 30
0.0
 11
172.4920832087519
 21
79.41204755425251
 31
0.0
  0
LINE
  5
11F
330
70
100
AcDbEntity
  8
0
 62
    18
420
        0
370
    25
100
AcDbLine
 10
171.2420844008521
 20
79.41204755425251
 30
0.0
 11
171.2920833845524
 21
79.41204755425251
 31
0.0
  0
SPLINE
  5
120
330
70
100
AcDbEntity
  8
0
 62
    18
420
        0
370
    25
100
AcDbSpline
210
0.0
220
0.0
230
1.0
 70
     8
 71
     3
 72
     8
 73
     4
 74
     0
 42
0.0000000001
 43
0.0000000001
 40
0.0
 40
0.0
 40
0.0
 40
0.0
 40
1.0
 40
1.0
 40
1.0
 40
1.0
 10
171.242083935852
 20
79.41204755985197
 30
0.0
 10
171.242083935852
 20
79.439661797344
 30
0.0
 10
171.2196981733438
 20
79.46204755985213
 30
0.0
 10
171.1920839358524
 20
79.46204755985213
 30
0.0
  0
LINE
  5
121
330
70
100
AcDbEntity
  8
0
 62
    18
420
        0
370
    25
100
AcDbLine
 10
124.042084487252
 20
79.41204755425251
 30
0.0
 11
122.8920836468523
 21
79.41204755425251
 31
0.0
  0
LINE
  5
122
330
70
100
AcDbEntity
  8
0
 62
    18
420
        0
370
    25
100
AcDbLine
 10
122.8920836468523
 20
79.41204755425251
 30
0.0
 11
122.8920836468523
 21
79.46204755655251
 31
0.0
  0
LINE
  5
123
330
70
100
AcDbEntity
  8
0
 62
    18
420
        0
370
    25
100
AcDbLine
 10
124.042084487252
 20
79.41204755425251
 30
0.0
 11
124.042084487252
 21
79.46204755655251
 31
0.0
  0
LINE
  5
124
330
70
100
AcDbEntity
  8
0
 62
    18
420
        0
370
    25
100
AcDbLine
 10
122.8420846630525
 20
79.41204755425251
 30
0.0
 11
122.8920836468523
 21
79.41204755425251
 31
0.0
  0
SPLINE
  5
125
330
70
100
AcDbEntity
  8
0
 62
    18
420
        0
370
    25
100
AcDbSpline
210
0.0
220
0.0
230
1.0
 70
     8
 71
     3
 72
     8
 73
     4
 74
     0
 42
0.0000000001
 43
0.0000000001
 40
0.0
 40
0.0
 40
0.0
 40
0.0
 40
1.0
 40
1.0
 40
1.0
 40
1.0
 10
122.8420839358522
 20
79.41204755985197
 30
0.0
 10
122.8420839358522
 20
79.439661797344
 30
0.0
 10
122.8196981733434
 20
79.46204755985213
 30
0.0
 10
122.792083935852
 20
79.46204755985213
 30
0.0
  0
LINE
  5
126
330
70
100
AcDbEntity
  8
0
 62
    18
420
        0
370
    25
100
AcDbLine
 10
124.042084487252
 20
79.41204755425251
 30
0.0
 11
124.0920834709523
 21
79.41204755425251
 31
0.0
  0
SPLINE
  5
127
330
70
100
AcDbEntity
  8
0
 62
    18
420
        0
370
    25
100
AcDbSpline
210
0.0
220
0.0
230
1.0
 70
     8
 71
     3
 72
     8
 73
     4
 74
     0
 42
0.0000000001
 43
0.0000000001
 40
0.0
 40
0.0
 40
0.0
 40
0.0
 40
1.0
 40
1.0
 40
1.0
 40
1.0
 10
124.1420839358519
 20
79.46204755985213
 30
0.0
 10
124.1144696983605
 20
79.46204755985213
 30
0.0
 10
124.0920839358524
 20
79.439661797344
 30
0.0
 10
124.0920839358524
 20
79.41204755985197
 30
0.0
  0
LINE
  5
128
330
70
100
AcDbEntity
  8
0
 62
    18
420
        0
370
    25
100
AcDbLine
 10
171.2920833845524
 20
79.13704758485232
 30
0.0
 11
172.4420842249522
 21
79.13704758485232
 31
0.0
  0
LINE
  5
129
330
70
100
AcDbEntity
  8
0
 62
    18
420
        0
370
    25
100
AcDbLine
 10
171.2920833845524
 20
79.41204755425251
 30
0.0
 11
171.2920833845524
 21
79.13704758485232
 31
0.0
  0
LINE
  5
12A
330
70
100
AcDbEntity
  8
0
 62
    18
420
        0
370
    25
100
AcDbLine
 10
172.4420842249522
 20
79.13704758485232
 30
0.0
 11
172.4420842249522
 21
79.41204755425251
 31
0.0
  0
LINE
  5
12B
330
70
100
AcDbEntity
  8
0
 62
    18
420
        0
370
    25
100
AcDbLine
 10
172.4420842249522
 20
79.13704758485232
 30
0.0
 11
172.4420842249522
 21
79.08704755335243
 31
0.0
  0
LINE
  5
12C
330
70
100
AcDbEntity
  8
0
 62
    18
420
        0
370
    25
100
AcDbLine
 10
172.4420842249522
 20
79.08704755335243
 30
0.0
 11
171.2920833845524
 21
79.08704755335243
 31
0.0
  0
LINE
  5
12D
330
70
100
AcDbEntity
  8
0
 62
    18
420
        0
370
    25
100
AcDbLine
 10
171.2920833845524
 20
79.13704758485232
 30
0.0
 11
171.2920833845524
 21
79.08704755335243
 31
0.0
  0
LINE
  5
12E
330
70
100
AcDbEntity
  8
0
 62
    18
420
        0
370
    25
100
AcDbLine
 10
172.4920832087519
 20
79.41204755425251
 30
0.0
 11
172.4920832087519
 21
79.13704758485232
 31
0.0
  0
LINE
  5
12F
330
70
100
AcDbEntity
  8
0
 62
    18
420
        0
370
    25
100
AcDbLine
 10
172.4420842249522
 20
79.13704758485232
 30
0.0
 11
172.4920832087519
 21
79.13704758485232
 31
0.0
  0
SPLINE
  5
130
330
70
100
AcDbEntity
  8
0
 62
    18
420
        0
370
    25
100
AcDbSpline
210
0.0
220
0.0
230
1.0
 70
     8
 71
     3
 72
     8
 73
     4
 74
     0
 42
0.0000000001
 43
0.0000000001
 40
0.0
 40
0.0
 40
0.0
 40
0.0
 40
1.0
 40
1.0
 40
1.0
 40
1.0
 10
172.442083935852
 20
79.08704755985221
 30
0.0
 10
172.4696981733434
 20
79.08704755985221
 30
0.0
 10
172.4920839358522
 20
79.10943332236098
 30
0.0
 10
172.4920839358522
 20
79.13704755985172
 30
0.0
  0
SPLINE
  5
131
330
70
100
AcDbEntity
  8
0
 62
    18
420
        0
370
    25
100
AcDbSpline
210
0.0
220
0.0
230
1.0
 70
     8
 71
     3
 72
     8
 73
     4
 74
     0
 42
0.0000000001
 43
0.0000000001
 40
0.0
 40
0.0
 40
0.0
 40
0.0
 40
1.0
 40
1.0
 40
1.0
 40
1.0
 10
171.242083935852
 20
79.13704755985172
 30
0.0
 10
171.242083935852
 20
79.10943332236098
 30
0.0
 10
171.2644696983607
 20
79.08704755985221
 30
0.0
 10
171.2920839358521
 20
79.08704755985221
 30
0.0
  0
LINE
  5
132
330
70
100
AcDbEntity
  8
0
 62
    18
420
        0
370
    25
100
AcDbLine
 10
171.2420844008521
 20
79.13704758485232
 30
0.0
 11
171.2920833845524
 21
79.13704758485232
 31
0.0
  0
LINE
  5
133
330
70
100
AcDbEntity
  8
0
 62
    18
420
        0
370
    25
100
AcDbLine
 10
171.2420844008521
 20
79.13704758485232
 30
0.0
 11
171.2420844008521
 21
79.41204755425251
 31
0.0
  0
LINE
  5
134
330
70
100
AcDbEntity
  8
0
 62
    18
420
        0
370
    25
100
AcDbLine
 10
122.8920836468523
 20
79.13704758485232
 30
0.0
 11
124.042084487252
 21
79.13704758485232
 31
0.0
  0
LINE
  5
135
330
70
100
AcDbEntity
  8
0
 62
    18
420
        0
370
    25
100
AcDbLine
 10
122.8920836468523
 20
79.41204755425251
 30
0.0
 11
122.8920836468523
 21
79.13704758485232
 31
0.0
  0
LINE
  5
136
330
70
100
AcDbEntity
  8
0
 62
    18
420
        0
370
    25
100
AcDbLine
 10
124.042084487252
 20
79.13704758485232
 30
0.0
 11
124.042084487252
 21
79.41204755425251
 31
0.0
  0
LINE
  5
137
330
70
100
AcDbEntity
  8
0
 62
    18
420
        0
370
    25
100
AcDbLine
 10
124.042084487252
 20
79.08704755335243
 30
0.0
 11
122.8920836468523
 21
79.08704755335243
 31
0.0
  0
LINE
  5
138
330
70
100
AcDbEntity
  8
0
 62
    18
420
        0
370
    25
100
AcDbLine
 10
122.8920836468523
 20
79.08704755335243
 30
0.0
 11
122.8920836468523
 21
79.13704758485232
 31
0.0
  0
LINE
  5
139
330
70
100
AcDbEntity
  8
0
 62
    18
420
        0
370
    25
100
AcDbLine
 10
124.042084487252
 20
79.08704755335243
 30
0.0
 11
124.042084487252
 21
79.13704758485232
 31
0.0
  0
LINE
  5
13A
330
70
100
AcDbEntity
  8
0
 62
    18
420
        0
370
    25
100
AcDbLine
 10
124.0920834709523
 20
79.41204755425251
 30
0.0
 11
124.0920834709523
 21
79.13704758485232
 31
0.0
  0
LINE
  5
13B
330
70
100
AcDbEntity
  8
0
 62
    18
420
        0
370
    25
100
AcDbLine
 10
124.042084487252
 20
79.13704758485232
 30
0.0
 11
124.0920834709523
 21
79.13704758485232
 31
0.0
  0
SPLINE
  5
13C
330
70
100
AcDbEntity
  8
0
 62
    18
420
        0
370
    25
100
AcDbSpline
210
0.0
220
0.0
230
1.0
 70
     8
 71
     3
 72
     8
 73
     4
 74
     0
 42
0.0000000001
 43
0.0000000001
 40
0.0
 40
0.0
 40
0.0
 40
0.0
 40
1.0
 40
1.0
 40
1.0
 40
1.0
 10
124.0420839358522
 20
79.08704755985221
 30
0.0
 10
124.0696981733436
 20
79.08704755985221
 30
0.0
 10
124.0920839358524
 20
79.10943332236098
 30
0.0
 10
124.0920839358524
 20
79.13704755985172
 30
0.0
  0
LINE
  5
13D
330
70
100
AcDbEntity
  8
0
 62
    18
420
        0
370
    25
100
AcDbLine
 10
122.8420846630525
 20
79.13704758485232
 30
0.0
 11
122.8920836468523
 21
79.13704758485232
 31
0.0
  0
SPLINE
  5
13E
330
70
100
AcDbEntity
  8
0
 62
    18
420
        0
370
    25
100
AcDbSpline
210
0.0
220
0.0
230
1.0
 70
     8
 71
     3
 72
     8
 73
     4
 74
     0
 42
0.0000000001
 43
0.0000000001
 40
0.0
 40
0.0
 40
0.0
 40
0.0
 40
1.0
 40
1.0
 40
1.0
 40
1.0
 10
122.8420839358522
 20
79.13704755985172
 30
0.0
 10
122.8420839358522
 20
79.10943332236098
 30
0.0
 10
122.8644696983603
 20
79.08704755985221
 30
0.0
 10
122.8920839358523
 20
79.08704755985221
 30
0.0
  0
LINE
  5
13F
330
70
100
AcDbEntity
  8
0
 62
    18
420
        0
370
    25
100
AcDbLine
 10
122.8420846630525
 20
79.13704758485232
 30
0.0
 11
122.8420846630525
 21
79.41204755425251
 31
0.0
  0
LINE
  5
140
330
70
100
AcDbEntity
  8
0
 62
    18
420
        0
370
    25
100
AcDbLine
 10
122.0420841594522
 20
153.0870507188522
 30
0.0
 11
122.0420841594522
 21
79.83704755985207
 31
0.0
  0
LINE
  5
141
330
70
100
AcDbEntity
  8
0
 62
    18
420
        0
370
    25
100
AcDbLine
 10
122.0420841594522
 20
153.0870507188522
 30
0.0
 11
137.0420838241521
 21
153.0870507188522
 31
0.0
  0
LINE
  5
142
330
70
100
AcDbEntity
  8
0
 62
    18
420
        0
370
    25
100
AcDbLine
 10
137.0420838241521
 20
153.0870507188522
 30
0.0
 11
137.0420838241521
 21
79.83704755985207
 31
0.0
  0
LINE
  5
143
330
70
100
AcDbEntity
  8
0
 62
    18
420
        0
370
    25
100
AcDbLine
 10
122.0460441430522
 20
79.83704755985207
 30
0.0
 11
136.6974069272523
 21
79.83704755985207
 31
0.0
  0
LINE
  5
144
330
70
100
AcDbEntity
  8
0
 62
    18
420
        0
370
    25
100
AcDbLine
 10
158.2920840476523
 20
153.0870507188522
 30
0.0
 11
158.2920840476523
 21
79.83704755985207
 31
0.0
  0
LINE
  5
145
330
70
100
AcDbEntity
  8
0
 62
    18
420
        0
370
    25
100
AcDbLine
 10
137.0420838241521
 20
153.0870507188522
 30
0.0
 11
158.2920840476523
 21
153.0870507188522
 31
0.0
  0
LINE
  5
146
330
70
100
AcDbEntity
  8
0
 62
    18
420
        0
370
    25
100
AcDbLine
 10
173.2920837123522
 20
153.0870507188522
 30
0.0
 11
173.2920837123522
 21
79.83704755985207
 31
0.0
  0
LINE
  5
147
330
70
100
AcDbEntity
  8
0
 62
    18
420
        0
370
    25
100
AcDbLine
 10
158.2920840476523
 20
153.0870507188522
 30
0.0
 11
173.2920837123522
 21
153.0870507188522
 31
0.0
  0
LINE
  5
148
330
70
100
AcDbEntity
  8
0
 62
    18
420
        0
370
    25
100
AcDbLine
 10
158.6367609445521
 20
79.83704755985207
 30
0.0
 11
173.2881237287522
 21
79.83704755985207
 31
0.0
  0
LINE
  5
149
330
70
100
AcDbEntity
  8
0
 62
    18
420
        0
370
    25
100
AcDbLine
 10
137.0420838241521
 20
154.3359542914519
 30
0.0
 11
122.0431849826518
 21
154.3359542914519
 31
0.0
  0
SPLINE
  5
14A
330
70
100
AcDbEntity
  8
0
 62
    18
420
        0
370
    25
100
AcDbSpline
210
0.0
220
0.0
230
1.0
 70
     8
 71
     3
 72
    11
 73
     7
 74
     0
 42
0.0000000001
 43
0.0000000001
 40
0.0
 40
0.0
 40
0.0
 40
0.0
 40
1.0
 40
1.0
 40
1.0
 40
2.0
 40
2.0
 40
2.0
 40
2.0
 10
122.1681795541524
 20
154.4620475598522
 30
0.0
 10
122.0991439604236
 20
154.4620475598522
 30
0.0
 10
122.043179554152
 20
154.4060831535809
 30
0.0
 10
122.043179554152
 20
154.3370475598521
 30
0.0
 10
122.043179554152
 20
154.3366839490145
 30
0.0
 10
122.043181140706
 20
154.3363203399072
 30
0.0
 10
122.0431843137691
 20
154.3359567429148
 30
0.0
  0
LINE
  5
14B
330
70
100
AcDbEntity
  8
0
 62
    18
420
        0
370
    25
100
AcDbLine
 10
122.1681796480522
 20
154.4620479174521
 30
0.0
 11
137.0420838241521
 21
154.4620479174521
 31
0.0
  0
LINE
  5
14C
330
70
100
AcDbEntity
  8
0
 62
    18
420
        0
370
    25
100
AcDbLine
 10
137.0420838241521
 20
154.3359542914519
 30
0.0
 11
137.0420838241521
 21
154.4620479174521
 31
0.0
  0
LINE
  5
14D
330
70
100
AcDbEntity
  8
0
 62
    18
420
        0
370
    25
100
AcDbLine
 10
137.0420838241521
 20
154.4620479174521
 30
0.0
 11
158.2920840476523
 21
154.4620479174521
 31
0.0
  0
LINE
  5
14E
330
70
100
AcDbEntity
  8
0
 62
    18
420
        0
370
    25
100
AcDbLine
 10
158.2920840476523
 20
154.3359542914519
 30
0.0
 11
158.2920840476523
 21
154.4620479174521
 31
0.0
  0
LINE
  5
14F
330
70
100
AcDbEntity
  8
0
 62
    18
420
        0
370
    25
100
AcDbLine
 10
158.2920840476523
 20
154.3359542914519
 30
0.0
 11
137.0420838241521
 21
154.3359542914519
 31
0.0
  0
LINE
  5
150
330
70
100
AcDbEntity
  8
0
 62
    18
420
        0
370
    25
100
AcDbLine
 10
158.2920840476523
 20
154.4620479174521
 30
0.0
 11
173.1659882237522
 21
154.4620479174521
 31
0.0
  0
SPLINE
  5
151
330
70
100
AcDbEntity
  8
0
 62
    18
420
        0
370
    25
100
AcDbSpline
210
0.0
220
0.0
230
1.0
 70
     8
 71
     3
 72
    11
 73
     7
 74
     0
 42
0.0000000001
 43
0.0000000001
 40
0.0
 40
0.0
 40
0.0
 40
0.0
 40
1.0
 40
1.0
 40
1.0
 40
2.0
 40
2.0
 40
2.0
 40
2.0
 10
173.2909835580353
 20
154.3359567429148
 30
0.0
 10
173.2915859995946
 20
154.4049897079797
 30
0.0
 10
173.2361120996541
 20
154.4614403586757
 30
0.0
 10
173.1670791345896
 20
154.462042800235
 30
0.0
 10
173.1667155375967
 20
154.4620459732982
 30
0.0
 10
173.1663519284897
 20
154.4620475598522
 30
0.0
 10
173.165988317652
 20
154.4620475598522
 30
0.0
  0
LINE
  5
152
330
70
100
AcDbEntity
  8
0
 62
    18
420
        0
370
    25
100
AcDbLine
 10
173.2909828890518
 20
154.3359542914519
 30
0.0
 11
158.2920840476523
 21
154.3359542914519
 31
0.0
  0
LINE
  5
153
330
70
100
AcDbEntity
  8
0
 62
    18
420
        0
370
    25
100
AcDbLine
 10
137.0420838241521
 20
153.4620458909521
 30
0.0
 11
122.0508106519519
 21
153.4620458909521
 31
0.0
  0
LINE
  5
154
330
70
100
AcDbEntity
  8
0
 62
    18
420
        0
370
    25
100
AcDbLine
 10
122.0508106519519
 20
153.4620458909521
 30
0.0
 11
122.0431849826518
 21
154.3359542914519
 31
0.0
  0
LINE
  5
155
330
70
100
AcDbEntity
  8
0
 62
    18
420
        0
370
    25
100
AcDbLine
 10
137.0420838241521
 20
154.3359542914519
 30
0.0
 11
137.0420838241521
 21
153.4620458909521
 31
0.0
  0
LINE
  5
156
330
70
100
AcDbEntity
  8
0
 62
    18
420
        0
370
    25
100
AcDbLine
 10
158.2920840476523
 20
153.4620458909521
 30
0.0
 11
158.2920840476523
 21
154.3359542914519
 31
0.0
  0
LINE
  5
157
330
70
100
AcDbEntity
  8
0
 62
    18
420
        0
370
    25
100
AcDbLine
 10
158.2920840476523
 20
153.4620458909521
 30
0.0
 11
137.0420838241521
 21
153.4620458909521
 31
0.0
  0
LINE
  5
158
330
70
100
AcDbEntity
  8
0
 62
    18
420
        0
370
    25
100
AcDbLine
 10
173.2833572198519
 20
153.4620458909521
 30
0.0
 11
158.2920840476523
 21
153.4620458909521
 31
0.0
  0
LINE
  5
159
330
70
100
AcDbEntity
  8
0
 62
    18
420
        0
370
    25
100
AcDbLine
 10
173.2909828890518
 20
154.3359542914519
 30
0.0
 11
173.2833572198519
 21
153.4620458909521
 31
0.0
  0
LINE
  5
15A
330
70
100
AcDbEntity
  8
0
 62
    18
420
        0
370
    25
100
AcDbLine
 10
122.9279023130523
 20
153.0870507188522
 30
0.0
 11
122.9246296455519
 21
153.4620458909521
 31
0.0
  0
LINE
  5
15B
330
70
100
AcDbEntity
  8
0
 62
    18
420
        0
370
    25
100
AcDbLine
 10
172.4062655587522
 20
153.0870507188522
 30
0.0
 11
172.4095382262519
 21
153.4620458909521
 31
0.0
  0
LINE
  5
15C
330
70
100
AcDbEntity
  8
0
 62
     8
420
  8421504
370
    25
100
AcDbLine
 10
137.0420838241521
 20
153.0870507188522
 30
0.0
 11
137.0420838241521
 21
153.4620458909521
 31
0.0
  0
LINE
  5
15D
330
70
100
AcDbEntity
  8
0
 62
     8
420
  8421504
370
    25
100
AcDbLine
 10
158.2920840476523
 20
153.0870507188522
 30
0.0
 11
158.2920840476523
 21
153.4620458909521
 31
0.0
  0
LWPOLYLINE
  5
15E
330
70
100
AcDbEntity
  8
0
 62
    18
420
        0
370
    25
100
AcDbPolyline
 90
        8
 70
     0
 43
0.0
 10
30.31557814495207
 20
21.13964874475195
 10
30.31539001785217
 20
21.17831888785207
 10
30.31522424235225
 20
21.31696068855235
 10
30.31551854035209
 20
21.45321224995238
 10
30.31622634545226
 20
21.56718098735183
 10
30.31723031125217
 20
21.64182393055186
 10
30.31774067595215
 20
21.65960520685217
 10
30.31770528575217
 20
21.65939030415206
  0
LWPOLYLINE
  5
15F
330
70
100
AcDbEntity
  8
0
 62
    18
420
        0
370
    25
100
AcDbPolyline
 90
        6
 70
     0
 43
0.0
 10
30.31776861565218
 20
20.93399153265234
 10
30.31777420355233
 20
20.93397895985204
 10
30.31749294415218
 20
20.94179461885209
 10
30.31680749075209
 20
20.97659674645188
 10
30.31597302575212
 20
21.0582248418522
 10
30.31557814495207
 20
21.13964874475195
  0
LWPOLYLINE
  5
160
330
70
100
AcDbEntity
  8
0
 62
    18
420
        0
370
    25
100
AcDbPolyline
 90
        8
 70
     0
 43
0.0
 10
70.06268964425203
 20
21.4546557999522
 10
70.06287777145203
 20
21.41598565685207
 10
70.06304354685217
 20
21.27734385605233
 10
70.06274924895212
 20
21.14109229475241
 10
70.06204144375216
 20
21.02712355735231
 10
70.06103747805204
 20
20.95248061405218
 10
70.06052711325228
 20
20.93469957065204
 10
70.06056250355204
 20
20.93491424055208
  0
LWPOLYLINE
  5
161
330
70
100
AcDbEntity
  8
0
 62
    18
420
        0
370
    25
100
AcDbPolyline
 90
        6
 70
     0
 43
0.0
 10
70.06049917355224
 20
21.66031324485187
 10
70.0604935856521
 20
21.66032581765217
 10
70.06077484505225
 20
21.65250992575194
 10
70.06146029845202
 20
21.61770779815215
 10
70.0622947634523
 20
21.53607970285194
 10
70.06268964425203
 20
21.4546557999522
  0
LWPOLYLINE
  5
162
330
70
100
AcDbEntity
  8
0
 62
    18
420
        0
370
    25
100
AcDbPolyline
 90
        8
 70
     0
 43
0.0
 10
70.06268964425203
 20
14.70465585765241
 10
70.06287777145203
 20
14.66598571455228
 10
70.06304354685217
 20
14.52734391385201
 10
70.06274924895212
 20
14.39109235245198
 10
70.06204144375216
 20
14.27712361505189
 10
70.06103747805204
 20
14.20248067185186
 10
70.06052711325228
 20
14.18469939555218
 10
70.06056250355204
 20
14.18491429825229
  0
LWPOLYLINE
  5
163
330
70
100
AcDbEntity
  8
0
 62
    18
420
        0
370
    25
100
AcDbPolyline
 90
        6
 70
     0
 43
0.0
 10
70.06049917355224
 20
14.91031306975202
 10
70.0604935856521
 20
14.91032564255232
 10
70.06077484505225
 20
14.90250998355226
 10
70.06146029845202
 20
14.86770785595183
 10
70.0622947634523
 20
14.78607976055215
 10
70.06268964425203
 20
14.70465585765241
  0
LWPOLYLINE
  5
164
330
70
100
AcDbEntity
  8
0
 62
    18
420
        0
370
    25
100
AcDbPolyline
 90
        8
 70
     0
 43
0.0
 10
30.31557814495207
 20
14.38964880245216
 10
30.31539001785217
 20
14.42831894555229
 10
30.31522424235225
 20
14.56696074635202
 10
30.31551854035209
 20
14.70321230765195
 10
30.31622634545226
 20
14.81718104505204
 10
30.31723031125217
 20
14.89182398835217
 10
30.31774067595215
 20
14.90960503175232
 10
30.31770528575217
 20
14.90939036185228
  0
LWPOLYLINE
  5
165
330
70
100
AcDbEntity
  8
0
 62
    18
420
        0
370
    25
100
AcDbPolyline
 90
        6
 70
     0
 43
0.0
 10
30.31776861565218
 20
14.18399135755184
 10
30.31777420355233
 20
14.18397878475218
 10
30.31749294415218
 20
14.19179467665241
 10
30.31680749075209
 20
14.2265968042522
 10
30.31597302575212
 20
14.30822489955242
 10
30.31557814495207
 20
14.38964880245216
  0
SPLINE
  5
166
330
70
100
AcDbEntity
  8
0
 62
    18
420
        0
370
    25
100
AcDbSpline
210
0.0
220
0.0
230
1.0
 70
     8
 71
     3
 72
     8
 73
     4
 74
     0
 42
0.0000000001
 43
0.0000000001
 40
0.0
 40
0.0
 40
0.0
 40
0.0
 40
1.0
 40
1.0
 40
1.0
 40
1.0
 10
30.3435823136523
 20
20.92215230125233
 30
0.0
 10
30.3435823136523
 20
20.94917777604475
 30
0.0
 10
30.33482355104895
 20
20.97547538271108
 30
0.0
 10
30.31861878522642
 20
20.99710364783804
 30
0.0
  0
SPLINE
  5
167
330
70
100
AcDbEntity
  8
0
 62
    18
420
        0
370
    25
100
AcDbSpline
210
0.0
220
0.0
230
1.0
 70
     8
 71
     3
 72
     8
 73
     4
 74
     0
 42
0.0000000001
 43
0.0000000001
 40
0.0
 40
0.0
 40
0.0
 40
0.0
 40
1.0
 40
1.0
 40
1.0
 40
1.0
 10
30.31841005979783
 20
21.59692317724148
 30
0.0
 10
30.33474642677378
 20
21.61860125360954
 30
0.0
 10
30.3435823136523
 20
21.64500794859857
 30
0.0
 10
30.3435823136523
 20
21.6721523012522
 30
0.0
  0
SPLINE
  5
168
330
70
100
AcDbEntity
  8
0
 62
    18
420
        0
370
    25
100
AcDbSpline
210
0.0
220
0.0
230
1.0
 70
     8
 71
     3
 72
     8
 73
     4
 74
     0
 42
0.0000000001
 43
0.0000000001
 40
0.0
 40
0.0
 40
0.0
 40
0.0
 40
1.0
 40
1.0
 40
1.0
 40
1.0
 10
70.03468547565223
 20
21.6721523012522
 30
0.0
 10
70.03468547565223
 20
21.64501833568338
 30
0.0
 10
70.04351461031742
 20
21.61862116886307
 30
0.0
 10
70.0598394629981
 20
21.59694742270644
 30
0.0
  0
SPLINE
  5
169
330
70
100
AcDbEntity
  8
0
 62
    18
420
        0
370
    25
100
AcDbSpline
210
0.0
220
0.0
230
1.0
 70
     8
 71
     3
 72
     8
 73
     4
 74
     0
 42
0.0000000001
 43
0.0000000001
 40
0.0
 40
0.0
 40
0.0
 40
0.0
 40
1.0
 40
1.0
 40
1.0
 40
1.0
 10
30.3435823136523
 20
14.17215230125226
 30
0.0
 10
30.3435823136523
 20
14.19917777604467
 30
0.0
 10
30.33482355104895
 20
14.225475382711
 30
0.0
 10
30.31861878522642
 20
14.24710364783796
 30
0.0
  0
LINE
  5
16A
330
70
100
AcDbEntity
  8
0
 62
    18
420
        0
370
    25
100
AcDbLine
 10
67.1515745790522
 20
34.70781678515197
 30
0.0
 11
67.42184066495228
 21
34.97808287095228
 31
0.0
  0
LINE
  5
16B
330
70
100
AcDbEntity
  8
0
 62
    18
420
        0
370
    25
100
AcDbLine
 10
69.62663323895215
 20
18.04715230715241
 30
0.0
 11
70.05985656095221
 21
18.04715230715241
 31
0.0
  0
LINE
  5
16C
330
70
100
AcDbEntity
  8
0
 62
    18
420
        0
370
    25
100
AcDbLine
 10
69.62663323895215
 20
17.79715229525194
 30
0.0
 11
70.05985656095221
 21
17.79715229525194
 31
0.0
  0
LINE
  5
16D
330
70
100
AcDbEntity
  8
0
 62
    18
420
        0
370
    25
100
AcDbLine
 10
67.1515745790522
 20
1.136487817252387
 30
0.0
 11
67.42184066495228
 21
0.8662217314520809
 31
0.0
  0
LINE
  5
16E
330
70
100
AcDbEntity
  8
0
 62
    18
420
        0
370
    25
100
AcDbLine
 10
66.97479837855232
 20
0.9597116167521935
 30
0.0
 11
67.24506446435231
 21
0.689445530951887
 31
0.0
  0
LINE
  5
16F
330
70
100
AcDbEntity
  8
0
 62
    18
420
        0
370
    25
100
AcDbLine
 10
50.31413390055213
 20
-1.515347043148088
 30
0.0
 11
50.31413390055213
 21
-1.923404166547732
 31
0.0
  0
LINE
  5
170
330
70
100
AcDbEntity
  8
0
 62
    18
420
        0
370
    25
100
AcDbLine
 10
50.0641338886523
 20
-1.515347043148088
 30
0.0
 11
50.0641338886523
 21
-1.923404166547732
 31
0.0
  0
LINE
  5
171
330
70
100
AcDbEntity
  8
0
 62
    18
420
        0
370
    25
100
AcDbLine
 10
33.13320332485212
 20
0.689445530951887
 30
0.0
 11
33.40346941075221
 21
0.9597116167521935
 31
0.0
  0
LINE
  5
172
330
70
100
AcDbEntity
  8
0
 62
    18
420
        0
370
    25
100
AcDbLine
 10
32.95642712435224
 20
0.8662217314520809
 30
0.0
 11
33.22669321015223
 21
1.136487817252387
 31
0.0
  0
LINE
  5
173
330
70
100
AcDbEntity
  8
0
 62
    18
420
        0
370
    25
100
AcDbLine
 10
30.31841122825222
 20
17.79715229525194
 30
0.0
 11
30.75163455025227
 21
17.79715229525194
 31
0.0
  0
LINE
  5
174
330
70
100
AcDbEntity
  8
0
 62
    18
420
        0
370
    25
100
AcDbLine
 10
30.31841122825222
 20
18.04715230715241
 30
0.0
 11
30.75163455025227
 21
18.04715230715241
 31
0.0
  0
LINE
  5
175
330
70
100
AcDbEntity
  8
0
 62
    18
420
        0
370
    25
100
AcDbLine
 10
32.95642712435224
 20
34.97808287095228
 30
0.0
 11
33.22669321015223
 21
34.70781678515197
 31
0.0
  0
LINE
  5
176
330
70
100
AcDbEntity
  8
0
 62
    18
420
        0
370
    25
100
AcDbLine
 10
33.13320332485212
 20
35.15485907155194
 30
0.0
 11
33.40346941075221
 21
34.88459298565216
 31
0.0
  0
LINE
  5
177
330
70
100
AcDbEntity
  8
0
 62
    18
420
        0
370
    25
100
AcDbLine
 10
50.0641338886523
 20
37.76770876895209
 30
0.0
 11
50.0641338886523
 21
37.35965164555245
 31
0.0
  0
LINE
  5
178
330
70
100
AcDbEntity
  8
0
 62
    18
420
        0
370
    25
100
AcDbLine
 10
50.31413390055213
 20
37.76770876895209
 30
0.0
 11
50.31413390055213
 21
37.35965164555245
 31
0.0
  0
LINE
  5
179
330
70
100
AcDbEntity
  8
0
 62
    18
420
        0
370
    25
100
AcDbLine
 10
66.97479837855232
 20
34.88459298565216
 30
0.0
 11
67.24506446435231
 21
35.15485907155194
 31
0.0
  0
LINE
  5
17A
330
70
100
AcDbEntity
  8
0
 62
    18
420
        0
370
    25
100
AcDbLine
 10
50.32722519635233
 20
37.35965164555245
 30
0.0
 11
50.32722519635233
 21
37.76770876895209
 31
0.0
  0
LINE
  5
17B
330
70
100
AcDbEntity
  8
0
 62
    18
420
        0
370
    25
100
AcDbLine
 10
50.0510425928521
 20
37.35965164555245
 30
0.0
 11
50.0510425928521
 21
37.76770876895209
 31
0.0
  0
LINE
  5
17C
330
70
100
AcDbEntity
  8
0
 62
    18
420
        0
370
    25
100
AcDbLine
 10
33.41286459285207
 20
34.8937106336519
 30
0.0
 11
33.14259291905214
 21
35.16398417005227
 31
0.0
  0
LINE
  5
17D
330
70
100
AcDbEntity
  8
0
 62
    18
420
        0
370
    25
100
AcDbLine
 10
67.23567487015228
 20
35.16398417005227
 30
0.0
 11
66.96540319635204
 21
34.8937106336519
 31
0.0
  0
LINE
  5
17E
330
70
100
AcDbEntity
  8
0
 62
    18
420
        0
370
    25
100
AcDbLine
 10
67.43096576355208
 20
34.96869327675193
 30
0.0
 11
67.16069222705225
 21
34.69842160295232
 31
0.0
  0
LINE
  5
17F
330
70
100
AcDbEntity
  8
0
 62
    18
420
        0
370
    25
100
AcDbLine
 10
33.21757556215217
 20
34.69842160295232
 30
0.0
 11
32.94730202575212
 21
34.96869327675193
 31
0.0
  0
LINE
  5
180
330
70
100
AcDbEntity
  8
0
 62
    18
420
        0
370
    25
100
AcDbLine
 10
30.75163455025227
 20
18.06024360295229
 30
0.0
 11
30.31844103055204
 21
18.06024360295229
 31
0.0
  0
LINE
  5
181
330
70
100
AcDbEntity
  8
0
 62
    18
420
        0
370
    25
100
AcDbLine
 10
70.05982675865206
 20
18.06024360295229
 30
0.0
 11
69.62663323895215
 21
18.06024360295229
 31
0.0
  0
LINE
  5
182
330
70
100
AcDbEntity
  8
0
 62
    18
420
        0
370
    25
100
AcDbLine
 10
30.75163455025227
 20
17.78406099945206
 30
0.0
 11
30.31844103055204
 21
17.78406099945206
 31
0.0
  0
LINE
  5
183
330
70
100
AcDbEntity
  8
0
 62
    18
420
        0
370
    25
100
AcDbLine
 10
70.05982675865206
 20
17.78406099945206
 30
0.0
 11
69.62663323895215
 21
17.78406099945206
 31
0.0
  0
LINE
  5
184
330
70
100
AcDbEntity
  8
0
 62
    18
420
        0
370
    25
100
AcDbLine
 10
67.43096576355208
 20
0.8756113256524283
 30
0.0
 11
67.16069222705225
 21
1.145882999452032
 31
0.0
  0
LINE
  5
185
330
70
100
AcDbEntity
  8
0
 62
    18
420
        0
370
    25
100
AcDbLine
 10
33.21757556215217
 20
1.145882999452032
 30
0.0
 11
32.94730202575212
 21
0.8756113256524283
 31
0.0
  0
LINE
  5
186
330
70
100
AcDbEntity
  8
0
 62
    18
420
        0
370
    25
100
AcDbLine
 10
33.41286459285207
 20
0.9505939687518168
 30
0.0
 11
33.14259291905214
 21
0.6803204323520888
 31
0.0
  0
LINE
  5
187
330
70
100
AcDbEntity
  8
0
 62
    18
420
        0
370
    25
100
AcDbLine
 10
67.23567487015228
 20
0.6803204323520888
 30
0.0
 11
66.96540319635204
 21
0.9505939687518168
 31
0.0
  0
LINE
  5
188
330
70
100
AcDbEntity
  8
0
 62
    18
420
        0
370
    25
100
AcDbLine
 10
50.32722519635233
 20
-1.923404166547732
 30
0.0
 11
50.32722519635233
 21
-1.515347043148088
 31
0.0
  0
LINE
  5
189
330
70
100
AcDbEntity
  8
0
 62
    18
420
        0
370
    25
100
AcDbLine
 10
50.0510425928521
 20
-1.923404166547732
 30
0.0
 11
50.0510425928521
 21
-1.515347043148088
 31
0.0
  0
SPLINE
  5
18A
330
70
100
AcDbEntity
  8
0
 62
    18
420
        0
370
    25
100
AcDbSpline
210
0.0
220
0.0
230
1.0
 70
     8
 71
     3
 72
     8
 73
     4
 74
     0
 42
0.0000000001
 43
0.0000000001
 40
0.0
 40
0.0
 40
0.0
 40
0.0
 40
1.0
 40
1.0
 40
1.0
 40
1.0
 10
39.48913389465221
 20
43.62215230125218
 30
0.0
 10
39.39282390344253
 20
43.62215230125218
 30
0.0
 10
39.29856332582891
 20
43.59433708786134
 30
0.0
 10
39.21768261030882
 20
43.54205014624349
 30
0.0
  0
LINE
  5
18B
330
70
100
AcDbEntity
  8
0
 62
    18
420
        0
370
    25
100
AcDbLine
 10
60.88913434465212
 20
43.62215148465228
 30
0.0
 11
39.4891334446521
 21
43.62215148465228
 31
0.0
  0
SPLINE
  5
18C
330
70
100
AcDbEntity
  8
0
 62
    18
420
        0
370
    25
100
AcDbSpline
210
0.0
220
0.0
230
1.0
 70
     8
 71
     3
 72
     8
 73
     4
 74
     0
 42
0.0000000001
 43
0.0000000001
 40
0.0
 40
0.0
 40
0.0
 40
0.0
 40
1.0
 40
1.0
 40
1.0
 40
1.0
 10
61.16058517899571
 20
43.54205014624349
 30
0.0
 10
61.0797044634753
 20
43.59433708786134
 30
0.0
 10
60.985443885862
 20
43.62215230125218
 30
0.0
 10
60.88913389465233
 20
43.62215230125218
 30
0.0
  0
SPLINE
  5
18D
330
70
100
AcDbEntity
  8
0
 62
    18
420
        0
370
    25
100
AcDbSpline
210
0.0
220
0.0
230
1.0
 70
     8
 71
     3
 72
     8
 73
     4
 74
     0
 42
0.0000000001
 43
0.0000000001
 40
0.0
 40
0.0
 40
0.0
 40
0.0
 40
1.0
 40
1.0
 40
1.0
 40
1.0
 10
75.8891338946522
 20
28.62215230125229
 30
0.0
 10
75.8891338946522
 20
28.71846229246133
 30
0.0
 10
75.8613186812617
 20
28.81272287007462
 30
0.0
 10
75.80903173964384
 20
28.89360358559504
 30
0.0
  0
LINE
  5
18E
330
70
100
AcDbEntity
  8
0
 62
    18
420
        0
370
    25
100
AcDbLine
 10
75.88913307805232
 20
7.222151851152275
 30
0.0
 11
75.88913307805232
 21
28.62215275125208
 31
0.0
  0
SPLINE
  5
18F
330
70
100
AcDbEntity
  8
0
 62
    18
420
        0
370
    25
100
AcDbSpline
210
0.0
220
0.0
230
1.0
 70
     8
 71
     3
 72
     8
 73
     4
 74
     0
 42
0.0000000001
 43
0.0000000001
 40
0.0
 40
0.0
 40
0.0
 40
0.0
 40
1.0
 40
1.0
 40
1.0
 40
1.0
 10
75.80903173964384
 20
6.950701016909423
 30
0.0
 10
75.8613186812617
 20
7.031581732429197
 30
0.0
 10
75.8891338946522
 20
7.125842310042493
 30
0.0
 10
75.8891338946522
 20
7.222152301252174
 30
0.0
  0
SPLINE
  5
190
330
70
100
AcDbEntity
  8
0
 62
    18
420
        0
370
    25
100
AcDbSpline
210
0.0
220
0.0
230
1.0
 70
     8
 71
     3
 72
     8
 73
     4
 74
     0
 42
0.0000000001
 43
0.0000000001
 40
0.0
 40
0.0
 40
0.0
 40
0.0
 40
1.0
 40
1.0
 40
1.0
 40
1.0
 10
24.56923604966037
 20
28.89360358559504
 30
0.0
 10
24.51694910804283
 20
28.81272287007462
 30
0.0
 10
24.48913389465232
 20
28.71846229246133
 30
0.0
 10
24.48913389465232
 20
28.62215230125229
 30
0.0
  0
SPLINE
  5
191
330
70
100
AcDbEntity
  8
0
 62
    18
420
        0
370
    25
100
AcDbSpline
210
0.0
220
0.0
230
1.0
 70
     8
 71
     3
 72
     8
 73
     4
 74
     0
 42
0.0000000001
 43
0.0000000001
 40
0.0
 40
0.0
 40
0.0
 40
0.0
 40
1.0
 40
1.0
 40
1.0
 40
1.0
 10
24.48913389465232
 20
7.222152301252174
 30
0.0
 10
24.48913389465232
 20
7.125842310042493
 30
0.0
 10
24.51694910804283
 20
7.031581732429197
 30
0.0
 10
24.56923604966037
 20
6.950701016909423
 30
0.0
  0
LINE
  5
192
330
70
100
AcDbEntity
  8
0
 62
    18
420
        0
370
    25
100
AcDbLine
 10
24.4891347111521
 20
28.62215275125208
 30
0.0
 11
24.4891347111521
 21
7.222151851152275
 31
0.0
  0
LINE
  5
193
330
70
100
AcDbEntity
  8
0
 62
    18
420
        0
370
    25
100
AcDbLine
 10
39.4891334446521
 20
-7.77784688224793
 30
0.0
 11
60.88913434465212
 21
-7.77784688224793
 31
0.0
  0
SPLINE
  5
194
330
70
100
AcDbEntity
  8
0
 62
    18
420
        0
370
    25
100
AcDbSpline
210
0.0
220
0.0
230
1.0
 70
     8
 71
     3
 72
     8
 73
     4
 74
     0
 42
0.0000000001
 43
0.0000000001
 40
0.0
 40
0.0
 40
0.0
 40
0.0
 40
1.0
 40
1.0
 40
1.0
 40
1.0
 10
39.2176826103101
 20
-7.697745543740311
 30
0.0
 10
39.2985633258302
 20
-7.750032485357525
 30
0.0
 10
39.39282390344317
 20
-7.777847698747713
 30
0.0
 10
39.48913389465221
 20
-7.777847698747713
 30
0.0
  0
SPLINE
  5
195
330
70
100
AcDbEntity
  8
0
 62
    18
420
        0
370
    25
100
AcDbSpline
210
0.0
220
0.0
230
1.0
 70
     8
 71
     3
 72
     8
 73
     4
 74
     0
 42
0.0000000001
 43
0.0000000001
 40
0.0
 40
0.0
 40
0.0
 40
0.0
 40
1.0
 40
1.0
 40
1.0
 40
1.0
 10
60.88913389465233
 20
-7.777847698747713
 30
0.0
 10
60.98544388586137
 20
-7.777847698747713
 30
0.0
 10
61.07970446347433
 20
-7.750032485357525
 30
0.0
 10
61.16058517899411
 20
-7.697745543740311
 30
0.0
  0
LINE
  5
196
330
70
100
AcDbEntity
  8
0
 62
    18
420
        0
370
    25
100
AcDbLine
 10
69.12663408835216
 20
7.234652062752253
 30
0.0
 11
69.12663408835216
 21
28.6096525396521
 31
0.0
  0
SPLINE
  5
197
330
70
100
AcDbEntity
  8
0
 62
    18
420
        0
370
    25
100
AcDbSpline
210
0.0
220
0.0
230
1.0
 70
     8
 71
     3
 72
     8
 73
     4
 74
     0
 42
0.0000000001
 43
0.0000000001
 40
0.0
 40
0.0
 40
0.0
 40
0.0
 40
1.0
 40
1.0
 40
1.0
 40
1.0
 10
60.87663389465228
 20
-1.015347698747915
 30
0.0
 10
65.43298308075621
 20
-1.015347698747915
 30
0.0
 10
69.12663389465208
 20
2.678303115147955
 30
0.0
 10
69.12663389465208
 20
7.234652301251894
 30
0.0
  0
LINE
  5
198
330
70
100
AcDbEntity
  8
0
 62
    18
420
        0
370
    25
100
AcDbLine
 10
39.50163365615228
 20
-1.015347892548084
 30
0.0
 11
60.87663413305214
 21
-1.015347892548084
 31
0.0
  0
SPLINE
  5
199
330
70
100
AcDbEntity
  8
0
 62
    18
420
        0
370
    25
100
AcDbSpline
210
0.0
220
0.0
230
1.0
 70
     8
 71
     3
 72
     8
 73
     4
 74
     0
 42
0.0000000001
 43
0.0000000001
 40
0.0
 40
0.0
 40
0.0
 40
0.0
 40
1.0
 40
1.0
 40
1.0
 40
1.0
 10
31.25163389465212
 20
7.234652301251894
 30
0.0
 10
31.25163389465212
 20
2.678303115147955
 30
0.0
 10
34.94528470854799
 20
-1.015347698747915
 30
0.0
 10
39.50163389465225
 20
-1.015347698747915
 30
0.0
  0
LINE
  5
19A
330
70
100
AcDbEntity
  8
0
 62
    18
420
        0
370
    25
100
AcDbLine
 10
31.25163370095206
 20
28.6096525396521
 30
0.0
 11
31.25163370095206
 21
7.234652062752253
 31
0.0
  0
SPLINE
  5
19B
330
70
100
AcDbEntity
  8
0
 62
    18
420
        0
370
    25
100
AcDbSpline
210
0.0
220
0.0
230
1.0
 70
     8
 71
     3
 72
     8
 73
     4
 74
     0
 42
0.0000000001
 43
0.0000000001
 40
0.0
 40
0.0
 40
0.0
 40
0.0
 40
1.0
 40
1.0
 40
1.0
 40
1.0
 10
39.50163389465225
 20
36.85965230125237
 30
0.0
 10
34.94528470854799
 20
36.85965230125237
 30
0.0
 10
31.25163389465212
 20
33.16600148735587
 30
0.0
 10
31.25163389465212
 20
28.60965230125193
 30
0.0
  0
LINE
  5
19C
330
70
100
AcDbEntity
  8
0
 62
    18
420
        0
370
    25
100
AcDbLine
 10
60.87663413305214
 20
36.85965249495244
 30
0.0
 11
39.50163365615228
 21
36.85965249495244
 31
0.0
  0
SPLINE
  5
19D
330
70
100
AcDbEntity
  8
0
 62
    18
420
        0
370
    25
100
AcDbSpline
210
0.0
220
0.0
230
1.0
 70
     8
 71
     3
 72
     8
 73
     4
 74
     0
 42
0.0000000001
 43
0.0000000001
 40
0.0
 40
0.0
 40
0.0
 40
0.0
 40
1.0
 40
1.0
 40
1.0
 40
1.0
 10
69.12663389465208
 20
28.60965230125193
 30
0.0
 10
69.12663389465208
 20
33.16600148735587
 30
0.0
 10
65.43298308075621
 20
36.85965230125237
 30
0.0
 10
60.87663389465228
 20
36.85965230125237
 30
0.0
  0
LINE
  5
19E
330
70
100
AcDbEntity
  8
0
 62
    18
420
        0
370
    25
100
AcDbLine
 10
39.50163365615228
 20
37.35965164555245
 30
0.0
 11
60.87663413305214
 21
37.35965164555245
 31
0.0
  0
LINE
  5
19F
330
70
100
AcDbEntity
  8
0
 62
    18
420
        0
370
    25
100
AcDbLine
 10
60.87663413305214
 20
36.85965249495244
 30
0.0
 11
60.87663413305214
 21
37.35965164555245
 31
0.0
  0
LINE
  5
1A0
330
70
100
AcDbEntity
  8
0
 62
    18
420
        0
370
    25
100
AcDbLine
 10
39.50163365615228
 20
37.35965164555245
 30
0.0
 11
39.50163365615228
 21
36.85965249495244
 31
0.0
  0
SPLINE
  5
1A1
330
70
100
AcDbEntity
  8
0
 62
    18
420
        0
370
    25
100
AcDbSpline
210
0.0
220
0.0
230
1.0
 70
     8
 71
     3
 72
     8
 73
     4
 74
     0
 42
0.0000000001
 43
0.0000000001
 40
0.0
 40
0.0
 40
0.0
 40
0.0
 40
1.0
 40
1.0
 40
1.0
 40
1.0
 10
39.50163389465225
 20
37.35965230125208
 30
0.0
 10
34.66914233363283
 20
37.35965230125208
 30
0.0
 10
30.7516338946521
 20
33.44214386227167
 30
0.0
 10
30.7516338946521
 20
28.60965230125193
 30
0.0
  0
LINE
  5
1A2
330
70
100
AcDbEntity
  8
0
 62
    18
420
        0
370
    25
100
AcDbLine
 10
30.75163455025227
 20
28.6096525396521
 30
0.0
 11
31.25163370095206
 21
28.6096525396521
 31
0.0
  0
LINE
  5
1A3
330
70
100
AcDbEntity
  8
0
 62
    18
420
        0
370
    25
100
AcDbLine
 10
30.75163455025227
 20
7.234652062752253
 30
0.0
 11
30.75163455025227
 21
28.6096525396521
 31
0.0
  0
LINE
  5
1A4
330
70
100
AcDbEntity
  8
0
 62
    18
420
        0
370
    25
100
AcDbLine
 10
30.75163455025227
 20
7.234652062752253
 30
0.0
 11
31.25163370095206
 21
7.234652062752253
 31
0.0
  0
SPLINE
  5
1A5
330
70
100
AcDbEntity
  8
0
 62
    18
420
        0
370
    25
100
AcDbSpline
210
0.0
220
0.0
230
1.0
 70
     8
 71
     3
 72
     8
 73
     4
 74
     0
 42
0.0000000001
 43
0.0000000001
 40
0.0
 40
0.0
 40
0.0
 40
0.0
 40
1.0
 40
1.0
 40
1.0
 40
1.0
 10
69.62663389465212
 20
28.60965230125193
 30
0.0
 10
69.62663389465212
 20
33.44214386227167
 30
0.0
 10
65.70912545567169
 20
37.35965230125208
 30
0.0
 10
60.87663389465228
 20
37.35965230125208
 30
0.0
  0
LINE
  5
1A6
330
70
100
AcDbEntity
  8
0
 62
    18
420
        0
370
    25
100
AcDbLine
 10
69.12663408835216
 20
28.6096525396521
 30
0.0
 11
69.62663323895215
 21
28.6096525396521
 31
0.0
  0
LINE
  5
1A7
330
70
100
AcDbEntity
  8
0
 62
    18
420
        0
370
    25
100
AcDbLine
 10
69.62663323895215
 20
28.6096525396521
 30
0.0
 11
69.62663323895215
 21
7.234652062752253
 31
0.0
  0
LINE
  5
1A8
330
70
100
AcDbEntity
  8
0
 62
    18
420
        0
370
    25
100
AcDbLine
 10
69.12663408835216
 20
7.234652062752253
 30
0.0
 11
69.62663323895215
 21
7.234652062752253
 31
0.0
  0
SPLINE
  5
1A9
330
70
100
AcDbEntity
  8
0
 62
    18
420
        0
370
    25
100
AcDbSpline
210
0.0
220
0.0
230
1.0
 70
     8
 71
     3
 72
     8
 73
     4
 74
     0
 42
0.0000000001
 43
0.0000000001
 40
0.0
 40
0.0
 40
0.0
 40
0.0
 40
1.0
 40
1.0
 40
1.0
 40
1.0
 10
60.87663389465228
 20
-1.515347698747612
 30
0.0
 10
65.70912545567169
 20
-1.515347698747612
 30
0.0
 10
69.62663389465212
 20
2.402160740232798
 30
0.0
 10
69.62663389465212
 20
7.234652301251894
 30
0.0
  0
LINE
  5
1AA
330
70
100
AcDbEntity
  8
0
 62
    18
420
        0
370
    25
100
AcDbLine
 10
60.87663413305214
 20
-1.015347892548084
 30
0.0
 11
60.87663413305214
 21
-1.515347043148088
 31
0.0
  0
SPLINE
  5
1AB
330
70
100
AcDbEntity
  8
0
 62
    18
420
        0
370
    25
100
AcDbSpline
210
0.0
220
0.0
230
1.0
 70
     8
 71
     3
 72
     8
 73
     4
 74
     0
 42
0.0000000001
 43
0.0000000001
 40
0.0
 40
0.0
 40
0.0
 40
0.0
 40
1.0
 40
1.0
 40
1.0
 40
1.0
 10
30.7516338946521
 20
7.234652301251894
 30
0.0
 10
30.7516338946521
 20
2.402160740232798
 30
0.0
 10
34.66914233363283
 20
-1.515347698747612
 30
0.0
 10
39.50163389465225
 20
-1.515347698747612
 30
0.0
  0
LINE
  5
1AC
330
70
100
AcDbEntity
  8
0
 62
    18
420
        0
370
    25
100
AcDbLine
 10
39.50163365615228
 20
-1.515347043148088
 30
0.0
 11
39.50163365615228
 21
-1.015347892548084
 31
0.0
  0
LINE
  5
1AD
330
70
100
AcDbEntity
  8
0
 62
    18
420
        0
370
    25
100
AcDbLine
 10
60.87663413305214
 20
-1.515347043148088
 30
0.0
 11
39.50163365615228
 21
-1.515347043148088
 31
0.0
  0
SPLINE
  5
1AE
330
70
100
AcDbEntity
  8
0
 62
    18
420
        0
370
    25
100
AcDbSpline
210
0.0
220
0.0
230
1.0
 70
     8
 71
     3
 72
     8
 73
     4
 74
     0
 42
0.0000000001
 43
0.0000000001
 40
0.0
 40
0.0
 40
0.0
 40
0.0
 40
1.0
 40
1.0
 40
1.0
 40
1.0
 10
75.81413389465229
 20
28.54715230125205
 30
0.0
 10
75.81413389465229
 20
36.83142354871381
 30
0.0
 10
69.09840514211416
 20
43.54715230125193
 30
0.0
 10
60.81413389465208
 20
43.54715230125193
 30
0.0
  0
LINE
  5
1AF
330
70
100
AcDbEntity
  8
0
 62
    18
420
        0
370
    25
100
AcDbLine
 10
75.81413367105226
 20
7.297152189452402
 30
0.0
 11
75.81413367105226
 21
28.54715241295196
 31
0.0
  0
SPLINE
  5
1B0
330
70
100
AcDbEntity
  8
0
 62
    18
420
        0
370
    25
100
AcDbSpline
210
0.0
220
0.0
230
1.0
 70
     8
 71
     3
 72
     8
 73
     4
 74
     0
 42
0.0000000001
 43
0.0000000001
 40
0.0
 40
0.0
 40
0.0
 40
0.0
 40
1.0
 40
1.0
 40
1.0
 40
1.0
 10
60.81413389465208
 20
-7.702847698748112
 30
0.0
 10
69.09840514211416
 20
-7.702847698748112
 30
0.0
 10
75.81413389465229
 20
-0.9871189462099883
 30
0.0
 10
75.81413389465229
 20
7.297152301252417
 30
0.0
  0
LINE
  5
1B1
330
70
100
AcDbEntity
  8
0
 62
    18
420
        0
370
    25
100
AcDbLine
 10
39.56413378285212
 20
-7.702847475248186
 30
0.0
 11
60.81413400635231
 21
-7.702847475248186
 31
0.0
  0
SPLINE
  5
1B2
330
70
100
AcDbEntity
  8
0
 62
    18
420
        0
370
    25
100
AcDbSpline
210
0.0
220
0.0
230
1.0
 70
     8
 71
     3
 72
     8
 73
     4
 74
     0
 42
0.0000000001
 43
0.0000000001
 40
0.0
 40
0.0
 40
0.0
 40
0.0
 40
1.0
 40
1.0
 40
1.0
 40
1.0
 10
24.56413389465224
 20
7.297152301252417
 30
0.0
 10
24.56413389465224
 20
-0.9871189462099883
 30
0.0
 10
31.27986264719037
 20
-7.702847698748112
 30
0.0
 10
39.56413389465213
 20
-7.702847698748112
 30
0.0
  0
LINE
  5
1B3
330
70
100
AcDbEntity
  8
0
 62
    18
420
        0
370
    25
100
AcDbLine
 10
24.56413411815217
 20
28.54715241295196
 30
0.0
 11
24.56413411815217
 21
7.297152189452402
 31
0.0
  0
LINE
  5
1B4
330
70
100
AcDbEntity
  8
0
 62
    18
420
        0
370
    25
100
AcDbLine
 10
50.1878838946521
 20
43.5471520776519
 30
0.0
 11
39.56413378285212
 21
43.5471520776519
 31
0.0
  0
LINE
  5
1B5
330
70
100
AcDbEntity
  8
0
 62
    18
420
        0
370
    25
100
AcDbLine
 10
50.1878838946521
 20
43.5471520776519
 30
0.0
 11
50.1878838946521
 21
43.54605125445222
 31
0.0
  0
LINE
  5
1B6
330
70
100
AcDbEntity
  8
0
 62
    18
420
        0
370
    25
100
AcDbLine
 10
60.81413400635231
 20
43.5471520776519
 30
0.0
 11
50.19038389455232
 21
43.5471520776519
 31
0.0
  0
LINE
  5
1B7
330
70
100
AcDbEntity
  8
0
 62
    18
420
        0
370
    25
100
AcDbLine
 10
50.19038389455232
 20
43.54605125445222
 30
0.0
 11
50.19038389455232
 21
43.5471520776519
 31
0.0
  0
SPLINE
  5
1B8
330
70
100
AcDbEntity
  8
0
 62
    18
420
        0
370
    25
100
AcDbSpline
210
0.0
220
0.0
230
1.0
 70
     8
 71
     3
 72
     8
 73
     4
 74
     0
 42
0.0000000001
 43
0.0000000001
 40
0.0
 40
0.0
 40
0.0
 40
0.0
 40
1.0
 40
1.0
 40
1.0
 40
1.0
 10
39.56413389465213
 20
43.54715230125193
 30
0.0
 10
31.27986264719037
 20
43.54715230125193
 30
0.0
 10
24.56413389465224
 20
36.83142354871381
 30
0.0
 10
24.56413389465224
 20
28.54715230125205
 30
0.0
  0
SPLINE
  5
1B9
330
70
100
AcDbEntity
  8
0
 62
    18
420
        0
370
    25
100
AcDbSpline
210
0.0
220
0.0
230
1.0
 70
     8
 71
     3
 72
     8
 73
     4
 74
     0
 42
0.0000000001
 43
0.0000000001
 40
0.0
 40
0.0
 40
0.0
 40
0.0
 40
1.0
 40
1.0
 40
1.0
 40
1.0
 10
60.81413389465208
 20
-7.576752080476103
 30
0.0
 10
69.02876445512188
 20
-7.576752080476103
 30
0.0
 10
75.68803827638028
 20
-0.9174782592173819
 30
0.0
 10
75.68803827638028
 20
7.297152301252417
 30
0.0
  0
LINE
  5
1BA
330
70
100
AcDbEntity
  8
0
 62
    18
420
        0
370
    25
100
AcDbLine
 10
39.56413378285212
 20
-7.576751986648152
 30
0.0
 11
60.81413400635231
 21
-7.576751986648152
 31
0.0
  0
SPLINE
  5
1BB
330
70
100
AcDbEntity
  8
0
 62
    18
420
        0
370
    25
100
AcDbSpline
210
0.0
220
0.0
230
1.0
 70
     8
 71
     3
 72
     8
 73
     4
 74
     0
 42
0.0000000001
 43
0.0000000001
 40
0.0
 40
0.0
 40
0.0
 40
0.0
 40
1.0
 40
1.0
 40
1.0
 40
1.0
 10
24.69022951292425
 20
7.297152301252417
 30
0.0
 10
24.69022951292425
 20
-0.9174782592173819
 30
0.0
 10
31.34950333418233
 20
-7.576752080476103
 30
0.0
 10
39.56413389465213
 20
-7.576752080476103
 30
0.0
  0
LINE
  5
1BC
330
70
100
AcDbEntity
  8
0
 62
    18
420
        0
370
    25
100
AcDbLine
 10
24.69022960685231
 20
28.54715241295196
 30
0.0
 11
24.69022960685231
 21
7.297152189452402
 31
0.0
  0
SPLINE
  5
1BD
330
70
100
AcDbEntity
  8
0
 62
    18
420
        0
370
    25
100
AcDbSpline
210
0.0
220
0.0
230
1.0
 70
     8
 71
     3
 72
     8
 73
     4
 74
     0
 42
0.0000000001
 43
0.0000000001
 40
0.0
 40
0.0
 40
0.0
 40
0.0
 40
1.0
 40
1.0
 40
1.0
 40
1.0
 10
39.56413389465213
 20
43.42105668297992
 30
0.0
 10
31.34950333418233
 20
43.42105668297992
 30
0.0
 10
24.69022951292425
 20
36.76178286172184
 30
0.0
 10
24.69022951292425
 20
28.54715230125205
 30
0.0
  0
LINE
  5
1BE
330
70
100
AcDbEntity
  8
0
 62
    18
420
        0
370
    25
100
AcDbLine
 10
60.81413400635231
 20
43.42105658905186
 30
0.0
 11
39.56413378285212
 21
43.42105658905186
 31
0.0
  0
SPLINE
  5
1BF
330
70
100
AcDbEntity
  8
0
 62
    18
420
        0
370
    25
100
AcDbSpline
210
0.0
220
0.0
230
1.0
 70
     8
 71
     3
 72
     8
 73
     4
 74
     0
 42
0.0000000001
 43
0.0000000001
 40
0.0
 40
0.0
 40
0.0
 40
0.0
 40
1.0
 40
1.0
 40
1.0
 40
1.0
 10
75.68803827638028
 20
28.54715230125205
 30
0.0
 10
75.68803827638028
 20
36.76178286172184
 30
0.0
 10
69.02876445512188
 20
43.42105668297992
 30
0.0
 10
60.81413389465208
 20
43.42105668297992
 30
0.0
  0
LINE
  5
1C0
330
70
100
AcDbEntity
  8
0
 62
    18
420
        0
370
    25
100
AcDbLine
 10
75.68803818245221
 20
7.297152189452402
 30
0.0
 11
75.68803818245221
 21
28.54715241295196
 31
0.0
  0
SPLINE
  5
1C1
330
70
100
AcDbEntity
  8
0
 62
    18
420
        0
370
    25
100
AcDbSpline
210
0.0
220
0.0
230
1.0
 70
     8
 71
     3
 72
     8
 73
     4
 74
     0
 42
0.0000000001
 43
0.0000000001
 40
0.0
 40
0.0
 40
0.0
 40
0.0
 40
1.0
 40
1.0
 40
1.0
 40
1.0
 10
30.06194265810794
 20
7.297152301252417
 30
0.0
 10
30.06194265810794
 20
2.049236991332953
 30
0.0
 10
34.31621858473299
 20
-2.205038935292087
 30
0.0
 10
39.56413389465213
 20
-2.205038935292087
 30
0.0
  0
LINE
  5
1C2
330
70
100
AcDbEntity
  8
0
 62
    18
420
        0
370
    25
100
AcDbLine
 10
60.81413400635231
 20
-2.205039838448192
 30
0.0
 11
39.56413378285212
 21
-2.205039838448192
 31
0.0
  0
SPLINE
  5
1C3
330
70
100
AcDbEntity
  8
0
 62
    18
420
        0
370
    25
100
AcDbSpline
210
0.0
220
0.0
230
1.0
 70
     8
 71
     3
 72
     8
 73
     4
 74
     0
 42
0.0000000001
 43
0.0000000001
 40
0.0
 40
0.0
 40
0.0
 40
0.0
 40
1.0
 40
1.0
 40
1.0
 40
1.0
 10
60.81413389465208
 20
-2.205038935292087
 30
0.0
 10
66.06204920457122
 20
-2.205038935292087
 30
0.0
 10
70.31632513119626
 20
2.049236991332953
 30
0.0
 10
70.31632513119626
 20
7.297152301252417
 30
0.0
  0
LINE
  5
1C4
330
70
100
AcDbEntity
  8
0
 62
    18
420
        0
370
    25
100
AcDbLine
 10
70.31632603425226
 20
28.54715241295196
 30
0.0
 11
70.31632603425226
 21
7.297152189452402
 31
0.0
  0
SPLINE
  5
1C5
330
70
100
AcDbEntity
  8
0
 62
    18
420
        0
370
    25
100
AcDbSpline
210
0.0
220
0.0
230
1.0
 70
     8
 71
     3
 72
     8
 73
     4
 74
     0
 42
0.0000000001
 43
0.0000000001
 40
0.0
 40
0.0
 40
0.0
 40
0.0
 40
1.0
 40
1.0
 40
1.0
 40
1.0
 10
70.31632513119626
 20
28.54715230125205
 30
0.0
 10
70.31632513119626
 20
33.79506761117151
 30
0.0
 10
66.06204920457122
 20
38.04934353779655
 30
0.0
 10
60.81413389465208
 20
38.04934353779655
 30
0.0
  0
LINE
  5
1C6
330
70
100
AcDbEntity
  8
0
 62
    18
420
        0
370
    25
100
AcDbLine
 10
39.56413378285212
 20
38.04934444085191
 30
0.0
 11
60.81413400635231
 21
38.04934444085191
 31
0.0
  0
SPLINE
  5
1C7
330
70
100
AcDbEntity
  8
0
 62
    18
420
        0
370
    25
100
AcDbSpline
210
0.0
220
0.0
230
1.0
 70
     8
 71
     3
 72
     8
 73
     4
 74
     0
 42
0.0000000001
 43
0.0000000001
 40
0.0
 40
0.0
 40
0.0
 40
0.0
 40
1.0
 40
1.0
 40
1.0
 40
1.0
 10
39.56413389465213
 20
38.04934353779655
 30
0.0
 10
34.31621858473299
 20
38.04934353779655
 30
0.0
 10
30.06194265810794
 20
33.79506761117151
 30
0.0
 10
30.06194265810794
 20
28.54715230125205
 30
0.0
  0
LINE
  5
1C8
330
70
100
AcDbEntity
  8
0
 62
    18
420
        0
370
    25
100
AcDbLine
 10
30.06194175495216
 20
7.297152189452402
 30
0.0
 11
30.06194175495216
 21
28.54715241295196
 31
0.0
  0
SPLINE
  5
1C9
330
70
100
AcDbEntity
  8
0
 62
    18
420
        0
370
    25
100
AcDbSpline
210
0.0
220
0.0
230
1.0
 70
     8
 71
     3
 72
     8
 73
     4
 74
     0
 42
0.0000000001
 43
0.0000000001
 40
0.0
 40
0.0
 40
0.0
 40
0.0
 40
1.0
 40
1.0
 40
1.0
 40
1.0
 10
39.56413389465213
 20
43.54605192336315
 30
0.0
 10
31.28047036911751
 20
43.54605192336315
 30
0.0
 10
24.56523427254134
 20
36.83081582678699
 30
0.0
 10
24.56523427254134
 20
28.54715230125205
 30
0.0
  0
LINE
  5
1CA
330
70
100
AcDbEntity
  8
0
 62
    18
420
        0
370
    25
100
AcDbLine
 10
39.56413378285212
 20
43.54605125445222
 30
0.0
 11
39.56413378285212
 21
43.42105658905186
 31
0.0
  0
LINE
  5
1CB
330
70
100
AcDbEntity
  8
0
 62
    18
420
        0
370
    25
100
AcDbLine
 10
24.56523494145227
 20
28.54715241295196
 30
0.0
 11
24.69022960685231
 21
28.54715241295196
 31
0.0
  0
LINE
  5
1CC
330
70
100
AcDbEntity
  8
0
 62
    18
420
        0
370
    25
100
AcDbLine
 10
39.56413378285212
 20
37.79935324745235
 30
0.0
 11
39.56413378285212
 21
38.04934444085191
 31
0.0
  0
SPLINE
  5
1CD
330
70
100
AcDbEntity
  8
0
 62
    18
420
        0
370
    25
100
AcDbSpline
210
0.0
220
0.0
230
1.0
 70
     8
 71
     3
 72
     8
 73
     4
 74
     0
 42
0.0000000001
 43
0.0000000001
 40
0.0
 40
0.0
 40
0.0
 40
0.0
 40
1.0
 40
1.0
 40
1.0
 40
1.0
 10
39.56413389465213
 20
37.79935305703009
 30
0.0
 10
34.45428451486296
 20
37.79935305703009
 30
0.0
 10
30.31193313887409
 20
33.65700168104122
 30
0.0
 10
30.31193313887409
 20
28.54715230125205
 30
0.0
  0
LINE
  5
1CE
330
70
100
AcDbEntity
  8
0
 62
    18
420
        0
370
    25
100
AcDbLine
 10
30.06194175495216
 20
28.54715241295196
 30
0.0
 11
30.31193294845215
 21
28.54715241295196
 31
0.0
  0
LINE
  5
1CF
330
70
100
AcDbEntity
  8
0
 62
    18
420
        0
370
    25
100
AcDbLine
 10
60.81413400635231
 20
43.54605125445222
 30
0.0
 11
60.81413400635231
 21
43.42105658905186
 31
0.0
  0
SPLINE
  5
1D0
330
70
100
AcDbEntity
  8
0
 62
    18
420
        0
370
    25
100
AcDbSpline
210
0.0
220
0.0
230
1.0
 70
     8
 71
     3
 72
     8
 73
     4
 74
     0
 42
0.0000000001
 43
0.0000000001
 40
0.0
 40
0.0
 40
0.0
 40
0.0
 40
1.0
 40
1.0
 40
1.0
 40
1.0
 10
75.81303351676318
 20
28.54715230125205
 30
0.0
 10
75.81303351676318
 20
36.83081582678699
 30
0.0
 10
69.09779742018702
 20
43.54605192336315
 30
0.0
 10
60.81413389465208
 20
43.54605192336315
 30
0.0
  0
LINE
  5
1D1
330
70
100
AcDbEntity
  8
0
 62
    18
420
        0
370
    25
100
AcDbLine
 10
75.68803818245221
 20
28.54715241295196
 30
0.0
 11
75.81303284785225
 21
28.54715241295196
 31
0.0
  0
LINE
  5
1D2
330
70
100
AcDbEntity
  8
0
 62
    18
420
        0
370
    25
100
AcDbLine
 10
39.56413378285212
 20
43.54605125445222
 30
0.0
 11
60.81413400635231
 21
43.54605125445222
 31
0.0
  0
LINE
  5
1D3
330
70
100
AcDbEntity
  8
0
 62
    18
420
        0
370
    25
100
AcDbLine
 10
24.56523494145227
 20
7.297152189452402
 30
0.0
 11
24.69022960685231
 21
7.297152189452402
 31
0.0
  0
LINE
  5
1D4
330
70
100
AcDbEntity
  8
0
 62
    18
420
        0
370
    25
100
AcDbLine
 10
24.56523494145227
 20
7.297152189452402
 30
0.0
 11
24.56523494145227
 21
28.54715241295196
 31
0.0
  0
LINE
  5
1D5
330
70
100
AcDbEntity
  8
0
 62
    18
420
        0
370
    25
100
AcDbLine
 10
60.81413400635231
 20
37.79935324745235
 30
0.0
 11
39.56413378285212
 21
37.79935324745235
 31
0.0
  0
LINE
  5
1D6
330
70
100
AcDbEntity
  8
0
 62
    18
420
        0
370
    25
100
AcDbLine
 10
60.81413400635231
 20
37.79935324745235
 30
0.0
 11
60.81413400635231
 21
38.04934444085191
 31
0.0
  0
SPLINE
  5
1D7
330
70
100
AcDbEntity
  8
0
 62
    18
420
        0
370
    25
100
AcDbSpline
210
0.0
220
0.0
230
1.0
 70
     8
 71
     3
 72
     8
 73
     4
 74
     0
 42
0.0000000001
 43
0.0000000001
 40
0.0
 40
0.0
 40
0.0
 40
0.0
 40
1.0
 40
1.0
 40
1.0
 40
1.0
 10
70.06633465043012
 20
28.54715230125205
 30
0.0
 10
70.06633465043012
 20
33.65700168104122
 30
0.0
 10
65.92398327444126
 20
37.79935305703009
 30
0.0
 10
60.81413389465208
 20
37.79935305703009
 30
0.0
  0
LINE
  5
1D8
330
70
100
AcDbEntity
  8
0
 62
    18
420
        0
370
    25
100
AcDbLine
 10
70.06633484085206
 20
28.54715241295196
 30
0.0
 11
70.31632603425226
 21
28.54715241295196
 31
0.0
  0
LINE
  5
1D9
330
70
100
AcDbEntity
  8
0
 62
    18
420
        0
370
    25
100
AcDbLine
 10
30.31193294845215
 20
28.54715241295196
 30
0.0
 11
30.31193294845215
 21
7.297152189452402
 31
0.0
  0
LINE
  5
1DA
330
70
100
AcDbEntity
  8
0
 62
    18
420
        0
370
    25
100
AcDbLine
 10
30.06194175495216
 20
7.297152189452402
 30
0.0
 11
30.31193294845215
 21
7.297152189452402
 31
0.0
  0
LINE
  5
1DB
330
70
100
AcDbEntity
  8
0
 62
    18
420
        0
370
    25
100
AcDbLine
 10
70.06633484085206
 20
7.297152189452402
 30
0.0
 11
70.31632603425226
 21
7.297152189452402
 31
0.0
  0
LINE
  5
1DC
330
70
100
AcDbEntity
  8
0
 62
    18
420
        0
370
    25
100
AcDbLine
 10
70.06633484085206
 20
7.297152189452402
 30
0.0
 11
70.06633484085206
 21
28.54715241295196
 31
0.0
  0
LINE
  5
1DD
330
70
100
AcDbEntity
  8
0
 62
    18
420
        0
370
    25
100
AcDbLine
 10
75.81303284785225
 20
28.54715241295196
 30
0.0
 11
75.81303284785225
 21
7.297152189452402
 31
0.0
  0
LINE
  5
1DE
330
70
100
AcDbEntity
  8
0
 62
    18
420
        0
370
    25
100
AcDbLine
 10
75.68803818245221
 20
7.297152189452402
 30
0.0
 11
75.81303284785225
 21
7.297152189452402
 31
0.0
  0
SPLINE
  5
1DF
330
70
100
AcDbEntity
  8
0
 62
    18
420
        0
370
    25
100
AcDbSpline
210
0.0
220
0.0
230
1.0
 70
     8
 71
     3
 72
     8
 73
     4
 74
     0
 42
0.0000000001
 43
0.0000000001
 40
0.0
 40
0.0
 40
0.0
 40
0.0
 40
1.0
 40
1.0
 40
1.0
 40
1.0
 10
30.31193313887409
 20
7.297152301252417
 30
0.0
 10
30.31193313887409
 20
2.18730292146324
 30
0.0
 10
34.45428451486296
 20
-1.955048454526266
 30
0.0
 10
39.56413389465213
 20
-1.955048454526266
 30
0.0
  0
LINE
  5
1E0
330
70
100
AcDbEntity
  8
0
 62
    18
420
        0
370
    25
100
AcDbLine
 10
39.56413378285212
 20
-2.205039838448192
 30
0.0
 11
39.56413378285212
 21
-1.955048645047994
 31
0.0
  0
LINE
  5
1E1
330
70
100
AcDbEntity
  8
0
 62
    18
420
        0
370
    25
100
AcDbLine
 10
39.56413378285212
 20
-7.576751986648152
 30
0.0
 11
39.56413378285212
 21
-7.701746651947763
 31
0.0
  0
SPLINE
  5
1E2
330
70
100
AcDbEntity
  8
0
 62
    18
420
        0
370
    25
100
AcDbSpline
210
0.0
220
0.0
230
1.0
 70
     8
 71
     3
 72
     8
 73
     4
 74
     0
 42
0.0000000001
 43
0.0000000001
 40
0.0
 40
0.0
 40
0.0
 40
0.0
 40
1.0
 40
1.0
 40
1.0
 40
1.0
 10
24.56523427254134
 20
7.297152301252417
 30
0.0
 10
24.56523427254134
 20
-0.9865112242825254
 30
0.0
 10
31.28047036911751
 20
-7.701747320858692
 30
0.0
 10
39.56413389465213
 20
-7.701747320858692
 30
0.0
  0
LINE
  5
1E3
330
70
100
AcDbEntity
  8
0
 62
    18
420
        0
370
    25
100
AcDbLine
 10
60.81413400635231
 20
-2.205039838448192
 30
0.0
 11
60.81413400635231
 21
-1.955048645047994
 31
0.0
  0
SPLINE
  5
1E4
330
70
100
AcDbEntity
  8
0
 62
    18
420
        0
370
    25
100
AcDbSpline
210
0.0
220
0.0
230
1.0
 70
     8
 71
     3
 72
     8
 73
     4
 74
     0
 42
0.0000000001
 43
0.0000000001
 40
0.0
 40
0.0
 40
0.0
 40
0.0
 40
1.0
 40
1.0
 40
1.0
 40
1.0
 10
60.81413389465208
 20
-1.955048454525624
 30
0.0
 10
65.92398327444126
 20
-1.955048454525624
 30
0.0
 10
70.06633465043012
 20
2.18730292146324
 30
0.0
 10
70.06633465043012
 20
7.297152301252417
 30
0.0
  0
SPLINE
  5
1E5
330
70
100
AcDbEntity
  8
0
 62
    18
420
        0
370
    25
100
AcDbSpline
210
0.0
220
0.0
230
1.0
 70
     8
 71
     3
 72
     8
 73
     4
 74
     0
 42
0.0000000001
 43
0.0000000001
 40
0.0
 40
0.0
 40
0.0
 40
0.0
 40
1.0
 40
1.0
 40
1.0
 40
1.0
 10
60.81413389465208
 20
-7.701747320858692
 30
0.0
 10
69.09779742018702
 20
-7.701747320858692
 30
0.0
 10
75.81303351676318
 20
-0.9865112242825254
 30
0.0
 10
75.81303351676318
 20
7.297152301252417
 30
0.0
  0
LINE
  5
1E6
330
70
100
AcDbEntity
  8
0
 62
    18
420
        0
370
    25
100
AcDbLine
 10
60.81413400635231
 20
-7.576751986648152
 30
0.0
 11
60.81413400635231
 21
-7.701746651947763
 31
0.0
  0
LINE
  5
1E7
330
70
100
AcDbEntity
  8
0
 62
    18
420
        0
370
    25
100
AcDbLine
 10
39.56413378285212
 20
-1.955048645047994
 30
0.0
 11
60.81413400635231
 21
-1.955048645047994
 31
0.0
  0
LINE
  5
1E8
330
70
100
AcDbEntity
  8
0
 62
    18
420
        0
370
    25
100
AcDbLine
 10
60.81413400635231
 20
-7.701746651947763
 30
0.0
 11
39.56413378285212
 21
-7.701746651947763
 31
0.0
  0
LINE
  5
1E9
330
70
100
AcDbEntity
  8
0
 62
    18
420
        0
370
    25
100
AcDbLine
 10
39.56413378285212
 20
37.79935324745235
 30
0.0
 11
39.56413378285212
 21
37.76770876895209
 31
0.0
  0
SPLINE
  5
1EA
330
70
100
AcDbEntity
  8
0
 62
    18
420
        0
370
    25
100
AcDbSpline
210
0.0
220
0.0
230
1.0
 70
     8
 71
     3
 72
     8
 73
     4
 74
     0
 42
0.0000000001
 43
0.0000000001
 40
0.0
 40
0.0
 40
0.0
 40
0.0
 40
1.0
 40
1.0
 40
1.0
 40
1.0
 10
39.56413389465213
 20
37.76770864187322
 30
0.0
 10
34.47176124277143
 20
37.76770864187322
 30
0.0
 10
30.34357755403064
 20
33.63952495313307
 30
0.0
 10
30.34357755403064
 20
28.54715230125205
 30
0.0
  0
LINE
  5
1EB
330
70
100
AcDbEntity
  8
0
 62
    18
420
        0
370
    25
100
AcDbLine
 10
30.31193294845215
 20
28.54715241295196
 30
0.0
 11
30.34357742685231
 21
28.54715241295196
 31
0.0
  0
LINE
  5
1EC
330
70
100
AcDbEntity
  8
0
 62
    18
420
        0
370
    25
100
AcDbLine
 10
60.81413400635231
 20
37.79935324745235
 30
0.0
 11
60.81413400635231
 21
37.76770876895209
 31
0.0
  0
LINE
  5
1ED
330
70
100
AcDbEntity
  8
0
 62
    18
420
        0
370
    25
100
AcDbLine
 10
39.56413378285212
 20
37.76770876895209
 30
0.0
 11
60.81413400635231
 21
37.76770876895209
 31
0.0
  0
LINE
  5
1EE
330
70
100
AcDbEntity
  8
0
 62
    18
420
        0
370
    25
100
AcDbLine
 10
70.06633484085206
 20
28.54715241295196
 30
0.0
 11
70.03469036235212
 21
28.54715241295196
 31
0.0
  0
SPLINE
  5
1EF
330
70
100
AcDbEntity
  8
0
 62
    18
420
        0
370
    25
100
AcDbSpline
210
0.0
220
0.0
230
1.0
 70
     8
 71
     3
 72
     8
 73
     4
 74
     0
 42
0.0000000001
 43
0.0000000001
 40
0.0
 40
0.0
 40
0.0
 40
0.0
 40
1.0
 40
1.0
 40
1.0
 40
1.0
 10
70.03469023527357
 20
28.54715230125205
 30
0.0
 10
70.03469023527357
 20
33.63952495313307
 30
0.0
 10
65.90650654653311
 20
37.76770864187322
 30
0.0
 10
60.81413389465208
 20
37.76770864187322
 30
0.0
  0
SPLINE
  5
1F0
330
70
100
AcDbEntity
  8
0
 62
    18
420
        0
370
    25
100
AcDbSpline
210
0.0
220
0.0
230
1.0
 70
     8
 71
     3
 72
     8
 73
     4
 74
     0
 42
0.0000000001
 43
0.0000000001
 40
0.0
 40
0.0
 40
0.0
 40
0.0
 40
1.0
 40
1.0
 40
1.0
 40
1.0
 10
30.31848759666239
 20
21.67215221741358
 30
0.0
 10
30.31290085008713
 20
21.42218346578106
 30
0.0
 10
30.31290085008713
 20
21.17212107892308
 30
0.0
 10
30.31848759666239
 20
20.92215232729056
 30
0.0
  0
LINE
  5
1F1
330
70
100
AcDbEntity
  8
0
 62
    18
420
        0
370
    25
100
AcDbLine
 10
30.34357742685231
 20
20.92215232725206
 30
0.0
 11
30.31848759665212
 21
20.92215232725206
 31
0.0
  0
LINE
  5
1F2
330
70
100
AcDbEntity
  8
0
 62
    18
420
        0
370
    25
100
AcDbLine
 10
30.34357742685231
 20
18.52787664565235
 30
0.0
 11
30.34357742685231
 21
20.92215232725206
 31
0.0
  0
LINE
  5
1F3
330
70
100
AcDbEntity
  8
0
 62
    18
420
        0
370
    25
100
AcDbLine
 10
30.34357742685231
 20
18.52787664565235
 30
0.0
 11
30.32555074705205
 21
18.34715230685243
 31
0.0
  0
LWPOLYLINE
  5
1F4
330
70
100
AcDbEntity
  8
0
 62
    18
420
        0
370
    25
100
AcDbPolyline
 90
       26
 70
     0
 43
0.0
 10
30.32555074705205
 20
18.34715230685243
 10
30.32485970575213
 20
18.39452205055245
 10
30.32410719705223
 20
18.42732052495241
 10
30.32331743555222
 20
18.4445360227522
 10
30.32251277285208
 20
18.44563742815194
 10
30.32171928605203
 20
18.43059080595224
 10
30.3209611894523
 20
18.39986027515236
 10
30.32026083485208
 20
18.35439383465202
 10
30.31964057405224
 20
18.29559393985205
 10
30.31912089605229
 20
18.22527442885214
 10
30.31871483935214
 20
18.14560445375215
 10
30.31843730525233
 20
18.05904161475233
 10
30.31829760685231
 20
17.96825613015238
 10
30.31829760685231
 20
17.87604847225197
 10
30.31843730525233
 20
17.78526298765202
 10
30.31871483935214
 20
17.6987001486522
 10
30.31912089605229
 20
17.61903017355222
 10
30.31964057405224
 20
17.5487106625523
 10
30.32026083485208
 20
17.48991076775233
 10
30.3209611894523
 20
17.44444432725199
 10
30.32171928605203
 20
17.41371379645212
 10
30.32251277285208
 20
17.39866717425241
 10
30.32331743555222
 20
17.39976857965215
 10
30.32410719705223
 20
17.41698407745194
 10
30.32485970575213
 20
17.44978255185191
 10
30.32555074705205
 20
17.49715229555192
  0
LINE
  5
1F5
330
70
100
AcDbEntity
  8
0
 62
    18
420
        0
370
    25
100
AcDbLine
 10
30.32555074705205
 20
17.49715229555192
 30
0.0
 11
30.34357742685231
 21
17.316427956752
 31
0.0
  0
LINE
  5
1F6
330
70
100
AcDbEntity
  8
0
 62
    18
420
        0
370
    25
100
AcDbLine
 10
30.34357742685231
 20
14.9221522751523
 30
0.0
 11
30.34357742685231
 21
17.316427956752
 31
0.0
  0
LINE
  5
1F7
330
70
100
AcDbEntity
  8
0
 62
    18
420
        0
370
    25
100
AcDbLine
 10
30.31848759665212
 20
14.9221522751523
 30
0.0
 11
30.34357742685231
 21
14.9221522751523
 31
0.0
  0
SPLINE
  5
1F8
330
70
100
AcDbEntity
  8
0
 62
    18
420
        0
370
    25
100
AcDbSpline
210
0.0
220
0.0
230
1.0
 70
     8
 71
     3
 72
     8
 73
     4
 74
     0
 42
0.0000000001
 43
0.0000000001
 40
0.0
 40
0.0
 40
0.0
 40
0.0
 40
1.0
 40
1.0
 40
1.0
 40
1.0
 10
30.31848759666239
 20
14.9221522751138
 30
0.0
 10
30.31290085008713
 20
14.67218352348128
 30
0.0
 10
30.31290085008713
 20
14.42212113662329
 30
0.0
 10
30.31848759666239
 20
14.17215238499077
 30
0.0
  0
LINE
  5
1F9
330
70
100
AcDbEntity
  8
0
 62
    18
420
        0
370
    25
100
AcDbLine
 10
30.34357742685231
 20
14.17215238505238
 30
0.0
 11
30.31848759665212
 21
14.17215238505238
 31
0.0
  0
LINE
  5
1FA
330
70
100
AcDbEntity
  8
0
 62
    18
420
        0
370
    25
100
AcDbLine
 10
30.34357742685231
 20
7.297152189452402
 30
0.0
 11
30.34357742685231
 21
14.17215238505238
 31
0.0
  0
LINE
  5
1FB
330
70
100
AcDbEntity
  8
0
 62
    18
420
        0
370
    25
100
AcDbLine
 10
30.31193294845215
 20
7.297152189452402
 30
0.0
 11
30.34357742685231
 21
7.297152189452402
 31
0.0
  0
LINE
  5
1FC
330
70
100
AcDbEntity
  8
0
 62
    18
420
        0
370
    25
100
AcDbLine
 10
30.34357742685231
 20
21.67215221735198
 30
0.0
 11
30.34357742685231
 21
28.54715241295196
 31
0.0
  0
LINE
  5
1FD
330
70
100
AcDbEntity
  8
0
 62
    18
420
        0
370
    25
100
AcDbLine
 10
30.31848759665212
 20
21.67215221735198
 30
0.0
 11
30.34357742685231
 21
21.67215221735198
 31
0.0
  0
SPLINE
  5
1FE
330
70
100
AcDbEntity
  8
0
 62
    18
420
        0
370
    25
100
AcDbSpline
210
0.0
220
0.0
230
1.0
 70
     8
 71
     3
 72
     8
 73
     4
 74
     0
 42
0.0000000001
 43
0.0000000001
 40
0.0
 40
0.0
 40
0.0
 40
0.0
 40
1.0
 40
1.0
 40
1.0
 40
1.0
 10
70.05978019251831
 20
20.92215232729826
 30
0.0
 10
70.06550631795343
 20
21.17211950214982
 30
0.0
 10
70.06550631795343
 20
21.42218504255432
 30
0.0
 10
70.05978019251831
 20
21.67215221740588
 30
0.0
  0
LINE
  5
1FF
330
70
100
AcDbEntity
  8
0
 62
    18
420
        0
370
    25
100
AcDbLine
 10
70.03469036235212
 20
21.67215221735198
 30
0.0
 11
70.05978019255231
 21
21.67215221735198
 31
0.0
  0
LINE
  5
200
330
70
100
AcDbEntity
  8
0
 62
    18
420
        0
370
    25
100
AcDbLine
 10
70.03469036235212
 20
28.54715241295196
 30
0.0
 11
70.03469036235212
 21
21.67215221735198
 31
0.0
  0
LINE
  5
201
330
70
100
AcDbEntity
  8
0
 62
    18
420
        0
370
    25
100
AcDbLine
 10
70.06633484085206
 20
7.297152189452402
 30
0.0
 11
70.03469036235212
 21
7.297152189452402
 31
0.0
  0
LINE
  5
202
330
70
100
AcDbEntity
  8
0
 62
    18
420
        0
370
    25
100
AcDbLine
 10
70.03469036235212
 20
14.17215238505238
 30
0.0
 11
70.03469036235212
 21
7.297152189452402
 31
0.0
  0
LINE
  5
203
330
70
100
AcDbEntity
  8
0
 62
    18
420
        0
370
    25
100
AcDbLine
 10
70.05978019255231
 20
14.17215238505238
 30
0.0
 11
70.03469036235212
 21
14.17215238505238
 31
0.0
  0
SPLINE
  5
204
330
70
100
AcDbEntity
  8
0
 62
    18
420
        0
370
    25
100
AcDbSpline
210
0.0
220
0.0
230
1.0
 70
     8
 71
     3
 72
     8
 73
     4
 74
     0
 42
0.0000000001
 43
0.0000000001
 40
0.0
 40
0.0
 40
0.0
 40
0.0
 40
1.0
 40
1.0
 40
1.0
 40
1.0
 10
70.05978019251831
 20
14.17215238499783
 30
0.0
 10
70.06550631795343
 20
14.42211955985004
 30
0.0
 10
70.06550631795343
 20
14.67218510025389
 30
0.0
 10
70.05978019251831
 20
14.9221522751061
 30
0.0
  0
LINE
  5
205
330
70
100
AcDbEntity
  8
0
 62
    18
420
        0
370
    25
100
AcDbLine
 10
70.03469036235212
 20
14.9221522751523
 30
0.0
 11
70.05978019255231
 21
14.9221522751523
 31
0.0
  0
LINE
  5
206
330
70
100
AcDbEntity
  8
0
 62
    18
420
        0
370
    25
100
AcDbLine
 10
70.03469036235212
 20
17.316427956752
 30
0.0
 11
70.03469036235212
 21
14.9221522751523
 31
0.0
  0
LINE
  5
207
330
70
100
AcDbEntity
  8
0
 62
    18
420
        0
370
    25
100
AcDbLine
 10
70.05271704215205
 20
17.49715229555192
 30
0.0
 11
70.03469036235212
 21
17.316427956752
 31
0.0
  0
LWPOLYLINE
  5
208
330
70
100
AcDbEntity
  8
0
 62
    18
420
        0
370
    25
100
AcDbPolyline
 90
       26
 70
     0
 43
0.0
 10
70.05271704215205
 20
18.34715230685243
 10
70.0534080834523
 20
18.39452205055245
 10
70.0541605921522
 20
18.42732052495241
 10
70.05495035365221
 20
18.4445360227522
 10
70.05575501635203
 20
18.44563742815194
 10
70.05654850325218
 20
18.43059080595224
 10
70.05730659975213
 20
18.39986027515236
 10
70.05800695435202
 20
18.35439383465202
 10
70.0586272152523
 20
18.29559393985205
 10
70.05914689315213
 20
18.22527442885214
 10
70.05955294985229
 20
18.14560445375215
 10
70.0598304839521
 20
18.05904161475233
 10
70.05997018235212
 20
17.96825613015238
 10
70.05997018235212
 20
17.87604847225197
 10
70.0598304839521
 20
17.78526298765202
 10
70.05955294985229
 20
17.6987001486522
 10
70.05914689315213
 20
17.61903017355222
 10
70.0586272152523
 20
17.5487106625523
 10
70.05800695435202
 20
17.48991076775233
 10
70.05730659975213
 20
17.44444432725199
 10
70.05654850325218
 20
17.41371379645212
 10
70.05575501635203
 20
17.39866717425241
 10
70.05495035365221
 20
17.39976857965215
 10
70.0541605921522
 20
17.41698407745194
 10
70.0534080834523
 20
17.44978255185191
 10
70.05271704215205
 20
17.49715229555192
  0
LINE
  5
209
330
70
100
AcDbEntity
  8
0
 62
    18
420
        0
370
    25
100
AcDbLine
 10
70.03469036235212
 20
18.52787664565235
 30
0.0
 11
70.05271704215205
 21
18.34715230685243
 31
0.0
  0
LINE
  5
20A
330
70
100
AcDbEntity
  8
0
 62
    18
420
        0
370
    25
100
AcDbLine
 10
70.03469036235212
 20
20.92215232725206
 30
0.0
 11
70.03469036235212
 21
18.52787664565235
 31
0.0
  0
LINE
  5
20B
330
70
100
AcDbEntity
  8
0
 62
    18
420
        0
370
    25
100
AcDbLine
 10
70.05978019255231
 20
20.92215232725206
 30
0.0
 11
70.03469036235212
 21
20.92215232725206
 31
0.0
  0
SPLINE
  5
20C
330
70
100
AcDbEntity
  8
0
 62
    18
420
        0
370
    25
100
AcDbSpline
210
0.0
220
0.0
230
1.0
 70
     8
 71
     3
 72
     8
 73
     4
 74
     0
 42
0.0000000001
 43
0.0000000001
 40
0.0
 40
0.0
 40
0.0
 40
0.0
 40
1.0
 40
1.0
 40
1.0
 40
1.0
 10
30.34357755403064
 20
7.297152301252417
 30
0.0
 10
30.34357755403064
 20
2.204779649371392
 30
0.0
 10
34.47176124277143
 20
-1.923404039369399
 30
0.0
 10
39.56413389465213
 20
-1.923404039369399
 30
0.0
  0
LINE
  5
20D
330
70
100
AcDbEntity
  8
0
 62
    18
420
        0
370
    25
100
AcDbLine
 10
39.56413378285212
 20
-1.955048645047994
 30
0.0
 11
39.56413378285212
 21
-1.923404166547732
 31
0.0
  0
LINE
  5
20E
330
70
100
AcDbEntity
  8
0
 62
    18
420
        0
370
    25
100
AcDbLine
 10
60.81413400635231
 20
-1.955048645047994
 30
0.0
 11
60.81413400635231
 21
-1.923404166547732
 31
0.0
  0
SPLINE
  5
20F
330
70
100
AcDbEntity
  8
0
 62
    18
420
        0
370
    25
100
AcDbSpline
210
0.0
220
0.0
230
1.0
 70
     8
 71
     3
 72
     8
 73
     4
 74
     0
 42
0.0000000001
 43
0.0000000001
 40
0.0
 40
0.0
 40
0.0
 40
0.0
 40
1.0
 40
1.0
 40
1.0
 40
1.0
 10
60.81413389465208
 20
-1.923404039369399
 30
0.0
 10
65.90650654653311
 20
-1.923404039369399
 30
0.0
 10
70.03469023527357
 20
2.204779649371392
 30
0.0
 10
70.03469023527357
 20
7.297152301252417
 30
0.0
  0
LINE
  5
210
330
70
100
AcDbEntity
  8
0
 62
    18
420
        0
370
    25
100
AcDbLine
 10
60.81413400635231
 20
-1.923404166547732
 30
0.0
 11
39.56413378285212
 21
-1.923404166547732
 31
0.0
  0
LINE
  5
211
330
70
100
AcDbEntity
  8
0
 62
    18
420
        0
370
    25
100
AcDbLine
 10
30.32017142785218
 20
17.49715229555192
 30
0.0
 11
30.32555074705205
 21
17.49715229555192
 31
0.0
  0
LINE
  5
212
330
70
100
AcDbEntity
  8
0
 62
    18
420
        0
370
    25
100
AcDbLine
 10
30.32017142785218
 20
18.34715230685243
 30
0.0
 11
30.32555074705205
 21
18.34715230685243
 31
0.0
  0
LINE
  5
213
330
70
100
AcDbEntity
  8
0
 62
    18
420
        0
370
    25
100
AcDbLine
 10
70.05809636135225
 20
17.49715229555192
 30
0.0
 11
70.05271704215205
 21
17.49715229555192
 31
0.0
  0
LINE
  5
214
330
70
100
AcDbEntity
  8
0
 62
    18
420
        0
370
    25
100
AcDbLine
 10
70.05809636135225
 20
18.34715230685243
 30
0.0
 11
70.05271704215205
 21
18.34715230685243
 31
0.0
  0
SPLINE
  5
215
330
70
100
AcDbEntity
  8
0
 62
    18
420
        0
370
    25
100
AcDbSpline
210
0.0
220
0.0
230
1.0
 70
     8
 71
     3
 72
     8
 73
     4
 74
     0
 42
0.0000000001
 43
0.0000000001
 40
0.0
 40
0.0
 40
0.0
 40
0.0
 40
1.0
 40
1.0
 40
1.0
 40
1.0
 10
70.05985656096152
 20
20.99737571730262
 30
0.0
 10
70.04352344671244
 20
20.97569849412413
 30
0.0
 10
70.03468976199839
 20
20.94929404104224
 30
0.0
 10
70.03469036235021
 20
20.92215232728928
 30
0.0
  0
SPLINE
  5
216
330
70
100
AcDbEntity
  8
0
 62
    18
420
        0
370
    25
100
AcDbSpline
210
0.0
220
0.0
230
1.0
 70
     8
 71
     3
 72
     8
 73
     4
 74
     0
 42
0.0000000001
 43
0.0000000001
 40
0.0
 40
0.0
 40
0.0
 40
0.0
 40
1.0
 40
1.0
 40
1.0
 40
1.0
 10
30.31841122824291
 20
14.84692888510173
 30
0.0
 10
30.33474434249199
 20
14.86860610828023
 30
0.0
 10
30.34357802720571
 20
14.89501056136212
 30
0.0
 10
30.34357742685423
 20
14.92215227511508
 30
0.0
  0
SPLINE
  5
217
330
70
100
AcDbEntity
  8
0
 62
    18
420
        0
370
    25
100
AcDbSpline
210
0.0
220
0.0
230
1.0
 70
     8
 71
     3
 72
     8
 73
     4
 74
     0
 42
0.0000000001
 43
0.0000000001
 40
0.0
 40
0.0
 40
0.0
 40
0.0
 40
1.0
 40
1.0
 40
1.0
 40
1.0
 10
70.05966843387735
 20
14.24712385225263
 30
0.0
 10
70.04345271156413
 20
14.22549275540343
 30
0.0
 10
70.03468838236599
 20
14.19918669647564
 30
0.0
 10
70.03469036242624
 20
14.17215238499655
 30
0.0
  0
SPLINE
  5
218
330
70
100
AcDbEntity
  8
0
 62
    18
420
        0
370
    25
100
AcDbSpline
210
0.0
220
0.0
230
1.0
 70
     8
 71
     3
 72
     8
 73
     4
 74
     0
 42
0.0000000001
 43
0.0000000001
 40
0.0
 40
0.0
 40
0.0
 40
0.0
 40
1.0
 40
1.0
 40
1.0
 40
1.0
 10
70.03469036242591
 20
14.92215227510674
 30
0.0
 10
70.03468928542713
 20
14.89498736631164
 30
0.0
 10
70.0435381750443
 20
14.86856158258962
 30
0.0
 10
70.05989753923042
 20
14.84687510121482
 30
0.0
  0
LINE
  5
219
330
70
100
AcDbEntity
  8
0
 62
     8
420
  8421504
370
    25
100
AcDbLine
 10
30.31848759665212
 20
21.67215221735198
 30
0.0
 11
30.31784684675231
 21
21.65950066585207
 31
0.0
  0
LINE
  5
21A
330
70
100
AcDbEntity
  8
0
 62
     8
420
  8421504
370
    25
100
AcDbLine
 10
70.05978019255231
 20
21.67215221735198
 30
0.0
 11
70.06032594755206
 21
21.660479718752
 31
0.0
  0
LINE
  5
21B
330
70
100
AcDbEntity
  8
0
 62
     8
420
  8421504
370
    25
100
AcDbLine
 10
70.06032781025227
 20
14.91046394395235
 30
0.0
 11
70.05978019255231
 21
14.9221522751523
 31
0.0
  0
LINE
  5
21C
330
70
100
AcDbEntity
  8
0
 62
     8
420
  8421504
370
    25
100
AcDbLine
 10
70.06042094245211
 20
14.18480114255231
 30
0.0
 11
70.05978019255231
 21
14.17215238505238
 31
0.0
  0
LINE
  5
21D
330
70
100
AcDbEntity
  8
0
 62
     8
420
  8421504
370
    25
100
AcDbLine
 10
30.31784684675231
 20
14.90950328475219
 30
0.0
 11
30.31848759665212
 21
14.9221522751523
 31
0.0
  0
SPLINE
  5
21E
330
70
100
AcDbEntity
  8
0
 62
     8
420
  8421504
370
    25
100
AcDbSpline
210
0.0
220
0.0
230
1.0
 70
     8
 71
     3
 72
     8
 73
     4
 74
     0
 42
0.0000000001
 43
0.0000000001
 40
0.0
 40
0.0
 40
0.0
 40
0.0
 40
1.0
 40
1.0
 40
1.0
 40
1.0
 10
30.31859935542687
 20
21.59718075015108
 30
0.0
 10
30.3348150777404
 20
21.61881184700093
 30
0.0
 10
30.34357940693821
 20
21.64511790592872
 30
0.0
 10
30.34357742687797
 20
21.6721522174078
 30
0.0
  0
SPLINE
  5
21F
330
70
100
AcDbEntity
  8
0
 62
     8
420
  8421504
370
    25
100
AcDbSpline
210
0.0
220
0.0
230
1.0
 70
     8
 71
     3
 72
     8
 73
     4
 74
     0
 42
0.0000000001
 43
0.0000000001
 40
0.0
 40
0.0
 40
0.0
 40
0.0
 40
1.0
 40
1.0
 40
1.0
 40
1.0
 10
30.34357742687669
 20
20.92215232727516
 30
0.0
 10
30.34357819362426
 20
20.94920917385191
 30
0.0
 10
30.334799555297
 20
20.9755357748885
 30
0.0
 10
30.31856023987745
 20
20.99717734557959
 30
0.0
  0
SPLINE
  5
220
330
70
100
AcDbEntity
  8
0
 62
     8
420
  8421504
370
    25
100
AcDbSpline
210
0.0
220
0.0
230
1.0
 70
     8
 71
     3
 72
     8
 73
     4
 74
     0
 42
0.0000000001
 43
0.0000000001
 40
0.0
 40
0.0
 40
0.0
 40
0.0
 40
1.0
 40
1.0
 40
1.0
 40
1.0
 10
70.03469036242783
 20
21.67215221742898
 30
0.0
 10
70.03468959568028
 20
21.64509537085223
 30
0.0
 10
70.04346823400753
 20
21.61876876981564
 30
0.0
 10
70.05970754942708
 20
21.59712719912455
 30
0.0
  0
SPLINE
  5
221
330
70
100
AcDbEntity
  8
0
 62
     8
420
  8421504
370
    25
100
AcDbSpline
210
0.0
220
0.0
230
1.0
 70
     8
 71
     3
 72
     8
 73
     4
 74
     0
 42
0.0000000001
 43
0.0000000001
 40
0.0
 40
0.0
 40
0.0
 40
0.0
 40
1.0
 40
1.0
 40
1.0
 40
1.0
 10
30.34357742687861
 20
14.17215238499783
 30
0.0
 10
30.34357850387709
 20
14.19931729379293
 30
0.0
 10
30.33472961425991
 20
14.22574307751431
 30
0.0
 10
30.31837025007379
 20
14.24742955888975
 30
0.0
  0
LINE
  5
222
330
70
100
AcDbEntity
  8
0
 62
    18
420
        0
370
    25
100
AcDbLine
 10
174.7422017445519
 20
-21.68279790444765
 30
0.0
 11
174.7422017445519
 21
-21.43136857184816
 31
0.0
  0
LINE
  5
223
330
70
100
AcDbEntity
  8
0
 62
    18
420
        0
370
    25
100
AcDbLine
 10
122.9719330201523
 20
-21.43136857184816
 30
0.0
 11
122.9719330201523
 21
-21.68279790444765
 31
0.0
  0
LWPOLYLINE
  5
224
330
70
100
AcDbEntity
  8
0
 62
    18
420
        0
370
    25
100
AcDbPolyline
 90
       11
 70
     0
 43
0.0
 10
172.7134190689519
 20
45.05017069275221
 10
172.719143137852
 20
45.19154901245243
 10
172.6606261899519
 20
45.69601127025237
 10
172.5247118231523
 20
46.19182945685185
 10
172.3127829808518
 20
46.67603646845236
 10
172.0257978453521
 20
47.14579496235222
 10
171.6650504565521
 20
47.59752941525237
 10
171.2329510874522
 20
48.02692571255242
 10
170.7333515648522
 20
48.42942305865237
 10
170.1996756566519
 20
48.78370078605194
 10
170.0550856245521
 20
48.86915893035215
  0
LWPOLYLINE
  5
225
330
70
100
AcDbEntity
  8
0
 62
    18
420
        0
370
    25
100
AcDbPolyline
 90
       10
 70
     0
 43
0.0
 10
127.659049140152
 20
48.86915893035215
 10
127.347371878352
 20
48.67972290695218
 10
126.8019686095519
 20
48.29456136275224
 10
126.3188939442519
 20
47.87643150045183
 10
125.9041610523523
 20
47.42913905885205
 10
125.562959264652
 20
46.9572261984523
 10
125.2996059987523
 20
46.46637871465197
 10
125.1168737272521
 20
45.96318202675213
 10
125.0155988015523
 20
45.45425515945203
 10
125.0007156956522
 20
45.08673144505182
  0
LINE
  5
226
330
70
100
AcDbEntity
  8
0
 62
    18
420
        0
370
    25
100
AcDbLine
 10
172.7214743854522
 20
43.74669964325227
 30
0.0
 11
172.7214743854522
 21
45.06845106885228
 31
0.0
  0
LINE
  5
227
330
70
100
AcDbEntity
  8
0
 62
    18
420
        0
370
    25
100
AcDbLine
 10
124.992660379252
 20
45.06845106885228
 30
0.0
 11
124.992660379252
 21
43.74902361785221
 31
0.0
  0
LINE
  5
228
330
70
100
AcDbEntity
  8
0
 62
    18
420
        0
370
    25
100
AcDbLine
 10
170.0550856245521
 20
48.86915893035215
 30
0.0
 11
154.9406778394524
 21
57.59452082005228
 31
0.0
  0
LINE
  5
229
330
70
100
AcDbEntity
  8
0
 62
    18
420
        0
370
    25
100
AcDbLine
 10
142.7734569251523
 20
57.59452082005228
 30
0.0
 11
127.659049140152
 21
48.86915893035215
 31
0.0
  0
LWPOLYLINE
  5
22A
330
70
100
AcDbEntity
  8
0
 62
    18
420
        0
370
    25
100
AcDbPolyline
 90
       18
 70
     0
 43
0.0
 10
154.9406778394524
 20
57.59452082005228
 10
154.6140726907521
 20
57.77362063565209
 10
153.9584600228521
 20
58.08307594635214
 10
153.2575487125524
 20
58.35287232175224
 10
152.5177753736521
 20
58.58105804605241
 10
151.7458374039524
 20
58.76598095625183
 10
150.9486040811522
 20
58.90632304485193
 10
150.1331040507521
 20
59.00109095715218
 10
149.3064858134521
 20
59.04960534675219
 10
148.475978212252
 20
59.05152521045224
 10
147.6488278709524
 20
59.00684598705233
 10
146.8323340969519
 20
58.91589765515224
 10
146.0336118049519
 20
58.77934777665235
 10
145.2596139080523
 20
58.59815663145225
 10
144.5170918044521
 20
58.37358786595208
 10
143.8125552065519
 20
58.10714727675204
 10
143.152258970152
 20
57.80058281075184
 10
142.7734569251523
 20
57.59452082005228
  0
LINE
  5
22B
330
70
100
AcDbEntity
  8
0
 62
    18
420
        0
370
    25
100
AcDbLine
 10
178.8830854882523
 20
-15.45763607684805
 30
0.0
 11
178.8830854882523
 21
44.35398097335244
 31
0.0
  0
LINE
  5
22C
330
70
100
AcDbEntity
  8
0
 62
    18
420
        0
370
    25
100
AcDbLine
 10
118.8310492763524
 20
44.35398097335244
 30
0.0
 11
118.8310492763524
 21
-15.45763607684805
 31
0.0
  0
LWPOLYLINE
  5
22D
330
70
100
AcDbEntity
  8
0
 62
    18
420
        0
370
    25
100
AcDbPolyline
 90
       19
 70
     0
 43
0.0
 10
155.4511413708521
 20
32.93592966975197
 10
155.1304170245522
 20
32.75945088505196
 10
154.4784889132521
 20
32.44771071655238
 10
153.7780754625519
 20
32.17083458745226
 10
153.0352754531523
 20
31.93149930495223
 10
152.2563990584519
 20
31.73193040475181
 10
151.4481239198518
 20
31.57400442405222
 10
150.617401633152
 20
31.45920403745225
 10
149.7714037480522
 20
31.38860057095238
 10
148.9174414257523
 20
31.36286541005203
 10
148.0629009012522
 20
31.38224186425241
 10
147.2151934346524
 20
31.44655885625207
 10
146.3816776021523
 20
31.55522407785191
 10
145.5695723687524
 20
31.70721334205242
 10
144.7859070383522
 20
31.90110860515211
 10
144.0374560585524
 20
32.13507629125192
 10
143.3306725068521
 20
32.40688592115244
 10
142.6716176268523
 20
32.7139401461521
 10
142.2629933938521
 20
32.93592966975197
  0
LINE
  5
22E
330
70
100
AcDbEntity
  8
0
 62
    18
420
        0
370
    25
100
AcDbLine
 10
170.4771606291519
 20
41.61026594905229
 30
0.0
 11
155.4511413708521
 21
32.93592966975197
 31
0.0
  0
LINE
  5
22F
330
70
100
AcDbEntity
  8
0
 62
    18
420
        0
370
    25
100
AcDbLine
 10
142.2629933938521
 20
32.93592966975197
 30
0.0
 11
127.2369741355523
 21
41.61026594905229
 31
0.0
  0
LWPOLYLINE
  5
230
330
70
100
AcDbEntity
  8
0
 62
    18
420
        0
370
    25
100
AcDbPolyline
 90
        3
 70
     0
 43
0.0
 10
174.9328852824521
 20
51.26308934225243
 10
174.6182682779521
 20
51.46354464385193
 10
174.4630197029523
 20
51.55449842025202
  0
LWPOLYLINE
  5
231
330
70
100
AcDbEntity
  8
0
 62
    18
420
        0
370
    25
100
AcDbPolyline
 90
        3
 70
     0
 43
0.0
 10
123.2511150617519
 20
51.55449842025202
 10
122.8522642877524
 20
51.31524715725211
 10
122.5279772156524
 20
51.09774046065188
  0
LINE
  5
232
330
70
100
AcDbEntity
  8
0
 62
    18
420
        0
370
    25
100
AcDbLine
 10
178.8740739652521
 20
44.6067842475522
 30
0.0
 11
178.8817012276522
 21
45.320339510552
 31
0.0
  0
LINE
  5
233
330
70
100
AcDbEntity
  8
0
 62
    18
420
        0
370
    25
100
AcDbLine
 10
118.8324335369519
 20
45.320339510552
 30
0.0
 11
118.8400607994521
 21
44.6067842475522
 31
0.0
  0
SPLINE
  5
234
330
70
100
AcDbEntity
  8
0
 62
    18
420
        0
370
    25
100
AcDbSpline
210
0.0
220
0.0
230
1.0
 70
     8
 71
     3
 72
     8
 73
     4
 74
     0
 42
0.0000000001
 43
0.0000000001
 40
0.0
 40
0.0
 40
0.0
 40
0.0
 40
1.0
 40
1.0
 40
1.0
 40
1.0
 10
170.4771606291403
 20
41.61026594909144
 30
0.0
 10
171.5009382958923
 20
42.14856700742918
 30
0.0
 10
172.3318701064098
 20
42.99206255700401
 30
0.0
 10
172.8547479887953
 20
44.0238025729285
 30
0.0
  0
LWPOLYLINE
  5
235
330
70
100
AcDbEntity
  8
0
 62
    18
420
        0
370
    25
100
AcDbPolyline
 90
        8
 70
     0
 43
0.0
 10
127.2369741355523
 20
41.61026594905229
 10
126.9318941725523
 20
41.79503084435218
 10
126.3960918241522
 20
42.16841539585191
 10
125.9237540685524
 20
42.56662658835201
 10
125.5185852185523
 20
42.98586683905198
 10
125.1833926494521
 20
43.42245185355208
 10
124.9202731669518
 20
43.87296765605225
 10
124.8467183551519
 20
44.05214818485241
  0
LINE
  5
236
330
70
100
AcDbEntity
  8
0
 62
    18
420
        0
370
    25
100
AcDbLine
 10
174.4630197029523
 20
51.55449842025202
 30
0.0
 11
159.4370004446519
 21
60.22883469965182
 31
0.0
  0
LINE
  5
237
330
70
100
AcDbEntity
  8
0
 62
    18
420
        0
370
    25
100
AcDbLine
 10
138.2771343199521
 20
60.22883469965182
 30
0.0
 11
123.2511150617519
 21
51.55449842025202
 31
0.0
  0
LWPOLYLINE
  5
238
330
70
100
AcDbEntity
  8
0
 62
    18
420
        0
370
    25
100
AcDbPolyline
 90
        6
 70
     0
 43
0.0
 10
132.284074391252
 20
51.53912627955222
 10
132.3176657587524
 20
51.58331357035183
 10
132.378132163052
 20
51.63561991255235
 10
132.422351451152
 20
51.65832695015243
 10
132.449208542552
 20
51.66329034875195
 10
132.4545108136525
 20
51.66229340655208
  0
LINE
  5
239
330
70
100
AcDbEntity
  8
0
 62
    18
420
        0
370
    25
100
AcDbLine
 10
132.4049138511521
 20
51.63548261715225
 30
0.0
 11
132.4051127315518
 21
51.60900103665214
 31
0.0
  0
LINE
  5
23A
330
70
100
AcDbEntity
  8
0
 62
    18
420
        0
370
    25
100
AcDbLine
 10
138.5522867277525
 20
60.37604982845198
 30
0.0
 11
138.2771343199521
 21
60.22883469965182
 31
0.0
  0
SPLINE
  5
23B
330
70
100
AcDbEntity
  8
0
 62
    18
420
        0
370
    25
100
AcDbSpline
210
0.0
220
0.0
230
1.0
 70
     8
 71
     3
 72
     8
 73
     4
 74
     0
 42
0.0000000001
 43
0.0000000001
 40
0.0
 40
0.0
 40
0.0
 40
0.0
 40
1.0
 40
1.0
 40
1.0
 40
1.0
 10
157.6900504523826
 20
61.08629440190688
 30
0.0
 10
157.117665945242
 20
61.3400514709001
 30
0.0
 10
156.5286177068287
 20
61.55441733223368
 30
0.0
 10
155.9270181446675
 20
61.72789540256621
 30
0.0
  0
SPLINE
  5
23C
330
70
100
AcDbEntity
  8
0
 62
    18
420
        0
370
    25
100
AcDbSpline
210
0.0
220
0.0
230
1.0
 70
     8
 71
     3
 72
     8
 73
     4
 74
     0
 42
0.0000000001
 43
0.0000000001
 40
0.0
 40
0.0
 40
0.0
 40
0.0
 40
1.0
 40
1.0
 40
1.0
 40
1.0
 10
159.4370004446462
 20
60.22883469962422
 30
0.0
 10
158.8753216238201
 20
60.55491168888929
 30
0.0
 10
158.2915892981735
 20
60.84142644223769
 30
0.0
 10
157.6900504523562
 20
61.08629440189148
 30
0.0
  0
LWPOLYLINE
  5
23D
330
70
100
AcDbEntity
  8
0
 62
    18
420
        0
370
    25
100
AcDbPolyline
 90
        6
 70
     0
 43
0.0
 10
137.0570451234518
 20
54.29450363335204
 10
137.0906364909522
 20
54.3386909242524
 10
137.1511028952524
 20
54.39099726635217
 10
137.1953221833524
 20
54.41370430395226
 10
137.2221792747525
 20
54.41866770255241
 10
137.2274815458523
 20
54.41767076035191
  0
LINE
  5
23E
330
70
100
AcDbEntity
  8
0
 62
    18
420
        0
370
    25
100
AcDbLine
 10
137.1778845832524
 20
54.39085997105217
 30
0.0
 11
137.1780834637523
 21
54.36437839045197
 31
0.0
  0
LWPOLYLINE
  5
23F
330
70
100
AcDbEntity
  8
0
 62
    18
420
        0
370
    25
100
AcDbPolyline
 90
       19
 70
     0
 43
0.0
 10
158.6650400844524
 20
-30.7777827800479
 10
157.7466813287524
 20
-31.21807246124757
 10
156.769255082052
 20
-31.61372034074776
 10
155.7392572272524
 20
-31.96209716534777
 10
154.663529383252
 20
-32.26088808204807
 10
153.5492220263523
 20
-32.50810936564779
 10
152.4037378554524
 20
-32.70211678224767
 10
151.2346883277522
 20
-32.84162155684813
 10
150.0498403173519
 20
-32.92569683584766
 10
148.8570673823524
 20
-32.9537845300482
 10
147.6642944473523
 20
-32.92569683584766
 10
146.479446436952
 20
-32.84162155684813
 10
145.3103969092524
 20
-32.70211678224767
 10
144.1649127382524
 20
-32.50810936564779
 10
143.0506053813521
 20
-32.26088808204807
 10
141.9748775373523
 20
-31.96209716534777
 10
140.9448796825521
 20
-31.61372034074776
 10
139.9674534358523
 20
-31.21807246124757
 10
139.0490946802524
 20
-30.7777827800479
  0
SPLINE
  5
240
330
70
100
AcDbEntity
  8
0
 62
    18
420
        0
370
    25
100
AcDbSpline
210
0.0
220
0.0
230
1.0
 70
     8
 71
     3
 72
     8
 73
     4
 74
     0
 42
0.0000000001
 43
0.0000000001
 40
0.0
 40
0.0
 40
0.0
 40
0.0
 40
1.0
 40
1.0
 40
1.0
 40
1.0
 10
174.5957539583022
 20
-21.58069639847115
 30
0.0
 10
174.6559416305782
 20
-21.55045579856456
 30
0.0
 10
174.7036508188193
 20
-21.50010843682664
 30
0.0
 10
174.7306113611915
 20
-21.43838178997389
 30
0.0
  0
LINE
  5
241
330
70
100
AcDbEntity
  8
0
 62
    18
420
        0
370
    25
100
AcDbLine
 10
159.4636682045523
 20
-30.31626356234802
 30
0.0
 11
174.5957539583523
 21
-21.58069639844804
 31
0.0
  0
SPLINE
  5
242
330
70
100
AcDbEntity
  8
0
 62
    18
420
        0
370
    25
100
AcDbSpline
210
0.0
220
0.0
230
1.0
 70
     8
 71
     3
 72
     8
 73
     4
 74
     0
 42
0.0000000001
 43
0.0000000001
 40
0.0
 40
0.0
 40
0.0
 40
0.0
 40
1.0
 40
1.0
 40
1.0
 40
1.0
 10
159.2171453607016
 20
-30.39411508387535
 30
0.0
 10
159.3035727283578
 20
-30.38431226115581
 30
0.0
 10
159.3872861651052
 20
-30.35787569111977
 30
0.0
 10
159.4636682045426
 20
-30.31626356230374
 30
0.0
  0
LINE
  5
243
330
70
100
AcDbEntity
  8
0
 62
    18
420
        0
370
    25
100
AcDbLine
 10
123.1183808063519
 20
-21.58069639844804
 30
0.0
 11
138.2504665601519
 21
-30.31626356234802
 31
0.0
  0
SPLINE
  5
244
330
70
100
AcDbEntity
  8
0
 62
    18
420
        0
370
    25
100
AcDbSpline
210
0.0
220
0.0
230
1.0
 70
     8
 71
     3
 72
     8
 73
     4
 74
     0
 42
0.0000000001
 43
0.0000000001
 40
0.0
 40
0.0
 40
0.0
 40
0.0
 40
1.0
 40
1.0
 40
1.0
 40
1.0
 10
122.9835234034132
 20
-21.43838178997324
 30
0.0
 10
123.0104839457855
 20
-21.50010843682664
 30
0.0
 10
123.0581931340259
 20
-21.55045579856393
 30
0.0
 10
123.1183808063018
 20
-21.58069639847115
 30
0.0
  0
SPLINE
  5
245
330
70
100
AcDbEntity
  8
0
 62
    18
420
        0
370
    25
100
AcDbSpline
210
0.0
220
0.0
230
1.0
 70
     8
 71
     3
 72
     8
 73
     4
 74
     0
 42
0.0000000001
 43
0.0000000001
 40
0.0
 40
0.0
 40
0.0
 40
0.0
 40
1.0
 40
1.0
 40
1.0
 40
1.0
 10
138.2504665601615
 20
-30.31626356230439
 30
0.0
 10
138.326848599599
 20
-30.35787569112041
 30
0.0
 10
138.4105620363464
 20
-30.38431226115644
 30
0.0
 10
138.4969894040025
 20
-30.394115083876
 30
0.0
  0
SPLINE
  5
246
330
70
100
AcDbEntity
  8
0
 62
    18
420
        0
370
    25
100
AcDbSpline
210
0.0
220
0.0
230
1.0
 70
     8
 71
     3
 72
     8
 73
     4
 74
     0
 42
0.0000000001
 43
0.0000000001
 40
0.0
 40
0.0
 40
0.0
 40
0.0
 40
1.0
 40
1.0
 40
1.0
 40
1.0
 10
159.0550064343926
 20
-30.70524945175407
 30
0.0
 10
158.9208884315265
 20
-30.69447458696483
 30
0.0
 10
158.7863144079851
 20
-30.71950521289027
 30
0.0
 10
158.6650400843677
 20
-30.77778278005945
 30
0.0
  0
SPLINE
  5
247
330
70
100
AcDbEntity
  8
0
 62
    18
420
        0
370
    25
100
AcDbSpline
210
0.0
220
0.0
230
1.0
 70
     8
 71
     3
 72
     8
 73
     4
 74
     0
 42
0.0000000001
 43
0.0000000001
 40
0.0
 40
0.0
 40
0.0
 40
0.0
 40
1.0
 40
1.0
 40
1.0
 40
1.0
 10
139.0490946802364
 20
-30.77778278005945
 30
0.0
 10
138.9278203566196
 20
-30.71950521288963
 30
0.0
 10
138.7932463330776
 20
-30.69447458696483
 30
0.0
 10
138.6591283302121
 20
-30.70524945175407
 30
0.0
  0
LINE
  5
248
330
70
100
AcDbEntity
  8
0
 62
    18
420
        0
370
    25
100
AcDbLine
 10
159.4636682045523
 20
-30.31626356234802
 30
0.0
 11
159.4636682045523
 21
-30.62246636944806
 31
0.0
  0
SPLINE
  5
249
330
70
100
AcDbEntity
  8
0
 62
    18
420
        0
370
    25
100
AcDbSpline
210
0.0
220
0.0
230
1.0
 70
     8
 71
     3
 72
     8
 73
     4
 74
     0
 42
0.0000000001
 43
0.0000000001
 40
0.0
 40
0.0
 40
0.0
 40
0.0
 40
1.0
 40
1.0
 40
1.0
 40
1.0
 10
159.0550064344529
 20
-30.7052494517329
 30
0.0
 10
159.1963321778559
 20
-30.71715672531836
 30
0.0
 10
159.3381178789278
 20
-30.68843503363861
 30
0.0
 10
159.4636682045157
 20
-30.62246636943138
 30
0.0
  0
LINE
  5
24A
330
70
100
AcDbEntity
  8
0
 62
    18
420
        0
370
    25
100
AcDbLine
 10
138.2504665601519
 20
-30.62246636944806
 30
0.0
 11
138.2504665601519
 21
-30.31626356234802
 31
0.0
  0
SPLINE
  5
24B
330
70
100
AcDbEntity
  8
0
 62
    18
420
        0
370
    25
100
AcDbSpline
210
0.0
220
0.0
230
1.0
 70
     8
 71
     3
 72
     8
 73
     4
 74
     0
 42
0.0000000001
 43
0.0000000001
 40
0.0
 40
0.0
 40
0.0
 40
0.0
 40
1.0
 40
1.0
 40
1.0
 40
1.0
 10
138.2504665601885
 20
-30.62246636943138
 30
0.0
 10
138.376016885777
 20
-30.68843503363925
 30
0.0
 10
138.5178025868483
 20
-30.717156725319
 30
0.0
 10
138.6591283302512
 20
-30.70524945173354
 30
0.0
  0
LINE
  5
24C
330
70
100
AcDbEntity
  8
0
 62
    18
420
        0
370
    25
100
AcDbLine
 10
174.5957539583523
 20
-21.88689920554808
 30
0.0
 11
174.5957539583523
 21
-21.58069639844804
 31
0.0
  0
LINE
  5
24D
330
70
100
AcDbEntity
  8
0
 62
    18
420
        0
370
    25
100
AcDbLine
 10
159.4636682045523
 20
-30.62246636944806
 30
0.0
 11
174.5957539583523
 21
-21.88689920554808
 31
0.0
  0
LINE
  5
24E
330
70
100
AcDbEntity
  8
0
 62
    18
420
        0
370
    25
100
AcDbLine
 10
123.1183808063519
 20
-21.58069639844804
 30
0.0
 11
123.1183808063519
 21
-21.88689920554808
 31
0.0
  0
LINE
  5
24F
330
70
100
AcDbEntity
  8
0
 62
    18
420
        0
370
    25
100
AcDbLine
 10
123.1183808063519
 20
-21.88689920554808
 30
0.0
 11
138.2504665601519
 21
-30.62246636944806
 31
0.0
  0
SPLINE
  5
250
330
70
100
AcDbEntity
  8
0
 62
    18
420
        0
370
    25
100
AcDbSpline
210
0.0
220
0.0
230
1.0
 70
     8
 71
     3
 72
     8
 73
     4
 74
     0
 42
0.0000000001
 43
0.0000000001
 40
0.0
 40
0.0
 40
0.0
 40
0.0
 40
1.0
 40
1.0
 40
1.0
 40
1.0
 10
174.5957539583286
 20
-21.88689920560455
 30
0.0
 10
174.6782717641722
 20
-21.85082835909497
 30
0.0
 10
174.7344588220706
 20
-21.77252159928843
 30
0.0
 10
174.7422017445583
 20
-21.68279790453364
 30
0.0
  0
SPLINE
  5
251
330
70
100
AcDbEntity
  8
0
 62
    18
420
        0
370
    25
100
AcDbSpline
210
0.0
220
0.0
230
1.0
 70
     8
 71
     3
 72
     8
 73
     4
 74
     0
 42
0.0000000001
 43
0.0000000001
 40
0.0
 40
0.0
 40
0.0
 40
0.0
 40
1.0
 40
1.0
 40
1.0
 40
1.0
 10
122.9719330201465
 20
-21.68279790453364
 30
0.0
 10
122.9796759426336
 20
-21.77252159928843
 30
0.0
 10
123.0358630005319
 20
-21.85082835909497
 30
0.0
 10
123.1183808063756
 20
-21.88689920560455
 30
0.0
  0
SPLINE
  5
252
330
70
100
AcDbEntity
  8
0
 62
    18
420
        0
370
    25
100
AcDbSpline
210
0.0
220
0.0
230
1.0
 70
     8
 71
     3
 72
     8
 73
     4
 74
     0
 42
0.0000000001
 43
0.0000000001
 40
0.0
 40
0.0
 40
0.0
 40
0.0
 40
1.0
 40
1.0
 40
1.0
 40
1.0
 10
174.8647990243289
 20
-21.42586100533779
 30
0.0
 10
174.8069010048195
 20
-21.45835497618687
 30
0.0
 10
174.7631907317436
 20
-21.51125979916207
 30
0.0
 10
174.7422010859999
 20
-21.57424768352237
 30
0.0
  0
SPLINE
  5
253
330
70
100
AcDbEntity
  8
0
 62
    18
420
        0
370
    25
100
AcDbSpline
210
0.0
220
0.0
230
1.0
 70
     8
 71
     3
 72
     8
 73
     4
 74
     0
 42
0.0000000001
 43
0.0000000001
 40
0.0
 40
0.0
 40
0.0
 40
0.0
 40
1.0
 40
1.0
 40
1.0
 40
1.0
 10
122.9719336786042
 20
-21.57424768352172
 30
0.0
 10
122.9509440328611
 20
-21.51125979916143
 30
0.0
 10
122.9072337597845
 20
-21.45835497618687
 30
0.0
 10
122.8493357402758
 20
-21.42586100533779
 30
0.0
  0
SPLINE
  5
254
330
70
100
AcDbEntity
  8
0
 62
    18
420
        0
370
    25
100
AcDbSpline
210
0.0
220
0.0
230
1.0
 70
     8
 71
     3
 72
     8
 73
     4
 74
     0
 42
0.0000000001
 43
0.0000000001
 40
0.0
 40
0.0
 40
0.0
 40
0.0
 40
1.0
 40
1.0
 40
1.0
 40
1.0
 10
174.8647990243591
 20
-21.42586100528003
 30
0.0
 10
175.5729491925143
 20
-20.9803249206054
 30
0.0
 10
176.2254122559221
 20
-20.45188899439902
 30
0.0
 10
176.8083541867843
 20
-19.85175753492631
 30
0.0
  0
SPLINE
  5
255
330
70
100
AcDbEntity
  8
0
 62
    18
420
        0
370
    25
100
AcDbSpline
210
0.0
220
0.0
230
1.0
 70
     8
 71
     3
 72
     8
 73
     4
 74
     0
 42
0.0000000001
 43
0.0000000001
 40
0.0
 40
0.0
 40
0.0
 40
0.0
 40
1.0
 40
1.0
 40
1.0
 40
1.0
 10
120.9057805779199
 20
-19.85175753492695
 30
0.0
 10
121.4887225087814
 20
-20.45188899439966
 30
0.0
 10
122.1411855721893
 20
-20.98032492060605
 30
0.0
 10
122.8493357403444
 20
-21.42586100528132
 30
0.0
  0
LWPOLYLINE
  5
256
330
70
100
AcDbEntity
  8
0
 62
    18
420
        0
370
    25
100
AcDbPolyline
 90
       16
 70
     0
 43
0.0
 10
143.023436469152
 20
33.38367696945188
 10
143.665174921252
 20
33.05010699245219
 10
144.3637944967522
 20
32.75708819155184
 10
145.1116462010524
 20
32.50783185985204
 10
145.9005311551524
 20
32.30506837575236
 10
146.7218099136523
 20
32.15101907065191
 10
147.5664828071519
 20
32.0473726579523
 10
148.4252953098519
 20
31.99526394425193
 10
149.2888394548523
 20
31.99526394425193
 10
150.1476519574521
 20
32.0473726579523
 10
150.9923248510519
 20
32.15101907065191
 10
151.8136036094523
 20
32.30506837575236
 10
152.6024885635524
 20
32.50783185985204
 10
153.3503402678519
 20
32.75708819155184
 10
154.048959843352
 20
33.05010699245219
 10
154.6906982955522
 20
33.38367696945188
  0
SPLINE
  5
257
330
70
100
AcDbEntity
  8
0
 62
    18
420
        0
370
    25
100
AcDbSpline
210
0.0
220
0.0
230
1.0
 70
     8
 71
     3
 72
     8
 73
     4
 74
     0
 42
0.0000000001
 43
0.0000000001
 40
0.0
 40
0.0
 40
0.0
 40
0.0
 40
1.0
 40
1.0
 40
1.0
 40
1.0
 10
155.0442510855371
 20
32.77130405486995
 30
0.0
 10
155.0329015992688
 20
33.02074957084508
 30
0.0
 10
154.9010494170297
 20
33.2491248161085
 30
0.0
 10
154.6906982955362
 20
33.38367696943712
 30
0.0
  0
SPLINE
  5
258
330
70
100
AcDbEntity
  8
0
 62
    18
420
        0
370
    25
100
AcDbSpline
210
0.0
220
0.0
230
1.0
 70
     8
 71
     3
 72
     8
 73
     4
 74
     0
 42
0.0000000001
 43
0.0000000001
 40
0.0
 40
0.0
 40
0.0
 40
0.0
 40
1.0
 40
1.0
 40
1.0
 40
1.0
 10
143.023436469168
 20
33.38367696943712
 30
0.0
 10
142.8130853476745
 20
33.2491248161085
 30
0.0
 10
142.6812331654354
 20
33.02074957084508
 30
0.0
 10
142.6698836791671
 20
32.77130405486995
 30
0.0
  0
LINE
  5
259
330
70
100
AcDbEntity
  8
0
 62
    18
420
        0
370
    25
100
AcDbLine
 10
154.6906982955522
 20
33.38367696945188
 30
0.0
 11
169.8051060805525
 21
42.10903885915199
 31
0.0
  0
LINE
  5
25A
330
70
100
AcDbEntity
  8
0
 62
    18
420
        0
370
    25
100
AcDbLine
 10
127.9090286841524
 20
42.10903885915199
 30
0.0
 11
143.023436469152
 21
33.38367696945188
 31
0.0
  0
LWPOLYLINE
  5
25B
330
70
100
AcDbEntity
  8
0
 62
    18
420
        0
370
    25
100
AcDbPolyline
 90
       16
 70
     0
 43
0.0
 10
127.9090286841524
 20
48.84440574525236
 10
127.3312059277518
 20
48.47393802245212
 10
126.8236274798523
 20
48.07063352605243
 10
126.391856065952
 20
47.63890792665216
 10
126.040621352552
 20
47.18349433645194
 10
125.7737712154523
 20
46.70938020105221
 10
125.5942309091519
 20
46.22176091885195
 10
125.503966189052
 20
45.72597901405219
 10
125.503966189052
 20
45.22746559035216
 10
125.5942309091519
 20
44.73168368555241
 10
125.7737712154523
 20
44.24406440335216
 10
126.040621352552
 20
43.76995026795242
 10
126.391856065952
 20
43.31453667765209
 10
126.8236274798523
 20
42.88281107835192
 10
127.3312059277525
 20
42.47950658195224
 10
127.9090286841524
 20
42.10903885915199
  0
LINE
  5
25C
330
70
100
AcDbEntity
  8
0
 62
    18
420
        0
370
    25
100
AcDbLine
 10
143.023436469152
 20
57.56976763495185
 30
0.0
 11
127.9090286841524
 21
48.84440574525236
 31
0.0
  0
LWPOLYLINE
  5
25D
330
70
100
AcDbEntity
  8
0
 62
    18
420
        0
370
    25
100
AcDbPolyline
 90
       16
 70
     0
 43
0.0
 10
154.6906982955522
 20
57.56976763495185
 10
154.048959843352
 20
57.90333761195218
 10
153.3503402678519
 20
58.19635641285188
 10
152.6024885635524
 20
58.44561274455233
 10
151.8136036094523
 20
58.648376228652
 10
150.9923248510519
 20
58.80242553375182
 10
150.1476519574521
 20
58.90607194645205
 10
149.2888394548523
 20
58.95818066015245
 10
148.4252953098519
 20
58.95818066015245
 10
147.5664828071519
 20
58.90607194645205
 10
146.7218099136523
 20
58.80242553375182
 10
145.9005311551524
 20
58.648376228652
 10
145.1116462010524
 20
58.44561274455233
 10
144.3637944967522
 20
58.19635641285188
 10
143.665174921252
 20
57.90333761195218
 10
143.023436469152
 20
57.56976763495185
  0
LINE
  5
25E
330
70
100
AcDbEntity
  8
0
 62
    18
420
        0
370
    25
100
AcDbLine
 10
169.8051060805525
 20
48.84440574525236
 30
0.0
 11
154.6906982955522
 21
57.56976763495185
 31
0.0
  0
LWPOLYLINE
  5
25F
330
70
100
AcDbEntity
  8
0
 62
    18
420
        0
370
    25
100
AcDbPolyline
 90
       16
 70
     0
 43
0.0
 10
169.8051060805525
 20
42.10903885915199
 10
170.3829288369524
 20
42.47950658195224
 10
170.8905072847524
 20
42.88281107835192
 10
171.3222786987522
 20
43.31453667765209
 10
171.6735134120521
 20
43.76995026795242
 10
171.9403635492519
 20
44.24406440335216
 10
172.1199038555523
 20
44.73168368555241
 10
172.2101685756522
 20
45.22746559035216
 10
172.2101685756522
 20
45.72597901405219
 10
172.1199038555523
 20
46.22176091885195
 10
171.9403635492519
 20
46.70938020105221
 10
171.6735134120521
 20
47.18349433645194
 10
171.3222786987522
 20
47.63890792665216
 10
170.8905072847524
 20
48.07063352605243
 10
170.3829288369524
 20
48.47393802245212
 10
169.8051060805525
 20
48.84440574525236
  0
SPLINE
  5
260
330
70
100
AcDbEntity
  8
0
 62
    18
420
        0
370
    25
100
AcDbSpline
210
0.0
220
0.0
230
1.0
 70
     8
 71
     3
 72
     8
 73
     4
 74
     0
 42
0.0000000001
 43
0.0000000001
 40
0.0
 40
0.0
 40
0.0
 40
0.0
 40
1.0
 40
1.0
 40
1.0
 40
1.0
 10
170.1586588705367
 20
41.49666594457007
 30
0.0
 10
170.147309384269
 20
41.7461114605452
 30
0.0
 10
170.0154572020299
 20
41.97448670580863
 30
0.0
 10
169.8051060805364
 20
42.1090388591366
 30
0.0
  0
LINE
  5
261
330
70
100
AcDbEntity
  8
0
 62
    18
420
        0
370
    25
100
AcDbLine
 10
170.1586588705521
 20
41.49666594465221
 30
0.0
 11
155.0442510855519
 21
32.77130405485198
 31
0.0
  0
LINE
  5
262
330
70
100
AcDbEntity
  8
0
 62
    18
420
        0
370
    25
100
AcDbLine
 10
142.6698836791524
 20
32.77130405485198
 30
0.0
 11
127.5554758941521
 21
41.49666594465221
 31
0.0
  0
SPLINE
  5
263
330
70
100
AcDbEntity
  8
0
 62
    18
420
        0
370
    25
100
AcDbSpline
210
0.0
220
0.0
230
1.0
 70
     8
 71
     3
 72
     8
 73
     4
 74
     0
 42
0.0000000001
 43
0.0000000001
 40
0.0
 40
0.0
 40
0.0
 40
0.0
 40
1.0
 40
1.0
 40
1.0
 40
1.0
 10
127.9090286840683
 20
42.1090388591366
 30
0.0
 10
127.6986775625748
 20
41.97448670580863
 30
0.0
 10
127.5668253803351
 20
41.7461114605452
 30
0.0
 10
127.5554758940674
 20
41.49666594457007
 30
0.0
  0
SPLINE
  5
264
330
70
100
AcDbEntity
  8
0
 62
    18
420
        0
370
    25
100
AcDbSpline
210
0.0
220
0.0
230
1.0
 70
     8
 71
     3
 72
     8
 73
     4
 74
     0
 42
0.0000000001
 43
0.0000000001
 40
0.0
 40
0.0
 40
0.0
 40
0.0
 40
1.0
 40
1.0
 40
1.0
 40
1.0
 10
119.9398380303088
 20
41.40617742352072
 30
0.0
 10
120.8163932555778
 20
40.11441453985248
 30
0.0
 10
121.9916506103783
 20
39.05318746128145
 30
0.0
 10
123.365867759348
 20
38.31256094403677
 30
0.0
  0
LINE
  5
265
330
70
100
AcDbEntity
  8
0
 62
    18
420
        0
370
    25
100
AcDbLine
 10
123.3658677593519
 20
38.31256094405218
 30
0.0
 11
138.3918870176523
 21
29.63822466465238
 31
0.0
  0
LWPOLYLINE
  5
266
330
70
100
AcDbEntity
  8
0
 62
    18
420
        0
370
    25
100
AcDbPolyline
 90
       21
 70
     0
 43
0.0
 10
138.3918870176523
 20
29.63822466465238
 10
139.2452362350522
 20
29.18284414915239
 10
140.1578458971521
 20
28.76751868845198
 10
141.1240887410522
 20
28.39480796465234
 10
142.1380082316519
 20
28.06701162415227
 10
143.193352806052
 20
27.7861495082522
 10
144.2836153858521
 20
27.55395252935209
 10
145.4020768414522
 20
27.37185430725219
 10
146.5418382606523
 20
27.2409755820523
 10
147.6958729735519
 20
27.1621245944522
 10
148.8570673823524
 20
27.13578720135196
 10
150.0182617910522
 20
27.1621245944522
 10
151.1722965039518
 20
27.2409755820523
 10
152.3120579231519
 20
27.37185430725219
 10
153.4305193788521
 20
27.55395252935209
 10
154.5207819586521
 20
27.7861495082522
 10
155.5761265330523
 20
28.06701162415227
 10
156.590046023652
 20
28.39480796465234
 10
157.5562888675521
 20
28.76751868845198
 10
158.468898529652
 20
29.18284414915239
 10
159.3222477470519
 20
29.63822466465238
  0
LINE
  5
267
330
70
100
AcDbEntity
  8
0
 62
    18
420
        0
370
    25
100
AcDbLine
 10
159.3222477470519
 20
29.63822466465238
 30
0.0
 11
174.3482670053523
 21
38.31256094405218
 31
0.0
  0
SPLINE
  5
268
330
70
100
AcDbEntity
  8
0
 62
    18
420
        0
370
    25
100
AcDbSpline
210
0.0
220
0.0
230
1.0
 70
     8
 71
     3
 72
     8
 73
     4
 74
     0
 42
0.0000000001
 43
0.0000000001
 40
0.0
 40
0.0
 40
0.0
 40
0.0
 40
1.0
 40
1.0
 40
1.0
 40
1.0
 10
174.3482670053561
 20
38.31256094403677
 30
0.0
 10
175.7224841543259
 20
39.05318746128145
 30
0.0
 10
176.8977415091264
 20
40.11441453985248
 30
0.0
 10
177.7742967343954
 20
41.40617742352072
 30
0.0
  0
LWPOLYLINE
  5
269
330
70
100
AcDbEntity
  8
0
 62
    18
420
        0
370
    25
100
AcDbPolyline
 90
       12
 70
     0
 43
0.0
 10
174.489688121352
 20
38.23092027155218
 10
175.2891756419521
 20
38.73020543965214
 10
176.0183418044524
 20
39.26416246025223
 10
176.6726887497524
 20
39.8295013450519
 10
177.2481842098524
 20
40.42273403775211
 10
177.7412786297522
 20
41.04020406635182
 10
178.1489348023521
 20
41.67810517235206
 10
178.468635770552
 20
42.33250412075219
 10
178.6984124860523
 20
42.99936579055243
 10
178.8368464441523
 20
43.67457902735205
 10
178.8830854882523
 20
44.35398097335244
 10
178.8745020191521
 20
44.64688572335183
  0
LINE
  5
26A
330
70
100
AcDbEntity
  8
0
 62
    18
420
        0
370
    25
100
AcDbLine
 10
159.4636688630523
 20
29.55658399215238
 30
0.0
 11
174.489688121352
 21
38.23092027155218
 31
0.0
  0
LWPOLYLINE
  5
26B
330
70
100
AcDbEntity
  8
0
 62
    18
420
        0
370
    25
100
AcDbPolyline
 90
       21
 70
     0
 43
0.0
 10
138.2504659016519
 20
29.55658399215238
 10
139.1153468919519
 20
29.09504967055184
 10
140.0402877998521
 20
28.67411100485208
 10
141.0195895813524
 20
28.296364553852
 10
142.0472100905523
 20
27.96413809645212
 10
143.1168154461522
 20
27.67948074685193
 10
144.2218123008519
 20
27.44414584765184
 10
145.3553873529524
 20
27.2595864072523
 10
146.5105508111519
 20
27.12693913285192
 10
147.6801811750522
 20
27.04702290985243
 10
148.8570673823524
 20
27.02032967795195
 10
150.033953589652
 20
27.04702290985243
 10
151.2035839535523
 20
27.12693913285192
 10
152.3587474117524
 20
27.2595864072523
 10
153.4923224638523
 20
27.44414584765184
 10
154.5973193184519
 20
27.67948074685193
 10
155.6669246741519
 20
27.96413809645212
 10
156.6945451832523
 20
28.296364553852
 10
157.673846964752
 20
28.67411100485208
 10
158.5987878727523
 20
29.09504967055184
 10
159.4636688630523
 20
29.55658399215238
  0
LINE
  5
26C
330
70
100
AcDbEntity
  8
0
 62
    18
420
        0
370
    25
100
AcDbLine
 10
123.2244466433522
 20
38.23092027155218
 30
0.0
 11
138.2504659016519
 21
29.55658399215238
 31
0.0
  0
LWPOLYLINE
  5
26D
330
70
100
AcDbEntity
  8
0
 62
    18
420
        0
370
    25
100
AcDbPolyline
 90
       12
 70
     0
 43
0.0
 10
118.839632745552
 20
44.64688572335183
 10
118.8310492763524
 20
44.35398097335244
 10
118.8772883204524
 20
43.67457902735205
 10
119.0157222785524
 20
42.99936579055243
 10
119.2454989941522
 20
42.33250412075219
 10
119.565199962252
 20
41.67810517235206
 10
119.9728561348519
 20
41.04020406635182
 10
120.4659505548524
 20
40.42273403775211
 10
121.0414460149525
 20
39.8295013450519
 10
121.6957929601523
 20
39.26416246025223
 10
122.4249591226519
 20
38.73020543965214
 10
123.2244466433522
 20
38.23092027155218
  0
LINE
  5
26E
330
70
100
AcDbEntity
  8
0
 62
    18
420
        0
370
    25
100
AcDbLine
 10
138.2504659016519
 20
29.55658399215238
 30
0.0
 11
138.2504659016519
 21
-30.255033057948
 31
0.0
  0
LINE
  5
26F
330
70
100
AcDbEntity
  8
0
 62
    18
420
        0
370
    25
100
AcDbLine
 10
159.4636688630523
 20
29.55658399215238
 30
0.0
 11
159.4636688630523
 21
-30.255033057948
 31
0.0
  0
LWPOLYLINE
  5
270
330
70
100
AcDbEntity
  8
0
 62
    18
420
        0
370
    25
100
AcDbPolyline
 90
       21
 70
     0
 43
0.0
 10
138.2504659016519
 20
-30.255033057948
 10
139.1153468919519
 20
-30.716567379648
 10
140.0402877998521
 20
-31.13750604524766
 10
141.0195895813524
 20
-31.51525249624774
 10
142.0472100905523
 20
-31.84747895374773
 10
143.1168154461522
 20
-32.1321363032478
 10
144.2218123008519
 20
-32.3674712024479
 10
145.3553873529524
 20
-32.55203064284808
 10
146.5105508111519
 20
-32.68467791724782
 10
147.6801811750522
 20
-32.76459414024795
 10
148.8570673823524
 20
-32.7912873722479
 10
150.033953589652
 20
-32.76459414024795
 10
151.2035839535523
 20
-32.68467791724782
 10
152.3587474117524
 20
-32.55203064284808
 10
153.4923224638523
 20
-32.3674712024479
 10
154.5973193184519
 20
-32.1321363032478
 10
155.6669246741519
 20
-31.84747895374773
 10
156.6945451832523
 20
-31.51525249624774
 10
157.673846964752
 20
-31.13750604524766
 10
158.5987878727523
 20
-30.716567379648
 10
159.4636688630523
 20
-30.255033057948
  0
LINE
  5
271
330
70
100
AcDbEntity
  8
0
 62
    18
420
        0
370
    25
100
AcDbLine
 10
174.489688121352
 20
38.23092027155218
 30
0.0
 11
174.489688121352
 21
-21.58069677864766
 31
0.0
  0
LINE
  5
272
330
70
100
AcDbEntity
  8
0
 62
    18
420
        0
370
    25
100
AcDbLine
 10
159.4636688630523
 20
-30.255033057948
 30
0.0
 11
174.489688121352
 21
-21.58069677864766
 31
0.0
  0
LINE
  5
273
330
70
100
AcDbEntity
  8
0
 62
    18
420
        0
370
    25
100
AcDbLine
 10
123.2244466433522
 20
38.23092027155218
 30
0.0
 11
123.2244466433522
 21
-21.58069677864766
 31
0.0
  0
LINE
  5
274
330
70
100
AcDbEntity
  8
0
 62
    18
420
        0
370
    25
100
AcDbLine
 10
123.2244466433522
 20
-21.58069677864766
 30
0.0
 11
138.2504659016519
 21
-30.255033057948
 31
0.0
  0
LWPOLYLINE
  5
275
330
70
100
AcDbEntity
  8
0
 62
    18
420
        0
370
    25
100
AcDbPolyline
 90
       11
 70
     0
 43
0.0
 10
174.489688121352
 20
-21.58069677864766
 10
175.2891756419521
 20
-21.08141161044759
 10
176.0183418044524
 20
-20.54745458994761
 10
176.6726887497524
 20
-19.98211570504783
 10
177.2481842098524
 20
-19.38888301244773
 10
177.7412786297522
 20
-18.77141298384801
 10
178.1489348023521
 20
-18.13351187774768
 10
178.468635770552
 20
-17.47911292944765
 10
178.6984124860523
 20
-16.81225125954794
 10
178.8368464441523
 20
-16.13703802284779
 10
178.8830854882523
 20
-15.45763607684805
  0
LWPOLYLINE
  5
276
330
70
100
AcDbEntity
  8
0
 62
    18
420
        0
370
    25
100
AcDbPolyline
 90
       11
 70
     0
 43
0.0
 10
118.8310492763524
 20
-15.45763607684805
 10
118.8772883204524
 20
-16.13703802284779
 10
119.0157222785524
 20
-16.81225125954794
 10
119.2454989941522
 20
-17.47911292944765
 10
119.565199962252
 20
-18.13351187774768
 10
119.9728561348519
 20
-18.77141298384801
 10
120.4659505548524
 20
-19.38888301244773
 10
121.0414460149525
 20
-19.98211570504783
 10
121.6957929601523
 20
-20.54745458994761
 10
122.4249591226519
 20
-21.08141161044759
 10
123.2244466433522
 20
-21.58069677864766
  0
LWPOLYLINE
  5
277
330
70
100
AcDbEntity
  8
0
 62
    18
420
        0
370
    25
100
AcDbPolyline
 90
       21
 70
     0
 43
0.0
 10
138.4848642825519
 20
30.64809742545211
 10
139.1972388771523
 20
30.27314332055227
 10
140.114405667152
 20
29.85574365425224
 10
141.085473666652
 20
29.48117200005223
 10
142.104456706052
 20
29.15173902915189
 10
143.165070953552
 20
28.86947408725183
 10
144.2607783793519
 20
28.63611835125242
 10
145.3848229753522
 20
28.45311000295215
 10
146.5302755362524
 20
28.32157814635227
 10
147.6900738306519
 20
28.24233330295241
 10
148.8570673823524
 20
28.21586437115213
 10
150.0240609340523
 20
28.24233330295241
 10
151.1838592284524
 20
28.32157814635227
 10
152.3293117892519
 20
28.45311000295215
 10
153.4533563852522
 20
28.63611835125242
 10
154.5490638110521
 20
28.86947408725183
 10
155.6096780586522
 20
29.15173902915189
 10
156.6286610979521
 20
29.48117200005223
 10
157.5997290974521
 20
29.85574365425224
 10
158.5168958875518
 20
30.27314332055227
 10
158.8862405748525
 20
30.46144515105238
  0
SPLINE
  5
278
330
70
100
AcDbEntity
  8
0
 62
    18
420
        0
370
    25
100
AcDbSpline
210
0.0
220
0.0
230
1.0
 70
     8
 71
     3
 72
     8
 73
     4
 74
     0
 42
0.0000000001
 43
0.0000000001
 40
0.0
 40
0.0
 40
0.0
 40
0.0
 40
1.0
 40
1.0
 40
1.0
 40
1.0
 10
159.4628904634498
 20
30.57681408980137
 30
0.0
 10
159.460383078741
 20
30.63950734029751
 30
0.0
 10
159.4273760613372
 20
30.69701228316839
 30
0.0
 10
159.3745058879444
 20
30.73079801094373
 30
0.0
  0
LWPOLYLINE
  5
279
330
70
100
AcDbEntity
  8
0
 62
    18
420
        0
370
    25
100
AcDbPolyline
 90
       21
 70
     0
 43
0.0
 10
159.4628904634523
 20
30.57681408975196
 10
158.5980733519521
 20
30.11531360325217
 10
157.6731996154524
 20
29.69440611145217
 10
156.693970932452
 20
29.31668665255193
 10
155.6664248388521
 20
28.98448490615234
 10
154.5968978499523
 20
28.69984846595215
 10
153.4919813377524
 20
28.46453105455182
 10
152.3584905793519
 20
28.27998530015217
 10
151.203412731952
 20
28.14734791015204
 10
150.0338679788518
 20
28.06743700965208
 10
148.8570673823524
 20
28.04074453795191
 10
147.6802667858523
 20
28.06743700965208
 10
146.5107220326521
 20
28.14734791015204
 10
145.3556441852521
 20
28.27998530015217
 10
144.2221534268523
 20
28.46453105455182
 10
143.1172369146524
 20
28.69984846595215
 10
142.047709925752
 20
28.98448490615234
 10
141.0201638321521
 20
29.31668665255193
 10
140.0409351491523
 20
29.69440611145217
 10
139.1160614127521
 20
30.11531360325217
 10
138.2512443012518
 20
30.57681408975196
  0
SPLINE
  5
27A
330
70
100
AcDbEntity
  8
0
 62
    18
420
        0
370
    25
100
AcDbSpline
210
0.0
220
0.0
230
1.0
 70
     8
 71
     3
 72
     8
 73
     4
 74
     0
 42
0.0000000001
 43
0.0000000001
 40
0.0
 40
0.0
 40
0.0
 40
0.0
 40
1.0
 40
1.0
 40
1.0
 40
1.0
 10
138.3396288767598
 20
30.73079801094373
 30
0.0
 10
138.2867587033676
 20
30.69701228316839
 30
0.0
 10
138.2537516859632
 20
30.63950734029751
 30
0.0
 10
138.2512443012551
 20
30.57681408980137
 30
0.0
  0
LWPOLYLINE
  5
27B
330
70
100
AcDbEntity
  8
0
 62
    18
420
        0
370
    25
100
AcDbPolyline
 90
       21
 70
     0
 43
0.0
 10
159.4574983010521
 20
29.86634504405211
 10
158.593119780152
 20
29.4050795023519
 10
157.6687169030519
 20
28.98438604605223
 10
156.6899867381523
 20
28.60685857285238
 10
155.662962870352
 20
28.27482600185197
 10
154.5939791807522
 20
27.99033288565202
 10
153.4896250655524
 20
27.75513636815225
 10
152.3567098750523
 20
27.57068413555199
 10
151.2022181322523
 20
27.43811441575208
 10
150.0332687033522
 20
27.35824457355212
 10
148.8570673823524
 20
27.33156654835184
 10
147.680866061352
 20
27.35824457355212
 10
146.5119166324519
 20
27.43811441575208
 10
145.3574248896519
 20
27.57068413555199
 10
144.2245096991518
 20
27.75513636815225
 10
143.120155583952
 20
27.99033288565202
 10
142.0511718942521
 20
28.27482600185197
 10
141.0241480264525
 20
28.60685857285238
 10
140.0454178616523
 20
28.98438604605223
 10
139.1210149844521
 20
29.4050795023519
 10
138.2566364636521
 20
29.86634504405211
  0
LINE
  5
27C
330
70
100
AcDbEntity
  8
0
 62
    18
420
        0
370
    25
100
AcDbLine
 10
138.2566364636521
 20
29.86634504405211
 30
0.0
 11
138.2512443012518
 21
30.57681408975196
 31
0.0
  0
LINE
  5
27D
330
70
100
AcDbEntity
  8
0
 62
    18
420
        0
370
    25
100
AcDbLine
 10
159.4628904634523
 20
30.57681408975196
 30
0.0
 11
159.4574983010521
 21
29.86634504405211
 31
0.0
  0
LINE
  5
27E
330
70
100
AcDbEntity
  8
0
 62
    18
420
        0
370
    25
100
AcDbLine
 10
123.3136096184524
 20
39.4051342902524
 30
0.0
 11
138.3396288767521
 21
30.73079801095207
 31
0.0
  0
LWPOLYLINE
  5
27F
330
70
100
AcDbEntity
  8
0
 62
    18
420
        0
370
    25
100
AcDbPolyline
 90
       21
 70
     0
 43
0.0
 10
123.3136096184524
 20
51.54831031405186
 10
122.5208425444521
 20
51.05322259915232
 10
121.7978067728523
 20
50.52375348125203
 10
121.1489593327519
 20
49.96316785755237
 10
120.5783028576521
 20
49.37492147015213
 10
120.089352658352
 20
48.76264189775224
 10
119.6851248684522
 20
48.13010346475229
 10
119.3681107618521
 20
47.4812063316522
 10
119.1402662159522
 20
46.81995064355198
 10
119.002995247452
 20
46.15041333965203
 10
118.9571447446523
 20
45.47672230215213
 10
119.002995247452
 20
44.80303126475233
 10
119.1402662159522
 20
44.13349396085239
 10
119.3681107618521
 20
43.47223827265205
 10
119.6851248684522
 20
42.82334113955196
 10
120.089352658352
 20
42.19080270665211
 10
120.5783028576521
 20
41.57852313425224
 10
121.1489593327519
 20
40.990276746852
 10
121.7978067728523
 20
40.42969112315232
 10
122.5208425444521
 20
39.90022200525205
 10
123.3136096184524
 20
39.4051342902524
  0
LINE
  5
280
330
70
100
AcDbEntity
  8
0
 62
    18
420
        0
370
    25
100
AcDbLine
 10
138.3396288767521
 20
60.22264659345229
 30
0.0
 11
123.3136096184524
 21
51.54831031405186
 31
0.0
  0
LWPOLYLINE
  5
281
330
70
100
AcDbEntity
  8
0
 62
    18
420
        0
370
    25
100
AcDbPolyline
 90
       18
 70
     0
 43
0.0
 10
155.8906414631521
 20
61.71687337845177
 10
155.6096780586522
 20
61.80170557525247
 10
154.5490638110521
 20
62.0839705171519
 10
153.4533563852522
 20
62.31732625315196
 10
152.3293117892519
 20
62.50033460135211
 10
151.1838592284524
 20
62.6318664580521
 10
150.0240609340523
 20
62.71111130135185
 10
148.8570673823524
 20
62.73758023325224
 10
147.6900738306519
 20
62.71111130135185
 10
146.5302755362524
 20
62.6318664580521
 10
145.3848229753522
 20
62.50033460135211
 10
144.2607783793519
 20
62.31732625315196
 10
143.165070953552
 20
62.0839705171519
 10
142.104456706052
 20
61.80170557525247
 10
141.085473666652
 20
61.47227260435213
 10
140.114405667152
 20
61.09770095015213
 10
139.1972388771523
 20
60.68030128375198
 10
138.6062985726522
 20
60.3727839528521
  0
LINE
  5
282
330
70
100
AcDbEntity
  8
0
 62
    18
420
        0
370
    25
100
AcDbLine
 10
174.4005251461524
 20
51.54831031405186
 30
0.0
 11
159.3745058879521
 21
60.22264659345229
 31
0.0
  0
LWPOLYLINE
  5
283
330
70
100
AcDbEntity
  8
0
 62
    18
420
        0
370
    25
100
AcDbPolyline
 90
       21
 70
     0
 43
0.0
 10
174.4005251461524
 20
39.4051342902524
 10
175.193292220152
 20
39.90022200525205
 10
175.9163279918519
 20
40.42969112315232
 10
176.5651754319523
 20
40.990276746852
 10
177.135831906952
 20
41.57852313425224
 10
177.6247821063521
 20
42.19080270665211
 10
178.029009896252
 20
42.82334113955196
 10
178.346024002752
 20
43.47223827265205
 10
178.573868548752
 20
44.13349396085239
 10
178.7111395172522
 20
44.80303126475233
 10
178.7569900200519
 20
45.47672230215213
 10
178.7111395172522
 20
46.15041333965203
 10
178.573868548752
 20
46.81995064355198
 10
178.346024002752
 20
47.4812063316522
 10
178.029009896252
 20
48.13010346475229
 10
177.6247821063521
 20
48.76264189775224
 10
177.135831906952
 20
49.37492147015213
 10
176.5651754319523
 20
49.96316785755237
 10
175.9163279918519
 20
50.52375348125203
 10
175.193292220152
 20
51.05322259915232
 10
174.4005251461524
 20
51.54831031405186
  0
LINE
  5
284
330
70
100
AcDbEntity
  8
0
 62
    18
420
        0
370
    25
100
AcDbLine
 10
159.3745058879521
 20
30.73079801095207
 30
0.0
 11
174.4005251461524
 21
39.4051342902524
 31
0.0
  0
LWPOLYLINE
  5
285
330
70
100
AcDbEntity
  8
0
 62
    18
420
        0
370
    25
100
AcDbPolyline
 90
       17
 70
     0
 43
0.0
 10
127.1119837050525
 20
41.59788897635219
 10
126.4857546345521
 20
41.99675879375241
 10
125.9302644395523
 20
42.42914246675184
 10
125.450863794052
 20
42.89087599735212
 10
125.0521677780522
 20
43.37751292115225
 10
124.7380176816521
 20
43.88436612645202
 10
124.5114395167522
 20
44.40655461535199
 10
124.374612407252
 20
44.93904912325218
 10
124.3288580519519
 20
45.47672230215213
 10
124.374612407252
 20
46.01439548115219
 10
124.5114395167522
 20
46.54688998905236
 10
124.7380176816521
 20
47.06907847785223
 10
125.0521677780522
 20
47.57593168325211
 10
125.450863794052
 20
48.06256860705224
 10
125.9302644395523
 20
48.52430213765188
 10
126.4857546345521
 20
48.95668581065195
 10
127.1119837050518
 20
49.35555562805218
  0
LINE
  5
286
330
70
100
AcDbEntity
  8
0
 62
    18
420
        0
370
    25
100
AcDbLine
 10
142.1380029632521
 20
32.92355269705186
 30
0.0
 11
127.1119837050525
 21
41.59788897635219
 31
0.0
  0
LWPOLYLINE
  5
287
330
70
100
AcDbEntity
  8
0
 62
    18
420
        0
370
    25
100
AcDbPolyline
 90
       17
 70
     0
 43
0.0
 10
155.576131801352
 20
32.92355269705186
 10
154.8851941475523
 20
32.5620383496523
 10
154.1362025026521
 20
32.24136068595196
 10
153.3363699046524
 20
31.96460858415214
 10
152.4933986901521
 20
31.73444627325197
 10
151.6154080543519
 20
31.55309128275185
 10
150.7108530501521
 20
31.42229049235206
 10
149.7884455628521
 20
31.34330188335204
 10
148.8570673823524
 20
31.31688845625219
 10
147.925689201752
 20
31.34330188335204
 10
147.003281714552
 20
31.42229049235206
 10
146.0987267103523
 20
31.55309128275185
 10
145.2207360744519
 20
31.73444627325197
 10
144.3777648599523
 20
31.96460858415214
 10
143.577932261952
 20
32.24136068595196
 10
142.8289406170524
 20
32.5620383496523
 10
142.1380029632521
 20
32.92355269705186
  0
LINE
  5
288
330
70
100
AcDbEntity
  8
0
 62
    18
420
        0
370
    25
100
AcDbLine
 10
170.6021510596524
 20
41.59788897635219
 30
0.0
 11
155.576131801352
 21
32.92355269705186
 31
0.0
  0
LWPOLYLINE
  5
289
330
70
100
AcDbEntity
  8
0
 62
    18
420
        0
370
    25
100
AcDbPolyline
 90
       17
 70
     0
 43
0.0
 10
170.6021510596524
 20
49.35555562805218
 10
171.2283801300519
 20
48.95668581065195
 10
171.7838703250524
 20
48.52430213765188
 10
172.2632709705521
 20
48.06256860705224
 10
172.6619669865518
 20
47.57593168325211
 10
172.9761170830521
 20
47.06907847785223
 10
173.202695247952
 20
46.54688998905236
 10
173.3395223574522
 20
46.01439548115219
 10
173.3852767127523
 20
45.47672230215213
 10
173.3395223574522
 20
44.93904912325218
 10
173.202695247952
 20
44.40655461535199
 10
172.9761170830521
 20
43.88436612645202
 10
172.6619669865518
 20
43.37751292115225
 10
172.2632709705521
 20
42.89087599735212
 10
171.7838703250524
 20
42.42914246675184
 10
171.2283801300519
 20
41.99675879375241
 10
170.6021510596524
 20
41.59788897635219
  0
LINE
  5
28A
330
70
100
AcDbEntity
  8
0
 62
    18
420
        0
370
    25
100
AcDbLine
 10
155.576131801352
 20
58.02989190735186
 30
0.0
 11
170.6021510596524
 21
49.35555562805218
 31
0.0
  0
LWPOLYLINE
  5
28B
330
70
100
AcDbEntity
  8
0
 62
    18
420
        0
370
    25
100
AcDbPolyline
 90
       17
 70
     0
 43
0.0
 10
142.1380029632521
 20
58.02989190735186
 10
142.8289406170524
 20
58.39140625465196
 10
143.577932261952
 20
58.7120839184524
 10
144.3777648599523
 20
58.98883602025223
 10
145.2207360744519
 20
59.2189983311524
 10
146.0987267103523
 20
59.40035332155241
 10
147.003281714552
 20
59.5311541119522
 10
147.925689201752
 20
59.61014272095222
 10
148.8570673823524
 20
59.63655614815218
 10
149.7884455628521
 20
59.61014272095222
 10
150.7108530501521
 20
59.5311541119522
 10
151.6154080543519
 20
59.40035332155241
 10
152.4933986901521
 20
59.2189983311524
 10
153.3363699046524
 20
58.98883602025223
 10
154.1362025026521
 20
58.7120839184524
 10
154.8851941475523
 20
58.39140625465196
 10
155.576131801352
 20
58.02989190735186
  0
LINE
  5
28C
330
70
100
AcDbEntity
  8
0
 62
    18
420
        0
370
    25
100
AcDbLine
 10
127.1119837050525
 20
49.35555562805218
 30
0.0
 11
142.1380029632521
 21
58.02989190735186
 31
0.0
  0
LINE
  5
28D
330
70
100
AcDbEntity
  8
0
 62
    18
420
        0
370
    25
100
AcDbLine
 10
174.4889097217521
 20
39.25115036915239
 30
0.0
 11
159.4628904634523
 21
30.57681408975196
 31
0.0
  0
SPLINE
  5
28E
330
70
100
AcDbEntity
  8
0
 62
    18
420
        0
370
    25
100
AcDbSpline
210
0.0
220
0.0
230
1.0
 70
     8
 71
     3
 72
     8
 73
     4
 74
     0
 42
0.0000000001
 43
0.0000000001
 40
0.0
 40
0.0
 40
0.0
 40
0.0
 40
1.0
 40
1.0
 40
1.0
 40
1.0
 10
174.4889097217495
 20
39.25115036910105
 30
0.0
 10
174.4864023370407
 20
39.31384361959784
 30
0.0
 10
174.4533953196369
 20
39.37134856246872
 30
0.0
 10
174.4005251462441
 20
39.40513429024406
 30
0.0
  0
LINE
  5
28F
330
70
100
AcDbEntity
  8
0
 62
    18
420
        0
370
    25
100
AcDbLine
 10
138.2512443012518
 20
30.57681408975196
 30
0.0
 11
123.2252250429521
 21
39.25115036915239
 31
0.0
  0
SPLINE
  5
290
330
70
100
AcDbEntity
  8
0
 62
    18
420
        0
370
    25
100
AcDbSpline
210
0.0
220
0.0
230
1.0
 70
     8
 71
     3
 72
     8
 73
     4
 74
     0
 42
0.0000000001
 43
0.0000000001
 40
0.0
 40
0.0
 40
0.0
 40
0.0
 40
1.0
 40
1.0
 40
1.0
 40
1.0
 10
123.3136096184601
 20
39.40513429024406
 30
0.0
 10
123.2607394450679
 20
39.37134856246872
 30
0.0
 10
123.2277324276635
 20
39.31384361959784
 30
0.0
 10
123.2252250429547
 20
39.25115036910105
 30
0.0
  0
LINE
  5
291
330
70
100
AcDbEntity
  8
0
 62
    18
420
        0
370
    25
100
AcDbLine
 10
174.4835175592524
 20
38.5406813233518
 30
0.0
 11
174.4889097217521
 21
39.25115036915239
 31
0.0
  0
LINE
  5
292
330
70
100
AcDbEntity
  8
0
 62
    18
420
        0
370
    25
100
AcDbLine
 10
174.4835175592524
 20
38.5406813233518
 30
0.0
 11
159.4574983010521
 21
29.86634504405211
 31
0.0
  0
LINE
  5
293
330
70
100
AcDbEntity
  8
0
 62
    18
420
        0
370
    25
100
AcDbLine
 10
123.2252250429521
 20
39.25115036915239
 30
0.0
 11
123.2306172053524
 21
38.5406813233518
 31
0.0
  0
LINE
  5
294
330
70
100
AcDbEntity
  8
0
 62
    18
420
        0
370
    25
100
AcDbLine
 10
123.2306172053524
 20
38.5406813233518
 30
0.0
 11
138.2566364636521
 21
29.86634504405211
 31
0.0
  0
LWPOLYLINE
  5
295
330
70
100
AcDbEntity
  8
0
 62
    18
420
        0
370
    25
100
AcDbPolyline
 90
       21
 70
     0
 43
0.0
 10
174.9655115530524
 20
51.20827744785202
 10
175.2883386319523
 20
50.99712476005192
 10
176.0174507937523
 20
50.4632065167524
 10
176.6717509823524
 20
49.89790983075213
 10
177.2472036370524
 20
49.30472009725186
 10
177.740261837052
 20
48.68729530885217
 10
178.1478877166522
 20
48.04944058345191
 10
178.4675649771521
 20
47.39509029685204
 10
178.6973245705524
 20
46.72827804905238
 10
178.8357493090518
 20
46.05311423435217
 10
178.8819870360523
 20
45.37376171045183
 10
178.8357493090524
 20
44.69440918645203
 10
178.6973245705524
 20
44.01924537175181
 10
178.4675649771521
 20
43.35243312395216
 10
178.1478877166522
 20
42.69808283735229
 10
177.740261837052
 20
42.06022811205213
 10
177.2472036370524
 20
41.44280332355233
 10
176.6717509823524
 20
40.84961359015216
 10
176.0174507937523
 20
40.28431690405244
 10
175.2883386319523
 20
39.75039866085238
 10
175.1224894659524
 20
39.64019280095231
  0
LWPOLYLINE
  5
296
330
70
100
AcDbEntity
  8
0
 62
    18
420
        0
370
    25
100
AcDbPolyline
 90
       21
 70
     0
 43
0.0
 10
122.9547535695522
 20
39.41137781135235
 10
122.4257961327519
 20
39.75039866085238
 10
121.6966839709519
 20
40.28431690405244
 10
121.0423837822523
 20
40.84961359015216
 10
120.4669311275523
 20
41.44280332355233
 10
119.9738729275521
 20
42.06022811205213
 10
119.566247048052
 20
42.69808283735229
 10
119.2465697875521
 20
43.35243312395216
 10
119.0168101941524
 20
44.01924537175181
 10
118.8783854556524
 20
44.69440918645203
 10
118.8321477286519
 20
45.37376171045183
 10
118.8783854556524
 20
46.05311423435217
 10
119.0168101941524
 20
46.72827804905238
 10
119.2465697875521
 20
47.39509029685204
 10
119.566247048052
 20
48.04944058345191
 10
119.9738729275521
 20
48.68729530885217
 10
120.4669311275523
 20
49.30472009725186
 10
121.0423837822523
 20
49.89790983075213
 10
121.6966839709519
 20
50.4632065167524
 10
122.4257961327519
 20
50.99712476005192
 10
122.4943453476521
 20
51.04313137065243
  0
LWPOLYLINE
  5
297
330
70
100
AcDbEntity
  8
0
 62
    18
420
        0
370
    25
100
AcDbPolyline
 90
       11
 70
     0
 43
0.0
 10
178.8740739652521
 20
44.6067842475522
 10
178.8281457541522
 20
43.981173265952
 10
178.6897921384519
 20
43.30635312465235
 10
178.4601497659521
 20
42.6398792278519
 10
178.1406345074518
 20
41.98586120955204
 10
177.7332180450523
 20
41.34833114905227
 10
177.2404081162524
 20
40.73122000055203
 10
176.6652485138524
 20
40.13833174165228
 10
176.0112808902521
 20
39.57332284405242
 10
175.2825394889522
 20
39.03967642205192
 10
174.4835175592524
 20
38.54068132335244
  0
LWPOLYLINE
  5
298
330
70
100
AcDbEntity
  8
0
 62
    18
420
        0
370
    25
100
AcDbPolyline
 90
       11
 70
     0
 43
0.0
 10
123.2306172053524
 20
38.5406813233518
 10
122.4315952756519
 20
39.03967642205192
 10
121.7028538744521
 20
39.57332284405242
 10
121.0488862507523
 20
40.13833174165228
 10
120.4737266483523
 20
40.73122000055203
 10
119.9809167196519
 20
41.34833114905227
 10
119.5735002572523
 20
41.98586120955204
 10
119.253984998652
 20
42.6398792278519
 10
119.0243426261522
 20
43.30635312465235
 10
118.885989010552
 20
43.981173265952
 10
118.8400607994521
 20
44.6067842475522
  0
LINE
  5
299
330
70
100
AcDbEntity
  8
0
 62
    18
420
        0
370
    25
100
AcDbLine
 10
177.5923553747523
 20
41.13480755885239
 30
0.0
 11
177.6133906034518
 21
41.18603237815182
 31
0.0
  0
LINE
  5
29A
330
70
100
AcDbEntity
  8
0
 62
    18
420
        0
370
    25
100
AcDbLine
 10
120.1007441612523
 20
41.18603237815182
 30
0.0
 11
120.1217793898524
 21
41.13480755885239
 31
0.0
  0
LINE
  5
29B
330
70
100
AcDbEntity
  8
0
 62
    18
420
        0
370
    25
100
AcDbLine
 10
177.6157086801523
 20
41.18908259065236
 30
0.0
 11
177.5955479985523
 21
41.13933891235197
 31
0.0
  0
LINE
  5
29C
330
70
100
AcDbEntity
  8
0
 62
    18
420
        0
370
    25
100
AcDbLine
 10
120.1185867661519
 20
41.13933891235197
 30
0.0
 11
120.0984260845519
 21
41.18908259065236
 31
0.0
  0
SPLINE
  5
29D
330
70
100
AcDbEntity
  8
0
 62
    18
420
        0
370
    25
100
AcDbSpline
210
0.0
220
0.0
230
1.0
 70
     8
 71
     3
 72
     8
 73
     4
 74
     0
 42
0.0000000001
 43
0.0000000001
 40
0.0
 40
0.0
 40
0.0
 40
0.0
 40
1.0
 40
1.0
 40
1.0
 40
1.0
 10
172.8507196719755
 20
43.95987599183659
 30
0.0
 10
173.2151346474108
 20
44.77207807514129
 30
0.0
 10
173.2258643282135
 20
45.69914563263984
 30
0.0
 10
172.880344955211
 20
46.51956434362012
 30
0.0
  0
SPLINE
  5
29E
330
70
100
AcDbEntity
  8
0
 62
    18
420
        0
370
    25
100
AcDbSpline
210
0.0
220
0.0
230
1.0
 70
     8
 71
     3
 72
     8
 73
     4
 74
     0
 42
0.0000000001
 43
0.0000000001
 40
0.0
 40
0.0
 40
0.0
 40
0.0
 40
1.0
 40
1.0
 40
1.0
 40
1.0
 10
170.6021510596466
 20
49.35555562803357
 30
0.0
 10
170.497537706357
 20
49.28857804092059
 30
0.0
 10
170.4317027400536
 20
49.17520843884296
 30
0.0
 10
170.4253805915472
 20
49.05115207544203
 30
0.0
  0
SPLINE
  5
29F
330
70
100
AcDbEntity
  8
0
 62
    18
420
        0
370
    25
100
AcDbSpline
210
0.0
220
0.0
230
1.0
 70
     8
 71
     3
 72
     8
 73
     4
 74
     0
 42
0.0000000001
 43
0.0000000001
 40
0.0
 40
0.0
 40
0.0
 40
0.0
 40
1.0
 40
1.0
 40
1.0
 40
1.0
 10
127.288754173157
 20
49.05115207544203
 30
0.0
 10
127.2824320246506
 20
49.17520843884296
 30
0.0
 10
127.2165970583471
 20
49.28857804092124
 30
0.0
 10
127.111983705057
 20
49.35555562803357
 30
0.0
  0
SPLINE
  5
2A0
330
70
100
AcDbEntity
  8
0
 62
    18
420
        0
370
    25
100
AcDbSpline
210
0.0
220
0.0
230
1.0
 70
     8
 71
     3
 72
     8
 73
     4
 74
     0
 42
0.0000000001
 43
0.0000000001
 40
0.0
 40
0.0
 40
0.0
 40
0.0
 40
1.0
 40
1.0
 40
1.0
 40
1.0
 10
124.8462158857803
 20
46.54911455056099
 30
0.0
 10
124.4926443936463
 20
45.73221392285415
 30
0.0
 10
124.4942161805011
 20
44.80516349114854
 30
0.0
 10
124.850555694086
 20
43.98946649675908
 30
0.0
  0
LINE
  5
2A1
330
70
100
AcDbEntity
  8
0
 62
    18
420
        0
370
    25
100
AcDbLine
 10
172.7214750439522
 20
43.83010063195215
 30
0.0
 11
172.7602652911522
 21
43.75261787495214
 31
0.0
  0
LINE
  5
2A2
330
70
100
AcDbEntity
  8
0
 62
    18
420
        0
370
    25
100
AcDbLine
 10
124.9536198851521
 20
43.75210426575187
 30
0.0
 11
124.9926597206519
 21
43.83010063195215
 31
0.0
  0
LINE
  5
2A3
330
70
100
AcDbEntity
  8
0
 62
    18
420
        0
370
    25
100
AcDbLine
 10
170.4253805915523
 20
49.0511520754523
 30
0.0
 11
155.399361333252
 21
57.72548835475198
 31
0.0
  0
SPLINE
  5
2A4
330
70
100
AcDbEntity
  8
0
 62
    18
420
        0
370
    25
100
AcDbSpline
210
0.0
220
0.0
230
1.0
 70
     8
 71
     3
 72
     8
 73
     4
 74
     0
 42
0.0000000001
 43
0.0000000001
 40
0.0
 40
0.0
 40
0.0
 40
0.0
 40
1.0
 40
1.0
 40
1.0
 40
1.0
 10
155.5761318013475
 20
58.02989190733326
 30
0.0
 10
155.4715184480573
 20
57.96291432022092
 30
0.0
 10
155.4056834817538
 20
57.84954471814328
 30
0.0
 10
155.3993613332475
 20
57.72548835474236
 30
0.0
  0
LINE
  5
2A5
330
70
100
AcDbEntity
  8
0
 62
    18
420
        0
370
    25
100
AcDbLine
 10
142.3147734313521
 20
57.72548835475198
 30
0.0
 11
127.2887541731518
 21
49.0511520754523
 31
0.0
  0
SPLINE
  5
2A6
330
70
100
AcDbEntity
  8
0
 62
    18
420
        0
370
    25
100
AcDbSpline
210
0.0
220
0.0
230
1.0
 70
     8
 71
     3
 72
     8
 73
     4
 74
     0
 42
0.0000000001
 43
0.0000000001
 40
0.0
 40
0.0
 40
0.0
 40
0.0
 40
1.0
 40
1.0
 40
1.0
 40
1.0
 10
142.3147734313572
 20
57.72548835474236
 30
0.0
 10
142.3084512828509
 20
57.84954471814264
 30
0.0
 10
142.2426163165474
 20
57.96291432022092
 30
0.0
 10
142.1380029632579
 20
58.02989190733326
 30
0.0
  0
LWPOLYLINE
  5
2A7
330
70
100
AcDbEntity
  8
0
 62
    18
420
        0
370
    25
100
AcDbPolyline
 90
       17
 70
     0
 43
0.0
 10
155.399361333252
 20
57.72548835475198
 10
154.7266008249524
 20
58.07749161775245
 10
153.997314807452
 20
58.38973293675186
 10
153.2185240235523
 20
58.6592040293524
 10
152.3977306124518
 20
58.88331061785213
 10
151.5428397422518
 20
59.05989485935239
 10
150.6620812438519
 20
59.18725473425212
 10
149.7639411217519
 20
59.26416533595211
 10
148.8570673823524
 20
59.28988457325186
 10
147.9501936429522
 20
59.26416533595211
 10
147.0520535207521
 20
59.18725473425212
 10
146.1712950223522
 20
59.05989485935239
 10
145.3164041522524
 20
58.88331061785213
 10
144.4956107411518
 20
58.6592040293524
 10
143.7168199572522
 20
58.38973293675186
 10
142.9875339396523
 20
58.07749161775181
 10
142.3147734313521
 20
57.72548835475198
  0
LINE
  5
2A8
330
70
100
AcDbEntity
  8
0
 62
     8
420
  8421504
370
    25
100
AcDbLine
 10
139.0490946802524
 20
-30.7777827800479
 30
0.0
 11
139.0490946802524
 21
-30.68370872004807
 31
0.0
  0
LINE
  5
2A9
330
70
100
AcDbEntity
  8
0
 62
     8
420
  8421504
370
    25
100
AcDbLine
 10
158.6650400844524
 20
-30.7777827800479
 30
0.0
 11
158.6650400844524
 21
-30.68370872004807
 31
0.0
  0
LINE
  5
2AA
330
70
100
AcDbEntity
  8
0
 62
     8
420
  8421504
370
    25
100
AcDbLine
 10
159.0550064344523
 20
-30.70524945174766
 30
0.0
 11
159.0550064344523
 21
-30.48219009034813
 31
0.0
  0
LINE
  5
2AB
330
70
100
AcDbEntity
  8
0
 62
     8
420
  8421504
370
    25
100
AcDbLine
 10
138.6591283302519
 20
-30.70524945174766
 30
0.0
 11
138.6591283302519
 21
-30.48219009034813
 31
0.0
  0
LINE
  5
2AC
330
70
100
AcDbEntity
  8
0
 62
     8
420
  8421504
370
    25
100
AcDbLine
 10
174.8647990243521
 20
-21.42586100534805
 30
0.0
 11
174.8647990243521
 21
-21.35620531364798
 31
0.0
  0
LINE
  5
2AD
330
70
100
AcDbEntity
  8
0
 62
     8
420
  8421504
370
    25
100
AcDbLine
 10
122.8493357403521
 20
-21.42586100534805
 30
0.0
 11
122.8493357403521
 21
-21.35620531364798
 31
0.0
  0
LINE
  5
2AE
330
70
100
AcDbEntity
  8
0
 62
     8
420
  8421504
370
    25
100
AcDbLine
 10
142.6698836791524
 20
32.71487770835211
 30
0.0
 11
142.6698836791524
 21
32.77130405485198
 31
0.0
  0
LINE
  5
2AF
330
70
100
AcDbEntity
  8
0
 62
     8
420
  8421504
370
    25
100
AcDbLine
 10
155.0442510855519
 20
32.77130405485198
 30
0.0
 11
155.0442510855519
 21
32.71824807985221
 31
0.0
  0
LINE
  5
2B0
330
70
100
AcDbEntity
  8
0
 62
     8
420
  8421504
370
    25
100
AcDbLine
 10
127.5554758941521
 20
41.49666594465221
 30
0.0
 11
127.5554758941521
 21
41.42639917345188
 31
0.0
  0
LINE
  5
2B1
330
70
100
AcDbEntity
  8
0
 62
     8
420
  8421504
370
    25
100
AcDbLine
 10
170.1586588705521
 20
41.42639917345188
 30
0.0
 11
170.1586588705521
 21
41.49666594465221
 31
0.0
  0
SPLINE
  5
2B2
330
70
100
AcDbEntity
  8
0
 62
     8
420
  8421504
370
    25
100
AcDbSpline
210
0.0
220
0.0
230
1.0
 70
     8
 71
     3
 72
     8
 73
     4
 74
     0
 42
0.0000000001
 43
0.0000000001
 40
0.0
 40
0.0
 40
0.0
 40
0.0
 40
1.0
 40
1.0
 40
1.0
 40
1.0
 10
170.0551330397006
 20
48.86913154923189
 30
0.0
 10
169.9736077429848
 20
48.90762598709262
 30
0.0
 10
169.8775123407672
 20
48.89812286756082
 30
0.0
 10
169.8051060805332
 20
48.84440574524594
 30
0.0
  0
LWPOLYLINE
  5
2B3
330
70
100
AcDbEntity
  8
0
 62
     8
420
  8421504
370
    25
100
AcDbPolyline
 90
        9
 70
     0
 43
0.0
 10
172.7214296043518
 20
45.05223759355221
 10
172.7094836070522
 20
44.80408869605184
 10
172.6137483577524
 20
44.27825856215195
 10
172.4233262619523
 20
43.76108641185219
 10
172.140304247352
 20
43.25823867395235
 10
171.7677814242518
 20
42.77522400655191
 10
171.3098420856521
 20
42.3173336110521
 10
170.771501706752
 20
41.88958572675224
 10
170.1586588705521
 20
41.49666594465221
  0
LWPOLYLINE
  5
2B4
330
70
100
AcDbEntity
  8
0
 62
     8
420
  8421504
370
    25
100
AcDbPolyline
 90
        9
 70
     0
 43
0.0
 10
127.5554758941521
 20
41.49666594465221
 10
126.942633057852
 20
41.88958572675224
 10
126.404292678952
 20
42.3173336110521
 10
125.9463533404524
 20
42.77522400655191
 10
125.5738305173522
 20
43.25823867395235
 10
125.2908085026524
 20
43.76108641185219
 10
125.1003864069524
 20
44.27825856215195
 10
125.004651157652
 20
44.80408869605184
 10
124.9927051602522
 20
45.08466454415236
  0
SPLINE
  5
2B5
330
70
100
AcDbEntity
  8
0
 62
     8
420
  8421504
370
    25
100
AcDbSpline
210
0.0
220
0.0
230
1.0
 70
     8
 71
     3
 72
     8
 73
     4
 74
     0
 42
0.0000000001
 43
0.0000000001
 40
0.0
 40
0.0
 40
0.0
 40
0.0
 40
1.0
 40
1.0
 40
1.0
 40
1.0
 10
127.9090286841344
 20
48.84440574525044
 30
0.0
 10
127.8360993746021
 20
48.89664821184304
 30
0.0
 10
127.7408646979624
 20
48.90609065216416
 30
0.0
 10
127.6590965553762
 20
48.86918631146279
 30
0.0
  0
SPLINE
  5
2B6
330
70
100
AcDbEntity
  8
0
 62
     8
420
  8421504
370
    25
100
AcDbSpline
210
0.0
220
0.0
230
1.0
 70
     8
 71
     3
 72
     8
 73
     4
 74
     0
 42
0.0000000001
 43
0.0000000001
 40
0.0
 40
0.0
 40
0.0
 40
0.0
 40
1.0
 40
1.0
 40
1.0
 40
1.0
 10
154.9406778394794
 20
57.59452082009528
 30
0.0
 10
154.8589021850147
 20
57.63145597118673
 30
0.0
 10
154.7636422053869
 20
57.62202324772914
 30
0.0
 10
154.6906982955163
 20
57.56976763499612
 30
0.0
  0
SPLINE
  5
2B7
330
70
100
AcDbEntity
  8
0
 62
     8
420
  8421504
370
    25
100
AcDbSpline
210
0.0
220
0.0
230
1.0
 70
     8
 71
     3
 72
     8
 73
     4
 74
     0
 42
0.0000000001
 43
0.0000000001
 40
0.0
 40
0.0
 40
0.0
 40
0.0
 40
1.0
 40
1.0
 40
1.0
 40
1.0
 10
143.0234364691879
 20
57.56976763499612
 30
0.0
 10
142.9504925593173
 20
57.62202324772914
 30
0.0
 10
142.8552325796901
 20
57.63145597118673
 30
0.0
 10
142.7734569252248
 20
57.59452082009528
 30
0.0
  0
LINE
  5
2B8
330
70
100
AcDbEntity
  8
0
 62
     8
420
  8421504
370
    25
100
AcDbLine
 10
138.3396288767521
 20
30.73079801095207
 30
0.0
 11
138.4848642825519
 21
30.64809742545211
 31
0.0
  0
LINE
  5
2B9
330
70
100
AcDbEntity
  8
0
 62
     8
420
  8421504
370
    25
100
AcDbLine
 10
158.8862405748525
 20
30.46144515105238
 30
0.0
 11
159.3745058879521
 21
30.73079801095207
 31
0.0
  0
SPLINE
  5
2BA
330
70
100
AcDbEntity
  8
0
 62
     8
420
  8421504
370
    25
100
AcDbSpline
210
0.0
220
0.0
230
1.0
 70
     8
 71
     3
 72
     8
 73
     4
 74
     0
 42
0.0000000001
 43
0.0000000001
 40
0.0
 40
0.0
 40
0.0
 40
0.0
 40
1.0
 40
1.0
 40
1.0
 40
1.0
 10
159.3745058879681
 20
60.22264659344459
 30
0.0
 10
158.2718788354078
 20
60.84768307296281
 30
0.0
 10
157.1034828823696
 20
61.34880720285931
 30
0.0
 10
155.8906414631682
 20
61.71687337847809
 30
0.0
  0
LINE
  5
2BB
330
70
100
AcDbEntity
  8
0
 62
     8
420
  8421504
370
    25
100
AcDbLine
 10
138.6062985726522
 20
60.3727839528521
 30
0.0
 11
138.3396288767521
 21
60.22264659345229
 31
0.0
  0
LINE
  5
2BC
330
70
100
AcDbEntity
  8
0
 62
     8
420
  8421504
370
    25
100
AcDbLine
 10
158.8331283017524
 20
29.36847908375215
 30
0.0
 11
158.8343281698518
 21
29.52660148485206
 31
0.0
  0
LINE
  5
2BD
330
70
100
AcDbEntity
  8
0
 62
     8
420
  8421504
370
    25
100
AcDbLine
 10
138.8810064629518
 20
29.36847908375215
 30
0.0
 11
138.8798065948523
 21
29.52660148485206
 31
0.0
  0
SPLINE
  5
2BE
330
70
100
AcDbEntity
  8
0
 62
     8
420
  8421504
370
    25
100
AcDbSpline
210
0.0
220
0.0
230
1.0
 70
     8
 71
     3
 72
     8
 73
     4
 74
     0
 42
0.0000000001
 43
0.0000000001
 40
0.0
 40
0.0
 40
0.0
 40
0.0
 40
1.0
 40
1.0
 40
1.0
 40
1.0
 10
142.2631712008336
 20
32.93582546967309
 30
0.0
 10
142.2224768230207
 20
32.95569002316327
 30
0.0
 10
142.1740639791827
 20
32.95094313340962
 30
0.0
 10
142.13800296329
 20
32.92355269705443
 30
0.0
  0
SPLINE
  5
2BF
330
70
100
AcDbEntity
  8
0
 62
     8
420
  8421504
370
    25
100
AcDbSpline
210
0.0
220
0.0
230
1.0
 70
     8
 71
     3
 72
     8
 73
     4
 74
     0
 42
0.0000000001
 43
0.0000000001
 40
0.0
 40
0.0
 40
0.0
 40
0.0
 40
1.0
 40
1.0
 40
1.0
 40
1.0
 10
155.5761318013994
 20
32.92355269702876
 30
0.0
 10
155.5398312219981
 20
32.95011090463294
 30
0.0
 10
155.4919698742952
 20
32.95485599729304
 30
0.0
 10
155.4511611272081
 20
32.93594259947105
 30
0.0
  0
LINE
  5
2C0
330
70
100
AcDbEntity
  8
0
 62
     8
420
  8421504
370
    25
100
AcDbLine
 10
123.8550833521524
 20
38.03013767725225
 30
0.0
 11
123.8539401188521
 21
38.18084632025207
 31
0.0
  0
LINE
  5
2C1
330
70
100
AcDbEntity
  8
0
 62
     8
420
  8421504
370
    25
100
AcDbLine
 10
173.8590514124523
 20
38.03013767725225
 30
0.0
 11
173.860194645752
 21
38.18084632025207
 31
0.0
  0
SPLINE
  5
2C2
330
70
100
AcDbEntity
  8
0
 62
     8
420
  8421504
370
    25
100
AcDbSpline
210
0.0
220
0.0
230
1.0
 70
     8
 71
     3
 72
     8
 73
     4
 74
     0
 42
0.0000000001
 43
0.0000000001
 40
0.0
 40
0.0
 40
0.0
 40
0.0
 40
1.0
 40
1.0
 40
1.0
 40
1.0
 10
170.6021510596427
 20
41.59788897638876
 30
0.0
 10
170.5658544147478
 20
41.62447916350927
 30
0.0
 10
170.5179673269236
 20
41.62922110396915
 30
0.0
 10
170.4771606291165
 20
41.61026594910748
 30
0.0
  0
SPLINE
  5
2C3
330
70
100
AcDbEntity
  8
0
 62
     8
420
  8421504
370
    25
100
AcDbSpline
210
0.0
220
0.0
230
1.0
 70
     8
 71
     3
 72
     8
 73
     4
 74
     0
 42
0.0000000001
 43
0.0000000001
 40
0.0
 40
0.0
 40
0.0
 40
0.0
 40
1.0
 40
1.0
 40
1.0
 40
1.0
 10
127.2369741355112
 20
41.61026594909336
 30
0.0
 10
127.1963004135008
 20
41.62998555456947
 30
0.0
 10
127.1480000297674
 20
41.62520268815873
 30
0.0
 10
127.1119837049851
 20
41.597888976374
 30
0.0
  0
SPLINE
  5
2C4
330
70
100
AcDbEntity
  8
0
 62
     8
420
  8421504
370
    25
100
AcDbSpline
210
0.0
220
0.0
230
1.0
 70
     8
 71
     3
 72
     8
 73
     4
 74
     0
 42
0.0000000001
 43
0.0000000001
 40
0.0
 40
0.0
 40
0.0
 40
0.0
 40
1.0
 40
1.0
 40
1.0
 40
1.0
 10
174.463014434514
 20
51.55450146262353
 30
0.0
 10
174.4425736574154
 20
51.56374501318634
 30
0.0
 10
174.418754721779
 20
51.56138514364198
 30
0.0
 10
174.4005251461517
 20
51.5483103140878
 30
0.0
  0
LINE
  5
2C5
330
70
100
AcDbEntity
  8
0
 62
     8
420
  8421504
370
    25
100
AcDbLine
 10
175.1224894659524
 20
39.64019280095231
 30
0.0
 11
174.4889097217521
 21
39.25115036915239
 31
0.0
  0
LINE
  5
2C6
330
70
100
AcDbEntity
  8
0
 62
     8
420
  8421504
370
    25
100
AcDbLine
 10
123.2252250429521
 20
39.25115036915239
 30
0.0
 11
122.9547535695522
 21
39.41137781135235
 31
0.0
  0
SPLINE
  5
2C7
330
70
100
AcDbEntity
  8
0
 62
     8
420
  8421504
370
    25
100
AcDbSpline
210
0.0
220
0.0
230
1.0
 70
     8
 71
     3
 72
     8
 73
     4
 74
     0
 42
0.0000000001
 43
0.0000000001
 40
0.0
 40
0.0
 40
0.0
 40
0.0
 40
1.0
 40
1.0
 40
1.0
 40
1.0
 10
123.3136096184524
 20
51.5483103140878
 30
0.0
 10
123.2953800428251
 20
51.56138514364134
 30
0.0
 10
123.2715611071887
 20
51.56374501318634
 30
0.0
 10
123.25112033009
 20
51.55450146262353
 30
0.0
  0
SPLINE
  5
2C8
330
70
100
AcDbEntity
  8
0
 62
     8
420
  8421504
370
    25
100
AcDbSpline
210
0.0
220
0.0
230
1.0
 70
     8
 71
     3
 72
     8
 73
     4
 74
     0
 42
0.0000000001
 43
0.0000000001
 40
0.0
 40
0.0
 40
0.0
 40
0.0
 40
1.0
 40
1.0
 40
1.0
 40
1.0
 10
172.880344955211
 20
46.51956434364386
 30
0.0
 10
172.3615137826309
 20
47.60962195296666
 30
0.0
 10
171.4989826091034
 20
48.49907410528626
 30
0.0
 10
170.4253805915048
 20
49.05115207540738
 30
0.0
  0
SPLINE
  5
2C9
330
70
100
AcDbEntity
  8
0
 62
     8
420
  8421504
370
    25
100
AcDbSpline
210
0.0
220
0.0
230
1.0
 70
     8
 71
     3
 72
     8
 73
     4
 74
     0
 42
0.0000000001
 43
0.0000000001
 40
0.0
 40
0.0
 40
0.0
 40
0.0
 40
1.0
 40
1.0
 40
1.0
 40
1.0
 10
127.2887541730864
 20
49.05115207544781
 30
0.0
 10
126.2252304818515
 20
48.50348633865372
 30
0.0
 10
125.3681314897381
 20
47.62550876431588
 30
0.0
 10
124.846215885702
 20
46.54911455059051
 30
0.0
  0
LINE
  5
2CA
330
70
100
AcDbEntity
  8
0
 62
     8
420
  8421504
370
    25
100
AcDbLine
 10
170.4253805915523
 20
49.0511520754523
 30
0.0
 11
170.4222564563524
 21
48.63594267185236
 31
0.0
  0
LINE
  5
2CB
330
70
100
AcDbEntity
  8
0
 62
     8
420
  8421504
370
    25
100
AcDbLine
 10
127.2887541731518
 20
49.0511520754523
 30
0.0
 11
127.2918440639523
 21
48.6405130505524
 31
0.0
  0
LINE
  5
2CC
330
70
100
AcDbEntity
  8
0
 62
     8
420
  8421504
370
    25
100
AcDbLine
 10
155.399361333252
 20
57.72548835475198
 30
0.0
 11
155.3963965658521
 21
57.33143881615188
 31
0.0
  0
LWPOLYLINE
  5
2CD
330
70
100
AcDbEntity
  8
0
 62
     8
420
  8421504
370
    25
100
AcDbPolyline
 90
       10
 70
     0
 43
0.0
 10
137.0076396327523
 20
54.26598416405223
 10
137.0312398922518
 20
54.30320999705232
 10
137.0726180546521
 20
54.35710644615191
 10
137.1180923639522
 20
54.40394694945214
 10
137.1661140880521
 20
54.44214390195186
 10
137.215046743752
 20
54.47039212285193
 10
137.2632240489524
 20
54.48772968785213
 10
137.3090063924521
 20
54.49357052875227
 10
137.3508351639519
 20
54.48770842025188
 10
137.3747882387519
 20
54.47793454275229
  0
LWPOLYLINE
  5
2CE
330
70
100
AcDbEntity
  8
0
 62
     8
420
  8421504
370
    25
100
AcDbPolyline
 90
       10
 70
     0
 43
0.0
 10
132.2346689005518
 20
51.5106068102524
 10
132.2582689954524
 20
51.54783254815207
 10
132.2996473224522
 20
51.60172909225199
 10
132.3451214671521
 20
51.64856950055188
 10
132.3931433558523
 20
51.68676654815204
 10
132.4420760115521
 20
51.7150147690521
 10
132.4902531521523
 20
51.73235223895187
 10
132.5360356602523
 20
51.73819317495181
 10
132.5778642671524
 20
51.73233097135226
 10
132.6018175065521
 20
51.72255718895183
  0
LINE
  5
2CF
330
70
100
AcDbEntity
  8
0
 62
     8
420
  8421504
370
    25
100
AcDbLine
 10
142.3147734313521
 20
57.72548835475198
 30
0.0
 11
142.317738198752
 21
57.33143881615188
 31
0.0
  0
SPLINE
  5
2D0
330
70
100
AcDbEntity
  8
0
 62
     8
420
  8421504
370
    25
100
AcDbSpline
210
0.0
220
0.0
230
1.0
 70
     8
 71
     3
 72
     8
 73
     4
 74
     0
 42
0.0000000001
 43
0.0000000001
 40
0.0
 40
0.0
 40
0.0
 40
0.0
 40
1.0
 40
1.0
 40
1.0
 40
1.0
 10
159.4370004446513
 20
60.22883469965952
 30
0.0
 10
159.41655883456
 20
60.23808167536987
 30
0.0
 10
159.3927370854705
 20
60.23572288572864
 30
0.0
 10
159.3745058879328
 20
60.22264659346962
 30
0.0
  0
SPLINE
  5
2D1
330
70
100
AcDbEntity
  8
0
 62
     8
420
  8421504
370
    25
100
AcDbSpline
210
0.0
220
0.0
230
1.0
 70
     8
 71
     3
 72
     8
 73
     4
 74
     0
 42
0.0000000001
 43
0.0000000001
 40
0.0
 40
0.0
 40
0.0
 40
0.0
 40
1.0
 40
1.0
 40
1.0
 40
1.0
 10
138.3396288766713
 20
60.22264659346962
 30
0.0
 10
138.3213976791336
 20
60.23572288572928
 30
0.0
 10
138.2975759300441
 20
60.23808167536987
 30
0.0
 10
138.2771343199528
 20
60.22883469965952
 30
0.0
  0
LWPOLYLINE
  5
2D2
330
70
100
AcDbEntity
  8
0
 62
     8
420
  8421504
370
    25
100
AcDbPolyline
 90
        3
 70
     0
 43
0.0
 10
132.404913192552
 20
51.63547159225196
 10
132.4073134226519
 20
51.62185118085185
 10
132.4115974193524
 20
51.61274889075201
  0
LWPOLYLINE
  5
2D3
330
70
100
AcDbEntity
  8
0
 62
     8
420
  8421504
370
    25
100
AcDbPolyline
 90
        3
 70
     0
 43
0.0
 10
137.1845681514521
 20
54.36812624455184
 10
137.180284319452
 20
54.37722862975211
 10
137.1779073030522
 20
54.3897736382523
  0
INSERT
  5
2D6
330
70
100
AcDbEntity
  8
CAPA_BASE
100
AcDbBlockReference
  2
Block_0
 10
0.0
 20
0.0
 30
0.0
  0
INSERT
  5
2E2
330
70
100
AcDbEntity
  8
CAPA_BASE
100
AcDbBlockReference
  2
Block_1
 10
0.0
 20
0.0
 30
0.0
  0
INSERT
  5
2EE
330
70
100
AcDbEntity
  8
CAPA_BASE
100
AcDbBlockReference
  2
Block_2
 10
0.0
 20
0.0
 30
0.0
  0
ENDSEC
  0
SECTION
  2
OBJECTS
  0
DICTIONARY
  5
C
330
0
100
AcDbDictionary
281
     1
  3
ACAD_COLOR
350
63
  3
ACAD_DETAILVIEWSTYLE
350
6A
  3
ACAD_GROUP
350
D
  3
ACAD_LAYOUT
350
62
  3
ACAD_MATERIAL
350
10
  3
ACAD_MLEADERSTYLE
350
66
  3
ACAD_MLINESTYLE
350
5F
  3
ACAD_PLOTSETTINGS
350
61
  3
ACAD_PLOTSTYLENAME
350
E
  3
ACAD_SCALELIST
350
42
  3
ACAD_SECTIONVIEWSTYLE
350
68
  3
ACAD_TABLESTYLE
350
64
  3
ACAD_VISUALSTYLE
350
29
  3
ACDB_RECOMPOSE_DATA
350
301
  3
AcDbVariableDictionary
350
2F9
  0
DICTIONARY
  5
63
102
{ACAD_REACTORS
330
C
102
}
330
C
100
AcDbDictionary
281
     1
  0
DICTIONARY
  5
6A
102
{ACAD_REACTORS
330
C
102
}
330
C
100
AcDbDictionary
281
     1
  3
Imperial24
350
6B
  0
DICTIONARY
  5
D
102
{ACAD_REACTORS
330
C
102
}
330
C
100
AcDbDictionary
281
     1
  0
DICTIONARY
  5
62
102
{ACAD_REACTORS
330
C
102
}
330
C
100
AcDbDictionary
281
     1
  3
Layout1
350
6F
  3
Layout2
350
77
  3
Model
350
73
  0
DICTIONARY
  5
10
102
{ACAD_REACTORS
330
C
102
}
330
C
100
AcDbDictionary
281
     1
  3
ByBlock
350
19
  3
ByLayer
350
11
  3
Global
350
21
  0
DICTIONARY
  5
66
102
{ACAD_REACTORS
330
C
102
}
330
C
100
AcDbDictionary
281
     1
  3
Standard
350
67
  0
DICTIONARY
  5
5F
102
{ACAD_REACTORS
330
C
102
}
330
C
100
AcDbDictionary
281
     1
  3
Standard
350
60
  0
DICTIONARY
  5
61
102
{ACAD_REACTORS
330
C
102
}
330
C
100
AcDbDictionary
281
     1
  0
ACDBDICTIONARYWDFLT
  5
E
102
{ACAD_REACTORS
330
C
102
}
330
C
100
AcDbDictionary
281
     1
  3
Normal
350
F
100
AcDbDictionaryWithDefault
340
F
  0
DICTIONARY
  5
42
102
{ACAD_REACTORS
330
C
102
}
330
C
100
AcDbDictionary
281
     1
  3
A0
350
43
  3
A1
350
44
  3
A2
350
45
  3
A3
350
46
  3
A4
350
47
  3
A5
350
48
  3
A6
350
49
  3
A7
350
4A
  3
A8
350
4B
  3
A9
350
4C
  3
B0
350
4D
  3
B1
350
4E
  3
B2
350
4F
  3
B3
350
50
  3
B4
350
51
  3
B5
350
52
  3
B6
350
53
  0
DICTIONARY
  5
68
102
{ACAD_REACTORS
330
C
102
}
330
C
100
AcDbDictionary
281
     1
  3
Imperial24
350
69
  0
DICTIONARY
  5
64
102
{ACAD_REACTORS
330
C
102
}
330
C
100
AcDbDictionary
281
     1
  3
Standard
350
65
  0
DICTIONARY
  5
29
102
{ACAD_REACTORS
330
C
102
}
330
C
100
AcDbDictionary
281
     1
  3
2dWireframe
350
2F
  3
Basic
350
2E
  3
Brighten
350
35
  3
ColorChange
350
39
  3
Conceptual
350
32
  3
Dim
350
34
  3
EdgeColorOff
350
41
  3
Facepattern
350
38
  3
Flat
350
2A
  3
FlatWithEdges
350
2B
  3
Gouraud
350
2C
  3
GouraudWithEdges
350
2D
  3
Hidden
350
31
  3
JitterOff
350
3F
  3
Linepattern
350
37
  3
OverhangOff
350
40
  3
Realistic
350
33
  3
Shaded
350
3E
  3
Shaded with edges
350
3D
  3
Shades of Gray
350
3A
  3
Sketchy
350
3B
  3
Thicken
350
36
  3
Wireframe
350
30
  3
X-Ray
350
3C
  0
XRECORD
  5
301
102
{ACAD_REACTORS
330
C
102
}
330
C
100
AcDbXrecord
280
     1
 90
        1
330
65
  0
DICTIONARY
  5
2F9
102
{ACAD_REACTORS
330
C
102
}
330
C
100
AcDbDictionary
281
     1
  3
CANNOSCALE
350
2FE
  3
CMLEADERSTYLE
350
2FB
  3
CTABLESTYLE
350
2FA
  3
CVIEWDETAILSTYLE
350
2FC
  3
CVIEWSECTIONSTYLE
350
2FD
  0
ACDBDETAILVIEWSTYLE
  5
6B
102
{ACAD_REACTORS
330
6A
102
}
330
6A
100
AcDbModelDocViewStyle
 70
     0
  3
Imperial24
290
     1
300
Imperial24
 90
        0
100
AcDbDetailViewStyle
 70
     0
 71
     0
 90
        3
 71
     1
340
55
 62
   256
 40
0.24
340
0
 62
   256
 40
0.24
300

 40
0.36
280
     3
 71
     2
340
5D
 90
       25
 62
   256
 71
     3
340
55
 62
   256
 40
0.24
 90
        1
 40
0.75
 90
        1
300
%<\AcVar ViewType \f "%tc1">% %<\AcVar ViewDetailId>%\PSCALE %<\AcVar ViewScale \f "%sn">%
 71
     4
340
5D
 90
       25
 62
   256
340
5D
 90
       25
 62
   256
280
     0
  0
LAYOUT
  5
6F
102
{ACAD_REACTORS
330
62
102
}
330
62
100
AcDbPlotSettings
  1

  2

  4

  6

 40
0.0
 41
0.0
 42
0.0
 43
0.0
 44
0.0
 45
0.0
 46
0.0
 47
0.0
 48
0.0
 49
0.0
140
0.0
141
0.0
142
1.0
143
1.0
 70
   688
 72
     0
 73
     0
 74
     5
  7

 75
    16
147
1.0
 76
     0
 77
     2
 78
   300
148
0.0
149
0.0
100
AcDbLayout
  1
Layout1
 70
     1
 71
     1
 10
0.0
 20
0.0
 11
12.0
 21
9.0
 12
0.0
 22
0.0
 32
0.0
 14
0.0
 24
0.0
 34
0.0
 15
0.0
 25
0.0
 35
0.0
146
0.0
 13
0.0
 23
0.0
 33
0.0
 16
1.0
 26
0.0
 36
0.0
 17
0.0
 27
1.0
 37
0.0
 76
     0
330
6C
  0
LAYOUT
  5
77
102
{ACAD_REACTORS
330
62
102
}
330
62
100
AcDbPlotSettings
  1

  2

  4

  6

 40
0.0
 41
0.0
 42
0.0
 43
0.0
 44
0.0
 45
0.0
 46
0.0
 47
0.0
 48
0.0
 49
0.0
140
0.0
141
0.0
142
1.0
143
1.0
 70
   688
 72
     0
 73
     0
 74
     5
  7

 75
    16
147
1.0
 76
     0
 77
     2
 78
   300
148
0.0
149
0.0
100
AcDbLayout
  1
Layout2
 70
     1
 71
     2
 10
0.0
 20
0.0
 11
12.0
 21
9.0
 12
0.0
 22
0.0
 32
0.0
 14
0.0
 24
0.0
 34
0.0
 15
0.0
 25
0.0
 35
0.0
146
0.0
 13
0.0
 23
0.0
 33
0.0
 16
1.0
 26
0.0
 36
0.0
 17
0.0
 27
1.0
 37
0.0
 76
     0
330
74
  0
LAYOUT
  5
73
102
{ACAD_REACTORS
330
62
102
}
330
62
100
AcDbPlotSettings
  1

  2

  4

  6

 40
0.0
 41
0.0
 42
0.0
 43
0.0
 44
0.0
 45
0.0
 46
0.0
 47
0.0
 48
0.0
 49
0.0
140
0.0
141
0.0
142
1.0
143
1.0
 70
  1712
 72
     0
 73
     0
 74
     0
  7

 75
     0
147
1.0
 76
     0
 77
     2
 78
   300
148
0.0
149
0.0
100
AcDbLayout
  1
Model
 70
     1
 71
     0
 10
0.0
 20
0.0
 11
12.0
 21
9.0
 12
0.0
 22
0.0
 32
0.0
 14
0.0
 24
0.0
 34
0.0
 15
0.0
 25
0.0
 35
0.0
146
0.0
 13
0.0
 23
0.0
 33
0.0
 16
1.0
 26
0.0
 36
0.0
 17
0.0
 27
1.0
 37
0.0
 76
     0
330
70
  0
MATERIAL
  5
19
102
{ACAD_XDICTIONARY
360
1A
102
}
102
{ACAD_REACTORS
330
10
102
}
330
10
100
AcDbMaterial
  1
ByBlock
 72
     0
 43
0.0208333333333333
 43
0.0
 43
0.0
 43
0.0
 43
0.0
 43
0.0208333333333333
 43
0.0
 43
0.0
 43
0.0
 43
0.0
 43
1.0
 43
0.0
 43
0.0
 43
0.0
 43
0.0
 43
1.0
 77
     0
 47
0.0208333333333333
 47
0.0
 47
0.0
 47
0.0
 47
0.0
 47
0.0208333333333333
 47
0.0
 47
0.0
 47
0.0
 47
0.0
 47
1.0
 47
0.0
 47
0.0
 47
0.0
 47
0.0
 47
1.0
171
     0
 49
0.0208333333333333
 49
0.0
 49
0.0
 49
0.0
 49
0.0
 49
0.0208333333333333
 49
0.0
 49
0.0
 49
0.0
 49
0.0
 49
1.0
 49
0.0
 49
0.0
 49
0.0
 49
0.0
 49
1.0
175
     0
142
0.0208333333333333
142
0.0
142
0.0
142
0.0
142
0.0
142
0.0208333333333333
142
0.0
142
0.0
142
0.0
142
0.0
142
1.0
142
0.0
142
0.0
142
0.0
142
0.0
142
1.0
179
     0
144
0.0208333333333333
144
0.0
144
0.0
144
0.0
144
0.0
144
0.0208333333333333
144
0.0
144
0.0
144
0.0
144
0.0
144
1.0
144
0.0
144
0.0
144
0.0
144
0.0
144
1.0
147
0.0208333333333333
147
0.0
147
0.0
147
0.0
147
0.0
147
0.0208333333333333
147
0.0
147
0.0
147
0.0
147
0.0
147
1.0
147
0.0
147
0.0
147
0.0
147
0.0
147
1.0
  0
MATERIAL
  5
11
102
{ACAD_XDICTIONARY
360
12
102
}
102
{ACAD_REACTORS
330
10
102
}
330
10
100
AcDbMaterial
  1
ByLayer
 72
     0
 43
0.0208333333333333
 43
0.0
 43
0.0
 43
0.0
 43
0.0
 43
0.0208333333333333
 43
0.0
 43
0.0
 43
0.0
 43
0.0
 43
1.0
 43
0.0
 43
0.0
 43
0.0
 43
0.0
 43
1.0
 77
     0
 47
0.0208333333333333
 47
0.0
 47
0.0
 47
0.0
 47
0.0
 47
0.0208333333333333
 47
0.0
 47
0.0
 47
0.0
 47
0.0
 47
1.0
 47
0.0
 47
0.0
 47
0.0
 47
0.0
 47
1.0
171
     0
 49
0.0208333333333333
 49
0.0
 49
0.0
 49
0.0
 49
0.0
 49
0.0208333333333333
 49
0.0
 49
0.0
 49
0.0
 49
0.0
 49
1.0
 49
0.0
 49
0.0
 49
0.0
 49
0.0
 49
1.0
175
     0
142
0.0208333333333333
142
0.0
142
0.0
142
0.0
142
0.0
142
0.0208333333333333
142
0.0
142
0.0
142
0.0
142
0.0
142
1.0
142
0.0
142
0.0
142
0.0
142
0.0
142
1.0
179
     0
144
0.0208333333333333
144
0.0
144
0.0
144
0.0
144
0.0
144
0.0208333333333333
144
0.0
144
0.0
144
0.0
144
0.0
144
1.0
144
0.0
144
0.0
144
0.0
144
0.0
144
1.0
147
0.0208333333333333
147
0.0
147
0.0
147
0.0
147
0.0
147
0.0208333333333333
147
0.0
147
0.0
147
0.0
147
0.0
147
1.0
147
0.0
147
0.0
147
0.0
147
0.0
147
1.0
  0
MATERIAL
  5
21
102
{ACAD_XDICTIONARY
360
22
102
}
102
{ACAD_REACTORS
330
10
102
}
330
10
100
AcDbMaterial
  1
Global
 72
     0
 43
0.0208333333333333
 43
0.0
 43
0.0
 43
0.0
 43
0.0
 43
0.0208333333333333
 43
0.0
 43
0.0
 43
0.0
 43
0.0
 43
1.0
 43
0.0
 43
0.0
 43
0.0
 43
0.0
 43
1.0
 77
     0
 47
0.0208333333333333
 47
0.0
 47
0.0
 47
0.0
 47
0.0
 47
0.0208333333333333
 47
0.0
 47
0.0
 47
0.0
 47
0.0
 47
1.0
 47
0.0
 47
0.0
 47
0.0
 47
0.0
 47
1.0
171
     0
 49
0.0208333333333333
 49
0.0
 49
0.0
 49
0.0
 49
0.0
 49
0.0208333333333333
 49
0.0
 49
0.0
 49
0.0
 49
0.0
 49
1.0
 49
0.0
 49
0.0
 49
0.0
 49
0.0
 49
1.0
175
     0
142
0.0208333333333333
142
0.0
142
0.0
142
0.0
142
0.0
142
0.0208333333333333
142
0.0
142
0.0
142
0.0
142
0.0
142
1.0
142
0.0
142
0.0
142
0.0
142
0.0
142
1.0
179
     0
144
0.0208333333333333
144
0.0
144
0.0
144
0.0
144
0.0
144
0.0208333333333333
144
0.0
144
0.0
144
0.0
144
0.0
144
1.0
144
0.0
144
0.0
144
0.0
144
0.0
144
1.0
147
0.0208333333333333
147
0.0
147
0.0
147
0.0
147
0.0
147
0.0208333333333333
147
0.0
147
0.0
147
0.0
147
0.0
147
1.0
147
0.0
147
0.0
147
0.0
147
0.0
147
1.0
  0
MLEADERSTYLE
  5
67
102
{ACAD_REACTORS
330
66
102
}
330
66
100
AcDbMLeaderStyle
179
     2
170
     2
171
     1
172
     0
 90
        2
 40
0.0
 41
0.0
173
     1
 91
-1056964608
340
5B
 92
       -2
290
     1
 42
0.09
291
     1
 43
0.36
  3
Standard
 44
0.18
300

342
55
174
     1
178
     6
175
     1
176
     0
 93
-1056964608
 45
0.18
292
     0
297
     0
 46
0.18
 94
-1056964608
 47
1.0
 49
1.0
140
1.0
293
     1
141
0.0
294
     1
177
     0
142
1.0
295
     1
296
     0
143
0.125
271
     0
272
     9
273
     9
298
     1
  0
MLINESTYLE
  5
60
102
{ACAD_REACTORS
330
5F
102
}
330
5F
100
AcDbMlineStyle
  2
STANDARD
 70
     0
  3

 62
   256
 51
90.0
 52
90.0
 71
     2
 49
0.5
 62
   256
  6
BYLAYER
 49
-0.5
 62
   256
  6
BYLAYER
  0
ACDBPLACEHOLDER
  5
F
102
{ACAD_REACTORS
330
E
102
}
330
E
  0
SCALE
  5
43
102
{ACAD_REACTORS
330
42
102
}
330
42
100
AcDbScale
 70
     0
300
1:1
140
1.0
141
1.0
290
     1
  0
SCALE
  5
44
102
{ACAD_REACTORS
330
42
102
}
330
42
100
AcDbScale
 70
     0
300
1/128" = 1'-0"
140
0.0078125
141
12.0
290
     0
  0
SCALE
  5
45
102
{ACAD_REACTORS
330
42
102
}
330
42
100
AcDbScale
 70
     0
300
1/64" = 1'-0"
140
0.015625
141
12.0
290
     0
  0
SCALE
  5
46
102
{ACAD_REACTORS
330
42
102
}
330
42
100
AcDbScale
 70
     0
300
1/32" = 1'-0"
140
0.03125
141
12.0
290
     0
  0
SCALE
  5
47
102
{ACAD_REACTORS
330
42
102
}
330
42
100
AcDbScale
 70
     0
300
1/16" = 1'-0"
140
0.0625
141
12.0
290
     0
  0
SCALE
  5
48
102
{ACAD_REACTORS
330
42
102
}
330
42
100
AcDbScale
 70
     0
300
3/32" = 1'-0"
140
0.09375
141
12.0
290
     0
  0
SCALE
  5
49
102
{ACAD_REACTORS
330
42
102
}
330
42
100
AcDbScale
 70
     0
300
1/8" = 1'-0"
140
0.125
141
12.0
290
     0
  0
SCALE
  5
4A
102
{ACAD_REACTORS
330
42
102
}
330
42
100
AcDbScale
 70
     0
300
3/16" = 1'-0"
140
0.1875
141
12.0
290
     0
  0
SCALE
  5
4B
102
{ACAD_REACTORS
330
42
102
}
330
42
100
AcDbScale
 70
     0
300
1/4" = 1'-0"
140
0.25
141
12.0
290
     0
  0
SCALE
  5
4C
102
{ACAD_REACTORS
330
42
102
}
330
42
100
AcDbScale
 70
     0
300
3/8" = 1'-0"
140
0.375
141
12.0
290
     0
  0
SCALE
  5
4D
102
{ACAD_REACTORS
330
42
102
}
330
42
100
AcDbScale
 70
     0
300
1/2" = 1'-0"
140
0.5
141
12.0
290
     0
  0
SCALE
  5
4E
102
{ACAD_REACTORS
330
42
102
}
330
42
100
AcDbScale
 70
     0
300
3/4" = 1'-0"
140
0.75
141
12.0
290
     0
  0
SCALE
  5
4F
102
{ACAD_REACTORS
330
42
102
}
330
42
100
AcDbScale
 70
     0
300
1" = 1'-0"
140
1.0
141
12.0
290
     0
  0
SCALE
  5
50
102
{ACAD_REACTORS
330
42
102
}
330
42
100
AcDbScale
 70
     0
300
1-1/2" = 1'-0"
140
1.5
141
12.0
290
     0
  0
SCALE
  5
51
102
{ACAD_REACTORS
330
42
102
}
330
42
100
AcDbScale
 70
     0
300
3" = 1'-0"
140
3.0
141
12.0
290
     0
  0
SCALE
  5
52
102
{ACAD_REACTORS
330
42
102
}
330
42
100
AcDbScale
 70
     0
300
6" = 1'-0"
140
6.0
141
12.0
290
     0
  0
SCALE
  5
53
102
{ACAD_REACTORS
330
42
102
}
330
42
100
AcDbScale
 70
     0
300
1'-0" = 1'-0"
140
12.0
141
12.0
290
     0
  0
ACDBSECTIONVIEWSTYLE
  5
69
102
{ACAD_REACTORS
330
68
102
}
330
68
100
AcDbModelDocViewStyle
 70
     0
  3
Imperial24
290
     1
300
Imperial24
 90
        0
100
AcDbSectionViewStyle
 70
     0
 71
     0
 90
       78
 71
     1
340
55
 62
   256
 40
0.24
340
0
340
0
 62
   256
 40
0.24
300
I, O, Q, S, X, Z
 40
0.48
 90
        3
 40
0.18
 90
        1
 71
     2
340
5D
 90
       25
 62
   256
340
5D
 90
       50
 62
   256
 40
0.24
 40
0.0
 40
0.24
 71
     3
340
55
 62
   256
 40
0.24
 90
        1
 40
0.75
 90
        1
300
%<\AcVar ViewType \f "%tc1">% %<\AcVar ViewSectionStartId>%-%<\AcVar ViewSectionEndId>%\PSCALE %<\AcVar ViewScale \f "%sn">%
 71
     4
 62
   256
 62
   257
300
ANSI31
 40
1.0
 90
        0
290
     0
290
     0
 90
        6
 40
0.0
 40
1.570796326794896
 40
0.2617993877991494
 40
1.308996938995747
 40
-0.2617993877991494
 40
1.832595714594046
  0
TABLESTYLE
  5
65
102
{ACAD_XDICTIONARY
360
2FF
102
}
102
{ACAD_REACTORS
330
64
102
}
330
64
100
AcDbTableStyle
280
     0
  3
Standard
 70
     0
 71
     0
 40
0.06
 41
0.06
280
     0
281
     0
  7
Standard
140
0.18
170
     2
 62
     0
 63
     7
283
     0
 90
      512
 91
        0
  1

274
    -2
284
     1
 64
     0
275
    -2
285
     1
 65
     0
276
    -2
286
     1
 66
     0
277
    -2
287
     1
 67
     0
278
    -2
288
     1
 68
     0
279
    -2
289
     1
 69
     0
  7
Standard
140
0.25
170
     5
 62
     0
 63
     7
283
     0
 90
      512
 91
        0
  1

274
    -2
284
     1
 64
     0
275
    -2
285
     1
 65
     0
276
    -2
286
     1
 66
     0
277
    -2
287
     1
 67
     0
278
    -2
288
     1
 68
     0
279
    -2
289
     1
 69
     0
  7
Standard
140
0.18
170
     5
 62
     0
 63
     7
283
     0
 90
      512
 91
        0
  1

274
    -2
284
     1
 64
     0
275
    -2
285
     1
 65
     0
276
    -2
286
     1
 66
     0
277
    -2
287
     1
 67
     0
278
    -2
288
     1
 68
     0
279
    -2
289
     1
 69
     0
  0
VISUALSTYLE
  5
2F
102
{ACAD_REACTORS
330
29
102
}
330
29
100
AcDbVisualStyle
  2
2dWireframe
 70
     4
177
     3
291
     0
 70
    58
 90
        0
176
     1
 90
        2
176
     1
 90
        0
176
     1
 90
        0
176
     1
 40
0.6
176
     1
 40
30.0
176
     1
 62
     7
420
 16777215
176
     1
 90
        1
176
     1
 90
        4
176
     1
 62
     7
176
     1
 62
   257
176
     1
 90
        1
176
     1
 90
        1
176
     1
 40
1.0
176
     1
 90
        0
176
     1
 62
   257
176
     1
 40
1.0
176
     1
 90
        1
176
     1
 90
        6
176
     1
 90
        2
176
     1
 62
     7
176
     1
 90
        5
176
     1
 90
        0
176
     1
 90
        0
176
     1
290
     0
176
     1
 90
        1
176
     1
 40
0.0
176
     1
 90
        0
176
     1
290
     1
176
     1
290
     1
176
     1
290
     0
176
     1
290
     0
176
     1
290
     0
176
     1
290
     0
176
     1
290
     0
176
     1
290
     0
176
     1
290
     0
176
     1
 90
       50
176
     1
 40
0.0
176
     1
 40
1.0
176
     1
 90
        0
176
     1
 62
    18
420
        0
176
     1
 90
       50
176
     1
 90
        3
176
     1
 62
     5
420
      255
176
     1
290
     0
176
     1
 90
       50
176
     1
 90
       50
176
     1
 90
       50
176
     1
290
     0
176
     1
 90
       50
176
     1
 62
   256
176
     0
 40
1.0
176
     0
 90
        2
176
     1
  1
strokes_ogs.tif
176
     1
290
     0
176
     1
 40
1.0
176
     1
 40
1.0
176
     1
  0
VISUALSTYLE
  5
2E
102
{ACAD_REACTORS
330
29
102
}
330
29
100
AcDbVisualStyle
  2
Basic
 70
     7
177
     3
291
     1
 70
    58
 90
        1
176
     1
 90
        0
176
     1
 90
        1
176
     1
 90
        0
176
     1
 40
0.6
176
     1
 40
30.0
176
     1
 62
     7
420
 16777215
176
     1
 90
        0
176
     1
 90
        4
176
     1
 62
     7
176
     1
 62
   257
176
     1
 90
        1
176
     1
 90
        1
176
     1
 40
1.0
176
     1
 90
        8
176
     1
 62
     7
176
     1
 40
1.0
176
     1
 90
        1
176
     1
 90
        6
176
     1
 90
        2
176
     1
 62
     7
176
     1
 90
        5
176
     1
 90
        0
176
     1
 90
        0
176
     1
290
     0
176
     1
 90
        1
176
     1
 40
0.0
176
     1
 90
        0
176
     1
290
     0
176
     1
290
     1
176
     1
290
     1
176
     1
290
     0
176
     1
290
     0
176
     1
290
     0
176
     1
290
     0
176
     1
290
     0
176
     1
290
     0
176
     1
 90
       50
176
     1
 40
0.0
176
     1
 40
1.0
176
     1
 90
        0
176
     1
 62
    18
420
        0
176
     1
 90
       50
176
     1
 90
        3
176
     1
 62
     5
420
      255
176
     1
290
     0
176
     1
 90
       50
176
     1
 90
       50
176
     1
 90
       50
176
     1
290
     0
176
     1
 90
       50
176
     1
 62
   256
176
     0
 40
1.0
176
     0
 90
        2
176
     1
  1
strokes_ogs.tif
176
     1
290
     0
176
     1
 40
1.0
176
     1
 40
1.0
176
     1
  0
VISUALSTYLE
  5
35
102
{ACAD_REACTORS
330
29
102
}
330
29
100
AcDbVisualStyle
  2
Brighten
 70
    12
177
     3
291
     1
 70
    58
 90
        2
176
     1
 90
        2
176
     1
 90
        0
176
     1
 90
        0
176
     1
 40
0.6
176
     1
 40
30.0
176
     1
 62
     7
420
 16777215
176
     1
 90
        1
176
     1
 90
        4
176
     1
 62
     7
176
     1
 62
   257
176
     1
 90
        1
176
     1
 90
        1
176
     1
 40
1.0
176
     1
 90
        8
176
     1
 62
     7
176
     1
 40
1.0
176
     1
 90
        1
176
     1
 90
        6
176
     1
 90
        2
176
     1
 62
     7
176
     1
 90
        5
176
     1
 90
        0
176
     1
 90
        0
176
     1
290
     0
176
     1
 90
        1
176
     1
 40
50.0
176
     1
 90
        0
176
     1
290
     0
176
     1
290
     1
176
     1
290
     1
176
     1
290
     0
176
     1
290
     0
176
     1
290
     0
176
     1
290
     0
176
     1
290
     0
176
     1
290
     0
176
     1
 90
       50
176
     1
 40
0.0
176
     1
 40
1.0
176
     1
 90
        0
176
     1
 62
    18
420
        0
176
     1
 90
       50
176
     1
 90
        3
176
     1
 62
     5
420
      255
176
     1
290
     0
176
     1
 90
       50
176
     1
 90
       50
176
     1
 90
       50
176
     1
290
     0
176
     1
 90
       50
176
     1
 62
   256
176
     0
 40
1.0
176
     0
 90
        2
176
     1
  1
strokes_ogs.tif
176
     1
290
     0
176
     1
 40
1.0
176
     1
 40
1.0
176
     1
  0
VISUALSTYLE
  5
39
102
{ACAD_REACTORS
330
29
102
}
330
29
100
AcDbVisualStyle
  2
ColorChange
 70
    16
177
     3
291
     1
 70
    58
 90
        2
176
     1
 90
        2
176
     1
 90
        3
176
     1
 90
        0
176
     1
 40
0.6
176
     1
 40
30.0
176
     1
 62
     8
420
  8421504
176
     1
 90
        1
176
     1
 90
        4
176
     1
 62
     7
176
     1
 62
   257
176
     1
 90
        1
176
     1
 90
        1
176
     1
 40
1.0
176
     1
 90
        8
176
     1
 62
     8
420
  8421504
176
     1
 40
1.0
176
     1
 90
        1
176
     1
 90
        6
176
     1
 90
        2
176
     1
 62
     7
176
     1
 90
        5
176
     1
 90
        0
176
     1
 90
        0
176
     1
290
     0
176
     1
 90
        1
176
     1
 40
0.0
176
     1
 90
        0
176
     1
290
     0
176
     1
290
     1
176
     1
290
     1
176
     1
290
     0
176
     1
290
     0
176
     1
290
     0
176
     1
290
     0
176
     1
290
     0
176
     1
290
     0
176
     1
 90
       50
176
     1
 40
0.0
176
     1
 40
1.0
176
     1
 90
        0
176
     1
 62
    18
420
        0
176
     1
 90
       50
176
     1
 90
        3
176
     1
 62
     5
420
      255
176
     1
290
     0
176
     1
 90
       50
176
     1
 90
       50
176
     1
 90
       50
176
     1
290
     0
176
     1
 90
       50
176
     1
 62
   256
176
     0
 40
1.0
176
     0
 90
        2
176
     1
  1
strokes_ogs.tif
176
     1
290
     0
176
     1
 40
1.0
176
     1
 40
1.0
176
     1
  0
VISUALSTYLE
  5
32
102
{ACAD_REACTORS
330
29
102
}
330
29
100
AcDbVisualStyle
  2
Conceptual
 70
     9
177
     3
291
     0
 70
    58
 90
        3
176
     1
 90
        2
176
     1
 90
        0
176
     1
 90
        0
176
     1
 40
0.6
176
     1
 40
30.0
176
     1
 62
     7
420
 16777215
176
     1
 90
        2
176
     1
 90
        2
176
     1
 62
     7
176
     1
 62
   257
176
     1
 90
        1
176
     1
 90
        1
176
     1
 40
179.0
176
     1
 90
        8
176
     1
 62
     7
176
     1
 40
1.0
176
     1
 90
        1
176
     1
 90
        6
176
     1
 90
        2
176
     1
 62
     7
176
     1
 90
        3
176
     1
 90
        0
176
     1
 90
        0
176
     1
290
     0
176
     1
 90
        1
176
     1
 40
0.0
176
     1
 90
        0
176
     1
290
     0
176
     1
290
     1
176
     1
290
     1
176
     1
290
     0
176
     1
290
     0
176
     1
290
     0
176
     1
290
     0
176
     1
290
     0
176
     1
290
     0
176
     1
 90
       50
176
     1
 40
0.0
176
     1
 40
1.0
176
     1
 90
        0
176
     1
 62
    18
420
        0
176
     1
 90
       50
176
     1
 90
        3
176
     1
 62
     5
420
      255
176
     1
290
     0
176
     1
 90
       50
176
     1
 90
       50
176
     1
 90
       50
176
     1
290
     0
176
     1
 90
       50
176
     1
 62
   256
176
     0
 40
1.0
176
     0
 90
        2
176
     1
  1
strokes_ogs.tif
176
     1
290
     0
176
     1
 40
1.0
176
     1
 40
1.0
176
     1
  0
VISUALSTYLE
  5
34
102
{ACAD_REACTORS
330
29
102
}
330
29
100
AcDbVisualStyle
  2
Dim
 70
    11
177
     3
291
     1
 70
    58
 90
        2
176
     1
 90
        2
176
     1
 90
        0
176
     1
 90
        0
176
     1
 40
0.6
176
     1
 40
30.0
176
     1
 62
     7
420
 16777215
176
     1
 90
        1
176
     1
 90
        4
176
     1
 62
     7
176
     1
 62
   257
176
     1
 90
        1
176
     1
 90
        1
176
     1
 40
1.0
176
     1
 90
        8
176
     1
 62
     7
176
     1
 40
1.0
176
     1
 90
        1
176
     1
 90
        6
176
     1
 90
        2
176
     1
 62
     7
176
     1
 90
        5
176
     1
 90
        0
176
     1
 90
        0
176
     1
290
     0
176
     1
 90
        1
176
     1
 40
-50.0
176
     1
 90
        0
176
     1
290
     0
176
     1
290
     1
176
     1
290
     1
176
     1
290
     0
176
     1
290
     0
176
     1
290
     0
176
     1
290
     0
176
     1
290
     0
176
     1
290
     0
176
     1
 90
       50
176
     1
 40
0.0
176
     1
 40
1.0
176
     1
 90
        0
176
     1
 62
    18
420
        0
176
     1
 90
       50
176
     1
 90
        3
176
     1
 62
     5
420
      255
176
     1
290
     0
176
     1
 90
       50
176
     1
 90
       50
176
     1
 90
       50
176
     1
290
     0
176
     1
 90
       50
176
     1
 62
   256
176
     0
 40
1.0
176
     0
 90
        2
176
     1
  1
strokes_ogs.tif
176
     1
290
     0
176
     1
 40
1.0
176
     1
 40
1.0
176
     1
  0
VISUALSTYLE
  5
41
102
{ACAD_REACTORS
330
29
102
}
330
29
100
AcDbVisualStyle
  2
EdgeColorOff
 70
    22
177
     3
291
     1
 70
    58
 90
        2
176
     0
 90
        2
176
     0
 90
        0
176
     0
 90
        0
176
     0
 40
0.6
176
     0
 40
30.0
176
     0
 62
     7
420
 16777215
176
     0
 90
        1
176
     0
 90
        4
176
     0
 62
     7
176
     0
 62
   257
176
     0
 90
        1
176
     0
 90
        1
176
     0
 40
1.0
176
     0
 90
        8
176
     2
 62
     7
176
     0
 40
1.0
176
     0
 90
        1
176
     0
 90
        6
176
     0
 90
        2
176
     0
 62
     7
176
     0
 90
        5
176
     0
 90
        0
176
     0
 90
        0
176
     0
290
     0
176
     0
 90
        1
176
     0
 40
0.0
176
     0
 90
        0
176
     0
290
     0
176
     0
290
     1
176
     0
290
     1
176
     0
290
     0
176
     0
290
     0
176
     0
290
     0
176
     0
290
     0
176
     0
290
     0
176
     0
290
     0
176
     0
 90
       50
176
     0
 40
0.0
176
     0
 40
1.0
176
     0
 90
        0
176
     0
 62
    18
420
        0
176
     0
 90
       50
176
     0
 90
        3
176
     0
 62
     5
420
      255
176
     0
290
     0
176
     0
 90
       50
176
     0
 90
       50
176
     0
 90
       50
176
     0
290
     0
176
     0
 90
       50
176
     0
 62
   256
176
     0
 40
1.0
176
     0
 90
        2
176
     0
  1
strokes_ogs.tif
176
     0
290
     0
176
     0
 40
1.0
176
     0
 40
1.0
176
     0
  0
VISUALSTYLE
  5
38
102
{ACAD_REACTORS
330
29
102
}
330
29
100
AcDbVisualStyle
  2
Facepattern
 70
    15
177
     3
291
     1
 70
    58
 90
        2
176
     1
 90
        2
176
     1
 90
        0
176
     1
 90
        0
176
     1
 40
0.6
176
     1
 40
30.0
176
     1
 62
     7
420
 16777215
176
     1
 90
        1
176
     1
 90
        4
176
     1
 62
     7
176
     1
 62
   257
176
     1
 90
        1
176
     1
 90
        1
176
     1
 40
1.0
176
     1
 90
        8
176
     1
 62
     7
176
     1
 40
1.0
176
     1
 90
        1
176
     1
 90
        6
176
     1
 90
        2
176
     1
 62
     7
176
     1
 90
        5
176
     1
 90
        0
176
     1
 90
        0
176
     1
290
     0
176
     1
 90
        1
176
     1
 40
0.0
176
     1
 90
        0
176
     1
290
     0
176
     1
290
     1
176
     1
290
     1
176
     1
290
     0
176
     1
290
     0
176
     1
290
     0
176
     1
290
     0
176
     1
290
     0
176
     1
290
     0
176
     1
 90
       50
176
     1
 40
0.0
176
     1
 40
1.0
176
     1
 90
        0
176
     1
 62
    18
420
        0
176
     1
 90
       50
176
     1
 90
        3
176
     1
 62
     5
420
      255
176
     1
290
     0
176
     1
 90
       50
176
     1
 90
       50
176
     1
 90
       50
176
     1
290
     0
176
     1
 90
       50
176
     1
 62
   256
176
     0
 40
1.0
176
     0
 90
        2
176
     1
  1
strokes_ogs.tif
176
     1
290
     0
176
     1
 40
1.0
176
     1
 40
1.0
176
     1
  0
VISUALSTYLE
  5
2A
102
{ACAD_REACTORS
330
29
102
}
330
29
100
AcDbVisualStyle
  2
Flat
 70
     0
177
     3
291
     1
 70
    58
 90
        2
176
     1
 90
        1
176
     1
 90
        1
176
     1
 90
        2
176
     1
 40
0.6
176
     1
 40
30.0
176
     1
 62
     7
420
 16777215
176
     1
 90
        0
176
     1
 90
        0
176
     1
 62
     7
176
     1
 62
   257
176
     1
 90
        1
176
     1
 90
        1
176
     1
 40
1.0
176
     1
 90
        8
176
     1
 62
     7
176
     1
 40
1.0
176
     1
 90
        1
176
     1
 90
        6
176
     1
 90
        2
176
     1
 62
     7
176
     1
 90
        5
176
     1
 90
        0
176
     1
 90
        0
176
     1
290
     0
176
     1
 90
       13
176
     1
 40
0.0
176
     1
 90
        0
176
     1
290
     0
176
     1
290
     1
176
     1
290
     1
176
     1
290
     0
176
     1
290
     0
176
     1
290
     0
176
     1
290
     0
176
     1
290
     0
176
     1
290
     0
176
     1
 90
       50
176
     1
 40
0.0
176
     1
 40
1.0
176
     1
 90
        0
176
     1
 62
    18
420
        0
176
     1
 90
       50
176
     1
 90
        3
176
     1
 62
     5
420
      255
176
     1
290
     0
176
     1
 90
       50
176
     1
 90
       50
176
     1
 90
       50
176
     1
290
     0
176
     1
 90
       50
176
     1
 62
   256
176
     0
 40
1.0
176
     0
 90
        2
176
     1
  1
strokes_ogs.tif
176
     1
290
     0
176
     1
 40
1.0
176
     1
 40
1.0
176
     1
  0
VISUALSTYLE
  5
2B
102
{ACAD_REACTORS
330
29
102
}
330
29
100
AcDbVisualStyle
  2
FlatWithEdges
 70
     1
177
     3
291
     1
 70
    58
 90
        2
176
     1
 90
        1
176
     1
 90
        1
176
     1
 90
        2
176
     1
 40
0.6
176
     1
 40
30.0
176
     1
 62
     7
420
 16777215
176
     1
 90
        1
176
     1
 90
        0
176
     1
 62
     7
176
     1
 62
   257
176
     1
 90
        1
176
     1
 90
        1
176
     1
 40
1.0
176
     1
 90
        0
176
     1
 62
   257
176
     1
 40
1.0
176
     1
 90
        1
176
     1
 90
        6
176
     1
 90
        2
176
     1
 62
     7
176
     1
 90
        5
176
     1
 90
        0
176
     1
 90
        0
176
     1
290
     0
176
     1
 90
       13
176
     1
 40
0.0
176
     1
 90
        0
176
     1
290
     0
176
     1
290
     1
176
     1
290
     1
176
     1
290
     0
176
     1
290
     0
176
     1
290
     0
176
     1
290
     0
176
     1
290
     0
176
     1
290
     0
176
     1
 90
       50
176
     1
 40
0.0
176
     1
 40
1.0
176
     1
 90
        0
176
     1
 62
    18
420
        0
176
     1
 90
       50
176
     1
 90
        3
176
     1
 62
     5
420
      255
176
     1
290
     0
176
     1
 90
       50
176
     1
 90
       50
176
     1
 90
       50
176
     1
290
     0
176
     1
 90
       50
176
     1
 62
   256
176
     0
 40
1.0
176
     0
 90
        2
176
     1
  1
strokes_ogs.tif
176
     1
290
     0
176
     1
 40
1.0
176
     1
 40
1.0
176
     1
  0
VISUALSTYLE
  5
2C
102
{ACAD_REACTORS
330
29
102
}
330
29
100
AcDbVisualStyle
  2
Gouraud
 70
     2
177
     3
291
     1
 70
    58
 90
        2
176
     1
 90
        2
176
     1
 90
        1
176
     1
 90
        2
176
     1
 40
0.6
176
     1
 40
30.0
176
     1
 62
     7
420
 16777215
176
     1
 90
        0
176
     1
 90
        0
176
     1
 62
     7
176
     1
 62
   257
176
     1
 90
        1
176
     1
 90
        1
176
     1
 40
1.0
176
     1
 90
        0
176
     1
 62
     7
176
     1
 40
1.0
176
     1
 90
        1
176
     1
 90
        6
176
     1
 90
        2
176
     1
 62
     7
176
     1
 90
        5
176
     1
 90
        0
176
     1
 90
        0
176
     1
290
     0
176
     1
 90
       13
176
     1
 40
0.0
176
     1
 90
        0
176
     1
290
     0
176
     1
290
     1
176
     1
290
     1
176
     1
290
     0
176
     1
290
     0
176
     1
290
     0
176
     1
290
     0
176
     1
290
     0
176
     1
290
     0
176
     1
 90
       50
176
     1
 40
0.0
176
     1
 40
1.0
176
     1
 90
        0
176
     1
 62
    18
420
        0
176
     1
 90
       50
176
     1
 90
        3
176
     1
 62
     5
420
      255
176
     1
290
     0
176
     1
 90
       50
176
     1
 90
       50
176
     1
 90
       50
176
     1
290
     0
176
     1
 90
       50
176
     1
 62
   256
176
     0
 40
1.0
176
     0
 90
        2
176
     1
  1
strokes_ogs.tif
176
     1
290
     0
176
     1
 40
1.0
176
     1
 40
1.0
176
     1
  0
VISUALSTYLE
  5
2D
102
{ACAD_REACTORS
330
29
102
}
330
29
100
AcDbVisualStyle
  2
GouraudWithEdges
 70
     3
177
     3
291
     1
 70
    58
 90
        2
176
     1
 90
        2
176
     1
 90
        1
176
     1
 90
        2
176
     1
 40
0.6
176
     1
 40
30.0
176
     1
 62
     7
420
 16777215
176
     1
 90
        1
176
     1
 90
        0
176
     1
 62
     7
176
     1
 62
   257
176
     1
 90
        1
176
     1
 90
        1
176
     1
 40
1.0
176
     1
 90
        0
176
     1
 62
   257
176
     1
 40
1.0
176
     1
 90
        1
176
     1
 90
        6
176
     1
 90
        2
176
     1
 62
     7
176
     1
 90
        5
176
     1
 90
        0
176
     1
 90
        0
176
     1
290
     0
176
     1
 90
       13
176
     1
 40
0.0
176
     1
 90
        0
176
     1
290
     0
176
     1
290
     1
176
     1
290
     1
176
     1
290
     0
176
     1
290
     0
176
     1
290
     0
176
     1
290
     0
176
     1
290
     0
176
     1
290
     0
176
     1
 90
       50
176
     1
 40
0.0
176
     1
 40
1.0
176
     1
 90
        0
176
     1
 62
    18
420
        0
176
     1
 90
       50
176
     1
 90
        3
176
     1
 62
     5
420
      255
176
     1
290
     0
176
     1
 90
       50
176
     1
 90
       50
176
     1
 90
       50
176
     1
290
     0
176
     1
 90
       50
176
     1
 62
   256
176
     0
 40
1.0
176
     0
 90
        2
176
     1
  1
strokes_ogs.tif
176
     1
290
     0
176
     1
 40
1.0
176
     1
 40
1.0
176
     1
  0
VISUALSTYLE
  5
31
102
{ACAD_REACTORS
330
29
102
}
330
29
100
AcDbVisualStyle
  2
Hidden
 70
     6
177
     3
291
     0
 70
    58
 90
        1
176
     1
 90
        2
176
     1
 90
        2
176
     1
 90
        0
176
     1
 40
0.6
176
     1
 40
30.0
176
     1
 62
     7
420
 16777215
176
     1
 90
        2
176
     1
 90
        2
176
     1
 62
     7
176
     1
 62
   257
176
     1
 90
        2
176
     1
 90
        1
176
     1
 40
40.0
176
     1
 90
        0
176
     1
 62
   257
176
     1
 40
1.0
176
     1
 90
        1
176
     1
 90
        6
176
     1
 90
        2
176
     1
 62
     7
176
     1
 90
        3
176
     1
 90
        0
176
     1
 90
        0
176
     1
290
     0
176
     1
 90
        1
176
     1
 40
0.0
176
     1
 90
        0
176
     1
290
     0
176
     1
290
     1
176
     1
290
     1
176
     1
290
     0
176
     1
290
     0
176
     1
290
     0
176
     1
290
     0
176
     1
290
     0
176
     1
290
     0
176
     1
 90
       50
176
     1
 40
0.0
176
     1
 40
1.0
176
     1
 90
        0
176
     1
 62
    18
420
        0
176
     1
 90
       50
176
     1
 90
        3
176
     1
 62
     5
420
      255
176
     1
290
     0
176
     1
 90
       50
176
     1
 90
       50
176
     1
 90
       50
176
     1
290
     0
176
     1
 90
       50
176
     1
 62
   256
176
     0
 40
1.0
176
     0
 90
        2
176
     1
  1
strokes_ogs.tif
176
     1
290
     0
176
     1
 40
1.0
176
     1
 40
1.0
176
     1
  0
VISUALSTYLE
  5
3F
102
{ACAD_REACTORS
330
29
102
}
330
29
100
AcDbVisualStyle
  2
JitterOff
 70
    20
177
     3
291
     1
 70
    58
 90
        2
176
     0
 90
        2
176
     0
 90
        0
176
     0
 90
        0
176
     0
 40
0.6
176
     0
 40
30.0
176
     0
 62
     7
420
 16777215
176
     0
 90
        1
176
     0
 90
        4
176
     0
 62
     7
176
     0
 62
   257
176
     0
 90
        1
176
     0
 90
        1
176
     0
 40
1.0
176
     0
 90
       10
176
     2
 62
     7
176
     0
 40
1.0
176
     0
 90
        1
176
     0
 90
        6
176
     0
 90
        2
176
     0
 62
     7
176
     0
 90
        5
176
     0
 90
        0
176
     0
 90
        0
176
     0
290
     0
176
     0
 90
        1
176
     0
 40
0.0
176
     0
 90
        0
176
     0
290
     0
176
     0
290
     1
176
     0
290
     1
176
     0
290
     0
176
     0
290
     0
176
     0
290
     0
176
     0
290
     0
176
     0
290
     0
176
     0
290
     0
176
     0
 90
       50
176
     0
 40
0.0
176
     0
 40
1.0
176
     0
 90
        0
176
     0
 62
    18
420
        0
176
     0
 90
       50
176
     0
 90
        3
176
     0
 62
     5
420
      255
176
     0
290
     0
176
     0
 90
       50
176
     0
 90
       50
176
     0
 90
       50
176
     0
290
     0
176
     0
 90
       50
176
     0
 62
   256
176
     0
 40
1.0
176
     0
 90
        2
176
     0
  1
strokes_ogs.tif
176
     0
290
     0
176
     0
 40
1.0
176
     0
 40
1.0
176
     0
  0
VISUALSTYLE
  5
37
102
{ACAD_REACTORS
330
29
102
}
330
29
100
AcDbVisualStyle
  2
Linepattern
 70
    14
177
     3
291
     1
 70
    58
 90
        2
176
     1
 90
        2
176
     1
 90
        0
176
     1
 90
        0
176
     1
 40
0.6
176
     1
 40
30.0
176
     1
 62
     7
420
 16777215
176
     1
 90
        1
176
     1
 90
        4
176
     1
 62
     7
176
     1
 62
   257
176
     1
 90
        7
176
     1
 90
        7
176
     1
 40
1.0
176
     1
 90
        8
176
     1
 62
     7
176
     1
 40
1.0
176
     1
 90
        1
176
     1
 90
        6
176
     1
 90
        2
176
     1
 62
     7
176
     1
 90
        5
176
     1
 90
        0
176
     1
 90
        0
176
     1
290
     0
176
     1
 90
        1
176
     1
 40
0.0
176
     1
 90
        0
176
     1
290
     0
176
     1
290
     1
176
     1
290
     1
176
     1
290
     0
176
     1
290
     0
176
     1
290
     0
176
     1
290
     0
176
     1
290
     0
176
     1
290
     0
176
     1
 90
       50
176
     1
 40
0.0
176
     1
 40
1.0
176
     1
 90
        0
176
     1
 62
    18
420
        0
176
     1
 90
       50
176
     1
 90
        3
176
     1
 62
     5
420
      255
176
     1
290
     0
176
     1
 90
       50
176
     1
 90
       50
176
     1
 90
       50
176
     1
290
     0
176
     1
 90
       50
176
     1
 62
   256
176
     0
 40
1.0
176
     0
 90
        2
176
     1
  1
strokes_ogs.tif
176
     1
290
     0
176
     1
 40
1.0
176
     1
 40
1.0
176
     1
  0
VISUALSTYLE
  5
40
102
{ACAD_REACTORS
330
29
102
}
330
29
100
AcDbVisualStyle
  2
OverhangOff
 70
    21
177
     3
291
     1
 70
    58
 90
        2
176
     0
 90
        2
176
     0
 90
        0
176
     0
 90
        0
176
     0
 40
0.6
176
     0
 40
30.0
176
     0
 62
     7
420
 16777215
176
     0
 90
        1
176
     0
 90
        4
176
     0
 62
     7
176
     0
 62
   257
176
     0
 90
        1
176
     0
 90
        1
176
     0
 40
1.0
176
     0
 90
        9
176
     2
 62
     7
176
     0
 40
1.0
176
     0
 90
        1
176
     0
 90
        6
176
     0
 90
        2
176
     0
 62
     7
176
     0
 90
        5
176
     0
 90
        0
176
     0
 90
        0
176
     0
290
     0
176
     0
 90
        1
176
     0
 40
0.0
176
     0
 90
        0
176
     0
290
     0
176
     0
290
     1
176
     0
290
     1
176
     0
290
     0
176
     0
290
     0
176
     0
290
     0
176
     0
290
     0
176
     0
290
     0
176
     0
290
     0
176
     0
 90
       50
176
     0
 40
0.0
176
     0
 40
1.0
176
     0
 90
        0
176
     0
 62
    18
420
        0
176
     0
 90
       50
176
     0
 90
        3
176
     0
 62
     5
420
      255
176
     0
290
     0
176
     0
 90
       50
176
     0
 90
       50
176
     0
 90
       50
176
     0
290
     0
176
     0
 90
       50
176
     0
 62
   256
176
     0
 40
1.0
176
     0
 90
        2
176
     0
  1
strokes_ogs.tif
176
     0
290
     0
176
     0
 40
1.0
176
     0
 40
1.0
176
     0
  0
VISUALSTYLE
  5
33
102
{ACAD_REACTORS
330
29
102
}
330
29
100
AcDbVisualStyle
  2
Realistic
 70
     8
177
     3
291
     0
 70
    58
 90
        2
176
     1
 90
        3
176
     1
 90
        0
176
     1
 90
        2
176
     1
 40
0.6
176
     1
 40
30.0
176
     1
 62
     7
420
 16777215
176
     1
 90
        0
176
     1
 90
        0
176
     1
 62
     7
176
     1
 62
   257
176
     1
 90
        1
176
     1
 90
        1
176
     1
 40
1.0
176
     1
 90
        8
176
     1
 62
   257
176
     1
 40
1.0
176
     1
 90
        1
176
     1
 90
        6
176
     1
 90
        2
176
     1
 62
     7
176
     1
 90
        3
176
     1
 90
        0
176
     1
 90
        0
176
     1
290
     0
176
     1
 90
       13
176
     1
 40
0.0
176
     1
 90
        0
176
     1
290
     0
176
     1
290
     1
176
     1
290
     1
176
     1
290
     0
176
     1
290
     0
176
     1
290
     0
176
     1
290
     0
176
     1
290
     0
176
     1
290
     0
176
     1
 90
       50
176
     1
 40
0.0
176
     1
 40
1.0
176
     1
 90
        0
176
     1
 62
    18
420
        0
176
     1
 90
       50
176
     1
 90
        3
176
     1
 62
     5
420
      255
176
     1
290
     0
176
     1
 90
       50
176
     1
 90
       50
176
     1
 90
       50
176
     1
290
     0
176
     1
 90
       50
176
     1
 62
   256
176
     0
 40
1.0
176
     0
 90
        2
176
     1
  1
strokes_ogs.tif
176
     1
290
     0
176
     1
 40
1.0
176
     1
 40
1.0
176
     1
  0
VISUALSTYLE
  5
3E
102
{ACAD_REACTORS
330
29
102
}
330
29
100
AcDbVisualStyle
  2
Shaded
 70
    27
177
     3
291
     0
 70
    58
 90
        2
176
     1
 90
        2
176
     1
 90
        1
176
     1
 90
        2
176
     1
 40
0.6
176
     1
 40
30.0
176
     1
 62
     7
420
 16777215
176
     1
 90
        0
176
     1
 90
        4
176
     1
 62
     7
176
     1
 62
   257
176
     1
 90
        1
176
     1
 90
        1
176
     1
 40
1.0
176
     1
 90
        8
176
     1
 62
   257
176
     1
 40
1.0
176
     1
 90
        1
176
     1
 90
        6
176
     1
 90
        2
176
     1
 62
     8
420
  7895160
176
     1
 90
        3
176
     1
 90
        0
176
     1
 90
        0
176
     1
290
     0
176
     1
 90
        5
176
     1
 40
0.0
176
     1
 90
        0
176
     1
290
     0
176
     1
290
     1
176
     1
290
     1
176
     1
290
     0
176
     1
290
     0
176
     1
290
     0
176
     1
290
     0
176
     1
290
     0
176
     1
290
     0
176
     1
 90
       50
176
     1
 40
0.0
176
     1
 40
1.0
176
     1
 90
        0
176
     1
 62
    18
420
        0
176
     1
 90
       50
176
     1
 90
        3
176
     1
 62
     5
420
      255
176
     1
290
     0
176
     1
 90
       50
176
     1
 90
       50
176
     1
 90
       50
176
     1
290
     0
176
     1
 90
       50
176
     1
 62
   256
176
     0
 40
1.0
176
     0
 90
        2
176
     1
  1
strokes_ogs.tif
176
     1
290
     0
176
     1
 40
1.0
176
     1
 40
1.0
176
     1
  0
VISUALSTYLE
  5
3D
102
{ACAD_REACTORS
330
29
102
}
330
29
100
AcDbVisualStyle
  2
Shaded with edges
 70
    26
177
     3
291
     0
 70
    58
 90
        2
176
     1
 90
        2
176
     1
 90
        1
176
     1
 90
        2
176
     1
 40
0.6
176
     1
 40
30.0
176
     1
 62
     7
420
 16777215
176
     1
 90
        1
176
     1
 90
        2
176
     1
 62
     7
176
     1
 62
   257
176
     1
 90
        2
176
     1
 90
        1
176
     1
 40
1.0
176
     1
 90
        8
176
     1
 62
   257
176
     1
 40
1.0
176
     1
 90
        1
176
     1
 90
        6
176
     1
 90
        2
176
     1
 62
     7
176
     1
 90
        3
176
     1
 90
        0
176
     1
 90
        0
176
     1
290
     0
176
     1
 90
        5
176
     1
 40
0.0
176
     1
 90
        0
176
     1
290
     0
176
     1
290
     1
176
     1
290
     1
176
     1
290
     0
176
     1
290
     0
176
     1
290
     0
176
     1
290
     0
176
     1
290
     0
176
     1
290
     0
176
     1
 90
       50
176
     1
 40
0.0
176
     1
 40
1.0
176
     1
 90
        0
176
     1
 62
    18
420
        0
176
     1
 90
       50
176
     1
 90
        3
176
     1
 62
     5
420
      255
176
     1
290
     0
176
     1
 90
       50
176
     1
 90
       50
176
     1
 90
       50
176
     1
290
     0
176
     1
 90
       50
176
     1
 62
   256
176
     0
 40
1.0
176
     0
 90
        2
176
     1
  1
strokes_ogs.tif
176
     1
290
     0
176
     1
 40
1.0
176
     1
 40
1.0
176
     1
  0
VISUALSTYLE
  5
3A
102
{ACAD_REACTORS
330
29
102
}
330
29
100
AcDbVisualStyle
  2
Shades of Gray
 70
    23
177
     3
291
     0
 70
    58
 90
        2
176
     1
 90
        2
176
     1
 90
        3
176
     1
 90
        0
176
     1
 40
0.6
176
     1
 40
30.0
176
     1
 62
     7
420
 16777215
176
     1
 90
        2
176
     1
 90
        2
176
     1
 62
     7
176
     1
 62
     7
176
     1
 90
        1
176
     1
 90
        1
176
     1
 40
40.0
176
     1
 90
        8
176
     1
 62
     7
176
     1
 40
1.0
176
     1
 90
        1
176
     1
 90
        6
176
     1
 90
        2
176
     1
 62
     7
176
     1
 90
        3
176
     1
 90
        0
176
     1
 90
        0
176
     1
290
     0
176
     1
 90
        1
176
     1
 40
0.0
176
     1
 90
        0
176
     1
290
     0
176
     1
290
     1
176
     1
290
     1
176
     1
290
     0
176
     1
290
     0
176
     1
290
     0
176
     1
290
     0
176
     1
290
     0
176
     1
290
     0
176
     1
 90
       50
176
     1
 40
0.0
176
     1
 40
1.0
176
     1
 90
        0
176
     1
 62
    18
420
        0
176
     1
 90
       50
176
     1
 90
        3
176
     1
 62
     5
420
      255
176
     1
290
     0
176
     1
 90
       50
176
     1
 90
       50
176
     1
 90
       50
176
     1
290
     0
176
     1
 90
       50
176
     1
 62
   256
176
     0
 40
1.0
176
     0
 90
        2
176
     1
  1
strokes_ogs.tif
176
     1
290
     0
176
     1
 40
1.0
176
     1
 40
1.0
176
     1
  0
VISUALSTYLE
  5
3B
102
{ACAD_REACTORS
330
29
102
}
330
29
100
AcDbVisualStyle
  2
Sketchy
 70
    24
177
     3
291
     0
 70
    58
 90
        1
176
     1
 90
        2
176
     1
 90
        2
176
     1
 90
        0
176
     1
 40
0.6
176
     1
 40
30.0
176
     1
 62
     7
420
 16777215
176
     1
 90
        2
176
     1
 90
        2
176
     1
 62
     7
176
     1
 62
     7
176
     1
 90
        1
176
     1
 90
        1
176
     1
 40
40.0
176
     1
 90
       11
176
     1
 62
     7
176
     1
 40
1.0
176
     1
 90
        1
176
     1
 90
        6
176
     1
 90
        2
176
     1
 62
     7
176
     1
 90
        6
176
     1
 90
        0
176
     1
 90
        0
176
     1
290
     0
176
     1
 90
        1
176
     1
 40
0.0
176
     1
 90
        0
176
     1
290
     0
176
     1
290
     1
176
     1
290
     1
176
     1
290
     0
176
     1
290
     0
176
     1
290
     0
176
     1
290
     0
176
     1
290
     0
176
     1
290
     0
176
     1
 90
       50
176
     1
 40
0.0
176
     1
 40
1.0
176
     1
 90
        0
176
     1
 62
    18
420
        0
176
     1
 90
       50
176
     1
 90
        3
176
     1
 62
     5
420
      255
176
     1
290
     0
176
     1
 90
       50
176
     1
 90
       50
176
     1
 90
       50
176
     1
290
     0
176
     1
 90
       50
176
     1
 62
   256
176
     0
 40
1.0
176
     0
 90
        2
176
     1
  1
strokes_ogs.tif
176
     1
290
     0
176
     1
 40
1.0
176
     1
 40
1.0
176
     1
  0
VISUALSTYLE
  5
36
102
{ACAD_REACTORS
330
29
102
}
330
29
100
AcDbVisualStyle
  2
Thicken
 70
    13
177
     3
291
     1
 70
    58
 90
        2
176
     1
 90
        2
176
     1
 90
        0
176
     1
 90
        0
176
     1
 40
0.6
176
     1
 40
30.0
176
     1
 62
     7
420
 16777215
176
     1
 90
        1
176
     1
 90
        4
176
     1
 62
     7
176
     1
 62
   257
176
     1
 90
        1
176
     1
 90
        1
176
     1
 40
1.0
176
     1
 90
       12
176
     1
 62
     7
176
     1
 40
1.0
176
     1
 90
        1
176
     1
 90
        6
176
     1
 90
        2
176
     1
 62
     7
176
     1
 90
        5
176
     1
 90
        0
176
     1
 90
        0
176
     1
290
     0
176
     1
 90
        1
176
     1
 40
0.0
176
     1
 90
        0
176
     1
290
     0
176
     1
290
     1
176
     1
290
     1
176
     1
290
     0
176
     1
290
     0
176
     1
290
     0
176
     1
290
     0
176
     1
290
     0
176
     1
290
     0
176
     1
 90
       50
176
     1
 40
0.0
176
     1
 40
1.0
176
     1
 90
        0
176
     1
 62
    18
420
        0
176
     1
 90
       50
176
     1
 90
        3
176
     1
 62
     5
420
      255
176
     1
290
     0
176
     1
 90
       50
176
     1
 90
       50
176
     1
 90
       50
176
     1
290
     0
176
     1
 90
       50
176
     1
 62
   256
176
     0
 40
1.0
176
     0
 90
        2
176
     1
  1
strokes_ogs.tif
176
     1
290
     0
176
     1
 40
1.0
176
     1
 40
1.0
176
     1
  0
VISUALSTYLE
  5
30
102
{ACAD_REACTORS
330
29
102
}
330
29
100
AcDbVisualStyle
  2
Wireframe
 70
     5
177
     3
291
     0
 70
    58
 90
        0
176
     1
 90
        2
176
     1
 90
        0
176
     1
 90
        0
176
     1
 40
0.6
176
     1
 40
30.0
176
     1
 62
     7
420
 16777215
176
     1
 90
        1
176
     1
 90
        4
176
     1
 62
     7
176
     1
 62
   257
176
     1
 90
        1
176
     1
 90
        1
176
     1
 40
1.0
176
     1
 90
        0
176
     1
 62
   257
176
     1
 40
1.0
176
     1
 90
        1
176
     1
 90
        6
176
     1
 90
        2
176
     1
 62
     7
176
     1
 90
        3
176
     1
 90
        0
176
     1
 90
        0
176
     1
290
     0
176
     1
 90
        1
176
     1
 40
0.0
176
     1
 90
        0
176
     1
290
     0
176
     1
290
     1
176
     1
290
     1
176
     1
290
     0
176
     1
290
     0
176
     1
290
     0
176
     1
290
     0
176
     1
290
     0
176
     1
290
     0
176
     1
 90
       50
176
     1
 40
0.0
176
     1
 40
1.0
176
     1
 90
        0
176
     1
 62
    18
420
        0
176
     1
 90
       50
176
     1
 90
        3
176
     1
 62
     5
420
      255
176
     1
290
     0
176
     1
 90
       50
176
     1
 90
       50
176
     1
 90
       50
176
     1
290
     0
176
     1
 90
       50
176
     1
 62
   256
176
     0
 40
1.0
176
     0
 90
        2
176
     1
  1
strokes_ogs.tif
176
     1
290
     0
176
     1
 40
1.0
176
     1
 40
1.0
176
     1
  0
VISUALSTYLE
  5
3C
102
{ACAD_REACTORS
330
29
102
}
330
29
100
AcDbVisualStyle
  2
X-Ray
 70
    25
177
     3
291
     0
 70
    58
 90
        2
176
     1
 90
        2
176
     1
 90
        1
176
     1
 90
        1
176
     1
 40
0.5
176
     1
 40
30.0
176
     1
 62
     7
420
 16777215
176
     1
 90
        1
176
     1
 90
        0
176
     1
 62
     7
176
     1
 62
   257
176
     1
 90
        1
176
     1
 90
        1
176
     1
 40
1.0
176
     1
 90
        8
176
     1
 62
     7
176
     1
 40
1.0
176
     1
 90
        1
176
     1
 90
        6
176
     1
 90
        2
176
     1
 62
     7
176
     1
 90
        3
176
     1
 90
        0
176
     1
 90
        0
176
     1
290
     0
176
     1
 90
       13
176
     1
 40
0.0
176
     1
 90
        0
176
     1
290
     0
176
     1
290
     1
176
     1
290
     1
176
     1
290
     0
176
     1
290
     0
176
     1
290
     0
176
     1
290
     0
176
     1
290
     0
176
     1
290
     0
176
     1
 90
       50
176
     1
 40
0.0
176
     1
 40
1.0
176
     1
 90
        0
176
     1
 62
    18
420
        0
176
     1
 90
       50
176
     1
 90
        3
176
     1
 62
     5
420
      255
176
     1
290
     0
176
     1
 90
       50
176
     1
 90
       50
176
     1
 90
       50
176
     1
290
     0
176
     1
 90
       50
176
     1
 62
   256
176
     0
 40
1.0
176
     0
 90
        2
176
     1
  1
strokes_ogs.tif
176
     1
290
     0
176
     1
 40
1.0
176
     1
 40
1.0
176
     1
  0
DICTIONARYVAR
  5
2FE
102
{ACAD_REACTORS
330
2F9
102
}
330
2F9
100
DictionaryVariables
280
     0
  1
1:1
  0
DICTIONARYVAR
  5
2FB
102
{ACAD_REACTORS
330
2F9
102
}
330
2F9
100
DictionaryVariables
280
     0
  1
STANDARD
  0
DICTIONARYVAR
  5
2FA
102
{ACAD_REACTORS
330
2F9
102
}
330
2F9
100
DictionaryVariables
280
     0
  1
STANDARD
  0
DICTIONARYVAR
  5
2FC
102
{ACAD_REACTORS
330
2F9
102
}
330
2F9
100
DictionaryVariables
280
     0
  1
Imperial24
  0
DICTIONARYVAR
  5
2FD
102
{ACAD_REACTORS
330
2F9
102
}
330
2F9
100
DictionaryVariables
280
     0
  1
Imperial24
  0
DICTIONARY
  5
1A
330
19
100
AcDbDictionary
280
     1
281
     1
  3
BUMPTILE
360
1C
  3
DIFFUSETILE
360
1B
  3
OPACITYTILE
360
1F
  3
REFLECTIONTILE
360
1E
  3
REFRACTIONTILE
360
20
  3
SPECULARTILE
360
1D
  0
DICTIONARY
  5
12
330
11
100
AcDbDictionary
280
     1
281
     1
  3
BUMPTILE
360
14
  3
DIFFUSETILE
360
13
  3
OPACITYTILE
360
17
  3
REFLECTIONTILE
360
16
  3
REFRACTIONTILE
360
18
  3
SPECULARTILE
360
15
  0
DICTIONARY
  5
22
330
21
100
AcDbDictionary
280
     1
281
     1
  3
BUMPTILE
360
24
  3
DIFFUSETILE
360
23
  3
OPACITYTILE
360
27
  3
REFLECTIONTILE
360
26
  3
REFRACTIONTILE
360
28
  3
SPECULARTILE
360
25
  0
DICTIONARY
  5
2FF
330
65
100
AcDbDictionary
280
     1
281
     1
  3
ACAD_ROUNDTRIP_2008_TABLESTYLE_CELLSTYLEMAP
360
300
  0
XRECORD
  5
1C
102
{ACAD_REACTORS
330
1A
102
}
330
1A
100
AcDbXrecord
280
     1
270
     1
271
     1
  0
XRECORD
  5
1B
102
{ACAD_REACTORS
330
1A
102
}
330
1A
100
AcDbXrecord
280
     1
270
     1
271
     1
  0
XRECORD
  5
1F
102
{ACAD_REACTORS
330
1A
102
}
330
1A
100
AcDbXrecord
280
     1
270
     1
271
     1
  0
XRECORD
  5
1E
102
{ACAD_REACTORS
330
1A
102
}
330
1A
100
AcDbXrecord
280
     1
270
     1
271
     1
  0
XRECORD
  5
20
102
{ACAD_REACTORS
330
1A
102
}
330
1A
100
AcDbXrecord
280
     1
270
     1
271
     1
  0
XRECORD
  5
1D
102
{ACAD_REACTORS
330
1A
102
}
330
1A
100
AcDbXrecord
280
     1
270
     1
271
     1
  0
XRECORD
  5
14
102
{ACAD_REACTORS
330
12
102
}
330
12
100
AcDbXrecord
280
     1
270
     1
271
     1
  0
XRECORD
  5
13
102
{ACAD_REACTORS
330
12
102
}
330
12
100
AcDbXrecord
280
     1
270
     1
271
     1
  0
XRECORD
  5
17
102
{ACAD_REACTORS
330
12
102
}
330
12
100
AcDbXrecord
280
     1
270
     1
271
     1
  0
XRECORD
  5
16
102
{ACAD_REACTORS
330
12
102
}
330
12
100
AcDbXrecord
280
     1
270
     1
271
     1
  0
XRECORD
  5
18
102
{ACAD_REACTORS
330
12
102
}
330
12
100
AcDbXrecord
280
     1
270
     1
271
     1
  0
XRECORD
  5
15
102
{ACAD_REACTORS
330
12
102
}
330
12
100
AcDbXrecord
280
     1
270
     1
271
     1
  0
XRECORD
  5
24
102
{ACAD_REACTORS
330
22
102
}
330
22
100
AcDbXrecord
280
     1
270
     1
271
     1
  0
XRECORD
  5
23
102
{ACAD_REACTORS
330
22
102
}
330
22
100
AcDbXrecord
280
     1
270
     1
271
     1
  0
XRECORD
  5
27
102
{ACAD_REACTORS
330
22
102
}
330
22
100
AcDbXrecord
280
     1
270
     1
271
     1
  0
XRECORD
  5
26
102
{ACAD_REACTORS
330
22
102
}
330
22
100
AcDbXrecord
280
     1
270
     1
271
     1
  0
XRECORD
  5
28
102
{ACAD_REACTORS
330
22
102
}
330
22
100
AcDbXrecord
280
     1
270
     1
271
     1
  0
XRECORD
  5
25
102
{ACAD_REACTORS
330
22
102
}
330
22
100
AcDbXrecord
280
     1
270
     1
271
     1
  0
CELLSTYLEMAP
  5
300
102
{ACAD_REACTORS
330
2FF
102
}
330
2FF
100
AcDbCellStyleMap
 90
        3
300
CELLSTYLE
  1
TABLEFORMAT_BEGIN
 90
        5
170
     1
 91
        0
 92
    32768
 62
   257
 93
        1
300
CONTENTFORMAT
  1
CONTENTFORMAT_BEGIN
 90
        0
 91
        0
 92
      512
 93
        0
300

 40
0.0
140
1.0
 94
        5
 62
     0
340
55
144
0.25
309
CONTENTFORMAT_END
171
     0
 94
        0
309
TABLEFORMAT_END
  1
CELLSTYLE_BEGIN
 90
        1
 91
        1
300
_TITLE
309
CELLSTYLE_END
300
CELLSTYLE
  1
TABLEFORMAT_BEGIN
 90
        5
170
     1
 91
        0
 92
        0
 62
   257
 93
        1
300
CONTENTFORMAT
  1
CONTENTFORMAT_BEGIN
 90
        0
 91
        0
 92
      512
 93
        0
300

 40
0.0
140
1.0
 94
        5
 62
     0
340
55
144
0.18
309
CONTENTFORMAT_END
171
     0
 94
        0
309
TABLEFORMAT_END
  1
CELLSTYLE_BEGIN
 90
        2
 91
        1
300
_HEADER
309
CELLSTYLE_END
300
CELLSTYLE
  1
TABLEFORMAT_BEGIN
 90
        5
170
     1
 91
        0
 92
        0
 62
   257
 93
        1
300
CONTENTFORMAT
  1
CONTENTFORMAT_BEGIN
 90
        0
 91
        0
 92
      512
 93
        0
300

 40
0.0
140
1.0
 94
        2
 62
     0
340
55
144
0.18
309
CONTENTFORMAT_END
171
     0
 94
        0
309
TABLEFORMAT_END
  1
CELLSTYLE_BEGIN
 90
        3
 91
        2
300
_DATA
309
CELLSTYLE_END
  0
ENDSEC
  0
EOF
