  0
SECTION
  2
HEADER
  9
$ACADVER
  1
AC1018
  9
$ACADMAINTVER
 70
     0
  9
$DWGCODEPAGE
  3
ASCII
  9
$INSBASE
 10
0.0
 20
0.0
 30
0.0
  9
$EXTMIN
 10
1.000000000000000E+20
 20
1.000000000000000E+20
 30
1.000000000000000E+20
  9
$EXTMAX
 10
-1.000000000000000E+20
 20
-1.000000000000000E+20
 30
-1.000000000000000E+20
  9
$LIMMIN
 10
0.0
 20
0.0
  9
$LIMMAX
 10
12.0
 20
9.0
  9
$ORTHOMODE
 70
     0
  9
$REGENMODE
 70
     1
  9
$FILLMODE
 70
     1
  9
$QTEXTMODE
 70
     0
  9
$MIRRTEXT
 70
     1
  9
$LTSCALE
 40
1.0
  9
$ATTMODE
 70
     1
  9
$TEXTSIZE
 40
0.2
  9
$TRACEWID
 40
0.05
  9
$TEXTSTYLE
  7
Standard
  9
$CLAYER
  8
0
  9
$CELTYPE
  6
ByLayer
  9
$CECOLOR
 62
   256
  9
$CELTSCALE
 40
1.0
  9
$DISPSILH
 70
     0
  9
$DIMSCALE
 40
1.0
  9
$DIMASZ
 40
0.18
  9
$DIMEXO
 40
0.0625
  9
$DIMDLI
 40
0.38
  9
$DIMRND
 40
0.0
  9
$DIMDLE
 40
0.0
  9
$DIMEXE
 40
0.18
  9
$DIMTP
 40
0.0
  9
$DIMTM
 40
0.0
  9
$DIMTXT
 40
0.18
  9
$DIMCEN
 40
0.09
  9
$DIMTSZ
 40
0.0
  9
$DIMTOL
 70
     0
  9
$DIMLIM
 70
     0
  9
$DIMTIH
 70
     1
  9
$DIMTOH
 70
     1
  9
$DIMSE1
 70
     0
  9
$DIMSE2
 70
     0
  9
$DIMTAD
 70
     0
  9
$DIMZIN
 70
     0
  9
$DIMBLK
  1

  9
$DIMASO
 70
     1
  9
$DIMSHO
 70
     1
  9
$DIMPOST
  1

  9
$DIMAPOST
  1

  9
$DIMALT
 70
     0
  9
$DIMALTD
 70
     2
  9
$DIMALTF
 40
25.4
  9
$DIMLFAC
 40
1.0
  9
$DIMTOFL
 70
     0
  9
$DIMTVP
 40
0.0
  9
$DIMTIX
 70
     0
  9
$DIMSOXD
 70
     0
  9
$DIMSAH
 70
     0
  9
$DIMBLK1
  1

  9
$DIMBLK2
  1

  9
$DIMSTYLE
  2
Standard
  9
$DIMCLRD
 70
     0
  9
$DIMCLRE
 70
     0
  9
$DIMCLRT
 70
     0
  9
$DIMTFAC
 40
1.0
  9
$DIMGAP
 40
0.09
  9
$DIMJUST
 70
     0
  9
$DIMSD1
 70
     0
  9
$DIMSD2
 70
     0
  9
$DIMTOLJ
 70
     1
  9
$DIMTZIN
 70
     0
  9
$DIMALTZ
 70
     0
  9
$DIMALTTZ
 70
     0
  9
$DIMUPT
 70
     0
  9
$DIMDEC
 70
     4
  9
$DIMTDEC
 70
     4
  9
$DIMALTU
 70
     2
  9
$DIMALTTD
 70
     2
  9
$DIMTXSTY
  7
Standard
  9
$DIMAUNIT
 70
     0
  9
$DIMADEC
 70
     0
  9
$DIMALTRND
 40
0.0
  9
$DIMAZIN
 70
     0
  9
$DIMDSEP
 70
    46
  9
$DIMATFIT
 70
     3
  9
$DIMFRAC
 70
     0
  9
$DIMLDRBLK
  1

  9
$DIMLUNIT
 70
     2
  9
$DIMLWD
 70
    -2
  9
$DIMLWE
 70
    -2
  9
$DIMTMOVE
 70
     0
  9
$LUNITS
 70
     2
  9
$LUPREC
 70
     4
  9
$SKETCHINC
 40
0.1
  9
$FILLETRAD
 40
0.5
  9
$AUNITS
 70
     0
  9
$AUPREC
 70
     0
  9
$MENU
  1
.
  9
$ELEVATION
 40
0.0
  9
$PELEVATION
 40
0.0
  9
$THICKNESS
 40
0.0
  9
$LIMCHECK
 70
     0
  9
$CHAMFERA
 40
0.5
  9
$CHAMFERB
 40
0.5
  9
$CHAMFERC
 40
1.0
  9
$CHAMFERD
 40
0.0
  9
$SKPOLY
 70
     0
  9
$TDCREATE
 40
2456954.38081669
  9
$TDUCREATE
 40
2456954.297483357
  9
$TDUPDATE
 40
2456954.380816701
  9
$TDUUPDATE
 40
2456954.297483368
  9
$TDINDWG
 40
0.0000000116
  9
$TDUSRTIMER
 40
0.0000000116
  9
$USRTIMER
 70
     1
  9
$ANGBASE
 50
0.0
  9
$ANGDIR
 70
     0
  9
$PDMODE
 70
     0
  9
$PDSIZE
 40
0.0
  9
$PLINEWID
 40
0.0
  9
$SPLFRAME
 70
     0
  9
$SPLINETYPE
 70
     6
  9
$SPLINESEGS
 70
     8
  9
$HANDSEED
  5
91F
  9
$SURFTAB1
 70
     6
  9
$SURFTAB2
 70
     6
  9
$SURFTYPE
 70
     6
  9
$SURFU
 70
     6
  9
$SURFV
 70
     6
  9
$UCSBASE
  2

  9
$UCSNAME
  2

  9
$UCSORG
 10
0.0
 20
0.0
 30
0.0
  9
$UCSXDIR
 10
1.0
 20
0.0
 30
0.0
  9
$UCSYDIR
 10
0.0
 20
1.0
 30
0.0
  9
$UCSORTHOREF
  2

  9
$UCSORTHOVIEW
 70
     0
  9
$UCSORGTOP
 10
0.0
 20
0.0
 30
0.0
  9
$UCSORGBOTTOM
 10
0.0
 20
0.0
 30
0.0
  9
$UCSORGLEFT
 10
0.0
 20
0.0
 30
0.0
  9
$UCSORGRIGHT
 10
0.0
 20
0.0
 30
0.0
  9
$UCSORGFRONT
 10
0.0
 20
0.0
 30
0.0
  9
$UCSORGBACK
 10
0.0
 20
0.0
 30
0.0
  9
$PUCSBASE
  2

  9
$PUCSNAME
  2

  9
$PUCSORG
 10
0.0
 20
0.0
 30
0.0
  9
$PUCSXDIR
 10
1.0
 20
0.0
 30
0.0
  9
$PUCSYDIR
 10
0.0
 20
1.0
 30
0.0
  9
$PUCSORTHOREF
  2

  9
$PUCSORTHOVIEW
 70
     0
  9
$PUCSORGTOP
 10
0.0
 20
0.0
 30
0.0
  9
$PUCSORGBOTTOM
 10
0.0
 20
0.0
 30
0.0
  9
$PUCSORGLEFT
 10
0.0
 20
0.0
 30
0.0
  9
$PUCSORGRIGHT
 10
0.0
 20
0.0
 30
0.0
  9
$PUCSORGFRONT
 10
0.0
 20
0.0
 30
0.0
  9
$PUCSORGBACK
 10
0.0
 20
0.0
 30
0.0
  9
$USERI1
 70
     0
  9
$USERI2
 70
     0
  9
$USERI3
 70
     0
  9
$USERI4
 70
     0
  9
$USERI5
 70
     0
  9
$USERR1
 40
0.0
  9
$USERR2
 40
0.0
  9
$USERR3
 40
0.0
  9
$USERR4
 40
0.0
  9
$USERR5
 40
0.0
  9
$WORLDVIEW
 70
     1
  9
$SHADEDGE
 70
     3
  9
$SHADEDIF
 70
    70
  9
$TILEMODE
 70
     1
  9
$MAXACTVP
 70
    64
  9
$PINSBASE
 10
0.0
 20
0.0
 30
0.0
  9
$PLIMCHECK
 70
     0
  9
$PEXTMIN
 10
1.000000000000000E+20
 20
1.000000000000000E+20
 30
1.000000000000000E+20
  9
$PEXTMAX
 10
-1.000000000000000E+20
 20
-1.000000000000000E+20
 30
-1.000000000000000E+20
  9
$PLIMMIN
 10
0.0
 20
0.0
  9
$PLIMMAX
 10
12.0
 20
9.0
  9
$UNITMODE
 70
     0
  9
$VISRETAIN
 70
     1
  9
$PLINEGEN
 70
     0
  9
$PSLTSCALE
 70
     1
  9
$TREEDEPTH
 70
  3020
  9
$CMLSTYLE
  2
Standard
  9
$CMLJUST
 70
     0
  9
$CMLSCALE
 40
1.0
  9
$PROXYGRAPHICS
 70
     1
  9
$MEASUREMENT
 70
     0
  9
$CELWEIGHT
370
    -1
  9
$ENDCAPS
280
     0
  9
$JOINSTYLE
280
     0
  9
$LWDISPLAY
290
     1
  9
$INSUNITS
 70
     1
  9
$HYPERLINKBASE
  1

  9
$STYLESHEET
  1

  9
$XEDIT
290
     1
  9
$CEPSNTYPE
380
     0
  9
$PSTYLEMODE
290
     1
  9
$FINGERPRINTGUID
  2
{F482452B-B266-406D-BFC3-08D57979A9A8}
  9
$VERSIONGUID
  2
{FAEB1C32-E019-11D5-929B-00C0DF256EC4}
  9
$EXTNAMES
290
     1
  9
$PSVPSCALE
 40
0.0
  9
$OLESTARTUP
290
     0
  9
$SORTENTS
280
   127
  9
$INDEXCTL
280
     0
  9
$HIDETEXT
280
     1
  9
$XCLIPFRAME
290
     0
  9
$HALOGAP
280
     0
  9
$OBSCOLOR
 70
   257
  9
$OBSLTYPE
280
     0
  9
$INTERSECTIONDISPLAY
280
     0
  9
$INTERSECTIONCOLOR
 70
   257
  9
$DIMASSOC
280
     2
  9
$PROJECTNAME
  1

  0
ENDSEC
  0
SECTION
  2
CLASSES
  0
CLASS
  1
ACDBDICTIONARYWDFLT
  2
AcDbDictionaryWithDefault
  3
ObjectDBX Classes
 90
        0
 91
        3
280
     0
281
     0
  0
CLASS
  1
VISUALSTYLE
  2
AcDbVisualStyle
  3
ObjectDBX Classes
 90
     4095
 91
        3
280
     0
281
     0
  0
ENDSEC
  0
SECTION
  2
TABLES
  0
TABLE
  2
VPORT
  5
8
330
0
100
AcDbSymbolTable
 70
     1
  0
VPORT
  5
29
330
8
100
AcDbSymbolTableRecord
100
AcDbViewportTableRecord
  2
*Active
 70
     0
 10
0.0
 20
0.0
 11
1.0
 21
1.0
 12
0.0
 22
0.0
 13
0.0
 23
0.0
 14
0.5
 24
0.5
 15
0.5
 25
0.5
 16
0.0
 26
0.0
 36
1.0
 17
306.0
 27
396.0
 37
0.0
 40
792.0
 41
0.7727272727272727
 42
50.0
 43
0.0
 44
0.0
 50
0.0
 51
0.0
 71
     0
 72
   100
 73
     1
 74
     3
 75
     0
 76
     0
 77
     0
 78
     0
281
     0
 65
     1
110
0.0
120
0.0
130
0.0
111
1.0
121
0.0
131
0.0
112
0.0
122
1.0
132
0.0
 79
     0
146
0.0
  0
ENDTAB
  0
TABLE
  2
LTYPE
  5
5
330
0
100
AcDbSymbolTable
 70
     8
  0
LTYPE
  5
14
330
5
100
AcDbSymbolTableRecord
100
AcDbLinetypeTableRecord
  2
ByBlock
 70
     0
  3

 72
    65
 73
     0
 40
0.0
  0
LTYPE
  5
15
330
5
100
AcDbSymbolTableRecord
100
AcDbLinetypeTableRecord
  2
ByLayer
 70
     0
  3

 72
    65
 73
     0
 40
0.0
  0
LTYPE
  5
16
330
5
100
AcDbSymbolTableRecord
100
AcDbLinetypeTableRecord
  2
Continuous
 70
     0
  3
Solid line
 72
    65
 73
     0
 40
0.0
  0
LTYPE
  5
299
330
5
100
AcDbSymbolTableRecord
100
AcDbLinetypeTableRecord
  2
AI-Linetype-1
 70
     0
  3
Adobe Illustrator Linetype No. 1
 72
    65
 73
     4
 40
3000.009999999776
 49
1000.0
 74
     0
 49
-1000.0
 74
     0
 49
0.0099999997764826
 74
     0
 49
-1000.0
 74
     0
  0
LTYPE
  5
8F0
330
5
100
AcDbSymbolTableRecord
100
AcDbLinetypeTableRecord
  2
AI-Linetype-2
 70
     0
  3
Adobe Illustrator Linetype No. 2
 72
    65
 73
     6
 40
1127.011388549581
 49
322.0003967285156
 74
     0
 49
-161.0001983642578
 74
     0
 49
322.0003967285156
 74
     0
 49
-161.0001983642578
 74
     0
 49
0.0099999997764826
 74
     0
 49
-161.0001983642578
 74
     0
  0
LTYPE
  5
8F9
330
5
100
AcDbSymbolTableRecord
100
AcDbLinetypeTableRecord
  2
AI-Linetype-3
 70
     0
  3
Adobe Illustrator Linetype No. 3
 72
    65
 73
     6
 40
1127.011388549581
 49
322.0003967285156
 74
     0
 49
-161.0001983642578
 74
     0
 49
322.0003967285156
 74
     0
 49
-161.0001983642578
 74
     0
 49
0.0099999997764826
 74
     0
 49
-161.0001983642578
 74
     0
  0
LTYPE
  5
902
330
5
100
AcDbSymbolTableRecord
100
AcDbLinetypeTableRecord
  2
AI-Linetype-4
 70
     0
  3
Adobe Illustrator Linetype No. 4
 72
    65
 73
     6
 40
1127.011388549581
 49
322.0003967285156
 74
     0
 49
-161.0001983642578
 74
     0
 49
322.0003967285156
 74
     0
 49
-161.0001983642578
 74
     0
 49
0.0099999997764826
 74
     0
 49
-161.0001983642578
 74
     0
  0
LTYPE
  5
90B
330
5
100
AcDbSymbolTableRecord
100
AcDbLinetypeTableRecord
  2
AI-Linetype-5
 70
     0
  3
Adobe Illustrator Linetype No. 5
 72
    65
 73
     6
 40
1127.011388549581
 49
322.0003967285156
 74
     0
 49
-161.0001983642578
 74
     0
 49
322.0003967285156
 74
     0
 49
-161.0001983642578
 74
     0
 49
0.0099999997764826
 74
     0
 49
-161.0001983642578
 74
     0
  0
LTYPE
  5
914
330
5
100
AcDbSymbolTableRecord
100
AcDbLinetypeTableRecord
  2
AI-Linetype-6
 70
     0
  3
Adobe Illustrator Linetype No. 6
 72
    65
 73
     6
 40
1127.011388549581
 49
322.0003967285156
 74
     0
 49
-161.0001983642578
 74
     0
 49
322.0003967285156
 74
     0
 49
-161.0001983642578
 74
     0
 49
0.0099999997764826
 74
     0
 49
-161.0001983642578
 74
     0
  0
LTYPE
  5
91D
330
5
100
AcDbSymbolTableRecord
100
AcDbLinetypeTableRecord
  2
AI-Linetype-7
 70
     0
  3
Adobe Illustrator Linetype No. 7
 72
    65
 73
     6
 40
1127.011388549581
 49
322.0003967285156
 74
     0
 49
-161.0001983642578
 74
     0
 49
322.0003967285156
 74
     0
 49
-161.0001983642578
 74
     0
 49
0.0099999997764826
 74
     0
 49
-161.0001983642578
 74
     0
  0
ENDTAB
  0
TABLE
  2
LAYER
  5
2
330
0
100
AcDbSymbolTable
 70
     7
  0
LAYER
  5
10
330
2
100
AcDbSymbolTableRecord
100
AcDbLayerTableRecord
  2
0
 70
     0
 62
     7
  6
Continuous
370
    -3
390
F
  0
LAYER
  5
3B
330
2
100
AcDbSymbolTableRecord
100
AcDbLayerTableRecord
  2
LINHAEXT
 70
     0
 62
     7
  6
Continuous
370
    -3
390
F
  0
LAYER
  5
1F6
330
2
100
AcDbSymbolTableRecord
100
AcDbLayerTableRecord
  2
COTAS
 70
     0
 62
     7
  6
Continuous
370
    -3
390
F
  0
LAYER
  5
841
330
2
100
AcDbSymbolTableRecord
100
AcDbLayerTableRecord
  2
ESPECIAL
 70
     0
 62
     7
  6
Continuous
370
    -3
390
F
  0
LAYER
  5
867
330
2
100
AcDbSymbolTableRecord
100
AcDbLayerTableRecord
  2
INVIS\U+00CDVEIS
 70
     0
 62
     7
  6
Continuous
370
    -3
390
F
  0
LAYER
  5
87D
330
2
100
AcDbSymbolTableRecord
100
AcDbLayerTableRecord
  2
INVISIVEL
 70
     0
 62
     7
  6
Continuous
370
    -3
390
F
  0
LAYER
  5
8E7
330
2
100
AcDbSymbolTableRecord
100
AcDbLayerTableRecord
  2
COERTES
 70
     0
 62
     7
  6
Continuous
370
    -3
390
F
  0
ENDTAB
  0
TABLE
  2
STYLE
  5
3
330
0
100
AcDbSymbolTable
 70
     1
  0
STYLE
  5
11
330
3
100
AcDbSymbolTableRecord
100
AcDbTextStyleTableRecord
  2
Standard
 70
     0
 40
0.0
 41
1.0
 50
0.0
 71
     0
 42
0.2
  3
txt
  4

  0
ENDTAB
  0
TABLE
  2
VIEW
  5
6
330
0
100
AcDbSymbolTable
 70
     0
  0
ENDTAB
  0
TABLE
  2
UCS
  5
7
330
0
100
AcDbSymbolTable
 70
     0
  0
ENDTAB
  0
TABLE
  2
APPID
  5
9
330
0
100
AcDbSymbolTable
 70
     1
  0
APPID
  5
12
330
9
100
AcDbSymbolTableRecord
100
AcDbRegAppTableRecord
  2
ACAD
 70
     0
  0
ENDTAB
  0
TABLE
  2
DIMSTYLE
  5
A
330
0
100
AcDbSymbolTable
 70
     1
100
AcDbDimStyleTable
  0
DIMSTYLE
105
27
330
A
100
AcDbSymbolTableRecord
100
AcDbDimStyleTableRecord
  2
Standard
 70
     0
340
11
  0
ENDTAB
  0
TABLE
  2
BLOCK_RECORD
  5
1
330
0
100
AcDbSymbolTable
 70
   320
  0
BLOCK_RECORD
  5
1F
330
1
100
AcDbSymbolTableRecord
100
AcDbBlockTableRecord
  2
*Model_Space
340
22
  0
BLOCK_RECORD
  5
1B
330
1
100
AcDbSymbolTableRecord
100
AcDbBlockTableRecord
  2
*Paper_Space
340
1E
  0
BLOCK_RECORD
  5
23
330
1
100
AcDbSymbolTableRecord
100
AcDbBlockTableRecord
  2
*Paper_Space0
340
26
  0
BLOCK_RECORD
  5
3C
330
1
100
AcDbSymbolTableRecord
100
AcDbBlockTableRecord
  2
block 2
340
0
102
{BLKREFS
331
3D
102
}
  0
BLOCK_RECORD
  5
41
330
1
100
AcDbSymbolTableRecord
100
AcDbBlockTableRecord
  2
block 3
340
0
102
{BLKREFS
331
42
102
}
  0
BLOCK_RECORD
  5
49
330
1
100
AcDbSymbolTableRecord
100
AcDbBlockTableRecord
  2
block 4
340
0
102
{BLKREFS
331
4A
102
}
  0
BLOCK_RECORD
  5
51
330
1
100
AcDbSymbolTableRecord
100
AcDbBlockTableRecord
  2
block 5
340
0
102
{BLKREFS
331
52
102
}
  0
BLOCK_RECORD
  5
56
330
1
100
AcDbSymbolTableRecord
100
AcDbBlockTableRecord
  2
block 6
340
0
102
{BLKREFS
331
57
102
}
  0
BLOCK_RECORD
  5
5B
330
1
100
AcDbSymbolTableRecord
100
AcDbBlockTableRecord
  2
block 7
340
0
102
{BLKREFS
331
5C
102
}
  0
BLOCK_RECORD
  5
60
330
1
100
AcDbSymbolTableRecord
100
AcDbBlockTableRecord
  2
block 8
340
0
102
{BLKREFS
331
61
102
}
  0
BLOCK_RECORD
  5
65
330
1
100
AcDbSymbolTableRecord
100
AcDbBlockTableRecord
  2
block 9
340
0
102
{BLKREFS
331
66
102
}
  0
BLOCK_RECORD
  5
6A
330
1
100
AcDbSymbolTableRecord
100
AcDbBlockTableRecord
  2
block 10
340
0
102
{BLKREFS
331
6B
102
}
  0
BLOCK_RECORD
  5
6F
330
1
100
AcDbSymbolTableRecord
100
AcDbBlockTableRecord
  2
block 11
340
0
102
{BLKREFS
331
70
102
}
  0
BLOCK_RECORD
  5
77
330
1
100
AcDbSymbolTableRecord
100
AcDbBlockTableRecord
  2
block 12
340
0
102
{BLKREFS
331
78
102
}
  0
BLOCK_RECORD
  5
7F
330
1
100
AcDbSymbolTableRecord
100
AcDbBlockTableRecord
  2
block 13
340
0
102
{BLKREFS
331
80
102
}
  0
BLOCK_RECORD
  5
87
330
1
100
AcDbSymbolTableRecord
100
AcDbBlockTableRecord
  2
block 14
340
0
102
{BLKREFS
331
88
102
}
  0
BLOCK_RECORD
  5
8F
330
1
100
AcDbSymbolTableRecord
100
AcDbBlockTableRecord
  2
block 15
340
0
102
{BLKREFS
331
90
102
}
  0
BLOCK_RECORD
  5
97
330
1
100
AcDbSymbolTableRecord
100
AcDbBlockTableRecord
  2
block 16
340
0
102
{BLKREFS
331
98
102
}
  0
BLOCK_RECORD
  5
9C
330
1
100
AcDbSymbolTableRecord
100
AcDbBlockTableRecord
  2
block 17
340
0
102
{BLKREFS
331
9D
102
}
  0
BLOCK_RECORD
  5
A1
330
1
100
AcDbSymbolTableRecord
100
AcDbBlockTableRecord
  2
block 18
340
0
102
{BLKREFS
331
A2
102
}
  0
BLOCK_RECORD
  5
A6
330
1
100
AcDbSymbolTableRecord
100
AcDbBlockTableRecord
  2
block 19
340
0
102
{BLKREFS
331
A7
102
}
  0
BLOCK_RECORD
  5
AB
330
1
100
AcDbSymbolTableRecord
100
AcDbBlockTableRecord
  2
block 20
340
0
102
{BLKREFS
331
AC
102
}
  0
BLOCK_RECORD
  5
B3
330
1
100
AcDbSymbolTableRecord
100
AcDbBlockTableRecord
  2
block 21
340
0
102
{BLKREFS
331
B4
102
}
  0
BLOCK_RECORD
  5
BB
330
1
100
AcDbSymbolTableRecord
100
AcDbBlockTableRecord
  2
block 22
340
0
102
{BLKREFS
331
BC
102
}
  0
BLOCK_RECORD
  5
C3
330
1
100
AcDbSymbolTableRecord
100
AcDbBlockTableRecord
  2
block 23
340
0
102
{BLKREFS
331
C4
102
}
  0
BLOCK_RECORD
  5
C8
330
1
100
AcDbSymbolTableRecord
100
AcDbBlockTableRecord
  2
block 24
340
0
102
{BLKREFS
331
C9
102
}
  0
BLOCK_RECORD
  5
CD
330
1
100
AcDbSymbolTableRecord
100
AcDbBlockTableRecord
  2
block 25
340
0
102
{BLKREFS
331
CE
102
}
  0
BLOCK_RECORD
  5
D2
330
1
100
AcDbSymbolTableRecord
100
AcDbBlockTableRecord
  2
block 26
340
0
102
{BLKREFS
331
D3
102
}
  0
BLOCK_RECORD
  5
D7
330
1
100
AcDbSymbolTableRecord
100
AcDbBlockTableRecord
  2
block 27
340
0
102
{BLKREFS
331
D8
102
}
  0
BLOCK_RECORD
  5
DF
330
1
100
AcDbSymbolTableRecord
100
AcDbBlockTableRecord
  2
block 28
340
0
102
{BLKREFS
331
E0
102
}
  0
BLOCK_RECORD
  5
E7
330
1
100
AcDbSymbolTableRecord
100
AcDbBlockTableRecord
  2
block 29
340
0
102
{BLKREFS
331
E8
102
}
  0
BLOCK_RECORD
  5
EC
330
1
100
AcDbSymbolTableRecord
100
AcDbBlockTableRecord
  2
block 30
340
0
102
{BLKREFS
331
ED
102
}
  0
BLOCK_RECORD
  5
F1
330
1
100
AcDbSymbolTableRecord
100
AcDbBlockTableRecord
  2
block 31
340
0
102
{BLKREFS
331
F2
102
}
  0
BLOCK_RECORD
  5
F9
330
1
100
AcDbSymbolTableRecord
100
AcDbBlockTableRecord
  2
block 32
340
0
102
{BLKREFS
331
FA
102
}
  0
BLOCK_RECORD
  5
101
330
1
100
AcDbSymbolTableRecord
100
AcDbBlockTableRecord
  2
block 33
340
0
102
{BLKREFS
331
102
102
}
  0
BLOCK_RECORD
  5
106
330
1
100
AcDbSymbolTableRecord
100
AcDbBlockTableRecord
  2
block 34
340
0
102
{BLKREFS
331
107
102
}
  0
BLOCK_RECORD
  5
10B
330
1
100
AcDbSymbolTableRecord
100
AcDbBlockTableRecord
  2
block 35
340
0
102
{BLKREFS
331
10C
102
}
  0
BLOCK_RECORD
  5
113
330
1
100
AcDbSymbolTableRecord
100
AcDbBlockTableRecord
  2
block 36
340
0
102
{BLKREFS
331
114
102
}
  0
BLOCK_RECORD
  5
11B
330
1
100
AcDbSymbolTableRecord
100
AcDbBlockTableRecord
  2
block 37
340
0
102
{BLKREFS
331
11C
102
}
  0
BLOCK_RECORD
  5
120
330
1
100
AcDbSymbolTableRecord
100
AcDbBlockTableRecord
  2
block 38
340
0
102
{BLKREFS
331
121
102
}
  0
BLOCK_RECORD
  5
125
330
1
100
AcDbSymbolTableRecord
100
AcDbBlockTableRecord
  2
block 39
340
0
102
{BLKREFS
331
126
102
}
  0
BLOCK_RECORD
  5
12D
330
1
100
AcDbSymbolTableRecord
100
AcDbBlockTableRecord
  2
block 40
340
0
102
{BLKREFS
331
12E
102
}
  0
BLOCK_RECORD
  5
135
330
1
100
AcDbSymbolTableRecord
100
AcDbBlockTableRecord
  2
block 41
340
0
102
{BLKREFS
331
136
102
}
  0
BLOCK_RECORD
  5
13A
330
1
100
AcDbSymbolTableRecord
100
AcDbBlockTableRecord
  2
block 42
340
0
102
{BLKREFS
331
13B
102
}
  0
BLOCK_RECORD
  5
13F
330
1
100
AcDbSymbolTableRecord
100
AcDbBlockTableRecord
  2
block 43
340
0
102
{BLKREFS
331
140
102
}
  0
BLOCK_RECORD
  5
144
330
1
100
AcDbSymbolTableRecord
100
AcDbBlockTableRecord
  2
block 44
340
0
102
{BLKREFS
331
145
102
}
  0
BLOCK_RECORD
  5
149
330
1
100
AcDbSymbolTableRecord
100
AcDbBlockTableRecord
  2
block 45
340
0
102
{BLKREFS
331
14A
102
}
  0
BLOCK_RECORD
  5
151
330
1
100
AcDbSymbolTableRecord
100
AcDbBlockTableRecord
  2
block 46
340
0
102
{BLKREFS
331
152
102
}
  0
BLOCK_RECORD
  5
159
330
1
100
AcDbSymbolTableRecord
100
AcDbBlockTableRecord
  2
block 47
340
0
102
{BLKREFS
331
15A
102
}
  0
BLOCK_RECORD
  5
161
330
1
100
AcDbSymbolTableRecord
100
AcDbBlockTableRecord
  2
block 48
340
0
102
{BLKREFS
331
162
102
}
  0
BLOCK_RECORD
  5
169
330
1
100
AcDbSymbolTableRecord
100
AcDbBlockTableRecord
  2
block 49
340
0
102
{BLKREFS
331
16A
102
}
  0
BLOCK_RECORD
  5
171
330
1
100
AcDbSymbolTableRecord
100
AcDbBlockTableRecord
  2
block 50
340
0
102
{BLKREFS
331
172
102
}
  0
BLOCK_RECORD
  5
176
330
1
100
AcDbSymbolTableRecord
100
AcDbBlockTableRecord
  2
block 51
340
0
102
{BLKREFS
331
177
102
}
  0
BLOCK_RECORD
  5
17B
330
1
100
AcDbSymbolTableRecord
100
AcDbBlockTableRecord
  2
block 52
340
0
102
{BLKREFS
331
17C
102
}
  0
BLOCK_RECORD
  5
180
330
1
100
AcDbSymbolTableRecord
100
AcDbBlockTableRecord
  2
block 53
340
0
102
{BLKREFS
331
181
102
}
  0
BLOCK_RECORD
  5
185
330
1
100
AcDbSymbolTableRecord
100
AcDbBlockTableRecord
  2
block 54
340
0
102
{BLKREFS
331
186
102
}
  0
BLOCK_RECORD
  5
18D
330
1
100
AcDbSymbolTableRecord
100
AcDbBlockTableRecord
  2
block 55
340
0
102
{BLKREFS
331
18E
102
}
  0
BLOCK_RECORD
  5
195
330
1
100
AcDbSymbolTableRecord
100
AcDbBlockTableRecord
  2
block 56
340
0
102
{BLKREFS
331
196
102
}
  0
BLOCK_RECORD
  5
19A
330
1
100
AcDbSymbolTableRecord
100
AcDbBlockTableRecord
  2
block 57
340
0
102
{BLKREFS
331
19B
102
}
  0
BLOCK_RECORD
  5
19F
330
1
100
AcDbSymbolTableRecord
100
AcDbBlockTableRecord
  2
block 58
340
0
102
{BLKREFS
331
1A0
102
}
  0
BLOCK_RECORD
  5
1A7
330
1
100
AcDbSymbolTableRecord
100
AcDbBlockTableRecord
  2
block 59
340
0
102
{BLKREFS
331
1A8
102
}
  0
BLOCK_RECORD
  5
1AC
330
1
100
AcDbSymbolTableRecord
100
AcDbBlockTableRecord
  2
block 60
340
0
102
{BLKREFS
331
1AD
102
}
  0
BLOCK_RECORD
  5
1B1
330
1
100
AcDbSymbolTableRecord
100
AcDbBlockTableRecord
  2
block 61
340
0
102
{BLKREFS
331
1B2
102
}
  0
BLOCK_RECORD
  5
1B6
330
1
100
AcDbSymbolTableRecord
100
AcDbBlockTableRecord
  2
block 62
340
0
102
{BLKREFS
331
1B7
102
}
  0
BLOCK_RECORD
  5
1BB
330
1
100
AcDbSymbolTableRecord
100
AcDbBlockTableRecord
  2
block 63
340
0
102
{BLKREFS
331
1BC
102
}
  0
BLOCK_RECORD
  5
1C0
330
1
100
AcDbSymbolTableRecord
100
AcDbBlockTableRecord
  2
block 64
340
0
102
{BLKREFS
331
1C1
102
}
  0
BLOCK_RECORD
  5
1C5
330
1
100
AcDbSymbolTableRecord
100
AcDbBlockTableRecord
  2
block 65
340
0
102
{BLKREFS
331
1C6
102
}
  0
BLOCK_RECORD
  5
1CA
330
1
100
AcDbSymbolTableRecord
100
AcDbBlockTableRecord
  2
block 66
340
0
102
{BLKREFS
331
1CB
102
}
  0
BLOCK_RECORD
  5
1CF
330
1
100
AcDbSymbolTableRecord
100
AcDbBlockTableRecord
  2
block 67
340
0
102
{BLKREFS
331
1D0
102
}
  0
BLOCK_RECORD
  5
1D4
330
1
100
AcDbSymbolTableRecord
100
AcDbBlockTableRecord
  2
block 68
340
0
102
{BLKREFS
331
1D5
102
}
  0
BLOCK_RECORD
  5
1DC
330
1
100
AcDbSymbolTableRecord
100
AcDbBlockTableRecord
  2
block 69
340
0
102
{BLKREFS
331
1DD
102
}
  0
BLOCK_RECORD
  5
1E4
330
1
100
AcDbSymbolTableRecord
100
AcDbBlockTableRecord
  2
block 70
340
0
102
{BLKREFS
331
1E5
102
}
  0
BLOCK_RECORD
  5
1EC
330
1
100
AcDbSymbolTableRecord
100
AcDbBlockTableRecord
  2
block 71
340
0
102
{BLKREFS
331
1ED
102
}
  0
BLOCK_RECORD
  5
1F1
330
1
100
AcDbSymbolTableRecord
100
AcDbBlockTableRecord
  2
block 72
340
0
102
{BLKREFS
331
1F2
102
}
  0
BLOCK_RECORD
  5
1F7
330
1
100
AcDbSymbolTableRecord
100
AcDbBlockTableRecord
  2
block 73
340
0
102
{BLKREFS
331
1F8
102
}
  0
BLOCK_RECORD
  5
1FF
330
1
100
AcDbSymbolTableRecord
100
AcDbBlockTableRecord
  2
block 74
340
0
102
{BLKREFS
331
200
102
}
  0
BLOCK_RECORD
  5
203
330
1
100
AcDbSymbolTableRecord
100
AcDbBlockTableRecord
  2
block 75
340
0
102
{BLKREFS
331
204
102
}
  0
BLOCK_RECORD
  5
20B
330
1
100
AcDbSymbolTableRecord
100
AcDbBlockTableRecord
  2
block 76
340
0
102
{BLKREFS
331
20C
102
}
  0
BLOCK_RECORD
  5
213
330
1
100
AcDbSymbolTableRecord
100
AcDbBlockTableRecord
  2
block 77
340
0
102
{BLKREFS
331
214
102
}
  0
BLOCK_RECORD
  5
21B
330
1
100
AcDbSymbolTableRecord
100
AcDbBlockTableRecord
  2
block 78
340
0
102
{BLKREFS
331
21C
102
}
  0
BLOCK_RECORD
  5
223
330
1
100
AcDbSymbolTableRecord
100
AcDbBlockTableRecord
  2
block 79
340
0
102
{BLKREFS
331
224
102
}
  0
BLOCK_RECORD
  5
22B
330
1
100
AcDbSymbolTableRecord
100
AcDbBlockTableRecord
  2
block 80
340
0
102
{BLKREFS
331
22C
102
}
  0
BLOCK_RECORD
  5
233
330
1
100
AcDbSymbolTableRecord
100
AcDbBlockTableRecord
  2
block 81
340
0
102
{BLKREFS
331
234
102
}
  0
BLOCK_RECORD
  5
23B
330
1
100
AcDbSymbolTableRecord
100
AcDbBlockTableRecord
  2
block 82
340
0
102
{BLKREFS
331
23C
102
}
  0
BLOCK_RECORD
  5
243
330
1
100
AcDbSymbolTableRecord
100
AcDbBlockTableRecord
  2
block 83
340
0
102
{BLKREFS
331
244
102
}
  0
BLOCK_RECORD
  5
24B
330
1
100
AcDbSymbolTableRecord
100
AcDbBlockTableRecord
  2
block 84
340
0
102
{BLKREFS
331
24C
102
}
  0
BLOCK_RECORD
  5
253
330
1
100
AcDbSymbolTableRecord
100
AcDbBlockTableRecord
  2
block 85
340
0
102
{BLKREFS
331
254
102
}
  0
BLOCK_RECORD
  5
25B
330
1
100
AcDbSymbolTableRecord
100
AcDbBlockTableRecord
  2
block 86
340
0
102
{BLKREFS
331
25C
102
}
  0
BLOCK_RECORD
  5
260
330
1
100
AcDbSymbolTableRecord
100
AcDbBlockTableRecord
  2
block 87
340
0
102
{BLKREFS
331
261
102
}
  0
BLOCK_RECORD
  5
265
330
1
100
AcDbSymbolTableRecord
100
AcDbBlockTableRecord
  2
block 88
340
0
102
{BLKREFS
331
266
102
}
  0
BLOCK_RECORD
  5
26A
330
1
100
AcDbSymbolTableRecord
100
AcDbBlockTableRecord
  2
block 89
340
0
102
{BLKREFS
331
26B
102
}
  0
BLOCK_RECORD
  5
26F
330
1
100
AcDbSymbolTableRecord
100
AcDbBlockTableRecord
  2
block 90
340
0
102
{BLKREFS
331
270
102
}
  0
BLOCK_RECORD
  5
277
330
1
100
AcDbSymbolTableRecord
100
AcDbBlockTableRecord
  2
block 91
340
0
102
{BLKREFS
331
278
102
}
  0
BLOCK_RECORD
  5
27C
330
1
100
AcDbSymbolTableRecord
100
AcDbBlockTableRecord
  2
block 92
340
0
102
{BLKREFS
331
27D
102
}
  0
BLOCK_RECORD
  5
281
330
1
100
AcDbSymbolTableRecord
100
AcDbBlockTableRecord
  2
block 93
340
0
102
{BLKREFS
331
282
102
}
  0
BLOCK_RECORD
  5
289
330
1
100
AcDbSymbolTableRecord
100
AcDbBlockTableRecord
  2
block 94
340
0
102
{BLKREFS
331
28A
102
}
  0
BLOCK_RECORD
  5
291
330
1
100
AcDbSymbolTableRecord
100
AcDbBlockTableRecord
  2
block 95
340
0
102
{BLKREFS
331
292
102
}
  0
BLOCK_RECORD
  5
29A
330
1
100
AcDbSymbolTableRecord
100
AcDbBlockTableRecord
  2
block 96
340
0
102
{BLKREFS
331
29B
102
}
  0
BLOCK_RECORD
  5
2A2
330
1
100
AcDbSymbolTableRecord
100
AcDbBlockTableRecord
  2
block 97
340
0
102
{BLKREFS
331
2A3
102
}
  0
BLOCK_RECORD
  5
2AA
330
1
100
AcDbSymbolTableRecord
100
AcDbBlockTableRecord
  2
block 98
340
0
102
{BLKREFS
331
2AB
102
}
  0
BLOCK_RECORD
  5
2B2
330
1
100
AcDbSymbolTableRecord
100
AcDbBlockTableRecord
  2
block 99
340
0
102
{BLKREFS
331
2B3
102
}
  0
BLOCK_RECORD
  5
2BA
330
1
100
AcDbSymbolTableRecord
100
AcDbBlockTableRecord
  2
block 100
340
0
102
{BLKREFS
331
2BB
102
}
  0
BLOCK_RECORD
  5
2BF
330
1
100
AcDbSymbolTableRecord
100
AcDbBlockTableRecord
  2
block 101
340
0
102
{BLKREFS
331
2C0
102
}
  0
BLOCK_RECORD
  5
2C4
330
1
100
AcDbSymbolTableRecord
100
AcDbBlockTableRecord
  2
block 102
340
0
102
{BLKREFS
331
2C5
102
}
  0
BLOCK_RECORD
  5
2C9
330
1
100
AcDbSymbolTableRecord
100
AcDbBlockTableRecord
  2
block 103
340
0
102
{BLKREFS
331
2CA
102
}
  0
BLOCK_RECORD
  5
2CE
330
1
100
AcDbSymbolTableRecord
100
AcDbBlockTableRecord
  2
block 104
340
0
102
{BLKREFS
331
2CF
102
}
  0
BLOCK_RECORD
  5
2D6
330
1
100
AcDbSymbolTableRecord
100
AcDbBlockTableRecord
  2
block 105
340
0
102
{BLKREFS
331
2D7
102
}
  0
BLOCK_RECORD
  5
2DE
330
1
100
AcDbSymbolTableRecord
100
AcDbBlockTableRecord
  2
block 106
340
0
102
{BLKREFS
331
2DF
102
}
  0
BLOCK_RECORD
  5
2E6
330
1
100
AcDbSymbolTableRecord
100
AcDbBlockTableRecord
  2
block 107
340
0
102
{BLKREFS
331
2E7
102
}
  0
BLOCK_RECORD
  5
2EE
330
1
100
AcDbSymbolTableRecord
100
AcDbBlockTableRecord
  2
block 108
340
0
102
{BLKREFS
331
2EF
102
}
  0
BLOCK_RECORD
  5
2F6
330
1
100
AcDbSymbolTableRecord
100
AcDbBlockTableRecord
  2
block 109
340
0
102
{BLKREFS
331
2F7
102
}
  0
BLOCK_RECORD
  5
2FB
330
1
100
AcDbSymbolTableRecord
100
AcDbBlockTableRecord
  2
block 110
340
0
102
{BLKREFS
331
2FC
102
}
  0
BLOCK_RECORD
  5
300
330
1
100
AcDbSymbolTableRecord
100
AcDbBlockTableRecord
  2
block 111
340
0
102
{BLKREFS
331
301
102
}
  0
BLOCK_RECORD
  5
305
330
1
100
AcDbSymbolTableRecord
100
AcDbBlockTableRecord
  2
block 112
340
0
102
{BLKREFS
331
306
102
}
  0
BLOCK_RECORD
  5
30A
330
1
100
AcDbSymbolTableRecord
100
AcDbBlockTableRecord
  2
block 113
340
0
102
{BLKREFS
331
30B
102
}
  0
BLOCK_RECORD
  5
30F
330
1
100
AcDbSymbolTableRecord
100
AcDbBlockTableRecord
  2
block 114
340
0
102
{BLKREFS
331
310
102
}
  0
BLOCK_RECORD
  5
314
330
1
100
AcDbSymbolTableRecord
100
AcDbBlockTableRecord
  2
block 115
340
0
102
{BLKREFS
331
315
102
}
  0
BLOCK_RECORD
  5
319
330
1
100
AcDbSymbolTableRecord
100
AcDbBlockTableRecord
  2
block 116
340
0
102
{BLKREFS
331
31A
102
}
  0
BLOCK_RECORD
  5
31E
330
1
100
AcDbSymbolTableRecord
100
AcDbBlockTableRecord
  2
block 117
340
0
102
{BLKREFS
331
31F
102
}
  0
BLOCK_RECORD
  5
323
330
1
100
AcDbSymbolTableRecord
100
AcDbBlockTableRecord
  2
block 118
340
0
102
{BLKREFS
331
324
102
}
  0
BLOCK_RECORD
  5
328
330
1
100
AcDbSymbolTableRecord
100
AcDbBlockTableRecord
  2
block 119
340
0
102
{BLKREFS
331
329
102
}
  0
BLOCK_RECORD
  5
330
330
1
100
AcDbSymbolTableRecord
100
AcDbBlockTableRecord
  2
block 120
340
0
102
{BLKREFS
331
331
102
}
  0
BLOCK_RECORD
  5
338
330
1
100
AcDbSymbolTableRecord
100
AcDbBlockTableRecord
  2
block 121
340
0
102
{BLKREFS
331
339
102
}
  0
BLOCK_RECORD
  5
340
330
1
100
AcDbSymbolTableRecord
100
AcDbBlockTableRecord
  2
block 122
340
0
102
{BLKREFS
331
341
102
}
  0
BLOCK_RECORD
  5
345
330
1
100
AcDbSymbolTableRecord
100
AcDbBlockTableRecord
  2
block 123
340
0
102
{BLKREFS
331
346
102
}
  0
BLOCK_RECORD
  5
34A
330
1
100
AcDbSymbolTableRecord
100
AcDbBlockTableRecord
  2
block 124
340
0
102
{BLKREFS
331
34B
102
}
  0
BLOCK_RECORD
  5
34F
330
1
100
AcDbSymbolTableRecord
100
AcDbBlockTableRecord
  2
block 125
340
0
102
{BLKREFS
331
350
102
}
  0
BLOCK_RECORD
  5
354
330
1
100
AcDbSymbolTableRecord
100
AcDbBlockTableRecord
  2
block 126
340
0
102
{BLKREFS
331
355
102
}
  0
BLOCK_RECORD
  5
359
330
1
100
AcDbSymbolTableRecord
100
AcDbBlockTableRecord
  2
block 127
340
0
102
{BLKREFS
331
35A
102
}
  0
BLOCK_RECORD
  5
35E
330
1
100
AcDbSymbolTableRecord
100
AcDbBlockTableRecord
  2
block 128
340
0
102
{BLKREFS
331
35F
102
}
  0
BLOCK_RECORD
  5
363
330
1
100
AcDbSymbolTableRecord
100
AcDbBlockTableRecord
  2
block 129
340
0
102
{BLKREFS
331
364
102
}
  0
BLOCK_RECORD
  5
368
330
1
100
AcDbSymbolTableRecord
100
AcDbBlockTableRecord
  2
block 130
340
0
102
{BLKREFS
331
369
102
}
  0
BLOCK_RECORD
  5
36C
330
1
100
AcDbSymbolTableRecord
100
AcDbBlockTableRecord
  2
block 131
340
0
102
{BLKREFS
331
36D
102
}
  0
BLOCK_RECORD
  5
374
330
1
100
AcDbSymbolTableRecord
100
AcDbBlockTableRecord
  2
block 132
340
0
102
{BLKREFS
331
375
102
}
  0
BLOCK_RECORD
  5
37C
330
1
100
AcDbSymbolTableRecord
100
AcDbBlockTableRecord
  2
block 133
340
0
102
{BLKREFS
331
37D
102
}
  0
BLOCK_RECORD
  5
384
330
1
100
AcDbSymbolTableRecord
100
AcDbBlockTableRecord
  2
block 134
340
0
102
{BLKREFS
331
385
102
}
  0
BLOCK_RECORD
  5
38C
330
1
100
AcDbSymbolTableRecord
100
AcDbBlockTableRecord
  2
block 135
340
0
102
{BLKREFS
331
38D
102
}
  0
BLOCK_RECORD
  5
397
330
1
100
AcDbSymbolTableRecord
100
AcDbBlockTableRecord
  2
block 136
340
0
102
{BLKREFS
331
398
102
}
  0
BLOCK_RECORD
  5
3A2
330
1
100
AcDbSymbolTableRecord
100
AcDbBlockTableRecord
  2
block 137
340
0
102
{BLKREFS
331
3A3
102
}
  0
BLOCK_RECORD
  5
3A7
330
1
100
AcDbSymbolTableRecord
100
AcDbBlockTableRecord
  2
block 138
340
0
102
{BLKREFS
331
3A8
102
}
  0
BLOCK_RECORD
  5
3AF
330
1
100
AcDbSymbolTableRecord
100
AcDbBlockTableRecord
  2
block 139
340
0
102
{BLKREFS
331
3B0
102
}
  0
BLOCK_RECORD
  5
3B7
330
1
100
AcDbSymbolTableRecord
100
AcDbBlockTableRecord
  2
block 140
340
0
102
{BLKREFS
331
3B8
102
}
  0
BLOCK_RECORD
  5
3BF
330
1
100
AcDbSymbolTableRecord
100
AcDbBlockTableRecord
  2
block 141
340
0
102
{BLKREFS
331
3C0
102
}
  0
BLOCK_RECORD
  5
3C3
330
1
100
AcDbSymbolTableRecord
100
AcDbBlockTableRecord
  2
block 142
340
0
102
{BLKREFS
331
3C4
102
}
  0
BLOCK_RECORD
  5
3CB
330
1
100
AcDbSymbolTableRecord
100
AcDbBlockTableRecord
  2
block 143
340
0
102
{BLKREFS
331
3CC
102
}
  0
BLOCK_RECORD
  5
3D3
330
1
100
AcDbSymbolTableRecord
100
AcDbBlockTableRecord
  2
block 144
340
0
102
{BLKREFS
331
3D4
102
}
  0
BLOCK_RECORD
  5
3DB
330
1
100
AcDbSymbolTableRecord
100
AcDbBlockTableRecord
  2
block 145
340
0
102
{BLKREFS
331
3DC
102
}
  0
BLOCK_RECORD
  5
3E3
330
1
100
AcDbSymbolTableRecord
100
AcDbBlockTableRecord
  2
block 146
340
0
102
{BLKREFS
331
3E4
102
}
  0
BLOCK_RECORD
  5
3EE
330
1
100
AcDbSymbolTableRecord
100
AcDbBlockTableRecord
  2
block 147
340
0
102
{BLKREFS
331
3EF
102
}
  0
BLOCK_RECORD
  5
3F9
330
1
100
AcDbSymbolTableRecord
100
AcDbBlockTableRecord
  2
block 148
340
0
102
{BLKREFS
331
3FA
102
}
  0
BLOCK_RECORD
  5
3FE
330
1
100
AcDbSymbolTableRecord
100
AcDbBlockTableRecord
  2
block 149
340
0
102
{BLKREFS
331
3FF
102
}
  0
BLOCK_RECORD
  5
406
330
1
100
AcDbSymbolTableRecord
100
AcDbBlockTableRecord
  2
block 150
340
0
102
{BLKREFS
331
407
102
}
  0
BLOCK_RECORD
  5
40E
330
1
100
AcDbSymbolTableRecord
100
AcDbBlockTableRecord
  2
block 151
340
0
102
{BLKREFS
331
40F
102
}
  0
BLOCK_RECORD
  5
416
330
1
100
AcDbSymbolTableRecord
100
AcDbBlockTableRecord
  2
block 152
340
0
102
{BLKREFS
331
417
102
}
  0
BLOCK_RECORD
  5
41A
330
1
100
AcDbSymbolTableRecord
100
AcDbBlockTableRecord
  2
block 153
340
0
102
{BLKREFS
331
41B
102
}
  0
BLOCK_RECORD
  5
422
330
1
100
AcDbSymbolTableRecord
100
AcDbBlockTableRecord
  2
block 154
340
0
102
{BLKREFS
331
423
102
}
  0
BLOCK_RECORD
  5
42A
330
1
100
AcDbSymbolTableRecord
100
AcDbBlockTableRecord
  2
block 155
340
0
102
{BLKREFS
331
42B
102
}
  0
BLOCK_RECORD
  5
432
330
1
100
AcDbSymbolTableRecord
100
AcDbBlockTableRecord
  2
block 156
340
0
102
{BLKREFS
331
433
102
}
  0
BLOCK_RECORD
  5
43A
330
1
100
AcDbSymbolTableRecord
100
AcDbBlockTableRecord
  2
block 157
340
0
102
{BLKREFS
331
43B
102
}
  0
BLOCK_RECORD
  5
445
330
1
100
AcDbSymbolTableRecord
100
AcDbBlockTableRecord
  2
block 158
340
0
102
{BLKREFS
331
446
102
}
  0
BLOCK_RECORD
  5
450
330
1
100
AcDbSymbolTableRecord
100
AcDbBlockTableRecord
  2
block 159
340
0
102
{BLKREFS
331
451
102
}
  0
BLOCK_RECORD
  5
455
330
1
100
AcDbSymbolTableRecord
100
AcDbBlockTableRecord
  2
block 160
340
0
102
{BLKREFS
331
456
102
}
  0
BLOCK_RECORD
  5
45D
330
1
100
AcDbSymbolTableRecord
100
AcDbBlockTableRecord
  2
block 161
340
0
102
{BLKREFS
331
45E
102
}
  0
BLOCK_RECORD
  5
465
330
1
100
AcDbSymbolTableRecord
100
AcDbBlockTableRecord
  2
block 162
340
0
102
{BLKREFS
331
466
102
}
  0
BLOCK_RECORD
  5
46D
330
1
100
AcDbSymbolTableRecord
100
AcDbBlockTableRecord
  2
block 163
340
0
102
{BLKREFS
331
46E
102
}
  0
BLOCK_RECORD
  5
471
330
1
100
AcDbSymbolTableRecord
100
AcDbBlockTableRecord
  2
block 164
340
0
102
{BLKREFS
331
472
102
}
  0
BLOCK_RECORD
  5
479
330
1
100
AcDbSymbolTableRecord
100
AcDbBlockTableRecord
  2
block 165
340
0
102
{BLKREFS
331
47A
102
}
  0
BLOCK_RECORD
  5
481
330
1
100
AcDbSymbolTableRecord
100
AcDbBlockTableRecord
  2
block 166
340
0
102
{BLKREFS
331
482
102
}
  0
BLOCK_RECORD
  5
489
330
1
100
AcDbSymbolTableRecord
100
AcDbBlockTableRecord
  2
block 167
340
0
102
{BLKREFS
331
48A
102
}
  0
BLOCK_RECORD
  5
491
330
1
100
AcDbSymbolTableRecord
100
AcDbBlockTableRecord
  2
block 168
340
0
102
{BLKREFS
331
492
102
}
  0
BLOCK_RECORD
  5
49C
330
1
100
AcDbSymbolTableRecord
100
AcDbBlockTableRecord
  2
block 169
340
0
102
{BLKREFS
331
49D
102
}
  0
BLOCK_RECORD
  5
4A7
330
1
100
AcDbSymbolTableRecord
100
AcDbBlockTableRecord
  2
block 170
340
0
102
{BLKREFS
331
4A8
102
}
  0
BLOCK_RECORD
  5
4AC
330
1
100
AcDbSymbolTableRecord
100
AcDbBlockTableRecord
  2
block 171
340
0
102
{BLKREFS
331
4AD
102
}
  0
BLOCK_RECORD
  5
4B4
330
1
100
AcDbSymbolTableRecord
100
AcDbBlockTableRecord
  2
block 172
340
0
102
{BLKREFS
331
4B5
102
}
  0
BLOCK_RECORD
  5
4BC
330
1
100
AcDbSymbolTableRecord
100
AcDbBlockTableRecord
  2
block 173
340
0
102
{BLKREFS
331
4BD
102
}
  0
BLOCK_RECORD
  5
4C4
330
1
100
AcDbSymbolTableRecord
100
AcDbBlockTableRecord
  2
block 174
340
0
102
{BLKREFS
331
4C5
102
}
  0
BLOCK_RECORD
  5
4C8
330
1
100
AcDbSymbolTableRecord
100
AcDbBlockTableRecord
  2
block 175
340
0
102
{BLKREFS
331
4C9
102
}
  0
BLOCK_RECORD
  5
4D0
330
1
100
AcDbSymbolTableRecord
100
AcDbBlockTableRecord
  2
block 176
340
0
102
{BLKREFS
331
4D1
102
}
  0
BLOCK_RECORD
  5
4D8
330
1
100
AcDbSymbolTableRecord
100
AcDbBlockTableRecord
  2
block 177
340
0
102
{BLKREFS
331
4D9
102
}
  0
BLOCK_RECORD
  5
4E0
330
1
100
AcDbSymbolTableRecord
100
AcDbBlockTableRecord
  2
block 178
340
0
102
{BLKREFS
331
4E1
102
}
  0
BLOCK_RECORD
  5
4E8
330
1
100
AcDbSymbolTableRecord
100
AcDbBlockTableRecord
  2
block 179
340
0
102
{BLKREFS
331
4E9
102
}
  0
BLOCK_RECORD
  5
4F3
330
1
100
AcDbSymbolTableRecord
100
AcDbBlockTableRecord
  2
block 180
340
0
102
{BLKREFS
331
4F4
102
}
  0
BLOCK_RECORD
  5
4FE
330
1
100
AcDbSymbolTableRecord
100
AcDbBlockTableRecord
  2
block 181
340
0
102
{BLKREFS
331
4FF
102
}
  0
BLOCK_RECORD
  5
503
330
1
100
AcDbSymbolTableRecord
100
AcDbBlockTableRecord
  2
block 182
340
0
102
{BLKREFS
331
504
102
}
  0
BLOCK_RECORD
  5
50B
330
1
100
AcDbSymbolTableRecord
100
AcDbBlockTableRecord
  2
block 183
340
0
102
{BLKREFS
331
50C
102
}
  0
BLOCK_RECORD
  5
513
330
1
100
AcDbSymbolTableRecord
100
AcDbBlockTableRecord
  2
block 184
340
0
102
{BLKREFS
331
514
102
}
  0
BLOCK_RECORD
  5
51B
330
1
100
AcDbSymbolTableRecord
100
AcDbBlockTableRecord
  2
block 185
340
0
102
{BLKREFS
331
51C
102
}
  0
BLOCK_RECORD
  5
51F
330
1
100
AcDbSymbolTableRecord
100
AcDbBlockTableRecord
  2
block 186
340
0
102
{BLKREFS
331
520
102
}
  0
BLOCK_RECORD
  5
527
330
1
100
AcDbSymbolTableRecord
100
AcDbBlockTableRecord
  2
block 187
340
0
102
{BLKREFS
331
528
102
}
  0
BLOCK_RECORD
  5
52F
330
1
100
AcDbSymbolTableRecord
100
AcDbBlockTableRecord
  2
block 188
340
0
102
{BLKREFS
331
530
102
}
  0
BLOCK_RECORD
  5
537
330
1
100
AcDbSymbolTableRecord
100
AcDbBlockTableRecord
  2
block 189
340
0
102
{BLKREFS
331
538
102
}
  0
BLOCK_RECORD
  5
53F
330
1
100
AcDbSymbolTableRecord
100
AcDbBlockTableRecord
  2
block 190
340
0
102
{BLKREFS
331
540
102
}
  0
BLOCK_RECORD
  5
547
330
1
100
AcDbSymbolTableRecord
100
AcDbBlockTableRecord
  2
block 191
340
0
102
{BLKREFS
331
548
102
}
  0
BLOCK_RECORD
  5
552
330
1
100
AcDbSymbolTableRecord
100
AcDbBlockTableRecord
  2
block 192
340
0
102
{BLKREFS
331
553
102
}
  0
BLOCK_RECORD
  5
55D
330
1
100
AcDbSymbolTableRecord
100
AcDbBlockTableRecord
  2
block 193
340
0
102
{BLKREFS
331
55E
102
}
  0
BLOCK_RECORD
  5
562
330
1
100
AcDbSymbolTableRecord
100
AcDbBlockTableRecord
  2
block 194
340
0
102
{BLKREFS
331
563
102
}
  0
BLOCK_RECORD
  5
56A
330
1
100
AcDbSymbolTableRecord
100
AcDbBlockTableRecord
  2
block 195
340
0
102
{BLKREFS
331
56B
102
}
  0
BLOCK_RECORD
  5
572
330
1
100
AcDbSymbolTableRecord
100
AcDbBlockTableRecord
  2
block 196
340
0
102
{BLKREFS
331
573
102
}
  0
BLOCK_RECORD
  5
57A
330
1
100
AcDbSymbolTableRecord
100
AcDbBlockTableRecord
  2
block 197
340
0
102
{BLKREFS
331
57B
102
}
  0
BLOCK_RECORD
  5
57E
330
1
100
AcDbSymbolTableRecord
100
AcDbBlockTableRecord
  2
block 198
340
0
102
{BLKREFS
331
57F
102
}
  0
BLOCK_RECORD
  5
586
330
1
100
AcDbSymbolTableRecord
100
AcDbBlockTableRecord
  2
block 199
340
0
102
{BLKREFS
331
587
102
}
  0
BLOCK_RECORD
  5
58E
330
1
100
AcDbSymbolTableRecord
100
AcDbBlockTableRecord
  2
block 200
340
0
102
{BLKREFS
331
58F
102
}
  0
BLOCK_RECORD
  5
596
330
1
100
AcDbSymbolTableRecord
100
AcDbBlockTableRecord
  2
block 201
340
0
102
{BLKREFS
331
597
102
}
  0
BLOCK_RECORD
  5
59E
330
1
100
AcDbSymbolTableRecord
100
AcDbBlockTableRecord
  2
block 202
340
0
102
{BLKREFS
331
59F
102
}
  0
BLOCK_RECORD
  5
5A6
330
1
100
AcDbSymbolTableRecord
100
AcDbBlockTableRecord
  2
block 203
340
0
102
{BLKREFS
331
5A7
102
}
  0
BLOCK_RECORD
  5
5B1
330
1
100
AcDbSymbolTableRecord
100
AcDbBlockTableRecord
  2
block 204
340
0
102
{BLKREFS
331
5B2
102
}
  0
BLOCK_RECORD
  5
5BC
330
1
100
AcDbSymbolTableRecord
100
AcDbBlockTableRecord
  2
block 205
340
0
102
{BLKREFS
331
5BD
102
}
  0
BLOCK_RECORD
  5
5C1
330
1
100
AcDbSymbolTableRecord
100
AcDbBlockTableRecord
  2
block 206
340
0
102
{BLKREFS
331
5C2
102
}
  0
BLOCK_RECORD
  5
5C9
330
1
100
AcDbSymbolTableRecord
100
AcDbBlockTableRecord
  2
block 207
340
0
102
{BLKREFS
331
5CA
102
}
  0
BLOCK_RECORD
  5
5D1
330
1
100
AcDbSymbolTableRecord
100
AcDbBlockTableRecord
  2
block 208
340
0
102
{BLKREFS
331
5D2
102
}
  0
BLOCK_RECORD
  5
5D9
330
1
100
AcDbSymbolTableRecord
100
AcDbBlockTableRecord
  2
block 209
340
0
102
{BLKREFS
331
5DA
102
}
  0
BLOCK_RECORD
  5
5DD
330
1
100
AcDbSymbolTableRecord
100
AcDbBlockTableRecord
  2
block 210
340
0
102
{BLKREFS
331
5DE
102
}
  0
BLOCK_RECORD
  5
5E5
330
1
100
AcDbSymbolTableRecord
100
AcDbBlockTableRecord
  2
block 211
340
0
102
{BLKREFS
331
5E6
102
}
  0
BLOCK_RECORD
  5
5ED
330
1
100
AcDbSymbolTableRecord
100
AcDbBlockTableRecord
  2
block 212
340
0
102
{BLKREFS
331
5EE
102
}
  0
BLOCK_RECORD
  5
5F5
330
1
100
AcDbSymbolTableRecord
100
AcDbBlockTableRecord
  2
block 213
340
0
102
{BLKREFS
331
5F6
102
}
  0
BLOCK_RECORD
  5
5FD
330
1
100
AcDbSymbolTableRecord
100
AcDbBlockTableRecord
  2
block 214
340
0
102
{BLKREFS
331
5FE
102
}
  0
BLOCK_RECORD
  5
605
330
1
100
AcDbSymbolTableRecord
100
AcDbBlockTableRecord
  2
block 215
340
0
102
{BLKREFS
331
606
102
}
  0
BLOCK_RECORD
  5
60D
330
1
100
AcDbSymbolTableRecord
100
AcDbBlockTableRecord
  2
block 216
340
0
102
{BLKREFS
331
60E
102
}
  0
BLOCK_RECORD
  5
618
330
1
100
AcDbSymbolTableRecord
100
AcDbBlockTableRecord
  2
block 217
340
0
102
{BLKREFS
331
619
102
}
  0
BLOCK_RECORD
  5
623
330
1
100
AcDbSymbolTableRecord
100
AcDbBlockTableRecord
  2
block 218
340
0
102
{BLKREFS
331
624
102
}
  0
BLOCK_RECORD
  5
628
330
1
100
AcDbSymbolTableRecord
100
AcDbBlockTableRecord
  2
block 219
340
0
102
{BLKREFS
331
629
102
}
  0
BLOCK_RECORD
  5
630
330
1
100
AcDbSymbolTableRecord
100
AcDbBlockTableRecord
  2
block 220
340
0
102
{BLKREFS
331
631
102
}
  0
BLOCK_RECORD
  5
638
330
1
100
AcDbSymbolTableRecord
100
AcDbBlockTableRecord
  2
block 221
340
0
102
{BLKREFS
331
639
102
}
  0
BLOCK_RECORD
  5
640
330
1
100
AcDbSymbolTableRecord
100
AcDbBlockTableRecord
  2
block 222
340
0
102
{BLKREFS
331
641
102
}
  0
BLOCK_RECORD
  5
644
330
1
100
AcDbSymbolTableRecord
100
AcDbBlockTableRecord
  2
block 223
340
0
102
{BLKREFS
331
645
102
}
  0
BLOCK_RECORD
  5
64C
330
1
100
AcDbSymbolTableRecord
100
AcDbBlockTableRecord
  2
block 224
340
0
102
{BLKREFS
331
64D
102
}
  0
BLOCK_RECORD
  5
654
330
1
100
AcDbSymbolTableRecord
100
AcDbBlockTableRecord
  2
block 225
340
0
102
{BLKREFS
331
655
102
}
  0
BLOCK_RECORD
  5
65C
330
1
100
AcDbSymbolTableRecord
100
AcDbBlockTableRecord
  2
block 226
340
0
102
{BLKREFS
331
65D
102
}
  0
BLOCK_RECORD
  5
661
330
1
100
AcDbSymbolTableRecord
100
AcDbBlockTableRecord
  2
block 227
340
0
102
{BLKREFS
331
662
102
}
  0
BLOCK_RECORD
  5
669
330
1
100
AcDbSymbolTableRecord
100
AcDbBlockTableRecord
  2
block 228
340
0
102
{BLKREFS
331
66A
102
}
  0
BLOCK_RECORD
  5
674
330
1
100
AcDbSymbolTableRecord
100
AcDbBlockTableRecord
  2
block 229
340
0
102
{BLKREFS
331
675
102
}
  0
BLOCK_RECORD
  5
67F
330
1
100
AcDbSymbolTableRecord
100
AcDbBlockTableRecord
  2
block 230
340
0
102
{BLKREFS
331
680
102
}
  0
BLOCK_RECORD
  5
687
330
1
100
AcDbSymbolTableRecord
100
AcDbBlockTableRecord
  2
block 231
340
0
102
{BLKREFS
331
688
102
}
  0
BLOCK_RECORD
  5
68F
330
1
100
AcDbSymbolTableRecord
100
AcDbBlockTableRecord
  2
block 232
340
0
102
{BLKREFS
331
690
102
}
  0
BLOCK_RECORD
  5
693
330
1
100
AcDbSymbolTableRecord
100
AcDbBlockTableRecord
  2
block 233
340
0
102
{BLKREFS
331
694
102
}
  0
BLOCK_RECORD
  5
69B
330
1
100
AcDbSymbolTableRecord
100
AcDbBlockTableRecord
  2
block 234
340
0
102
{BLKREFS
331
69C
102
}
  0
BLOCK_RECORD
  5
6A3
330
1
100
AcDbSymbolTableRecord
100
AcDbBlockTableRecord
  2
block 235
340
0
102
{BLKREFS
331
6A4
102
}
  0
BLOCK_RECORD
  5
6AB
330
1
100
AcDbSymbolTableRecord
100
AcDbBlockTableRecord
  2
block 236
340
0
102
{BLKREFS
331
6AC
102
}
  0
BLOCK_RECORD
  5
6B3
330
1
100
AcDbSymbolTableRecord
100
AcDbBlockTableRecord
  2
block 237
340
0
102
{BLKREFS
331
6B4
102
}
  0
BLOCK_RECORD
  5
6BB
330
1
100
AcDbSymbolTableRecord
100
AcDbBlockTableRecord
  2
block 238
340
0
102
{BLKREFS
331
6BC
102
}
  0
BLOCK_RECORD
  5
6C6
330
1
100
AcDbSymbolTableRecord
100
AcDbBlockTableRecord
  2
block 239
340
0
102
{BLKREFS
331
6C7
102
}
  0
BLOCK_RECORD
  5
6D1
330
1
100
AcDbSymbolTableRecord
100
AcDbBlockTableRecord
  2
block 240
340
0
102
{BLKREFS
331
6D2
102
}
  0
BLOCK_RECORD
  5
6D6
330
1
100
AcDbSymbolTableRecord
100
AcDbBlockTableRecord
  2
block 241
340
0
102
{BLKREFS
331
6D7
102
}
  0
BLOCK_RECORD
  5
6DE
330
1
100
AcDbSymbolTableRecord
100
AcDbBlockTableRecord
  2
block 242
340
0
102
{BLKREFS
331
6DF
102
}
  0
BLOCK_RECORD
  5
6E6
330
1
100
AcDbSymbolTableRecord
100
AcDbBlockTableRecord
  2
block 243
340
0
102
{BLKREFS
331
6E7
102
}
  0
BLOCK_RECORD
  5
6EE
330
1
100
AcDbSymbolTableRecord
100
AcDbBlockTableRecord
  2
block 244
340
0
102
{BLKREFS
331
6EF
102
}
  0
BLOCK_RECORD
  5
6F2
330
1
100
AcDbSymbolTableRecord
100
AcDbBlockTableRecord
  2
block 245
340
0
102
{BLKREFS
331
6F3
102
}
  0
BLOCK_RECORD
  5
6FA
330
1
100
AcDbSymbolTableRecord
100
AcDbBlockTableRecord
  2
block 246
340
0
102
{BLKREFS
331
6FB
102
}
  0
BLOCK_RECORD
  5
702
330
1
100
AcDbSymbolTableRecord
100
AcDbBlockTableRecord
  2
block 247
340
0
102
{BLKREFS
331
703
102
}
  0
BLOCK_RECORD
  5
70A
330
1
100
AcDbSymbolTableRecord
100
AcDbBlockTableRecord
  2
block 248
340
0
102
{BLKREFS
331
70B
102
}
  0
BLOCK_RECORD
  5
712
330
1
100
AcDbSymbolTableRecord
100
AcDbBlockTableRecord
  2
block 249
340
0
102
{BLKREFS
331
713
102
}
  0
BLOCK_RECORD
  5
71D
330
1
100
AcDbSymbolTableRecord
100
AcDbBlockTableRecord
  2
block 250
340
0
102
{BLKREFS
331
71E
102
}
  0
BLOCK_RECORD
  5
728
330
1
100
AcDbSymbolTableRecord
100
AcDbBlockTableRecord
  2
block 251
340
0
102
{BLKREFS
331
729
102
}
  0
BLOCK_RECORD
  5
72D
330
1
100
AcDbSymbolTableRecord
100
AcDbBlockTableRecord
  2
block 252
340
0
102
{BLKREFS
331
72E
102
}
  0
BLOCK_RECORD
  5
735
330
1
100
AcDbSymbolTableRecord
100
AcDbBlockTableRecord
  2
block 253
340
0
102
{BLKREFS
331
736
102
}
  0
BLOCK_RECORD
  5
73D
330
1
100
AcDbSymbolTableRecord
100
AcDbBlockTableRecord
  2
block 254
340
0
102
{BLKREFS
331
73E
102
}
  0
BLOCK_RECORD
  5
745
330
1
100
AcDbSymbolTableRecord
100
AcDbBlockTableRecord
  2
block 255
340
0
102
{BLKREFS
331
746
102
}
  0
BLOCK_RECORD
  5
749
330
1
100
AcDbSymbolTableRecord
100
AcDbBlockTableRecord
  2
block 256
340
0
102
{BLKREFS
331
74A
102
}
  0
BLOCK_RECORD
  5
751
330
1
100
AcDbSymbolTableRecord
100
AcDbBlockTableRecord
  2
block 257
340
0
102
{BLKREFS
331
752
102
}
  0
BLOCK_RECORD
  5
759
330
1
100
AcDbSymbolTableRecord
100
AcDbBlockTableRecord
  2
block 258
340
0
102
{BLKREFS
331
75A
102
}
  0
BLOCK_RECORD
  5
761
330
1
100
AcDbSymbolTableRecord
100
AcDbBlockTableRecord
  2
block 259
340
0
102
{BLKREFS
331
762
102
}
  0
BLOCK_RECORD
  5
769
330
1
100
AcDbSymbolTableRecord
100
AcDbBlockTableRecord
  2
block 260
340
0
102
{BLKREFS
331
76A
102
}
  0
BLOCK_RECORD
  5
771
330
1
100
AcDbSymbolTableRecord
100
AcDbBlockTableRecord
  2
block 261
340
0
102
{BLKREFS
331
772
102
}
  0
BLOCK_RECORD
  5
77C
330
1
100
AcDbSymbolTableRecord
100
AcDbBlockTableRecord
  2
block 262
340
0
102
{BLKREFS
331
77D
102
}
  0
BLOCK_RECORD
  5
787
330
1
100
AcDbSymbolTableRecord
100
AcDbBlockTableRecord
  2
block 263
340
0
102
{BLKREFS
331
788
102
}
  0
BLOCK_RECORD
  5
78C
330
1
100
AcDbSymbolTableRecord
100
AcDbBlockTableRecord
  2
block 264
340
0
102
{BLKREFS
331
78D
102
}
  0
BLOCK_RECORD
  5
794
330
1
100
AcDbSymbolTableRecord
100
AcDbBlockTableRecord
  2
block 265
340
0
102
{BLKREFS
331
795
102
}
  0
BLOCK_RECORD
  5
79C
330
1
100
AcDbSymbolTableRecord
100
AcDbBlockTableRecord
  2
block 266
340
0
102
{BLKREFS
331
79D
102
}
  0
BLOCK_RECORD
  5
7A4
330
1
100
AcDbSymbolTableRecord
100
AcDbBlockTableRecord
  2
block 267
340
0
102
{BLKREFS
331
7A5
102
}
  0
BLOCK_RECORD
  5
7A8
330
1
100
AcDbSymbolTableRecord
100
AcDbBlockTableRecord
  2
block 268
340
0
102
{BLKREFS
331
7A9
102
}
  0
BLOCK_RECORD
  5
7BA
330
1
100
AcDbSymbolTableRecord
100
AcDbBlockTableRecord
  2
block 269
340
0
102
{BLKREFS
331
7BB
102
}
  0
BLOCK_RECORD
  5
7C0
330
1
100
AcDbSymbolTableRecord
100
AcDbBlockTableRecord
  2
block 270
340
0
102
{BLKREFS
331
7C1
102
}
  0
BLOCK_RECORD
  5
7D2
330
1
100
AcDbSymbolTableRecord
100
AcDbBlockTableRecord
  2
block 271
340
0
102
{BLKREFS
331
7D3
102
}
  0
BLOCK_RECORD
  5
7D7
330
1
100
AcDbSymbolTableRecord
100
AcDbBlockTableRecord
  2
block 272
340
0
102
{BLKREFS
331
7D8
102
}
  0
BLOCK_RECORD
  5
7DC
330
1
100
AcDbSymbolTableRecord
100
AcDbBlockTableRecord
  2
block 273
340
0
102
{BLKREFS
331
7DD
102
}
  0
BLOCK_RECORD
  5
7E1
330
1
100
AcDbSymbolTableRecord
100
AcDbBlockTableRecord
  2
block 274
340
0
102
{BLKREFS
331
7E2
102
}
  0
BLOCK_RECORD
  5
7E9
330
1
100
AcDbSymbolTableRecord
100
AcDbBlockTableRecord
  2
block 275
340
0
102
{BLKREFS
331
7EA
102
}
  0
BLOCK_RECORD
  5
7F1
330
1
100
AcDbSymbolTableRecord
100
AcDbBlockTableRecord
  2
block 276
340
0
102
{BLKREFS
331
7F2
102
}
  0
BLOCK_RECORD
  5
7F9
330
1
100
AcDbSymbolTableRecord
100
AcDbBlockTableRecord
  2
block 277
340
0
102
{BLKREFS
331
7FA
102
}
  0
BLOCK_RECORD
  5
801
330
1
100
AcDbSymbolTableRecord
100
AcDbBlockTableRecord
  2
block 278
340
0
102
{BLKREFS
331
802
102
}
  0
BLOCK_RECORD
  5
809
330
1
100
AcDbSymbolTableRecord
100
AcDbBlockTableRecord
  2
block 279
340
0
102
{BLKREFS
331
80A
102
}
  0
BLOCK_RECORD
  5
811
330
1
100
AcDbSymbolTableRecord
100
AcDbBlockTableRecord
  2
block 280
340
0
102
{BLKREFS
331
812
102
}
  0
BLOCK_RECORD
  5
819
330
1
100
AcDbSymbolTableRecord
100
AcDbBlockTableRecord
  2
block 281
340
0
102
{BLKREFS
331
81A
102
}
  0
BLOCK_RECORD
  5
821
330
1
100
AcDbSymbolTableRecord
100
AcDbBlockTableRecord
  2
block 282
340
0
102
{BLKREFS
331
822
102
}
  0
BLOCK_RECORD
  5
829
330
1
100
AcDbSymbolTableRecord
100
AcDbBlockTableRecord
  2
block 283
340
0
102
{BLKREFS
331
82A
102
}
  0
BLOCK_RECORD
  5
831
330
1
100
AcDbSymbolTableRecord
100
AcDbBlockTableRecord
  2
block 284
340
0
102
{BLKREFS
331
832
102
}
  0
BLOCK_RECORD
  5
839
330
1
100
AcDbSymbolTableRecord
100
AcDbBlockTableRecord
  2
block 285
340
0
102
{BLKREFS
331
83A
102
}
  0
BLOCK_RECORD
  5
842
330
1
100
AcDbSymbolTableRecord
100
AcDbBlockTableRecord
  2
block 286
340
0
102
{BLKREFS
331
843
102
}
  0
BLOCK_RECORD
  5
847
330
1
100
AcDbSymbolTableRecord
100
AcDbBlockTableRecord
  2
block 287
340
0
102
{BLKREFS
331
848
102
}
  0
BLOCK_RECORD
  5
84F
330
1
100
AcDbSymbolTableRecord
100
AcDbBlockTableRecord
  2
block 288
340
0
102
{BLKREFS
331
850
102
}
  0
BLOCK_RECORD
  5
857
330
1
100
AcDbSymbolTableRecord
100
AcDbBlockTableRecord
  2
block 289
340
0
102
{BLKREFS
331
858
102
}
  0
BLOCK_RECORD
  5
85F
330
1
100
AcDbSymbolTableRecord
100
AcDbBlockTableRecord
  2
block 290
340
0
102
{BLKREFS
331
860
102
}
  0
BLOCK_RECORD
  5
868
330
1
100
AcDbSymbolTableRecord
100
AcDbBlockTableRecord
  2
block 291
340
0
102
{BLKREFS
331
869
102
}
  0
BLOCK_RECORD
  5
86D
330
1
100
AcDbSymbolTableRecord
100
AcDbBlockTableRecord
  2
block 292
340
0
102
{BLKREFS
331
86E
102
}
  0
BLOCK_RECORD
  5
875
330
1
100
AcDbSymbolTableRecord
100
AcDbBlockTableRecord
  2
block 293
340
0
102
{BLKREFS
331
876
102
}
  0
BLOCK_RECORD
  5
87E
330
1
100
AcDbSymbolTableRecord
100
AcDbBlockTableRecord
  2
block 294
340
0
102
{BLKREFS
331
87F
102
}
  0
BLOCK_RECORD
  5
883
330
1
100
AcDbSymbolTableRecord
100
AcDbBlockTableRecord
  2
block 295
340
0
102
{BLKREFS
331
884
102
}
  0
BLOCK_RECORD
  5
888
330
1
100
AcDbSymbolTableRecord
100
AcDbBlockTableRecord
  2
block 296
340
0
102
{BLKREFS
331
889
102
}
  0
BLOCK_RECORD
  5
88D
330
1
100
AcDbSymbolTableRecord
100
AcDbBlockTableRecord
  2
block 297
340
0
102
{BLKREFS
331
88E
102
}
  0
BLOCK_RECORD
  5
892
330
1
100
AcDbSymbolTableRecord
100
AcDbBlockTableRecord
  2
block 298
340
0
102
{BLKREFS
331
893
102
}
  0
BLOCK_RECORD
  5
897
330
1
100
AcDbSymbolTableRecord
100
AcDbBlockTableRecord
  2
block 299
340
0
102
{BLKREFS
331
898
102
}
  0
BLOCK_RECORD
  5
89C
330
1
100
AcDbSymbolTableRecord
100
AcDbBlockTableRecord
  2
block 300
340
0
102
{BLKREFS
331
89D
102
}
  0
BLOCK_RECORD
  5
8A1
330
1
100
AcDbSymbolTableRecord
100
AcDbBlockTableRecord
  2
block 301
340
0
102
{BLKREFS
331
8A2
102
}
  0
BLOCK_RECORD
  5
8A6
330
1
100
AcDbSymbolTableRecord
100
AcDbBlockTableRecord
  2
block 302
340
0
102
{BLKREFS
331
8A7
102
}
  0
BLOCK_RECORD
  5
8AB
330
1
100
AcDbSymbolTableRecord
100
AcDbBlockTableRecord
  2
block 303
340
0
102
{BLKREFS
331
8AC
102
}
  0
BLOCK_RECORD
  5
8B0
330
1
100
AcDbSymbolTableRecord
100
AcDbBlockTableRecord
  2
block 304
340
0
102
{BLKREFS
331
8B1
102
}
  0
BLOCK_RECORD
  5
8B5
330
1
100
AcDbSymbolTableRecord
100
AcDbBlockTableRecord
  2
block 305
340
0
102
{BLKREFS
331
8B6
102
}
  0
BLOCK_RECORD
  5
8BA
330
1
100
AcDbSymbolTableRecord
100
AcDbBlockTableRecord
  2
block 306
340
0
102
{BLKREFS
331
8BB
102
}
  0
BLOCK_RECORD
  5
8BF
330
1
100
AcDbSymbolTableRecord
100
AcDbBlockTableRecord
  2
block 307
340
0
102
{BLKREFS
331
8C0
102
}
  0
BLOCK_RECORD
  5
8C4
330
1
100
AcDbSymbolTableRecord
100
AcDbBlockTableRecord
  2
block 308
340
0
102
{BLKREFS
331
8C5
102
}
  0
BLOCK_RECORD
  5
8C9
330
1
100
AcDbSymbolTableRecord
100
AcDbBlockTableRecord
  2
block 309
340
0
102
{BLKREFS
331
8CA
102
}
  0
BLOCK_RECORD
  5
8CE
330
1
100
AcDbSymbolTableRecord
100
AcDbBlockTableRecord
  2
block 310
340
0
102
{BLKREFS
331
8CF
102
}
  0
BLOCK_RECORD
  5
8D3
330
1
100
AcDbSymbolTableRecord
100
AcDbBlockTableRecord
  2
block 311
340
0
102
{BLKREFS
331
8D4
102
}
  0
BLOCK_RECORD
  5
8D8
330
1
100
AcDbSymbolTableRecord
100
AcDbBlockTableRecord
  2
block 312
340
0
102
{BLKREFS
331
8D9
102
}
  0
BLOCK_RECORD
  5
8DD
330
1
100
AcDbSymbolTableRecord
100
AcDbBlockTableRecord
  2
block 313
340
0
102
{BLKREFS
331
8DE
102
}
  0
BLOCK_RECORD
  5
8E2
330
1
100
AcDbSymbolTableRecord
100
AcDbBlockTableRecord
  2
block 314
340
0
102
{BLKREFS
331
8E3
102
}
  0
BLOCK_RECORD
  5
8E8
330
1
100
AcDbSymbolTableRecord
100
AcDbBlockTableRecord
  2
block 315
340
0
102
{BLKREFS
331
8E9
102
}
  0
BLOCK_RECORD
  5
8F1
330
1
100
AcDbSymbolTableRecord
100
AcDbBlockTableRecord
  2
block 316
340
0
102
{BLKREFS
331
8F2
102
}
  0
BLOCK_RECORD
  5
8FA
330
1
100
AcDbSymbolTableRecord
100
AcDbBlockTableRecord
  2
block 317
340
0
102
{BLKREFS
331
8FB
102
}
  0
BLOCK_RECORD
  5
903
330
1
100
AcDbSymbolTableRecord
100
AcDbBlockTableRecord
  2
block 318
340
0
102
{BLKREFS
331
904
102
}
  0
BLOCK_RECORD
  5
90C
330
1
100
AcDbSymbolTableRecord
100
AcDbBlockTableRecord
  2
block 319
340
0
102
{BLKREFS
331
90D
102
}
  0
BLOCK_RECORD
  5
915
330
1
100
AcDbSymbolTableRecord
100
AcDbBlockTableRecord
  2
block 320
340
0
102
{BLKREFS
331
916
102
}
  0
ENDTAB
  0
ENDSEC
  0
SECTION
  2
BLOCKS
  0
BLOCK
  5
20
330
1F
100
AcDbEntity
  8
0
100
AcDbBlockBegin
  2
*Model_Space
 70
     0
 71
     0
 10
0.0
 20
0.0
 30
0.0
  3
*Model_Space
  1

  0
ENDBLK
  5
21
330
1F
100
AcDbEntity
  8
0
100
AcDbBlockEnd
  0
BLOCK
  5
1C
330
1B
100
AcDbEntity
 67
     1
  8
0
100
AcDbBlockBegin
  2
*Paper_Space
 70
     0
 71
     0
 10
0.0
 20
0.0
 30
0.0
  3
*Paper_Space
  1

  0
ENDBLK
  5
1D
330
1B
100
AcDbEntity
 67
     1
  8
0
100
AcDbBlockEnd
  0
BLOCK
  5
24
330
23
100
AcDbEntity
  8
0
100
AcDbBlockBegin
  2
*Paper_Space0
 70
     0
 71
     0
 10
0.0
 20
0.0
 30
0.0
  3
*Paper_Space0
  1

  0
ENDBLK
  5
25
330
23
100
AcDbEntity
  8
0
100
AcDbBlockEnd
  0
BLOCK
  5
3E
330
3C
100
AcDbEntity
  8
0
100
AcDbBlockBegin
  2
block 2
 70
     0
 71
     0
 10
0.0
 20
0.0
 30
0.0
  3
block 2
  1

  0
SPLINE
  5
40
330
3C
100
AcDbEntity
  8
LINHAEXT
 62
     7
370
     5
100
AcDbSpline
210
0.0
220
0.0
230
1.0
 70
    11
 71
     3
 72
    23
 73
    19
 74
     0
 42
0.0000000001
 43
0.0000000001
 40
0.0
 40
0.0
 40
0.0
 40
0.0
 40
1.0
 40
1.0
 40
1.0
 40
2.0
 40
2.0
 40
2.0
 40
3.0
 40
3.0
 40
3.0
 40
4.0
 40
4.0
 40
4.0
 40
5.0
 40
5.0
 40
5.0
 40
6.0
 40
6.0
 40
6.0
 40
6.0
 10
104.2783203125
 20
330.1396484375
 30
0.0
 10
104.2783203125
 20
332.90625
 30
0.0
 10
102.03564453125
 20
335.1494140625
 30
0.0
 10
99.2685546875
 20
335.1494140625
 30
0.0
 10
96.50146484375
 20
335.1494140625
 30
0.0
 10
94.25830078125
 20
332.90625
 30
0.0
 10
94.25830078125
 20
330.1396484375
 30
0.0
 10
94.25830078125
 20
327.373046875
 30
0.0
 10
96.50146484375
 20
325.1298828125
 30
0.0
 10
99.2685546875
 20
325.1298828125
 30
0.0
 10
102.03564453125
 20
325.1298828125
 30
0.0
 10
104.2783203125
 20
327.373046875
 30
0.0
 10
104.2783203125
 20
330.1396484375
 30
0.0
 10
104.2783203125
 20
330.1396484375
 30
0.0
 10
104.2783203125
 20
330.1396484375
 30
0.0
 10
104.2783203125
 20
330.1396484375
 30
0.0
 10
104.2783203125
 20
330.1396484375
 30
0.0
 10
104.2783203125
 20
330.1396484375
 30
0.0
 10
104.2783203125
 20
330.1396484375
 30
0.0
  0
ENDBLK
  5
3F
330
3C
100
AcDbEntity
  8
0
100
AcDbBlockEnd
  0
BLOCK
  5
43
330
41
100
AcDbEntity
  8
0
100
AcDbBlockBegin
  2
block 3
 70
     0
 71
     0
 10
0.0
 20
0.0
 30
0.0
  3
block 3
  1

  0
POLYLINE
  5
45
330
41
100
AcDbEntity
  8
LINHAEXT
 62
     7
370
     5
100
AcDb2dPolyline
 66
     1
 10
0.0
 20
0.0
 30
0.0
  0
VERTEX
  5
46
330
45
100
AcDbEntity
  8
LINHAEXT
 62
     7
370
     5
100
AcDbVertex
100
AcDb2dVertex
 10
304.8720703125
 20
262.6962890625
 30
0.0
  0
VERTEX
  5
47
330
45
100
AcDbEntity
  8
LINHAEXT
 62
     7
370
     5
100
AcDbVertex
100
AcDb2dVertex
 10
174.41845703125
 20
262.6962890625
 30
0.0
  0
SEQEND
  5
48
330
45
100
AcDbEntity
  8
LINHAEXT
370
     5
  0
ENDBLK
  5
44
330
41
100
AcDbEntity
  8
0
100
AcDbBlockEnd
  0
BLOCK
  5
4B
330
49
100
AcDbEntity
  8
0
100
AcDbBlockBegin
  2
block 4
 70
     0
 71
     0
 10
0.0
 20
0.0
 30
0.0
  3
block 4
  1

  0
POLYLINE
  5
4D
330
49
100
AcDbEntity
  8
LINHAEXT
 62
     7
370
     5
100
AcDb2dPolyline
 66
     1
 10
0.0
 20
0.0
 30
0.0
  0
VERTEX
  5
4E
330
4D
100
AcDbEntity
  8
LINHAEXT
 62
     7
370
     5
100
AcDbVertex
100
AcDb2dVertex
 10
174.41845703125
 20
262.6962890625
 30
0.0
  0
VERTEX
  5
4F
330
4D
100
AcDbEntity
  8
LINHAEXT
 62
     7
370
     5
100
AcDbVertex
100
AcDb2dVertex
 10
43.96533203125
 20
262.6962890625
 30
0.0
  0
SEQEND
  5
50
330
4D
100
AcDbEntity
  8
LINHAEXT
370
     5
  0
ENDBLK
  5
4C
330
49
100
AcDbEntity
  8
0
100
AcDbBlockEnd
  0
BLOCK
  5
53
330
51
100
AcDbEntity
  8
0
100
AcDbBlockBegin
  2
block 5
 70
     0
 71
     0
 10
0.0
 20
0.0
 30
0.0
  3
block 5
  1

  0
SPLINE
  5
55
330
51
100
AcDbEntity
  8
LINHAEXT
 62
     7
370
     5
100
AcDbSpline
210
0.0
220
0.0
230
1.0
 70
     8
 71
     3
 72
    11
 73
     7
 74
     0
 42
0.0000000001
 43
0.0000000001
 40
0.0
 40
0.0
 40
0.0
 40
0.0
 40
1.0
 40
1.0
 40
1.0
 40
2.0
 40
2.0
 40
2.0
 40
2.0
 10
39.53369140625
 20
267.1279296875
 30
0.0
 10
39.53369140625
 20
264.6806640625
 30
0.0
 10
41.51806640625
 20
262.6962890625
 30
0.0
 10
43.96533203125
 20
262.6962890625
 30
0.0
 10
43.96533203125
 20
262.6962890625
 30
0.0
 10
43.96533203125
 20
262.6962890625
 30
0.0
 10
43.96533203125
 20
262.6962890625
 30
0.0
  0
ENDBLK
  5
54
330
51
100
AcDbEntity
  8
0
100
AcDbBlockEnd
  0
BLOCK
  5
58
330
56
100
AcDbEntity
  8
0
100
AcDbBlockBegin
  2
block 6
 70
     0
 71
     0
 10
0.0
 20
0.0
 30
0.0
  3
block 6
  1

  0
SPLINE
  5
5A
330
56
100
AcDbEntity
  8
LINHAEXT
 62
     7
370
     5
100
AcDbSpline
210
0.0
220
0.0
230
1.0
 70
     8
 71
     3
 72
    11
 73
     7
 74
     0
 42
0.0000000001
 43
0.0000000001
 40
0.0
 40
0.0
 40
0.0
 40
0.0
 40
1.0
 40
1.0
 40
1.0
 40
2.0
 40
2.0
 40
2.0
 40
2.0
 10
43.96533203125
 20
397.58203125
 30
0.0
 10
41.51806640625
 20
397.58203125
 30
0.0
 10
39.53369140625
 20
395.59765625
 30
0.0
 10
39.53369140625
 20
393.150390625
 30
0.0
 10
39.53369140625
 20
393.150390625
 30
0.0
 10
39.53369140625
 20
393.150390625
 30
0.0
 10
39.53369140625
 20
393.150390625
 30
0.0
  0
ENDBLK
  5
59
330
56
100
AcDbEntity
  8
0
100
AcDbBlockEnd
  0
BLOCK
  5
5D
330
5B
100
AcDbEntity
  8
0
100
AcDbBlockBegin
  2
block 7
 70
     0
 71
     0
 10
0.0
 20
0.0
 30
0.0
  3
block 7
  1

  0
SPLINE
  5
5F
330
5B
100
AcDbEntity
  8
LINHAEXT
 62
     7
370
     5
100
AcDbSpline
210
0.0
220
0.0
230
1.0
 70
     8
 71
     3
 72
     8
 73
     4
 74
     0
 42
0.0000000001
 43
0.0000000001
 40
0.0
 40
0.0
 40
0.0
 40
0.0
 40
1.0
 40
1.0
 40
1.0
 40
1.0
 10
60.72998046875
 20
330.1396484375
 30
0.0
 10
60.69921875
 20
325.845703125
 30
0.0
 10
60.88623046875
 20
317.3876953125
 30
0.0
 10
61.1064453125
 20
313.099609375
 30
0.0
  0
ENDBLK
  5
5E
330
5B
100
AcDbEntity
  8
0
100
AcDbBlockEnd
  0
BLOCK
  5
62
330
60
100
AcDbEntity
  8
0
100
AcDbBlockBegin
  2
block 8
 70
     0
 71
     0
 10
0.0
 20
0.0
 30
0.0
  3
block 8
  1

  0
SPLINE
  5
64
330
60
100
AcDbEntity
  8
LINHAEXT
 62
     7
370
     5
100
AcDbSpline
210
0.0
220
0.0
230
1.0
 70
     8
 71
     3
 72
     8
 73
     4
 74
     0
 42
0.0000000001
 43
0.0000000001
 40
0.0
 40
0.0
 40
0.0
 40
0.0
 40
1.0
 40
1.0
 40
1.0
 40
1.0
 10
252.25927734375
 20
320.615234375
 30
0.0
 10
252.48974609375
 20
323.0224609375
 30
0.0
 10
252.68359375
 20
327.7216796875
 30
0.0
 10
252.65234375
 20
330.1396484375
 30
0.0
  0
ENDBLK
  5
63
330
60
100
AcDbEntity
  8
0
100
AcDbBlockEnd
  0
BLOCK
  5
67
330
65
100
AcDbEntity
  8
0
100
AcDbBlockBegin
  2
block 9
 70
     0
 71
     0
 10
0.0
 20
0.0
 30
0.0
  3
block 9
  1

  0
SPLINE
  5
69
330
65
100
AcDbEntity
  8
LINHAEXT
 62
     7
370
     5
100
AcDbSpline
210
0.0
220
0.0
230
1.0
 70
     8
 71
     3
 72
     8
 73
     4
 74
     0
 42
0.0000000001
 43
0.0000000001
 40
0.0
 40
0.0
 40
0.0
 40
0.0
 40
1.0
 40
1.0
 40
1.0
 40
1.0
 10
252.65234375
 20
330.1396484375
 30
0.0
 10
252.68359375
 20
332.5576171875
 30
0.0
 10
252.48974609375
 20
337.2568359375
 30
0.0
 10
252.25927734375
 20
339.6640625
 30
0.0
  0
ENDBLK
  5
68
330
65
100
AcDbEntity
  8
0
100
AcDbBlockEnd
  0
BLOCK
  5
6C
330
6A
100
AcDbEntity
  8
0
100
AcDbBlockBegin
  2
block 10
 70
     0
 71
     0
 10
0.0
 20
0.0
 30
0.0
  3
block 10
  1

  0
SPLINE
  5
6E
330
6A
100
AcDbEntity
  8
LINHAEXT
 62
     7
370
     5
100
AcDbSpline
210
0.0
220
0.0
230
1.0
 70
     8
 71
     3
 72
     8
 73
     4
 74
     0
 42
0.0000000001
 43
0.0000000001
 40
0.0
 40
0.0
 40
0.0
 40
0.0
 40
1.0
 40
1.0
 40
1.0
 40
1.0
 10
69.53955078125
 20
349.095703125
 30
0.0
 10
69.26708984375
 20
344.322265625
 30
0.0
 10
69.03564453125
 20
334.9208984375
 30
0.0
 10
69.07373046875
 20
330.1396484375
 30
0.0
  0
ENDBLK
  5
6D
330
6A
100
AcDbEntity
  8
0
100
AcDbBlockEnd
  0
BLOCK
  5
71
330
6F
100
AcDbEntity
  8
0
100
AcDbBlockBegin
  2
block 11
 70
     0
 71
     0
 10
0.0
 20
0.0
 30
0.0
  3
block 11
  1

  0
POLYLINE
  5
73
330
6F
100
AcDbEntity
  8
LINHAEXT
 62
     7
370
     5
100
AcDb2dPolyline
 66
     1
 10
0.0
 20
0.0
 30
0.0
  0
VERTEX
  5
74
330
73
100
AcDbEntity
  8
LINHAEXT
 62
     7
370
     5
100
AcDbVertex
100
AcDb2dVertex
 10
473.962890625
 20
551.0537109375
 30
0.0
  0
VERTEX
  5
75
330
73
100
AcDbEntity
  8
LINHAEXT
 62
     7
370
     5
100
AcDbVertex
100
AcDb2dVertex
 10
540.2490234375
 20
551.0537109375
 30
0.0
  0
SEQEND
  5
76
330
73
100
AcDbEntity
  8
LINHAEXT
370
     5
  0
ENDBLK
  5
72
330
6F
100
AcDbEntity
  8
0
100
AcDbBlockEnd
  0
BLOCK
  5
79
330
77
100
AcDbEntity
  8
0
100
AcDbBlockBegin
  2
block 12
 70
     0
 71
     0
 10
0.0
 20
0.0
 30
0.0
  3
block 12
  1

  0
POLYLINE
  5
7B
330
77
100
AcDbEntity
  8
LINHAEXT
 62
     7
370
     5
100
AcDb2dPolyline
 66
     1
 10
0.0
 20
0.0
 30
0.0
  0
VERTEX
  5
7C
330
7B
100
AcDbEntity
  8
LINHAEXT
 62
     7
370
     5
100
AcDbVertex
100
AcDb2dVertex
 10
407.291015625
 20
545.27294921875
 30
0.0
  0
VERTEX
  5
7D
330
7B
100
AcDbEntity
  8
LINHAEXT
 62
     7
370
     5
100
AcDbVertex
100
AcDb2dVertex
 10
408.0615234375
 20
545.27294921875
 30
0.0
  0
SEQEND
  5
7E
330
7B
100
AcDbEntity
  8
LINHAEXT
370
     5
  0
ENDBLK
  5
7A
330
77
100
AcDbEntity
  8
0
100
AcDbBlockEnd
  0
BLOCK
  5
81
330
7F
100
AcDbEntity
  8
0
100
AcDbBlockBegin
  2
block 13
 70
     0
 71
     0
 10
0.0
 20
0.0
 30
0.0
  3
block 13
  1

  0
POLYLINE
  5
83
330
7F
100
AcDbEntity
  8
LINHAEXT
 62
     7
370
     5
100
AcDb2dPolyline
 66
     1
 10
0.0
 20
0.0
 30
0.0
  0
VERTEX
  5
84
330
83
100
AcDbEntity
  8
LINHAEXT
 62
     7
370
     5
100
AcDbVertex
100
AcDb2dVertex
 10
407.291015625
 20
545.85107421875
 30
0.0
  0
VERTEX
  5
85
330
83
100
AcDbEntity
  8
LINHAEXT
 62
     7
370
     5
100
AcDbVertex
100
AcDb2dVertex
 10
408.0615234375
 20
545.85107421875
 30
0.0
  0
SEQEND
  5
86
330
83
100
AcDbEntity
  8
LINHAEXT
370
     5
  0
ENDBLK
  5
82
330
7F
100
AcDbEntity
  8
0
100
AcDbBlockEnd
  0
BLOCK
  5
89
330
87
100
AcDbEntity
  8
0
100
AcDbBlockBegin
  2
block 14
 70
     0
 71
     0
 10
0.0
 20
0.0
 30
0.0
  3
block 14
  1

  0
POLYLINE
  5
8B
330
87
100
AcDbEntity
  8
LINHAEXT
 62
     7
370
     5
100
AcDb2dPolyline
 66
     1
 10
0.0
 20
0.0
 30
0.0
  0
VERTEX
  5
8C
330
8B
100
AcDbEntity
  8
LINHAEXT
 62
     7
370
     5
100
AcDbVertex
100
AcDb2dVertex
 10
406.5205078125
 20
549.8974609375
 30
0.0
  0
VERTEX
  5
8D
330
8B
100
AcDbEntity
  8
LINHAEXT
 62
     7
370
     5
100
AcDbVertex
100
AcDb2dVertex
 10
406.5205078125
 20
546.04345703125
 30
0.0
  0
SEQEND
  5
8E
330
8B
100
AcDbEntity
  8
LINHAEXT
370
     5
  0
ENDBLK
  5
8A
330
87
100
AcDbEntity
  8
0
100
AcDbBlockEnd
  0
BLOCK
  5
91
330
8F
100
AcDbEntity
  8
0
100
AcDbBlockBegin
  2
block 15
 70
     0
 71
     0
 10
0.0
 20
0.0
 30
0.0
  3
block 15
  1

  0
POLYLINE
  5
93
330
8F
100
AcDbEntity
  8
LINHAEXT
 62
     7
370
     5
100
AcDb2dPolyline
 66
     1
 10
0.0
 20
0.0
 30
0.0
  0
VERTEX
  5
94
330
93
100
AcDbEntity
  8
LINHAEXT
 62
     7
370
     5
100
AcDbVertex
100
AcDb2dVertex
 10
407.0986328125
 20
549.8974609375
 30
0.0
  0
VERTEX
  5
95
330
93
100
AcDbEntity
  8
LINHAEXT
 62
     7
370
     5
100
AcDbVertex
100
AcDb2dVertex
 10
407.0986328125
 20
546.04345703125
 30
0.0
  0
SEQEND
  5
96
330
93
100
AcDbEntity
  8
LINHAEXT
370
     5
  0
ENDBLK
  5
92
330
8F
100
AcDbEntity
  8
0
100
AcDbBlockEnd
  0
BLOCK
  5
99
330
97
100
AcDbEntity
  8
0
100
AcDbBlockBegin
  2
block 16
 70
     0
 71
     0
 10
0.0
 20
0.0
 30
0.0
  3
block 16
  1

  0
SPLINE
  5
9B
330
97
100
AcDbEntity
  8
LINHAEXT
 62
     7
370
     5
100
AcDbSpline
210
0.0
220
0.0
230
1.0
 70
     8
 71
     3
 72
    11
 73
     7
 74
     0
 42
0.0000000001
 43
0.0000000001
 40
0.0
 40
0.0
 40
0.0
 40
0.0
 40
1.0
 40
1.0
 40
1.0
 40
2.0
 40
2.0
 40
2.0
 40
2.0
 10
406.5205078125
 20
546.04345703125
 30
0.0
 10
406.5205078125
 20
545.6181640625
 30
0.0
 10
406.865234375
 20
545.27294921875
 30
0.0
 10
407.291015625
 20
545.27294921875
 30
0.0
 10
407.291015625
 20
545.27294921875
 30
0.0
 10
407.291015625
 20
545.27294921875
 30
0.0
 10
407.291015625
 20
545.27294921875
 30
0.0
  0
ENDBLK
  5
9A
330
97
100
AcDbEntity
  8
0
100
AcDbBlockEnd
  0
BLOCK
  5
9E
330
9C
100
AcDbEntity
  8
0
100
AcDbBlockBegin
  2
block 17
 70
     0
 71
     0
 10
0.0
 20
0.0
 30
0.0
  3
block 17
  1

  0
SPLINE
  5
A0
330
9C
100
AcDbEntity
  8
LINHAEXT
 62
     7
370
     5
100
AcDbSpline
210
0.0
220
0.0
230
1.0
 70
     8
 71
     3
 72
    11
 73
     7
 74
     0
 42
0.0000000001
 43
0.0000000001
 40
0.0
 40
0.0
 40
0.0
 40
0.0
 40
1.0
 40
1.0
 40
1.0
 40
2.0
 40
2.0
 40
2.0
 40
2.0
 10
407.0986328125
 20
546.04345703125
 30
0.0
 10
407.0986328125
 20
545.93701171875
 30
0.0
 10
407.1845703125
 20
545.85107421875
 30
0.0
 10
407.291015625
 20
545.85107421875
 30
0.0
 10
407.291015625
 20
545.85107421875
 30
0.0
 10
407.291015625
 20
545.85107421875
 30
0.0
 10
407.291015625
 20
545.85107421875
 30
0.0
  0
ENDBLK
  5
9F
330
9C
100
AcDbEntity
  8
0
100
AcDbBlockEnd
  0
BLOCK
  5
A3
330
A1
100
AcDbEntity
  8
0
100
AcDbBlockBegin
  2
block 18
 70
     0
 71
     0
 10
0.0
 20
0.0
 30
0.0
  3
block 18
  1

  0
SPLINE
  5
A5
330
A1
100
AcDbEntity
  8
LINHAEXT
 62
     7
370
     5
100
AcDbSpline
210
0.0
220
0.0
230
1.0
 70
     8
 71
     3
 72
    11
 73
     7
 74
     0
 42
0.0000000001
 43
0.0000000001
 40
0.0
 40
0.0
 40
0.0
 40
0.0
 40
1.0
 40
1.0
 40
1.0
 40
2.0
 40
2.0
 40
2.0
 40
2.0
 10
407.67578125
 20
551.0537109375
 30
0.0
 10
407.0380859375
 20
551.0537109375
 30
0.0
 10
406.5205078125
 20
550.5361328125
 30
0.0
 10
406.5205078125
 20
549.8974609375
 30
0.0
 10
406.5205078125
 20
549.8974609375
 30
0.0
 10
406.5205078125
 20
549.8974609375
 30
0.0
 10
406.5205078125
 20
549.8974609375
 30
0.0
  0
ENDBLK
  5
A4
330
A1
100
AcDbEntity
  8
0
100
AcDbBlockEnd
  0
BLOCK
  5
A8
330
A6
100
AcDbEntity
  8
0
100
AcDbBlockBegin
  2
block 19
 70
     0
 71
     0
 10
0.0
 20
0.0
 30
0.0
  3
block 19
  1

  0
SPLINE
  5
AA
330
A6
100
AcDbEntity
  8
LINHAEXT
 62
     7
370
     5
100
AcDbSpline
210
0.0
220
0.0
230
1.0
 70
     8
 71
     3
 72
    11
 73
     7
 74
     0
 42
0.0000000001
 43
0.0000000001
 40
0.0
 40
0.0
 40
0.0
 40
0.0
 40
1.0
 40
1.0
 40
1.0
 40
2.0
 40
2.0
 40
2.0
 40
2.0
 10
407.67578125
 20
550.4755859375
 30
0.0
 10
407.357421875
 20
550.4755859375
 30
0.0
 10
407.0986328125
 20
550.216796875
 30
0.0
 10
407.0986328125
 20
549.8974609375
 30
0.0
 10
407.0986328125
 20
549.8974609375
 30
0.0
 10
407.0986328125
 20
549.8974609375
 30
0.0
 10
407.0986328125
 20
549.8974609375
 30
0.0
  0
ENDBLK
  5
A9
330
A6
100
AcDbEntity
  8
0
100
AcDbBlockEnd
  0
BLOCK
  5
AD
330
AB
100
AcDbEntity
  8
0
100
AcDbBlockBegin
  2
block 20
 70
     0
 71
     0
 10
0.0
 20
0.0
 30
0.0
  3
block 20
  1

  0
POLYLINE
  5
AF
330
AB
100
AcDbEntity
  8
LINHAEXT
 62
     7
370
     5
100
AcDb2dPolyline
 66
     1
 10
0.0
 20
0.0
 30
0.0
  0
VERTEX
  5
B0
330
AF
100
AcDbEntity
  8
LINHAEXT
 62
     7
370
     5
100
AcDbVertex
100
AcDb2dVertex
 10
473.962890625
 20
551.0537109375
 30
0.0
  0
VERTEX
  5
B1
330
AF
100
AcDbEntity
  8
LINHAEXT
 62
     7
370
     5
100
AcDbVertex
100
AcDb2dVertex
 10
407.67578125
 20
551.0537109375
 30
0.0
  0
SEQEND
  5
B2
330
AF
100
AcDbEntity
  8
LINHAEXT
370
     5
  0
ENDBLK
  5
AE
330
AB
100
AcDbEntity
  8
0
100
AcDbBlockEnd
  0
BLOCK
  5
B5
330
B3
100
AcDbEntity
  8
0
100
AcDbBlockBegin
  2
block 21
 70
     0
 71
     0
 10
0.0
 20
0.0
 30
0.0
  3
block 21
  1

  0
POLYLINE
  5
B7
330
B3
100
AcDbEntity
  8
LINHAEXT
 62
     7
370
     5
100
AcDb2dPolyline
 66
     1
 10
0.0
 20
0.0
 30
0.0
  0
VERTEX
  5
B8
330
B7
100
AcDbEntity
  8
LINHAEXT
 62
     7
370
     5
100
AcDbVertex
100
AcDb2dVertex
 10
407.67578125
 20
551.0537109375
 30
0.0
  0
VERTEX
  5
B9
330
B7
100
AcDbEntity
  8
LINHAEXT
 62
     7
370
     5
100
AcDbVertex
100
AcDb2dVertex
 10
414.0576171875
 20
550.662109375
 30
0.0
  0
SEQEND
  5
BA
330
B7
100
AcDbEntity
  8
LINHAEXT
370
     5
  0
ENDBLK
  5
B6
330
B3
100
AcDbEntity
  8
0
100
AcDbBlockEnd
  0
BLOCK
  5
BD
330
BB
100
AcDbEntity
  8
0
100
AcDbBlockBegin
  2
block 22
 70
     0
 71
     0
 10
0.0
 20
0.0
 30
0.0
  3
block 22
  1

  0
POLYLINE
  5
BF
330
BB
100
AcDbEntity
  8
LINHAEXT
 62
     7
370
     5
100
AcDb2dPolyline
 66
     1
 10
0.0
 20
0.0
 30
0.0
  0
VERTEX
  5
C0
330
BF
100
AcDbEntity
  8
LINHAEXT
 62
     7
370
     5
100
AcDbVertex
100
AcDb2dVertex
 10
407.640625
 20
550.4765625
 30
0.0
  0
VERTEX
  5
C1
330
BF
100
AcDbEntity
  8
LINHAEXT
 62
     7
370
     5
100
AcDbVertex
100
AcDb2dVertex
 10
414.0224609375
 20
550.0849609375
 30
0.0
  0
SEQEND
  5
C2
330
BF
100
AcDbEntity
  8
LINHAEXT
370
     5
  0
ENDBLK
  5
BE
330
BB
100
AcDbEntity
  8
0
100
AcDbBlockEnd
  0
BLOCK
  5
C5
330
C3
100
AcDbEntity
  8
0
100
AcDbBlockBegin
  2
block 23
 70
     0
 71
     0
 10
0.0
 20
0.0
 30
0.0
  3
block 23
  1

  0
SPLINE
  5
C7
330
C3
100
AcDbEntity
  8
LINHAEXT
 62
     7
370
     5
100
AcDbSpline
210
0.0
220
0.0
230
1.0
 70
     8
 71
     3
 72
     8
 73
     4
 74
     0
 42
0.0000000001
 43
0.0000000001
 40
0.0
 40
0.0
 40
0.0
 40
0.0
 40
1.0
 40
1.0
 40
1.0
 40
1.0
 10
419.7158203125
 20
545.30712890625
 30
0.0
 10
419.44140625
 20
548.1630859375
 30
0.0
 10
416.9248046875
 20
550.5458984375
 30
0.0
 10
414.0576171875
 20
550.662109375
 30
0.0
  0
ENDBLK
  5
C6
330
C3
100
AcDbEntity
  8
0
100
AcDbBlockEnd
  0
BLOCK
  5
CA
330
C8
100
AcDbEntity
  8
0
100
AcDbBlockBegin
  2
block 24
 70
     0
 71
     0
 10
0.0
 20
0.0
 30
0.0
  3
block 24
  1

  0
SPLINE
  5
CC
330
C8
100
AcDbEntity
  8
LINHAEXT
 62
     7
370
     5
100
AcDbSpline
210
0.0
220
0.0
230
1.0
 70
     8
 71
     3
 72
     8
 73
     4
 74
     0
 42
0.0000000001
 43
0.0000000001
 40
0.0
 40
0.0
 40
0.0
 40
0.0
 40
1.0
 40
1.0
 40
1.0
 40
1.0
 10
419.140625
 20
545.240234375
 30
0.0
 10
418.8935546875
 20
547.82421875
 30
0.0
 10
416.6171875
 20
549.97998046875
 30
0.0
 10
414.0224609375
 20
550.0849609375
 30
0.0
  0
ENDBLK
  5
CB
330
C8
100
AcDbEntity
  8
0
100
AcDbBlockEnd
  0
BLOCK
  5
CF
330
CD
100
AcDbEntity
  8
0
100
AcDbBlockBegin
  2
block 25
 70
     0
 71
     0
 10
0.0
 20
0.0
 30
0.0
  3
block 25
  1

  0
SPLINE
  5
D1
330
CD
100
AcDbEntity
  8
LINHAEXT
 62
     7
370
     5
100
AcDbSpline
210
0.0
220
0.0
230
1.0
 70
     8
 71
     3
 72
     8
 73
     4
 74
     0
 42
0.0000000001
 43
0.0000000001
 40
0.0
 40
0.0
 40
0.0
 40
0.0
 40
1.0
 40
1.0
 40
1.0
 40
1.0
 10
419.7158203125
 20
545.306640625
 30
0.0
 10
421.0
 20
533.2255859375
 30
0.0
 10
424.3779296875
 20
509.6142578125
 30
0.0
 10
426.533203125
 20
497.6572265625
 30
0.0
  0
ENDBLK
  5
D0
330
CD
100
AcDbEntity
  8
0
100
AcDbBlockEnd
  0
BLOCK
  5
D4
330
D2
100
AcDbEntity
  8
0
100
AcDbBlockBegin
  2
block 26
 70
     0
 71
     0
 10
0.0
 20
0.0
 30
0.0
  3
block 26
  1

  0
SPLINE
  5
D6
330
D2
100
AcDbEntity
  8
LINHAEXT
 62
     7
370
     5
100
AcDbSpline
210
0.0
220
0.0
230
1.0
 70
     8
 71
     3
 72
     8
 73
     4
 74
     0
 42
0.0000000001
 43
0.0000000001
 40
0.0
 40
0.0
 40
0.0
 40
0.0
 40
1.0
 40
1.0
 40
1.0
 40
1.0
 10
419.140625
 20
545.24072265625
 30
0.0
 10
420.4267578125
 20
533.1513671875
 30
0.0
 10
423.806640625
 20
509.5244140625
 30
0.0
 10
425.9638671875
 20
497.56005859375
 30
0.0
  0
ENDBLK
  5
D5
330
D2
100
AcDbEntity
  8
0
100
AcDbBlockEnd
  0
BLOCK
  5
D9
330
D7
100
AcDbEntity
  8
0
100
AcDbBlockBegin
  2
block 27
 70
     0
 71
     0
 10
0.0
 20
0.0
 30
0.0
  3
block 27
  1

  0
POLYLINE
  5
DB
330
D7
100
AcDbEntity
  8
LINHAEXT
 62
     7
370
     5
100
AcDb2dPolyline
 66
     1
 10
0.0
 20
0.0
 30
0.0
  0
VERTEX
  5
DC
330
DB
100
AcDbEntity
  8
LINHAEXT
 62
     7
370
     5
100
AcDbVertex
100
AcDb2dVertex
 10
467.701171875
 20
475.5712890625
 30
0.0
  0
VERTEX
  5
DD
330
DB
100
AcDbEntity
  8
LINHAEXT
 62
     7
370
     5
100
AcDbVertex
100
AcDb2dVertex
 10
467.4189453125
 20
476.00634765625
 30
0.0
  0
SEQEND
  5
DE
330
DB
100
AcDbEntity
  8
LINHAEXT
370
     5
  0
ENDBLK
  5
DA
330
D7
100
AcDbEntity
  8
0
100
AcDbBlockEnd
  0
BLOCK
  5
E1
330
DF
100
AcDbEntity
  8
0
100
AcDbBlockBegin
  2
block 28
 70
     0
 71
     0
 10
0.0
 20
0.0
 30
0.0
  3
block 28
  1

  0
POLYLINE
  5
E3
330
DF
100
AcDbEntity
  8
LINHAEXT
 62
     7
370
     5
100
AcDb2dPolyline
 66
     1
 10
0.0
 20
0.0
 30
0.0
  0
VERTEX
  5
E4
330
E3
100
AcDbEntity
  8
LINHAEXT
 62
     7
370
     5
100
AcDbVertex
100
AcDb2dVertex
 10
467.2158203125
 20
475.25634765625
 30
0.0
  0
VERTEX
  5
E5
330
E3
100
AcDbEntity
  8
LINHAEXT
 62
     7
370
     5
100
AcDbVertex
100
AcDb2dVertex
 10
466.9345703125
 20
475.69189453125
 30
0.0
  0
SEQEND
  5
E6
330
E3
100
AcDbEntity
  8
LINHAEXT
370
     5
  0
ENDBLK
  5
E2
330
DF
100
AcDbEntity
  8
0
100
AcDbBlockEnd
  0
BLOCK
  5
E9
330
E7
100
AcDbEntity
  8
0
100
AcDbBlockBegin
  2
block 29
 70
     0
 71
     0
 10
0.0
 20
0.0
 30
0.0
  3
block 29
  1

  0
SPLINE
  5
EB
330
E7
100
AcDbEntity
  8
LINHAEXT
 62
     7
370
     5
100
AcDbSpline
210
0.0
220
0.0
230
1.0
 70
     8
 71
     3
 72
     8
 73
     4
 74
     0
 42
0.0000000001
 43
0.0000000001
 40
0.0
 40
0.0
 40
0.0
 40
0.0
 40
1.0
 40
1.0
 40
1.0
 40
1.0
 10
467.701171875
 20
475.5712890625
 30
0.0
 10
467.849609375
 20
475.3134765625
 30
0.0
 10
468.2119140625
 20
475.11669921875
 30
0.0
 10
468.509765625
 20
475.13232421875
 30
0.0
  0
ENDBLK
  5
EA
330
E7
100
AcDbEntity
  8
0
100
AcDbBlockEnd
  0
BLOCK
  5
EE
330
EC
100
AcDbEntity
  8
0
100
AcDbBlockBegin
  2
block 30
 70
     0
 71
     0
 10
0.0
 20
0.0
 30
0.0
  3
block 30
  1

  0
SPLINE
  5
F0
330
EC
100
AcDbEntity
  8
LINHAEXT
 62
     7
370
     5
100
AcDbSpline
210
0.0
220
0.0
230
1.0
 70
     8
 71
     3
 72
     8
 73
     4
 74
     0
 42
0.0000000001
 43
0.0000000001
 40
0.0
 40
0.0
 40
0.0
 40
0.0
 40
1.0
 40
1.0
 40
1.0
 40
1.0
 10
467.2158203125
 20
475.25634765625
 30
0.0
 10
467.455078125
 20
474.84326171875
 30
0.0
 10
468.033203125
 20
474.529296875
 30
0.0
 10
468.509765625
 20
474.5546875
 30
0.0
  0
ENDBLK
  5
EF
330
EC
100
AcDbEntity
  8
0
100
AcDbBlockEnd
  0
BLOCK
  5
F3
330
F1
100
AcDbEntity
  8
0
100
AcDbBlockBegin
  2
block 31
 70
     0
 71
     0
 10
0.0
 20
0.0
 30
0.0
  3
block 31
  1

  0
POLYLINE
  5
F5
330
F1
100
AcDbEntity
  8
LINHAEXT
 62
     7
370
     5
100
AcDb2dPolyline
 66
     1
 10
0.0
 20
0.0
 30
0.0
  0
VERTEX
  5
F6
330
F5
100
AcDbEntity
  8
LINHAEXT
 62
     7
370
     5
100
AcDbVertex
100
AcDb2dVertex
 10
468.953125
 20
475.13232421875
 30
0.0
  0
VERTEX
  5
F7
330
F5
100
AcDbEntity
  8
LINHAEXT
 62
     7
370
     5
100
AcDbVertex
100
AcDb2dVertex
 10
468.509765625
 20
475.13232421875
 30
0.0
  0
SEQEND
  5
F8
330
F5
100
AcDbEntity
  8
LINHAEXT
370
     5
  0
ENDBLK
  5
F4
330
F1
100
AcDbEntity
  8
0
100
AcDbBlockEnd
  0
BLOCK
  5
FB
330
F9
100
AcDbEntity
  8
0
100
AcDbBlockBegin
  2
block 32
 70
     0
 71
     0
 10
0.0
 20
0.0
 30
0.0
  3
block 32
  1

  0
POLYLINE
  5
FD
330
F9
100
AcDbEntity
  8
LINHAEXT
 62
     7
370
     5
100
AcDb2dPolyline
 66
     1
 10
0.0
 20
0.0
 30
0.0
  0
VERTEX
  5
FE
330
FD
100
AcDbEntity
  8
LINHAEXT
 62
     7
370
     5
100
AcDbVertex
100
AcDb2dVertex
 10
468.953125
 20
474.5546875
 30
0.0
  0
VERTEX
  5
FF
330
FD
100
AcDbEntity
  8
LINHAEXT
 62
     7
370
     5
100
AcDbVertex
100
AcDb2dVertex
 10
468.509765625
 20
474.5546875
 30
0.0
  0
SEQEND
  5
100
330
FD
100
AcDbEntity
  8
LINHAEXT
370
     5
  0
ENDBLK
  5
FC
330
F9
100
AcDbEntity
  8
0
100
AcDbBlockEnd
  0
BLOCK
  5
103
330
101
100
AcDbEntity
  8
0
100
AcDbBlockBegin
  2
block 33
 70
     0
 71
     0
 10
0.0
 20
0.0
 30
0.0
  3
block 33
  1

  0
SPLINE
  5
105
330
101
100
AcDbEntity
  8
LINHAEXT
 62
     7
370
     5
100
AcDbSpline
210
0.0
220
0.0
230
1.0
 70
     8
 71
     3
 72
     8
 73
     4
 74
     0
 42
0.0000000001
 43
0.0000000001
 40
0.0
 40
0.0
 40
0.0
 40
0.0
 40
1.0
 40
1.0
 40
1.0
 40
1.0
 10
467.4189453125
 20
476.00634765625
 30
0.0
 10
467.0849609375
 20
476.58837890625
 30
0.0
 10
466.2666015625
 20
477.06005859375
 30
0.0
 10
465.5947265625
 20
477.056640625
 30
0.0
  0
ENDBLK
  5
104
330
101
100
AcDbEntity
  8
0
100
AcDbBlockEnd
  0
BLOCK
  5
108
330
106
100
AcDbEntity
  8
0
100
AcDbBlockBegin
  2
block 34
 70
     0
 71
     0
 10
0.0
 20
0.0
 30
0.0
  3
block 34
  1

  0
SPLINE
  5
10A
330
106
100
AcDbEntity
  8
LINHAEXT
 62
     7
370
     5
100
AcDbSpline
210
0.0
220
0.0
230
1.0
 70
     8
 71
     3
 72
     8
 73
     4
 74
     0
 42
0.0000000001
 43
0.0000000001
 40
0.0
 40
0.0
 40
0.0
 40
0.0
 40
1.0
 40
1.0
 40
1.0
 40
1.0
 10
466.9345703125
 20
475.69189453125
 30
0.0
 10
466.6826171875
 20
476.12841796875
 30
0.0
 10
466.0693359375
 20
476.48193359375
 30
0.0
 10
465.5654296875
 20
476.47900390625
 30
0.0
  0
ENDBLK
  5
109
330
106
100
AcDbEntity
  8
0
100
AcDbBlockEnd
  0
BLOCK
  5
10D
330
10B
100
AcDbEntity
  8
0
100
AcDbBlockBegin
  2
block 35
 70
     0
 71
     0
 10
0.0
 20
0.0
 30
0.0
  3
block 35
  1

  0
POLYLINE
  5
10F
330
10B
100
AcDbEntity
  8
LINHAEXT
 62
     7
370
     5
100
AcDb2dPolyline
 66
     1
 10
0.0
 20
0.0
 30
0.0
  0
VERTEX
  5
110
330
10F
100
AcDbEntity
  8
LINHAEXT
 62
     7
370
     5
100
AcDbVertex
100
AcDb2dVertex
 10
480.2236328125
 20
475.5712890625
 30
0.0
  0
VERTEX
  5
111
330
10F
100
AcDbEntity
  8
LINHAEXT
 62
     7
370
     5
100
AcDbVertex
100
AcDb2dVertex
 10
480.5068359375
 20
476.00634765625
 30
0.0
  0
SEQEND
  5
112
330
10F
100
AcDbEntity
  8
LINHAEXT
370
     5
  0
ENDBLK
  5
10E
330
10B
100
AcDbEntity
  8
0
100
AcDbBlockEnd
  0
BLOCK
  5
115
330
113
100
AcDbEntity
  8
0
100
AcDbBlockBegin
  2
block 36
 70
     0
 71
     0
 10
0.0
 20
0.0
 30
0.0
  3
block 36
  1

  0
POLYLINE
  5
117
330
113
100
AcDbEntity
  8
LINHAEXT
 62
     7
370
     5
100
AcDb2dPolyline
 66
     1
 10
0.0
 20
0.0
 30
0.0
  0
VERTEX
  5
118
330
117
100
AcDbEntity
  8
LINHAEXT
 62
     7
370
     5
100
AcDbVertex
100
AcDb2dVertex
 10
480.7080078125
 20
475.25634765625
 30
0.0
  0
VERTEX
  5
119
330
117
100
AcDbEntity
  8
LINHAEXT
 62
     7
370
     5
100
AcDbVertex
100
AcDb2dVertex
 10
480.9912109375
 20
475.69189453125
 30
0.0
  0
SEQEND
  5
11A
330
117
100
AcDbEntity
  8
LINHAEXT
370
     5
  0
ENDBLK
  5
116
330
113
100
AcDbEntity
  8
0
100
AcDbBlockEnd
  0
BLOCK
  5
11D
330
11B
100
AcDbEntity
  8
0
100
AcDbBlockBegin
  2
block 37
 70
     0
 71
     0
 10
0.0
 20
0.0
 30
0.0
  3
block 37
  1

  0
SPLINE
  5
11F
330
11B
100
AcDbEntity
  8
LINHAEXT
 62
     7
370
     5
100
AcDbSpline
210
0.0
220
0.0
230
1.0
 70
     8
 71
     3
 72
     8
 73
     4
 74
     0
 42
0.0000000001
 43
0.0000000001
 40
0.0
 40
0.0
 40
0.0
 40
0.0
 40
1.0
 40
1.0
 40
1.0
 40
1.0
 10
479.416015625
 20
475.13232421875
 30
0.0
 10
479.712890625
 20
475.11669921875
 30
0.0
 10
480.07421875
 20
475.3134765625
 30
0.0
 10
480.2236328125
 20
475.5712890625
 30
0.0
  0
ENDBLK
  5
11E
330
11B
100
AcDbEntity
  8
0
100
AcDbBlockEnd
  0
BLOCK
  5
122
330
120
100
AcDbEntity
  8
0
100
AcDbBlockBegin
  2
block 38
 70
     0
 71
     0
 10
0.0
 20
0.0
 30
0.0
  3
block 38
  1

  0
SPLINE
  5
124
330
120
100
AcDbEntity
  8
LINHAEXT
 62
     7
370
     5
100
AcDbSpline
210
0.0
220
0.0
230
1.0
 70
     8
 71
     3
 72
     8
 73
     4
 74
     0
 42
0.0000000001
 43
0.0000000001
 40
0.0
 40
0.0
 40
0.0
 40
0.0
 40
1.0
 40
1.0
 40
1.0
 40
1.0
 10
479.416015625
 20
474.5546875
 30
0.0
 10
479.8916015625
 20
474.529296875
 30
0.0
 10
480.470703125
 20
474.84326171875
 30
0.0
 10
480.7080078125
 20
475.25634765625
 30
0.0
  0
ENDBLK
  5
123
330
120
100
AcDbEntity
  8
0
100
AcDbBlockEnd
  0
BLOCK
  5
127
330
125
100
AcDbEntity
  8
0
100
AcDbBlockBegin
  2
block 39
 70
     0
 71
     0
 10
0.0
 20
0.0
 30
0.0
  3
block 39
  1

  0
POLYLINE
  5
129
330
125
100
AcDbEntity
  8
LINHAEXT
 62
     7
370
     5
100
AcDb2dPolyline
 66
     1
 10
0.0
 20
0.0
 30
0.0
  0
VERTEX
  5
12A
330
129
100
AcDbEntity
  8
LINHAEXT
 62
     7
370
     5
100
AcDbVertex
100
AcDb2dVertex
 10
478.97265625
 20
475.13232421875
 30
0.0
  0
VERTEX
  5
12B
330
129
100
AcDbEntity
  8
LINHAEXT
 62
     7
370
     5
100
AcDbVertex
100
AcDb2dVertex
 10
479.416015625
 20
475.13232421875
 30
0.0
  0
SEQEND
  5
12C
330
129
100
AcDbEntity
  8
LINHAEXT
370
     5
  0
ENDBLK
  5
128
330
125
100
AcDbEntity
  8
0
100
AcDbBlockEnd
  0
BLOCK
  5
12F
330
12D
100
AcDbEntity
  8
0
100
AcDbBlockBegin
  2
block 40
 70
     0
 71
     0
 10
0.0
 20
0.0
 30
0.0
  3
block 40
  1

  0
POLYLINE
  5
131
330
12D
100
AcDbEntity
  8
LINHAEXT
 62
     7
370
     5
100
AcDb2dPolyline
 66
     1
 10
0.0
 20
0.0
 30
0.0
  0
VERTEX
  5
132
330
131
100
AcDbEntity
  8
LINHAEXT
 62
     7
370
     5
100
AcDbVertex
100
AcDb2dVertex
 10
478.97265625
 20
474.5546875
 30
0.0
  0
VERTEX
  5
133
330
131
100
AcDbEntity
  8
LINHAEXT
 62
     7
370
     5
100
AcDbVertex
100
AcDb2dVertex
 10
479.416015625
 20
474.5546875
 30
0.0
  0
SEQEND
  5
134
330
131
100
AcDbEntity
  8
LINHAEXT
370
     5
  0
ENDBLK
  5
130
330
12D
100
AcDbEntity
  8
0
100
AcDbBlockEnd
  0
BLOCK
  5
137
330
135
100
AcDbEntity
  8
0
100
AcDbBlockBegin
  2
block 41
 70
     0
 71
     0
 10
0.0
 20
0.0
 30
0.0
  3
block 41
  1

  0
SPLINE
  5
139
330
135
100
AcDbEntity
  8
LINHAEXT
 62
     7
370
     5
100
AcDbSpline
210
0.0
220
0.0
230
1.0
 70
     8
 71
     3
 72
     8
 73
     4
 74
     0
 42
0.0000000001
 43
0.0000000001
 40
0.0
 40
0.0
 40
0.0
 40
0.0
 40
1.0
 40
1.0
 40
1.0
 40
1.0
 10
482.330078125
 20
477.056640625
 30
0.0
 10
481.6591796875
 20
477.06005859375
 30
0.0
 10
480.8408203125
 20
476.58837890625
 30
0.0
 10
480.5068359375
 20
476.00634765625
 30
0.0
  0
ENDBLK
  5
138
330
135
100
AcDbEntity
  8
0
100
AcDbBlockEnd
  0
BLOCK
  5
13C
330
13A
100
AcDbEntity
  8
0
100
AcDbBlockBegin
  2
block 42
 70
     0
 71
     0
 10
0.0
 20
0.0
 30
0.0
  3
block 42
  1

  0
SPLINE
  5
13E
330
13A
100
AcDbEntity
  8
LINHAEXT
 62
     7
370
     5
100
AcDbSpline
210
0.0
220
0.0
230
1.0
 70
     8
 71
     3
 72
     8
 73
     4
 74
     0
 42
0.0000000001
 43
0.0000000001
 40
0.0
 40
0.0
 40
0.0
 40
0.0
 40
1.0
 40
1.0
 40
1.0
 40
1.0
 10
482.359375
 20
476.47900390625
 30
0.0
 10
481.85546875
 20
476.48193359375
 30
0.0
 10
481.2421875
 20
476.12841796875
 30
0.0
 10
480.9912109375
 20
475.69189453125
 30
0.0
  0
ENDBLK
  5
13D
330
13A
100
AcDbEntity
  8
0
100
AcDbBlockEnd
  0
BLOCK
  5
141
330
13F
100
AcDbEntity
  8
0
100
AcDbBlockBegin
  2
block 43
 70
     0
 71
     0
 10
0.0
 20
0.0
 30
0.0
  3
block 43
  1

  0
SPLINE
  5
143
330
13F
100
AcDbEntity
  8
LINHAEXT
 62
     7
370
     5
100
AcDbSpline
210
0.0
220
0.0
230
1.0
 70
     8
 71
     3
 72
     8
 73
     4
 74
     0
 42
0.0000000001
 43
0.0000000001
 40
0.0
 40
0.0
 40
0.0
 40
0.0
 40
1.0
 40
1.0
 40
1.0
 40
1.0
 10
446.7568359375
 20
478.57861328125
 30
0.0
 10
451.498046875
 20
478.00146484375
 30
0.0
 10
460.8232421875
 20
477.248046875
 30
0.0
 10
465.5947265625
 20
477.056640625
 30
0.0
  0
ENDBLK
  5
142
330
13F
100
AcDbEntity
  8
0
100
AcDbBlockEnd
  0
BLOCK
  5
146
330
144
100
AcDbEntity
  8
0
100
AcDbBlockBegin
  2
block 44
 70
     0
 71
     0
 10
0.0
 20
0.0
 30
0.0
  3
block 44
  1

  0
SPLINE
  5
148
330
144
100
AcDbEntity
  8
LINHAEXT
 62
     7
370
     5
100
AcDbSpline
210
0.0
220
0.0
230
1.0
 70
     8
 71
     3
 72
     8
 73
     4
 74
     0
 42
0.0000000001
 43
0.0000000001
 40
0.0
 40
0.0
 40
0.0
 40
0.0
 40
1.0
 40
1.0
 40
1.0
 40
1.0
 10
446.693359375
 20
478.00390625
 30
0.0
 10
451.443359375
 20
477.42578125
 30
0.0
 10
460.78515625
 20
476.6708984375
 30
0.0
 10
465.5654296875
 20
476.47900390625
 30
0.0
  0
ENDBLK
  5
147
330
144
100
AcDbEntity
  8
0
100
AcDbBlockEnd
  0
BLOCK
  5
14B
330
149
100
AcDbEntity
  8
0
100
AcDbBlockBegin
  2
block 45
 70
     0
 71
     0
 10
0.0
 20
0.0
 30
0.0
  3
block 45
  1

  0
POLYLINE
  5
14D
330
149
100
AcDbEntity
  8
LINHAEXT
 62
     7
370
     5
100
AcDb2dPolyline
 66
     1
 10
0.0
 20
0.0
 30
0.0
  0
VERTEX
  5
14E
330
14D
100
AcDbEntity
  8
LINHAEXT
 62
     7
370
     5
100
AcDbVertex
100
AcDb2dVertex
 10
408.0615234375
 20
545.27294921875
 30
0.0
  0
VERTEX
  5
14F
330
14D
100
AcDbEntity
  8
LINHAEXT
 62
     7
370
     5
100
AcDbVertex
100
AcDb2dVertex
 10
408.0615234375
 20
545.85107421875
 30
0.0
  0
SEQEND
  5
150
330
14D
100
AcDbEntity
  8
LINHAEXT
370
     5
  0
ENDBLK
  5
14C
330
149
100
AcDbEntity
  8
0
100
AcDbBlockEnd
  0
BLOCK
  5
153
330
151
100
AcDbEntity
  8
0
100
AcDbBlockBegin
  2
block 46
 70
     0
 71
     0
 10
0.0
 20
0.0
 30
0.0
  3
block 46
  1

  0
POLYLINE
  5
155
330
151
100
AcDbEntity
  8
LINHAEXT
 62
     7
370
     5
100
AcDb2dPolyline
 66
     1
 10
0.0
 20
0.0
 30
0.0
  0
VERTEX
  5
156
330
155
100
AcDbEntity
  8
LINHAEXT
 62
     7
370
     5
100
AcDbVertex
100
AcDb2dVertex
 10
540.634765625
 20
545.27294921875
 30
0.0
  0
VERTEX
  5
157
330
155
100
AcDbEntity
  8
LINHAEXT
 62
     7
370
     5
100
AcDbVertex
100
AcDb2dVertex
 10
539.86328125
 20
545.27294921875
 30
0.0
  0
SEQEND
  5
158
330
155
100
AcDbEntity
  8
LINHAEXT
370
     5
  0
ENDBLK
  5
154
330
151
100
AcDbEntity
  8
0
100
AcDbBlockEnd
  0
BLOCK
  5
15B
330
159
100
AcDbEntity
  8
0
100
AcDbBlockBegin
  2
block 47
 70
     0
 71
     0
 10
0.0
 20
0.0
 30
0.0
  3
block 47
  1

  0
POLYLINE
  5
15D
330
159
100
AcDbEntity
  8
LINHAEXT
 62
     7
370
     5
100
AcDb2dPolyline
 66
     1
 10
0.0
 20
0.0
 30
0.0
  0
VERTEX
  5
15E
330
15D
100
AcDbEntity
  8
LINHAEXT
 62
     7
370
     5
100
AcDbVertex
100
AcDb2dVertex
 10
540.634765625
 20
545.85107421875
 30
0.0
  0
VERTEX
  5
15F
330
15D
100
AcDbEntity
  8
LINHAEXT
 62
     7
370
     5
100
AcDbVertex
100
AcDb2dVertex
 10
539.86328125
 20
545.85107421875
 30
0.0
  0
SEQEND
  5
160
330
15D
100
AcDbEntity
  8
LINHAEXT
370
     5
  0
ENDBLK
  5
15C
330
159
100
AcDbEntity
  8
0
100
AcDbBlockEnd
  0
BLOCK
  5
163
330
161
100
AcDbEntity
  8
0
100
AcDbBlockBegin
  2
block 48
 70
     0
 71
     0
 10
0.0
 20
0.0
 30
0.0
  3
block 48
  1

  0
POLYLINE
  5
165
330
161
100
AcDbEntity
  8
LINHAEXT
 62
     7
370
     5
100
AcDb2dPolyline
 66
     1
 10
0.0
 20
0.0
 30
0.0
  0
VERTEX
  5
166
330
165
100
AcDbEntity
  8
LINHAEXT
 62
     7
370
     5
100
AcDbVertex
100
AcDb2dVertex
 10
541.4052734375
 20
549.8974609375
 30
0.0
  0
VERTEX
  5
167
330
165
100
AcDbEntity
  8
LINHAEXT
 62
     7
370
     5
100
AcDbVertex
100
AcDb2dVertex
 10
541.4052734375
 20
546.04345703125
 30
0.0
  0
SEQEND
  5
168
330
165
100
AcDbEntity
  8
LINHAEXT
370
     5
  0
ENDBLK
  5
164
330
161
100
AcDbEntity
  8
0
100
AcDbBlockEnd
  0
BLOCK
  5
16B
330
169
100
AcDbEntity
  8
0
100
AcDbBlockBegin
  2
block 49
 70
     0
 71
     0
 10
0.0
 20
0.0
 30
0.0
  3
block 49
  1

  0
POLYLINE
  5
16D
330
169
100
AcDbEntity
  8
LINHAEXT
 62
     7
370
     5
100
AcDb2dPolyline
 66
     1
 10
0.0
 20
0.0
 30
0.0
  0
VERTEX
  5
16E
330
16D
100
AcDbEntity
  8
LINHAEXT
 62
     7
370
     5
100
AcDbVertex
100
AcDb2dVertex
 10
540.8271484375
 20
549.8974609375
 30
0.0
  0
VERTEX
  5
16F
330
16D
100
AcDbEntity
  8
LINHAEXT
 62
     7
370
     5
100
AcDbVertex
100
AcDb2dVertex
 10
540.8271484375
 20
546.04345703125
 30
0.0
  0
SEQEND
  5
170
330
16D
100
AcDbEntity
  8
LINHAEXT
370
     5
  0
ENDBLK
  5
16C
330
169
100
AcDbEntity
  8
0
100
AcDbBlockEnd
  0
BLOCK
  5
173
330
171
100
AcDbEntity
  8
0
100
AcDbBlockBegin
  2
block 50
 70
     0
 71
     0
 10
0.0
 20
0.0
 30
0.0
  3
block 50
  1

  0
SPLINE
  5
175
330
171
100
AcDbEntity
  8
LINHAEXT
 62
     7
370
     5
100
AcDbSpline
210
0.0
220
0.0
230
1.0
 70
     8
 71
     3
 72
    11
 73
     7
 74
     0
 42
0.0000000001
 43
0.0000000001
 40
0.0
 40
0.0
 40
0.0
 40
0.0
 40
1.0
 40
1.0
 40
1.0
 40
2.0
 40
2.0
 40
2.0
 40
2.0
 10
540.634765625
 20
545.27294921875
 30
0.0
 10
541.060546875
 20
545.27294921875
 30
0.0
 10
541.4052734375
 20
545.6181640625
 30
0.0
 10
541.4052734375
 20
546.04345703125
 30
0.0
 10
541.4052734375
 20
546.04345703125
 30
0.0
 10
541.4052734375
 20
546.04345703125
 30
0.0
 10
541.4052734375
 20
546.04345703125
 30
0.0
  0
ENDBLK
  5
174
330
171
100
AcDbEntity
  8
0
100
AcDbBlockEnd
  0
BLOCK
  5
178
330
176
100
AcDbEntity
  8
0
100
AcDbBlockBegin
  2
block 51
 70
     0
 71
     0
 10
0.0
 20
0.0
 30
0.0
  3
block 51
  1

  0
SPLINE
  5
17A
330
176
100
AcDbEntity
  8
LINHAEXT
 62
     7
370
     5
100
AcDbSpline
210
0.0
220
0.0
230
1.0
 70
     8
 71
     3
 72
    11
 73
     7
 74
     0
 42
0.0000000001
 43
0.0000000001
 40
0.0
 40
0.0
 40
0.0
 40
0.0
 40
1.0
 40
1.0
 40
1.0
 40
2.0
 40
2.0
 40
2.0
 40
2.0
 10
540.634765625
 20
545.85107421875
 30
0.0
 10
540.7412109375
 20
545.85107421875
 30
0.0
 10
540.8271484375
 20
545.93701171875
 30
0.0
 10
540.8271484375
 20
546.04345703125
 30
0.0
 10
540.8271484375
 20
546.04345703125
 30
0.0
 10
540.8271484375
 20
546.04345703125
 30
0.0
 10
540.8271484375
 20
546.04345703125
 30
0.0
  0
ENDBLK
  5
179
330
176
100
AcDbEntity
  8
0
100
AcDbBlockEnd
  0
BLOCK
  5
17D
330
17B
100
AcDbEntity
  8
0
100
AcDbBlockBegin
  2
block 52
 70
     0
 71
     0
 10
0.0
 20
0.0
 30
0.0
  3
block 52
  1

  0
SPLINE
  5
17F
330
17B
100
AcDbEntity
  8
LINHAEXT
 62
     7
370
     5
100
AcDbSpline
210
0.0
220
0.0
230
1.0
 70
     8
 71
     3
 72
    11
 73
     7
 74
     0
 42
0.0000000001
 43
0.0000000001
 40
0.0
 40
0.0
 40
0.0
 40
0.0
 40
1.0
 40
1.0
 40
1.0
 40
2.0
 40
2.0
 40
2.0
 40
2.0
 10
541.4052734375
 20
549.8974609375
 30
0.0
 10
541.4052734375
 20
550.5361328125
 30
0.0
 10
540.8876953125
 20
551.0537109375
 30
0.0
 10
540.2490234375
 20
551.0537109375
 30
0.0
 10
540.2490234375
 20
551.0537109375
 30
0.0
 10
540.2490234375
 20
551.0537109375
 30
0.0
 10
540.2490234375
 20
551.0537109375
 30
0.0
  0
ENDBLK
  5
17E
330
17B
100
AcDbEntity
  8
0
100
AcDbBlockEnd
  0
BLOCK
  5
182
330
180
100
AcDbEntity
  8
0
100
AcDbBlockBegin
  2
block 53
 70
     0
 71
     0
 10
0.0
 20
0.0
 30
0.0
  3
block 53
  1

  0
SPLINE
  5
184
330
180
100
AcDbEntity
  8
LINHAEXT
 62
     7
370
     5
100
AcDbSpline
210
0.0
220
0.0
230
1.0
 70
     8
 71
     3
 72
    11
 73
     7
 74
     0
 42
0.0000000001
 43
0.0000000001
 40
0.0
 40
0.0
 40
0.0
 40
0.0
 40
1.0
 40
1.0
 40
1.0
 40
2.0
 40
2.0
 40
2.0
 40
2.0
 10
540.8271484375
 20
549.8974609375
 30
0.0
 10
540.8271484375
 20
550.216796875
 30
0.0
 10
540.568359375
 20
550.4755859375
 30
0.0
 10
540.2490234375
 20
550.4755859375
 30
0.0
 10
540.2490234375
 20
550.4755859375
 30
0.0
 10
540.2490234375
 20
550.4755859375
 30
0.0
 10
540.2490234375
 20
550.4755859375
 30
0.0
  0
ENDBLK
  5
183
330
180
100
AcDbEntity
  8
0
100
AcDbBlockEnd
  0
BLOCK
  5
187
330
185
100
AcDbEntity
  8
0
100
AcDbBlockBegin
  2
block 54
 70
     0
 71
     0
 10
0.0
 20
0.0
 30
0.0
  3
block 54
  1

  0
POLYLINE
  5
189
330
185
100
AcDbEntity
  8
LINHAEXT
 62
     7
370
     5
100
AcDb2dPolyline
 66
     1
 10
0.0
 20
0.0
 30
0.0
  0
VERTEX
  5
18A
330
189
100
AcDbEntity
  8
LINHAEXT
 62
     7
370
     5
100
AcDbVertex
100
AcDb2dVertex
 10
540.2490234375
 20
551.0537109375
 30
0.0
  0
VERTEX
  5
18B
330
189
100
AcDbEntity
  8
LINHAEXT
 62
     7
370
     5
100
AcDbVertex
100
AcDb2dVertex
 10
533.8662109375
 20
550.662109375
 30
0.0
  0
SEQEND
  5
18C
330
189
100
AcDbEntity
  8
LINHAEXT
370
     5
  0
ENDBLK
  5
188
330
185
100
AcDbEntity
  8
0
100
AcDbBlockEnd
  0
BLOCK
  5
18F
330
18D
100
AcDbEntity
  8
0
100
AcDbBlockBegin
  2
block 55
 70
     0
 71
     0
 10
0.0
 20
0.0
 30
0.0
  3
block 55
  1

  0
POLYLINE
  5
191
330
18D
100
AcDbEntity
  8
LINHAEXT
 62
     7
370
     5
100
AcDb2dPolyline
 66
     1
 10
0.0
 20
0.0
 30
0.0
  0
VERTEX
  5
192
330
191
100
AcDbEntity
  8
LINHAEXT
 62
     7
370
     5
100
AcDbVertex
100
AcDb2dVertex
 10
540.2841796875
 20
550.4765625
 30
0.0
  0
VERTEX
  5
193
330
191
100
AcDbEntity
  8
LINHAEXT
 62
     7
370
     5
100
AcDbVertex
100
AcDb2dVertex
 10
533.90234375
 20
550.0849609375
 30
0.0
  0
SEQEND
  5
194
330
191
100
AcDbEntity
  8
LINHAEXT
370
     5
  0
ENDBLK
  5
190
330
18D
100
AcDbEntity
  8
0
100
AcDbBlockEnd
  0
BLOCK
  5
197
330
195
100
AcDbEntity
  8
0
100
AcDbBlockBegin
  2
block 56
 70
     0
 71
     0
 10
0.0
 20
0.0
 30
0.0
  3
block 56
  1

  0
SPLINE
  5
199
330
195
100
AcDbEntity
  8
LINHAEXT
 62
     7
370
     5
100
AcDbSpline
210
0.0
220
0.0
230
1.0
 70
     8
 71
     3
 72
     8
 73
     4
 74
     0
 42
0.0000000001
 43
0.0000000001
 40
0.0
 40
0.0
 40
0.0
 40
0.0
 40
1.0
 40
1.0
 40
1.0
 40
1.0
 10
533.8662109375
 20
550.662109375
 30
0.0
 10
531.0
 20
550.5458984375
 30
0.0
 10
528.4833984375
 20
548.1630859375
 30
0.0
 10
528.208984375
 20
545.30712890625
 30
0.0
  0
ENDBLK
  5
198
330
195
100
AcDbEntity
  8
0
100
AcDbBlockEnd
  0
BLOCK
  5
19C
330
19A
100
AcDbEntity
  8
0
100
AcDbBlockBegin
  2
block 57
 70
     0
 71
     0
 10
0.0
 20
0.0
 30
0.0
  3
block 57
  1

  0
SPLINE
  5
19E
330
19A
100
AcDbEntity
  8
LINHAEXT
 62
     7
370
     5
100
AcDbSpline
210
0.0
220
0.0
230
1.0
 70
     8
 71
     3
 72
     8
 73
     4
 74
     0
 42
0.0000000001
 43
0.0000000001
 40
0.0
 40
0.0
 40
0.0
 40
0.0
 40
1.0
 40
1.0
 40
1.0
 40
1.0
 10
533.90234375
 20
550.0849609375
 30
0.0
 10
531.30859375
 20
549.97998046875
 30
0.0
 10
529.03125
 20
547.82421875
 30
0.0
 10
528.783203125
 20
545.240234375
 30
0.0
  0
ENDBLK
  5
19D
330
19A
100
AcDbEntity
  8
0
100
AcDbBlockEnd
  0
BLOCK
  5
1A1
330
19F
100
AcDbEntity
  8
0
100
AcDbBlockBegin
  2
block 58
 70
     0
 71
     0
 10
0.0
 20
0.0
 30
0.0
  3
block 58
  1

  0
POLYLINE
  5
1A3
330
19F
100
AcDbEntity
  8
LINHAEXT
 62
     7
370
     5
100
AcDb2dPolyline
 66
     1
 10
0.0
 20
0.0
 30
0.0
  0
VERTEX
  5
1A4
330
1A3
100
AcDbEntity
  8
LINHAEXT
 62
     7
370
     5
100
AcDbVertex
100
AcDb2dVertex
 10
539.86328125
 20
545.27294921875
 30
0.0
  0
VERTEX
  5
1A5
330
1A3
100
AcDbEntity
  8
LINHAEXT
 62
     7
370
     5
100
AcDbVertex
100
AcDb2dVertex
 10
539.86328125
 20
545.85107421875
 30
0.0
  0
SEQEND
  5
1A6
330
1A3
100
AcDbEntity
  8
LINHAEXT
370
     5
  0
ENDBLK
  5
1A2
330
19F
100
AcDbEntity
  8
0
100
AcDbBlockEnd
  0
BLOCK
  5
1A9
330
1A7
100
AcDbEntity
  8
0
100
AcDbBlockBegin
  2
block 59
 70
     0
 71
     0
 10
0.0
 20
0.0
 30
0.0
  3
block 59
  1

  0
SPLINE
  5
1AB
330
1A7
100
AcDbEntity
  8
LINHAEXT
 62
     7
370
     5
100
AcDbSpline
210
0.0
220
0.0
230
1.0
 70
    11
 71
     3
 72
    23
 73
    19
 74
     0
 42
0.0000000001
 43
0.0000000001
 40
0.0
 40
0.0
 40
0.0
 40
0.0
 40
1.0
 40
1.0
 40
1.0
 40
2.0
 40
2.0
 40
2.0
 40
3.0
 40
3.0
 40
3.0
 40
4.0
 40
4.0
 40
4.0
 40
5.0
 40
5.0
 40
5.0
 40
6.0
 40
6.0
 40
6.0
 40
6.0
 10
478.97265625
 20
537.5654296875
 30
0.0
 10
478.97265625
 20
540.33203125
 30
0.0
 10
476.7294921875
 20
542.5751953125
 30
0.0
 10
473.962890625
 20
542.5751953125
 30
0.0
 10
471.1953125
 20
542.5751953125
 30
0.0
 10
468.953125
 20
540.33203125
 30
0.0
 10
468.953125
 20
537.5654296875
 30
0.0
 10
468.953125
 20
534.79833984375
 30
0.0
 10
471.1953125
 20
532.55517578125
 30
0.0
 10
473.962890625
 20
532.55517578125
 30
0.0
 10
476.7294921875
 20
532.55517578125
 30
0.0
 10
478.97265625
 20
534.79833984375
 30
0.0
 10
478.97265625
 20
537.5654296875
 30
0.0
 10
478.97265625
 20
537.5654296875
 30
0.0
 10
478.97265625
 20
537.5654296875
 30
0.0
 10
478.97265625
 20
537.5654296875
 30
0.0
 10
478.97265625
 20
537.5654296875
 30
0.0
 10
478.97265625
 20
537.5654296875
 30
0.0
 10
478.97265625
 20
537.5654296875
 30
0.0
  0
ENDBLK
  5
1AA
330
1A7
100
AcDbEntity
  8
0
100
AcDbBlockEnd
  0
BLOCK
  5
1AE
330
1AC
100
AcDbEntity
  8
0
100
AcDbBlockBegin
  2
block 60
 70
     0
 71
     0
 10
0.0
 20
0.0
 30
0.0
  3
block 60
  1

  0
SPLINE
  5
1B0
330
1AC
100
AcDbEntity
  8
LINHAEXT
 62
     7
370
     5
100
AcDbSpline
210
0.0
220
0.0
230
1.0
 70
     8
 71
     3
 72
     8
 73
     4
 74
     0
 42
0.0000000001
 43
0.0000000001
 40
0.0
 40
0.0
 40
0.0
 40
0.0
 40
1.0
 40
1.0
 40
1.0
 40
1.0
 10
426.533203125
 20
497.6572265625
 30
0.0
 10
427.900390625
 20
487.85205078125
 30
0.0
 10
436.888671875
 20
479.37255859375
 30
0.0
 10
446.7568359375
 20
478.57861328125
 30
0.0
  0
ENDBLK
  5
1AF
330
1AC
100
AcDbEntity
  8
0
100
AcDbBlockEnd
  0
BLOCK
  5
1B3
330
1B1
100
AcDbEntity
  8
0
100
AcDbBlockBegin
  2
block 61
 70
     0
 71
     0
 10
0.0
 20
0.0
 30
0.0
  3
block 61
  1

  0
SPLINE
  5
1B5
330
1B1
100
AcDbEntity
  8
LINHAEXT
 62
     7
370
     5
100
AcDbSpline
210
0.0
220
0.0
230
1.0
 70
     8
 71
     3
 72
     8
 73
     4
 74
     0
 42
0.0000000001
 43
0.0000000001
 40
0.0
 40
0.0
 40
0.0
 40
0.0
 40
1.0
 40
1.0
 40
1.0
 40
1.0
 10
425.9638671875
 20
497.56005859375
 30
0.0
 10
427.3642578125
 20
487.50927734375
 30
0.0
 10
436.578125
 20
478.81787109375
 30
0.0
 10
446.693359375
 20
478.00390625
 30
0.0
  0
ENDBLK
  5
1B4
330
1B1
100
AcDbEntity
  8
0
100
AcDbBlockEnd
  0
BLOCK
  5
1B8
330
1B6
100
AcDbEntity
  8
0
100
AcDbBlockBegin
  2
block 62
 70
     0
 71
     0
 10
0.0
 20
0.0
 30
0.0
  3
block 62
  1

  0
SPLINE
  5
1BA
330
1B6
100
AcDbEntity
  8
LINHAEXT
 62
     7
370
     5
100
AcDbSpline
210
0.0
220
0.0
230
1.0
 70
     8
 71
     3
 72
     8
 73
     4
 74
     0
 42
0.0000000001
 43
0.0000000001
 40
0.0
 40
0.0
 40
0.0
 40
0.0
 40
1.0
 40
1.0
 40
1.0
 40
1.0
 10
521.392578125
 20
497.6572265625
 30
0.0
 10
523.5478515625
 20
509.6142578125
 30
0.0
 10
526.9248046875
 20
533.2255859375
 30
0.0
 10
528.208984375
 20
545.306640625
 30
0.0
  0
ENDBLK
  5
1B9
330
1B6
100
AcDbEntity
  8
0
100
AcDbBlockEnd
  0
BLOCK
  5
1BD
330
1BB
100
AcDbEntity
  8
0
100
AcDbBlockBegin
  2
block 63
 70
     0
 71
     0
 10
0.0
 20
0.0
 30
0.0
  3
block 63
  1

  0
SPLINE
  5
1BF
330
1BB
100
AcDbEntity
  8
LINHAEXT
 62
     7
370
     5
100
AcDbSpline
210
0.0
220
0.0
230
1.0
 70
     8
 71
     3
 72
     8
 73
     4
 74
     0
 42
0.0000000001
 43
0.0000000001
 40
0.0
 40
0.0
 40
0.0
 40
0.0
 40
1.0
 40
1.0
 40
1.0
 40
1.0
 10
521.9619140625
 20
497.56005859375
 30
0.0
 10
524.1181640625
 20
509.5244140625
 30
0.0
 10
527.4990234375
 20
533.1513671875
 30
0.0
 10
528.783203125
 20
545.24072265625
 30
0.0
  0
ENDBLK
  5
1BE
330
1BB
100
AcDbEntity
  8
0
100
AcDbBlockEnd
  0
BLOCK
  5
1C2
330
1C0
100
AcDbEntity
  8
0
100
AcDbBlockBegin
  2
block 64
 70
     0
 71
     0
 10
0.0
 20
0.0
 30
0.0
  3
block 64
  1

  0
SPLINE
  5
1C4
330
1C0
100
AcDbEntity
  8
LINHAEXT
 62
     7
370
     5
100
AcDbSpline
210
0.0
220
0.0
230
1.0
 70
     8
 71
     3
 72
     8
 73
     4
 74
     0
 42
0.0000000001
 43
0.0000000001
 40
0.0
 40
0.0
 40
0.0
 40
0.0
 40
1.0
 40
1.0
 40
1.0
 40
1.0
 10
482.330078125
 20
477.056640625
 30
0.0
 10
487.1025390625
 20
477.248046875
 30
0.0
 10
496.4267578125
 20
478.00146484375
 30
0.0
 10
501.1689453125
 20
478.57861328125
 30
0.0
  0
ENDBLK
  5
1C3
330
1C0
100
AcDbEntity
  8
0
100
AcDbBlockEnd
  0
BLOCK
  5
1C7
330
1C5
100
AcDbEntity
  8
0
100
AcDbBlockBegin
  2
block 65
 70
     0
 71
     0
 10
0.0
 20
0.0
 30
0.0
  3
block 65
  1

  0
SPLINE
  5
1C9
330
1C5
100
AcDbEntity
  8
LINHAEXT
 62
     7
370
     5
100
AcDbSpline
210
0.0
220
0.0
230
1.0
 70
     8
 71
     3
 72
     8
 73
     4
 74
     0
 42
0.0000000001
 43
0.0000000001
 40
0.0
 40
0.0
 40
0.0
 40
0.0
 40
1.0
 40
1.0
 40
1.0
 40
1.0
 10
482.359375
 20
476.47900390625
 30
0.0
 10
487.140625
 20
476.6708984375
 30
0.0
 10
496.482421875
 20
477.42578125
 30
0.0
 10
501.232421875
 20
478.00390625
 30
0.0
  0
ENDBLK
  5
1C8
330
1C5
100
AcDbEntity
  8
0
100
AcDbBlockEnd
  0
BLOCK
  5
1CC
330
1CA
100
AcDbEntity
  8
0
100
AcDbBlockBegin
  2
block 66
 70
     0
 71
     0
 10
0.0
 20
0.0
 30
0.0
  3
block 66
  1

  0
SPLINE
  5
1CE
330
1CA
100
AcDbEntity
  8
LINHAEXT
 62
     7
370
     5
100
AcDbSpline
210
0.0
220
0.0
230
1.0
 70
     8
 71
     3
 72
     8
 73
     4
 74
     0
 42
0.0000000001
 43
0.0000000001
 40
0.0
 40
0.0
 40
0.0
 40
0.0
 40
1.0
 40
1.0
 40
1.0
 40
1.0
 10
501.1689453125
 20
478.57861328125
 30
0.0
 10
511.0361328125
 20
479.37255859375
 30
0.0
 10
520.0244140625
 20
487.85205078125
 30
0.0
 10
521.392578125
 20
497.6572265625
 30
0.0
  0
ENDBLK
  5
1CD
330
1CA
100
AcDbEntity
  8
0
100
AcDbBlockEnd
  0
BLOCK
  5
1D1
330
1CF
100
AcDbEntity
  8
0
100
AcDbBlockBegin
  2
block 67
 70
     0
 71
     0
 10
0.0
 20
0.0
 30
0.0
  3
block 67
  1

  0
SPLINE
  5
1D3
330
1CF
100
AcDbEntity
  8
LINHAEXT
 62
     7
370
     5
100
AcDbSpline
210
0.0
220
0.0
230
1.0
 70
     8
 71
     3
 72
     8
 73
     4
 74
     0
 42
0.0000000001
 43
0.0000000001
 40
0.0
 40
0.0
 40
0.0
 40
0.0
 40
1.0
 40
1.0
 40
1.0
 40
1.0
 10
501.232421875
 20
478.00390625
 30
0.0
 10
511.34765625
 20
478.81787109375
 30
0.0
 10
520.560546875
 20
487.50927734375
 30
0.0
 10
521.9619140625
 20
497.56005859375
 30
0.0
  0
ENDBLK
  5
1D2
330
1CF
100
AcDbEntity
  8
0
100
AcDbBlockEnd
  0
BLOCK
  5
1D6
330
1D4
100
AcDbEntity
  8
0
100
AcDbBlockBegin
  2
block 68
 70
     0
 71
     0
 10
0.0
 20
0.0
 30
0.0
  3
block 68
  1

  0
POLYLINE
  5
1D8
330
1D4
100
AcDbEntity
  8
0
 62
     7
370
     5
100
AcDb2dPolyline
 66
     1
 10
0.0
 20
0.0
 30
0.0
  0
VERTEX
  5
1D9
330
1D8
100
AcDbEntity
  8
0
 62
     7
370
     5
100
AcDbVertex
100
AcDb2dVertex
 10
39.53369140625
 20
267.1279296875
 30
0.0
  0
VERTEX
  5
1DA
330
1D8
100
AcDbEntity
  8
0
 62
     7
370
     5
100
AcDbVertex
100
AcDb2dVertex
 10
39.53369140625
 20
393.150390625
 30
0.0
  0
SEQEND
  5
1DB
330
1D8
100
AcDbEntity
  8
0
370
     5
  0
ENDBLK
  5
1D7
330
1D4
100
AcDbEntity
  8
0
100
AcDbBlockEnd
  0
BLOCK
  5
1DE
330
1DC
100
AcDbEntity
  8
0
100
AcDbBlockBegin
  2
block 69
 70
     0
 71
     0
 10
0.0
 20
0.0
 30
0.0
  3
block 69
  1

  0
POLYLINE
  5
1E0
330
1DC
100
AcDbEntity
  8
0
 62
     7
370
     5
100
AcDb2dPolyline
 66
     1
 10
0.0
 20
0.0
 30
0.0
  0
VERTEX
  5
1E1
330
1E0
100
AcDbEntity
  8
0
 62
     7
370
     5
100
AcDbVertex
100
AcDb2dVertex
 10
43.96533203125
 20
397.58203125
 30
0.0
  0
VERTEX
  5
1E2
330
1E0
100
AcDbEntity
  8
0
 62
     7
370
     5
100
AcDbVertex
100
AcDb2dVertex
 10
174.41845703125
 20
397.58203125
 30
0.0
  0
SEQEND
  5
1E3
330
1E0
100
AcDbEntity
  8
0
370
     5
  0
ENDBLK
  5
1DF
330
1DC
100
AcDbEntity
  8
0
100
AcDbBlockEnd
  0
BLOCK
  5
1E6
330
1E4
100
AcDbEntity
  8
0
100
AcDbBlockBegin
  2
block 70
 70
     0
 71
     0
 10
0.0
 20
0.0
 30
0.0
  3
block 70
  1

  0
POLYLINE
  5
1E8
330
1E4
100
AcDbEntity
  8
0
 62
     7
370
     5
100
AcDb2dPolyline
 66
     1
 10
0.0
 20
0.0
 30
0.0
  0
VERTEX
  5
1E9
330
1E8
100
AcDbEntity
  8
0
 62
     7
370
     5
100
AcDbVertex
100
AcDb2dVertex
 10
174.41845703125
 20
397.58203125
 30
0.0
  0
VERTEX
  5
1EA
330
1E8
100
AcDbEntity
  8
0
 62
     7
370
     5
100
AcDbVertex
100
AcDb2dVertex
 10
304.8720703125
 20
397.58203125
 30
0.0
  0
SEQEND
  5
1EB
330
1E8
100
AcDbEntity
  8
0
370
     5
  0
ENDBLK
  5
1E7
330
1E4
100
AcDbEntity
  8
0
100
AcDbBlockEnd
  0
BLOCK
  5
1EE
330
1EC
100
AcDbEntity
  8
0
100
AcDbBlockBegin
  2
block 71
 70
     0
 71
     0
 10
0.0
 20
0.0
 30
0.0
  3
block 71
  1

  0
SPLINE
  5
1F0
330
1EC
100
AcDbEntity
  8
0
 62
     7
370
     5
100
AcDbSpline
210
0.0
220
0.0
230
1.0
 70
     8
 71
     3
 72
    11
 73
     7
 74
     0
 42
0.0000000001
 43
0.0000000001
 40
0.0
 40
0.0
 40
0.0
 40
0.0
 40
1.0
 40
1.0
 40
1.0
 40
2.0
 40
2.0
 40
2.0
 40
2.0
 10
309.3037109375
 20
393.150390625
 30
0.0
 10
309.3037109375
 20
395.59765625
 30
0.0
 10
307.3193359375
 20
397.58203125
 30
0.0
 10
304.8720703125
 20
397.58203125
 30
0.0
 10
304.8720703125
 20
397.58203125
 30
0.0
 10
304.8720703125
 20
397.58203125
 30
0.0
 10
304.8720703125
 20
397.58203125
 30
0.0
  0
ENDBLK
  5
1EF
330
1EC
100
AcDbEntity
  8
0
100
AcDbBlockEnd
  0
BLOCK
  5
1F3
330
1F1
100
AcDbEntity
  8
0
100
AcDbBlockBegin
  2
block 72
 70
     0
 71
     0
 10
0.0
 20
0.0
 30
0.0
  3
block 72
  1

  0
SPLINE
  5
1F5
330
1F1
100
AcDbEntity
  8
0
 62
     7
370
     5
100
AcDbSpline
210
0.0
220
0.0
230
1.0
 70
     8
 71
     3
 72
    11
 73
     7
 74
     0
 42
0.0000000001
 43
0.0000000001
 40
0.0
 40
0.0
 40
0.0
 40
0.0
 40
1.0
 40
1.0
 40
1.0
 40
2.0
 40
2.0
 40
2.0
 40
2.0
 10
304.8720703125
 20
262.6962890625
 30
0.0
 10
307.3193359375
 20
262.6962890625
 30
0.0
 10
309.3037109375
 20
264.6806640625
 30
0.0
 10
309.3037109375
 20
267.1279296875
 30
0.0
 10
309.3037109375
 20
267.1279296875
 30
0.0
 10
309.3037109375
 20
267.1279296875
 30
0.0
 10
309.3037109375
 20
267.1279296875
 30
0.0
  0
ENDBLK
  5
1F4
330
1F1
100
AcDbEntity
  8
0
100
AcDbBlockEnd
  0
BLOCK
  5
1F9
330
1F7
100
AcDbEntity
  8
0
100
AcDbBlockBegin
  2
block 73
 70
     0
 71
     0
 10
0.0
 20
0.0
 30
0.0
  3
block 73
  1

  0
POLYLINE
  5
1FB
330
1F7
100
AcDbEntity
  8
COTAS
 62
     7
370
     5
100
AcDb2dPolyline
 66
     1
 10
0.0
 20
0.0
 30
0.0
  0
VERTEX
  5
1FC
330
1FB
100
AcDbEntity
  8
COTAS
 62
     7
370
     5
100
AcDbVertex
100
AcDb2dVertex
 10
309.3037109375
 20
393.150390625
 30
0.0
  0
VERTEX
  5
1FD
330
1FB
100
AcDbEntity
  8
COTAS
 62
     7
370
     5
100
AcDbVertex
100
AcDb2dVertex
 10
309.3037109375
 20
267.1279296875
 30
0.0
  0
SEQEND
  5
1FE
330
1FB
100
AcDbEntity
  8
COTAS
370
     5
  0
ENDBLK
  5
1FA
330
1F7
100
AcDbEntity
  8
0
100
AcDbBlockEnd
  0
BLOCK
  5
201
330
1FF
100
AcDbEntity
  8
0
100
AcDbBlockBegin
  2
block 74
 70
     0
 71
     0
 10
0.0
 20
0.0
 30
0.0
  3
block 74
  1

  0
INSERT
  5
204
330
1FF
100
AcDbEntity
  8
COTAS
100
AcDbBlockReference
  2
block 75
 10
0.0
 20
0.0
 30
0.0
  0
INSERT
  5
20C
330
1FF
100
AcDbEntity
  8
COTAS
100
AcDbBlockReference
  2
block 76
 10
0.0
 20
0.0
 30
0.0
  0
INSERT
  5
214
330
1FF
100
AcDbEntity
  8
COTAS
100
AcDbBlockReference
  2
block 77
 10
0.0
 20
0.0
 30
0.0
  0
INSERT
  5
21C
330
1FF
100
AcDbEntity
  8
COTAS
100
AcDbBlockReference
  2
block 78
 10
0.0
 20
0.0
 30
0.0
  0
INSERT
  5
224
330
1FF
100
AcDbEntity
  8
COTAS
100
AcDbBlockReference
  2
block 79
 10
0.0
 20
0.0
 30
0.0
  0
INSERT
  5
22C
330
1FF
100
AcDbEntity
  8
COTAS
100
AcDbBlockReference
  2
block 80
 10
0.0
 20
0.0
 30
0.0
  0
INSERT
  5
234
330
1FF
100
AcDbEntity
  8
COTAS
100
AcDbBlockReference
  2
block 81
 10
0.0
 20
0.0
 30
0.0
  0
INSERT
  5
23C
330
1FF
100
AcDbEntity
  8
COTAS
100
AcDbBlockReference
  2
block 82
 10
0.0
 20
0.0
 30
0.0
  0
INSERT
  5
244
330
1FF
100
AcDbEntity
  8
COTAS
100
AcDbBlockReference
  2
block 83
 10
0.0
 20
0.0
 30
0.0
  0
INSERT
  5
24C
330
1FF
100
AcDbEntity
  8
COTAS
100
AcDbBlockReference
  2
block 84
 10
0.0
 20
0.0
 30
0.0
  0
INSERT
  5
254
330
1FF
100
AcDbEntity
  8
COTAS
100
AcDbBlockReference
  2
block 85
 10
0.0
 20
0.0
 30
0.0
  0
INSERT
  5
25C
330
1FF
100
AcDbEntity
  8
COTAS
100
AcDbBlockReference
  2
block 86
 10
0.0
 20
0.0
 30
0.0
  0
INSERT
  5
261
330
1FF
100
AcDbEntity
  8
COTAS
100
AcDbBlockReference
  2
block 87
 10
0.0
 20
0.0
 30
0.0
  0
INSERT
  5
266
330
1FF
100
AcDbEntity
  8
COTAS
100
AcDbBlockReference
  2
block 88
 10
0.0
 20
0.0
 30
0.0
  0
INSERT
  5
26B
330
1FF
100
AcDbEntity
  8
COTAS
100
AcDbBlockReference
  2
block 89
 10
0.0
 20
0.0
 30
0.0
  0
INSERT
  5
270
330
1FF
100
AcDbEntity
  8
COTAS
100
AcDbBlockReference
  2
block 90
 10
0.0
 20
0.0
 30
0.0
  0
INSERT
  5
278
330
1FF
100
AcDbEntity
  8
COTAS
100
AcDbBlockReference
  2
block 91
 10
0.0
 20
0.0
 30
0.0
  0
INSERT
  5
27D
330
1FF
100
AcDbEntity
  8
COTAS
100
AcDbBlockReference
  2
block 92
 10
0.0
 20
0.0
 30
0.0
  0
INSERT
  5
282
330
1FF
100
AcDbEntity
  8
COTAS
100
AcDbBlockReference
  2
block 93
 10
0.0
 20
0.0
 30
0.0
  0
INSERT
  5
28A
330
1FF
100
AcDbEntity
  8
COTAS
100
AcDbBlockReference
  2
block 94
 10
0.0
 20
0.0
 30
0.0
  0
INSERT
  5
292
330
1FF
100
AcDbEntity
  8
COTAS
100
AcDbBlockReference
  2
block 95
 10
0.0
 20
0.0
 30
0.0
  0
INSERT
  5
29B
330
1FF
100
AcDbEntity
  8
COTAS
100
AcDbBlockReference
  2
block 96
 10
0.0
 20
0.0
 30
0.0
  0
INSERT
  5
2A3
330
1FF
100
AcDbEntity
  8
COTAS
100
AcDbBlockReference
  2
block 97
 10
0.0
 20
0.0
 30
0.0
  0
INSERT
  5
2AB
330
1FF
100
AcDbEntity
  8
COTAS
100
AcDbBlockReference
  2
block 98
 10
0.0
 20
0.0
 30
0.0
  0
INSERT
  5
2B3
330
1FF
100
AcDbEntity
  8
COTAS
100
AcDbBlockReference
  2
block 99
 10
0.0
 20
0.0
 30
0.0
  0
INSERT
  5
2BB
330
1FF
100
AcDbEntity
  8
COTAS
100
AcDbBlockReference
  2
block 100
 10
0.0
 20
0.0
 30
0.0
  0
INSERT
  5
2C0
330
1FF
100
AcDbEntity
  8
COTAS
100
AcDbBlockReference
  2
block 101
 10
0.0
 20
0.0
 30
0.0
  0
INSERT
  5
2C5
330
1FF
100
AcDbEntity
  8
COTAS
100
AcDbBlockReference
  2
block 102
 10
0.0
 20
0.0
 30
0.0
  0
INSERT
  5
2CA
330
1FF
100
AcDbEntity
  8
COTAS
100
AcDbBlockReference
  2
block 103
 10
0.0
 20
0.0
 30
0.0
  0
INSERT
  5
2CF
330
1FF
100
AcDbEntity
  8
COTAS
100
AcDbBlockReference
  2
block 104
 10
0.0
 20
0.0
 30
0.0
  0
INSERT
  5
2D7
330
1FF
100
AcDbEntity
  8
COTAS
100
AcDbBlockReference
  2
block 105
 10
0.0
 20
0.0
 30
0.0
  0
INSERT
  5
2DF
330
1FF
100
AcDbEntity
  8
COTAS
100
AcDbBlockReference
  2
block 106
 10
0.0
 20
0.0
 30
0.0
  0
INSERT
  5
2E7
330
1FF
100
AcDbEntity
  8
COTAS
100
AcDbBlockReference
  2
block 107
 10
0.0
 20
0.0
 30
0.0
  0
INSERT
  5
2EF
330
1FF
100
AcDbEntity
  8
COTAS
100
AcDbBlockReference
  2
block 108
 10
0.0
 20
0.0
 30
0.0
  0
INSERT
  5
2F7
330
1FF
100
AcDbEntity
  8
COTAS
100
AcDbBlockReference
  2
block 109
 10
0.0
 20
0.0
 30
0.0
  0
INSERT
  5
2FC
330
1FF
100
AcDbEntity
  8
COTAS
100
AcDbBlockReference
  2
block 110
 10
0.0
 20
0.0
 30
0.0
  0
INSERT
  5
301
330
1FF
100
AcDbEntity
  8
COTAS
100
AcDbBlockReference
  2
block 111
 10
0.0
 20
0.0
 30
0.0
  0
INSERT
  5
306
330
1FF
100
AcDbEntity
  8
COTAS
100
AcDbBlockReference
  2
block 112
 10
0.0
 20
0.0
 30
0.0
  0
INSERT
  5
30B
330
1FF
100
AcDbEntity
  8
COTAS
100
AcDbBlockReference
  2
block 113
 10
0.0
 20
0.0
 30
0.0
  0
INSERT
  5
310
330
1FF
100
AcDbEntity
  8
COTAS
100
AcDbBlockReference
  2
block 114
 10
0.0
 20
0.0
 30
0.0
  0
INSERT
  5
315
330
1FF
100
AcDbEntity
  8
COTAS
100
AcDbBlockReference
  2
block 115
 10
0.0
 20
0.0
 30
0.0
  0
INSERT
  5
31A
330
1FF
100
AcDbEntity
  8
COTAS
100
AcDbBlockReference
  2
block 116
 10
0.0
 20
0.0
 30
0.0
  0
INSERT
  5
31F
330
1FF
100
AcDbEntity
  8
COTAS
100
AcDbBlockReference
  2
block 117
 10
0.0
 20
0.0
 30
0.0
  0
INSERT
  5
324
330
1FF
100
AcDbEntity
  8
COTAS
100
AcDbBlockReference
  2
block 118
 10
0.0
 20
0.0
 30
0.0
  0
INSERT
  5
329
330
1FF
100
AcDbEntity
  8
COTAS
100
AcDbBlockReference
  2
block 119
 10
0.0
 20
0.0
 30
0.0
  0
INSERT
  5
331
330
1FF
100
AcDbEntity
  8
COTAS
100
AcDbBlockReference
  2
block 120
 10
0.0
 20
0.0
 30
0.0
  0
INSERT
  5
339
330
1FF
100
AcDbEntity
  8
COTAS
100
AcDbBlockReference
  2
block 121
 10
0.0
 20
0.0
 30
0.0
  0
INSERT
  5
341
330
1FF
100
AcDbEntity
  8
COTAS
100
AcDbBlockReference
  2
block 122
 10
0.0
 20
0.0
 30
0.0
  0
INSERT
  5
346
330
1FF
100
AcDbEntity
  8
COTAS
100
AcDbBlockReference
  2
block 123
 10
0.0
 20
0.0
 30
0.0
  0
INSERT
  5
34B
330
1FF
100
AcDbEntity
  8
COTAS
100
AcDbBlockReference
  2
block 124
 10
0.0
 20
0.0
 30
0.0
  0
INSERT
  5
350
330
1FF
100
AcDbEntity
  8
COTAS
100
AcDbBlockReference
  2
block 125
 10
0.0
 20
0.0
 30
0.0
  0
INSERT
  5
355
330
1FF
100
AcDbEntity
  8
COTAS
100
AcDbBlockReference
  2
block 126
 10
0.0
 20
0.0
 30
0.0
  0
INSERT
  5
35A
330
1FF
100
AcDbEntity
  8
COTAS
100
AcDbBlockReference
  2
block 127
 10
0.0
 20
0.0
 30
0.0
  0
INSERT
  5
35F
330
1FF
100
AcDbEntity
  8
COTAS
100
AcDbBlockReference
  2
block 128
 10
0.0
 20
0.0
 30
0.0
  0
INSERT
  5
364
330
1FF
100
AcDbEntity
  8
COTAS
100
AcDbBlockReference
  2
block 129
 10
0.0
 20
0.0
 30
0.0
  0
ENDBLK
  5
202
330
1FF
100
AcDbEntity
  8
0
100
AcDbBlockEnd
  0
BLOCK
  5
205
330
203
100
AcDbEntity
  8
0
100
AcDbBlockBegin
  2
block 75
 70
     0
 71
     0
 10
0.0
 20
0.0
 30
0.0
  3
block 75
  1

  0
POLYLINE
  5
207
330
203
100
AcDbEntity
  8
COTAS
 62
     7
370
     5
100
AcDb2dPolyline
 66
     1
 10
0.0
 20
0.0
 30
0.0
  0
VERTEX
  5
208
330
207
100
AcDbEntity
  8
COTAS
 62
     7
370
     5
100
AcDbVertex
100
AcDb2dVertex
 10
99.2685546875
 20
470.796875
 30
0.0
  0
VERTEX
  5
209
330
207
100
AcDbEntity
  8
COTAS
 62
     7
370
     5
100
AcDbVertex
100
AcDb2dVertex
 10
89.24853515625
 20
470.796875
 30
0.0
  0
SEQEND
  5
20A
330
207
100
AcDbEntity
  8
COTAS
370
     5
  0
ENDBLK
  5
206
330
203
100
AcDbEntity
  8
0
100
AcDbBlockEnd
  0
BLOCK
  5
20D
330
20B
100
AcDbEntity
  8
0
100
AcDbBlockBegin
  2
block 76
 70
     0
 71
     0
 10
0.0
 20
0.0
 30
0.0
  3
block 76
  1

  0
POLYLINE
  5
20F
330
20B
100
AcDbEntity
  8
COTAS
 62
     7
370
     5
100
AcDb2dPolyline
 66
     1
 10
0.0
 20
0.0
 30
0.0
  0
VERTEX
  5
210
330
20F
100
AcDbEntity
  8
COTAS
 62
     7
370
     5
100
AcDbVertex
100
AcDb2dVertex
 10
89.24853515625
 20
471.0859375
 30
0.0
  0
VERTEX
  5
211
330
20F
100
AcDbEntity
  8
COTAS
 62
     7
370
     5
100
AcDbVertex
100
AcDb2dVertex
 10
89.24072265625
 20
471.0859375
 30
0.0
  0
SEQEND
  5
212
330
20F
100
AcDbEntity
  8
COTAS
370
     5
  0
ENDBLK
  5
20E
330
20B
100
AcDbEntity
  8
0
100
AcDbBlockEnd
  0
BLOCK
  5
215
330
213
100
AcDbEntity
  8
0
100
AcDbBlockBegin
  2
block 77
 70
     0
 71
     0
 10
0.0
 20
0.0
 30
0.0
  3
block 77
  1

  0
POLYLINE
  5
217
330
213
100
AcDbEntity
  8
COTAS
 62
     7
370
     5
100
AcDb2dPolyline
 66
     1
 10
0.0
 20
0.0
 30
0.0
  0
VERTEX
  5
218
330
217
100
AcDbEntity
  8
COTAS
 62
     7
370
     5
100
AcDbVertex
100
AcDb2dVertex
 10
103.46923828125
 20
473.09521484375
 30
0.0
  0
VERTEX
  5
219
330
217
100
AcDbEntity
  8
COTAS
 62
     7
370
     5
100
AcDbVertex
100
AcDb2dVertex
 10
169.40869140625
 20
473.982421875
 30
0.0
  0
SEQEND
  5
21A
330
217
100
AcDbEntity
  8
COTAS
370
     5
  0
ENDBLK
  5
216
330
213
100
AcDbEntity
  8
0
100
AcDbBlockEnd
  0
BLOCK
  5
21D
330
21B
100
AcDbEntity
  8
0
100
AcDbBlockBegin
  2
block 78
 70
     0
 71
     0
 10
0.0
 20
0.0
 30
0.0
  3
block 78
  1

  0
POLYLINE
  5
21F
330
21B
100
AcDbEntity
  8
COTAS
 62
     7
370
     5
100
AcDb2dPolyline
 66
     1
 10
0.0
 20
0.0
 30
0.0
  0
VERTEX
  5
220
330
21F
100
AcDbEntity
  8
COTAS
 62
     7
370
     5
100
AcDbVertex
100
AcDb2dVertex
 10
169.40869140625
 20
474.24853515625
 30
0.0
  0
VERTEX
  5
221
330
21F
100
AcDbEntity
  8
COTAS
 62
     7
370
     5
100
AcDbVertex
100
AcDb2dVertex
 10
234.158203125
 20
475.1640625
 30
0.0
  0
SEQEND
  5
222
330
21F
100
AcDbEntity
  8
COTAS
370
     5
  0
ENDBLK
  5
21E
330
21B
100
AcDbEntity
  8
0
100
AcDbBlockEnd
  0
BLOCK
  5
225
330
223
100
AcDbEntity
  8
0
100
AcDbBlockBegin
  2
block 79
 70
     0
 71
     0
 10
0.0
 20
0.0
 30
0.0
  3
block 79
  1

  0
POLYLINE
  5
227
330
223
100
AcDbEntity
  8
COTAS
 62
     7
370
     5
100
AcDb2dPolyline
 66
     1
 10
0.0
 20
0.0
 30
0.0
  0
VERTEX
  5
228
330
227
100
AcDbEntity
  8
COTAS
 62
     7
370
     5
100
AcDbVertex
100
AcDb2dVertex
 10
103.478515625
 20
472.80615234375
 30
0.0
  0
VERTEX
  5
229
330
227
100
AcDbEntity
  8
COTAS
 62
     7
370
     5
100
AcDbVertex
100
AcDb2dVertex
 10
169.40869140625
 20
473.693359375
 30
0.0
  0
SEQEND
  5
22A
330
227
100
AcDbEntity
  8
COTAS
370
     5
  0
ENDBLK
  5
226
330
223
100
AcDbEntity
  8
0
100
AcDbBlockEnd
  0
BLOCK
  5
22D
330
22B
100
AcDbEntity
  8
0
100
AcDbBlockBegin
  2
block 80
 70
     0
 71
     0
 10
0.0
 20
0.0
 30
0.0
  3
block 80
  1

  0
POLYLINE
  5
22F
330
22B
100
AcDbEntity
  8
COTAS
 62
     7
370
     5
100
AcDb2dPolyline
 66
     1
 10
0.0
 20
0.0
 30
0.0
  0
VERTEX
  5
230
330
22F
100
AcDbEntity
  8
COTAS
 62
     7
370
     5
100
AcDbVertex
100
AcDb2dVertex
 10
169.40869140625
 20
473.95947265625
 30
0.0
  0
VERTEX
  5
231
330
22F
100
AcDbEntity
  8
COTAS
 62
     7
370
     5
100
AcDbVertex
100
AcDb2dVertex
 10
234.17578125
 20
474.875
 30
0.0
  0
SEQEND
  5
232
330
22F
100
AcDbEntity
  8
COTAS
370
     5
  0
ENDBLK
  5
22E
330
22B
100
AcDbEntity
  8
0
100
AcDbBlockEnd
  0
BLOCK
  5
235
330
233
100
AcDbEntity
  8
0
100
AcDbBlockBegin
  2
block 81
 70
     0
 71
     0
 10
0.0
 20
0.0
 30
0.0
  3
block 81
  1

  0
POLYLINE
  5
237
330
233
100
AcDbEntity
  8
COTAS
 62
     7
370
     5
100
AcDb2dPolyline
 66
     1
 10
0.0
 20
0.0
 30
0.0
  0
VERTEX
  5
238
330
237
100
AcDbEntity
  8
COTAS
 62
     7
370
     5
100
AcDbVertex
100
AcDb2dVertex
 10
99.2685546875
 20
471.0859375
 30
0.0
  0
VERTEX
  5
239
330
237
100
AcDbEntity
  8
COTAS
 62
     7
370
     5
100
AcDbVertex
100
AcDb2dVertex
 10
89.24853515625
 20
471.0859375
 30
0.0
  0
SEQEND
  5
23A
330
237
100
AcDbEntity
  8
COTAS
370
     5
  0
ENDBLK
  5
236
330
233
100
AcDbEntity
  8
0
100
AcDbBlockEnd
  0
BLOCK
  5
23D
330
23B
100
AcDbEntity
  8
0
100
AcDbBlockBegin
  2
block 82
 70
     0
 71
     0
 10
0.0
 20
0.0
 30
0.0
  3
block 82
  1

  0
POLYLINE
  5
23F
330
23B
100
AcDbEntity
  8
COTAS
 62
     7
370
     5
100
AcDb2dPolyline
 66
     1
 10
0.0
 20
0.0
 30
0.0
  0
VERTEX
  5
240
330
23F
100
AcDbEntity
  8
COTAS
 62
     7
370
     5
100
AcDbVertex
100
AcDb2dVertex
 10
35.19775390625
 20
545.658203125
 30
0.0
  0
VERTEX
  5
241
330
23F
100
AcDbEntity
  8
COTAS
 62
     7
370
     5
100
AcDbVertex
100
AcDb2dVertex
 10
36.546875
 20
545.658203125
 30
0.0
  0
SEQEND
  5
242
330
23F
100
AcDbEntity
  8
COTAS
370
     5
  0
ENDBLK
  5
23E
330
23B
100
AcDbEntity
  8
0
100
AcDbBlockEnd
  0
BLOCK
  5
245
330
243
100
AcDbEntity
  8
0
100
AcDbBlockBegin
  2
block 83
 70
     0
 71
     0
 10
0.0
 20
0.0
 30
0.0
  3
block 83
  1

  0
POLYLINE
  5
247
330
243
100
AcDbEntity
  8
COTAS
 62
     7
370
     5
100
AcDb2dPolyline
 66
     1
 10
0.0
 20
0.0
 30
0.0
  0
VERTEX
  5
248
330
247
100
AcDbEntity
  8
COTAS
 62
     7
370
     5
100
AcDbVertex
100
AcDb2dVertex
 10
35.19775390625
 20
545.947265625
 30
0.0
  0
VERTEX
  5
249
330
247
100
AcDbEntity
  8
COTAS
 62
     7
370
     5
100
AcDbVertex
100
AcDb2dVertex
 10
36.546875
 20
545.947265625
 30
0.0
  0
SEQEND
  5
24A
330
247
100
AcDbEntity
  8
COTAS
370
     5
  0
ENDBLK
  5
246
330
243
100
AcDbEntity
  8
0
100
AcDbBlockEnd
  0
BLOCK
  5
24D
330
24B
100
AcDbEntity
  8
0
100
AcDbBlockBegin
  2
block 84
 70
     0
 71
     0
 10
0.0
 20
0.0
 30
0.0
  3
block 84
  1

  0
POLYLINE
  5
24F
330
24B
100
AcDbEntity
  8
COTAS
 62
     7
370
     5
100
AcDb2dPolyline
 66
     1
 10
0.0
 20
0.0
 30
0.0
  0
VERTEX
  5
250
330
24F
100
AcDbEntity
  8
COTAS
 62
     7
370
     5
100
AcDbVertex
100
AcDb2dVertex
 10
36.546875
 20
545.658203125
 30
0.0
  0
VERTEX
  5
251
330
24F
100
AcDbEntity
  8
COTAS
 62
     7
370
     5
100
AcDbVertex
100
AcDb2dVertex
 10
36.546875
 20
545.947265625
 30
0.0
  0
SEQEND
  5
252
330
24F
100
AcDbEntity
  8
COTAS
370
     5
  0
ENDBLK
  5
24E
330
24B
100
AcDbEntity
  8
0
100
AcDbBlockEnd
  0
BLOCK
  5
255
330
253
100
AcDbEntity
  8
0
100
AcDbBlockBegin
  2
block 85
 70
     0
 71
     0
 10
0.0
 20
0.0
 30
0.0
  3
block 85
  1

  0
POLYLINE
  5
257
330
253
100
AcDbEntity
  8
COTAS
 62
     7
370
     5
100
AcDb2dPolyline
 66
     1
 10
0.0
 20
0.0
 30
0.0
  0
VERTEX
  5
258
330
257
100
AcDbEntity
  8
COTAS
 62
     7
370
     5
100
AcDbVertex
100
AcDb2dVertex
 10
34.8125
 20
546.3330078125
 30
0.0
  0
VERTEX
  5
259
330
257
100
AcDbEntity
  8
COTAS
 62
     7
370
     5
100
AcDbVertex
100
AcDb2dVertex
 10
34.8125
 20
549.60888671875
 30
0.0
  0
SEQEND
  5
25A
330
257
100
AcDbEntity
  8
COTAS
370
     5
  0
ENDBLK
  5
256
330
253
100
AcDbEntity
  8
0
100
AcDbBlockEnd
  0
BLOCK
  5
25D
330
25B
100
AcDbEntity
  8
0
100
AcDbBlockBegin
  2
block 86
 70
     0
 71
     0
 10
0.0
 20
0.0
 30
0.0
  3
block 86
  1

  0
SPLINE
  5
25F
330
25B
100
AcDbEntity
  8
COTAS
 62
     7
370
     5
100
AcDbSpline
210
0.0
220
0.0
230
1.0
 70
     8
 71
     3
 72
    11
 73
     7
 74
     0
 42
0.0000000001
 43
0.0000000001
 40
0.0
 40
0.0
 40
0.0
 40
0.0
 40
1.0
 40
1.0
 40
1.0
 40
2.0
 40
2.0
 40
2.0
 40
2.0
 10
34.8125
 20
549.60888671875
 30
0.0
 10
34.8125
 20
549.60888671875
 30
0.0
 10
34.8125
 20
549.60888671875
 30
0.0
 10
34.8125
 20
549.60888671875
 30
0.0
 10
34.8125
 20
550.2470703125
 30
0.0
 10
35.33056640625
 20
550.7646484375
 30
0.0
 10
35.96875
 20
550.7646484375
 30
0.0
  0
ENDBLK
  5
25E
330
25B
100
AcDbEntity
  8
0
100
AcDbBlockEnd
  0
BLOCK
  5
262
330
260
100
AcDbEntity
  8
0
100
AcDbBlockBegin
  2
block 87
 70
     0
 71
     0
 10
0.0
 20
0.0
 30
0.0
  3
block 87
  1

  0
SPLINE
  5
264
330
260
100
AcDbEntity
  8
COTAS
 62
     7
370
     5
100
AcDbSpline
210
0.0
220
0.0
230
1.0
 70
     8
 71
     3
 72
    11
 73
     7
 74
     0
 42
0.0000000001
 43
0.0000000001
 40
0.0
 40
0.0
 40
0.0
 40
0.0
 40
1.0
 40
1.0
 40
1.0
 40
2.0
 40
2.0
 40
2.0
 40
2.0
 10
34.52392578125
 20
549.60888671875
 30
0.0
 10
34.52392578125
 20
549.60888671875
 30
0.0
 10
34.52392578125
 20
549.60888671875
 30
0.0
 10
34.52392578125
 20
549.60888671875
 30
0.0
 10
34.52392578125
 20
550.40673828125
 30
0.0
 10
35.17041015625
 20
551.0537109375
 30
0.0
 10
35.96875
 20
551.0537109375
 30
0.0
  0
ENDBLK
  5
263
330
260
100
AcDbEntity
  8
0
100
AcDbBlockEnd
  0
BLOCK
  5
267
330
265
100
AcDbEntity
  8
0
100
AcDbBlockBegin
  2
block 88
 70
     0
 71
     0
 10
0.0
 20
0.0
 30
0.0
  3
block 88
  1

  0
SPLINE
  5
269
330
265
100
AcDbEntity
  8
COTAS
 62
     7
370
     5
100
AcDbSpline
210
0.0
220
0.0
230
1.0
 70
     8
 71
     3
 72
    11
 73
     7
 74
     0
 42
0.0000000001
 43
0.0000000001
 40
0.0
 40
0.0
 40
0.0
 40
0.0
 40
1.0
 40
1.0
 40
1.0
 40
2.0
 40
2.0
 40
2.0
 40
2.0
 10
35.19775390625
 20
545.947265625
 30
0.0
 10
35.19775390625
 20
545.947265625
 30
0.0
 10
35.19775390625
 20
545.947265625
 30
0.0
 10
35.19775390625
 20
545.947265625
 30
0.0
 10
34.9853515625
 20
545.947265625
 30
0.0
 10
34.8125
 20
546.1201171875
 30
0.0
 10
34.8125
 20
546.3330078125
 30
0.0
  0
ENDBLK
  5
268
330
265
100
AcDbEntity
  8
0
100
AcDbBlockEnd
  0
BLOCK
  5
26C
330
26A
100
AcDbEntity
  8
0
100
AcDbBlockBegin
  2
block 89
 70
     0
 71
     0
 10
0.0
 20
0.0
 30
0.0
  3
block 89
  1

  0
SPLINE
  5
26E
330
26A
100
AcDbEntity
  8
COTAS
 62
     7
370
     5
100
AcDbSpline
210
0.0
220
0.0
230
1.0
 70
     8
 71
     3
 72
    11
 73
     7
 74
     0
 42
0.0000000001
 43
0.0000000001
 40
0.0
 40
0.0
 40
0.0
 40
0.0
 40
1.0
 40
1.0
 40
1.0
 40
2.0
 40
2.0
 40
2.0
 40
2.0
 10
35.19775390625
 20
545.658203125
 30
0.0
 10
35.19775390625
 20
545.658203125
 30
0.0
 10
35.19775390625
 20
545.658203125
 30
0.0
 10
35.19775390625
 20
545.658203125
 30
0.0
 10
34.8251953125
 20
545.658203125
 30
0.0
 10
34.52392578125
 20
545.96044921875
 30
0.0
 10
34.52392578125
 20
546.3330078125
 30
0.0
  0
ENDBLK
  5
26D
330
26A
100
AcDbEntity
  8
0
100
AcDbBlockEnd
  0
BLOCK
  5
271
330
26F
100
AcDbEntity
  8
0
100
AcDbBlockBegin
  2
block 90
 70
     0
 71
     0
 10
0.0
 20
0.0
 30
0.0
  3
block 90
  1

  0
POLYLINE
  5
273
330
26F
100
AcDbEntity
  8
COTAS
 62
     7
370
     5
100
AcDb2dPolyline
 66
     1
 10
0.0
 20
0.0
 30
0.0
  0
VERTEX
  5
274
330
273
100
AcDbEntity
  8
COTAS
 62
     7
370
     5
100
AcDbVertex
100
AcDb2dVertex
 10
34.52392578125
 20
546.3330078125
 30
0.0
  0
VERTEX
  5
275
330
273
100
AcDbEntity
  8
COTAS
 62
     7
370
     5
100
AcDbVertex
100
AcDb2dVertex
 10
34.52392578125
 20
549.60888671875
 30
0.0
  0
SEQEND
  5
276
330
273
100
AcDbEntity
  8
COTAS
370
     5
  0
ENDBLK
  5
272
330
26F
100
AcDbEntity
  8
0
100
AcDbBlockEnd
  0
BLOCK
  5
279
330
277
100
AcDbEntity
  8
0
100
AcDbBlockBegin
  2
block 91
 70
     0
 71
     0
 10
0.0
 20
0.0
 30
0.0
  3
block 91
  1

  0
SPLINE
  5
27B
330
277
100
AcDbEntity
  8
COTAS
 62
     7
370
     5
100
AcDbSpline
210
0.0
220
0.0
230
1.0
 70
     8
 71
     3
 72
     8
 73
     4
 74
     0
 42
0.0000000001
 43
0.0000000001
 40
0.0
 40
0.0
 40
0.0
 40
0.0
 40
1.0
 40
1.0
 40
1.0
 40
1.0
 10
51.0107421875
 20
550.4423828125
 30
0.0
 10
53.7060546875
 20
550.177734375
 30
0.0
 10
55.84375
 20
547.7880859375
 30
0.0
 10
55.8076171875
 20
545.08056640625
 30
0.0
  0
ENDBLK
  5
27A
330
277
100
AcDbEntity
  8
0
100
AcDbBlockEnd
  0
BLOCK
  5
27E
330
27C
100
AcDbEntity
  8
0
100
AcDbBlockBegin
  2
block 92
 70
     0
 71
     0
 10
0.0
 20
0.0
 30
0.0
  3
block 92
  1

  0
SPLINE
  5
280
330
27C
100
AcDbEntity
  8
COTAS
 62
     7
370
     5
100
AcDbSpline
210
0.0
220
0.0
230
1.0
 70
     8
 71
     3
 72
     8
 73
     4
 74
     0
 42
0.0000000001
 43
0.0000000001
 40
0.0
 40
0.0
 40
0.0
 40
0.0
 40
1.0
 40
1.0
 40
1.0
 40
1.0
 10
51.0302734375
 20
550.73095703125
 30
0.0
 10
53.87646484375
 20
550.45703125
 30
0.0
 10
56.1337890625
 20
547.93896484375
 30
0.0
 10
56.0966796875
 20
545.08056640625
 30
0.0
  0
ENDBLK
  5
27F
330
27C
100
AcDbEntity
  8
0
100
AcDbBlockEnd
  0
BLOCK
  5
283
330
281
100
AcDbEntity
  8
0
100
AcDbBlockBegin
  2
block 93
 70
     0
 71
     0
 10
0.0
 20
0.0
 30
0.0
  3
block 93
  1

  0
POLYLINE
  5
285
330
281
100
AcDbEntity
  8
COTAS
 62
     7
370
     5
100
AcDb2dPolyline
 66
     1
 10
0.0
 20
0.0
 30
0.0
  0
VERTEX
  5
286
330
285
100
AcDbEntity
  8
COTAS
 62
     7
370
     5
100
AcDbVertex
100
AcDb2dVertex
 10
51.0107421875
 20
550.4423828125
 30
0.0
  0
VERTEX
  5
287
330
285
100
AcDbEntity
  8
COTAS
 62
     7
370
     5
100
AcDbVertex
100
AcDb2dVertex
 10
35.96875
 20
550.7646484375
 30
0.0
  0
SEQEND
  5
288
330
285
100
AcDbEntity
  8
COTAS
370
     5
  0
ENDBLK
  5
284
330
281
100
AcDbEntity
  8
0
100
AcDbBlockEnd
  0
BLOCK
  5
28B
330
289
100
AcDbEntity
  8
0
100
AcDbBlockBegin
  2
block 94
 70
     0
 71
     0
 10
0.0
 20
0.0
 30
0.0
  3
block 94
  1

  0
POLYLINE
  5
28D
330
289
100
AcDbEntity
  8
COTAS
 62
     7
370
     5
100
AcDb2dPolyline
 66
     1
 10
0.0
 20
0.0
 30
0.0
  0
VERTEX
  5
28E
330
28D
100
AcDbEntity
  8
COTAS
 62
     7
370
     5
100
AcDbVertex
100
AcDb2dVertex
 10
51.0302734375
 20
550.73095703125
 30
0.0
  0
VERTEX
  5
28F
330
28D
100
AcDbEntity
  8
COTAS
 62
     7
370
     5
100
AcDbVertex
100
AcDb2dVertex
 10
35.96875
 20
551.0537109375
 30
0.0
  0
SEQEND
  5
290
330
28D
100
AcDbEntity
  8
COTAS
370
     5
  0
ENDBLK
  5
28C
330
289
100
AcDbEntity
  8
0
100
AcDbBlockEnd
  0
BLOCK
  5
293
330
291
100
AcDbEntity
  8
0
100
AcDbBlockBegin
  2
block 95
 70
     0
 71
     0
 10
0.0
 20
0.0
 30
0.0
  3
block 95
  1

  0
POLYLINE
  5
295
330
291
100
AcDbEntity
  8
COTAS
  6
AI-Linetype-1
 62
     7
370
     5
100
AcDb2dPolyline
 66
     1
 10
0.0
 20
0.0
 30
0.0
  0
VERTEX
  5
296
330
295
100
AcDbEntity
  8
COTAS
  6
AI-Linetype-1
 62
     7
370
     5
100
AcDbVertex
100
AcDb2dVertex
 10
53.21875
 20
537.5654296875
 30
0.0
  0
VERTEX
  5
297
330
295
100
AcDbEntity
  8
COTAS
  6
AI-Linetype-1
 62
     7
370
     5
100
AcDbVertex
100
AcDb2dVertex
 10
59.453125
 20
537.5654296875
 30
0.0
  0
SEQEND
  5
298
330
295
100
AcDbEntity
  8
COTAS
  6
AI-Linetype-1
370
     5
  0
ENDBLK
  5
294
330
291
100
AcDbEntity
  8
0
100
AcDbBlockEnd
  0
BLOCK
  5
29C
330
29A
100
AcDbEntity
  8
0
100
AcDbBlockBegin
  2
block 96
 70
     0
 71
     0
 10
0.0
 20
0.0
 30
0.0
  3
block 96
  1

  0
POLYLINE
  5
29E
330
29A
100
AcDbEntity
  8
COTAS
 62
     7
370
     5
100
AcDb2dPolyline
 66
     1
 10
0.0
 20
0.0
 30
0.0
  0
VERTEX
  5
29F
330
29E
100
AcDbEntity
  8
COTAS
 62
     7
370
     5
100
AcDbVertex
100
AcDb2dVertex
 10
303.61962890625
 20
545.658203125
 30
0.0
  0
VERTEX
  5
2A0
330
29E
100
AcDbEntity
  8
COTAS
 62
     7
370
     5
100
AcDbVertex
100
AcDb2dVertex
 10
302.2705078125
 20
545.658203125
 30
0.0
  0
SEQEND
  5
2A1
330
29E
100
AcDbEntity
  8
COTAS
370
     5
  0
ENDBLK
  5
29D
330
29A
100
AcDbEntity
  8
0
100
AcDbBlockEnd
  0
BLOCK
  5
2A4
330
2A2
100
AcDbEntity
  8
0
100
AcDbBlockBegin
  2
block 97
 70
     0
 71
     0
 10
0.0
 20
0.0
 30
0.0
  3
block 97
  1

  0
POLYLINE
  5
2A6
330
2A2
100
AcDbEntity
  8
COTAS
 62
     7
370
     5
100
AcDb2dPolyline
 66
     1
 10
0.0
 20
0.0
 30
0.0
  0
VERTEX
  5
2A7
330
2A6
100
AcDbEntity
  8
COTAS
 62
     7
370
     5
100
AcDbVertex
100
AcDb2dVertex
 10
303.61962890625
 20
545.947265625
 30
0.0
  0
VERTEX
  5
2A8
330
2A6
100
AcDbEntity
  8
COTAS
 62
     7
370
     5
100
AcDbVertex
100
AcDb2dVertex
 10
302.2705078125
 20
545.947265625
 30
0.0
  0
SEQEND
  5
2A9
330
2A6
100
AcDbEntity
  8
COTAS
370
     5
  0
ENDBLK
  5
2A5
330
2A2
100
AcDbEntity
  8
0
100
AcDbBlockEnd
  0
BLOCK
  5
2AC
330
2AA
100
AcDbEntity
  8
0
100
AcDbBlockBegin
  2
block 98
 70
     0
 71
     0
 10
0.0
 20
0.0
 30
0.0
  3
block 98
  1

  0
POLYLINE
  5
2AE
330
2AA
100
AcDbEntity
  8
COTAS
 62
     7
370
     5
100
AcDb2dPolyline
 66
     1
 10
0.0
 20
0.0
 30
0.0
  0
VERTEX
  5
2AF
330
2AE
100
AcDbEntity
  8
COTAS
 62
     7
370
     5
100
AcDbVertex
100
AcDb2dVertex
 10
302.2705078125
 20
545.658203125
 30
0.0
  0
VERTEX
  5
2B0
330
2AE
100
AcDbEntity
  8
COTAS
 62
     7
370
     5
100
AcDbVertex
100
AcDb2dVertex
 10
302.2705078125
 20
545.947265625
 30
0.0
  0
SEQEND
  5
2B1
330
2AE
100
AcDbEntity
  8
COTAS
370
     5
  0
ENDBLK
  5
2AD
330
2AA
100
AcDbEntity
  8
0
100
AcDbBlockEnd
  0
BLOCK
  5
2B4
330
2B2
100
AcDbEntity
  8
0
100
AcDbBlockBegin
  2
block 99
 70
     0
 71
     0
 10
0.0
 20
0.0
 30
0.0
  3
block 99
  1

  0
POLYLINE
  5
2B6
330
2B2
100
AcDbEntity
  8
COTAS
 62
     7
370
     5
100
AcDb2dPolyline
 66
     1
 10
0.0
 20
0.0
 30
0.0
  0
VERTEX
  5
2B7
330
2B6
100
AcDbEntity
  8
COTAS
 62
     7
370
     5
100
AcDbVertex
100
AcDb2dVertex
 10
304.0048828125
 20
546.3330078125
 30
0.0
  0
VERTEX
  5
2B8
330
2B6
100
AcDbEntity
  8
COTAS
 62
     7
370
     5
100
AcDbVertex
100
AcDb2dVertex
 10
304.0048828125
 20
549.60888671875
 30
0.0
  0
SEQEND
  5
2B9
330
2B6
100
AcDbEntity
  8
COTAS
370
     5
  0
ENDBLK
  5
2B5
330
2B2
100
AcDbEntity
  8
0
100
AcDbBlockEnd
  0
BLOCK
  5
2BC
330
2BA
100
AcDbEntity
  8
0
100
AcDbBlockBegin
  2
block 100
 70
     0
 71
     0
 10
0.0
 20
0.0
 30
0.0
  3
block 100
  1

  0
SPLINE
  5
2BE
330
2BA
100
AcDbEntity
  8
COTAS
 62
     7
370
     5
100
AcDbSpline
210
0.0
220
0.0
230
1.0
 70
     8
 71
     3
 72
    11
 73
     7
 74
     0
 42
0.0000000001
 43
0.0000000001
 40
0.0
 40
0.0
 40
0.0
 40
0.0
 40
1.0
 40
1.0
 40
1.0
 40
2.0
 40
2.0
 40
2.0
 40
2.0
 10
302.8486328125
 20
550.7646484375
 30
0.0
 10
302.8486328125
 20
550.7646484375
 30
0.0
 10
302.8486328125
 20
550.7646484375
 30
0.0
 10
302.8486328125
 20
550.7646484375
 30
0.0
 10
303.4873046875
 20
550.7646484375
 30
0.0
 10
304.0048828125
 20
550.2470703125
 30
0.0
 10
304.0048828125
 20
549.60888671875
 30
0.0
  0
ENDBLK
  5
2BD
330
2BA
100
AcDbEntity
  8
0
100
AcDbBlockEnd
  0
BLOCK
  5
2C1
330
2BF
100
AcDbEntity
  8
0
100
AcDbBlockBegin
  2
block 101
 70
     0
 71
     0
 10
0.0
 20
0.0
 30
0.0
  3
block 101
  1

  0
SPLINE
  5
2C3
330
2BF
100
AcDbEntity
  8
COTAS
 62
     7
370
     5
100
AcDbSpline
210
0.0
220
0.0
230
1.0
 70
     8
 71
     3
 72
    11
 73
     7
 74
     0
 42
0.0000000001
 43
0.0000000001
 40
0.0
 40
0.0
 40
0.0
 40
0.0
 40
1.0
 40
1.0
 40
1.0
 40
2.0
 40
2.0
 40
2.0
 40
2.0
 10
302.8486328125
 20
551.0537109375
 30
0.0
 10
302.8486328125
 20
551.0537109375
 30
0.0
 10
302.8486328125
 20
551.0537109375
 30
0.0
 10
302.8486328125
 20
551.0537109375
 30
0.0
 10
303.64697265625
 20
551.0537109375
 30
0.0
 10
304.2939453125
 20
550.40673828125
 30
0.0
 10
304.2939453125
 20
549.60888671875
 30
0.0
  0
ENDBLK
  5
2C2
330
2BF
100
AcDbEntity
  8
0
100
AcDbBlockEnd
  0
BLOCK
  5
2C6
330
2C4
100
AcDbEntity
  8
0
100
AcDbBlockBegin
  2
block 102
 70
     0
 71
     0
 10
0.0
 20
0.0
 30
0.0
  3
block 102
  1

  0
SPLINE
  5
2C8
330
2C4
100
AcDbEntity
  8
COTAS
 62
     7
370
     5
100
AcDbSpline
210
0.0
220
0.0
230
1.0
 70
     8
 71
     3
 72
    11
 73
     7
 74
     0
 42
0.0000000001
 43
0.0000000001
 40
0.0
 40
0.0
 40
0.0
 40
0.0
 40
1.0
 40
1.0
 40
1.0
 40
2.0
 40
2.0
 40
2.0
 40
2.0
 10
304.0048828125
 20
546.3330078125
 30
0.0
 10
304.0048828125
 20
546.3330078125
 30
0.0
 10
304.0048828125
 20
546.3330078125
 30
0.0
 10
304.0048828125
 20
546.3330078125
 30
0.0
 10
304.0048828125
 20
546.1201171875
 30
0.0
 10
303.83251953125
 20
545.947265625
 30
0.0
 10
303.61962890625
 20
545.947265625
 30
0.0
  0
ENDBLK
  5
2C7
330
2C4
100
AcDbEntity
  8
0
100
AcDbBlockEnd
  0
BLOCK
  5
2CB
330
2C9
100
AcDbEntity
  8
0
100
AcDbBlockBegin
  2
block 103
 70
     0
 71
     0
 10
0.0
 20
0.0
 30
0.0
  3
block 103
  1

  0
SPLINE
  5
2CD
330
2C9
100
AcDbEntity
  8
COTAS
 62
     7
370
     5
100
AcDbSpline
210
0.0
220
0.0
230
1.0
 70
     8
 71
     3
 72
    11
 73
     7
 74
     0
 42
0.0000000001
 43
0.0000000001
 40
0.0
 40
0.0
 40
0.0
 40
0.0
 40
1.0
 40
1.0
 40
1.0
 40
2.0
 40
2.0
 40
2.0
 40
2.0
 10
304.2939453125
 20
546.3330078125
 30
0.0
 10
304.2939453125
 20
546.3330078125
 30
0.0
 10
304.2939453125
 20
546.3330078125
 30
0.0
 10
304.2939453125
 20
546.3330078125
 30
0.0
 10
304.2939453125
 20
545.96044921875
 30
0.0
 10
303.9921875
 20
545.658203125
 30
0.0
 10
303.61962890625
 20
545.658203125
 30
0.0
  0
ENDBLK
  5
2CC
330
2C9
100
AcDbEntity
  8
0
100
AcDbBlockEnd
  0
BLOCK
  5
2D0
330
2CE
100
AcDbEntity
  8
0
100
AcDbBlockBegin
  2
block 104
 70
     0
 71
     0
 10
0.0
 20
0.0
 30
0.0
  3
block 104
  1

  0
POLYLINE
  5
2D2
330
2CE
100
AcDbEntity
  8
COTAS
 62
     7
370
     5
100
AcDb2dPolyline
 66
     1
 10
0.0
 20
0.0
 30
0.0
  0
VERTEX
  5
2D3
330
2D2
100
AcDbEntity
  8
COTAS
 62
     7
370
     5
100
AcDbVertex
100
AcDb2dVertex
 10
304.2939453125
 20
546.3330078125
 30
0.0
  0
VERTEX
  5
2D4
330
2D2
100
AcDbEntity
  8
COTAS
 62
     7
370
     5
100
AcDbVertex
100
AcDb2dVertex
 10
304.2939453125
 20
549.60888671875
 30
0.0
  0
SEQEND
  5
2D5
330
2D2
100
AcDbEntity
  8
COTAS
370
     5
  0
ENDBLK
  5
2D1
330
2CE
100
AcDbEntity
  8
0
100
AcDbBlockEnd
  0
BLOCK
  5
2D8
330
2D6
100
AcDbEntity
  8
0
100
AcDbBlockBegin
  2
block 105
 70
     0
 71
     0
 10
0.0
 20
0.0
 30
0.0
  3
block 105
  1

  0
POLYLINE
  5
2DA
330
2D6
100
AcDbEntity
  8
COTAS
 62
     7
370
     5
100
AcDb2dPolyline
 66
     1
 10
0.0
 20
0.0
 30
0.0
  0
VERTEX
  5
2DB
330
2DA
100
AcDbEntity
  8
COTAS
 62
     7
370
     5
100
AcDbVertex
100
AcDb2dVertex
 10
299.11669921875
 20
550.68505859375
 30
0.0
  0
VERTEX
  5
2DC
330
2DA
100
AcDbEntity
  8
COTAS
 62
     7
370
     5
100
AcDbVertex
100
AcDb2dVertex
 10
302.8486328125
 20
550.7646484375
 30
0.0
  0
SEQEND
  5
2DD
330
2DA
100
AcDbEntity
  8
COTAS
370
     5
  0
ENDBLK
  5
2D9
330
2D6
100
AcDbEntity
  8
0
100
AcDbBlockEnd
  0
BLOCK
  5
2E0
330
2DE
100
AcDbEntity
  8
0
100
AcDbBlockBegin
  2
block 106
 70
     0
 71
     0
 10
0.0
 20
0.0
 30
0.0
  3
block 106
  1

  0
POLYLINE
  5
2E2
330
2DE
100
AcDbEntity
  8
COTAS
 62
     7
370
     5
100
AcDb2dPolyline
 66
     1
 10
0.0
 20
0.0
 30
0.0
  0
VERTEX
  5
2E3
330
2E2
100
AcDbEntity
  8
COTAS
 62
     7
370
     5
100
AcDbVertex
100
AcDb2dVertex
 10
299.0712890625
 20
550.97265625
 30
0.0
  0
VERTEX
  5
2E4
330
2E2
100
AcDbEntity
  8
COTAS
 62
     7
370
     5
100
AcDbVertex
100
AcDb2dVertex
 10
302.8486328125
 20
551.0537109375
 30
0.0
  0
SEQEND
  5
2E5
330
2E2
100
AcDbEntity
  8
COTAS
370
     5
  0
ENDBLK
  5
2E1
330
2DE
100
AcDbEntity
  8
0
100
AcDbBlockEnd
  0
BLOCK
  5
2E8
330
2E6
100
AcDbEntity
  8
0
100
AcDbBlockBegin
  2
block 107
 70
     0
 71
     0
 10
0.0
 20
0.0
 30
0.0
  3
block 107
  1

  0
POLYLINE
  5
2EA
330
2E6
100
AcDbEntity
  8
COTAS
 62
     7
370
     5
100
AcDb2dPolyline
 66
     1
 10
0.0
 20
0.0
 30
0.0
  0
VERTEX
  5
2EB
330
2EA
100
AcDbEntity
  8
COTAS
 62
     7
370
     5
100
AcDbVertex
100
AcDb2dVertex
 10
302.8486328125
 20
551.0537109375
 30
0.0
  0
VERTEX
  5
2EC
330
2EA
100
AcDbEntity
  8
COTAS
 62
     7
370
     5
100
AcDbVertex
100
AcDb2dVertex
 10
169.40869140625
 20
551.0537109375
 30
0.0
  0
SEQEND
  5
2ED
330
2EA
100
AcDbEntity
  8
COTAS
370
     5
  0
ENDBLK
  5
2E9
330
2E6
100
AcDbEntity
  8
0
100
AcDbBlockEnd
  0
BLOCK
  5
2F0
330
2EE
100
AcDbEntity
  8
0
100
AcDbBlockBegin
  2
block 108
 70
     0
 71
     0
 10
0.0
 20
0.0
 30
0.0
  3
block 108
  1

  0
POLYLINE
  5
2F2
330
2EE
100
AcDbEntity
  8
COTAS
 62
     7
370
     5
100
AcDb2dPolyline
 66
     1
 10
0.0
 20
0.0
 30
0.0
  0
VERTEX
  5
2F3
330
2F2
100
AcDbEntity
  8
COTAS
 62
     7
370
     5
100
AcDbVertex
100
AcDb2dVertex
 10
169.40869140625
 20
551.0537109375
 30
0.0
  0
VERTEX
  5
2F4
330
2F2
100
AcDbEntity
  8
COTAS
 62
     7
370
     5
100
AcDbVertex
100
AcDb2dVertex
 10
35.96875
 20
551.0537109375
 30
0.0
  0
SEQEND
  5
2F5
330
2F2
100
AcDbEntity
  8
COTAS
370
     5
  0
ENDBLK
  5
2F1
330
2EE
100
AcDbEntity
  8
0
100
AcDbBlockEnd
  0
BLOCK
  5
2F8
330
2F6
100
AcDbEntity
  8
0
100
AcDbBlockBegin
  2
block 109
 70
     0
 71
     0
 10
0.0
 20
0.0
 30
0.0
  3
block 109
  1

  0
SPLINE
  5
2FA
330
2F6
100
AcDbEntity
  8
COTAS
 62
     7
370
     5
100
AcDbSpline
210
0.0
220
0.0
230
1.0
 70
     8
 71
     3
 72
     8
 73
     4
 74
     0
 42
0.0000000001
 43
0.0000000001
 40
0.0
 40
0.0
 40
0.0
 40
0.0
 40
1.0
 40
1.0
 40
1.0
 40
1.0
 10
259.12646484375
 20
490.45458984375
 30
0.0
 10
254.525390625
 20
482.5703125
 30
0.0
 10
243.27197265625
 20
475.67822265625
 30
0.0
 10
234.158203125
 20
475.1640625
 30
0.0
  0
ENDBLK
  5
2F9
330
2F6
100
AcDbEntity
  8
0
100
AcDbBlockEnd
  0
BLOCK
  5
2FD
330
2FB
100
AcDbEntity
  8
0
100
AcDbBlockBegin
  2
block 110
 70
     0
 71
     0
 10
0.0
 20
0.0
 30
0.0
  3
block 110
  1

  0
SPLINE
  5
2FF
330
2FB
100
AcDbEntity
  8
COTAS
 62
     7
370
     5
100
AcDbSpline
210
0.0
220
0.0
230
1.0
 70
     8
 71
     3
 72
     8
 73
     4
 74
     0
 42
0.0000000001
 43
0.0000000001
 40
0.0
 40
0.0
 40
0.0
 40
0.0
 40
1.0
 40
1.0
 40
1.0
 40
1.0
 10
259.3671875
 20
490.294921875
 30
0.0
 10
254.72509765625
 20
482.33984375
 30
0.0
 10
243.37158203125
 20
475.390625
 30
0.0
 10
234.17578125
 20
474.875
 30
0.0
  0
ENDBLK
  5
2FE
330
2FB
100
AcDbEntity
  8
0
100
AcDbBlockEnd
  0
BLOCK
  5
302
330
300
100
AcDbEntity
  8
0
100
AcDbBlockBegin
  2
block 111
 70
     0
 71
     0
 10
0.0
 20
0.0
 30
0.0
  3
block 111
  1

  0
SPLINE
  5
304
330
300
100
AcDbEntity
  8
COTAS
 62
     7
370
     5
100
AcDbSpline
210
0.0
220
0.0
230
1.0
 70
     8
 71
     3
 72
     8
 73
     4
 74
     0
 42
0.0000000001
 43
0.0000000001
 40
0.0
 40
0.0
 40
0.0
 40
0.0
 40
1.0
 40
1.0
 40
1.0
 40
1.0
 10
289.17822265625
 20
544.1279296875
 30
0.0
 10
290.6728515625
 20
547.857421875
 30
0.0
 10
295.099609375
 20
550.7783203125
 30
0.0
 10
299.11669921875
 20
550.68505859375
 30
0.0
  0
ENDBLK
  5
303
330
300
100
AcDbEntity
  8
0
100
AcDbBlockEnd
  0
BLOCK
  5
307
330
305
100
AcDbEntity
  8
0
100
AcDbBlockBegin
  2
block 112
 70
     0
 71
     0
 10
0.0
 20
0.0
 30
0.0
  3
block 112
  1

  0
SPLINE
  5
309
330
305
100
AcDbEntity
  8
COTAS
 62
     7
370
     5
100
AcDbSpline
210
0.0
220
0.0
230
1.0
 70
     8
 71
     3
 72
     8
 73
     4
 74
     0
 42
0.0000000001
 43
0.0000000001
 40
0.0
 40
0.0
 40
0.0
 40
0.0
 40
1.0
 40
1.0
 40
1.0
 40
1.0
 10
288.9150390625
 20
544.2470703125
 30
0.0
 10
290.44140625
 20
548.0595703125
 30
0.0
 10
294.96630859375
 20
551.0556640625
 30
0.0
 10
299.0712890625
 20
550.97265625
 30
0.0
  0
ENDBLK
  5
308
330
305
100
AcDbEntity
  8
0
100
AcDbBlockEnd
  0
BLOCK
  5
30C
330
30A
100
AcDbEntity
  8
0
100
AcDbBlockBegin
  2
block 113
 70
     0
 71
     0
 10
0.0
 20
0.0
 30
0.0
  3
block 113
  1

  0
SPLINE
  5
30E
330
30A
100
AcDbEntity
  8
COTAS
 62
     7
370
     5
100
AcDbSpline
210
0.0
220
0.0
230
1.0
 70
     8
 71
     3
 72
     8
 73
     4
 74
     0
 42
0.0000000001
 43
0.0000000001
 40
0.0
 40
0.0
 40
0.0
 40
0.0
 40
1.0
 40
1.0
 40
1.0
 40
1.0
 10
288.9150390625
 20
544.2470703125
 30
0.0
 10
282.7138671875
 20
529.6689453125
 30
0.0
 10
268.19287109375
 20
503.44580078125
 30
0.0
 10
259.12646484375
 20
490.45458984375
 30
0.0
  0
ENDBLK
  5
30D
330
30A
100
AcDbEntity
  8
0
100
AcDbBlockEnd
  0
BLOCK
  5
311
330
30F
100
AcDbEntity
  8
0
100
AcDbBlockBegin
  2
block 114
 70
     0
 71
     0
 10
0.0
 20
0.0
 30
0.0
  3
block 114
  1

  0
SPLINE
  5
313
330
30F
100
AcDbEntity
  8
COTAS
 62
     7
370
     5
100
AcDbSpline
210
0.0
220
0.0
230
1.0
 70
     8
 71
     3
 72
     8
 73
     4
 74
     0
 42
0.0000000001
 43
0.0000000001
 40
0.0
 40
0.0
 40
0.0
 40
0.0
 40
1.0
 40
1.0
 40
1.0
 40
1.0
 10
289.17822265625
 20
544.1279296875
 30
0.0
 10
282.97265625
 20
529.53857421875
 30
0.0
 10
268.4404296875
 20
503.29638671875
 30
0.0
 10
259.3671875
 20
490.294921875
 30
0.0
  0
ENDBLK
  5
312
330
30F
100
AcDbEntity
  8
0
100
AcDbBlockEnd
  0
BLOCK
  5
316
330
314
100
AcDbEntity
  8
0
100
AcDbBlockBegin
  2
block 115
 70
     0
 71
     0
 10
0.0
 20
0.0
 30
0.0
  3
block 115
  1

  0
SPLINE
  5
318
330
314
100
AcDbEntity
  8
COTAS
 62
     7
370
     5
100
AcDbSpline
210
0.0
220
0.0
230
1.0
 70
     8
 71
     3
 72
     8
 73
     4
 74
     0
 42
0.0000000001
 43
0.0000000001
 40
0.0
 40
0.0
 40
0.0
 40
0.0
 40
1.0
 40
1.0
 40
1.0
 40
1.0
 10
59.212890625
 20
494.93798828125
 30
0.0
 10
57.72509765625
 20
505.732421875
 30
0.0
 10
56.3740234375
 20
526.66845703125
 30
0.0
 10
56.46240234375
 20
537.5654296875
 30
0.0
  0
ENDBLK
  5
317
330
314
100
AcDbEntity
  8
0
100
AcDbBlockEnd
  0
BLOCK
  5
31B
330
319
100
AcDbEntity
  8
0
100
AcDbBlockBegin
  2
block 116
 70
     0
 71
     0
 10
0.0
 20
0.0
 30
0.0
  3
block 116
  1

  0
SPLINE
  5
31D
330
319
100
AcDbEntity
  8
COTAS
 62
     7
370
     5
100
AcDbSpline
210
0.0
220
0.0
230
1.0
 70
     8
 71
     3
 72
     8
 73
     4
 74
     0
 42
0.0000000001
 43
0.0000000001
 40
0.0
 40
0.0
 40
0.0
 40
0.0
 40
1.0
 40
1.0
 40
1.0
 40
1.0
 10
58.92626953125
 20
494.9033203125
 30
0.0
 10
57.43701171875
 20
505.7060546875
 30
0.0
 10
56.0849609375
 20
526.65771484375
 30
0.0
 10
56.17333984375
 20
537.5625
 30
0.0
  0
ENDBLK
  5
31C
330
319
100
AcDbEntity
  8
0
100
AcDbBlockEnd
  0
BLOCK
  5
320
330
31E
100
AcDbEntity
  8
0
100
AcDbBlockBegin
  2
block 117
 70
     0
 71
     0
 10
0.0
 20
0.0
 30
0.0
  3
block 117
  1

  0
SPLINE
  5
322
330
31E
100
AcDbEntity
  8
COTAS
 62
     7
370
     5
100
AcDbSpline
210
0.0
220
0.0
230
1.0
 70
     8
 71
     3
 72
     8
 73
     4
 74
     0
 42
0.0000000001
 43
0.0000000001
 40
0.0
 40
0.0
 40
0.0
 40
0.0
 40
1.0
 40
1.0
 40
1.0
 40
1.0
 10
85.2548828125
 20
472.6220703125
 30
0.0
 10
72.1298828125
 20
471.896484375
 30
0.0
 10
60.38134765625
 20
481.8388671875
 30
0.0
 10
58.92626953125
 20
494.9033203125
 30
0.0
  0
ENDBLK
  5
321
330
31E
100
AcDbEntity
  8
0
100
AcDbBlockEnd
  0
BLOCK
  5
325
330
323
100
AcDbEntity
  8
0
100
AcDbBlockBegin
  2
block 118
 70
     0
 71
     0
 10
0.0
 20
0.0
 30
0.0
  3
block 118
  1

  0
SPLINE
  5
327
330
323
100
AcDbEntity
  8
COTAS
 62
     7
370
     5
100
AcDbSpline
210
0.0
220
0.0
230
1.0
 70
     8
 71
     3
 72
     8
 73
     4
 74
     0
 42
0.0000000001
 43
0.0000000001
 40
0.0
 40
0.0
 40
0.0
 40
0.0
 40
1.0
 40
1.0
 40
1.0
 40
1.0
 10
85.25341796875
 20
472.91162109375
 30
0.0
 10
72.2734375
 20
472.18896484375
 30
0.0
 10
60.6533203125
 20
482.01708984375
 30
0.0
 10
59.212890625
 20
494.93798828125
 30
0.0
  0
ENDBLK
  5
326
330
323
100
AcDbEntity
  8
0
100
AcDbBlockEnd
  0
BLOCK
  5
32A
330
328
100
AcDbEntity
  8
0
100
AcDbBlockBegin
  2
block 119
 70
     0
 71
     0
 10
0.0
 20
0.0
 30
0.0
  3
block 119
  1

  0
POLYLINE
  5
32C
330
328
100
AcDbEntity
  8
COTAS
 62
     7
370
     5
100
AcDb2dPolyline
 66
     1
 10
0.0
 20
0.0
 30
0.0
  0
VERTEX
  5
32D
330
32C
100
AcDbEntity
  8
COTAS
 62
     7
370
     5
100
AcDbVertex
100
AcDb2dVertex
 10
56.46240234375
 20
537.5654296875
 30
0.0
  0
VERTEX
  5
32E
330
32C
100
AcDbEntity
  8
COTAS
 62
     7
370
     5
100
AcDbVertex
100
AcDb2dVertex
 10
56.0966796875
 20
545.08056640625
 30
0.0
  0
SEQEND
  5
32F
330
32C
100
AcDbEntity
  8
COTAS
370
     5
  0
ENDBLK
  5
32B
330
328
100
AcDbEntity
  8
0
100
AcDbBlockEnd
  0
BLOCK
  5
332
330
330
100
AcDbEntity
  8
0
100
AcDbBlockBegin
  2
block 120
 70
     0
 71
     0
 10
0.0
 20
0.0
 30
0.0
  3
block 120
  1

  0
POLYLINE
  5
334
330
330
100
AcDbEntity
  8
COTAS
 62
     7
370
     5
100
AcDb2dPolyline
 66
     1
 10
0.0
 20
0.0
 30
0.0
  0
VERTEX
  5
335
330
334
100
AcDbEntity
  8
COTAS
 62
     7
370
     5
100
AcDbVertex
100
AcDb2dVertex
 10
56.17333984375
 20
537.55078125
 30
0.0
  0
VERTEX
  5
336
330
334
100
AcDbEntity
  8
COTAS
 62
     7
370
     5
100
AcDbVertex
100
AcDb2dVertex
 10
55.8076171875
 20
545.06591796875
 30
0.0
  0
SEQEND
  5
337
330
334
100
AcDbEntity
  8
COTAS
370
     5
  0
ENDBLK
  5
333
330
330
100
AcDbEntity
  8
0
100
AcDbBlockEnd
  0
BLOCK
  5
33A
330
338
100
AcDbEntity
  8
0
100
AcDbBlockBegin
  2
block 121
 70
     0
 71
     0
 10
0.0
 20
0.0
 30
0.0
  3
block 121
  1

  0
POLYLINE
  5
33C
330
338
100
AcDbEntity
  8
COTAS
 62
     7
370
     5
100
AcDb2dPolyline
 66
     1
 10
0.0
 20
0.0
 30
0.0
  0
VERTEX
  5
33D
330
33C
100
AcDbEntity
  8
COTAS
 62
     7
370
     5
100
AcDbVertex
100
AcDb2dVertex
 10
89.24853515625
 20
471.0859375
 30
0.0
  0
VERTEX
  5
33E
330
33C
100
AcDbEntity
  8
COTAS
 62
     7
370
     5
100
AcDbVertex
100
AcDb2dVertex
 10
89.24072265625
 20
471.0859375
 30
0.0
  0
SEQEND
  5
33F
330
33C
100
AcDbEntity
  8
COTAS
370
     5
  0
ENDBLK
  5
33B
330
338
100
AcDbEntity
  8
0
100
AcDbBlockEnd
  0
BLOCK
  5
342
330
340
100
AcDbEntity
  8
0
100
AcDbBlockBegin
  2
block 122
 70
     0
 71
     0
 10
0.0
 20
0.0
 30
0.0
  3
block 122
  1

  0
SPLINE
  5
344
330
340
100
AcDbEntity
  8
COTAS
 62
     7
370
     5
100
AcDbSpline
210
0.0
220
0.0
230
1.0
 70
     8
 71
     3
 72
     8
 73
     4
 74
     0
 42
0.0000000001
 43
0.0000000001
 40
0.0
 40
0.0
 40
0.0
 40
0.0
 40
1.0
 40
1.0
 40
1.0
 40
1.0
 10
85.25341796875
 20
472.91162109375
 30
0.0
 10
86.28955078125
 20
472.9384765625
 30
0.0
 10
87.7294921875
 20
472.31689453125
 30
0.0
 10
88.419921875
 20
471.54443359375
 30
0.0
  0
ENDBLK
  5
343
330
340
100
AcDbEntity
  8
0
100
AcDbBlockEnd
  0
BLOCK
  5
347
330
345
100
AcDbEntity
  8
0
100
AcDbBlockBegin
  2
block 123
 70
     0
 71
     0
 10
0.0
 20
0.0
 30
0.0
  3
block 123
  1

  0
SPLINE
  5
349
330
345
100
AcDbEntity
  8
COTAS
 62
     7
370
     5
100
AcDbSpline
210
0.0
220
0.0
230
1.0
 70
     8
 71
     3
 72
     8
 73
     4
 74
     0
 42
0.0000000001
 43
0.0000000001
 40
0.0
 40
0.0
 40
0.0
 40
0.0
 40
1.0
 40
1.0
 40
1.0
 40
1.0
 10
85.244140625
 20
472.62255859375
 30
0.0
 10
86.21630859375
 20
472.64794921875
 30
0.0
 10
87.568359375
 20
472.064453125
 30
0.0
 10
88.21630859375
 20
471.33935546875
 30
0.0
  0
ENDBLK
  5
348
330
345
100
AcDbEntity
  8
0
100
AcDbBlockEnd
  0
BLOCK
  5
34C
330
34A
100
AcDbEntity
  8
0
100
AcDbBlockBegin
  2
block 124
 70
     0
 71
     0
 10
0.0
 20
0.0
 30
0.0
  3
block 124
  1

  0
SPLINE
  5
34E
330
34A
100
AcDbEntity
  8
COTAS
 62
     7
370
     5
100
AcDbSpline
210
0.0
220
0.0
230
1.0
 70
     8
 71
     3
 72
     8
 73
     4
 74
     0
 42
0.0000000001
 43
0.0000000001
 40
0.0
 40
0.0
 40
0.0
 40
0.0
 40
1.0
 40
1.0
 40
1.0
 40
1.0
 10
89.24072265625
 20
471.0859375
 30
0.0
 10
88.93408203125
 20
471.0703125
 30
0.0
 10
88.5673828125
 20
471.275390625
 30
0.0
 10
88.419921875
 20
471.54443359375
 30
0.0
  0
ENDBLK
  5
34D
330
34A
100
AcDbEntity
  8
0
100
AcDbBlockEnd
  0
BLOCK
  5
351
330
34F
100
AcDbEntity
  8
0
100
AcDbBlockBegin
  2
block 125
 70
     0
 71
     0
 10
0.0
 20
0.0
 30
0.0
  3
block 125
  1

  0
SPLINE
  5
353
330
34F
100
AcDbEntity
  8
COTAS
 62
     7
370
     5
100
AcDbSpline
210
0.0
220
0.0
230
1.0
 70
     8
 71
     3
 72
     8
 73
     4
 74
     0
 42
0.0000000001
 43
0.0000000001
 40
0.0
 40
0.0
 40
0.0
 40
0.0
 40
1.0
 40
1.0
 40
1.0
 40
1.0
 10
89.24072265625
 20
470.796875
 30
0.0
 10
88.84228515625
 20
470.7763671875
 30
0.0
 10
88.365234375
 20
471.04296875
 30
0.0
 10
88.17431640625
 20
471.392578125
 30
0.0
  0
ENDBLK
  5
352
330
34F
100
AcDbEntity
  8
0
100
AcDbBlockEnd
  0
BLOCK
  5
356
330
354
100
AcDbEntity
  8
0
100
AcDbBlockBegin
  2
block 126
 70
     0
 71
     0
 10
0.0
 20
0.0
 30
0.0
  3
block 126
  1

  0
SPLINE
  5
358
330
354
100
AcDbEntity
  8
COTAS
 62
     7
370
     5
100
AcDbSpline
210
0.0
220
0.0
230
1.0
 70
     8
 71
     3
 72
     8
 73
     4
 74
     0
 42
0.0000000001
 43
0.0000000001
 40
0.0
 40
0.0
 40
0.0
 40
0.0
 40
1.0
 40
1.0
 40
1.0
 40
1.0
 10
100.09716796875
 20
471.54443359375
 30
0.0
 10
100.8466796875
 20
472.310546875
 30
0.0
 10
102.39892578125
 20
473.02490234375
 30
0.0
 10
103.46923828125
 20
473.09521484375
 30
0.0
  0
ENDBLK
  5
357
330
354
100
AcDbEntity
  8
0
100
AcDbBlockEnd
  0
BLOCK
  5
35B
330
359
100
AcDbEntity
  8
0
100
AcDbBlockBegin
  2
block 127
 70
     0
 71
     0
 10
0.0
 20
0.0
 30
0.0
  3
block 127
  1

  0
SPLINE
  5
35D
330
359
100
AcDbEntity
  8
COTAS
 62
     7
370
     5
100
AcDbSpline
210
0.0
220
0.0
230
1.0
 70
     8
 71
     3
 72
     8
 73
     4
 74
     0
 42
0.0000000001
 43
0.0000000001
 40
0.0
 40
0.0
 40
0.0
 40
0.0
 40
1.0
 40
1.0
 40
1.0
 40
1.0
 10
100.31982421875
 20
471.3564453125
 30
0.0
 10
101.02490234375
 20
472.06689453125
 30
0.0
 10
102.48095703125
 20
472.7353515625
 30
0.0
 10
103.478515625
 20
472.80615234375
 30
0.0
  0
ENDBLK
  5
35C
330
359
100
AcDbEntity
  8
0
100
AcDbBlockEnd
  0
BLOCK
  5
360
330
35E
100
AcDbEntity
  8
0
100
AcDbBlockBegin
  2
block 128
 70
     0
 71
     0
 10
0.0
 20
0.0
 30
0.0
  3
block 128
  1

  0
SPLINE
  5
362
330
35E
100
AcDbEntity
  8
COTAS
 62
     7
370
     5
100
AcDbSpline
210
0.0
220
0.0
230
1.0
 70
     8
 71
     3
 72
     8
 73
     4
 74
     0
 42
0.0000000001
 43
0.0000000001
 40
0.0
 40
0.0
 40
0.0
 40
0.0
 40
1.0
 40
1.0
 40
1.0
 40
1.0
 10
100.09716796875
 20
471.54443359375
 30
0.0
 10
99.94921875
 20
471.275390625
 30
0.0
 10
99.58251953125
 20
471.0703125
 30
0.0
 10
99.2763671875
 20
471.0859375
 30
0.0
  0
ENDBLK
  5
361
330
35E
100
AcDbEntity
  8
0
100
AcDbBlockEnd
  0
BLOCK
  5
365
330
363
100
AcDbEntity
  8
0
100
AcDbBlockBegin
  2
block 129
 70
     0
 71
     0
 10
0.0
 20
0.0
 30
0.0
  3
block 129
  1

  0
SPLINE
  5
367
330
363
100
AcDbEntity
  8
COTAS
 62
     7
370
     5
100
AcDbSpline
210
0.0
220
0.0
230
1.0
 70
     8
 71
     3
 72
     8
 73
     4
 74
     0
 42
0.0000000001
 43
0.0000000001
 40
0.0
 40
0.0
 40
0.0
 40
0.0
 40
1.0
 40
1.0
 40
1.0
 40
1.0
 10
100.31982421875
 20
471.3564453125
 30
0.0
 10
100.12548828125
 20
471.02734375
 30
0.0
 10
99.658203125
 20
470.77685546875
 30
0.0
 10
99.2763671875
 20
470.796875
 30
0.0
  0
ENDBLK
  5
366
330
363
100
AcDbEntity
  8
0
100
AcDbBlockEnd
  0
BLOCK
  5
36A
330
368
100
AcDbEntity
  8
0
100
AcDbBlockBegin
  2
block 130
 70
     0
 71
     0
 10
0.0
 20
0.0
 30
0.0
  3
block 130
  1

  0
INSERT
  5
36D
330
368
100
AcDbEntity
  8
COTAS
100
AcDbBlockReference
  2
block 131
 10
0.0
 20
0.0
 30
0.0
  0
INSERT
  5
375
330
368
100
AcDbEntity
  8
COTAS
100
AcDbBlockReference
  2
block 132
 10
0.0
 20
0.0
 30
0.0
  0
INSERT
  5
37D
330
368
100
AcDbEntity
  8
COTAS
100
AcDbBlockReference
  2
block 133
 10
0.0
 20
0.0
 30
0.0
  0
INSERT
  5
385
330
368
100
AcDbEntity
  8
COTAS
100
AcDbBlockReference
  2
block 134
 10
0.0
 20
0.0
 30
0.0
  0
INSERT
  5
38D
330
368
100
AcDbEntity
  8
COTAS
100
AcDbBlockReference
  2
block 135
 10
0.0
 20
0.0
 30
0.0
  0
INSERT
  5
398
330
368
100
AcDbEntity
  8
COTAS
100
AcDbBlockReference
  2
block 136
 10
0.0
 20
0.0
 30
0.0
  0
INSERT
  5
3A3
330
368
100
AcDbEntity
  8
COTAS
100
AcDbBlockReference
  2
block 137
 10
0.0
 20
0.0
 30
0.0
  0
INSERT
  5
3A8
330
368
100
AcDbEntity
  8
COTAS
100
AcDbBlockReference
  2
block 138
 10
0.0
 20
0.0
 30
0.0
  0
INSERT
  5
3B0
330
368
100
AcDbEntity
  8
COTAS
100
AcDbBlockReference
  2
block 139
 10
0.0
 20
0.0
 30
0.0
  0
INSERT
  5
3B8
330
368
100
AcDbEntity
  8
COTAS
100
AcDbBlockReference
  2
block 140
 10
0.0
 20
0.0
 30
0.0
  0
ENDBLK
  5
36B
330
368
100
AcDbEntity
  8
0
100
AcDbBlockEnd
  0
BLOCK
  5
36E
330
36C
100
AcDbEntity
  8
0
100
AcDbBlockBegin
  2
block 131
 70
     0
 71
     0
 10
0.0
 20
0.0
 30
0.0
  3
block 131
  1

  0
POLYLINE
  5
370
330
36C
100
AcDbEntity
  8
COTAS
 62
     7
370
     5
100
AcDb2dPolyline
 66
     1
 10
0.0
 20
0.0
 30
0.0
  0
VERTEX
  5
371
330
370
100
AcDbEntity
  8
COTAS
 62
     7
370
     5
100
AcDbVertex
100
AcDb2dVertex
 10
69.07373046875
 20
255.470703125
 30
0.0
  0
VERTEX
  5
372
330
370
100
AcDbEntity
  8
COTAS
 62
     7
370
     5
100
AcDbVertex
100
AcDb2dVertex
 10
69.07373046875
 20
240.216796875
 30
0.0
  0
SEQEND
  5
373
330
370
100
AcDbEntity
  8
COTAS
370
     5
  0
ENDBLK
  5
36F
330
36C
100
AcDbEntity
  8
0
100
AcDbBlockEnd
  0
BLOCK
  5
376
330
374
100
AcDbEntity
  8
0
100
AcDbBlockBegin
  2
block 132
 70
     0
 71
     0
 10
0.0
 20
0.0
 30
0.0
  3
block 132
  1

  0
POLYLINE
  5
378
330
374
100
AcDbEntity
  8
COTAS
 62
     7
370
     5
100
AcDb2dPolyline
 66
     1
 10
0.0
 20
0.0
 30
0.0
  0
VERTEX
  5
379
330
378
100
AcDbEntity
  8
COTAS
 62
     7
370
     5
100
AcDbVertex
100
AcDb2dVertex
 10
252.5537109375
 20
262.6455078125
 30
0.0
  0
VERTEX
  5
37A
330
378
100
AcDbEntity
  8
COTAS
 62
     7
370
     5
100
AcDbVertex
100
AcDb2dVertex
 10
252.5537109375
 20
240.216796875
 30
0.0
  0
SEQEND
  5
37B
330
378
100
AcDbEntity
  8
COTAS
370
     5
  0
ENDBLK
  5
377
330
374
100
AcDbEntity
  8
0
100
AcDbBlockEnd
  0
BLOCK
  5
37E
330
37C
100
AcDbEntity
  8
0
100
AcDbBlockBegin
  2
block 133
 70
     0
 71
     0
 10
0.0
 20
0.0
 30
0.0
  3
block 133
  1

  0
POLYLINE
  5
380
330
37C
100
AcDbEntity
  8
COTAS
 62
     7
370
     5
100
AcDb2dPolyline
 66
     1
 10
0.0
 20
0.0
 30
0.0
  0
VERTEX
  5
381
330
380
100
AcDbEntity
  8
COTAS
 62
     7
370
     5
100
AcDbVertex
100
AcDb2dVertex
 10
78.7080078125
 20
245.033203125
 30
0.0
  0
VERTEX
  5
382
330
380
100
AcDbEntity
  8
COTAS
 62
     7
370
     5
100
AcDbVertex
100
AcDb2dVertex
 10
163.6171875
 20
245.033203125
 30
0.0
  0
SEQEND
  5
383
330
380
100
AcDbEntity
  8
COTAS
370
     5
  0
ENDBLK
  5
37F
330
37C
100
AcDbEntity
  8
0
100
AcDbBlockEnd
  0
BLOCK
  5
386
330
384
100
AcDbEntity
  8
0
100
AcDbBlockBegin
  2
block 134
 70
     0
 71
     0
 10
0.0
 20
0.0
 30
0.0
  3
block 134
  1

  0
POLYLINE
  5
388
330
384
100
AcDbEntity
  8
COTAS
 62
     7
370
     5
100
AcDb2dPolyline
 66
     1
 10
0.0
 20
0.0
 30
0.0
  0
VERTEX
  5
389
330
388
100
AcDbEntity
  8
COTAS
 62
     7
370
     5
100
AcDbVertex
100
AcDb2dVertex
 10
242.91943359375
 20
245.033203125
 30
0.0
  0
VERTEX
  5
38A
330
388
100
AcDbEntity
  8
COTAS
 62
     7
370
     5
100
AcDbVertex
100
AcDb2dVertex
 10
196.26708984375
 20
245.033203125
 30
0.0
  0
SEQEND
  5
38B
330
388
100
AcDbEntity
  8
COTAS
370
     5
  0
ENDBLK
  5
387
330
384
100
AcDbEntity
  8
0
100
AcDbBlockEnd
  0
BLOCK
  5
38E
330
38C
100
AcDbEntity
  8
0
100
AcDbBlockBegin
  2
block 135
 70
     0
 71
     0
 10
0.0
 20
0.0
 30
0.0
  3
block 135
  1

  0
POLYLINE
  5
390
330
38C
100
AcDbEntity
  8
COTAS
370
     0
100
AcDb2dPolyline
 66
     1
 10
0.0
 20
0.0
 30
0.0
  0
VERTEX
  5
391
330
390
100
AcDbEntity
  8
COTAS
370
     0
100
AcDbVertex
100
AcDb2dVertex
 10
78.7080078125
 20
246.6396484375
 30
0.0
  0
VERTEX
  5
392
330
390
100
AcDbEntity
  8
COTAS
370
     0
100
AcDbVertex
100
AcDb2dVertex
 10
78.7080078125
 20
243.427734375
 30
0.0
  0
VERTEX
  5
393
330
390
100
AcDbEntity
  8
COTAS
370
     0
100
AcDbVertex
100
AcDb2dVertex
 10
69.07373046875
 20
245.033203125
 30
0.0
  0
VERTEX
  5
394
330
390
100
AcDbEntity
  8
COTAS
370
     0
100
AcDbVertex
100
AcDb2dVertex
 10
78.7080078125
 20
246.6396484375
 30
0.0
  0
SEQEND
  5
395
330
390
100
AcDbEntity
  8
COTAS
370
     0
  0
HATCH
  5
396
330
38C
100
AcDbEntity
  8
COTAS
 62
     7
100
AcDbHatch
 10
0.0
 20
0.0
 30
0.0
210
0.0
220
0.0
230
1.0
  2
SOLID
 70
     1
 71
     0
 91
        1
 92
        1
 93
        3
 72
     1
 10
78.7080078125
 20
246.6396484375
 11
78.7080078125
 21
243.427734375
 72
     1
 10
78.7080078125
 20
243.427734375
 11
69.07373046875
 21
245.033203125
 72
     1
 10
69.07373046875
 20
245.033203125
 11
78.7080078125
 21
246.6396484375
 97
        0
 75
     2
 76
     1
 98
        0
  0
ENDBLK
  5
38F
330
38C
100
AcDbEntity
  8
0
100
AcDbBlockEnd
  0
BLOCK
  5
399
330
397
100
AcDbEntity
  8
0
100
AcDbBlockBegin
  2
block 136
 70
     0
 71
     0
 10
0.0
 20
0.0
 30
0.0
  3
block 136
  1

  0
POLYLINE
  5
39B
330
397
100
AcDbEntity
  8
COTAS
370
     0
100
AcDb2dPolyline
 66
     1
 10
0.0
 20
0.0
 30
0.0
  0
VERTEX
  5
39C
330
39B
100
AcDbEntity
  8
COTAS
370
     0
100
AcDbVertex
100
AcDb2dVertex
 10
242.91943359375
 20
246.6396484375
 30
0.0
  0
VERTEX
  5
39D
330
39B
100
AcDbEntity
  8
COTAS
370
     0
100
AcDbVertex
100
AcDb2dVertex
 10
242.91943359375
 20
243.427734375
 30
0.0
  0
VERTEX
  5
39E
330
39B
100
AcDbEntity
  8
COTAS
370
     0
100
AcDbVertex
100
AcDb2dVertex
 10
252.5537109375
 20
245.033203125
 30
0.0
  0
VERTEX
  5
39F
330
39B
100
AcDbEntity
  8
COTAS
370
     0
100
AcDbVertex
100
AcDb2dVertex
 10
242.91943359375
 20
246.6396484375
 30
0.0
  0
SEQEND
  5
3A0
330
39B
100
AcDbEntity
  8
COTAS
370
     0
  0
HATCH
  5
3A1
330
397
100
AcDbEntity
  8
COTAS
 62
     7
100
AcDbHatch
 10
0.0
 20
0.0
 30
0.0
210
0.0
220
0.0
230
1.0
  2
SOLID
 70
     1
 71
     0
 91
        1
 92
        1
 93
        3
 72
     1
 10
242.91943359375
 20
246.6396484375
 11
242.91943359375
 21
243.427734375
 72
     1
 10
242.91943359375
 20
243.427734375
 11
252.5537109375
 21
245.033203125
 72
     1
 10
252.5537109375
 20
245.033203125
 11
242.91943359375
 21
246.6396484375
 97
        0
 75
     2
 76
     1
 98
        0
  0
ENDBLK
  5
39A
330
397
100
AcDbEntity
  8
0
100
AcDbBlockEnd
  0
BLOCK
  5
3A4
330
3A2
100
AcDbEntity
  8
0
100
AcDbBlockBegin
  2
block 137
 70
     0
 71
     0
 10
0.0
 20
0.0
 30
0.0
  3
block 137
  1

  0
MTEXT
  5
3A6
330
3A2
100
AcDbEntity
  8
COTAS
 62
     7
100
AcDbMText
 10
164.57958984375
 20
240.2783203125
 30
0.0
 40
6.800000000000001
 41
0.0
 71
     7
 72
     1
  1
\fArial|b1|i0|c0|p34;\W1;1000
 73
     1
 44
1.0
  0
ENDBLK
  5
3A5
330
3A2
100
AcDbEntity
  8
0
100
AcDbBlockEnd
  0
BLOCK
  5
3A9
330
3A7
100
AcDbEntity
  8
0
100
AcDbBlockBegin
  2
block 138
 70
     0
 71
     0
 10
0.0
 20
0.0
 30
0.0
  3
block 138
  1

  0
POLYLINE
  5
3AB
330
3A7
100
AcDbEntity
  8
COTAS
370
     0
100
AcDb2dPolyline
 66
     1
 10
0.0
 20
0.0
 30
0.0
  0
VERTEX
  5
3AC
330
3AB
100
AcDbEntity
  8
COTAS
370
     0
100
AcDbVertex
100
AcDb2dVertex
 10
69.07373046875
 20
257.8798828125
 30
0.0
  0
VERTEX
  5
3AD
330
3AB
100
AcDbEntity
  8
COTAS
370
     0
100
AcDbVertex
100
AcDb2dVertex
 10
69.07373046875
 20
257.8798828125
 30
0.0
  0
SEQEND
  5
3AE
330
3AB
100
AcDbEntity
  8
COTAS
370
     0
  0
ENDBLK
  5
3AA
330
3A7
100
AcDbEntity
  8
0
100
AcDbBlockEnd
  0
BLOCK
  5
3B1
330
3AF
100
AcDbEntity
  8
0
100
AcDbBlockBegin
  2
block 139
 70
     0
 71
     0
 10
0.0
 20
0.0
 30
0.0
  3
block 139
  1

  0
POLYLINE
  5
3B3
330
3AF
100
AcDbEntity
  8
COTAS
370
     0
100
AcDb2dPolyline
 66
     1
 10
0.0
 20
0.0
 30
0.0
  0
VERTEX
  5
3B4
330
3B3
100
AcDbEntity
  8
COTAS
370
     0
100
AcDbVertex
100
AcDb2dVertex
 10
252.5537109375
 20
265.0546875
 30
0.0
  0
VERTEX
  5
3B5
330
3B3
100
AcDbEntity
  8
COTAS
370
     0
100
AcDbVertex
100
AcDb2dVertex
 10
252.5537109375
 20
265.0546875
 30
0.0
  0
SEQEND
  5
3B6
330
3B3
100
AcDbEntity
  8
COTAS
370
     0
  0
ENDBLK
  5
3B2
330
3AF
100
AcDbEntity
  8
0
100
AcDbBlockEnd
  0
BLOCK
  5
3B9
330
3B7
100
AcDbEntity
  8
0
100
AcDbBlockBegin
  2
block 140
 70
     0
 71
     0
 10
0.0
 20
0.0
 30
0.0
  3
block 140
  1

  0
POLYLINE
  5
3BB
330
3B7
100
AcDbEntity
  8
COTAS
370
     0
100
AcDb2dPolyline
 66
     1
 10
0.0
 20
0.0
 30
0.0
  0
VERTEX
  5
3BC
330
3BB
100
AcDbEntity
  8
COTAS
370
     0
100
AcDbVertex
100
AcDb2dVertex
 10
252.5537109375
 20
245.033203125
 30
0.0
  0
VERTEX
  5
3BD
330
3BB
100
AcDbEntity
  8
COTAS
370
     0
100
AcDbVertex
100
AcDb2dVertex
 10
252.5537109375
 20
245.033203125
 30
0.0
  0
SEQEND
  5
3BE
330
3BB
100
AcDbEntity
  8
COTAS
370
     0
  0
ENDBLK
  5
3BA
330
3B7
100
AcDbEntity
  8
0
100
AcDbBlockEnd
  0
BLOCK
  5
3C1
330
3BF
100
AcDbEntity
  8
0
100
AcDbBlockBegin
  2
block 141
 70
     0
 71
     0
 10
0.0
 20
0.0
 30
0.0
  3
block 141
  1

  0
INSERT
  5
3C4
330
3BF
100
AcDbEntity
  8
COTAS
100
AcDbBlockReference
  2
block 142
 10
0.0
 20
0.0
 30
0.0
  0
INSERT
  5
3CC
330
3BF
100
AcDbEntity
  8
COTAS
100
AcDbBlockReference
  2
block 143
 10
0.0
 20
0.0
 30
0.0
  0
INSERT
  5
3D4
330
3BF
100
AcDbEntity
  8
COTAS
100
AcDbBlockReference
  2
block 144
 10
0.0
 20
0.0
 30
0.0
  0
INSERT
  5
3DC
330
3BF
100
AcDbEntity
  8
COTAS
100
AcDbBlockReference
  2
block 145
 10
0.0
 20
0.0
 30
0.0
  0
INSERT
  5
3E4
330
3BF
100
AcDbEntity
  8
COTAS
100
AcDbBlockReference
  2
block 146
 10
0.0
 20
0.0
 30
0.0
  0
INSERT
  5
3EF
330
3BF
100
AcDbEntity
  8
COTAS
100
AcDbBlockReference
  2
block 147
 10
0.0
 20
0.0
 30
0.0
  0
INSERT
  5
3FA
330
3BF
100
AcDbEntity
  8
COTAS
100
AcDbBlockReference
  2
block 148
 10
0.0
 20
0.0
 30
0.0
  0
INSERT
  5
3FF
330
3BF
100
AcDbEntity
  8
COTAS
100
AcDbBlockReference
  2
block 149
 10
0.0
 20
0.0
 30
0.0
  0
INSERT
  5
407
330
3BF
100
AcDbEntity
  8
COTAS
100
AcDbBlockReference
  2
block 150
 10
0.0
 20
0.0
 30
0.0
  0
INSERT
  5
40F
330
3BF
100
AcDbEntity
  8
COTAS
100
AcDbBlockReference
  2
block 151
 10
0.0
 20
0.0
 30
0.0
  0
ENDBLK
  5
3C2
330
3BF
100
AcDbEntity
  8
0
100
AcDbBlockEnd
  0
BLOCK
  5
3C5
330
3C3
100
AcDbEntity
  8
0
100
AcDbBlockBegin
  2
block 142
 70
     0
 71
     0
 10
0.0
 20
0.0
 30
0.0
  3
block 142
  1

  0
POLYLINE
  5
3C7
330
3C3
100
AcDbEntity
  8
COTAS
 62
     7
370
     5
100
AcDb2dPolyline
 66
     1
 10
0.0
 20
0.0
 30
0.0
  0
VERTEX
  5
3C8
330
3C7
100
AcDbEntity
  8
COTAS
 62
     7
370
     5
100
AcDbVertex
100
AcDb2dVertex
 10
39.53369140625
 20
264.7197265625
 30
0.0
  0
VERTEX
  5
3C9
330
3C7
100
AcDbEntity
  8
COTAS
 62
     7
370
     5
100
AcDbVertex
100
AcDb2dVertex
 10
39.53369140625
 20
218.7001953125
 30
0.0
  0
SEQEND
  5
3CA
330
3C7
100
AcDbEntity
  8
COTAS
370
     5
  0
ENDBLK
  5
3C6
330
3C3
100
AcDbEntity
  8
0
100
AcDbBlockEnd
  0
BLOCK
  5
3CD
330
3CB
100
AcDbEntity
  8
0
100
AcDbBlockBegin
  2
block 143
 70
     0
 71
     0
 10
0.0
 20
0.0
 30
0.0
  3
block 143
  1

  0
POLYLINE
  5
3CF
330
3CB
100
AcDbEntity
  8
COTAS
 62
     7
370
     5
100
AcDb2dPolyline
 66
     1
 10
0.0
 20
0.0
 30
0.0
  0
VERTEX
  5
3D0
330
3CF
100
AcDbEntity
  8
COTAS
 62
     7
370
     5
100
AcDbVertex
100
AcDb2dVertex
 10
309.3037109375
 20
264.7197265625
 30
0.0
  0
VERTEX
  5
3D1
330
3CF
100
AcDbEntity
  8
COTAS
 62
     7
370
     5
100
AcDbVertex
100
AcDb2dVertex
 10
309.3037109375
 20
218.7001953125
 30
0.0
  0
SEQEND
  5
3D2
330
3CF
100
AcDbEntity
  8
COTAS
370
     5
  0
ENDBLK
  5
3CE
330
3CB
100
AcDbEntity
  8
0
100
AcDbBlockEnd
  0
BLOCK
  5
3D5
330
3D3
100
AcDbEntity
  8
0
100
AcDbBlockBegin
  2
block 144
 70
     0
 71
     0
 10
0.0
 20
0.0
 30
0.0
  3
block 144
  1

  0
POLYLINE
  5
3D7
330
3D3
100
AcDbEntity
  8
COTAS
 62
     7
370
     5
100
AcDb2dPolyline
 66
     1
 10
0.0
 20
0.0
 30
0.0
  0
VERTEX
  5
3D8
330
3D7
100
AcDbEntity
  8
COTAS
 62
     7
370
     5
100
AcDbVertex
100
AcDb2dVertex
 10
49.16796875
 20
223.5166015625
 30
0.0
  0
VERTEX
  5
3D9
330
3D7
100
AcDbEntity
  8
COTAS
 62
     7
370
     5
100
AcDbVertex
100
AcDb2dVertex
 10
163.4091796875
 20
223.5166015625
 30
0.0
  0
SEQEND
  5
3DA
330
3D7
100
AcDbEntity
  8
COTAS
370
     5
  0
ENDBLK
  5
3D6
330
3D3
100
AcDbEntity
  8
0
100
AcDbBlockEnd
  0
BLOCK
  5
3DD
330
3DB
100
AcDbEntity
  8
0
100
AcDbBlockBegin
  2
block 145
 70
     0
 71
     0
 10
0.0
 20
0.0
 30
0.0
  3
block 145
  1

  0
POLYLINE
  5
3DF
330
3DB
100
AcDbEntity
  8
COTAS
 62
     7
370
     5
100
AcDb2dPolyline
 66
     1
 10
0.0
 20
0.0
 30
0.0
  0
VERTEX
  5
3E0
330
3DF
100
AcDbEntity
  8
COTAS
 62
     7
370
     5
100
AcDbVertex
100
AcDb2dVertex
 10
299.66943359375
 20
223.5166015625
 30
0.0
  0
VERTEX
  5
3E1
330
3DF
100
AcDbEntity
  8
COTAS
 62
     7
370
     5
100
AcDbVertex
100
AcDb2dVertex
 10
196.0595703125
 20
223.5166015625
 30
0.0
  0
SEQEND
  5
3E2
330
3DF
100
AcDbEntity
  8
COTAS
370
     5
  0
ENDBLK
  5
3DE
330
3DB
100
AcDbEntity
  8
0
100
AcDbBlockEnd
  0
BLOCK
  5
3E5
330
3E3
100
AcDbEntity
  8
0
100
AcDbBlockBegin
  2
block 146
 70
     0
 71
     0
 10
0.0
 20
0.0
 30
0.0
  3
block 146
  1

  0
POLYLINE
  5
3E7
330
3E3
100
AcDbEntity
  8
COTAS
370
     0
100
AcDb2dPolyline
 66
     1
 10
0.0
 20
0.0
 30
0.0
  0
VERTEX
  5
3E8
330
3E7
100
AcDbEntity
  8
COTAS
370
     0
100
AcDbVertex
100
AcDb2dVertex
 10
49.16796875
 20
225.1220703125
 30
0.0
  0
VERTEX
  5
3E9
330
3E7
100
AcDbEntity
  8
COTAS
370
     0
100
AcDbVertex
100
AcDb2dVertex
 10
49.16796875
 20
221.91015625
 30
0.0
  0
VERTEX
  5
3EA
330
3E7
100
AcDbEntity
  8
COTAS
370
     0
100
AcDbVertex
100
AcDb2dVertex
 10
39.53369140625
 20
223.5166015625
 30
0.0
  0
VERTEX
  5
3EB
330
3E7
100
AcDbEntity
  8
COTAS
370
     0
100
AcDbVertex
100
AcDb2dVertex
 10
49.16796875
 20
225.1220703125
 30
0.0
  0
SEQEND
  5
3EC
330
3E7
100
AcDbEntity
  8
COTAS
370
     0
  0
HATCH
  5
3ED
330
3E3
100
AcDbEntity
  8
COTAS
 62
     7
100
AcDbHatch
 10
0.0
 20
0.0
 30
0.0
210
0.0
220
0.0
230
1.0
  2
SOLID
 70
     1
 71
     0
 91
        1
 92
        1
 93
        3
 72
     1
 10
49.16796875
 20
225.1220703125
 11
49.16796875
 21
221.91015625
 72
     1
 10
49.16796875
 20
221.91015625
 11
39.53369140625
 21
223.5166015625
 72
     1
 10
39.53369140625
 20
223.5166015625
 11
49.16796875
 21
225.1220703125
 97
        0
 75
     2
 76
     1
 98
        0
  0
ENDBLK
  5
3E6
330
3E3
100
AcDbEntity
  8
0
100
AcDbBlockEnd
  0
BLOCK
  5
3F0
330
3EE
100
AcDbEntity
  8
0
100
AcDbBlockBegin
  2
block 147
 70
     0
 71
     0
 10
0.0
 20
0.0
 30
0.0
  3
block 147
  1

  0
POLYLINE
  5
3F2
330
3EE
100
AcDbEntity
  8
COTAS
370
     0
100
AcDb2dPolyline
 66
     1
 10
0.0
 20
0.0
 30
0.0
  0
VERTEX
  5
3F3
330
3F2
100
AcDbEntity
  8
COTAS
370
     0
100
AcDbVertex
100
AcDb2dVertex
 10
299.66943359375
 20
225.1220703125
 30
0.0
  0
VERTEX
  5
3F4
330
3F2
100
AcDbEntity
  8
COTAS
370
     0
100
AcDbVertex
100
AcDb2dVertex
 10
299.66943359375
 20
221.91015625
 30
0.0
  0
VERTEX
  5
3F5
330
3F2
100
AcDbEntity
  8
COTAS
370
     0
100
AcDbVertex
100
AcDb2dVertex
 10
309.3037109375
 20
223.5166015625
 30
0.0
  0
VERTEX
  5
3F6
330
3F2
100
AcDbEntity
  8
COTAS
370
     0
100
AcDbVertex
100
AcDb2dVertex
 10
299.66943359375
 20
225.1220703125
 30
0.0
  0
SEQEND
  5
3F7
330
3F2
100
AcDbEntity
  8
COTAS
370
     0
  0
HATCH
  5
3F8
330
3EE
100
AcDbEntity
  8
COTAS
 62
     7
100
AcDbHatch
 10
0.0
 20
0.0
 30
0.0
210
0.0
220
0.0
230
1.0
  2
SOLID
 70
     1
 71
     0
 91
        1
 92
        1
 93
        3
 72
     1
 10
299.66943359375
 20
225.1220703125
 11
299.66943359375
 21
221.91015625
 72
     1
 10
299.66943359375
 20
221.91015625
 11
309.3037109375
 21
223.5166015625
 72
     1
 10
309.3037109375
 20
223.5166015625
 11
299.66943359375
 21
225.1220703125
 97
        0
 75
     2
 76
     1
 98
        0
  0
ENDBLK
  5
3F1
330
3EE
100
AcDbEntity
  8
0
100
AcDbBlockEnd
  0
BLOCK
  5
3FB
330
3F9
100
AcDbEntity
  8
0
100
AcDbBlockBegin
  2
block 148
 70
     0
 71
     0
 10
0.0
 20
0.0
 30
0.0
  3
block 148
  1

  0
MTEXT
  5
3FD
330
3F9
100
AcDbEntity
  8
COTAS
 62
     7
100
AcDbMText
 10
164.3720703125
 20
218.76171875
 30
0.0
 40
6.800000000000001
 41
0.0
 71
     7
 72
     1
  1
\fArial|b1|i0|c0|p34;\W1;1400
 73
     1
 44
1.0
  0
ENDBLK
  5
3FC
330
3F9
100
AcDbEntity
  8
0
100
AcDbBlockEnd
  0
BLOCK
  5
400
330
3FE
100
AcDbEntity
  8
0
100
AcDbBlockBegin
  2
block 149
 70
     0
 71
     0
 10
0.0
 20
0.0
 30
0.0
  3
block 149
  1

  0
POLYLINE
  5
402
330
3FE
100
AcDbEntity
  8
COTAS
370
     0
100
AcDb2dPolyline
 66
     1
 10
0.0
 20
0.0
 30
0.0
  0
VERTEX
  5
403
330
402
100
AcDbEntity
  8
COTAS
370
     0
100
AcDbVertex
100
AcDb2dVertex
 10
39.53369140625
 20
267.1279296875
 30
0.0
  0
VERTEX
  5
404
330
402
100
AcDbEntity
  8
COTAS
370
     0
100
AcDbVertex
100
AcDb2dVertex
 10
39.53369140625
 20
267.1279296875
 30
0.0
  0
SEQEND
  5
405
330
402
100
AcDbEntity
  8
COTAS
370
     0
  0
ENDBLK
  5
401
330
3FE
100
AcDbEntity
  8
0
100
AcDbBlockEnd
  0
BLOCK
  5
408
330
406
100
AcDbEntity
  8
0
100
AcDbBlockBegin
  2
block 150
 70
     0
 71
     0
 10
0.0
 20
0.0
 30
0.0
  3
block 150
  1

  0
POLYLINE
  5
40A
330
406
100
AcDbEntity
  8
COTAS
370
     0
100
AcDb2dPolyline
 66
     1
 10
0.0
 20
0.0
 30
0.0
  0
VERTEX
  5
40B
330
40A
100
AcDbEntity
  8
COTAS
370
     0
100
AcDbVertex
100
AcDb2dVertex
 10
309.3037109375
 20
267.1279296875
 30
0.0
  0
VERTEX
  5
40C
330
40A
100
AcDbEntity
  8
COTAS
370
     0
100
AcDbVertex
100
AcDb2dVertex
 10
309.3037109375
 20
267.1279296875
 30
0.0
  0
SEQEND
  5
40D
330
40A
100
AcDbEntity
  8
COTAS
370
     0
  0
ENDBLK
  5
409
330
406
100
AcDbEntity
  8
0
100
AcDbBlockEnd
  0
BLOCK
  5
410
330
40E
100
AcDbEntity
  8
0
100
AcDbBlockBegin
  2
block 151
 70
     0
 71
     0
 10
0.0
 20
0.0
 30
0.0
  3
block 151
  1

  0
POLYLINE
  5
412
330
40E
100
AcDbEntity
  8
COTAS
370
     0
100
AcDb2dPolyline
 66
     1
 10
0.0
 20
0.0
 30
0.0
  0
VERTEX
  5
413
330
412
100
AcDbEntity
  8
COTAS
370
     0
100
AcDbVertex
100
AcDb2dVertex
 10
309.3037109375
 20
223.5166015625
 30
0.0
  0
VERTEX
  5
414
330
412
100
AcDbEntity
  8
COTAS
370
     0
100
AcDbVertex
100
AcDb2dVertex
 10
309.3037109375
 20
223.5166015625
 30
0.0
  0
SEQEND
  5
415
330
412
100
AcDbEntity
  8
COTAS
370
     0
  0
ENDBLK
  5
411
330
40E
100
AcDbEntity
  8
0
100
AcDbBlockEnd
  0
BLOCK
  5
418
330
416
100
AcDbEntity
  8
0
100
AcDbBlockBegin
  2
block 152
 70
     0
 71
     0
 10
0.0
 20
0.0
 30
0.0
  3
block 152
  1

  0
INSERT
  5
41B
330
416
100
AcDbEntity
  8
COTAS
100
AcDbBlockReference
  2
block 153
 10
0.0
 20
0.0
 30
0.0
  0
INSERT
  5
423
330
416
100
AcDbEntity
  8
COTAS
100
AcDbBlockReference
  2
block 154
 10
0.0
 20
0.0
 30
0.0
  0
INSERT
  5
42B
330
416
100
AcDbEntity
  8
COTAS
100
AcDbBlockReference
  2
block 155
 10
0.0
 20
0.0
 30
0.0
  0
INSERT
  5
433
330
416
100
AcDbEntity
  8
COTAS
100
AcDbBlockReference
  2
block 156
 10
0.0
 20
0.0
 30
0.0
  0
INSERT
  5
43B
330
416
100
AcDbEntity
  8
COTAS
100
AcDbBlockReference
  2
block 157
 10
0.0
 20
0.0
 30
0.0
  0
INSERT
  5
446
330
416
100
AcDbEntity
  8
COTAS
100
AcDbBlockReference
  2
block 158
 10
0.0
 20
0.0
 30
0.0
  0
INSERT
  5
451
330
416
100
AcDbEntity
  8
COTAS
100
AcDbBlockReference
  2
block 159
 10
0.0
 20
0.0
 30
0.0
  0
INSERT
  5
456
330
416
100
AcDbEntity
  8
COTAS
100
AcDbBlockReference
  2
block 160
 10
0.0
 20
0.0
 30
0.0
  0
INSERT
  5
45E
330
416
100
AcDbEntity
  8
COTAS
100
AcDbBlockReference
  2
block 161
 10
0.0
 20
0.0
 30
0.0
  0
INSERT
  5
466
330
416
100
AcDbEntity
  8
COTAS
100
AcDbBlockReference
  2
block 162
 10
0.0
 20
0.0
 30
0.0
  0
ENDBLK
  5
419
330
416
100
AcDbEntity
  8
0
100
AcDbBlockEnd
  0
BLOCK
  5
41C
330
41A
100
AcDbEntity
  8
0
100
AcDbBlockBegin
  2
block 153
 70
     0
 71
     0
 10
0.0
 20
0.0
 30
0.0
  3
block 153
  1

  0
POLYLINE
  5
41E
330
41A
100
AcDbEntity
  8
COTAS
 62
     7
370
     5
100
AcDb2dPolyline
 66
     1
 10
0.0
 20
0.0
 30
0.0
  0
VERTEX
  5
41F
330
41E
100
AcDbEntity
  8
COTAS
 62
     7
370
     5
100
AcDbVertex
100
AcDb2dVertex
 10
99.2685546875
 20
404.80810546875
 30
0.0
  0
VERTEX
  5
420
330
41E
100
AcDbEntity
  8
COTAS
 62
     7
370
     5
100
AcDbVertex
100
AcDb2dVertex
 10
99.2685546875
 20
418.798828125
 30
0.0
  0
SEQEND
  5
421
330
41E
100
AcDbEntity
  8
COTAS
370
     5
  0
ENDBLK
  5
41D
330
41A
100
AcDbEntity
  8
0
100
AcDbBlockEnd
  0
BLOCK
  5
424
330
422
100
AcDbEntity
  8
0
100
AcDbBlockBegin
  2
block 154
 70
     0
 71
     0
 10
0.0
 20
0.0
 30
0.0
  3
block 154
  1

  0
POLYLINE
  5
426
330
422
100
AcDbEntity
  8
COTAS
 62
     7
370
     5
100
AcDb2dPolyline
 66
     1
 10
0.0
 20
0.0
 30
0.0
  0
VERTEX
  5
427
330
426
100
AcDbEntity
  8
COTAS
 62
     7
370
     5
100
AcDbVertex
100
AcDb2dVertex
 10
39.53369140625
 20
395.55908203125
 30
0.0
  0
VERTEX
  5
428
330
426
100
AcDbEntity
  8
COTAS
 62
     7
370
     5
100
AcDbVertex
100
AcDb2dVertex
 10
39.53369140625
 20
418.798828125
 30
0.0
  0
SEQEND
  5
429
330
426
100
AcDbEntity
  8
COTAS
370
     5
  0
ENDBLK
  5
425
330
422
100
AcDbEntity
  8
0
100
AcDbBlockEnd
  0
BLOCK
  5
42C
330
42A
100
AcDbEntity
  8
0
100
AcDbBlockBegin
  2
block 155
 70
     0
 71
     0
 10
0.0
 20
0.0
 30
0.0
  3
block 155
  1

  0
POLYLINE
  5
42E
330
42A
100
AcDbEntity
  8
COTAS
 62
     7
370
     5
100
AcDb2dPolyline
 66
     1
 10
0.0
 20
0.0
 30
0.0
  0
VERTEX
  5
42F
330
42E
100
AcDbEntity
  8
COTAS
 62
     7
370
     5
100
AcDbVertex
100
AcDb2dVertex
 10
89.6337890625
 20
413.98193359375
 30
0.0
  0
VERTEX
  5
430
330
42E
100
AcDbEntity
  8
COTAS
 62
     7
370
     5
100
AcDbVertex
100
AcDb2dVertex
 10
78.98046875
 20
413.98193359375
 30
0.0
  0
SEQEND
  5
431
330
42E
100
AcDbEntity
  8
COTAS
370
     5
  0
ENDBLK
  5
42D
330
42A
100
AcDbEntity
  8
0
100
AcDbBlockEnd
  0
BLOCK
  5
434
330
432
100
AcDbEntity
  8
0
100
AcDbBlockBegin
  2
block 156
 70
     0
 71
     0
 10
0.0
 20
0.0
 30
0.0
  3
block 156
  1

  0
POLYLINE
  5
436
330
432
100
AcDbEntity
  8
COTAS
 62
     7
370
     5
100
AcDb2dPolyline
 66
     1
 10
0.0
 20
0.0
 30
0.0
  0
VERTEX
  5
437
330
436
100
AcDbEntity
  8
COTAS
 62
     7
370
     5
100
AcDbVertex
100
AcDb2dVertex
 10
49.16796875
 20
413.98193359375
 30
0.0
  0
VERTEX
  5
438
330
436
100
AcDbEntity
  8
COTAS
 62
     7
370
     5
100
AcDbVertex
100
AcDb2dVertex
 10
52.9150390625
 20
413.98193359375
 30
0.0
  0
SEQEND
  5
439
330
436
100
AcDbEntity
  8
COTAS
370
     5
  0
ENDBLK
  5
435
330
432
100
AcDbEntity
  8
0
100
AcDbBlockEnd
  0
BLOCK
  5
43C
330
43A
100
AcDbEntity
  8
0
100
AcDbBlockBegin
  2
block 157
 70
     0
 71
     0
 10
0.0
 20
0.0
 30
0.0
  3
block 157
  1

  0
POLYLINE
  5
43E
330
43A
100
AcDbEntity
  8
COTAS
370
     0
100
AcDb2dPolyline
 66
     1
 10
0.0
 20
0.0
 30
0.0
  0
VERTEX
  5
43F
330
43E
100
AcDbEntity
  8
COTAS
370
     0
100
AcDbVertex
100
AcDb2dVertex
 10
89.6337890625
 20
415.587890625
 30
0.0
  0
VERTEX
  5
440
330
43E
100
AcDbEntity
  8
COTAS
370
     0
100
AcDbVertex
100
AcDb2dVertex
 10
89.6337890625
 20
412.37646484375
 30
0.0
  0
VERTEX
  5
441
330
43E
100
AcDbEntity
  8
COTAS
370
     0
100
AcDbVertex
100
AcDb2dVertex
 10
99.2685546875
 20
413.98193359375
 30
0.0
  0
VERTEX
  5
442
330
43E
100
AcDbEntity
  8
COTAS
370
     0
100
AcDbVertex
100
AcDb2dVertex
 10
89.6337890625
 20
415.587890625
 30
0.0
  0
SEQEND
  5
443
330
43E
100
AcDbEntity
  8
COTAS
370
     0
  0
HATCH
  5
444
330
43A
100
AcDbEntity
  8
COTAS
 62
     7
100
AcDbHatch
 10
0.0
 20
0.0
 30
0.0
210
0.0
220
0.0
230
1.0
  2
SOLID
 70
     1
 71
     0
 91
        1
 92
        1
 93
        3
 72
     1
 10
89.6337890625
 20
415.587890625
 11
89.6337890625
 21
412.37646484375
 72
     1
 10
89.6337890625
 20
412.37646484375
 11
99.2685546875
 21
413.98193359375
 72
     1
 10
99.2685546875
 20
413.98193359375
 11
89.6337890625
 21
415.587890625
 97
        0
 75
     2
 76
     1
 98
        0
  0
ENDBLK
  5
43D
330
43A
100
AcDbEntity
  8
0
100
AcDbBlockEnd
  0
BLOCK
  5
447
330
445
100
AcDbEntity
  8
0
100
AcDbBlockBegin
  2
block 158
 70
     0
 71
     0
 10
0.0
 20
0.0
 30
0.0
  3
block 158
  1

  0
POLYLINE
  5
449
330
445
100
AcDbEntity
  8
COTAS
370
     0
100
AcDb2dPolyline
 66
     1
 10
0.0
 20
0.0
 30
0.0
  0
VERTEX
  5
44A
330
449
100
AcDbEntity
  8
COTAS
370
     0
100
AcDbVertex
100
AcDb2dVertex
 10
49.16796875
 20
415.587890625
 30
0.0
  0
VERTEX
  5
44B
330
449
100
AcDbEntity
  8
COTAS
370
     0
100
AcDbVertex
100
AcDb2dVertex
 10
49.16796875
 20
412.37646484375
 30
0.0
  0
VERTEX
  5
44C
330
449
100
AcDbEntity
  8
COTAS
370
     0
100
AcDbVertex
100
AcDb2dVertex
 10
39.53369140625
 20
413.98193359375
 30
0.0
  0
VERTEX
  5
44D
330
449
100
AcDbEntity
  8
COTAS
370
     0
100
AcDbVertex
100
AcDb2dVertex
 10
49.16796875
 20
415.587890625
 30
0.0
  0
SEQEND
  5
44E
330
449
100
AcDbEntity
  8
COTAS
370
     0
  0
HATCH
  5
44F
330
445
100
AcDbEntity
  8
COTAS
 62
     7
100
AcDbHatch
 10
0.0
 20
0.0
 30
0.0
210
0.0
220
0.0
230
1.0
  2
SOLID
 70
     1
 71
     0
 91
        1
 92
        1
 93
        3
 72
     1
 10
49.16796875
 20
415.587890625
 11
49.16796875
 21
412.37646484375
 72
     1
 10
49.16796875
 20
412.37646484375
 11
39.53369140625
 21
413.98193359375
 72
     1
 10
39.53369140625
 20
413.98193359375
 11
49.16796875
 21
415.587890625
 97
        0
 75
     2
 76
     1
 98
        0
  0
ENDBLK
  5
448
330
445
100
AcDbEntity
  8
0
100
AcDbBlockEnd
  0
BLOCK
  5
452
330
450
100
AcDbEntity
  8
0
100
AcDbBlockBegin
  2
block 159
 70
     0
 71
     0
 10
0.0
 20
0.0
 30
0.0
  3
block 159
  1

  0
MTEXT
  5
454
330
450
100
AcDbEntity
  8
COTAS
 62
     7
100
AcDbMText
 10
54.771484375
 20
409.2275390625
 30
0.0
 40
6.800000000000001
 41
0.0
 71
     7
 72
     1
  1
\fArial|b1|i0|c0|p34;\W1;310
 73
     1
 44
1.0
  0
ENDBLK
  5
453
330
450
100
AcDbEntity
  8
0
100
AcDbBlockEnd
  0
BLOCK
  5
457
330
455
100
AcDbEntity
  8
0
100
AcDbBlockBegin
  2
block 160
 70
     0
 71
     0
 10
0.0
 20
0.0
 30
0.0
  3
block 160
  1

  0
POLYLINE
  5
459
330
455
100
AcDbEntity
  8
COTAS
370
     0
100
AcDb2dPolyline
 66
     1
 10
0.0
 20
0.0
 30
0.0
  0
VERTEX
  5
45A
330
459
100
AcDbEntity
  8
COTAS
370
     0
100
AcDbVertex
100
AcDb2dVertex
 10
99.2685546875
 20
402.3994140625
 30
0.0
  0
VERTEX
  5
45B
330
459
100
AcDbEntity
  8
COTAS
370
     0
100
AcDbVertex
100
AcDb2dVertex
 10
99.2685546875
 20
402.3994140625
 30
0.0
  0
SEQEND
  5
45C
330
459
100
AcDbEntity
  8
COTAS
370
     0
  0
ENDBLK
  5
458
330
455
100
AcDbEntity
  8
0
100
AcDbBlockEnd
  0
BLOCK
  5
45F
330
45D
100
AcDbEntity
  8
0
100
AcDbBlockBegin
  2
block 161
 70
     0
 71
     0
 10
0.0
 20
0.0
 30
0.0
  3
block 161
  1

  0
POLYLINE
  5
461
330
45D
100
AcDbEntity
  8
COTAS
370
     0
100
AcDb2dPolyline
 66
     1
 10
0.0
 20
0.0
 30
0.0
  0
VERTEX
  5
462
330
461
100
AcDbEntity
  8
COTAS
370
     0
100
AcDbVertex
100
AcDb2dVertex
 10
39.53369140625
 20
393.150390625
 30
0.0
  0
VERTEX
  5
463
330
461
100
AcDbEntity
  8
COTAS
370
     0
100
AcDbVertex
100
AcDb2dVertex
 10
39.53369140625
 20
393.150390625
 30
0.0
  0
SEQEND
  5
464
330
461
100
AcDbEntity
  8
COTAS
370
     0
  0
ENDBLK
  5
460
330
45D
100
AcDbEntity
  8
0
100
AcDbBlockEnd
  0
BLOCK
  5
467
330
465
100
AcDbEntity
  8
0
100
AcDbBlockBegin
  2
block 162
 70
     0
 71
     0
 10
0.0
 20
0.0
 30
0.0
  3
block 162
  1

  0
POLYLINE
  5
469
330
465
100
AcDbEntity
  8
COTAS
370
     0
100
AcDb2dPolyline
 66
     1
 10
0.0
 20
0.0
 30
0.0
  0
VERTEX
  5
46A
330
469
100
AcDbEntity
  8
COTAS
370
     0
100
AcDbVertex
100
AcDb2dVertex
 10
39.53369140625
 20
413.98193359375
 30
0.0
  0
VERTEX
  5
46B
330
469
100
AcDbEntity
  8
COTAS
370
     0
100
AcDbVertex
100
AcDb2dVertex
 10
39.53369140625
 20
413.98193359375
 30
0.0
  0
SEQEND
  5
46C
330
469
100
AcDbEntity
  8
COTAS
370
     0
  0
ENDBLK
  5
468
330
465
100
AcDbEntity
  8
0
100
AcDbBlockEnd
  0
BLOCK
  5
46F
330
46D
100
AcDbEntity
  8
0
100
AcDbBlockBegin
  2
block 163
 70
     0
 71
     0
 10
0.0
 20
0.0
 30
0.0
  3
block 163
  1

  0
INSERT
  5
472
330
46D
100
AcDbEntity
  8
COTAS
100
AcDbBlockReference
  2
block 164
 10
0.0
 20
0.0
 30
0.0
  0
INSERT
  5
47A
330
46D
100
AcDbEntity
  8
COTAS
100
AcDbBlockReference
  2
block 165
 10
0.0
 20
0.0
 30
0.0
  0
INSERT
  5
482
330
46D
100
AcDbEntity
  8
COTAS
100
AcDbBlockReference
  2
block 166
 10
0.0
 20
0.0
 30
0.0
  0
INSERT
  5
48A
330
46D
100
AcDbEntity
  8
COTAS
100
AcDbBlockReference
  2
block 167
 10
0.0
 20
0.0
 30
0.0
  0
INSERT
  5
492
330
46D
100
AcDbEntity
  8
COTAS
100
AcDbBlockReference
  2
block 168
 10
0.0
 20
0.0
 30
0.0
  0
INSERT
  5
49D
330
46D
100
AcDbEntity
  8
COTAS
100
AcDbBlockReference
  2
block 169
 10
0.0
 20
0.0
 30
0.0
  0
INSERT
  5
4A8
330
46D
100
AcDbEntity
  8
COTAS
100
AcDbBlockReference
  2
block 170
 10
0.0
 20
0.0
 30
0.0
  0
INSERT
  5
4AD
330
46D
100
AcDbEntity
  8
COTAS
100
AcDbBlockReference
  2
block 171
 10
0.0
 20
0.0
 30
0.0
  0
INSERT
  5
4B5
330
46D
100
AcDbEntity
  8
COTAS
100
AcDbBlockReference
  2
block 172
 10
0.0
 20
0.0
 30
0.0
  0
INSERT
  5
4BD
330
46D
100
AcDbEntity
  8
COTAS
100
AcDbBlockReference
  2
block 173
 10
0.0
 20
0.0
 30
0.0
  0
ENDBLK
  5
470
330
46D
100
AcDbEntity
  8
0
100
AcDbBlockEnd
  0
BLOCK
  5
473
330
471
100
AcDbEntity
  8
0
100
AcDbBlockBegin
  2
block 164
 70
     0
 71
     0
 10
0.0
 20
0.0
 30
0.0
  3
block 164
  1

  0
POLYLINE
  5
475
330
471
100
AcDbEntity
  8
COTAS
 62
     7
370
     5
100
AcDb2dPolyline
 66
     1
 10
0.0
 20
0.0
 30
0.0
  0
VERTEX
  5
476
330
475
100
AcDbEntity
  8
COTAS
 62
     7
370
     5
100
AcDbVertex
100
AcDb2dVertex
 10
307.2802734375
 20
262.6962890625
 30
0.0
  0
VERTEX
  5
477
330
475
100
AcDbEntity
  8
COTAS
 62
     7
370
     5
100
AcDbVertex
100
AcDb2dVertex
 10
361.97265625
 20
262.6962890625
 30
0.0
  0
SEQEND
  5
478
330
475
100
AcDbEntity
  8
COTAS
370
     5
  0
ENDBLK
  5
474
330
471
100
AcDbEntity
  8
0
100
AcDbBlockEnd
  0
BLOCK
  5
47B
330
479
100
AcDbEntity
  8
0
100
AcDbBlockBegin
  2
block 165
 70
     0
 71
     0
 10
0.0
 20
0.0
 30
0.0
  3
block 165
  1

  0
POLYLINE
  5
47D
330
479
100
AcDbEntity
  8
COTAS
 62
     7
370
     5
100
AcDb2dPolyline
 66
     1
 10
0.0
 20
0.0
 30
0.0
  0
VERTEX
  5
47E
330
47D
100
AcDbEntity
  8
COTAS
 62
     7
370
     5
100
AcDbVertex
100
AcDb2dVertex
 10
307.2802734375
 20
397.58203125
 30
0.0
  0
VERTEX
  5
47F
330
47D
100
AcDbEntity
  8
COTAS
 62
     7
370
     5
100
AcDbVertex
100
AcDb2dVertex
 10
361.97265625
 20
397.58203125
 30
0.0
  0
SEQEND
  5
480
330
47D
100
AcDbEntity
  8
COTAS
370
     5
  0
ENDBLK
  5
47C
330
479
100
AcDbEntity
  8
0
100
AcDbBlockEnd
  0
BLOCK
  5
483
330
481
100
AcDbEntity
  8
0
100
AcDbBlockBegin
  2
block 166
 70
     0
 71
     0
 10
0.0
 20
0.0
 30
0.0
  3
block 166
  1

  0
POLYLINE
  5
485
330
481
100
AcDbEntity
  8
COTAS
 62
     7
370
     5
100
AcDb2dPolyline
 66
     1
 10
0.0
 20
0.0
 30
0.0
  0
VERTEX
  5
486
330
485
100
AcDbEntity
  8
COTAS
 62
     7
370
     5
100
AcDbVertex
100
AcDb2dVertex
 10
357.154296875
 20
272.3310546875
 30
0.0
  0
VERTEX
  5
487
330
485
100
AcDbEntity
  8
COTAS
 62
     7
370
     5
100
AcDbVertex
100
AcDb2dVertex
 10
357.154296875
 20
320.4833984375
 30
0.0
  0
SEQEND
  5
488
330
485
100
AcDbEntity
  8
COTAS
370
     5
  0
ENDBLK
  5
484
330
481
100
AcDbEntity
  8
0
100
AcDbBlockEnd
  0
BLOCK
  5
48B
330
489
100
AcDbEntity
  8
0
100
AcDbBlockBegin
  2
block 167
 70
     0
 71
     0
 10
0.0
 20
0.0
 30
0.0
  3
block 167
  1

  0
POLYLINE
  5
48D
330
489
100
AcDbEntity
  8
COTAS
 62
     7
370
     5
100
AcDb2dPolyline
 66
     1
 10
0.0
 20
0.0
 30
0.0
  0
VERTEX
  5
48E
330
48D
100
AcDbEntity
  8
COTAS
 62
     7
370
     5
100
AcDbVertex
100
AcDb2dVertex
 10
357.154296875
 20
387.947265625
 30
0.0
  0
VERTEX
  5
48F
330
48D
100
AcDbEntity
  8
COTAS
 62
     7
370
     5
100
AcDbVertex
100
AcDb2dVertex
 10
357.154296875
 20
335.138671875
 30
0.0
  0
SEQEND
  5
490
330
48D
100
AcDbEntity
  8
COTAS
370
     5
  0
ENDBLK
  5
48C
330
489
100
AcDbEntity
  8
0
100
AcDbBlockEnd
  0
BLOCK
  5
493
330
491
100
AcDbEntity
  8
0
100
AcDbBlockBegin
  2
block 168
 70
     0
 71
     0
 10
0.0
 20
0.0
 30
0.0
  3
block 168
  1

  0
POLYLINE
  5
495
330
491
100
AcDbEntity
  8
COTAS
370
     0
100
AcDb2dPolyline
 66
     1
 10
0.0
 20
0.0
 30
0.0
  0
VERTEX
  5
496
330
495
100
AcDbEntity
  8
COTAS
370
     0
100
AcDbVertex
100
AcDb2dVertex
 10
355.548828125
 20
272.3310546875
 30
0.0
  0
VERTEX
  5
497
330
495
100
AcDbEntity
  8
COTAS
370
     0
100
AcDbVertex
100
AcDb2dVertex
 10
358.7607421875
 20
272.3310546875
 30
0.0
  0
VERTEX
  5
498
330
495
100
AcDbEntity
  8
COTAS
370
     0
100
AcDbVertex
100
AcDb2dVertex
 10
357.154296875
 20
262.6962890625
 30
0.0
  0
VERTEX
  5
499
330
495
100
AcDbEntity
  8
COTAS
370
     0
100
AcDbVertex
100
AcDb2dVertex
 10
355.548828125
 20
272.3310546875
 30
0.0
  0
SEQEND
  5
49A
330
495
100
AcDbEntity
  8
COTAS
370
     0
  0
HATCH
  5
49B
330
491
100
AcDbEntity
  8
COTAS
 62
     7
100
AcDbHatch
 10
0.0
 20
0.0
 30
0.0
210
0.0
220
0.0
230
1.0
  2
SOLID
 70
     1
 71
     0
 91
        1
 92
        1
 93
        3
 72
     1
 10
355.548828125
 20
272.3310546875
 11
358.7607421875
 21
272.3310546875
 72
     1
 10
358.7607421875
 20
272.3310546875
 11
357.154296875
 21
262.6962890625
 72
     1
 10
357.154296875
 20
262.6962890625
 11
355.548828125
 21
272.3310546875
 97
        0
 75
     2
 76
     1
 98
        0
  0
ENDBLK
  5
494
330
491
100
AcDbEntity
  8
0
100
AcDbBlockEnd
  0
BLOCK
  5
49E
330
49C
100
AcDbEntity
  8
0
100
AcDbBlockBegin
  2
block 169
 70
     0
 71
     0
 10
0.0
 20
0.0
 30
0.0
  3
block 169
  1

  0
POLYLINE
  5
4A0
330
49C
100
AcDbEntity
  8
COTAS
370
     0
100
AcDb2dPolyline
 66
     1
 10
0.0
 20
0.0
 30
0.0
  0
VERTEX
  5
4A1
330
4A0
100
AcDbEntity
  8
COTAS
370
     0
100
AcDbVertex
100
AcDb2dVertex
 10
355.548828125
 20
387.947265625
 30
0.0
  0
VERTEX
  5
4A2
330
4A0
100
AcDbEntity
  8
COTAS
370
     0
100
AcDbVertex
100
AcDb2dVertex
 10
358.7607421875
 20
387.947265625
 30
0.0
  0
VERTEX
  5
4A3
330
4A0
100
AcDbEntity
  8
COTAS
370
     0
100
AcDbVertex
100
AcDb2dVertex
 10
357.154296875
 20
397.58203125
 30
0.0
  0
VERTEX
  5
4A4
330
4A0
100
AcDbEntity
  8
COTAS
370
     0
100
AcDbVertex
100
AcDb2dVertex
 10
355.548828125
 20
387.947265625
 30
0.0
  0
SEQEND
  5
4A5
330
4A0
100
AcDbEntity
  8
COTAS
370
     0
  0
HATCH
  5
4A6
330
49C
100
AcDbEntity
  8
COTAS
 62
     7
100
AcDbHatch
 10
0.0
 20
0.0
 30
0.0
210
0.0
220
0.0
230
1.0
  2
SOLID
 70
     1
 71
     0
 91
        1
 92
        1
 93
        3
 72
     1
 10
355.548828125
 20
387.947265625
 11
358.7607421875
 21
387.947265625
 72
     1
 10
358.7607421875
 20
387.947265625
 11
357.154296875
 21
397.58203125
 72
     1
 10
357.154296875
 20
397.58203125
 11
355.548828125
 21
387.947265625
 97
        0
 75
     2
 76
     1
 98
        0
  0
ENDBLK
  5
49F
330
49C
100
AcDbEntity
  8
0
100
AcDbBlockEnd
  0
BLOCK
  5
4A9
330
4A7
100
AcDbEntity
  8
0
100
AcDbBlockBegin
  2
block 170
 70
     0
 71
     0
 10
0.0
 20
0.0
 30
0.0
  3
block 170
  1

  0
MTEXT
  5
4AB
330
4A7
100
AcDbEntity
  8
COTAS
 62
     7
100
AcDbMText
 10
345.9453125
 20
323.056640625
 30
0.0
 40
6.800000000000001
 41
0.0
 71
     7
 72
     1
  1
\fArial|b1|i0|c0|p34;\W1;700
 73
     1
 44
1.0
  0
ENDBLK
  5
4AA
330
4A7
100
AcDbEntity
  8
0
100
AcDbBlockEnd
  0
BLOCK
  5
4AE
330
4AC
100
AcDbEntity
  8
0
100
AcDbBlockBegin
  2
block 171
 70
     0
 71
     0
 10
0.0
 20
0.0
 30
0.0
  3
block 171
  1

  0
POLYLINE
  5
4B0
330
4AC
100
AcDbEntity
  8
COTAS
370
     0
100
AcDb2dPolyline
 66
     1
 10
0.0
 20
0.0
 30
0.0
  0
VERTEX
  5
4B1
330
4B0
100
AcDbEntity
  8
COTAS
370
     0
100
AcDbVertex
100
AcDb2dVertex
 10
304.8720703125
 20
262.6962890625
 30
0.0
  0
VERTEX
  5
4B2
330
4B0
100
AcDbEntity
  8
COTAS
370
     0
100
AcDbVertex
100
AcDb2dVertex
 10
304.8720703125
 20
262.6962890625
 30
0.0
  0
SEQEND
  5
4B3
330
4B0
100
AcDbEntity
  8
COTAS
370
     0
  0
ENDBLK
  5
4AF
330
4AC
100
AcDbEntity
  8
0
100
AcDbBlockEnd
  0
BLOCK
  5
4B6
330
4B4
100
AcDbEntity
  8
0
100
AcDbBlockBegin
  2
block 172
 70
     0
 71
     0
 10
0.0
 20
0.0
 30
0.0
  3
block 172
  1

  0
POLYLINE
  5
4B8
330
4B4
100
AcDbEntity
  8
COTAS
370
     0
100
AcDb2dPolyline
 66
     1
 10
0.0
 20
0.0
 30
0.0
  0
VERTEX
  5
4B9
330
4B8
100
AcDbEntity
  8
COTAS
370
     0
100
AcDbVertex
100
AcDb2dVertex
 10
304.8720703125
 20
397.58203125
 30
0.0
  0
VERTEX
  5
4BA
330
4B8
100
AcDbEntity
  8
COTAS
370
     0
100
AcDbVertex
100
AcDb2dVertex
 10
304.8720703125
 20
397.58203125
 30
0.0
  0
SEQEND
  5
4BB
330
4B8
100
AcDbEntity
  8
COTAS
370
     0
  0
ENDBLK
  5
4B7
330
4B4
100
AcDbEntity
  8
0
100
AcDbBlockEnd
  0
BLOCK
  5
4BE
330
4BC
100
AcDbEntity
  8
0
100
AcDbBlockBegin
  2
block 173
 70
     0
 71
     0
 10
0.0
 20
0.0
 30
0.0
  3
block 173
  1

  0
POLYLINE
  5
4C0
330
4BC
100
AcDbEntity
  8
COTAS
370
     0
100
AcDb2dPolyline
 66
     1
 10
0.0
 20
0.0
 30
0.0
  0
VERTEX
  5
4C1
330
4C0
100
AcDbEntity
  8
COTAS
370
     0
100
AcDbVertex
100
AcDb2dVertex
 10
357.154296875
 20
397.58203125
 30
0.0
  0
VERTEX
  5
4C2
330
4C0
100
AcDbEntity
  8
COTAS
370
     0
100
AcDbVertex
100
AcDb2dVertex
 10
357.154296875
 20
397.58203125
 30
0.0
  0
SEQEND
  5
4C3
330
4C0
100
AcDbEntity
  8
COTAS
370
     0
  0
ENDBLK
  5
4BF
330
4BC
100
AcDbEntity
  8
0
100
AcDbBlockEnd
  0
BLOCK
  5
4C6
330
4C4
100
AcDbEntity
  8
0
100
AcDbBlockBegin
  2
block 174
 70
     0
 71
     0
 10
0.0
 20
0.0
 30
0.0
  3
block 174
  1

  0
INSERT
  5
4C9
330
4C4
100
AcDbEntity
  8
COTAS
100
AcDbBlockReference
  2
block 175
 10
0.0
 20
0.0
 30
0.0
  0
INSERT
  5
4D1
330
4C4
100
AcDbEntity
  8
COTAS
100
AcDbBlockReference
  2
block 176
 10
0.0
 20
0.0
 30
0.0
  0
INSERT
  5
4D9
330
4C4
100
AcDbEntity
  8
COTAS
100
AcDbBlockReference
  2
block 177
 10
0.0
 20
0.0
 30
0.0
  0
INSERT
  5
4E1
330
4C4
100
AcDbEntity
  8
COTAS
100
AcDbBlockReference
  2
block 178
 10
0.0
 20
0.0
 30
0.0
  0
INSERT
  5
4E9
330
4C4
100
AcDbEntity
  8
COTAS
100
AcDbBlockReference
  2
block 179
 10
0.0
 20
0.0
 30
0.0
  0
INSERT
  5
4F4
330
4C4
100
AcDbEntity
  8
COTAS
100
AcDbBlockReference
  2
block 180
 10
0.0
 20
0.0
 30
0.0
  0
INSERT
  5
4FF
330
4C4
100
AcDbEntity
  8
COTAS
100
AcDbBlockReference
  2
block 181
 10
0.0
 20
0.0
 30
0.0
  0
INSERT
  5
504
330
4C4
100
AcDbEntity
  8
COTAS
100
AcDbBlockReference
  2
block 182
 10
0.0
 20
0.0
 30
0.0
  0
INSERT
  5
50C
330
4C4
100
AcDbEntity
  8
COTAS
100
AcDbBlockReference
  2
block 183
 10
0.0
 20
0.0
 30
0.0
  0
INSERT
  5
514
330
4C4
100
AcDbEntity
  8
COTAS
100
AcDbBlockReference
  2
block 184
 10
0.0
 20
0.0
 30
0.0
  0
ENDBLK
  5
4C7
330
4C4
100
AcDbEntity
  8
0
100
AcDbBlockEnd
  0
BLOCK
  5
4CA
330
4C8
100
AcDbEntity
  8
0
100
AcDbBlockBegin
  2
block 175
 70
     0
 71
     0
 10
0.0
 20
0.0
 30
0.0
  3
block 175
  1

  0
POLYLINE
  5
4CC
330
4C8
100
AcDbEntity
  8
COTAS
 62
     7
370
     5
100
AcDb2dPolyline
 66
     1
 10
0.0
 20
0.0
 30
0.0
  0
VERTEX
  5
4CD
330
4CC
100
AcDbEntity
  8
COTAS
 62
     7
370
     5
100
AcDbVertex
100
AcDb2dVertex
 10
335.939453125
 20
374.501953125
 30
0.0
  0
VERTEX
  5
4CE
330
4CC
100
AcDbEntity
  8
COTAS
 62
     7
370
     5
100
AcDbVertex
100
AcDb2dVertex
 10
338.7939453125
 20
374.501953125
 30
0.0
  0
SEQEND
  5
4CF
330
4CC
100
AcDbEntity
  8
COTAS
370
     5
  0
ENDBLK
  5
4CB
330
4C8
100
AcDbEntity
  8
0
100
AcDbBlockEnd
  0
BLOCK
  5
4D2
330
4D0
100
AcDbEntity
  8
0
100
AcDbBlockBegin
  2
block 176
 70
     0
 71
     0
 10
0.0
 20
0.0
 30
0.0
  3
block 176
  1

  0
POLYLINE
  5
4D4
330
4D0
100
AcDbEntity
  8
COTAS
 62
     7
370
     5
100
AcDb2dPolyline
 66
     1
 10
0.0
 20
0.0
 30
0.0
  0
VERTEX
  5
4D5
330
4D4
100
AcDbEntity
  8
COTAS
 62
     7
370
     5
100
AcDbVertex
100
AcDb2dVertex
 10
335.939453125
 20
285.77734375
 30
0.0
  0
VERTEX
  5
4D6
330
4D4
100
AcDbEntity
  8
COTAS
 62
     7
370
     5
100
AcDbVertex
100
AcDb2dVertex
 10
338.7939453125
 20
285.77734375
 30
0.0
  0
SEQEND
  5
4D7
330
4D4
100
AcDbEntity
  8
COTAS
370
     5
  0
ENDBLK
  5
4D3
330
4D0
100
AcDbEntity
  8
0
100
AcDbBlockEnd
  0
BLOCK
  5
4DA
330
4D8
100
AcDbEntity
  8
0
100
AcDbBlockBegin
  2
block 177
 70
     0
 71
     0
 10
0.0
 20
0.0
 30
0.0
  3
block 177
  1

  0
POLYLINE
  5
4DC
330
4D8
100
AcDbEntity
  8
COTAS
 62
     7
370
     5
100
AcDb2dPolyline
 66
     1
 10
0.0
 20
0.0
 30
0.0
  0
VERTEX
  5
4DD
330
4DC
100
AcDbEntity
  8
COTAS
 62
     7
370
     5
100
AcDbVertex
100
AcDb2dVertex
 10
333.9765625
 20
364.8671875
 30
0.0
  0
VERTEX
  5
4DE
330
4DC
100
AcDbEntity
  8
COTAS
 62
     7
370
     5
100
AcDbVertex
100
AcDb2dVertex
 10
333.9765625
 20
334.7431640625
 30
0.0
  0
SEQEND
  5
4DF
330
4DC
100
AcDbEntity
  8
COTAS
370
     5
  0
ENDBLK
  5
4DB
330
4D8
100
AcDbEntity
  8
0
100
AcDbBlockEnd
  0
BLOCK
  5
4E2
330
4E0
100
AcDbEntity
  8
0
100
AcDbBlockBegin
  2
block 178
 70
     0
 71
     0
 10
0.0
 20
0.0
 30
0.0
  3
block 178
  1

  0
POLYLINE
  5
4E4
330
4E0
100
AcDbEntity
  8
COTAS
 62
     7
370
     5
100
AcDb2dPolyline
 66
     1
 10
0.0
 20
0.0
 30
0.0
  0
VERTEX
  5
4E5
330
4E4
100
AcDbEntity
  8
COTAS
 62
     7
370
     5
100
AcDbVertex
100
AcDb2dVertex
 10
333.9765625
 20
295.412109375
 30
0.0
  0
VERTEX
  5
4E6
330
4E4
100
AcDbEntity
  8
COTAS
 62
     7
370
     5
100
AcDbVertex
100
AcDb2dVertex
 10
333.9765625
 20
320.087890625
 30
0.0
  0
SEQEND
  5
4E7
330
4E4
100
AcDbEntity
  8
COTAS
370
     5
  0
ENDBLK
  5
4E3
330
4E0
100
AcDbEntity
  8
0
100
AcDbBlockEnd
  0
BLOCK
  5
4EA
330
4E8
100
AcDbEntity
  8
0
100
AcDbBlockBegin
  2
block 179
 70
     0
 71
     0
 10
0.0
 20
0.0
 30
0.0
  3
block 179
  1

  0
POLYLINE
  5
4EC
330
4E8
100
AcDbEntity
  8
COTAS
370
     0
100
AcDb2dPolyline
 66
     1
 10
0.0
 20
0.0
 30
0.0
  0
VERTEX
  5
4ED
330
4EC
100
AcDbEntity
  8
COTAS
370
     0
100
AcDbVertex
100
AcDb2dVertex
 10
332.37109375
 20
364.8671875
 30
0.0
  0
VERTEX
  5
4EE
330
4EC
100
AcDbEntity
  8
COTAS
370
     0
100
AcDbVertex
100
AcDb2dVertex
 10
335.5830078125
 20
364.8671875
 30
0.0
  0
VERTEX
  5
4EF
330
4EC
100
AcDbEntity
  8
COTAS
370
     0
100
AcDbVertex
100
AcDb2dVertex
 10
333.9765625
 20
374.501953125
 30
0.0
  0
VERTEX
  5
4F0
330
4EC
100
AcDbEntity
  8
COTAS
370
     0
100
AcDbVertex
100
AcDb2dVertex
 10
332.37109375
 20
364.8671875
 30
0.0
  0
SEQEND
  5
4F1
330
4EC
100
AcDbEntity
  8
COTAS
370
     0
  0
HATCH
  5
4F2
330
4E8
100
AcDbEntity
  8
COTAS
 62
     7
100
AcDbHatch
 10
0.0
 20
0.0
 30
0.0
210
0.0
220
0.0
230
1.0
  2
SOLID
 70
     1
 71
     0
 91
        1
 92
        1
 93
        3
 72
     1
 10
332.37109375
 20
364.8671875
 11
335.5830078125
 21
364.8671875
 72
     1
 10
335.5830078125
 20
364.8671875
 11
333.9765625
 21
374.501953125
 72
     1
 10
333.9765625
 20
374.501953125
 11
332.37109375
 21
364.8671875
 97
        0
 75
     2
 76
     1
 98
        0
  0
ENDBLK
  5
4EB
330
4E8
100
AcDbEntity
  8
0
100
AcDbBlockEnd
  0
BLOCK
  5
4F5
330
4F3
100
AcDbEntity
  8
0
100
AcDbBlockBegin
  2
block 180
 70
     0
 71
     0
 10
0.0
 20
0.0
 30
0.0
  3
block 180
  1

  0
POLYLINE
  5
4F7
330
4F3
100
AcDbEntity
  8
COTAS
370
     0
100
AcDb2dPolyline
 66
     1
 10
0.0
 20
0.0
 30
0.0
  0
VERTEX
  5
4F8
330
4F7
100
AcDbEntity
  8
COTAS
370
     0
100
AcDbVertex
100
AcDb2dVertex
 10
332.37109375
 20
295.412109375
 30
0.0
  0
VERTEX
  5
4F9
330
4F7
100
AcDbEntity
  8
COTAS
370
     0
100
AcDbVertex
100
AcDb2dVertex
 10
335.5830078125
 20
295.412109375
 30
0.0
  0
VERTEX
  5
4FA
330
4F7
100
AcDbEntity
  8
COTAS
370
     0
100
AcDbVertex
100
AcDb2dVertex
 10
333.9765625
 20
285.77734375
 30
0.0
  0
VERTEX
  5
4FB
330
4F7
100
AcDbEntity
  8
COTAS
370
     0
100
AcDbVertex
100
AcDb2dVertex
 10
332.37109375
 20
295.412109375
 30
0.0
  0
SEQEND
  5
4FC
330
4F7
100
AcDbEntity
  8
COTAS
370
     0
  0
HATCH
  5
4FD
330
4F3
100
AcDbEntity
  8
COTAS
 62
     7
100
AcDbHatch
 10
0.0
 20
0.0
 30
0.0
210
0.0
220
0.0
230
1.0
  2
SOLID
 70
     1
 71
     0
 91
        1
 92
        1
 93
        3
 72
     1
 10
332.37109375
 20
295.412109375
 11
335.5830078125
 21
295.412109375
 72
     1
 10
335.5830078125
 20
295.412109375
 11
333.9765625
 21
285.77734375
 72
     1
 10
333.9765625
 20
285.77734375
 11
332.37109375
 21
295.412109375
 97
        0
 75
     2
 76
     1
 98
        0
  0
ENDBLK
  5
4F6
330
4F3
100
AcDbEntity
  8
0
100
AcDbBlockEnd
  0
BLOCK
  5
500
330
4FE
100
AcDbEntity
  8
0
100
AcDbBlockBegin
  2
block 181
 70
     0
 71
     0
 10
0.0
 20
0.0
 30
0.0
  3
block 181
  1

  0
MTEXT
  5
502
330
4FE
100
AcDbEntity
  8
COTAS
 62
     7
100
AcDbMText
 10
322.998046875
 20
322.66015625
 30
0.0
 40
6.800000000000001
 41
0.0
 71
     7
 72
     1
  1
\fArial|b1|i0|c0|p34;\W1;460
 73
     1
 44
1.0
  0
ENDBLK
  5
501
330
4FE
100
AcDbEntity
  8
0
100
AcDbBlockEnd
  0
BLOCK
  5
505
330
503
100
AcDbEntity
  8
0
100
AcDbBlockBegin
  2
block 182
 70
     0
 71
     0
 10
0.0
 20
0.0
 30
0.0
  3
block 182
  1

  0
POLYLINE
  5
507
330
503
100
AcDbEntity
  8
COTAS
370
     0
100
AcDb2dPolyline
 66
     1
 10
0.0
 20
0.0
 30
0.0
  0
VERTEX
  5
508
330
507
100
AcDbEntity
  8
COTAS
370
     0
100
AcDbVertex
100
AcDb2dVertex
 10
333.5302734375
 20
374.501953125
 30
0.0
  0
VERTEX
  5
509
330
507
100
AcDbEntity
  8
COTAS
370
     0
100
AcDbVertex
100
AcDb2dVertex
 10
333.5302734375
 20
374.501953125
 30
0.0
  0
SEQEND
  5
50A
330
507
100
AcDbEntity
  8
COTAS
370
     0
  0
ENDBLK
  5
506
330
503
100
AcDbEntity
  8
0
100
AcDbBlockEnd
  0
BLOCK
  5
50D
330
50B
100
AcDbEntity
  8
0
100
AcDbBlockBegin
  2
block 183
 70
     0
 71
     0
 10
0.0
 20
0.0
 30
0.0
  3
block 183
  1

  0
POLYLINE
  5
50F
330
50B
100
AcDbEntity
  8
COTAS
370
     0
100
AcDb2dPolyline
 66
     1
 10
0.0
 20
0.0
 30
0.0
  0
VERTEX
  5
510
330
50F
100
AcDbEntity
  8
COTAS
370
     0
100
AcDbVertex
100
AcDb2dVertex
 10
333.5302734375
 20
285.77734375
 30
0.0
  0
VERTEX
  5
511
330
50F
100
AcDbEntity
  8
COTAS
370
     0
100
AcDbVertex
100
AcDb2dVertex
 10
333.5302734375
 20
285.77734375
 30
0.0
  0
SEQEND
  5
512
330
50F
100
AcDbEntity
  8
COTAS
370
     0
  0
ENDBLK
  5
50E
330
50B
100
AcDbEntity
  8
0
100
AcDbBlockEnd
  0
BLOCK
  5
515
330
513
100
AcDbEntity
  8
0
100
AcDbBlockBegin
  2
block 184
 70
     0
 71
     0
 10
0.0
 20
0.0
 30
0.0
  3
block 184
  1

  0
POLYLINE
  5
517
330
513
100
AcDbEntity
  8
COTAS
370
     0
100
AcDb2dPolyline
 66
     1
 10
0.0
 20
0.0
 30
0.0
  0
VERTEX
  5
518
330
517
100
AcDbEntity
  8
COTAS
370
     0
100
AcDbVertex
100
AcDb2dVertex
 10
333.9765625
 20
285.77734375
 30
0.0
  0
VERTEX
  5
519
330
517
100
AcDbEntity
  8
COTAS
370
     0
100
AcDbVertex
100
AcDb2dVertex
 10
333.9765625
 20
285.77734375
 30
0.0
  0
SEQEND
  5
51A
330
517
100
AcDbEntity
  8
COTAS
370
     0
  0
ENDBLK
  5
516
330
513
100
AcDbEntity
  8
0
100
AcDbBlockEnd
  0
BLOCK
  5
51D
330
51B
100
AcDbEntity
  8
0
100
AcDbBlockBegin
  2
block 185
 70
     0
 71
     0
 10
0.0
 20
0.0
 30
0.0
  3
block 185
  1

  0
INSERT
  5
520
330
51B
100
AcDbEntity
  8
COTAS
100
AcDbBlockReference
  2
block 186
 10
0.0
 20
0.0
 30
0.0
  0
INSERT
  5
528
330
51B
100
AcDbEntity
  8
COTAS
100
AcDbBlockReference
  2
block 187
 10
0.0
 20
0.0
 30
0.0
  0
INSERT
  5
530
330
51B
100
AcDbEntity
  8
COTAS
100
AcDbBlockReference
  2
block 188
 10
0.0
 20
0.0
 30
0.0
  0
INSERT
  5
538
330
51B
100
AcDbEntity
  8
COTAS
100
AcDbBlockReference
  2
block 189
 10
0.0
 20
0.0
 30
0.0
  0
INSERT
  5
540
330
51B
100
AcDbEntity
  8
COTAS
100
AcDbBlockReference
  2
block 190
 10
0.0
 20
0.0
 30
0.0
  0
INSERT
  5
548
330
51B
100
AcDbEntity
  8
COTAS
100
AcDbBlockReference
  2
block 191
 10
0.0
 20
0.0
 30
0.0
  0
INSERT
  5
553
330
51B
100
AcDbEntity
  8
COTAS
100
AcDbBlockReference
  2
block 192
 10
0.0
 20
0.0
 30
0.0
  0
INSERT
  5
55E
330
51B
100
AcDbEntity
  8
COTAS
100
AcDbBlockReference
  2
block 193
 10
0.0
 20
0.0
 30
0.0
  0
INSERT
  5
563
330
51B
100
AcDbEntity
  8
COTAS
100
AcDbBlockReference
  2
block 194
 10
0.0
 20
0.0
 30
0.0
  0
INSERT
  5
56B
330
51B
100
AcDbEntity
  8
COTAS
100
AcDbBlockReference
  2
block 195
 10
0.0
 20
0.0
 30
0.0
  0
INSERT
  5
573
330
51B
100
AcDbEntity
  8
COTAS
100
AcDbBlockReference
  2
block 196
 10
0.0
 20
0.0
 30
0.0
  0
ENDBLK
  5
51E
330
51B
100
AcDbEntity
  8
0
100
AcDbBlockEnd
  0
BLOCK
  5
521
330
51F
100
AcDbEntity
  8
0
100
AcDbBlockBegin
  2
block 186
 70
     0
 71
     0
 10
0.0
 20
0.0
 30
0.0
  3
block 186
  1

  0
POLYLINE
  5
523
330
51F
100
AcDbEntity
  8
COTAS
 62
     7
370
     5
100
AcDb2dPolyline
 66
     1
 10
0.0
 20
0.0
 30
0.0
  0
VERTEX
  5
524
330
523
100
AcDbEntity
  8
COTAS
 62
     7
370
     5
100
AcDbVertex
100
AcDb2dVertex
 10
34.52392578125
 20
552.01708984375
 30
0.0
  0
VERTEX
  5
525
330
523
100
AcDbEntity
  8
COTAS
 62
     7
370
     5
100
AcDbVertex
100
AcDb2dVertex
 10
34.52392578125
 20
573.30078125
 30
0.0
  0
SEQEND
  5
526
330
523
100
AcDbEntity
  8
COTAS
370
     5
  0
ENDBLK
  5
522
330
51F
100
AcDbEntity
  8
0
100
AcDbBlockEnd
  0
BLOCK
  5
529
330
527
100
AcDbEntity
  8
0
100
AcDbBlockBegin
  2
block 187
 70
     0
 71
     0
 10
0.0
 20
0.0
 30
0.0
  3
block 187
  1

  0
POLYLINE
  5
52B
330
527
100
AcDbEntity
  8
COTAS
 62
     7
370
     5
100
AcDb2dPolyline
 66
     1
 10
0.0
 20
0.0
 30
0.0
  0
VERTEX
  5
52C
330
52B
100
AcDbEntity
  8
COTAS
 62
     7
370
     5
100
AcDbVertex
100
AcDb2dVertex
 10
56.02685546875
 20
548.37744140625
 30
0.0
  0
VERTEX
  5
52D
330
52B
100
AcDbEntity
  8
COTAS
 62
     7
370
     5
100
AcDbVertex
100
AcDb2dVertex
 10
56.02685546875
 20
573.30078125
 30
0.0
  0
SEQEND
  5
52E
330
52B
100
AcDbEntity
  8
COTAS
370
     5
  0
ENDBLK
  5
52A
330
527
100
AcDbEntity
  8
0
100
AcDbBlockEnd
  0
BLOCK
  5
531
330
52F
100
AcDbEntity
  8
0
100
AcDbBlockBegin
  2
block 188
 70
     0
 71
     0
 10
0.0
 20
0.0
 30
0.0
  3
block 188
  1

  0
POLYLINE
  5
533
330
52F
100
AcDbEntity
  8
COTAS
 62
     7
370
     5
100
AcDb2dPolyline
 66
     1
 10
0.0
 20
0.0
 30
0.0
  0
VERTEX
  5
534
330
533
100
AcDbEntity
  8
COTAS
 62
     7
370
     5
100
AcDbVertex
100
AcDb2dVertex
 10
24.888671875
 20
568.4833984375
 30
0.0
  0
VERTEX
  5
535
330
533
100
AcDbEntity
  8
COTAS
 62
     7
370
     5
100
AcDbVertex
100
AcDb2dVertex
 10
15.25439453125
 20
568.4833984375
 30
0.0
  0
SEQEND
  5
536
330
533
100
AcDbEntity
  8
COTAS
370
     5
  0
ENDBLK
  5
532
330
52F
100
AcDbEntity
  8
0
100
AcDbBlockEnd
  0
BLOCK
  5
539
330
537
100
AcDbEntity
  8
0
100
AcDbBlockBegin
  2
block 189
 70
     0
 71
     0
 10
0.0
 20
0.0
 30
0.0
  3
block 189
  1

  0
POLYLINE
  5
53B
330
537
100
AcDbEntity
  8
COTAS
 62
     7
370
     5
100
AcDb2dPolyline
 66
     1
 10
0.0
 20
0.0
 30
0.0
  0
VERTEX
  5
53C
330
53B
100
AcDbEntity
  8
COTAS
 62
     7
370
     5
100
AcDbVertex
100
AcDb2dVertex
 10
65.6611328125
 20
568.4833984375
 30
0.0
  0
VERTEX
  5
53D
330
53B
100
AcDbEntity
  8
COTAS
 62
     7
370
     5
100
AcDbVertex
100
AcDb2dVertex
 10
75.29638671875
 20
568.4833984375
 30
0.0
  0
SEQEND
  5
53E
330
53B
100
AcDbEntity
  8
COTAS
370
     5
  0
ENDBLK
  5
53A
330
537
100
AcDbEntity
  8
0
100
AcDbBlockEnd
  0
BLOCK
  5
541
330
53F
100
AcDbEntity
  8
0
100
AcDbBlockBegin
  2
block 190
 70
     0
 71
     0
 10
0.0
 20
0.0
 30
0.0
  3
block 190
  1

  0
POLYLINE
  5
543
330
53F
100
AcDbEntity
  8
COTAS
 62
     7
370
     5
100
AcDb2dPolyline
 66
     1
 10
0.0
 20
0.0
 30
0.0
  0
VERTEX
  5
544
330
543
100
AcDbEntity
  8
COTAS
 62
     7
370
     5
100
AcDbVertex
100
AcDb2dVertex
 10
34.52392578125
 20
568.4833984375
 30
0.0
  0
VERTEX
  5
545
330
543
100
AcDbEntity
  8
COTAS
 62
     7
370
     5
100
AcDbVertex
100
AcDb2dVertex
 10
56.02685546875
 20
568.4833984375
 30
0.0
  0
SEQEND
  5
546
330
543
100
AcDbEntity
  8
COTAS
370
     5
  0
ENDBLK
  5
542
330
53F
100
AcDbEntity
  8
0
100
AcDbBlockEnd
  0
BLOCK
  5
549
330
547
100
AcDbEntity
  8
0
100
AcDbBlockBegin
  2
block 191
 70
     0
 71
     0
 10
0.0
 20
0.0
 30
0.0
  3
block 191
  1

  0
POLYLINE
  5
54B
330
547
100
AcDbEntity
  8
COTAS
370
     0
100
AcDb2dPolyline
 66
     1
 10
0.0
 20
0.0
 30
0.0
  0
VERTEX
  5
54C
330
54B
100
AcDbEntity
  8
COTAS
370
     0
100
AcDbVertex
100
AcDb2dVertex
 10
24.888671875
 20
570.0888671875
 30
0.0
  0
VERTEX
  5
54D
330
54B
100
AcDbEntity
  8
COTAS
370
     0
100
AcDbVertex
100
AcDb2dVertex
 10
24.888671875
 20
566.87744140625
 30
0.0
  0
VERTEX
  5
54E
330
54B
100
AcDbEntity
  8
COTAS
370
     0
100
AcDbVertex
100
AcDb2dVertex
 10
34.52392578125
 20
568.4833984375
 30
0.0
  0
VERTEX
  5
54F
330
54B
100
AcDbEntity
  8
COTAS
370
     0
100
AcDbVertex
100
AcDb2dVertex
 10
24.888671875
 20
570.0888671875
 30
0.0
  0
SEQEND
  5
550
330
54B
100
AcDbEntity
  8
COTAS
370
     0
  0
HATCH
  5
551
330
547
100
AcDbEntity
  8
COTAS
 62
     7
100
AcDbHatch
 10
0.0
 20
0.0
 30
0.0
210
0.0
220
0.0
230
1.0
  2
SOLID
 70
     1
 71
     0
 91
        1
 92
        1
 93
        3
 72
     1
 10
24.888671875
 20
570.0888671875
 11
24.888671875
 21
566.87744140625
 72
     1
 10
24.888671875
 20
566.87744140625
 11
34.52392578125
 21
568.4833984375
 72
     1
 10
34.52392578125
 20
568.4833984375
 11
24.888671875
 21
570.0888671875
 97
        0
 75
     2
 76
     1
 98
        0
  0
ENDBLK
  5
54A
330
547
100
AcDbEntity
  8
0
100
AcDbBlockEnd
  0
BLOCK
  5
554
330
552
100
AcDbEntity
  8
0
100
AcDbBlockBegin
  2
block 192
 70
     0
 71
     0
 10
0.0
 20
0.0
 30
0.0
  3
block 192
  1

  0
POLYLINE
  5
556
330
552
100
AcDbEntity
  8
COTAS
370
     0
100
AcDb2dPolyline
 66
     1
 10
0.0
 20
0.0
 30
0.0
  0
VERTEX
  5
557
330
556
100
AcDbEntity
  8
COTAS
370
     0
100
AcDbVertex
100
AcDb2dVertex
 10
65.6611328125
 20
570.0888671875
 30
0.0
  0
VERTEX
  5
558
330
556
100
AcDbEntity
  8
COTAS
370
     0
100
AcDbVertex
100
AcDb2dVertex
 10
65.6611328125
 20
566.87744140625
 30
0.0
  0
VERTEX
  5
559
330
556
100
AcDbEntity
  8
COTAS
370
     0
100
AcDbVertex
100
AcDb2dVertex
 10
56.02685546875
 20
568.4833984375
 30
0.0
  0
VERTEX
  5
55A
330
556
100
AcDbEntity
  8
COTAS
370
     0
100
AcDbVertex
100
AcDb2dVertex
 10
65.6611328125
 20
570.0888671875
 30
0.0
  0
SEQEND
  5
55B
330
556
100
AcDbEntity
  8
COTAS
370
     0
  0
HATCH
  5
55C
330
552
100
AcDbEntity
  8
COTAS
 62
     7
100
AcDbHatch
 10
0.0
 20
0.0
 30
0.0
210
0.0
220
0.0
230
1.0
  2
SOLID
 70
     1
 71
     0
 91
        1
 92
        1
 93
        3
 72
     1
 10
65.6611328125
 20
570.0888671875
 11
65.6611328125
 21
566.87744140625
 72
     1
 10
65.6611328125
 20
566.87744140625
 11
56.02685546875
 21
568.4833984375
 72
     1
 10
56.02685546875
 20
568.4833984375
 11
65.6611328125
 21
570.0888671875
 97
        0
 75
     2
 76
     1
 98
        0
  0
ENDBLK
  5
555
330
552
100
AcDbEntity
  8
0
100
AcDbBlockEnd
  0
BLOCK
  5
55F
330
55D
100
AcDbEntity
  8
0
100
AcDbBlockBegin
  2
block 193
 70
     0
 71
     0
 10
0.0
 20
0.0
 30
0.0
  3
block 193
  1

  0
MTEXT
  5
561
330
55D
100
AcDbEntity
  8
COTAS
 62
     7
100
AcDbMText
 10
76.25439453125
 20
563.728515625
 30
0.0
 40
6.800000000000001
 41
0.0
 71
     7
 72
     1
  1
\fArial|b1|i0|c0|p34;\W1;110
 73
     1
 44
1.0
  0
ENDBLK
  5
560
330
55D
100
AcDbEntity
  8
0
100
AcDbBlockEnd
  0
BLOCK
  5
564
330
562
100
AcDbEntity
  8
0
100
AcDbBlockBegin
  2
block 194
 70
     0
 71
     0
 10
0.0
 20
0.0
 30
0.0
  3
block 194
  1

  0
POLYLINE
  5
566
330
562
100
AcDbEntity
  8
COTAS
370
     0
100
AcDb2dPolyline
 66
     1
 10
0.0
 20
0.0
 30
0.0
  0
VERTEX
  5
567
330
566
100
AcDbEntity
  8
COTAS
370
     0
100
AcDbVertex
100
AcDb2dVertex
 10
34.52392578125
 20
549.60888671875
 30
0.0
  0
VERTEX
  5
568
330
566
100
AcDbEntity
  8
COTAS
370
     0
100
AcDbVertex
100
AcDb2dVertex
 10
34.52392578125
 20
549.60888671875
 30
0.0
  0
SEQEND
  5
569
330
566
100
AcDbEntity
  8
COTAS
370
     0
  0
ENDBLK
  5
565
330
562
100
AcDbEntity
  8
0
100
AcDbBlockEnd
  0
BLOCK
  5
56C
330
56A
100
AcDbEntity
  8
0
100
AcDbBlockBegin
  2
block 195
 70
     0
 71
     0
 10
0.0
 20
0.0
 30
0.0
  3
block 195
  1

  0
POLYLINE
  5
56E
330
56A
100
AcDbEntity
  8
COTAS
370
     0
100
AcDb2dPolyline
 66
     1
 10
0.0
 20
0.0
 30
0.0
  0
VERTEX
  5
56F
330
56E
100
AcDbEntity
  8
COTAS
370
     0
100
AcDbVertex
100
AcDb2dVertex
 10
56.02685546875
 20
545.96923828125
 30
0.0
  0
VERTEX
  5
570
330
56E
100
AcDbEntity
  8
COTAS
370
     0
100
AcDbVertex
100
AcDb2dVertex
 10
56.02685546875
 20
545.96923828125
 30
0.0
  0
SEQEND
  5
571
330
56E
100
AcDbEntity
  8
COTAS
370
     0
  0
ENDBLK
  5
56D
330
56A
100
AcDbEntity
  8
0
100
AcDbBlockEnd
  0
BLOCK
  5
574
330
572
100
AcDbEntity
  8
0
100
AcDbBlockBegin
  2
block 196
 70
     0
 71
     0
 10
0.0
 20
0.0
 30
0.0
  3
block 196
  1

  0
POLYLINE
  5
576
330
572
100
AcDbEntity
  8
COTAS
370
     0
100
AcDb2dPolyline
 66
     1
 10
0.0
 20
0.0
 30
0.0
  0
VERTEX
  5
577
330
576
100
AcDbEntity
  8
COTAS
370
     0
100
AcDbVertex
100
AcDb2dVertex
 10
56.02685546875
 20
568.4833984375
 30
0.0
  0
VERTEX
  5
578
330
576
100
AcDbEntity
  8
COTAS
370
     0
100
AcDbVertex
100
AcDb2dVertex
 10
56.02685546875
 20
568.4833984375
 30
0.0
  0
SEQEND
  5
579
330
576
100
AcDbEntity
  8
COTAS
370
     0
  0
ENDBLK
  5
575
330
572
100
AcDbEntity
  8
0
100
AcDbBlockEnd
  0
BLOCK
  5
57C
330
57A
100
AcDbEntity
  8
0
100
AcDbBlockBegin
  2
block 197
 70
     0
 71
     0
 10
0.0
 20
0.0
 30
0.0
  3
block 197
  1

  0
INSERT
  5
57F
330
57A
100
AcDbEntity
  8
COTAS
100
AcDbBlockReference
  2
block 198
 10
0.0
 20
0.0
 30
0.0
  0
INSERT
  5
587
330
57A
100
AcDbEntity
  8
COTAS
100
AcDbBlockReference
  2
block 199
 10
0.0
 20
0.0
 30
0.0
  0
INSERT
  5
58F
330
57A
100
AcDbEntity
  8
COTAS
100
AcDbBlockReference
  2
block 200
 10
0.0
 20
0.0
 30
0.0
  0
INSERT
  5
597
330
57A
100
AcDbEntity
  8
COTAS
100
AcDbBlockReference
  2
block 201
 10
0.0
 20
0.0
 30
0.0
  0
INSERT
  5
59F
330
57A
100
AcDbEntity
  8
COTAS
100
AcDbBlockReference
  2
block 202
 10
0.0
 20
0.0
 30
0.0
  0
INSERT
  5
5A7
330
57A
100
AcDbEntity
  8
COTAS
100
AcDbBlockReference
  2
block 203
 10
0.0
 20
0.0
 30
0.0
  0
INSERT
  5
5B2
330
57A
100
AcDbEntity
  8
COTAS
100
AcDbBlockReference
  2
block 204
 10
0.0
 20
0.0
 30
0.0
  0
INSERT
  5
5BD
330
57A
100
AcDbEntity
  8
COTAS
100
AcDbBlockReference
  2
block 205
 10
0.0
 20
0.0
 30
0.0
  0
INSERT
  5
5C2
330
57A
100
AcDbEntity
  8
COTAS
100
AcDbBlockReference
  2
block 206
 10
0.0
 20
0.0
 30
0.0
  0
INSERT
  5
5CA
330
57A
100
AcDbEntity
  8
COTAS
100
AcDbBlockReference
  2
block 207
 10
0.0
 20
0.0
 30
0.0
  0
INSERT
  5
5D2
330
57A
100
AcDbEntity
  8
COTAS
100
AcDbBlockReference
  2
block 208
 10
0.0
 20
0.0
 30
0.0
  0
ENDBLK
  5
57D
330
57A
100
AcDbEntity
  8
0
100
AcDbBlockEnd
  0
BLOCK
  5
580
330
57E
100
AcDbEntity
  8
0
100
AcDbBlockBegin
  2
block 198
 70
     0
 71
     0
 10
0.0
 20
0.0
 30
0.0
  3
block 198
  1

  0
POLYLINE
  5
582
330
57E
100
AcDbEntity
  8
COTAS
 62
     7
370
     5
100
AcDb2dPolyline
 66
     1
 10
0.0
 20
0.0
 30
0.0
  0
VERTEX
  5
583
330
582
100
AcDbEntity
  8
COTAS
 62
     7
370
     5
100
AcDbVertex
100
AcDb2dVertex
 10
291.5458984375
 20
550.3134765625
 30
0.0
  0
VERTEX
  5
584
330
582
100
AcDbEntity
  8
COTAS
 62
     7
370
     5
100
AcDbVertex
100
AcDb2dVertex
 10
291.5458984375
 20
571.67626953125
 30
0.0
  0
SEQEND
  5
585
330
582
100
AcDbEntity
  8
COTAS
370
     5
  0
ENDBLK
  5
581
330
57E
100
AcDbEntity
  8
0
100
AcDbBlockEnd
  0
BLOCK
  5
588
330
586
100
AcDbEntity
  8
0
100
AcDbBlockBegin
  2
block 199
 70
     0
 71
     0
 10
0.0
 20
0.0
 30
0.0
  3
block 199
  1

  0
POLYLINE
  5
58A
330
586
100
AcDbEntity
  8
COTAS
 62
     7
370
     5
100
AcDb2dPolyline
 66
     1
 10
0.0
 20
0.0
 30
0.0
  0
VERTEX
  5
58B
330
58A
100
AcDbEntity
  8
COTAS
 62
     7
370
     5
100
AcDbVertex
100
AcDb2dVertex
 10
304.2939453125
 20
552.01708984375
 30
0.0
  0
VERTEX
  5
58C
330
58A
100
AcDbEntity
  8
COTAS
 62
     7
370
     5
100
AcDbVertex
100
AcDb2dVertex
 10
304.2939453125
 20
571.67626953125
 30
0.0
  0
SEQEND
  5
58D
330
58A
100
AcDbEntity
  8
COTAS
370
     5
  0
ENDBLK
  5
589
330
586
100
AcDbEntity
  8
0
100
AcDbBlockEnd
  0
BLOCK
  5
590
330
58E
100
AcDbEntity
  8
0
100
AcDbBlockBegin
  2
block 200
 70
     0
 71
     0
 10
0.0
 20
0.0
 30
0.0
  3
block 200
  1

  0
POLYLINE
  5
592
330
58E
100
AcDbEntity
  8
COTAS
 62
     7
370
     5
100
AcDb2dPolyline
 66
     1
 10
0.0
 20
0.0
 30
0.0
  0
VERTEX
  5
593
330
592
100
AcDbEntity
  8
COTAS
 62
     7
370
     5
100
AcDbVertex
100
AcDb2dVertex
 10
313.9287109375
 20
566.85888671875
 30
0.0
  0
VERTEX
  5
594
330
592
100
AcDbEntity
  8
COTAS
 62
     7
370
     5
100
AcDbVertex
100
AcDb2dVertex
 10
323.5634765625
 20
566.85888671875
 30
0.0
  0
SEQEND
  5
595
330
592
100
AcDbEntity
  8
COTAS
370
     5
  0
ENDBLK
  5
591
330
58E
100
AcDbEntity
  8
0
100
AcDbBlockEnd
  0
BLOCK
  5
598
330
596
100
AcDbEntity
  8
0
100
AcDbBlockBegin
  2
block 201
 70
     0
 71
     0
 10
0.0
 20
0.0
 30
0.0
  3
block 201
  1

  0
POLYLINE
  5
59A
330
596
100
AcDbEntity
  8
COTAS
 62
     7
370
     5
100
AcDb2dPolyline
 66
     1
 10
0.0
 20
0.0
 30
0.0
  0
VERTEX
  5
59B
330
59A
100
AcDbEntity
  8
COTAS
 62
     7
370
     5
100
AcDbVertex
100
AcDb2dVertex
 10
281.91162109375
 20
566.85888671875
 30
0.0
  0
VERTEX
  5
59C
330
59A
100
AcDbEntity
  8
COTAS
 62
     7
370
     5
100
AcDbVertex
100
AcDb2dVertex
 10
270.43505859375
 20
566.85888671875
 30
0.0
  0
SEQEND
  5
59D
330
59A
100
AcDbEntity
  8
COTAS
370
     5
  0
ENDBLK
  5
599
330
596
100
AcDbEntity
  8
0
100
AcDbBlockEnd
  0
BLOCK
  5
5A0
330
59E
100
AcDbEntity
  8
0
100
AcDbBlockBegin
  2
block 202
 70
     0
 71
     0
 10
0.0
 20
0.0
 30
0.0
  3
block 202
  1

  0
POLYLINE
  5
5A2
330
59E
100
AcDbEntity
  8
COTAS
 62
     7
370
     5
100
AcDb2dPolyline
 66
     1
 10
0.0
 20
0.0
 30
0.0
  0
VERTEX
  5
5A3
330
5A2
100
AcDbEntity
  8
COTAS
 62
     7
370
     5
100
AcDbVertex
100
AcDb2dVertex
 10
304.2939453125
 20
566.85888671875
 30
0.0
  0
VERTEX
  5
5A4
330
5A2
100
AcDbEntity
  8
COTAS
 62
     7
370
     5
100
AcDbVertex
100
AcDb2dVertex
 10
291.5458984375
 20
566.85888671875
 30
0.0
  0
SEQEND
  5
5A5
330
5A2
100
AcDbEntity
  8
COTAS
370
     5
  0
ENDBLK
  5
5A1
330
59E
100
AcDbEntity
  8
0
100
AcDbBlockEnd
  0
BLOCK
  5
5A8
330
5A6
100
AcDbEntity
  8
0
100
AcDbBlockBegin
  2
block 203
 70
     0
 71
     0
 10
0.0
 20
0.0
 30
0.0
  3
block 203
  1

  0
POLYLINE
  5
5AA
330
5A6
100
AcDbEntity
  8
COTAS
370
     0
100
AcDb2dPolyline
 66
     1
 10
0.0
 20
0.0
 30
0.0
  0
VERTEX
  5
5AB
330
5AA
100
AcDbEntity
  8
COTAS
370
     0
100
AcDbVertex
100
AcDb2dVertex
 10
313.9287109375
 20
568.46484375
 30
0.0
  0
VERTEX
  5
5AC
330
5AA
100
AcDbEntity
  8
COTAS
370
     0
100
AcDbVertex
100
AcDb2dVertex
 10
313.9287109375
 20
565.2529296875
 30
0.0
  0
VERTEX
  5
5AD
330
5AA
100
AcDbEntity
  8
COTAS
370
     0
100
AcDbVertex
100
AcDb2dVertex
 10
304.2939453125
 20
566.85888671875
 30
0.0
  0
VERTEX
  5
5AE
330
5AA
100
AcDbEntity
  8
COTAS
370
     0
100
AcDbVertex
100
AcDb2dVertex
 10
313.9287109375
 20
568.46484375
 30
0.0
  0
SEQEND
  5
5AF
330
5AA
100
AcDbEntity
  8
COTAS
370
     0
  0
HATCH
  5
5B0
330
5A6
100
AcDbEntity
  8
COTAS
 62
     7
100
AcDbHatch
 10
0.0
 20
0.0
 30
0.0
210
0.0
220
0.0
230
1.0
  2
SOLID
 70
     1
 71
     0
 91
        1
 92
        1
 93
        3
 72
     1
 10
313.9287109375
 20
568.46484375
 11
313.9287109375
 21
565.2529296875
 72
     1
 10
313.9287109375
 20
565.2529296875
 11
304.2939453125
 21
566.85888671875
 72
     1
 10
304.2939453125
 20
566.85888671875
 11
313.9287109375
 21
568.46484375
 97
        0
 75
     2
 76
     1
 98
        0
  0
ENDBLK
  5
5A9
330
5A6
100
AcDbEntity
  8
0
100
AcDbBlockEnd
  0
BLOCK
  5
5B3
330
5B1
100
AcDbEntity
  8
0
100
AcDbBlockBegin
  2
block 204
 70
     0
 71
     0
 10
0.0
 20
0.0
 30
0.0
  3
block 204
  1

  0
POLYLINE
  5
5B5
330
5B1
100
AcDbEntity
  8
COTAS
370
     0
100
AcDb2dPolyline
 66
     1
 10
0.0
 20
0.0
 30
0.0
  0
VERTEX
  5
5B6
330
5B5
100
AcDbEntity
  8
COTAS
370
     0
100
AcDbVertex
100
AcDb2dVertex
 10
281.91162109375
 20
568.46484375
 30
0.0
  0
VERTEX
  5
5B7
330
5B5
100
AcDbEntity
  8
COTAS
370
     0
100
AcDbVertex
100
AcDb2dVertex
 10
281.91162109375
 20
565.2529296875
 30
0.0
  0
VERTEX
  5
5B8
330
5B5
100
AcDbEntity
  8
COTAS
370
     0
100
AcDbVertex
100
AcDb2dVertex
 10
291.5458984375
 20
566.85888671875
 30
0.0
  0
VERTEX
  5
5B9
330
5B5
100
AcDbEntity
  8
COTAS
370
     0
100
AcDbVertex
100
AcDb2dVertex
 10
281.91162109375
 20
568.46484375
 30
0.0
  0
SEQEND
  5
5BA
330
5B5
100
AcDbEntity
  8
COTAS
370
     0
  0
HATCH
  5
5BB
330
5B1
100
AcDbEntity
  8
COTAS
 62
     7
100
AcDbHatch
 10
0.0
 20
0.0
 30
0.0
210
0.0
220
0.0
230
1.0
  2
SOLID
 70
     1
 71
     0
 91
        1
 92
        1
 93
        3
 72
     1
 10
281.91162109375
 20
568.46484375
 11
281.91162109375
 21
565.2529296875
 72
     1
 10
281.91162109375
 20
565.2529296875
 11
291.5458984375
 21
566.85888671875
 72
     1
 10
291.5458984375
 20
566.85888671875
 11
281.91162109375
 21
568.46484375
 97
        0
 75
     2
 76
     1
 98
        0
  0
ENDBLK
  5
5B4
330
5B1
100
AcDbEntity
  8
0
100
AcDbBlockEnd
  0
BLOCK
  5
5BE
330
5BC
100
AcDbEntity
  8
0
100
AcDbBlockBegin
  2
block 205
 70
     0
 71
     0
 10
0.0
 20
0.0
 30
0.0
  3
block 205
  1

  0
MTEXT
  5
5C0
330
5BC
100
AcDbEntity
  8
COTAS
 62
     7
100
AcDbMText
 10
253.7099609375
 20
562.10400390625
 30
0.0
 40
6.800000000000001
 41
0.0
 71
     7
 72
     1
  1
\fArial|b1|i0|c0|p34;\W1;70
 73
     1
 44
1.0
  0
ENDBLK
  5
5BF
330
5BC
100
AcDbEntity
  8
0
100
AcDbBlockEnd
  0
BLOCK
  5
5C3
330
5C1
100
AcDbEntity
  8
0
100
AcDbBlockBegin
  2
block 206
 70
     0
 71
     0
 10
0.0
 20
0.0
 30
0.0
  3
block 206
  1

  0
POLYLINE
  5
5C5
330
5C1
100
AcDbEntity
  8
COTAS
370
     0
100
AcDb2dPolyline
 66
     1
 10
0.0
 20
0.0
 30
0.0
  0
VERTEX
  5
5C6
330
5C5
100
AcDbEntity
  8
COTAS
370
     0
100
AcDbVertex
100
AcDb2dVertex
 10
291.5458984375
 20
547.90478515625
 30
0.0
  0
VERTEX
  5
5C7
330
5C5
100
AcDbEntity
  8
COTAS
370
     0
100
AcDbVertex
100
AcDb2dVertex
 10
291.5458984375
 20
547.90478515625
 30
0.0
  0
SEQEND
  5
5C8
330
5C5
100
AcDbEntity
  8
COTAS
370
     0
  0
ENDBLK
  5
5C4
330
5C1
100
AcDbEntity
  8
0
100
AcDbBlockEnd
  0
BLOCK
  5
5CB
330
5C9
100
AcDbEntity
  8
0
100
AcDbBlockBegin
  2
block 207
 70
     0
 71
     0
 10
0.0
 20
0.0
 30
0.0
  3
block 207
  1

  0
POLYLINE
  5
5CD
330
5C9
100
AcDbEntity
  8
COTAS
370
     0
100
AcDb2dPolyline
 66
     1
 10
0.0
 20
0.0
 30
0.0
  0
VERTEX
  5
5CE
330
5CD
100
AcDbEntity
  8
COTAS
370
     0
100
AcDbVertex
100
AcDb2dVertex
 10
304.2939453125
 20
549.60888671875
 30
0.0
  0
VERTEX
  5
5CF
330
5CD
100
AcDbEntity
  8
COTAS
370
     0
100
AcDbVertex
100
AcDb2dVertex
 10
304.2939453125
 20
549.60888671875
 30
0.0
  0
SEQEND
  5
5D0
330
5CD
100
AcDbEntity
  8
COTAS
370
     0
  0
ENDBLK
  5
5CC
330
5C9
100
AcDbEntity
  8
0
100
AcDbBlockEnd
  0
BLOCK
  5
5D3
330
5D1
100
AcDbEntity
  8
0
100
AcDbBlockBegin
  2
block 208
 70
     0
 71
     0
 10
0.0
 20
0.0
 30
0.0
  3
block 208
  1

  0
POLYLINE
  5
5D5
330
5D1
100
AcDbEntity
  8
COTAS
370
     0
100
AcDb2dPolyline
 66
     1
 10
0.0
 20
0.0
 30
0.0
  0
VERTEX
  5
5D6
330
5D5
100
AcDbEntity
  8
COTAS
370
     0
100
AcDbVertex
100
AcDb2dVertex
 10
304.2939453125
 20
566.85888671875
 30
0.0
  0
VERTEX
  5
5D7
330
5D5
100
AcDbEntity
  8
COTAS
370
     0
100
AcDbVertex
100
AcDb2dVertex
 10
304.2939453125
 20
566.85888671875
 30
0.0
  0
SEQEND
  5
5D8
330
5D5
100
AcDbEntity
  8
COTAS
370
     0
  0
ENDBLK
  5
5D4
330
5D1
100
AcDbEntity
  8
0
100
AcDbBlockEnd
  0
BLOCK
  5
5DB
330
5D9
100
AcDbEntity
  8
0
100
AcDbBlockBegin
  2
block 209
 70
     0
 71
     0
 10
0.0
 20
0.0
 30
0.0
  3
block 209
  1

  0
INSERT
  5
5DE
330
5D9
100
AcDbEntity
  8
COTAS
100
AcDbBlockReference
  2
block 210
 10
0.0
 20
0.0
 30
0.0
  0
INSERT
  5
5E6
330
5D9
100
AcDbEntity
  8
COTAS
100
AcDbBlockReference
  2
block 211
 10
0.0
 20
0.0
 30
0.0
  0
INSERT
  5
5EE
330
5D9
100
AcDbEntity
  8
COTAS
100
AcDbBlockReference
  2
block 212
 10
0.0
 20
0.0
 30
0.0
  0
INSERT
  5
5F6
330
5D9
100
AcDbEntity
  8
COTAS
100
AcDbBlockReference
  2
block 213
 10
0.0
 20
0.0
 30
0.0
  0
INSERT
  5
5FE
330
5D9
100
AcDbEntity
  8
COTAS
100
AcDbBlockReference
  2
block 214
 10
0.0
 20
0.0
 30
0.0
  0
INSERT
  5
606
330
5D9
100
AcDbEntity
  8
COTAS
100
AcDbBlockReference
  2
block 215
 10
0.0
 20
0.0
 30
0.0
  0
INSERT
  5
60E
330
5D9
100
AcDbEntity
  8
COTAS
100
AcDbBlockReference
  2
block 216
 10
0.0
 20
0.0
 30
0.0
  0
INSERT
  5
619
330
5D9
100
AcDbEntity
  8
COTAS
100
AcDbBlockReference
  2
block 217
 10
0.0
 20
0.0
 30
0.0
  0
INSERT
  5
624
330
5D9
100
AcDbEntity
  8
COTAS
100
AcDbBlockReference
  2
block 218
 10
0.0
 20
0.0
 30
0.0
  0
INSERT
  5
629
330
5D9
100
AcDbEntity
  8
COTAS
100
AcDbBlockReference
  2
block 219
 10
0.0
 20
0.0
 30
0.0
  0
INSERT
  5
631
330
5D9
100
AcDbEntity
  8
COTAS
100
AcDbBlockReference
  2
block 220
 10
0.0
 20
0.0
 30
0.0
  0
INSERT
  5
639
330
5D9
100
AcDbEntity
  8
COTAS
100
AcDbBlockReference
  2
block 221
 10
0.0
 20
0.0
 30
0.0
  0
ENDBLK
  5
5DC
330
5D9
100
AcDbEntity
  8
0
100
AcDbBlockEnd
  0
BLOCK
  5
5DF
330
5DD
100
AcDbEntity
  8
0
100
AcDbBlockBegin
  2
block 210
 70
     0
 71
     0
 10
0.0
 20
0.0
 30
0.0
  3
block 210
  1

  0
POLYLINE
  5
5E1
330
5DD
100
AcDbEntity
  8
COTAS
 62
     7
370
     5
100
AcDb2dPolyline
 66
     1
 10
0.0
 20
0.0
 30
0.0
  0
VERTEX
  5
5E2
330
5E1
100
AcDbEntity
  8
COTAS
 62
     7
370
     5
100
AcDbVertex
100
AcDb2dVertex
 10
530.2744140625
 20
537.5654296875
 30
0.0
  0
VERTEX
  5
5E3
330
5E1
100
AcDbEntity
  8
COTAS
 62
     7
370
     5
100
AcDbVertex
100
AcDb2dVertex
 10
573.68359375
 20
537.5654296875
 30
0.0
  0
SEQEND
  5
5E4
330
5E1
100
AcDbEntity
  8
COTAS
370
     5
  0
ENDBLK
  5
5E0
330
5DD
100
AcDbEntity
  8
0
100
AcDbBlockEnd
  0
BLOCK
  5
5E7
330
5E5
100
AcDbEntity
  8
0
100
AcDbBlockBegin
  2
block 211
 70
     0
 71
     0
 10
0.0
 20
0.0
 30
0.0
  3
block 211
  1

  0
POLYLINE
  5
5E9
330
5E5
100
AcDbEntity
  8
COTAS
 62
     7
370
     5
100
AcDb2dPolyline
 66
     1
 10
0.0
 20
0.0
 30
0.0
  0
VERTEX
  5
5EA
330
5E9
100
AcDbEntity
  8
COTAS
 62
     7
370
     5
100
AcDbVertex
100
AcDb2dVertex
 10
542.658203125
 20
551.0537109375
 30
0.0
  0
VERTEX
  5
5EB
330
5E9
100
AcDbEntity
  8
COTAS
 62
     7
370
     5
100
AcDbVertex
100
AcDb2dVertex
 10
573.68359375
 20
551.0537109375
 30
0.0
  0
SEQEND
  5
5EC
330
5E9
100
AcDbEntity
  8
COTAS
370
     5
  0
ENDBLK
  5
5E8
330
5E5
100
AcDbEntity
  8
0
100
AcDbBlockEnd
  0
BLOCK
  5
5EF
330
5ED
100
AcDbEntity
  8
0
100
AcDbBlockBegin
  2
block 212
 70
     0
 71
     0
 10
0.0
 20
0.0
 30
0.0
  3
block 212
  1

  0
POLYLINE
  5
5F1
330
5ED
100
AcDbEntity
  8
COTAS
 62
     7
370
     5
100
AcDb2dPolyline
 66
     1
 10
0.0
 20
0.0
 30
0.0
  0
VERTEX
  5
5F2
330
5F1
100
AcDbEntity
  8
COTAS
 62
     7
370
     5
100
AcDbVertex
100
AcDb2dVertex
 10
568.8662109375
 20
560.68798828125
 30
0.0
  0
VERTEX
  5
5F3
330
5F1
100
AcDbEntity
  8
COTAS
 62
     7
370
     5
100
AcDbVertex
100
AcDb2dVertex
 10
568.8662109375
 20
570.3232421875
 30
0.0
  0
SEQEND
  5
5F4
330
5F1
100
AcDbEntity
  8
COTAS
370
     5
  0
ENDBLK
  5
5F0
330
5ED
100
AcDbEntity
  8
0
100
AcDbBlockEnd
  0
BLOCK
  5
5F7
330
5F5
100
AcDbEntity
  8
0
100
AcDbBlockBegin
  2
block 213
 70
     0
 71
     0
 10
0.0
 20
0.0
 30
0.0
  3
block 213
  1

  0
POLYLINE
  5
5F9
330
5F5
100
AcDbEntity
  8
COTAS
 62
     7
370
     5
100
AcDb2dPolyline
 66
     1
 10
0.0
 20
0.0
 30
0.0
  0
VERTEX
  5
5FA
330
5F9
100
AcDbEntity
  8
COTAS
 62
     7
370
     5
100
AcDbVertex
100
AcDb2dVertex
 10
568.8662109375
 20
527.93017578125
 30
0.0
  0
VERTEX
  5
5FB
330
5F9
100
AcDbEntity
  8
COTAS
 62
     7
370
     5
100
AcDbVertex
100
AcDb2dVertex
 10
568.8662109375
 20
509.04248046875
 30
0.0
  0
SEQEND
  5
5FC
330
5F9
100
AcDbEntity
  8
COTAS
370
     5
  0
ENDBLK
  5
5F8
330
5F5
100
AcDbEntity
  8
0
100
AcDbBlockEnd
  0
BLOCK
  5
5FF
330
5FD
100
AcDbEntity
  8
0
100
AcDbBlockBegin
  2
block 214
 70
     0
 71
     0
 10
0.0
 20
0.0
 30
0.0
  3
block 214
  1

  0
POLYLINE
  5
601
330
5FD
100
AcDbEntity
  8
COTAS
 62
     7
370
     5
100
AcDb2dPolyline
 66
     1
 10
0.0
 20
0.0
 30
0.0
  0
VERTEX
  5
602
330
601
100
AcDbEntity
  8
COTAS
 62
     7
370
     5
100
AcDbVertex
100
AcDb2dVertex
 10
568.8662109375
 20
509.04248046875
 30
0.0
  0
VERTEX
  5
603
330
601
100
AcDbEntity
  8
COTAS
 62
     7
370
     5
100
AcDbVertex
100
AcDb2dVertex
 10
552.7685546875
 20
509.04248046875
 30
0.0
  0
SEQEND
  5
604
330
601
100
AcDbEntity
  8
COTAS
370
     5
  0
ENDBLK
  5
600
330
5FD
100
AcDbEntity
  8
0
100
AcDbBlockEnd
  0
BLOCK
  5
607
330
605
100
AcDbEntity
  8
0
100
AcDbBlockBegin
  2
block 215
 70
     0
 71
     0
 10
0.0
 20
0.0
 30
0.0
  3
block 215
  1

  0
POLYLINE
  5
609
330
605
100
AcDbEntity
  8
COTAS
 62
     7
370
     5
100
AcDb2dPolyline
 66
     1
 10
0.0
 20
0.0
 30
0.0
  0
VERTEX
  5
60A
330
609
100
AcDbEntity
  8
COTAS
 62
     7
370
     5
100
AcDbVertex
100
AcDb2dVertex
 10
568.8662109375
 20
551.0537109375
 30
0.0
  0
VERTEX
  5
60B
330
609
100
AcDbEntity
  8
COTAS
 62
     7
370
     5
100
AcDbVertex
100
AcDb2dVertex
 10
568.8662109375
 20
537.5654296875
 30
0.0
  0
SEQEND
  5
60C
330
609
100
AcDbEntity
  8
COTAS
370
     5
  0
ENDBLK
  5
608
330
605
100
AcDbEntity
  8
0
100
AcDbBlockEnd
  0
BLOCK
  5
60F
330
60D
100
AcDbEntity
  8
0
100
AcDbBlockBegin
  2
block 216
 70
     0
 71
     0
 10
0.0
 20
0.0
 30
0.0
  3
block 216
  1

  0
POLYLINE
  5
611
330
60D
100
AcDbEntity
  8
COTAS
370
     0
100
AcDb2dPolyline
 66
     1
 10
0.0
 20
0.0
 30
0.0
  0
VERTEX
  5
612
330
611
100
AcDbEntity
  8
COTAS
370
     0
100
AcDbVertex
100
AcDb2dVertex
 10
567.2607421875
 20
560.68798828125
 30
0.0
  0
VERTEX
  5
613
330
611
100
AcDbEntity
  8
COTAS
370
     0
100
AcDbVertex
100
AcDb2dVertex
 10
570.47265625
 20
560.68798828125
 30
0.0
  0
VERTEX
  5
614
330
611
100
AcDbEntity
  8
COTAS
370
     0
100
AcDbVertex
100
AcDb2dVertex
 10
568.8662109375
 20
551.0537109375
 30
0.0
  0
VERTEX
  5
615
330
611
100
AcDbEntity
  8
COTAS
370
     0
100
AcDbVertex
100
AcDb2dVertex
 10
567.2607421875
 20
560.68798828125
 30
0.0
  0
SEQEND
  5
616
330
611
100
AcDbEntity
  8
COTAS
370
     0
  0
HATCH
  5
617
330
60D
100
AcDbEntity
  8
COTAS
 62
     7
100
AcDbHatch
 10
0.0
 20
0.0
 30
0.0
210
0.0
220
0.0
230
1.0
  2
SOLID
 70
     1
 71
     0
 91
        1
 92
        1
 93
        3
 72
     1
 10
567.2607421875
 20
560.68798828125
 11
570.47265625
 21
560.68798828125
 72
     1
 10
570.47265625
 20
560.68798828125
 11
568.8662109375
 21
551.0537109375
 72
     1
 10
568.8662109375
 20
551.0537109375
 11
567.2607421875
 21
560.68798828125
 97
        0
 75
     2
 76
     1
 98
        0
  0
ENDBLK
  5
610
330
60D
100
AcDbEntity
  8
0
100
AcDbBlockEnd
  0
BLOCK
  5
61A
330
618
100
AcDbEntity
  8
0
100
AcDbBlockBegin
  2
block 217
 70
     0
 71
     0
 10
0.0
 20
0.0
 30
0.0
  3
block 217
  1

  0
POLYLINE
  5
61C
330
618
100
AcDbEntity
  8
COTAS
370
     0
100
AcDb2dPolyline
 66
     1
 10
0.0
 20
0.0
 30
0.0
  0
VERTEX
  5
61D
330
61C
100
AcDbEntity
  8
COTAS
370
     0
100
AcDbVertex
100
AcDb2dVertex
 10
567.2607421875
 20
527.93017578125
 30
0.0
  0
VERTEX
  5
61E
330
61C
100
AcDbEntity
  8
COTAS
370
     0
100
AcDbVertex
100
AcDb2dVertex
 10
570.47265625
 20
527.93017578125
 30
0.0
  0
VERTEX
  5
61F
330
61C
100
AcDbEntity
  8
COTAS
370
     0
100
AcDbVertex
100
AcDb2dVertex
 10
568.8662109375
 20
537.5654296875
 30
0.0
  0
VERTEX
  5
620
330
61C
100
AcDbEntity
  8
COTAS
370
     0
100
AcDbVertex
100
AcDb2dVertex
 10
567.2607421875
 20
527.93017578125
 30
0.0
  0
SEQEND
  5
621
330
61C
100
AcDbEntity
  8
COTAS
370
     0
  0
HATCH
  5
622
330
618
100
AcDbEntity
  8
COTAS
 62
     7
100
AcDbHatch
 10
0.0
 20
0.0
 30
0.0
210
0.0
220
0.0
230
1.0
  2
SOLID
 70
     1
 71
     0
 91
        1
 92
        1
 93
        3
 72
     1
 10
567.2607421875
 20
527.93017578125
 11
570.47265625
 21
527.93017578125
 72
     1
 10
570.47265625
 20
527.93017578125
 11
568.8662109375
 21
537.5654296875
 72
     1
 10
568.8662109375
 20
537.5654296875
 11
567.2607421875
 21
527.93017578125
 97
        0
 75
     2
 76
     1
 98
        0
  0
ENDBLK
  5
61B
330
618
100
AcDbEntity
  8
0
100
AcDbBlockEnd
  0
BLOCK
  5
625
330
623
100
AcDbEntity
  8
0
100
AcDbBlockBegin
  2
block 218
 70
     0
 71
     0
 10
0.0
 20
0.0
 30
0.0
  3
block 218
  1

  0
MTEXT
  5
627
330
623
100
AcDbEntity
  8
COTAS
 62
     7
100
AcDbMText
 10
552.1416015625
 20
511.615234375
 30
0.0
 40
6.800000000000001
 41
0.0
 71
     7
 72
     1
  1
\fArial|b1|i0|c0|p34;\W1;70
 73
     1
 44
1.0
  0
ENDBLK
  5
626
330
623
100
AcDbEntity
  8
0
100
AcDbBlockEnd
  0
BLOCK
  5
62A
330
628
100
AcDbEntity
  8
0
100
AcDbBlockBegin
  2
block 219
 70
     0
 71
     0
 10
0.0
 20
0.0
 30
0.0
  3
block 219
  1

  0
POLYLINE
  5
62C
330
628
100
AcDbEntity
  8
COTAS
370
     0
100
AcDb2dPolyline
 66
     1
 10
0.0
 20
0.0
 30
0.0
  0
VERTEX
  5
62D
330
62C
100
AcDbEntity
  8
COTAS
370
     0
100
AcDbVertex
100
AcDb2dVertex
 10
527.865234375
 20
537.5654296875
 30
0.0
  0
VERTEX
  5
62E
330
62C
100
AcDbEntity
  8
COTAS
370
     0
100
AcDbVertex
100
AcDb2dVertex
 10
527.865234375
 20
537.5654296875
 30
0.0
  0
SEQEND
  5
62F
330
62C
100
AcDbEntity
  8
COTAS
370
     0
  0
ENDBLK
  5
62B
330
628
100
AcDbEntity
  8
0
100
AcDbBlockEnd
  0
BLOCK
  5
632
330
630
100
AcDbEntity
  8
0
100
AcDbBlockBegin
  2
block 220
 70
     0
 71
     0
 10
0.0
 20
0.0
 30
0.0
  3
block 220
  1

  0
POLYLINE
  5
634
330
630
100
AcDbEntity
  8
COTAS
370
     0
100
AcDb2dPolyline
 66
     1
 10
0.0
 20
0.0
 30
0.0
  0
VERTEX
  5
635
330
634
100
AcDbEntity
  8
COTAS
370
     0
100
AcDbVertex
100
AcDb2dVertex
 10
540.2490234375
 20
551.0537109375
 30
0.0
  0
VERTEX
  5
636
330
634
100
AcDbEntity
  8
COTAS
370
     0
100
AcDbVertex
100
AcDb2dVertex
 10
540.2490234375
 20
551.0537109375
 30
0.0
  0
SEQEND
  5
637
330
634
100
AcDbEntity
  8
COTAS
370
     0
  0
ENDBLK
  5
633
330
630
100
AcDbEntity
  8
0
100
AcDbBlockEnd
  0
BLOCK
  5
63A
330
638
100
AcDbEntity
  8
0
100
AcDbBlockBegin
  2
block 221
 70
     0
 71
     0
 10
0.0
 20
0.0
 30
0.0
  3
block 221
  1

  0
POLYLINE
  5
63C
330
638
100
AcDbEntity
  8
COTAS
370
     0
100
AcDb2dPolyline
 66
     1
 10
0.0
 20
0.0
 30
0.0
  0
VERTEX
  5
63D
330
63C
100
AcDbEntity
  8
COTAS
370
     0
100
AcDbVertex
100
AcDb2dVertex
 10
568.8662109375
 20
551.0537109375
 30
0.0
  0
VERTEX
  5
63E
330
63C
100
AcDbEntity
  8
COTAS
370
     0
100
AcDbVertex
100
AcDb2dVertex
 10
568.8662109375
 20
551.0537109375
 30
0.0
  0
SEQEND
  5
63F
330
63C
100
AcDbEntity
  8
COTAS
370
     0
  0
ENDBLK
  5
63B
330
638
100
AcDbEntity
  8
0
100
AcDbBlockEnd
  0
BLOCK
  5
642
330
640
100
AcDbEntity
  8
0
100
AcDbBlockBegin
  2
block 222
 70
     0
 71
     0
 10
0.0
 20
0.0
 30
0.0
  3
block 222
  1

  0
INSERT
  5
645
330
640
100
AcDbEntity
  8
COTAS
100
AcDbBlockReference
  2
block 223
 10
0.0
 20
0.0
 30
0.0
  0
INSERT
  5
64D
330
640
100
AcDbEntity
  8
COTAS
100
AcDbBlockReference
  2
block 224
 10
0.0
 20
0.0
 30
0.0
  0
INSERT
  5
655
330
640
100
AcDbEntity
  8
COTAS
100
AcDbBlockReference
  2
block 225
 10
0.0
 20
0.0
 30
0.0
  0
INSERT
  5
65D
330
640
100
AcDbEntity
  8
COTAS
100
AcDbBlockReference
  2
block 226
 10
0.0
 20
0.0
 30
0.0
  0
INSERT
  5
662
330
640
100
AcDbEntity
  8
COTAS
100
AcDbBlockReference
  2
block 227
 10
0.0
 20
0.0
 30
0.0
  0
INSERT
  5
66A
330
640
100
AcDbEntity
  8
COTAS
100
AcDbBlockReference
  2
block 228
 10
0.0
 20
0.0
 30
0.0
  0
INSERT
  5
675
330
640
100
AcDbEntity
  8
COTAS
100
AcDbBlockReference
  2
block 229
 10
0.0
 20
0.0
 30
0.0
  0
INSERT
  5
680
330
640
100
AcDbEntity
  8
COTAS
100
AcDbBlockReference
  2
block 230
 10
0.0
 20
0.0
 30
0.0
  0
INSERT
  5
688
330
640
100
AcDbEntity
  8
COTAS
100
AcDbBlockReference
  2
block 231
 10
0.0
 20
0.0
 30
0.0
  0
ENDBLK
  5
643
330
640
100
AcDbEntity
  8
0
100
AcDbBlockEnd
  0
BLOCK
  5
646
330
644
100
AcDbEntity
  8
0
100
AcDbBlockBegin
  2
block 223
 70
     0
 71
     0
 10
0.0
 20
0.0
 30
0.0
  3
block 223
  1

  0
POLYLINE
  5
648
330
644
100
AcDbEntity
  8
COTAS
 62
     7
370
     5
100
AcDb2dPolyline
 66
     1
 10
0.0
 20
0.0
 30
0.0
  0
VERTEX
  5
649
330
648
100
AcDbEntity
  8
COTAS
 62
     7
370
     5
100
AcDbVertex
100
AcDb2dVertex
 10
454.689453125
 20
514.3876953125
 30
0.0
  0
VERTEX
  5
64A
330
648
100
AcDbEntity
  8
COTAS
 62
     7
370
     5
100
AcDbVertex
100
AcDb2dVertex
 10
464.32421875
 20
514.3876953125
 30
0.0
  0
SEQEND
  5
64B
330
648
100
AcDbEntity
  8
COTAS
370
     5
  0
ENDBLK
  5
647
330
644
100
AcDbEntity
  8
0
100
AcDbBlockEnd
  0
BLOCK
  5
64E
330
64C
100
AcDbEntity
  8
0
100
AcDbBlockBegin
  2
block 224
 70
     0
 71
     0
 10
0.0
 20
0.0
 30
0.0
  3
block 224
  1

  0
POLYLINE
  5
650
330
64C
100
AcDbEntity
  8
COTAS
 62
     7
370
     5
100
AcDb2dPolyline
 66
     1
 10
0.0
 20
0.0
 30
0.0
  0
VERTEX
  5
651
330
650
100
AcDbEntity
  8
COTAS
 62
     7
370
     5
100
AcDbVertex
100
AcDb2dVertex
 10
464.32421875
 20
514.3876953125
 30
0.0
  0
VERTEX
  5
652
330
650
100
AcDbEntity
  8
COTAS
 62
     7
370
     5
100
AcDbVertex
100
AcDb2dVertex
 10
468.33984375
 20
524.04296875
 30
0.0
  0
SEQEND
  5
653
330
650
100
AcDbEntity
  8
COTAS
370
     5
  0
ENDBLK
  5
64F
330
64C
100
AcDbEntity
  8
0
100
AcDbBlockEnd
  0
BLOCK
  5
656
330
654
100
AcDbEntity
  8
0
100
AcDbBlockBegin
  2
block 225
 70
     0
 71
     0
 10
0.0
 20
0.0
 30
0.0
  3
block 225
  1

  0
POLYLINE
  5
658
330
654
100
AcDbEntity
  8
COTAS
 62
     7
370
     5
100
AcDb2dPolyline
 66
     1
 10
0.0
 20
0.0
 30
0.0
  0
VERTEX
  5
659
330
658
100
AcDbEntity
  8
COTAS
 62
     7
370
     5
100
AcDbVertex
100
AcDb2dVertex
 10
479.5859375
 20
551.0869140625
 30
0.0
  0
VERTEX
  5
65A
330
658
100
AcDbEntity
  8
COTAS
 62
     7
370
     5
100
AcDbVertex
100
AcDb2dVertex
 10
483.28515625
 20
559.9833984375
 30
0.0
  0
SEQEND
  5
65B
330
658
100
AcDbEntity
  8
COTAS
370
     5
  0
ENDBLK
  5
657
330
654
100
AcDbEntity
  8
0
100
AcDbBlockEnd
  0
BLOCK
  5
65E
330
65C
100
AcDbEntity
  8
0
100
AcDbBlockBegin
  2
block 226
 70
     0
 71
     0
 10
0.0
 20
0.0
 30
0.0
  3
block 226
  1

  0
MTEXT
  5
660
330
65C
100
AcDbEntity
  8
COTAS
 62
     7
100
AcDbMText
 10
427.5673828125
 20
509.58984375
 30
0.0
 40
6.800000000000001
 41
0.0
 71
     7
 72
     1
  1
\fArial|b1|i0|c0|p34;\W1;552
 73
     1
 44
1.0
  0
ENDBLK
  5
65F
330
65C
100
AcDbEntity
  8
0
100
AcDbBlockEnd
  0
BLOCK
  5
663
330
661
100
AcDbEntity
  8
0
100
AcDbBlockBegin
  2
block 227
 70
     0
 71
     0
 10
0.0
 20
0.0
 30
0.0
  3
block 227
  1

  0
POLYLINE
  5
665
330
661
100
AcDbEntity
  8
COTAS
 62
     7
370
     5
100
AcDb2dPolyline
 66
     1
 10
0.0
 20
0.0
 30
0.0
  0
VERTEX
  5
666
330
665
100
AcDbEntity
  8
COTAS
 62
     7
370
     5
100
AcDbVertex
100
AcDb2dVertex
 10
475.8857421875
 20
542.19091796875
 30
0.0
  0
VERTEX
  5
667
330
665
100
AcDbEntity
  8
COTAS
 62
     7
370
     5
100
AcDbVertex
100
AcDb2dVertex
 10
472.0390625
 20
532.93896484375
 30
0.0
  0
SEQEND
  5
668
330
665
100
AcDbEntity
  8
COTAS
370
     5
  0
ENDBLK
  5
664
330
661
100
AcDbEntity
  8
0
100
AcDbBlockEnd
  0
BLOCK
  5
66B
330
669
100
AcDbEntity
  8
0
100
AcDbBlockBegin
  2
block 228
 70
     0
 71
     0
 10
0.0
 20
0.0
 30
0.0
  3
block 228
  1

  0
POLYLINE
  5
66D
330
669
100
AcDbEntity
  8
COTAS
370
     0
100
AcDb2dPolyline
 66
     1
 10
0.0
 20
0.0
 30
0.0
  0
VERTEX
  5
66E
330
66D
100
AcDbEntity
  8
COTAS
370
     0
100
AcDbVertex
100
AcDb2dVertex
 10
478.103515625
 20
551.7041015625
 30
0.0
  0
VERTEX
  5
66F
330
66D
100
AcDbEntity
  8
COTAS
370
     0
100
AcDbVertex
100
AcDb2dVertex
 10
481.068359375
 20
550.470703125
 30
0.0
  0
VERTEX
  5
670
330
66D
100
AcDbEntity
  8
COTAS
370
     0
100
AcDbVertex
100
AcDb2dVertex
 10
475.8857421875
 20
542.19091796875
 30
0.0
  0
VERTEX
  5
671
330
66D
100
AcDbEntity
  8
COTAS
370
     0
100
AcDbVertex
100
AcDb2dVertex
 10
478.103515625
 20
551.7041015625
 30
0.0
  0
SEQEND
  5
672
330
66D
100
AcDbEntity
  8
COTAS
370
     0
  0
HATCH
  5
673
330
669
100
AcDbEntity
  8
COTAS
 62
     7
100
AcDbHatch
 10
0.0
 20
0.0
 30
0.0
210
0.0
220
0.0
230
1.0
  2
SOLID
 70
     1
 71
     0
 91
        1
 92
        1
 93
        3
 72
     1
 10
478.103515625
 20
551.7041015625
 11
481.068359375
 21
550.470703125
 72
     1
 10
481.068359375
 20
550.470703125
 11
475.8857421875
 21
542.19091796875
 72
     1
 10
475.8857421875
 20
542.19091796875
 11
478.103515625
 21
551.7041015625
 97
        0
 75
     2
 76
     1
 98
        0
  0
ENDBLK
  5
66C
330
669
100
AcDbEntity
  8
0
100
AcDbBlockEnd
  0
BLOCK
  5
676
330
674
100
AcDbEntity
  8
0
100
AcDbBlockBegin
  2
block 229
 70
     0
 71
     0
 10
0.0
 20
0.0
 30
0.0
  3
block 229
  1

  0
POLYLINE
  5
678
330
674
100
AcDbEntity
  8
COTAS
370
     0
100
AcDb2dPolyline
 66
     1
 10
0.0
 20
0.0
 30
0.0
  0
VERTEX
  5
679
330
678
100
AcDbEntity
  8
COTAS
370
     0
100
AcDbVertex
100
AcDb2dVertex
 10
466.8564453125
 20
524.65966796875
 30
0.0
  0
VERTEX
  5
67A
330
678
100
AcDbEntity
  8
COTAS
370
     0
100
AcDbVertex
100
AcDb2dVertex
 10
469.822265625
 20
523.4267578125
 30
0.0
  0
VERTEX
  5
67B
330
678
100
AcDbEntity
  8
COTAS
370
     0
100
AcDbVertex
100
AcDb2dVertex
 10
472.0390625
 20
532.93896484375
 30
0.0
  0
VERTEX
  5
67C
330
678
100
AcDbEntity
  8
COTAS
370
     0
100
AcDbVertex
100
AcDb2dVertex
 10
466.8564453125
 20
524.65966796875
 30
0.0
  0
SEQEND
  5
67D
330
678
100
AcDbEntity
  8
COTAS
370
     0
  0
HATCH
  5
67E
330
674
100
AcDbEntity
  8
COTAS
 62
     7
100
AcDbHatch
 10
0.0
 20
0.0
 30
0.0
210
0.0
220
0.0
230
1.0
  2
SOLID
 70
     1
 71
     0
 91
        1
 92
        1
 93
        3
 72
     1
 10
466.8564453125
 20
524.65966796875
 11
469.822265625
 21
523.4267578125
 72
     1
 10
469.822265625
 20
523.4267578125
 11
472.0390625
 21
532.93896484375
 72
     1
 10
472.0390625
 20
532.93896484375
 11
466.8564453125
 21
524.65966796875
 97
        0
 75
     2
 76
     1
 98
        0
  0
ENDBLK
  5
677
330
674
100
AcDbEntity
  8
0
100
AcDbBlockEnd
  0
BLOCK
  5
681
330
67F
100
AcDbEntity
  8
0
100
AcDbBlockBegin
  2
block 230
 70
     0
 71
     0
 10
0.0
 20
0.0
 30
0.0
  3
block 230
  1

  0
POLYLINE
  5
683
330
67F
100
AcDbEntity
  8
COTAS
370
     0
100
AcDb2dPolyline
 66
     1
 10
0.0
 20
0.0
 30
0.0
  0
VERTEX
  5
684
330
683
100
AcDbEntity
  8
COTAS
370
     0
100
AcDbVertex
100
AcDb2dVertex
 10
472.0390625
 20
532.93896484375
 30
0.0
  0
VERTEX
  5
685
330
683
100
AcDbEntity
  8
COTAS
370
     0
100
AcDbVertex
100
AcDb2dVertex
 10
472.0390625
 20
532.93896484375
 30
0.0
  0
SEQEND
  5
686
330
683
100
AcDbEntity
  8
COTAS
370
     0
  0
ENDBLK
  5
682
330
67F
100
AcDbEntity
  8
0
100
AcDbBlockEnd
  0
BLOCK
  5
689
330
687
100
AcDbEntity
  8
0
100
AcDbBlockBegin
  2
block 231
 70
     0
 71
     0
 10
0.0
 20
0.0
 30
0.0
  3
block 231
  1

  0
POLYLINE
  5
68B
330
687
100
AcDbEntity
  8
COTAS
370
     0
100
AcDb2dPolyline
 66
     1
 10
0.0
 20
0.0
 30
0.0
  0
VERTEX
  5
68C
330
68B
100
AcDbEntity
  8
COTAS
370
     0
100
AcDbVertex
100
AcDb2dVertex
 10
475.8857421875
 20
542.19091796875
 30
0.0
  0
VERTEX
  5
68D
330
68B
100
AcDbEntity
  8
COTAS
370
     0
100
AcDbVertex
100
AcDb2dVertex
 10
475.8857421875
 20
542.19091796875
 30
0.0
  0
SEQEND
  5
68E
330
68B
100
AcDbEntity
  8
COTAS
370
     0
  0
ENDBLK
  5
68A
330
687
100
AcDbEntity
  8
0
100
AcDbBlockEnd
  0
BLOCK
  5
691
330
68F
100
AcDbEntity
  8
0
100
AcDbBlockBegin
  2
block 232
 70
     0
 71
     0
 10
0.0
 20
0.0
 30
0.0
  3
block 232
  1

  0
INSERT
  5
694
330
68F
100
AcDbEntity
  8
COTAS
100
AcDbBlockReference
  2
block 233
 10
0.0
 20
0.0
 30
0.0
  0
INSERT
  5
69C
330
68F
100
AcDbEntity
  8
COTAS
100
AcDbBlockReference
  2
block 234
 10
0.0
 20
0.0
 30
0.0
  0
INSERT
  5
6A4
330
68F
100
AcDbEntity
  8
COTAS
100
AcDbBlockReference
  2
block 235
 10
0.0
 20
0.0
 30
0.0
  0
INSERT
  5
6AC
330
68F
100
AcDbEntity
  8
COTAS
100
AcDbBlockReference
  2
block 236
 10
0.0
 20
0.0
 30
0.0
  0
INSERT
  5
6B4
330
68F
100
AcDbEntity
  8
COTAS
100
AcDbBlockReference
  2
block 237
 10
0.0
 20
0.0
 30
0.0
  0
INSERT
  5
6BC
330
68F
100
AcDbEntity
  8
COTAS
100
AcDbBlockReference
  2
block 238
 10
0.0
 20
0.0
 30
0.0
  0
INSERT
  5
6C7
330
68F
100
AcDbEntity
  8
COTAS
100
AcDbBlockReference
  2
block 239
 10
0.0
 20
0.0
 30
0.0
  0
INSERT
  5
6D2
330
68F
100
AcDbEntity
  8
COTAS
100
AcDbBlockReference
  2
block 240
 10
0.0
 20
0.0
 30
0.0
  0
INSERT
  5
6D7
330
68F
100
AcDbEntity
  8
COTAS
100
AcDbBlockReference
  2
block 241
 10
0.0
 20
0.0
 30
0.0
  0
INSERT
  5
6DF
330
68F
100
AcDbEntity
  8
COTAS
100
AcDbBlockReference
  2
block 242
 10
0.0
 20
0.0
 30
0.0
  0
INSERT
  5
6E7
330
68F
100
AcDbEntity
  8
COTAS
100
AcDbBlockReference
  2
block 243
 10
0.0
 20
0.0
 30
0.0
  0
ENDBLK
  5
692
330
68F
100
AcDbEntity
  8
0
100
AcDbBlockEnd
  0
BLOCK
  5
695
330
693
100
AcDbEntity
  8
0
100
AcDbBlockBegin
  2
block 233
 70
     0
 71
     0
 10
0.0
 20
0.0
 30
0.0
  3
block 233
  1

  0
POLYLINE
  5
697
330
693
100
AcDbEntity
  8
COTAS
 62
     7
370
     5
100
AcDb2dPolyline
 66
     1
 10
0.0
 20
0.0
 30
0.0
  0
VERTEX
  5
698
330
697
100
AcDbEntity
  8
COTAS
 62
     7
370
     5
100
AcDbVertex
100
AcDb2dVertex
 10
541.4052734375
 20
548.4521484375
 30
0.0
  0
VERTEX
  5
699
330
697
100
AcDbEntity
  8
COTAS
 62
     7
370
     5
100
AcDbVertex
100
AcDb2dVertex
 10
541.4052734375
 20
567.38623046875
 30
0.0
  0
SEQEND
  5
69A
330
697
100
AcDbEntity
  8
COTAS
370
     5
  0
ENDBLK
  5
696
330
693
100
AcDbEntity
  8
0
100
AcDbBlockEnd
  0
BLOCK
  5
69D
330
69B
100
AcDbEntity
  8
0
100
AcDbBlockBegin
  2
block 234
 70
     0
 71
     0
 10
0.0
 20
0.0
 30
0.0
  3
block 234
  1

  0
POLYLINE
  5
69F
330
69B
100
AcDbEntity
  8
COTAS
 62
     7
370
     5
100
AcDb2dPolyline
 66
     1
 10
0.0
 20
0.0
 30
0.0
  0
VERTEX
  5
6A0
330
69F
100
AcDbEntity
  8
COTAS
 62
     7
370
     5
100
AcDbVertex
100
AcDb2dVertex
 10
528.341796875
 20
548.45263671875
 30
0.0
  0
VERTEX
  5
6A1
330
69F
100
AcDbEntity
  8
COTAS
 62
     7
370
     5
100
AcDbVertex
100
AcDb2dVertex
 10
528.341796875
 20
567.38623046875
 30
0.0
  0
SEQEND
  5
6A2
330
69F
100
AcDbEntity
  8
COTAS
370
     5
  0
ENDBLK
  5
69E
330
69B
100
AcDbEntity
  8
0
100
AcDbBlockEnd
  0
BLOCK
  5
6A5
330
6A3
100
AcDbEntity
  8
0
100
AcDbBlockBegin
  2
block 235
 70
     0
 71
     0
 10
0.0
 20
0.0
 30
0.0
  3
block 235
  1

  0
POLYLINE
  5
6A7
330
6A3
100
AcDbEntity
  8
COTAS
 62
     7
370
     5
100
AcDb2dPolyline
 66
     1
 10
0.0
 20
0.0
 30
0.0
  0
VERTEX
  5
6A8
330
6A7
100
AcDbEntity
  8
COTAS
 62
     7
370
     5
100
AcDbVertex
100
AcDb2dVertex
 10
551.0400390625
 20
562.5693359375
 30
0.0
  0
VERTEX
  5
6A9
330
6A7
100
AcDbEntity
  8
COTAS
 62
     7
370
     5
100
AcDbVertex
100
AcDb2dVertex
 10
560.6748046875
 20
562.5693359375
 30
0.0
  0
SEQEND
  5
6AA
330
6A7
100
AcDbEntity
  8
COTAS
370
     5
  0
ENDBLK
  5
6A6
330
6A3
100
AcDbEntity
  8
0
100
AcDbBlockEnd
  0
BLOCK
  5
6AD
330
6AB
100
AcDbEntity
  8
0
100
AcDbBlockBegin
  2
block 236
 70
     0
 71
     0
 10
0.0
 20
0.0
 30
0.0
  3
block 236
  1

  0
POLYLINE
  5
6AF
330
6AB
100
AcDbEntity
  8
COTAS
 62
     7
370
     5
100
AcDb2dPolyline
 66
     1
 10
0.0
 20
0.0
 30
0.0
  0
VERTEX
  5
6B0
330
6AF
100
AcDbEntity
  8
COTAS
 62
     7
370
     5
100
AcDbVertex
100
AcDb2dVertex
 10
518.70703125
 20
562.5693359375
 30
0.0
  0
VERTEX
  5
6B1
330
6AF
100
AcDbEntity
  8
COTAS
 62
     7
370
     5
100
AcDbVertex
100
AcDb2dVertex
 10
504.8017578125
 20
562.5693359375
 30
0.0
  0
SEQEND
  5
6B2
330
6AF
100
AcDbEntity
  8
COTAS
370
     5
  0
ENDBLK
  5
6AE
330
6AB
100
AcDbEntity
  8
0
100
AcDbBlockEnd
  0
BLOCK
  5
6B5
330
6B3
100
AcDbEntity
  8
0
100
AcDbBlockBegin
  2
block 237
 70
     0
 71
     0
 10
0.0
 20
0.0
 30
0.0
  3
block 237
  1

  0
POLYLINE
  5
6B7
330
6B3
100
AcDbEntity
  8
COTAS
 62
     7
370
     5
100
AcDb2dPolyline
 66
     1
 10
0.0
 20
0.0
 30
0.0
  0
VERTEX
  5
6B8
330
6B7
100
AcDbEntity
  8
COTAS
 62
     7
370
     5
100
AcDbVertex
100
AcDb2dVertex
 10
541.4052734375
 20
562.5693359375
 30
0.0
  0
VERTEX
  5
6B9
330
6B7
100
AcDbEntity
  8
COTAS
 62
     7
370
     5
100
AcDbVertex
100
AcDb2dVertex
 10
528.341796875
 20
562.5693359375
 30
0.0
  0
SEQEND
  5
6BA
330
6B7
100
AcDbEntity
  8
COTAS
370
     5
  0
ENDBLK
  5
6B6
330
6B3
100
AcDbEntity
  8
0
100
AcDbBlockEnd
  0
BLOCK
  5
6BD
330
6BB
100
AcDbEntity
  8
0
100
AcDbBlockBegin
  2
block 238
 70
     0
 71
     0
 10
0.0
 20
0.0
 30
0.0
  3
block 238
  1

  0
POLYLINE
  5
6BF
330
6BB
100
AcDbEntity
  8
COTAS
370
     0
100
AcDb2dPolyline
 66
     1
 10
0.0
 20
0.0
 30
0.0
  0
VERTEX
  5
6C0
330
6BF
100
AcDbEntity
  8
COTAS
370
     0
100
AcDbVertex
100
AcDb2dVertex
 10
551.0400390625
 20
564.1748046875
 30
0.0
  0
VERTEX
  5
6C1
330
6BF
100
AcDbEntity
  8
COTAS
370
     0
100
AcDbVertex
100
AcDb2dVertex
 10
551.0400390625
 20
560.96337890625
 30
0.0
  0
VERTEX
  5
6C2
330
6BF
100
AcDbEntity
  8
COTAS
370
     0
100
AcDbVertex
100
AcDb2dVertex
 10
541.4052734375
 20
562.5693359375
 30
0.0
  0
VERTEX
  5
6C3
330
6BF
100
AcDbEntity
  8
COTAS
370
     0
100
AcDbVertex
100
AcDb2dVertex
 10
551.0400390625
 20
564.1748046875
 30
0.0
  0
SEQEND
  5
6C4
330
6BF
100
AcDbEntity
  8
COTAS
370
     0
  0
HATCH
  5
6C5
330
6BB
100
AcDbEntity
  8
COTAS
 62
     7
100
AcDbHatch
 10
0.0
 20
0.0
 30
0.0
210
0.0
220
0.0
230
1.0
  2
SOLID
 70
     1
 71
     0
 91
        1
 92
        1
 93
        3
 72
     1
 10
551.0400390625
 20
564.1748046875
 11
551.0400390625
 21
560.96337890625
 72
     1
 10
551.0400390625
 20
560.96337890625
 11
541.4052734375
 21
562.5693359375
 72
     1
 10
541.4052734375
 20
562.5693359375
 11
551.0400390625
 21
564.1748046875
 97
        0
 75
     2
 76
     1
 98
        0
  0
ENDBLK
  5
6BE
330
6BB
100
AcDbEntity
  8
0
100
AcDbBlockEnd
  0
BLOCK
  5
6C8
330
6C6
100
AcDbEntity
  8
0
100
AcDbBlockBegin
  2
block 239
 70
     0
 71
     0
 10
0.0
 20
0.0
 30
0.0
  3
block 239
  1

  0
POLYLINE
  5
6CA
330
6C6
100
AcDbEntity
  8
COTAS
370
     0
100
AcDb2dPolyline
 66
     1
 10
0.0
 20
0.0
 30
0.0
  0
VERTEX
  5
6CB
330
6CA
100
AcDbEntity
  8
COTAS
370
     0
100
AcDbVertex
100
AcDb2dVertex
 10
518.70703125
 20
564.1748046875
 30
0.0
  0
VERTEX
  5
6CC
330
6CA
100
AcDbEntity
  8
COTAS
370
     0
100
AcDbVertex
100
AcDb2dVertex
 10
518.70703125
 20
560.96337890625
 30
0.0
  0
VERTEX
  5
6CD
330
6CA
100
AcDbEntity
  8
COTAS
370
     0
100
AcDbVertex
100
AcDb2dVertex
 10
528.341796875
 20
562.5693359375
 30
0.0
  0
VERTEX
  5
6CE
330
6CA
100
AcDbEntity
  8
COTAS
370
     0
100
AcDbVertex
100
AcDb2dVertex
 10
518.70703125
 20
564.1748046875
 30
0.0
  0
SEQEND
  5
6CF
330
6CA
100
AcDbEntity
  8
COTAS
370
     0
  0
HATCH
  5
6D0
330
6C6
100
AcDbEntity
  8
COTAS
 62
     7
100
AcDbHatch
 10
0.0
 20
0.0
 30
0.0
210
0.0
220
0.0
230
1.0
  2
SOLID
 70
     1
 71
     0
 91
        1
 92
        1
 93
        3
 72
     1
 10
518.70703125
 20
564.1748046875
 11
518.70703125
 21
560.96337890625
 72
     1
 10
518.70703125
 20
560.96337890625
 11
528.341796875
 21
562.5693359375
 72
     1
 10
528.341796875
 20
562.5693359375
 11
518.70703125
 21
564.1748046875
 97
        0
 75
     2
 76
     1
 98
        0
  0
ENDBLK
  5
6C9
330
6C6
100
AcDbEntity
  8
0
100
AcDbBlockEnd
  0
BLOCK
  5
6D3
330
6D1
100
AcDbEntity
  8
0
100
AcDbBlockBegin
  2
block 240
 70
     0
 71
     0
 10
0.0
 20
0.0
 30
0.0
  3
block 240
  1

  0
MTEXT
  5
6D5
330
6D1
100
AcDbEntity
  8
COTAS
 62
     7
100
AcDbMText
 10
487.97265625
 20
557.814453125
 30
0.0
 40
6.800000000000001
 41
0.0
 71
     7
 72
     1
  1
\fArial|b1|i0|c0|p34;\W1;65
 73
     1
 44
1.0
  0
ENDBLK
  5
6D4
330
6D1
100
AcDbEntity
  8
0
100
AcDbBlockEnd
  0
BLOCK
  5
6D8
330
6D6
100
AcDbEntity
  8
0
100
AcDbBlockBegin
  2
block 241
 70
     0
 71
     0
 10
0.0
 20
0.0
 30
0.0
  3
block 241
  1

  0
POLYLINE
  5
6DA
330
6D6
100
AcDbEntity
  8
COTAS
370
     0
100
AcDb2dPolyline
 66
     1
 10
0.0
 20
0.0
 30
0.0
  0
VERTEX
  5
6DB
330
6DA
100
AcDbEntity
  8
COTAS
370
     0
100
AcDbVertex
100
AcDb2dVertex
 10
541.4052734375
 20
546.04345703125
 30
0.0
  0
VERTEX
  5
6DC
330
6DA
100
AcDbEntity
  8
COTAS
370
     0
100
AcDbVertex
100
AcDb2dVertex
 10
541.4052734375
 20
546.04345703125
 30
0.0
  0
SEQEND
  5
6DD
330
6DA
100
AcDbEntity
  8
COTAS
370
     0
  0
ENDBLK
  5
6D9
330
6D6
100
AcDbEntity
  8
0
100
AcDbBlockEnd
  0
BLOCK
  5
6E0
330
6DE
100
AcDbEntity
  8
0
100
AcDbBlockBegin
  2
block 242
 70
     0
 71
     0
 10
0.0
 20
0.0
 30
0.0
  3
block 242
  1

  0
POLYLINE
  5
6E2
330
6DE
100
AcDbEntity
  8
COTAS
370
     0
100
AcDb2dPolyline
 66
     1
 10
0.0
 20
0.0
 30
0.0
  0
VERTEX
  5
6E3
330
6E2
100
AcDbEntity
  8
COTAS
370
     0
100
AcDbVertex
100
AcDb2dVertex
 10
528.341796875
 20
546.0439453125
 30
0.0
  0
VERTEX
  5
6E4
330
6E2
100
AcDbEntity
  8
COTAS
370
     0
100
AcDbVertex
100
AcDb2dVertex
 10
528.341796875
 20
546.0439453125
 30
0.0
  0
SEQEND
  5
6E5
330
6E2
100
AcDbEntity
  8
COTAS
370
     0
  0
ENDBLK
  5
6E1
330
6DE
100
AcDbEntity
  8
0
100
AcDbBlockEnd
  0
BLOCK
  5
6E8
330
6E6
100
AcDbEntity
  8
0
100
AcDbBlockBegin
  2
block 243
 70
     0
 71
     0
 10
0.0
 20
0.0
 30
0.0
  3
block 243
  1

  0
POLYLINE
  5
6EA
330
6E6
100
AcDbEntity
  8
COTAS
370
     0
100
AcDb2dPolyline
 66
     1
 10
0.0
 20
0.0
 30
0.0
  0
VERTEX
  5
6EB
330
6EA
100
AcDbEntity
  8
COTAS
370
     0
100
AcDbVertex
100
AcDb2dVertex
 10
528.341796875
 20
562.5693359375
 30
0.0
  0
VERTEX
  5
6EC
330
6EA
100
AcDbEntity
  8
COTAS
370
     0
100
AcDbVertex
100
AcDb2dVertex
 10
528.341796875
 20
562.5693359375
 30
0.0
  0
SEQEND
  5
6ED
330
6EA
100
AcDbEntity
  8
COTAS
370
     0
  0
ENDBLK
  5
6E9
330
6E6
100
AcDbEntity
  8
0
100
AcDbBlockEnd
  0
BLOCK
  5
6F0
330
6EE
100
AcDbEntity
  8
0
100
AcDbBlockBegin
  2
block 244
 70
     0
 71
     0
 10
0.0
 20
0.0
 30
0.0
  3
block 244
  1

  0
INSERT
  5
6F3
330
6EE
100
AcDbEntity
  8
COTAS
100
AcDbBlockReference
  2
block 245
 10
0.0
 20
0.0
 30
0.0
  0
INSERT
  5
6FB
330
6EE
100
AcDbEntity
  8
COTAS
100
AcDbBlockReference
  2
block 246
 10
0.0
 20
0.0
 30
0.0
  0
INSERT
  5
703
330
6EE
100
AcDbEntity
  8
COTAS
100
AcDbBlockReference
  2
block 247
 10
0.0
 20
0.0
 30
0.0
  0
INSERT
  5
70B
330
6EE
100
AcDbEntity
  8
COTAS
100
AcDbBlockReference
  2
block 248
 10
0.0
 20
0.0
 30
0.0
  0
INSERT
  5
713
330
6EE
100
AcDbEntity
  8
COTAS
100
AcDbBlockReference
  2
block 249
 10
0.0
 20
0.0
 30
0.0
  0
INSERT
  5
71E
330
6EE
100
AcDbEntity
  8
COTAS
100
AcDbBlockReference
  2
block 250
 10
0.0
 20
0.0
 30
0.0
  0
INSERT
  5
729
330
6EE
100
AcDbEntity
  8
COTAS
100
AcDbBlockReference
  2
block 251
 10
0.0
 20
0.0
 30
0.0
  0
INSERT
  5
72E
330
6EE
100
AcDbEntity
  8
COTAS
100
AcDbBlockReference
  2
block 252
 10
0.0
 20
0.0
 30
0.0
  0
INSERT
  5
736
330
6EE
100
AcDbEntity
  8
COTAS
100
AcDbBlockReference
  2
block 253
 10
0.0
 20
0.0
 30
0.0
  0
INSERT
  5
73E
330
6EE
100
AcDbEntity
  8
COTAS
100
AcDbBlockReference
  2
block 254
 10
0.0
 20
0.0
 30
0.0
  0
ENDBLK
  5
6F1
330
6EE
100
AcDbEntity
  8
0
100
AcDbBlockEnd
  0
BLOCK
  5
6F4
330
6F2
100
AcDbEntity
  8
0
100
AcDbBlockBegin
  2
block 245
 70
     0
 71
     0
 10
0.0
 20
0.0
 30
0.0
  3
block 245
  1

  0
POLYLINE
  5
6F6
330
6F2
100
AcDbEntity
  8
COTAS
 62
     7
370
     5
100
AcDb2dPolyline
 66
     1
 10
0.0
 20
0.0
 30
0.0
  0
VERTEX
  5
6F7
330
6F6
100
AcDbEntity
  8
COTAS
 62
     7
370
     5
100
AcDbVertex
100
AcDb2dVertex
 10
471.5546875
 20
474.5546875
 30
0.0
  0
VERTEX
  5
6F8
330
6F6
100
AcDbEntity
  8
COTAS
 62
     7
370
     5
100
AcDbVertex
100
AcDb2dVertex
 10
590.4423828125
 20
474.5546875
 30
0.0
  0
SEQEND
  5
6F9
330
6F6
100
AcDbEntity
  8
COTAS
370
     5
  0
ENDBLK
  5
6F5
330
6F2
100
AcDbEntity
  8
0
100
AcDbBlockEnd
  0
BLOCK
  5
6FC
330
6FA
100
AcDbEntity
  8
0
100
AcDbBlockBegin
  2
block 246
 70
     0
 71
     0
 10
0.0
 20
0.0
 30
0.0
  3
block 246
  1

  0
POLYLINE
  5
6FE
330
6FA
100
AcDbEntity
  8
COTAS
 62
     7
370
     5
100
AcDb2dPolyline
 66
     1
 10
0.0
 20
0.0
 30
0.0
  0
VERTEX
  5
6FF
330
6FE
100
AcDbEntity
  8
COTAS
 62
     7
370
     5
100
AcDbVertex
100
AcDb2dVertex
 10
571.275390625
 20
551.0537109375
 30
0.0
  0
VERTEX
  5
700
330
6FE
100
AcDbEntity
  8
COTAS
 62
     7
370
     5
100
AcDbVertex
100
AcDb2dVertex
 10
590.4423828125
 20
551.0537109375
 30
0.0
  0
SEQEND
  5
701
330
6FE
100
AcDbEntity
  8
COTAS
370
     5
  0
ENDBLK
  5
6FD
330
6FA
100
AcDbEntity
  8
0
100
AcDbBlockEnd
  0
BLOCK
  5
704
330
702
100
AcDbEntity
  8
0
100
AcDbBlockBegin
  2
block 247
 70
     0
 71
     0
 10
0.0
 20
0.0
 30
0.0
  3
block 247
  1

  0
POLYLINE
  5
706
330
702
100
AcDbEntity
  8
COTAS
 62
     7
370
     5
100
AcDb2dPolyline
 66
     1
 10
0.0
 20
0.0
 30
0.0
  0
VERTEX
  5
707
330
706
100
AcDbEntity
  8
COTAS
 62
     7
370
     5
100
AcDbVertex
100
AcDb2dVertex
 10
585.6259765625
 20
484.18896484375
 30
0.0
  0
VERTEX
  5
708
330
706
100
AcDbEntity
  8
COTAS
 62
     7
370
     5
100
AcDbVertex
100
AcDb2dVertex
 10
585.6259765625
 20
505.4765625
 30
0.0
  0
SEQEND
  5
709
330
706
100
AcDbEntity
  8
COTAS
370
     5
  0
ENDBLK
  5
705
330
702
100
AcDbEntity
  8
0
100
AcDbBlockEnd
  0
BLOCK
  5
70C
330
70A
100
AcDbEntity
  8
0
100
AcDbBlockBegin
  2
block 248
 70
     0
 71
     0
 10
0.0
 20
0.0
 30
0.0
  3
block 248
  1

  0
POLYLINE
  5
70E
330
70A
100
AcDbEntity
  8
COTAS
 62
     7
370
     5
100
AcDb2dPolyline
 66
     1
 10
0.0
 20
0.0
 30
0.0
  0
VERTEX
  5
70F
330
70E
100
AcDbEntity
  8
COTAS
 62
     7
370
     5
100
AcDbVertex
100
AcDb2dVertex
 10
585.6259765625
 20
541.4189453125
 30
0.0
  0
VERTEX
  5
710
330
70E
100
AcDbEntity
  8
COTAS
 62
     7
370
     5
100
AcDbVertex
100
AcDb2dVertex
 10
585.6259765625
 20
520.1318359375
 30
0.0
  0
SEQEND
  5
711
330
70E
100
AcDbEntity
  8
COTAS
370
     5
  0
ENDBLK
  5
70D
330
70A
100
AcDbEntity
  8
0
100
AcDbBlockEnd
  0
BLOCK
  5
714
330
712
100
AcDbEntity
  8
0
100
AcDbBlockBegin
  2
block 249
 70
     0
 71
     0
 10
0.0
 20
0.0
 30
0.0
  3
block 249
  1

  0
POLYLINE
  5
716
330
712
100
AcDbEntity
  8
COTAS
370
     0
100
AcDb2dPolyline
 66
     1
 10
0.0
 20
0.0
 30
0.0
  0
VERTEX
  5
717
330
716
100
AcDbEntity
  8
COTAS
370
     0
100
AcDbVertex
100
AcDb2dVertex
 10
584.01953125
 20
484.18896484375
 30
0.0
  0
VERTEX
  5
718
330
716
100
AcDbEntity
  8
COTAS
370
     0
100
AcDbVertex
100
AcDb2dVertex
 10
587.23046875
 20
484.18896484375
 30
0.0
  0
VERTEX
  5
719
330
716
100
AcDbEntity
  8
COTAS
370
     0
100
AcDbVertex
100
AcDb2dVertex
 10
585.6259765625
 20
474.5546875
 30
0.0
  0
VERTEX
  5
71A
330
716
100
AcDbEntity
  8
COTAS
370
     0
100
AcDbVertex
100
AcDb2dVertex
 10
584.01953125
 20
484.18896484375
 30
0.0
  0
SEQEND
  5
71B
330
716
100
AcDbEntity
  8
COTAS
370
     0
  0
HATCH
  5
71C
330
712
100
AcDbEntity
  8
COTAS
 62
     7
100
AcDbHatch
 10
0.0
 20
0.0
 30
0.0
210
0.0
220
0.0
230
1.0
  2
SOLID
 70
     1
 71
     0
 91
        1
 92
        1
 93
        3
 72
     1
 10
584.01953125
 20
484.18896484375
 11
587.23046875
 21
484.18896484375
 72
     1
 10
587.23046875
 20
484.18896484375
 11
585.6259765625
 21
474.5546875
 72
     1
 10
585.6259765625
 20
474.5546875
 11
584.01953125
 21
484.18896484375
 97
        0
 75
     2
 76
     1
 98
        0
  0
ENDBLK
  5
715
330
712
100
AcDbEntity
  8
0
100
AcDbBlockEnd
  0
BLOCK
  5
71F
330
71D
100
AcDbEntity
  8
0
100
AcDbBlockBegin
  2
block 250
 70
     0
 71
     0
 10
0.0
 20
0.0
 30
0.0
  3
block 250
  1

  0
POLYLINE
  5
721
330
71D
100
AcDbEntity
  8
COTAS
370
     0
100
AcDb2dPolyline
 66
     1
 10
0.0
 20
0.0
 30
0.0
  0
VERTEX
  5
722
330
721
100
AcDbEntity
  8
COTAS
370
     0
100
AcDbVertex
100
AcDb2dVertex
 10
584.01953125
 20
541.4189453125
 30
0.0
  0
VERTEX
  5
723
330
721
100
AcDbEntity
  8
COTAS
370
     0
100
AcDbVertex
100
AcDb2dVertex
 10
587.23046875
 20
541.4189453125
 30
0.0
  0
VERTEX
  5
724
330
721
100
AcDbEntity
  8
COTAS
370
     0
100
AcDbVertex
100
AcDb2dVertex
 10
585.6259765625
 20
551.0537109375
 30
0.0
  0
VERTEX
  5
725
330
721
100
AcDbEntity
  8
COTAS
370
     0
100
AcDbVertex
100
AcDb2dVertex
 10
584.01953125
 20
541.4189453125
 30
0.0
  0
SEQEND
  5
726
330
721
100
AcDbEntity
  8
COTAS
370
     0
  0
HATCH
  5
727
330
71D
100
AcDbEntity
  8
COTAS
 62
     7
100
AcDbHatch
 10
0.0
 20
0.0
 30
0.0
210
0.0
220
0.0
230
1.0
  2
SOLID
 70
     1
 71
     0
 91
        1
 92
        1
 93
        3
 72
     1
 10
584.01953125
 20
541.4189453125
 11
587.23046875
 21
541.4189453125
 72
     1
 10
587.23046875
 20
541.4189453125
 11
585.6259765625
 21
551.0537109375
 72
     1
 10
585.6259765625
 20
551.0537109375
 11
584.01953125
 21
541.4189453125
 97
        0
 75
     2
 76
     1
 98
        0
  0
ENDBLK
  5
720
330
71D
100
AcDbEntity
  8
0
100
AcDbBlockEnd
  0
BLOCK
  5
72A
330
728
100
AcDbEntity
  8
0
100
AcDbBlockBegin
  2
block 251
 70
     0
 71
     0
 10
0.0
 20
0.0
 30
0.0
  3
block 251
  1

  0
MTEXT
  5
72C
330
728
100
AcDbEntity
  8
COTAS
 62
     7
100
AcDbMText
 10
574.646484375
 20
508.048828125
 30
0.0
 40
6.800000000000001
 41
0.0
 71
     7
 72
     1
  1
\fArial|b1|i0|c0|p34;\W1;400
 73
     1
 44
1.0
  0
ENDBLK
  5
72B
330
728
100
AcDbEntity
  8
0
100
AcDbBlockEnd
  0
BLOCK
  5
72F
330
72D
100
AcDbEntity
  8
0
100
AcDbBlockBegin
  2
block 252
 70
     0
 71
     0
 10
0.0
 20
0.0
 30
0.0
  3
block 252
  1

  0
POLYLINE
  5
731
330
72D
100
AcDbEntity
  8
COTAS
370
     0
100
AcDb2dPolyline
 66
     1
 10
0.0
 20
0.0
 30
0.0
  0
VERTEX
  5
732
330
731
100
AcDbEntity
  8
COTAS
370
     0
100
AcDbVertex
100
AcDb2dVertex
 10
469.1455078125
 20
474.5546875
 30
0.0
  0
VERTEX
  5
733
330
731
100
AcDbEntity
  8
COTAS
370
     0
100
AcDbVertex
100
AcDb2dVertex
 10
469.1455078125
 20
474.5546875
 30
0.0
  0
SEQEND
  5
734
330
731
100
AcDbEntity
  8
COTAS
370
     0
  0
ENDBLK
  5
730
330
72D
100
AcDbEntity
  8
0
100
AcDbBlockEnd
  0
BLOCK
  5
737
330
735
100
AcDbEntity
  8
0
100
AcDbBlockBegin
  2
block 253
 70
     0
 71
     0
 10
0.0
 20
0.0
 30
0.0
  3
block 253
  1

  0
POLYLINE
  5
739
330
735
100
AcDbEntity
  8
COTAS
370
     0
100
AcDb2dPolyline
 66
     1
 10
0.0
 20
0.0
 30
0.0
  0
VERTEX
  5
73A
330
739
100
AcDbEntity
  8
COTAS
370
     0
100
AcDbVertex
100
AcDb2dVertex
 10
568.8662109375
 20
551.0537109375
 30
0.0
  0
VERTEX
  5
73B
330
739
100
AcDbEntity
  8
COTAS
370
     0
100
AcDbVertex
100
AcDb2dVertex
 10
568.8662109375
 20
551.0537109375
 30
0.0
  0
SEQEND
  5
73C
330
739
100
AcDbEntity
  8
COTAS
370
     0
  0
ENDBLK
  5
738
330
735
100
AcDbEntity
  8
0
100
AcDbBlockEnd
  0
BLOCK
  5
73F
330
73D
100
AcDbEntity
  8
0
100
AcDbBlockBegin
  2
block 254
 70
     0
 71
     0
 10
0.0
 20
0.0
 30
0.0
  3
block 254
  1

  0
POLYLINE
  5
741
330
73D
100
AcDbEntity
  8
COTAS
370
     0
100
AcDb2dPolyline
 66
     1
 10
0.0
 20
0.0
 30
0.0
  0
VERTEX
  5
742
330
741
100
AcDbEntity
  8
COTAS
370
     0
100
AcDbVertex
100
AcDb2dVertex
 10
585.6259765625
 20
551.0537109375
 30
0.0
  0
VERTEX
  5
743
330
741
100
AcDbEntity
  8
COTAS
370
     0
100
AcDbVertex
100
AcDb2dVertex
 10
585.6259765625
 20
551.0537109375
 30
0.0
  0
SEQEND
  5
744
330
741
100
AcDbEntity
  8
COTAS
370
     0
  0
ENDBLK
  5
740
330
73D
100
AcDbEntity
  8
0
100
AcDbBlockEnd
  0
BLOCK
  5
747
330
745
100
AcDbEntity
  8
0
100
AcDbBlockBegin
  2
block 255
 70
     0
 71
     0
 10
0.0
 20
0.0
 30
0.0
  3
block 255
  1

  0
INSERT
  5
74A
330
745
100
AcDbEntity
  8
COTAS
100
AcDbBlockReference
  2
block 256
 10
0.0
 20
0.0
 30
0.0
  0
INSERT
  5
752
330
745
100
AcDbEntity
  8
COTAS
100
AcDbBlockReference
  2
block 257
 10
0.0
 20
0.0
 30
0.0
  0
INSERT
  5
75A
330
745
100
AcDbEntity
  8
COTAS
100
AcDbBlockReference
  2
block 258
 10
0.0
 20
0.0
 30
0.0
  0
INSERT
  5
762
330
745
100
AcDbEntity
  8
COTAS
100
AcDbBlockReference
  2
block 259
 10
0.0
 20
0.0
 30
0.0
  0
INSERT
  5
76A
330
745
100
AcDbEntity
  8
COTAS
100
AcDbBlockReference
  2
block 260
 10
0.0
 20
0.0
 30
0.0
  0
INSERT
  5
772
330
745
100
AcDbEntity
  8
COTAS
100
AcDbBlockReference
  2
block 261
 10
0.0
 20
0.0
 30
0.0
  0
INSERT
  5
77D
330
745
100
AcDbEntity
  8
COTAS
100
AcDbBlockReference
  2
block 262
 10
0.0
 20
0.0
 30
0.0
  0
INSERT
  5
788
330
745
100
AcDbEntity
  8
COTAS
100
AcDbBlockReference
  2
block 263
 10
0.0
 20
0.0
 30
0.0
  0
INSERT
  5
78D
330
745
100
AcDbEntity
  8
COTAS
100
AcDbBlockReference
  2
block 264
 10
0.0
 20
0.0
 30
0.0
  0
INSERT
  5
795
330
745
100
AcDbEntity
  8
COTAS
100
AcDbBlockReference
  2
block 265
 10
0.0
 20
0.0
 30
0.0
  0
INSERT
  5
79D
330
745
100
AcDbEntity
  8
COTAS
100
AcDbBlockReference
  2
block 266
 10
0.0
 20
0.0
 30
0.0
  0
ENDBLK
  5
748
330
745
100
AcDbEntity
  8
0
100
AcDbBlockEnd
  0
BLOCK
  5
74B
330
749
100
AcDbEntity
  8
0
100
AcDbBlockBegin
  2
block 256
 70
     0
 71
     0
 10
0.0
 20
0.0
 30
0.0
  3
block 256
  1

  0
POLYLINE
  5
74D
330
749
100
AcDbEntity
  8
COTAS
 62
     7
370
     5
100
AcDb2dPolyline
 66
     1
 10
0.0
 20
0.0
 30
0.0
  0
VERTEX
  5
74E
330
74D
100
AcDbEntity
  8
COTAS
 62
     7
370
     5
100
AcDbVertex
100
AcDb2dVertex
 10
468.953125
 20
472.1455078125
 30
0.0
  0
VERTEX
  5
74F
330
74D
100
AcDbEntity
  8
COTAS
 62
     7
370
     5
100
AcDbVertex
100
AcDb2dVertex
 10
468.953125
 20
458.16845703125
 30
0.0
  0
SEQEND
  5
750
330
74D
100
AcDbEntity
  8
COTAS
370
     5
  0
ENDBLK
  5
74C
330
749
100
AcDbEntity
  8
0
100
AcDbBlockEnd
  0
BLOCK
  5
753
330
751
100
AcDbEntity
  8
0
100
AcDbBlockBegin
  2
block 257
 70
     0
 71
     0
 10
0.0
 20
0.0
 30
0.0
  3
block 257
  1

  0
POLYLINE
  5
755
330
751
100
AcDbEntity
  8
COTAS
 62
     7
370
     5
100
AcDb2dPolyline
 66
     1
 10
0.0
 20
0.0
 30
0.0
  0
VERTEX
  5
756
330
755
100
AcDbEntity
  8
COTAS
 62
     7
370
     5
100
AcDbVertex
100
AcDb2dVertex
 10
478.97265625
 20
472.1455078125
 30
0.0
  0
VERTEX
  5
757
330
755
100
AcDbEntity
  8
COTAS
 62
     7
370
     5
100
AcDbVertex
100
AcDb2dVertex
 10
478.97265625
 20
458.16845703125
 30
0.0
  0
SEQEND
  5
758
330
755
100
AcDbEntity
  8
COTAS
370
     5
  0
ENDBLK
  5
754
330
751
100
AcDbEntity
  8
0
100
AcDbBlockEnd
  0
BLOCK
  5
75B
330
759
100
AcDbEntity
  8
0
100
AcDbBlockBegin
  2
block 258
 70
     0
 71
     0
 10
0.0
 20
0.0
 30
0.0
  3
block 258
  1

  0
POLYLINE
  5
75D
330
759
100
AcDbEntity
  8
COTAS
 62
     7
370
     5
100
AcDb2dPolyline
 66
     1
 10
0.0
 20
0.0
 30
0.0
  0
VERTEX
  5
75E
330
75D
100
AcDbEntity
  8
COTAS
 62
     7
370
     5
100
AcDbVertex
100
AcDb2dVertex
 10
488.607421875
 20
462.986328125
 30
0.0
  0
VERTEX
  5
75F
330
75D
100
AcDbEntity
  8
COTAS
 62
     7
370
     5
100
AcDbVertex
100
AcDb2dVertex
 10
498.2412109375
 20
462.986328125
 30
0.0
  0
SEQEND
  5
760
330
75D
100
AcDbEntity
  8
COTAS
370
     5
  0
ENDBLK
  5
75C
330
759
100
AcDbEntity
  8
0
100
AcDbBlockEnd
  0
BLOCK
  5
763
330
761
100
AcDbEntity
  8
0
100
AcDbBlockBegin
  2
block 259
 70
     0
 71
     0
 10
0.0
 20
0.0
 30
0.0
  3
block 259
  1

  0
POLYLINE
  5
765
330
761
100
AcDbEntity
  8
COTAS
 62
     7
370
     5
100
AcDb2dPolyline
 66
     1
 10
0.0
 20
0.0
 30
0.0
  0
VERTEX
  5
766
330
765
100
AcDbEntity
  8
COTAS
 62
     7
370
     5
100
AcDbVertex
100
AcDb2dVertex
 10
459.3173828125
 20
462.986328125
 30
0.0
  0
VERTEX
  5
767
330
765
100
AcDbEntity
  8
COTAS
 62
     7
370
     5
100
AcDbVertex
100
AcDb2dVertex
 10
415.05859375
 20
462.986328125
 30
0.0
  0
SEQEND
  5
768
330
765
100
AcDbEntity
  8
COTAS
370
     5
  0
ENDBLK
  5
764
330
761
100
AcDbEntity
  8
0
100
AcDbBlockEnd
  0
BLOCK
  5
76B
330
769
100
AcDbEntity
  8
0
100
AcDbBlockBegin
  2
block 260
 70
     0
 71
     0
 10
0.0
 20
0.0
 30
0.0
  3
block 260
  1

  0
POLYLINE
  5
76D
330
769
100
AcDbEntity
  8
COTAS
 62
     7
370
     5
100
AcDb2dPolyline
 66
     1
 10
0.0
 20
0.0
 30
0.0
  0
VERTEX
  5
76E
330
76D
100
AcDbEntity
  8
COTAS
 62
     7
370
     5
100
AcDbVertex
100
AcDb2dVertex
 10
478.97265625
 20
462.986328125
 30
0.0
  0
VERTEX
  5
76F
330
76D
100
AcDbEntity
  8
COTAS
 62
     7
370
     5
100
AcDbVertex
100
AcDb2dVertex
 10
468.953125
 20
462.986328125
 30
0.0
  0
SEQEND
  5
770
330
76D
100
AcDbEntity
  8
COTAS
370
     5
  0
ENDBLK
  5
76C
330
769
100
AcDbEntity
  8
0
100
AcDbBlockEnd
  0
BLOCK
  5
773
330
771
100
AcDbEntity
  8
0
100
AcDbBlockBegin
  2
block 261
 70
     0
 71
     0
 10
0.0
 20
0.0
 30
0.0
  3
block 261
  1

  0
POLYLINE
  5
775
330
771
100
AcDbEntity
  8
COTAS
370
     0
100
AcDb2dPolyline
 66
     1
 10
0.0
 20
0.0
 30
0.0
  0
VERTEX
  5
776
330
775
100
AcDbEntity
  8
COTAS
370
     0
100
AcDbVertex
100
AcDb2dVertex
 10
488.607421875
 20
464.591796875
 30
0.0
  0
VERTEX
  5
777
330
775
100
AcDbEntity
  8
COTAS
370
     0
100
AcDbVertex
100
AcDb2dVertex
 10
488.607421875
 20
461.38037109375
 30
0.0
  0
VERTEX
  5
778
330
775
100
AcDbEntity
  8
COTAS
370
     0
100
AcDbVertex
100
AcDb2dVertex
 10
478.97265625
 20
462.986328125
 30
0.0
  0
VERTEX
  5
779
330
775
100
AcDbEntity
  8
COTAS
370
     0
100
AcDbVertex
100
AcDb2dVertex
 10
488.607421875
 20
464.591796875
 30
0.0
  0
SEQEND
  5
77A
330
775
100
AcDbEntity
  8
COTAS
370
     0
  0
HATCH
  5
77B
330
771
100
AcDbEntity
  8
COTAS
 62
     7
100
AcDbHatch
 10
0.0
 20
0.0
 30
0.0
210
0.0
220
0.0
230
1.0
  2
SOLID
 70
     1
 71
     0
 91
        1
 92
        1
 93
        3
 72
     1
 10
488.607421875
 20
464.591796875
 11
488.607421875
 21
461.38037109375
 72
     1
 10
488.607421875
 20
461.38037109375
 11
478.97265625
 21
462.986328125
 72
     1
 10
478.97265625
 20
462.986328125
 11
488.607421875
 21
464.591796875
 97
        0
 75
     2
 76
     1
 98
        0
  0
ENDBLK
  5
774
330
771
100
AcDbEntity
  8
0
100
AcDbBlockEnd
  0
BLOCK
  5
77E
330
77C
100
AcDbEntity
  8
0
100
AcDbBlockBegin
  2
block 262
 70
     0
 71
     0
 10
0.0
 20
0.0
 30
0.0
  3
block 262
  1

  0
POLYLINE
  5
780
330
77C
100
AcDbEntity
  8
COTAS
370
     0
100
AcDb2dPolyline
 66
     1
 10
0.0
 20
0.0
 30
0.0
  0
VERTEX
  5
781
330
780
100
AcDbEntity
  8
COTAS
370
     0
100
AcDbVertex
100
AcDb2dVertex
 10
459.3173828125
 20
464.591796875
 30
0.0
  0
VERTEX
  5
782
330
780
100
AcDbEntity
  8
COTAS
370
     0
100
AcDbVertex
100
AcDb2dVertex
 10
459.3173828125
 20
461.38037109375
 30
0.0
  0
VERTEX
  5
783
330
780
100
AcDbEntity
  8
COTAS
370
     0
100
AcDbVertex
100
AcDb2dVertex
 10
468.953125
 20
462.986328125
 30
0.0
  0
VERTEX
  5
784
330
780
100
AcDbEntity
  8
COTAS
370
     0
100
AcDbVertex
100
AcDb2dVertex
 10
459.3173828125
 20
464.591796875
 30
0.0
  0
SEQEND
  5
785
330
780
100
AcDbEntity
  8
COTAS
370
     0
  0
HATCH
  5
786
330
77C
100
AcDbEntity
  8
COTAS
 62
     7
100
AcDbHatch
 10
0.0
 20
0.0
 30
0.0
210
0.0
220
0.0
230
1.0
  2
SOLID
 70
     1
 71
     0
 91
        1
 92
        1
 93
        3
 72
     1
 10
459.3173828125
 20
464.591796875
 11
459.3173828125
 21
461.38037109375
 72
     1
 10
459.3173828125
 20
461.38037109375
 11
468.953125
 21
462.986328125
 72
     1
 10
468.953125
 20
462.986328125
 11
459.3173828125
 21
464.591796875
 97
        0
 75
     2
 76
     1
 98
        0
  0
ENDBLK
  5
77F
330
77C
100
AcDbEntity
  8
0
100
AcDbBlockEnd
  0
BLOCK
  5
789
330
787
100
AcDbEntity
  8
0
100
AcDbBlockBegin
  2
block 263
 70
     0
 71
     0
 10
0.0
 20
0.0
 30
0.0
  3
block 263
  1

  0
MTEXT
  5
78B
330
787
100
AcDbEntity
  8
COTAS
 62
     7
100
AcDbMText
 10
416.9384765625
 20
465.78515625
 30
0.0
 40
6.800000000000001
 41
0.0
 71
     7
 72
     1
  1
\fArial|b1|i0|c0|p34;\W1;\U+00D852
 73
     1
 44
1.0
  0
ENDBLK
  5
78A
330
787
100
AcDbEntity
  8
0
100
AcDbBlockEnd
  0
BLOCK
  5
78E
330
78C
100
AcDbEntity
  8
0
100
AcDbBlockBegin
  2
block 264
 70
     0
 71
     0
 10
0.0
 20
0.0
 30
0.0
  3
block 264
  1

  0
POLYLINE
  5
790
330
78C
100
AcDbEntity
  8
COTAS
370
     0
100
AcDb2dPolyline
 66
     1
 10
0.0
 20
0.0
 30
0.0
  0
VERTEX
  5
791
330
790
100
AcDbEntity
  8
COTAS
370
     0
100
AcDbVertex
100
AcDb2dVertex
 10
468.953125
 20
474.5546875
 30
0.0
  0
VERTEX
  5
792
330
790
100
AcDbEntity
  8
COTAS
370
     0
100
AcDbVertex
100
AcDb2dVertex
 10
468.953125
 20
474.5546875
 30
0.0
  0
SEQEND
  5
793
330
790
100
AcDbEntity
  8
COTAS
370
     0
  0
ENDBLK
  5
78F
330
78C
100
AcDbEntity
  8
0
100
AcDbBlockEnd
  0
BLOCK
  5
796
330
794
100
AcDbEntity
  8
0
100
AcDbBlockBegin
  2
block 265
 70
     0
 71
     0
 10
0.0
 20
0.0
 30
0.0
  3
block 265
  1

  0
POLYLINE
  5
798
330
794
100
AcDbEntity
  8
COTAS
370
     0
100
AcDb2dPolyline
 66
     1
 10
0.0
 20
0.0
 30
0.0
  0
VERTEX
  5
799
330
798
100
AcDbEntity
  8
COTAS
370
     0
100
AcDbVertex
100
AcDb2dVertex
 10
478.97265625
 20
474.5546875
 30
0.0
  0
VERTEX
  5
79A
330
798
100
AcDbEntity
  8
COTAS
370
     0
100
AcDbVertex
100
AcDb2dVertex
 10
478.97265625
 20
474.5546875
 30
0.0
  0
SEQEND
  5
79B
330
798
100
AcDbEntity
  8
COTAS
370
     0
  0
ENDBLK
  5
797
330
794
100
AcDbEntity
  8
0
100
AcDbBlockEnd
  0
BLOCK
  5
79E
330
79C
100
AcDbEntity
  8
0
100
AcDbBlockBegin
  2
block 266
 70
     0
 71
     0
 10
0.0
 20
0.0
 30
0.0
  3
block 266
  1

  0
POLYLINE
  5
7A0
330
79C
100
AcDbEntity
  8
COTAS
370
     0
100
AcDb2dPolyline
 66
     1
 10
0.0
 20
0.0
 30
0.0
  0
VERTEX
  5
7A1
330
7A0
100
AcDbEntity
  8
COTAS
370
     0
100
AcDbVertex
100
AcDb2dVertex
 10
478.97265625
 20
462.986328125
 30
0.0
  0
VERTEX
  5
7A2
330
7A0
100
AcDbEntity
  8
COTAS
370
     0
100
AcDbVertex
100
AcDb2dVertex
 10
478.97265625
 20
462.986328125
 30
0.0
  0
SEQEND
  5
7A3
330
7A0
100
AcDbEntity
  8
COTAS
370
     0
  0
ENDBLK
  5
79F
330
79C
100
AcDbEntity
  8
0
100
AcDbBlockEnd
  0
BLOCK
  5
7A6
330
7A4
100
AcDbEntity
  8
0
100
AcDbBlockBegin
  2
block 267
 70
     0
 71
     0
 10
0.0
 20
0.0
 30
0.0
  3
block 267
  1

  0
INSERT
  5
7A9
330
7A4
100
AcDbEntity
  8
COTAS
100
AcDbBlockReference
  2
block 268
 10
0.0
 20
0.0
 30
0.0
  0
INSERT
  5
7BB
330
7A4
100
AcDbEntity
  8
COTAS
100
AcDbBlockReference
  2
block 269
 10
0.0
 20
0.0
 30
0.0
  0
INSERT
  5
7C1
330
7A4
100
AcDbEntity
  8
COTAS
100
AcDbBlockReference
  2
block 270
 10
0.0
 20
0.0
 30
0.0
  0
INSERT
  5
7D3
330
7A4
100
AcDbEntity
  8
COTAS
100
AcDbBlockReference
  2
block 271
 10
0.0
 20
0.0
 30
0.0
  0
INSERT
  5
7D8
330
7A4
100
AcDbEntity
  8
COTAS
100
AcDbBlockReference
  2
block 272
 10
0.0
 20
0.0
 30
0.0
  0
INSERT
  5
7DD
330
7A4
100
AcDbEntity
  8
COTAS
100
AcDbBlockReference
  2
block 273
 10
0.0
 20
0.0
 30
0.0
  0
INSERT
  5
7E2
330
7A4
100
AcDbEntity
  8
COTAS
100
AcDbBlockReference
  2
block 274
 10
0.0
 20
0.0
 30
0.0
  0
INSERT
  5
7EA
330
7A4
100
AcDbEntity
  8
COTAS
100
AcDbBlockReference
  2
block 275
 10
0.0
 20
0.0
 30
0.0
  0
INSERT
  5
7F2
330
7A4
100
AcDbEntity
  8
COTAS
100
AcDbBlockReference
  2
block 276
 10
0.0
 20
0.0
 30
0.0
  0
INSERT
  5
7FA
330
7A4
100
AcDbEntity
  8
COTAS
100
AcDbBlockReference
  2
block 277
 10
0.0
 20
0.0
 30
0.0
  0
INSERT
  5
802
330
7A4
100
AcDbEntity
  8
COTAS
100
AcDbBlockReference
  2
block 278
 10
0.0
 20
0.0
 30
0.0
  0
INSERT
  5
80A
330
7A4
100
AcDbEntity
  8
COTAS
100
AcDbBlockReference
  2
block 279
 10
0.0
 20
0.0
 30
0.0
  0
INSERT
  5
812
330
7A4
100
AcDbEntity
  8
COTAS
100
AcDbBlockReference
  2
block 280
 10
0.0
 20
0.0
 30
0.0
  0
INSERT
  5
81A
330
7A4
100
AcDbEntity
  8
COTAS
100
AcDbBlockReference
  2
block 281
 10
0.0
 20
0.0
 30
0.0
  0
INSERT
  5
822
330
7A4
100
AcDbEntity
  8
COTAS
100
AcDbBlockReference
  2
block 282
 10
0.0
 20
0.0
 30
0.0
  0
INSERT
  5
82A
330
7A4
100
AcDbEntity
  8
COTAS
100
AcDbBlockReference
  2
block 283
 10
0.0
 20
0.0
 30
0.0
  0
INSERT
  5
832
330
7A4
100
AcDbEntity
  8
COTAS
100
AcDbBlockReference
  2
block 284
 10
0.0
 20
0.0
 30
0.0
  0
INSERT
  5
83A
330
7A4
100
AcDbEntity
  8
COTAS
100
AcDbBlockReference
  2
block 285
 10
0.0
 20
0.0
 30
0.0
  0
ENDBLK
  5
7A7
330
7A4
100
AcDbEntity
  8
0
100
AcDbBlockEnd
  0
BLOCK
  5
7AA
330
7A8
100
AcDbEntity
  8
0
100
AcDbBlockBegin
  2
block 268
 70
     0
 71
     0
 10
0.0
 20
0.0
 30
0.0
  3
block 268
  1

  0
POLYLINE
  5
7AC
330
7A8
100
AcDbEntity
  8
COTAS
370
     0
100
AcDb2dPolyline
 66
     1
 10
0.0
 20
0.0
 30
0.0
  0
VERTEX
  5
7AD
330
7AC
100
AcDbEntity
  8
COTAS
370
     0
100
AcDbVertex
100
AcDb2dVertex
 10
421.5146484375
 20
397.58203125
 30
0.0
  0
VERTEX
  5
7AE
330
7AC
100
AcDbEntity
  8
COTAS
370
     0
100
AcDbVertex
100
AcDb2dVertex
 10
421.5146484375
 20
379.791015625
 30
0.0
  0
VERTEX
  5
7AF
330
7AC
100
AcDbEntity
  8
COTAS
370
     0
100
AcDbVertex
100
AcDb2dVertex
 10
510.2744140625
 20
379.791015625
 30
0.0
  0
VERTEX
  5
7B0
330
7AC
100
AcDbEntity
  8
COTAS
370
     0
100
AcDbVertex
100
AcDb2dVertex
 10
421.5146484375
 20
397.58203125
 30
0.0
  0
SEQEND
  5
7B1
330
7AC
100
AcDbEntity
  8
COTAS
370
     0
  0
HATCH
  5
7B2
330
7A8
100
AcDbEntity
  8
COTAS
 62
     7
100
AcDbHatch
 10
0.0
 20
0.0
 30
0.0
210
0.0
220
0.0
230
1.0
  2
SOLID
 70
     1
 71
     0
 91
        1
 92
        1
 93
        3
 72
     1
 10
421.5146484375
 20
397.58203125
 11
421.5146484375
 21
379.791015625
 72
     1
 10
421.5146484375
 20
379.791015625
 11
510.2744140625
 21
379.791015625
 72
     1
 10
510.2744140625
 20
379.791015625
 11
421.5146484375
 21
397.58203125
 97
        0
 75
     2
 76
     1
 98
        0
  0
POLYLINE
  5
7B3
330
7A8
100
AcDbEntity
  8
COTAS
370
     0
100
AcDb2dPolyline
 66
     1
 10
0.0
 20
0.0
 30
0.0
  0
VERTEX
  5
7B4
330
7B3
100
AcDbEntity
  8
COTAS
370
     0
100
AcDbVertex
100
AcDb2dVertex
 10
421.5146484375
 20
397.58203125
 30
0.0
  0
VERTEX
  5
7B5
330
7B3
100
AcDbEntity
  8
COTAS
370
     0
100
AcDbVertex
100
AcDb2dVertex
 10
510.2744140625
 20
379.791015625
 30
0.0
  0
VERTEX
  5
7B6
330
7B3
100
AcDbEntity
  8
COTAS
370
     0
100
AcDbVertex
100
AcDb2dVertex
 10
510.2744140625
 20
397.58203125
 30
0.0
  0
VERTEX
  5
7B7
330
7B3
100
AcDbEntity
  8
COTAS
370
     0
100
AcDbVertex
100
AcDb2dVertex
 10
421.5146484375
 20
397.58203125
 30
0.0
  0
SEQEND
  5
7B8
330
7B3
100
AcDbEntity
  8
COTAS
370
     0
  0
HATCH
  5
7B9
330
7A8
100
AcDbEntity
  8
COTAS
 62
     7
100
AcDbHatch
 10
0.0
 20
0.0
 30
0.0
210
0.0
220
0.0
230
1.0
  2
SOLID
 70
     1
 71
     0
 91
        1
 92
        1
 93
        3
 72
     1
 10
421.5146484375
 20
397.58203125
 11
510.2744140625
 21
379.791015625
 72
     1
 10
510.2744140625
 20
379.791015625
 11
510.2744140625
 21
397.58203125
 72
     1
 10
510.2744140625
 20
397.58203125
 11
421.5146484375
 21
397.58203125
 97
        0
 75
     2
 76
     1
 98
        0
  0
ENDBLK
  5
7AB
330
7A8
100
AcDbEntity
  8
0
100
AcDbBlockEnd
  0
BLOCK
  5
7BC
330
7BA
100
AcDbEntity
  8
0
100
AcDbBlockBegin
  2
block 269
 70
     0
 71
     0
 10
0.0
 20
0.0
 30
0.0
  3
block 269
  1

  0
MTEXT
  5
7BE
330
7BA
100
AcDbEntity
  8
COTAS
 62
     7
100
AcDbMText
 10
453.3837890625
 20
383.8642578125
 30
0.0
 40
6.800000000000001
 41
0.0
 71
     7
 72
     1
  1
\fArial|b1|i0|c0|p34;\W1;Ref
 73
     1
 44
1.0
  0
MTEXT
  5
7BF
330
7BA
100
AcDbEntity
  8
COTAS
 62
     7
100
AcDbMText
 10
474.7724609375
 20
383.8642578125
 30
0.0
 40
6.800000000000001
 41
0.0
 71
     7
 72
     1
  1
\fArial|b1|i0|c0|p34;\W1;.
 73
     1
 44
1.0
  0
ENDBLK
  5
7BD
330
7BA
100
AcDbEntity
  8
0
100
AcDbBlockEnd
  0
BLOCK
  5
7C2
330
7C0
100
AcDbEntity
  8
0
100
AcDbBlockBegin
  2
block 270
 70
     0
 71
     0
 10
0.0
 20
0.0
 30
0.0
  3
block 270
  1

  0
POLYLINE
  5
7C4
330
7C0
100
AcDbEntity
  8
COTAS
370
     0
100
AcDb2dPolyline
 66
     1
 10
0.0
 20
0.0
 30
0.0
  0
VERTEX
  5
7C5
330
7C4
100
AcDbEntity
  8
COTAS
370
     0
100
AcDbVertex
100
AcDb2dVertex
 10
510.2744140625
 20
397.58203125
 30
0.0
  0
VERTEX
  5
7C6
330
7C4
100
AcDbEntity
  8
COTAS
370
     0
100
AcDbVertex
100
AcDb2dVertex
 10
510.2744140625
 20
379.791015625
 30
0.0
  0
VERTEX
  5
7C7
330
7C4
100
AcDbEntity
  8
COTAS
370
     0
100
AcDbVertex
100
AcDb2dVertex
 10
547.9033203125
 20
379.791015625
 30
0.0
  0
VERTEX
  5
7C8
330
7C4
100
AcDbEntity
  8
COTAS
370
     0
100
AcDbVertex
100
AcDb2dVertex
 10
510.2744140625
 20
397.58203125
 30
0.0
  0
SEQEND
  5
7C9
330
7C4
100
AcDbEntity
  8
COTAS
370
     0
  0
HATCH
  5
7CA
330
7C0
100
AcDbEntity
  8
COTAS
 62
     7
100
AcDbHatch
 10
0.0
 20
0.0
 30
0.0
210
0.0
220
0.0
230
1.0
  2
SOLID
 70
     1
 71
     0
 91
        1
 92
        1
 93
        3
 72
     1
 10
510.2744140625
 20
397.58203125
 11
510.2744140625
 21
379.791015625
 72
     1
 10
510.2744140625
 20
379.791015625
 11
547.9033203125
 21
379.791015625
 72
     1
 10
547.9033203125
 20
379.791015625
 11
510.2744140625
 21
397.58203125
 97
        0
 75
     2
 76
     1
 98
        0
  0
POLYLINE
  5
7CB
330
7C0
100
AcDbEntity
  8
COTAS
370
     0
100
AcDb2dPolyline
 66
     1
 10
0.0
 20
0.0
 30
0.0
  0
VERTEX
  5
7CC
330
7CB
100
AcDbEntity
  8
COTAS
370
     0
100
AcDbVertex
100
AcDb2dVertex
 10
510.2744140625
 20
397.58203125
 30
0.0
  0
VERTEX
  5
7CD
330
7CB
100
AcDbEntity
  8
COTAS
370
     0
100
AcDbVertex
100
AcDb2dVertex
 10
547.9033203125
 20
379.791015625
 30
0.0
  0
VERTEX
  5
7CE
330
7CB
100
AcDbEntity
  8
COTAS
370
     0
100
AcDbVertex
100
AcDb2dVertex
 10
547.9033203125
 20
397.58203125
 30
0.0
  0
VERTEX
  5
7CF
330
7CB
100
AcDbEntity
  8
COTAS
370
     0
100
AcDbVertex
100
AcDb2dVertex
 10
510.2744140625
 20
397.58203125
 30
0.0
  0
SEQEND
  5
7D0
330
7CB
100
AcDbEntity
  8
COTAS
370
     0
  0
HATCH
  5
7D1
330
7C0
100
AcDbEntity
  8
COTAS
 62
     7
100
AcDbHatch
 10
0.0
 20
0.0
 30
0.0
210
0.0
220
0.0
230
1.0
  2
SOLID
 70
     1
 71
     0
 91
        1
 92
        1
 93
        3
 72
     1
 10
510.2744140625
 20
397.58203125
 11
547.9033203125
 21
379.791015625
 72
     1
 10
547.9033203125
 20
379.791015625
 11
547.9033203125
 21
397.58203125
 72
     1
 10
547.9033203125
 20
397.58203125
 11
510.2744140625
 21
397.58203125
 97
        0
 75
     2
 76
     1
 98
        0
  0
ENDBLK
  5
7C3
330
7C0
100
AcDbEntity
  8
0
100
AcDbBlockEnd
  0
BLOCK
  5
7D4
330
7D2
100
AcDbEntity
  8
0
100
AcDbBlockBegin
  2
block 271
 70
     0
 71
     0
 10
0.0
 20
0.0
 30
0.0
  3
block 271
  1

  0
MTEXT
  5
7D6
330
7D2
100
AcDbEntity
  8
COTAS
 62
     7
100
AcDbMText
 10
518.0576171875
 20
383.9462890625
 30
0.0
 40
6.800000000000001
 41
0.0
 71
     7
 72
     1
  1
\fArial|b1|i0|c0|p34;\W1;Vol.
 73
     1
 44
1.0
  0
ENDBLK
  5
7D5
330
7D2
100
AcDbEntity
  8
0
100
AcDbBlockEnd
  0
BLOCK
  5
7D9
330
7D7
100
AcDbEntity
  8
0
100
AcDbBlockBegin
  2
block 272
 70
     0
 71
     0
 10
0.0
 20
0.0
 30
0.0
  3
block 272
  1

  0
MTEXT
  5
7DB
330
7D7
100
AcDbEntity
  8
COTAS
 62
     7
100
AcDbMText
 10
425.7724609375
 20
369.224609375
 30
0.0
 40
6.800000000000001
 41
0.0
 71
     7
 72
     1
  1
\fArial|b1|i0|c0|p34;\W1;Fedra G6400001
 73
     1
 44
1.0
  0
ENDBLK
  5
7DA
330
7D7
100
AcDbEntity
  8
0
100
AcDbBlockEnd
  0
BLOCK
  5
7DE
330
7DC
100
AcDbEntity
  8
0
100
AcDbBlockBegin
  2
block 273
 70
     0
 71
     0
 10
0.0
 20
0.0
 30
0.0
  3
block 273
  1

  0
MTEXT
  5
7E0
330
7DC
100
AcDbEntity
  8
COTAS
 62
     7
100
AcDbMText
 10
514.28515625
 20
368.3232421875
 30
0.0
 40
6.800000000000001
 41
0.0
 71
     7
 72
     1
  1
\fArial|b1|i0|c0|p34;\W1;\U+2248155
 73
     1
 44
1.0
  0
ENDBLK
  5
7DF
330
7DC
100
AcDbEntity
  8
0
100
AcDbBlockEnd
  0
BLOCK
  5
7E3
330
7E1
100
AcDbEntity
  8
0
100
AcDbBlockBegin
  2
block 274
 70
     0
 71
     0
 10
0.0
 20
0.0
 30
0.0
  3
block 274
  1

  0
POLYLINE
  5
7E5
330
7E1
100
AcDbEntity
  8
COTAS
 62
     7
370
     5
100
AcDb2dPolyline
 66
     1
 10
0.0
 20
0.0
 30
0.0
  0
VERTEX
  5
7E6
330
7E5
100
AcDbEntity
  8
COTAS
 62
     7
370
     5
100
AcDbVertex
100
AcDb2dVertex
 10
421.5146484375
 20
397.58203125
 30
0.0
  0
VERTEX
  5
7E7
330
7E5
100
AcDbEntity
  8
COTAS
 62
     7
370
     5
100
AcDbVertex
100
AcDb2dVertex
 10
510.2744140625
 20
397.58203125
 30
0.0
  0
SEQEND
  5
7E8
330
7E5
100
AcDbEntity
  8
COTAS
370
     5
  0
ENDBLK
  5
7E4
330
7E1
100
AcDbEntity
  8
0
100
AcDbBlockEnd
  0
BLOCK
  5
7EB
330
7E9
100
AcDbEntity
  8
0
100
AcDbBlockBegin
  2
block 275
 70
     0
 71
     0
 10
0.0
 20
0.0
 30
0.0
  3
block 275
  1

  0
POLYLINE
  5
7ED
330
7E9
100
AcDbEntity
  8
COTAS
 62
     7
370
     5
100
AcDb2dPolyline
 66
     1
 10
0.0
 20
0.0
 30
0.0
  0
VERTEX
  5
7EE
330
7ED
100
AcDbEntity
  8
COTAS
 62
     7
370
     5
100
AcDbVertex
100
AcDb2dVertex
 10
421.5146484375
 20
397.58203125
 30
0.0
  0
VERTEX
  5
7EF
330
7ED
100
AcDbEntity
  8
COTAS
 62
     7
370
     5
100
AcDbVertex
100
AcDb2dVertex
 10
421.5146484375
 20
379.791015625
 30
0.0
  0
SEQEND
  5
7F0
330
7ED
100
AcDbEntity
  8
COTAS
370
     5
  0
ENDBLK
  5
7EC
330
7E9
100
AcDbEntity
  8
0
100
AcDbBlockEnd
  0
BLOCK
  5
7F3
330
7F1
100
AcDbEntity
  8
0
100
AcDbBlockBegin
  2
block 276
 70
     0
 71
     0
 10
0.0
 20
0.0
 30
0.0
  3
block 276
  1

  0
POLYLINE
  5
7F5
330
7F1
100
AcDbEntity
  8
COTAS
 62
     7
370
     5
100
AcDb2dPolyline
 66
     1
 10
0.0
 20
0.0
 30
0.0
  0
VERTEX
  5
7F6
330
7F5
100
AcDbEntity
  8
COTAS
 62
     7
370
     5
100
AcDbVertex
100
AcDb2dVertex
 10
510.2744140625
 20
397.58203125
 30
0.0
  0
VERTEX
  5
7F7
330
7F5
100
AcDbEntity
  8
COTAS
 62
     7
370
     5
100
AcDbVertex
100
AcDb2dVertex
 10
547.9033203125
 20
397.58203125
 30
0.0
  0
SEQEND
  5
7F8
330
7F5
100
AcDbEntity
  8
COTAS
370
     5
  0
ENDBLK
  5
7F4
330
7F1
100
AcDbEntity
  8
0
100
AcDbBlockEnd
  0
BLOCK
  5
7FB
330
7F9
100
AcDbEntity
  8
0
100
AcDbBlockBegin
  2
block 277
 70
     0
 71
     0
 10
0.0
 20
0.0
 30
0.0
  3
block 277
  1

  0
POLYLINE
  5
7FD
330
7F9
100
AcDbEntity
  8
COTAS
 62
     7
370
     5
100
AcDb2dPolyline
 66
     1
 10
0.0
 20
0.0
 30
0.0
  0
VERTEX
  5
7FE
330
7FD
100
AcDbEntity
  8
COTAS
 62
     7
370
     5
100
AcDbVertex
100
AcDb2dVertex
 10
510.2744140625
 20
397.58203125
 30
0.0
  0
VERTEX
  5
7FF
330
7FD
100
AcDbEntity
  8
COTAS
 62
     7
370
     5
100
AcDbVertex
100
AcDb2dVertex
 10
510.2744140625
 20
379.791015625
 30
0.0
  0
SEQEND
  5
800
330
7FD
100
AcDbEntity
  8
COTAS
370
     5
  0
ENDBLK
  5
7FC
330
7F9
100
AcDbEntity
  8
0
100
AcDbBlockEnd
  0
BLOCK
  5
803
330
801
100
AcDbEntity
  8
0
100
AcDbBlockBegin
  2
block 278
 70
     0
 71
     0
 10
0.0
 20
0.0
 30
0.0
  3
block 278
  1

  0
POLYLINE
  5
805
330
801
100
AcDbEntity
  8
COTAS
 62
     7
370
     5
100
AcDb2dPolyline
 66
     1
 10
0.0
 20
0.0
 30
0.0
  0
VERTEX
  5
806
330
805
100
AcDbEntity
  8
COTAS
 62
     7
370
     5
100
AcDbVertex
100
AcDb2dVertex
 10
547.9033203125
 20
397.58203125
 30
0.0
  0
VERTEX
  5
807
330
805
100
AcDbEntity
  8
COTAS
 62
     7
370
     5
100
AcDbVertex
100
AcDb2dVertex
 10
547.9033203125
 20
379.791015625
 30
0.0
  0
SEQEND
  5
808
330
805
100
AcDbEntity
  8
COTAS
370
     5
  0
ENDBLK
  5
804
330
801
100
AcDbEntity
  8
0
100
AcDbBlockEnd
  0
BLOCK
  5
80B
330
809
100
AcDbEntity
  8
0
100
AcDbBlockBegin
  2
block 279
 70
     0
 71
     0
 10
0.0
 20
0.0
 30
0.0
  3
block 279
  1

  0
POLYLINE
  5
80D
330
809
100
AcDbEntity
  8
COTAS
 62
     7
370
     5
100
AcDb2dPolyline
 66
     1
 10
0.0
 20
0.0
 30
0.0
  0
VERTEX
  5
80E
330
80D
100
AcDbEntity
  8
COTAS
 62
     7
370
     5
100
AcDbVertex
100
AcDb2dVertex
 10
421.5146484375
 20
379.791015625
 30
0.0
  0
VERTEX
  5
80F
330
80D
100
AcDbEntity
  8
COTAS
 62
     7
370
     5
100
AcDbVertex
100
AcDb2dVertex
 10
510.2744140625
 20
379.791015625
 30
0.0
  0
SEQEND
  5
810
330
80D
100
AcDbEntity
  8
COTAS
370
     5
  0
ENDBLK
  5
80C
330
809
100
AcDbEntity
  8
0
100
AcDbBlockEnd
  0
BLOCK
  5
813
330
811
100
AcDbEntity
  8
0
100
AcDbBlockBegin
  2
block 280
 70
     0
 71
     0
 10
0.0
 20
0.0
 30
0.0
  3
block 280
  1

  0
POLYLINE
  5
815
330
811
100
AcDbEntity
  8
COTAS
 62
     7
370
     5
100
AcDb2dPolyline
 66
     1
 10
0.0
 20
0.0
 30
0.0
  0
VERTEX
  5
816
330
815
100
AcDbEntity
  8
COTAS
 62
     7
370
     5
100
AcDbVertex
100
AcDb2dVertex
 10
421.5146484375
 20
366.3662109375
 30
0.0
  0
VERTEX
  5
817
330
815
100
AcDbEntity
  8
COTAS
 62
     7
370
     5
100
AcDbVertex
100
AcDb2dVertex
 10
510.2744140625
 20
366.3662109375
 30
0.0
  0
SEQEND
  5
818
330
815
100
AcDbEntity
  8
COTAS
370
     5
  0
ENDBLK
  5
814
330
811
100
AcDbEntity
  8
0
100
AcDbBlockEnd
  0
BLOCK
  5
81B
330
819
100
AcDbEntity
  8
0
100
AcDbBlockBegin
  2
block 281
 70
     0
 71
     0
 10
0.0
 20
0.0
 30
0.0
  3
block 281
  1

  0
POLYLINE
  5
81D
330
819
100
AcDbEntity
  8
COTAS
 62
     7
370
     5
100
AcDb2dPolyline
 66
     1
 10
0.0
 20
0.0
 30
0.0
  0
VERTEX
  5
81E
330
81D
100
AcDbEntity
  8
COTAS
 62
     7
370
     5
100
AcDbVertex
100
AcDb2dVertex
 10
421.5146484375
 20
379.791015625
 30
0.0
  0
VERTEX
  5
81F
330
81D
100
AcDbEntity
  8
COTAS
 62
     7
370
     5
100
AcDbVertex
100
AcDb2dVertex
 10
421.5146484375
 20
366.3662109375
 30
0.0
  0
SEQEND
  5
820
330
81D
100
AcDbEntity
  8
COTAS
370
     5
  0
ENDBLK
  5
81C
330
819
100
AcDbEntity
  8
0
100
AcDbBlockEnd
  0
BLOCK
  5
823
330
821
100
AcDbEntity
  8
0
100
AcDbBlockBegin
  2
block 282
 70
     0
 71
     0
 10
0.0
 20
0.0
 30
0.0
  3
block 282
  1

  0
POLYLINE
  5
825
330
821
100
AcDbEntity
  8
COTAS
 62
     7
370
     5
100
AcDb2dPolyline
 66
     1
 10
0.0
 20
0.0
 30
0.0
  0
VERTEX
  5
826
330
825
100
AcDbEntity
  8
COTAS
 62
     7
370
     5
100
AcDbVertex
100
AcDb2dVertex
 10
510.2744140625
 20
379.791015625
 30
0.0
  0
VERTEX
  5
827
330
825
100
AcDbEntity
  8
COTAS
 62
     7
370
     5
100
AcDbVertex
100
AcDb2dVertex
 10
547.9033203125
 20
379.791015625
 30
0.0
  0
SEQEND
  5
828
330
825
100
AcDbEntity
  8
COTAS
370
     5
  0
ENDBLK
  5
824
330
821
100
AcDbEntity
  8
0
100
AcDbBlockEnd
  0
BLOCK
  5
82B
330
829
100
AcDbEntity
  8
0
100
AcDbBlockBegin
  2
block 283
 70
     0
 71
     0
 10
0.0
 20
0.0
 30
0.0
  3
block 283
  1

  0
POLYLINE
  5
82D
330
829
100
AcDbEntity
  8
COTAS
 62
     7
370
     5
100
AcDb2dPolyline
 66
     1
 10
0.0
 20
0.0
 30
0.0
  0
VERTEX
  5
82E
330
82D
100
AcDbEntity
  8
COTAS
 62
     7
370
     5
100
AcDbVertex
100
AcDb2dVertex
 10
510.2744140625
 20
366.3662109375
 30
0.0
  0
VERTEX
  5
82F
330
82D
100
AcDbEntity
  8
COTAS
 62
     7
370
     5
100
AcDbVertex
100
AcDb2dVertex
 10
547.9033203125
 20
366.3662109375
 30
0.0
  0
SEQEND
  5
830
330
82D
100
AcDbEntity
  8
COTAS
370
     5
  0
ENDBLK
  5
82C
330
829
100
AcDbEntity
  8
0
100
AcDbBlockEnd
  0
BLOCK
  5
833
330
831
100
AcDbEntity
  8
0
100
AcDbBlockBegin
  2
block 284
 70
     0
 71
     0
 10
0.0
 20
0.0
 30
0.0
  3
block 284
  1

  0
POLYLINE
  5
835
330
831
100
AcDbEntity
  8
COTAS
 62
     7
370
     5
100
AcDb2dPolyline
 66
     1
 10
0.0
 20
0.0
 30
0.0
  0
VERTEX
  5
836
330
835
100
AcDbEntity
  8
COTAS
 62
     7
370
     5
100
AcDbVertex
100
AcDb2dVertex
 10
510.2744140625
 20
379.791015625
 30
0.0
  0
VERTEX
  5
837
330
835
100
AcDbEntity
  8
COTAS
 62
     7
370
     5
100
AcDbVertex
100
AcDb2dVertex
 10
510.2744140625
 20
366.3662109375
 30
0.0
  0
SEQEND
  5
838
330
835
100
AcDbEntity
  8
COTAS
370
     5
  0
ENDBLK
  5
834
330
831
100
AcDbEntity
  8
0
100
AcDbBlockEnd
  0
BLOCK
  5
83B
330
839
100
AcDbEntity
  8
0
100
AcDbBlockBegin
  2
block 285
 70
     0
 71
     0
 10
0.0
 20
0.0
 30
0.0
  3
block 285
  1

  0
POLYLINE
  5
83D
330
839
100
AcDbEntity
  8
COTAS
 62
     7
370
     5
100
AcDb2dPolyline
 66
     1
 10
0.0
 20
0.0
 30
0.0
  0
VERTEX
  5
83E
330
83D
100
AcDbEntity
  8
COTAS
 62
     7
370
     5
100
AcDbVertex
100
AcDb2dVertex
 10
547.9033203125
 20
379.791015625
 30
0.0
  0
VERTEX
  5
83F
330
83D
100
AcDbEntity
  8
COTAS
 62
     7
370
     5
100
AcDbVertex
100
AcDb2dVertex
 10
547.9033203125
 20
366.3662109375
 30
0.0
  0
SEQEND
  5
840
330
83D
100
AcDbEntity
  8
COTAS
370
     5
  0
ENDBLK
  5
83C
330
839
100
AcDbEntity
  8
0
100
AcDbBlockEnd
  0
BLOCK
  5
844
330
842
100
AcDbEntity
  8
0
100
AcDbBlockBegin
  2
block 286
 70
     0
 71
     0
 10
0.0
 20
0.0
 30
0.0
  3
block 286
  1

  0
SPLINE
  5
846
330
842
100
AcDbEntity
  8
ESPECIAL
 62
     7
370
     9
100
AcDbSpline
210
0.0
220
0.0
230
1.0
 70
    11
 71
     3
 72
    23
 73
    19
 74
     0
 42
0.0000000001
 43
0.0000000001
 40
0.0
 40
0.0
 40
0.0
 40
0.0
 40
1.0
 40
1.0
 40
1.0
 40
2.0
 40
2.0
 40
2.0
 40
3.0
 40
3.0
 40
3.0
 40
4.0
 40
4.0
 40
4.0
 40
5.0
 40
5.0
 40
5.0
 40
6.0
 40
6.0
 40
6.0
 40
6.0
 10
107.1689453125
 20
330.1396484375
 30
0.0
 10
107.1689453125
 20
334.501953125
 30
0.0
 10
103.6318359375
 20
338.0400390625
 30
0.0
 10
99.2685546875
 20
338.0400390625
 30
0.0
 10
94.9052734375
 20
338.0400390625
 30
0.0
 10
91.36767578125
 20
334.501953125
 30
0.0
 10
91.36767578125
 20
330.1396484375
 30
0.0
 10
91.36767578125
 20
325.7763671875
 30
0.0
 10
94.9052734375
 20
322.23828125
 30
0.0
 10
99.2685546875
 20
322.23828125
 30
0.0
 10
103.6318359375
 20
322.23828125
 30
0.0
 10
107.1689453125
 20
325.7763671875
 30
0.0
 10
107.1689453125
 20
330.1396484375
 30
0.0
 10
107.1689453125
 20
330.1396484375
 30
0.0
 10
107.1689453125
 20
330.1396484375
 30
0.0
 10
107.1689453125
 20
330.1396484375
 30
0.0
 10
107.1689453125
 20
330.1396484375
 30
0.0
 10
107.1689453125
 20
330.1396484375
 30
0.0
 10
107.1689453125
 20
330.1396484375
 30
0.0
  0
ENDBLK
  5
845
330
842
100
AcDbEntity
  8
0
100
AcDbBlockEnd
  0
BLOCK
  5
849
330
847
100
AcDbEntity
  8
0
100
AcDbBlockBegin
  2
block 287
 70
     0
 71
     0
 10
0.0
 20
0.0
 30
0.0
  3
block 287
  1

  0
POLYLINE
  5
84B
330
847
100
AcDbEntity
  8
ESPECIAL
 62
     7
370
     9
100
AcDb2dPolyline
 66
     1
 10
0.0
 20
0.0
 30
0.0
  0
VERTEX
  5
84C
330
84B
100
AcDbEntity
  8
ESPECIAL
 62
     7
370
     9
100
AcDbVertex
100
AcDb2dVertex
 10
468.953125
 20
475.13232421875
 30
0.0
  0
VERTEX
  5
84D
330
84B
100
AcDbEntity
  8
ESPECIAL
 62
     7
370
     9
100
AcDbVertex
100
AcDb2dVertex
 10
473.962890625
 20
475.13232421875
 30
0.0
  0
SEQEND
  5
84E
330
84B
100
AcDbEntity
  8
ESPECIAL
370
     9
  0
ENDBLK
  5
84A
330
847
100
AcDbEntity
  8
0
100
AcDbBlockEnd
  0
BLOCK
  5
851
330
84F
100
AcDbEntity
  8
0
100
AcDbBlockBegin
  2
block 288
 70
     0
 71
     0
 10
0.0
 20
0.0
 30
0.0
  3
block 288
  1

  0
POLYLINE
  5
853
330
84F
100
AcDbEntity
  8
ESPECIAL
 62
     7
370
     9
100
AcDb2dPolyline
 66
     1
 10
0.0
 20
0.0
 30
0.0
  0
VERTEX
  5
854
330
853
100
AcDbEntity
  8
ESPECIAL
 62
     7
370
     9
100
AcDbVertex
100
AcDb2dVertex
 10
468.953125
 20
474.5546875
 30
0.0
  0
VERTEX
  5
855
330
853
100
AcDbEntity
  8
ESPECIAL
 62
     7
370
     9
100
AcDbVertex
100
AcDb2dVertex
 10
473.962890625
 20
474.5546875
 30
0.0
  0
SEQEND
  5
856
330
853
100
AcDbEntity
  8
ESPECIAL
370
     9
  0
ENDBLK
  5
852
330
84F
100
AcDbEntity
  8
0
100
AcDbBlockEnd
  0
BLOCK
  5
859
330
857
100
AcDbEntity
  8
0
100
AcDbBlockBegin
  2
block 289
 70
     0
 71
     0
 10
0.0
 20
0.0
 30
0.0
  3
block 289
  1

  0
POLYLINE
  5
85B
330
857
100
AcDbEntity
  8
ESPECIAL
 62
     7
370
     9
100
AcDb2dPolyline
 66
     1
 10
0.0
 20
0.0
 30
0.0
  0
VERTEX
  5
85C
330
85B
100
AcDbEntity
  8
ESPECIAL
 62
     7
370
     9
100
AcDbVertex
100
AcDb2dVertex
 10
478.97265625
 20
475.13232421875
 30
0.0
  0
VERTEX
  5
85D
330
85B
100
AcDbEntity
  8
ESPECIAL
 62
     7
370
     9
100
AcDbVertex
100
AcDb2dVertex
 10
473.962890625
 20
475.13232421875
 30
0.0
  0
SEQEND
  5
85E
330
85B
100
AcDbEntity
  8
ESPECIAL
370
     9
  0
ENDBLK
  5
85A
330
857
100
AcDbEntity
  8
0
100
AcDbBlockEnd
  0
BLOCK
  5
861
330
85F
100
AcDbEntity
  8
0
100
AcDbBlockBegin
  2
block 290
 70
     0
 71
     0
 10
0.0
 20
0.0
 30
0.0
  3
block 290
  1

  0
POLYLINE
  5
863
330
85F
100
AcDbEntity
  8
ESPECIAL
 62
     7
370
     9
100
AcDb2dPolyline
 66
     1
 10
0.0
 20
0.0
 30
0.0
  0
VERTEX
  5
864
330
863
100
AcDbEntity
  8
ESPECIAL
 62
     7
370
     9
100
AcDbVertex
100
AcDb2dVertex
 10
478.97265625
 20
474.5546875
 30
0.0
  0
VERTEX
  5
865
330
863
100
AcDbEntity
  8
ESPECIAL
 62
     7
370
     9
100
AcDbVertex
100
AcDb2dVertex
 10
473.962890625
 20
474.5546875
 30
0.0
  0
SEQEND
  5
866
330
863
100
AcDbEntity
  8
ESPECIAL
370
     9
  0
ENDBLK
  5
862
330
85F
100
AcDbEntity
  8
0
100
AcDbBlockEnd
  0
BLOCK
  5
86A
330
868
100
AcDbEntity
  8
0
100
AcDbBlockBegin
  2
block 291
 70
     0
 71
     0
 10
0.0
 20
0.0
 30
0.0
  3
block 291
  1

  0
SPLINE
  5
86C
330
868
100
AcDbEntity
  8
INVIS\U+00CDVEIS
 62
     7
370
     9
100
AcDbSpline
210
0.0
220
0.0
230
1.0
 70
    11
 71
     3
 72
    23
 73
    19
 74
     0
 42
0.0000000001
 43
0.0000000001
 40
0.0
 40
0.0
 40
0.0
 40
0.0
 40
1.0
 40
1.0
 40
1.0
 40
2.0
 40
2.0
 40
2.0
 40
3.0
 40
3.0
 40
3.0
 40
4.0
 40
4.0
 40
4.0
 40
5.0
 40
5.0
 40
5.0
 40
6.0
 40
6.0
 40
6.0
 40
6.0
 10
105.24169921875
 20
330.1396484375
 30
0.0
 10
105.24169921875
 20
333.4384765625
 30
0.0
 10
102.5673828125
 20
336.11328125
 30
0.0
 10
99.2685546875
 20
336.11328125
 30
0.0
 10
95.96923828125
 20
336.11328125
 30
0.0
 10
93.294921875
 20
333.4384765625
 30
0.0
 10
93.294921875
 20
330.1396484375
 30
0.0
 10
93.294921875
 20
326.83984375
 30
0.0
 10
95.96923828125
 20
324.1650390625
 30
0.0
 10
99.2685546875
 20
324.1650390625
 30
0.0
 10
102.5673828125
 20
324.1650390625
 30
0.0
 10
105.24169921875
 20
326.83984375
 30
0.0
 10
105.24169921875
 20
330.1396484375
 30
0.0
 10
105.24169921875
 20
330.1396484375
 30
0.0
 10
105.24169921875
 20
330.1396484375
 30
0.0
 10
105.24169921875
 20
330.1396484375
 30
0.0
 10
105.24169921875
 20
330.1396484375
 30
0.0
 10
105.24169921875
 20
330.1396484375
 30
0.0
 10
105.24169921875
 20
330.1396484375
 30
0.0
  0
ENDBLK
  5
86B
330
868
100
AcDbEntity
  8
0
100
AcDbBlockEnd
  0
BLOCK
  5
86F
330
86D
100
AcDbEntity
  8
0
100
AcDbBlockBegin
  2
block 292
 70
     0
 71
     0
 10
0.0
 20
0.0
 30
0.0
  3
block 292
  1

  0
POLYLINE
  5
871
330
86D
100
AcDbEntity
  8
INVIS\U+00CDVEIS
 62
     7
370
     9
100
AcDb2dPolyline
 66
     1
 10
0.0
 20
0.0
 30
0.0
  0
VERTEX
  5
872
330
871
100
AcDbEntity
  8
INVIS\U+00CDVEIS
 62
     7
370
     9
100
AcDbVertex
100
AcDb2dVertex
 10
408.0615234375
 20
545.27294921875
 30
0.0
  0
VERTEX
  5
873
330
871
100
AcDbEntity
  8
INVIS\U+00CDVEIS
 62
     7
370
     9
100
AcDbVertex
100
AcDb2dVertex
 10
419.1376953125
 20
545.27294921875
 30
0.0
  0
SEQEND
  5
874
330
871
100
AcDbEntity
  8
INVIS\U+00CDVEIS
370
     9
  0
ENDBLK
  5
870
330
86D
100
AcDbEntity
  8
0
100
AcDbBlockEnd
  0
BLOCK
  5
877
330
875
100
AcDbEntity
  8
0
100
AcDbBlockBegin
  2
block 293
 70
     0
 71
     0
 10
0.0
 20
0.0
 30
0.0
  3
block 293
  1

  0
POLYLINE
  5
879
330
875
100
AcDbEntity
  8
INVIS\U+00CDVEIS
 62
     7
370
     9
100
AcDb2dPolyline
 66
     1
 10
0.0
 20
0.0
 30
0.0
  0
VERTEX
  5
87A
330
879
100
AcDbEntity
  8
INVIS\U+00CDVEIS
 62
     7
370
     9
100
AcDbVertex
100
AcDb2dVertex
 10
539.86328125
 20
545.27294921875
 30
0.0
  0
VERTEX
  5
87B
330
879
100
AcDbEntity
  8
INVIS\U+00CDVEIS
 62
     7
370
     9
100
AcDbVertex
100
AcDb2dVertex
 10
528.7880859375
 20
545.27294921875
 30
0.0
  0
SEQEND
  5
87C
330
879
100
AcDbEntity
  8
INVIS\U+00CDVEIS
370
     9
  0
ENDBLK
  5
878
330
875
100
AcDbEntity
  8
0
100
AcDbBlockEnd
  0
BLOCK
  5
880
330
87E
100
AcDbEntity
  8
0
100
AcDbBlockBegin
  2
block 294
 70
     0
 71
     0
 10
0.0
 20
0.0
 30
0.0
  3
block 294
  1

  0
SPLINE
  5
882
330
87E
100
AcDbEntity
  8
INVISIVEL
 62
     7
370
     5
100
AcDbSpline
210
0.0
220
0.0
230
1.0
 70
     8
 71
     3
 72
     8
 73
     4
 74
     0
 42
0.0000000001
 43
0.0000000001
 40
0.0
 40
0.0
 40
0.0
 40
0.0
 40
1.0
 40
1.0
 40
1.0
 40
1.0
 10
293.18994140625
 20
302.322265625
 30
0.0
 10
295.1982421875
 20
309.3955078125
 30
0.0
 10
296.83349609375
 20
322.7919921875
 30
0.0
 10
296.58642578125
 20
330.1396484375
 30
0.0
  0
ENDBLK
  5
881
330
87E
100
AcDbEntity
  8
0
100
AcDbBlockEnd
  0
BLOCK
  5
885
330
883
100
AcDbEntity
  8
0
100
AcDbBlockBegin
  2
block 295
 70
     0
 71
     0
 10
0.0
 20
0.0
 30
0.0
  3
block 295
  1

  0
SPLINE
  5
887
330
883
100
AcDbEntity
  8
INVISIVEL
 62
     7
370
     5
100
AcDbSpline
210
0.0
220
0.0
230
1.0
 70
     8
 71
     3
 72
     8
 73
     4
 74
     0
 42
0.0000000001
 43
0.0000000001
 40
0.0
 40
0.0
 40
0.0
 40
0.0
 40
1.0
 40
1.0
 40
1.0
 40
1.0
 10
95.3515625
 20
278.181640625
 30
0.0
 10
115.24462890625
 20
276.7607421875
 30
0.0
 10
154.47607421875
 20
275.1767578125
 30
0.0
 10
174.41845703125
 20
274.986328125
 30
0.0
  0
ENDBLK
  5
886
330
883
100
AcDbEntity
  8
0
100
AcDbBlockEnd
  0
BLOCK
  5
88A
330
888
100
AcDbEntity
  8
0
100
AcDbBlockBegin
  2
block 296
 70
     0
 71
     0
 10
0.0
 20
0.0
 30
0.0
  3
block 296
  1

  0
SPLINE
  5
88C
330
888
100
AcDbEntity
  8
INVISIVEL
 62
     7
370
     5
100
AcDbSpline
210
0.0
220
0.0
230
1.0
 70
     8
 71
     3
 72
     8
 73
     4
 74
     0
 42
0.0000000001
 43
0.0000000001
 40
0.0
 40
0.0
 40
0.0
 40
0.0
 40
1.0
 40
1.0
 40
1.0
 40
1.0
 10
174.41845703125
 20
274.986328125
 30
0.0
 10
197.41064453125
 20
275.1806640625
 30
0.0
 10
242.5244140625
 20
277.1630859375
 30
0.0
 10
265.4453125
 20
278.986328125
 30
0.0
  0
ENDBLK
  5
88B
330
888
100
AcDbEntity
  8
0
100
AcDbBlockEnd
  0
BLOCK
  5
88F
330
88D
100
AcDbEntity
  8
0
100
AcDbBlockBegin
  2
block 297
 70
     0
 71
     0
 10
0.0
 20
0.0
 30
0.0
  3
block 297
  1

  0
SPLINE
  5
891
330
88D
100
AcDbEntity
  8
INVISIVEL
 62
     7
370
     5
100
AcDbSpline
210
0.0
220
0.0
230
1.0
 70
     8
 71
     3
 72
     8
 73
     4
 74
     0
 42
0.0000000001
 43
0.0000000001
 40
0.0
 40
0.0
 40
0.0
 40
0.0
 40
1.0
 40
1.0
 40
1.0
 40
1.0
 10
265.4453125
 20
278.986328125
 30
0.0
 10
278.2080078125
 20
279.4560546875
 30
0.0
 10
290.5400390625
 20
289.8291015625
 30
0.0
 10
293.18994140625
 20
302.322265625
 30
0.0
  0
ENDBLK
  5
890
330
88D
100
AcDbEntity
  8
0
100
AcDbBlockEnd
  0
BLOCK
  5
894
330
892
100
AcDbEntity
  8
0
100
AcDbBlockBegin
  2
block 298
 70
     0
 71
     0
 10
0.0
 20
0.0
 30
0.0
  3
block 298
  1

  0
SPLINE
  5
896
330
892
100
AcDbEntity
  8
INVISIVEL
 62
     7
370
     5
100
AcDbSpline
210
0.0
220
0.0
230
1.0
 70
     8
 71
     3
 72
     8
 73
     4
 74
     0
 42
0.0000000001
 43
0.0000000001
 40
0.0
 40
0.0
 40
0.0
 40
0.0
 40
1.0
 40
1.0
 40
1.0
 40
1.0
 10
61.1064453125
 20
313.099609375
 30
0.0
 10
61.68359375
 20
294.6796875
 30
0.0
 10
76.9453125
 20
279.1162109375
 30
0.0
 10
95.3515625
 20
278.181640625
 30
0.0
  0
ENDBLK
  5
895
330
892
100
AcDbEntity
  8
0
100
AcDbBlockEnd
  0
BLOCK
  5
899
330
897
100
AcDbEntity
  8
0
100
AcDbBlockBegin
  2
block 299
 70
     0
 71
     0
 10
0.0
 20
0.0
 30
0.0
  3
block 299
  1

  0
SPLINE
  5
89B
330
897
100
AcDbEntity
  8
INVISIVEL
 62
     7
370
     5
100
AcDbSpline
210
0.0
220
0.0
230
1.0
 70
     8
 71
     3
 72
     8
 73
     4
 74
     0
 42
0.0000000001
 43
0.0000000001
 40
0.0
 40
0.0
 40
0.0
 40
0.0
 40
1.0
 40
1.0
 40
1.0
 40
1.0
 10
61.1064453125
 20
347.1787109375
 30
0.0
 10
60.88623046875
 20
342.890625
 30
0.0
 10
60.69921875
 20
334.4326171875
 30
0.0
 10
60.72998046875
 20
330.1396484375
 30
0.0
  0
ENDBLK
  5
89A
330
897
100
AcDbEntity
  8
0
100
AcDbBlockEnd
  0
BLOCK
  5
89E
330
89C
100
AcDbEntity
  8
0
100
AcDbBlockBegin
  2
block 300
 70
     0
 71
     0
 10
0.0
 20
0.0
 30
0.0
  3
block 300
  1

  0
SPLINE
  5
8A0
330
89C
100
AcDbEntity
  8
INVISIVEL
 62
     7
370
     5
100
AcDbSpline
210
0.0
220
0.0
230
1.0
 70
     8
 71
     3
 72
     8
 73
     4
 74
     0
 42
0.0000000001
 43
0.0000000001
 40
0.0
 40
0.0
 40
0.0
 40
0.0
 40
1.0
 40
1.0
 40
1.0
 40
1.0
 10
296.58642578125
 20
330.1396484375
 30
0.0
 10
296.83349609375
 20
337.4873046875
 30
0.0
 10
295.1982421875
 20
350.8837890625
 30
0.0
 10
293.18994140625
 20
357.9560546875
 30
0.0
  0
ENDBLK
  5
89F
330
89C
100
AcDbEntity
  8
0
100
AcDbBlockEnd
  0
BLOCK
  5
8A3
330
8A1
100
AcDbEntity
  8
0
100
AcDbBlockBegin
  2
block 301
 70
     0
 71
     0
 10
0.0
 20
0.0
 30
0.0
  3
block 301
  1

  0
SPLINE
  5
8A5
330
8A1
100
AcDbEntity
  8
INVISIVEL
 62
     7
370
     5
100
AcDbSpline
210
0.0
220
0.0
230
1.0
 70
     8
 71
     3
 72
     8
 73
     4
 74
     0
 42
0.0000000001
 43
0.0000000001
 40
0.0
 40
0.0
 40
0.0
 40
0.0
 40
1.0
 40
1.0
 40
1.0
 40
1.0
 10
265.4453125
 20
381.29296875
 30
0.0
 10
242.5244140625
 20
383.1162109375
 30
0.0
 10
197.41064453125
 20
385.0986328125
 30
0.0
 10
174.41845703125
 20
385.2919921875
 30
0.0
  0
ENDBLK
  5
8A4
330
8A1
100
AcDbEntity
  8
0
100
AcDbBlockEnd
  0
BLOCK
  5
8A8
330
8A6
100
AcDbEntity
  8
0
100
AcDbBlockBegin
  2
block 302
 70
     0
 71
     0
 10
0.0
 20
0.0
 30
0.0
  3
block 302
  1

  0
SPLINE
  5
8AA
330
8A6
100
AcDbEntity
  8
INVISIVEL
 62
     7
370
     5
100
AcDbSpline
210
0.0
220
0.0
230
1.0
 70
     8
 71
     3
 72
     8
 73
     4
 74
     0
 42
0.0000000001
 43
0.0000000001
 40
0.0
 40
0.0
 40
0.0
 40
0.0
 40
1.0
 40
1.0
 40
1.0
 40
1.0
 10
174.41845703125
 20
385.2919921875
 30
0.0
 10
154.47607421875
 20
385.1025390625
 30
0.0
 10
115.24462890625
 20
383.517578125
 30
0.0
 10
95.3515625
 20
382.09765625
 30
0.0
  0
ENDBLK
  5
8A9
330
8A6
100
AcDbEntity
  8
0
100
AcDbBlockEnd
  0
BLOCK
  5
8AD
330
8AB
100
AcDbEntity
  8
0
100
AcDbBlockBegin
  2
block 303
 70
     0
 71
     0
 10
0.0
 20
0.0
 30
0.0
  3
block 303
  1

  0
SPLINE
  5
8AF
330
8AB
100
AcDbEntity
  8
INVISIVEL
 62
     7
370
     5
100
AcDbSpline
210
0.0
220
0.0
230
1.0
 70
     8
 71
     3
 72
     8
 73
     4
 74
     0
 42
0.0000000001
 43
0.0000000001
 40
0.0
 40
0.0
 40
0.0
 40
0.0
 40
1.0
 40
1.0
 40
1.0
 40
1.0
 10
293.18994140625
 20
357.9560546875
 30
0.0
 10
290.5400390625
 20
370.4501953125
 30
0.0
 10
278.2080078125
 20
380.822265625
 30
0.0
 10
265.4453125
 20
381.29296875
 30
0.0
  0
ENDBLK
  5
8AE
330
8AB
100
AcDbEntity
  8
0
100
AcDbBlockEnd
  0
BLOCK
  5
8B2
330
8B0
100
AcDbEntity
  8
0
100
AcDbBlockBegin
  2
block 304
 70
     0
 71
     0
 10
0.0
 20
0.0
 30
0.0
  3
block 304
  1

  0
SPLINE
  5
8B4
330
8B0
100
AcDbEntity
  8
INVISIVEL
 62
     7
370
     5
100
AcDbSpline
210
0.0
220
0.0
230
1.0
 70
     8
 71
     3
 72
     8
 73
     4
 74
     0
 42
0.0000000001
 43
0.0000000001
 40
0.0
 40
0.0
 40
0.0
 40
0.0
 40
1.0
 40
1.0
 40
1.0
 40
1.0
 10
95.3515625
 20
382.09765625
 30
0.0
 10
76.9453125
 20
381.162109375
 30
0.0
 10
61.68359375
 20
365.599609375
 30
0.0
 10
61.1064453125
 20
347.1787109375
 30
0.0
  0
ENDBLK
  5
8B3
330
8B0
100
AcDbEntity
  8
0
100
AcDbBlockEnd
  0
BLOCK
  5
8B7
330
8B5
100
AcDbEntity
  8
0
100
AcDbBlockBegin
  2
block 305
 70
     0
 71
     0
 10
0.0
 20
0.0
 30
0.0
  3
block 305
  1

  0
SPLINE
  5
8B9
330
8B5
100
AcDbEntity
  8
INVISIVEL
 62
     7
370
     5
100
AcDbSpline
210
0.0
220
0.0
230
1.0
 70
     8
 71
     3
 72
     8
 73
     4
 74
     0
 42
0.0000000001
 43
0.0000000001
 40
0.0
 40
0.0
 40
0.0
 40
0.0
 40
1.0
 40
1.0
 40
1.0
 40
1.0
 10
217.322265625
 20
373.2265625
 30
0.0
 10
206.556640625
 20
373.7275390625
 30
0.0
 10
185.19482421875
 20
374.3623046875
 30
0.0
 10
174.41845703125
 20
374.501953125
 30
0.0
  0
ENDBLK
  5
8B8
330
8B5
100
AcDbEntity
  8
0
100
AcDbBlockEnd
  0
BLOCK
  5
8BC
330
8BA
100
AcDbEntity
  8
0
100
AcDbBlockBegin
  2
block 306
 70
     0
 71
     0
 10
0.0
 20
0.0
 30
0.0
  3
block 306
  1

  0
SPLINE
  5
8BE
330
8BA
100
AcDbEntity
  8
INVISIVEL
 62
     7
370
     5
100
AcDbSpline
210
0.0
220
0.0
230
1.0
 70
     8
 71
     3
 72
     8
 73
     4
 74
     0
 42
0.0000000001
 43
0.0000000001
 40
0.0
 40
0.0
 40
0.0
 40
0.0
 40
1.0
 40
1.0
 40
1.0
 40
1.0
 10
174.41845703125
 20
374.501953125
 30
0.0
 10
153.39453125
 20
374.3095703125
 30
0.0
 10
112.07275390625
 20
372.5888671875
 30
0.0
 10
91.10498046875
 20
371.03125
 30
0.0
  0
ENDBLK
  5
8BD
330
8BA
100
AcDbEntity
  8
0
100
AcDbBlockEnd
  0
BLOCK
  5
8C1
330
8BF
100
AcDbEntity
  8
0
100
AcDbBlockBegin
  2
block 307
 70
     0
 71
     0
 10
0.0
 20
0.0
 30
0.0
  3
block 307
  1

  0
SPLINE
  5
8C3
330
8BF
100
AcDbEntity
  8
INVISIVEL
 62
     7
370
     5
100
AcDbSpline
210
0.0
220
0.0
230
1.0
 70
     8
 71
     3
 72
     8
 73
     4
 74
     0
 42
0.0000000001
 43
0.0000000001
 40
0.0
 40
0.0
 40
0.0
 40
0.0
 40
1.0
 40
1.0
 40
1.0
 40
1.0
 10
91.10498046875
 20
289.248046875
 30
0.0
 10
112.07275390625
 20
287.6904296875
 30
0.0
 10
153.39453125
 20
285.96875
 30
0.0
 10
174.41845703125
 20
285.77734375
 30
0.0
  0
ENDBLK
  5
8C2
330
8BF
100
AcDbEntity
  8
0
100
AcDbBlockEnd
  0
BLOCK
  5
8C6
330
8C4
100
AcDbEntity
  8
0
100
AcDbBlockBegin
  2
block 308
 70
     0
 71
     0
 10
0.0
 20
0.0
 30
0.0
  3
block 308
  1

  0
SPLINE
  5
8C8
330
8C4
100
AcDbEntity
  8
INVISIVEL
 62
     7
370
     5
100
AcDbSpline
210
0.0
220
0.0
230
1.0
 70
     8
 71
     3
 72
     8
 73
     4
 74
     0
 42
0.0000000001
 43
0.0000000001
 40
0.0
 40
0.0
 40
0.0
 40
0.0
 40
1.0
 40
1.0
 40
1.0
 40
1.0
 10
174.41845703125
 20
285.77734375
 30
0.0
 10
185.19482421875
 20
285.916015625
 30
0.0
 10
206.556640625
 20
286.5517578125
 30
0.0
 10
217.322265625
 20
287.052734375
 30
0.0
  0
ENDBLK
  5
8C7
330
8C4
100
AcDbEntity
  8
0
100
AcDbBlockEnd
  0
BLOCK
  5
8CB
330
8C9
100
AcDbEntity
  8
0
100
AcDbBlockBegin
  2
block 309
 70
     0
 71
     0
 10
0.0
 20
0.0
 30
0.0
  3
block 309
  1

  0
SPLINE
  5
8CD
330
8C9
100
AcDbEntity
  8
INVISIVEL
 62
     7
370
     5
100
AcDbSpline
210
0.0
220
0.0
230
1.0
 70
     8
 71
     3
 72
     8
 73
     4
 74
     0
 42
0.0000000001
 43
0.0000000001
 40
0.0
 40
0.0
 40
0.0
 40
0.0
 40
1.0
 40
1.0
 40
1.0
 40
1.0
 10
217.322265625
 20
287.052734375
 30
0.0
 10
235.4697265625
 20
287.5517578125
 30
0.0
 10
251.0322265625
 20
302.501953125
 30
0.0
 10
252.25927734375
 20
320.615234375
 30
0.0
  0
ENDBLK
  5
8CC
330
8C9
100
AcDbEntity
  8
0
100
AcDbBlockEnd
  0
BLOCK
  5
8D0
330
8CE
100
AcDbEntity
  8
0
100
AcDbBlockBegin
  2
block 310
 70
     0
 71
     0
 10
0.0
 20
0.0
 30
0.0
  3
block 310
  1

  0
SPLINE
  5
8D2
330
8CE
100
AcDbEntity
  8
INVISIVEL
 62
     7
370
     5
100
AcDbSpline
210
0.0
220
0.0
230
1.0
 70
     8
 71
     3
 72
     8
 73
     4
 74
     0
 42
0.0000000001
 43
0.0000000001
 40
0.0
 40
0.0
 40
0.0
 40
0.0
 40
1.0
 40
1.0
 40
1.0
 40
1.0
 10
252.25927734375
 20
339.6640625
 30
0.0
 10
251.0322265625
 20
357.7763671875
 30
0.0
 10
235.4697265625
 20
372.7265625
 30
0.0
 10
217.322265625
 20
373.2265625
 30
0.0
  0
ENDBLK
  5
8D1
330
8CE
100
AcDbEntity
  8
0
100
AcDbBlockEnd
  0
BLOCK
  5
8D5
330
8D3
100
AcDbEntity
  8
0
100
AcDbBlockBegin
  2
block 311
 70
     0
 71
     0
 10
0.0
 20
0.0
 30
0.0
  3
block 311
  1

  0
SPLINE
  5
8D7
330
8D3
100
AcDbEntity
  8
INVISIVEL
 62
     7
370
     5
100
AcDbSpline
210
0.0
220
0.0
230
1.0
 70
     8
 71
     3
 72
     8
 73
     4
 74
     0
 42
0.0000000001
 43
0.0000000001
 40
0.0
 40
0.0
 40
0.0
 40
0.0
 40
1.0
 40
1.0
 40
1.0
 40
1.0
 10
69.07373046875
 20
330.1396484375
 30
0.0
 10
69.03564453125
 20
325.3583984375
 30
0.0
 10
69.26708984375
 20
315.95703125
 30
0.0
 10
69.53955078125
 20
311.18359375
 30
0.0
  0
ENDBLK
  5
8D6
330
8D3
100
AcDbEntity
  8
0
100
AcDbBlockEnd
  0
BLOCK
  5
8DA
330
8D8
100
AcDbEntity
  8
0
100
AcDbBlockBegin
  2
block 312
 70
     0
 71
     0
 10
0.0
 20
0.0
 30
0.0
  3
block 312
  1

  0
SPLINE
  5
8DC
330
8D8
100
AcDbEntity
  8
INVISIVEL
 62
     7
370
     5
100
AcDbSpline
210
0.0
220
0.0
230
1.0
 70
     8
 71
     3
 72
     8
 73
     4
 74
     0
 42
0.0000000001
 43
0.0000000001
 40
0.0
 40
0.0
 40
0.0
 40
0.0
 40
1.0
 40
1.0
 40
1.0
 40
1.0
 10
69.53955078125
 20
311.18359375
 30
0.0
 10
69.94921875
 20
299.6279296875
 30
0.0
 10
79.55810546875
 20
289.8544921875
 30
0.0
 10
91.10498046875
 20
289.248046875
 30
0.0
  0
ENDBLK
  5
8DB
330
8D8
100
AcDbEntity
  8
0
100
AcDbBlockEnd
  0
BLOCK
  5
8DF
330
8DD
100
AcDbEntity
  8
0
100
AcDbBlockBegin
  2
block 313
 70
     0
 71
     0
 10
0.0
 20
0.0
 30
0.0
  3
block 313
  1

  0
SPLINE
  5
8E1
330
8DD
100
AcDbEntity
  8
INVISIVEL
 62
     7
370
     5
100
AcDbSpline
210
0.0
220
0.0
230
1.0
 70
     8
 71
     3
 72
     8
 73
     4
 74
     0
 42
0.0000000001
 43
0.0000000001
 40
0.0
 40
0.0
 40
0.0
 40
0.0
 40
1.0
 40
1.0
 40
1.0
 40
1.0
 10
91.10498046875
 20
371.03125
 30
0.0
 10
79.55810546875
 20
370.423828125
 30
0.0
 10
69.94921875
 20
360.650390625
 30
0.0
 10
69.53955078125
 20
349.095703125
 30
0.0
  0
ENDBLK
  5
8E0
330
8DD
100
AcDbEntity
  8
0
100
AcDbBlockEnd
  0
BLOCK
  5
8E4
330
8E2
100
AcDbEntity
  8
0
100
AcDbBlockBegin
  2
block 314
 70
     0
 71
     0
 10
0.0
 20
0.0
 30
0.0
  3
block 314
  1

  0
SPLINE
  5
8E6
330
8E2
100
AcDbEntity
  8
INVISIVEL
 62
     7
370
     5
100
AcDbSpline
210
0.0
220
0.0
230
1.0
 70
     8
 71
     3
 72
     8
 73
     4
 74
     0
 42
0.0000000001
 43
0.0000000001
 40
0.0
 40
0.0
 40
0.0
 40
0.0
 40
1.0
 40
1.0
 40
1.0
 40
1.0
 10
60.7587890625
 20
325.4296875
 30
0.0
 10
61.7099609375
 20
327.96875
 30
0.0
 10
61.7099609375
 20
332.310546875
 30
0.0
 10
60.7587890625
 20
334.849609375
 30
0.0
  0
ENDBLK
  5
8E5
330
8E2
100
AcDbEntity
  8
0
100
AcDbBlockEnd
  0
BLOCK
  5
8EA
330
8E8
100
AcDbEntity
  8
0
100
AcDbBlockBegin
  2
block 315
 70
     0
 71
     0
 10
0.0
 20
0.0
 30
0.0
  3
block 315
  1

  0
POLYLINE
  5
8EC
330
8E8
100
AcDbEntity
  8
COERTES
  6
AI-Linetype-2
 62
     7
370
     9
100
AcDb2dPolyline
 66
     1
 10
0.0
 20
0.0
 30
0.0
  0
VERTEX
  5
8ED
330
8EC
100
AcDbEntity
  8
COERTES
  6
AI-Linetype-2
 62
     7
370
     9
100
AcDbVertex
100
AcDb2dVertex
 10
69.07373046875
 20
330.1396484375
 30
0.0
  0
VERTEX
  5
8EE
330
8EC
100
AcDbEntity
  8
COERTES
  6
AI-Linetype-2
 62
     7
370
     9
100
AcDbVertex
100
AcDb2dVertex
 10
69.07373046875
 20
257.8798828125
 30
0.0
  0
SEQEND
  5
8EF
330
8EC
100
AcDbEntity
  8
COERTES
  6
AI-Linetype-2
370
     9
  0
ENDBLK
  5
8EB
330
8E8
100
AcDbEntity
  8
0
100
AcDbBlockEnd
  0
BLOCK
  5
8F3
330
8F1
100
AcDbEntity
  8
0
100
AcDbBlockBegin
  2
block 316
 70
     0
 71
     0
 10
0.0
 20
0.0
 30
0.0
  3
block 316
  1

  0
POLYLINE
  5
8F5
330
8F1
100
AcDbEntity
  8
COERTES
  6
AI-Linetype-3
 62
     7
370
     9
100
AcDb2dPolyline
 66
     1
 10
0.0
 20
0.0
 30
0.0
  0
VERTEX
  5
8F6
330
8F5
100
AcDbEntity
  8
COERTES
  6
AI-Linetype-3
 62
     7
370
     9
100
AcDbVertex
100
AcDb2dVertex
 10
252.5537109375
 20
334.90625
 30
0.0
  0
VERTEX
  5
8F7
330
8F5
100
AcDbEntity
  8
COERTES
  6
AI-Linetype-3
 62
     7
370
     9
100
AcDbVertex
100
AcDb2dVertex
 10
252.5537109375
 20
265.0546875
 30
0.0
  0
SEQEND
  5
8F8
330
8F5
100
AcDbEntity
  8
COERTES
  6
AI-Linetype-3
370
     9
  0
ENDBLK
  5
8F4
330
8F1
100
AcDbEntity
  8
0
100
AcDbBlockEnd
  0
BLOCK
  5
8FC
330
8FA
100
AcDbEntity
  8
0
100
AcDbBlockBegin
  2
block 317
 70
     0
 71
     0
 10
0.0
 20
0.0
 30
0.0
  3
block 317
  1

  0
POLYLINE
  5
8FE
330
8FA
100
AcDbEntity
  8
COERTES
  6
AI-Linetype-4
 62
     7
370
     9
100
AcDb2dPolyline
 66
     1
 10
0.0
 20
0.0
 30
0.0
  0
VERTEX
  5
8FF
330
8FE
100
AcDbEntity
  8
COERTES
  6
AI-Linetype-4
 62
     7
370
     9
100
AcDbVertex
100
AcDb2dVertex
 10
99.2685546875
 20
402.3994140625
 30
0.0
  0
VERTEX
  5
900
330
8FE
100
AcDbEntity
  8
COERTES
  6
AI-Linetype-4
 62
     7
370
     9
100
AcDbVertex
100
AcDb2dVertex
 10
99.2685546875
 20
332.548828125
 30
0.0
  0
SEQEND
  5
901
330
8FE
100
AcDbEntity
  8
COERTES
  6
AI-Linetype-4
370
     9
  0
ENDBLK
  5
8FD
330
8FA
100
AcDbEntity
  8
0
100
AcDbBlockEnd
  0
BLOCK
  5
905
330
903
100
AcDbEntity
  8
0
100
AcDbBlockBegin
  2
block 318
 70
     0
 71
     0
 10
0.0
 20
0.0
 30
0.0
  3
block 318
  1

  0
POLYLINE
  5
907
330
903
100
AcDbEntity
  8
COERTES
  6
AI-Linetype-5
 62
     7
370
     9
100
AcDb2dPolyline
 66
     1
 10
0.0
 20
0.0
 30
0.0
  0
VERTEX
  5
908
330
907
100
AcDbEntity
  8
COERTES
  6
AI-Linetype-5
 62
     7
370
     9
100
AcDbVertex
100
AcDb2dVertex
 10
174.41845703125
 20
285.77734375
 30
0.0
  0
VERTEX
  5
909
330
907
100
AcDbEntity
  8
COERTES
  6
AI-Linetype-5
 62
     7
370
     9
100
AcDbVertex
100
AcDb2dVertex
 10
333.5302734375
 20
285.77734375
 30
0.0
  0
SEQEND
  5
90A
330
907
100
AcDbEntity
  8
COERTES
  6
AI-Linetype-5
370
     9
  0
ENDBLK
  5
906
330
903
100
AcDbEntity
  8
0
100
AcDbBlockEnd
  0
BLOCK
  5
90E
330
90C
100
AcDbEntity
  8
0
100
AcDbBlockBegin
  2
block 319
 70
     0
 71
     0
 10
0.0
 20
0.0
 30
0.0
  3
block 319
  1

  0
POLYLINE
  5
910
330
90C
100
AcDbEntity
  8
COERTES
  6
AI-Linetype-6
 62
     7
370
     9
100
AcDb2dPolyline
 66
     1
 10
0.0
 20
0.0
 30
0.0
  0
VERTEX
  5
911
330
910
100
AcDbEntity
  8
COERTES
  6
AI-Linetype-6
 62
     7
370
     9
100
AcDbVertex
100
AcDb2dVertex
 10
174.41845703125
 20
374.501953125
 30
0.0
  0
VERTEX
  5
912
330
910
100
AcDbEntity
  8
COERTES
  6
AI-Linetype-6
 62
     7
370
     9
100
AcDbVertex
100
AcDb2dVertex
 10
333.5302734375
 20
374.501953125
 30
0.0
  0
SEQEND
  5
913
330
910
100
AcDbEntity
  8
COERTES
  6
AI-Linetype-6
370
     9
  0
ENDBLK
  5
90F
330
90C
100
AcDbEntity
  8
0
100
AcDbBlockEnd
  0
BLOCK
  5
917
330
915
100
AcDbEntity
  8
0
100
AcDbBlockBegin
  2
block 320
 70
     0
 71
     0
 10
0.0
 20
0.0
 30
0.0
  3
block 320
  1

  0
POLYLINE
  5
919
330
915
100
AcDbEntity
  8
COERTES
  6
AI-Linetype-7
 62
     7
370
     9
100
AcDb2dPolyline
 66
     1
 10
0.0
 20
0.0
 30
0.0
  0
VERTEX
  5
91A
330
919
100
AcDbEntity
  8
COERTES
  6
AI-Linetype-7
 62
     7
370
     9
100
AcDbVertex
100
AcDb2dVertex
 10
473.962890625
 20
537.5654296875
 30
0.0
  0
VERTEX
  5
91B
330
919
100
AcDbEntity
  8
COERTES
  6
AI-Linetype-7
 62
     7
370
     9
100
AcDbVertex
100
AcDb2dVertex
 10
535.0908203125
 20
537.5654296875
 30
0.0
  0
SEQEND
  5
91C
330
919
100
AcDbEntity
  8
COERTES
  6
AI-Linetype-7
370
     9
  0
ENDBLK
  5
918
330
915
100
AcDbEntity
  8
0
100
AcDbBlockEnd
  0
ENDSEC
  0
SECTION
  2
ENTITIES
  0
INSERT
  5
3D
330
1F
100
AcDbEntity
  8
LINHAEXT
100
AcDbBlockReference
  2
block 2
 10
0.0
 20
0.0
 30
0.0
  0
INSERT
  5
42
330
1F
100
AcDbEntity
  8
LINHAEXT
100
AcDbBlockReference
  2
block 3
 10
0.0
 20
0.0
 30
0.0
  0
INSERT
  5
4A
330
1F
100
AcDbEntity
  8
LINHAEXT
100
AcDbBlockReference
  2
block 4
 10
0.0
 20
0.0
 30
0.0
  0
INSERT
  5
52
330
1F
100
AcDbEntity
  8
LINHAEXT
100
AcDbBlockReference
  2
block 5
 10
0.0
 20
0.0
 30
0.0
  0
INSERT
  5
57
330
1F
100
AcDbEntity
  8
LINHAEXT
100
AcDbBlockReference
  2
block 6
 10
0.0
 20
0.0
 30
0.0
  0
INSERT
  5
5C
330
1F
100
AcDbEntity
  8
LINHAEXT
100
AcDbBlockReference
  2
block 7
 10
0.0
 20
0.0
 30
0.0
  0
INSERT
  5
61
330
1F
100
AcDbEntity
  8
LINHAEXT
100
AcDbBlockReference
  2
block 8
 10
0.0
 20
0.0
 30
0.0
  0
INSERT
  5
66
330
1F
100
AcDbEntity
  8
LINHAEXT
100
AcDbBlockReference
  2
block 9
 10
0.0
 20
0.0
 30
0.0
  0
INSERT
  5
6B
330
1F
100
AcDbEntity
  8
LINHAEXT
100
AcDbBlockReference
  2
block 10
 10
0.0
 20
0.0
 30
0.0
  0
INSERT
  5
70
330
1F
100
AcDbEntity
  8
LINHAEXT
100
AcDbBlockReference
  2
block 11
 10
0.0
 20
0.0
 30
0.0
  0
INSERT
  5
78
330
1F
100
AcDbEntity
  8
LINHAEXT
100
AcDbBlockReference
  2
block 12
 10
0.0
 20
0.0
 30
0.0
  0
INSERT
  5
80
330
1F
100
AcDbEntity
  8
LINHAEXT
100
AcDbBlockReference
  2
block 13
 10
0.0
 20
0.0
 30
0.0
  0
INSERT
  5
88
330
1F
100
AcDbEntity
  8
LINHAEXT
100
AcDbBlockReference
  2
block 14
 10
0.0
 20
0.0
 30
0.0
  0
INSERT
  5
90
330
1F
100
AcDbEntity
  8
LINHAEXT
100
AcDbBlockReference
  2
block 15
 10
0.0
 20
0.0
 30
0.0
  0
INSERT
  5
98
330
1F
100
AcDbEntity
  8
LINHAEXT
100
AcDbBlockReference
  2
block 16
 10
0.0
 20
0.0
 30
0.0
  0
INSERT
  5
9D
330
1F
100
AcDbEntity
  8
LINHAEXT
100
AcDbBlockReference
  2
block 17
 10
0.0
 20
0.0
 30
0.0
  0
INSERT
  5
A2
330
1F
100
AcDbEntity
  8
LINHAEXT
100
AcDbBlockReference
  2
block 18
 10
0.0
 20
0.0
 30
0.0
  0
INSERT
  5
A7
330
1F
100
AcDbEntity
  8
LINHAEXT
100
AcDbBlockReference
  2
block 19
 10
0.0
 20
0.0
 30
0.0
  0
INSERT
  5
AC
330
1F
100
AcDbEntity
  8
LINHAEXT
100
AcDbBlockReference
  2
block 20
 10
0.0
 20
0.0
 30
0.0
  0
INSERT
  5
B4
330
1F
100
AcDbEntity
  8
LINHAEXT
100
AcDbBlockReference
  2
block 21
 10
0.0
 20
0.0
 30
0.0
  0
INSERT
  5
BC
330
1F
100
AcDbEntity
  8
LINHAEXT
100
AcDbBlockReference
  2
block 22
 10
0.0
 20
0.0
 30
0.0
  0
INSERT
  5
C4
330
1F
100
AcDbEntity
  8
LINHAEXT
100
AcDbBlockReference
  2
block 23
 10
0.0
 20
0.0
 30
0.0
  0
INSERT
  5
C9
330
1F
100
AcDbEntity
  8
LINHAEXT
100
AcDbBlockReference
  2
block 24
 10
0.0
 20
0.0
 30
0.0
  0
INSERT
  5
CE
330
1F
100
AcDbEntity
  8
LINHAEXT
100
AcDbBlockReference
  2
block 25
 10
0.0
 20
0.0
 30
0.0
  0
INSERT
  5
D3
330
1F
100
AcDbEntity
  8
LINHAEXT
100
AcDbBlockReference
  2
block 26
 10
0.0
 20
0.0
 30
0.0
  0
INSERT
  5
D8
330
1F
100
AcDbEntity
  8
LINHAEXT
100
AcDbBlockReference
  2
block 27
 10
0.0
 20
0.0
 30
0.0
  0
INSERT
  5
E0
330
1F
100
AcDbEntity
  8
LINHAEXT
100
AcDbBlockReference
  2
block 28
 10
0.0
 20
0.0
 30
0.0
  0
INSERT
  5
E8
330
1F
100
AcDbEntity
  8
LINHAEXT
100
AcDbBlockReference
  2
block 29
 10
0.0
 20
0.0
 30
0.0
  0
INSERT
  5
ED
330
1F
100
AcDbEntity
  8
LINHAEXT
100
AcDbBlockReference
  2
block 30
 10
0.0
 20
0.0
 30
0.0
  0
INSERT
  5
F2
330
1F
100
AcDbEntity
  8
LINHAEXT
100
AcDbBlockReference
  2
block 31
 10
0.0
 20
0.0
 30
0.0
  0
INSERT
  5
FA
330
1F
100
AcDbEntity
  8
LINHAEXT
100
AcDbBlockReference
  2
block 32
 10
0.0
 20
0.0
 30
0.0
  0
INSERT
  5
102
330
1F
100
AcDbEntity
  8
LINHAEXT
100
AcDbBlockReference
  2
block 33
 10
0.0
 20
0.0
 30
0.0
  0
INSERT
  5
107
330
1F
100
AcDbEntity
  8
LINHAEXT
100
AcDbBlockReference
  2
block 34
 10
0.0
 20
0.0
 30
0.0
  0
INSERT
  5
10C
330
1F
100
AcDbEntity
  8
LINHAEXT
100
AcDbBlockReference
  2
block 35
 10
0.0
 20
0.0
 30
0.0
  0
INSERT
  5
114
330
1F
100
AcDbEntity
  8
LINHAEXT
100
AcDbBlockReference
  2
block 36
 10
0.0
 20
0.0
 30
0.0
  0
INSERT
  5
11C
330
1F
100
AcDbEntity
  8
LINHAEXT
100
AcDbBlockReference
  2
block 37
 10
0.0
 20
0.0
 30
0.0
  0
INSERT
  5
121
330
1F
100
AcDbEntity
  8
LINHAEXT
100
AcDbBlockReference
  2
block 38
 10
0.0
 20
0.0
 30
0.0
  0
INSERT
  5
126
330
1F
100
AcDbEntity
  8
LINHAEXT
100
AcDbBlockReference
  2
block 39
 10
0.0
 20
0.0
 30
0.0
  0
INSERT
  5
12E
330
1F
100
AcDbEntity
  8
LINHAEXT
100
AcDbBlockReference
  2
block 40
 10
0.0
 20
0.0
 30
0.0
  0
INSERT
  5
136
330
1F
100
AcDbEntity
  8
LINHAEXT
100
AcDbBlockReference
  2
block 41
 10
0.0
 20
0.0
 30
0.0
  0
INSERT
  5
13B
330
1F
100
AcDbEntity
  8
LINHAEXT
100
AcDbBlockReference
  2
block 42
 10
0.0
 20
0.0
 30
0.0
  0
INSERT
  5
140
330
1F
100
AcDbEntity
  8
LINHAEXT
100
AcDbBlockReference
  2
block 43
 10
0.0
 20
0.0
 30
0.0
  0
INSERT
  5
145
330
1F
100
AcDbEntity
  8
LINHAEXT
100
AcDbBlockReference
  2
block 44
 10
0.0
 20
0.0
 30
0.0
  0
INSERT
  5
14A
330
1F
100
AcDbEntity
  8
LINHAEXT
100
AcDbBlockReference
  2
block 45
 10
0.0
 20
0.0
 30
0.0
  0
INSERT
  5
152
330
1F
100
AcDbEntity
  8
LINHAEXT
100
AcDbBlockReference
  2
block 46
 10
0.0
 20
0.0
 30
0.0
  0
INSERT
  5
15A
330
1F
100
AcDbEntity
  8
LINHAEXT
100
AcDbBlockReference
  2
block 47
 10
0.0
 20
0.0
 30
0.0
  0
INSERT
  5
162
330
1F
100
AcDbEntity
  8
LINHAEXT
100
AcDbBlockReference
  2
block 48
 10
0.0
 20
0.0
 30
0.0
  0
INSERT
  5
16A
330
1F
100
AcDbEntity
  8
LINHAEXT
100
AcDbBlockReference
  2
block 49
 10
0.0
 20
0.0
 30
0.0
  0
INSERT
  5
172
330
1F
100
AcDbEntity
  8
LINHAEXT
100
AcDbBlockReference
  2
block 50
 10
0.0
 20
0.0
 30
0.0
  0
INSERT
  5
177
330
1F
100
AcDbEntity
  8
LINHAEXT
100
AcDbBlockReference
  2
block 51
 10
0.0
 20
0.0
 30
0.0
  0
INSERT
  5
17C
330
1F
100
AcDbEntity
  8
LINHAEXT
100
AcDbBlockReference
  2
block 52
 10
0.0
 20
0.0
 30
0.0
  0
INSERT
  5
181
330
1F
100
AcDbEntity
  8
LINHAEXT
100
AcDbBlockReference
  2
block 53
 10
0.0
 20
0.0
 30
0.0
  0
INSERT
  5
186
330
1F
100
AcDbEntity
  8
LINHAEXT
100
AcDbBlockReference
  2
block 54
 10
0.0
 20
0.0
 30
0.0
  0
INSERT
  5
18E
330
1F
100
AcDbEntity
  8
LINHAEXT
100
AcDbBlockReference
  2
block 55
 10
0.0
 20
0.0
 30
0.0
  0
INSERT
  5
196
330
1F
100
AcDbEntity
  8
LINHAEXT
100
AcDbBlockReference
  2
block 56
 10
0.0
 20
0.0
 30
0.0
  0
INSERT
  5
19B
330
1F
100
AcDbEntity
  8
LINHAEXT
100
AcDbBlockReference
  2
block 57
 10
0.0
 20
0.0
 30
0.0
  0
INSERT
  5
1A0
330
1F
100
AcDbEntity
  8
LINHAEXT
100
AcDbBlockReference
  2
block 58
 10
0.0
 20
0.0
 30
0.0
  0
INSERT
  5
1A8
330
1F
100
AcDbEntity
  8
LINHAEXT
100
AcDbBlockReference
  2
block 59
 10
0.0
 20
0.0
 30
0.0
  0
INSERT
  5
1AD
330
1F
100
AcDbEntity
  8
LINHAEXT
100
AcDbBlockReference
  2
block 60
 10
0.0
 20
0.0
 30
0.0
  0
INSERT
  5
1B2
330
1F
100
AcDbEntity
  8
LINHAEXT
100
AcDbBlockReference
  2
block 61
 10
0.0
 20
0.0
 30
0.0
  0
INSERT
  5
1B7
330
1F
100
AcDbEntity
  8
LINHAEXT
100
AcDbBlockReference
  2
block 62
 10
0.0
 20
0.0
 30
0.0
  0
INSERT
  5
1BC
330
1F
100
AcDbEntity
  8
LINHAEXT
100
AcDbBlockReference
  2
block 63
 10
0.0
 20
0.0
 30
0.0
  0
INSERT
  5
1C1
330
1F
100
AcDbEntity
  8
LINHAEXT
100
AcDbBlockReference
  2
block 64
 10
0.0
 20
0.0
 30
0.0
  0
INSERT
  5
1C6
330
1F
100
AcDbEntity
  8
LINHAEXT
100
AcDbBlockReference
  2
block 65
 10
0.0
 20
0.0
 30
0.0
  0
INSERT
  5
1CB
330
1F
100
AcDbEntity
  8
LINHAEXT
100
AcDbBlockReference
  2
block 66
 10
0.0
 20
0.0
 30
0.0
  0
INSERT
  5
1D0
330
1F
100
AcDbEntity
  8
LINHAEXT
100
AcDbBlockReference
  2
block 67
 10
0.0
 20
0.0
 30
0.0
  0
INSERT
  5
1D5
330
1F
100
AcDbEntity
  8
0
100
AcDbBlockReference
  2
block 68
 10
0.0
 20
0.0
 30
0.0
  0
INSERT
  5
1DD
330
1F
100
AcDbEntity
  8
0
100
AcDbBlockReference
  2
block 69
 10
0.0
 20
0.0
 30
0.0
  0
INSERT
  5
1E5
330
1F
100
AcDbEntity
  8
0
100
AcDbBlockReference
  2
block 70
 10
0.0
 20
0.0
 30
0.0
  0
INSERT
  5
1ED
330
1F
100
AcDbEntity
  8
0
100
AcDbBlockReference
  2
block 71
 10
0.0
 20
0.0
 30
0.0
  0
INSERT
  5
1F2
330
1F
100
AcDbEntity
  8
0
100
AcDbBlockReference
  2
block 72
 10
0.0
 20
0.0
 30
0.0
  0
INSERT
  5
1F8
330
1F
100
AcDbEntity
  8
COTAS
100
AcDbBlockReference
  2
block 73
 10
0.0
 20
0.0
 30
0.0
  0
INSERT
  5
200
330
1F
100
AcDbEntity
  8
COTAS
100
AcDbBlockReference
  2
block 74
 10
0.0
 20
0.0
 30
0.0
  0
INSERT
  5
369
330
1F
100
AcDbEntity
  8
COTAS
100
AcDbBlockReference
  2
block 130
 10
0.0
 20
0.0
 30
0.0
  0
INSERT
  5
3C0
330
1F
100
AcDbEntity
  8
COTAS
100
AcDbBlockReference
  2
block 141
 10
0.0
 20
0.0
 30
0.0
  0
INSERT
  5
417
330
1F
100
AcDbEntity
  8
COTAS
100
AcDbBlockReference
  2
block 152
 10
0.0
 20
0.0
 30
0.0
  0
INSERT
  5
46E
330
1F
100
AcDbEntity
  8
COTAS
100
AcDbBlockReference
  2
block 163
 10
0.0
 20
0.0
 30
0.0
  0
INSERT
  5
4C5
330
1F
100
AcDbEntity
  8
COTAS
100
AcDbBlockReference
  2
block 174
 10
0.0
 20
0.0
 30
0.0
  0
INSERT
  5
51C
330
1F
100
AcDbEntity
  8
COTAS
100
AcDbBlockReference
  2
block 185
 10
0.0
 20
0.0
 30
0.0
  0
INSERT
  5
57B
330
1F
100
AcDbEntity
  8
COTAS
100
AcDbBlockReference
  2
block 197
 10
0.0
 20
0.0
 30
0.0
  0
INSERT
  5
5DA
330
1F
100
AcDbEntity
  8
COTAS
100
AcDbBlockReference
  2
block 209
 10
0.0
 20
0.0
 30
0.0
  0
INSERT
  5
641
330
1F
100
AcDbEntity
  8
COTAS
100
AcDbBlockReference
  2
block 222
 10
0.0
 20
0.0
 30
0.0
  0
INSERT
  5
690
330
1F
100
AcDbEntity
  8
COTAS
100
AcDbBlockReference
  2
block 232
 10
0.0
 20
0.0
 30
0.0
  0
INSERT
  5
6EF
330
1F
100
AcDbEntity
  8
COTAS
100
AcDbBlockReference
  2
block 244
 10
0.0
 20
0.0
 30
0.0
  0
INSERT
  5
746
330
1F
100
AcDbEntity
  8
COTAS
100
AcDbBlockReference
  2
block 255
 10
0.0
 20
0.0
 30
0.0
  0
INSERT
  5
7A5
330
1F
100
AcDbEntity
  8
COTAS
100
AcDbBlockReference
  2
block 267
 10
0.0
 20
0.0
 30
0.0
  0
INSERT
  5
843
330
1F
100
AcDbEntity
  8
ESPECIAL
100
AcDbBlockReference
  2
block 286
 10
0.0
 20
0.0
 30
0.0
  0
INSERT
  5
848
330
1F
100
AcDbEntity
  8
ESPECIAL
100
AcDbBlockReference
  2
block 287
 10
0.0
 20
0.0
 30
0.0
  0
INSERT
  5
850
330
1F
100
AcDbEntity
  8
ESPECIAL
100
AcDbBlockReference
  2
block 288
 10
0.0
 20
0.0
 30
0.0
  0
INSERT
  5
858
330
1F
100
AcDbEntity
  8
ESPECIAL
100
AcDbBlockReference
  2
block 289
 10
0.0
 20
0.0
 30
0.0
  0
INSERT
  5
860
330
1F
100
AcDbEntity
  8
ESPECIAL
100
AcDbBlockReference
  2
block 290
 10
0.0
 20
0.0
 30
0.0
  0
INSERT
  5
869
330
1F
100
AcDbEntity
  8
INVIS\U+00CDVEIS
100
AcDbBlockReference
  2
block 291
 10
0.0
 20
0.0
 30
0.0
  0
INSERT
  5
86E
330
1F
100
AcDbEntity
  8
INVIS\U+00CDVEIS
100
AcDbBlockReference
  2
block 292
 10
0.0
 20
0.0
 30
0.0
  0
INSERT
  5
876
330
1F
100
AcDbEntity
  8
INVIS\U+00CDVEIS
100
AcDbBlockReference
  2
block 293
 10
0.0
 20
0.0
 30
0.0
  0
INSERT
  5
87F
330
1F
100
AcDbEntity
  8
INVISIVEL
100
AcDbBlockReference
  2
block 294
 10
0.0
 20
0.0
 30
0.0
  0
INSERT
  5
884
330
1F
100
AcDbEntity
  8
INVISIVEL
100
AcDbBlockReference
  2
block 295
 10
0.0
 20
0.0
 30
0.0
  0
INSERT
  5
889
330
1F
100
AcDbEntity
  8
INVISIVEL
100
AcDbBlockReference
  2
block 296
 10
0.0
 20
0.0
 30
0.0
  0
INSERT
  5
88E
330
1F
100
AcDbEntity
  8
INVISIVEL
100
AcDbBlockReference
  2
block 297
 10
0.0
 20
0.0
 30
0.0
  0
INSERT
  5
893
330
1F
100
AcDbEntity
  8
INVISIVEL
100
AcDbBlockReference
  2
block 298
 10
0.0
 20
0.0
 30
0.0
  0
INSERT
  5
898
330
1F
100
AcDbEntity
  8
INVISIVEL
100
AcDbBlockReference
  2
block 299
 10
0.0
 20
0.0
 30
0.0
  0
INSERT
  5
89D
330
1F
100
AcDbEntity
  8
INVISIVEL
100
AcDbBlockReference
  2
block 300
 10
0.0
 20
0.0
 30
0.0
  0
INSERT
  5
8A2
330
1F
100
AcDbEntity
  8
INVISIVEL
100
AcDbBlockReference
  2
block 301
 10
0.0
 20
0.0
 30
0.0
  0
INSERT
  5
8A7
330
1F
100
AcDbEntity
  8
INVISIVEL
100
AcDbBlockReference
  2
block 302
 10
0.0
 20
0.0
 30
0.0
  0
INSERT
  5
8AC
330
1F
100
AcDbEntity
  8
INVISIVEL
100
AcDbBlockReference
  2
block 303
 10
0.0
 20
0.0
 30
0.0
  0
INSERT
  5
8B1
330
1F
100
AcDbEntity
  8
INVISIVEL
100
AcDbBlockReference
  2
block 304
 10
0.0
 20
0.0
 30
0.0
  0
INSERT
  5
8B6
330
1F
100
AcDbEntity
  8
INVISIVEL
100
AcDbBlockReference
  2
block 305
 10
0.0
 20
0.0
 30
0.0
  0
INSERT
  5
8BB
330
1F
100
AcDbEntity
  8
INVISIVEL
100
AcDbBlockReference
  2
block 306
 10
0.0
 20
0.0
 30
0.0
  0
INSERT
  5
8C0
330
1F
100
AcDbEntity
  8
INVISIVEL
100
AcDbBlockReference
  2
block 307
 10
0.0
 20
0.0
 30
0.0
  0
INSERT
  5
8C5
330
1F
100
AcDbEntity
  8
INVISIVEL
100
AcDbBlockReference
  2
block 308
 10
0.0
 20
0.0
 30
0.0
  0
INSERT
  5
8CA
330
1F
100
AcDbEntity
  8
INVISIVEL
100
AcDbBlockReference
  2
block 309
 10
0.0
 20
0.0
 30
0.0
  0
INSERT
  5
8CF
330
1F
100
AcDbEntity
  8
INVISIVEL
100
AcDbBlockReference
  2
block 310
 10
0.0
 20
0.0
 30
0.0
  0
INSERT
  5
8D4
330
1F
100
AcDbEntity
  8
INVISIVEL
100
AcDbBlockReference
  2
block 311
 10
0.0
 20
0.0
 30
0.0
  0
INSERT
  5
8D9
330
1F
100
AcDbEntity
  8
INVISIVEL
100
AcDbBlockReference
  2
block 312
 10
0.0
 20
0.0
 30
0.0
  0
INSERT
  5
8DE
330
1F
100
AcDbEntity
  8
INVISIVEL
100
AcDbBlockReference
  2
block 313
 10
0.0
 20
0.0
 30
0.0
  0
INSERT
  5
8E3
330
1F
100
AcDbEntity
  8
INVISIVEL
100
AcDbBlockReference
  2
block 314
 10
0.0
 20
0.0
 30
0.0
  0
INSERT
  5
8E9
330
1F
100
AcDbEntity
  8
COERTES
100
AcDbBlockReference
  2
block 315
 10
0.0
 20
0.0
 30
0.0
  0
INSERT
  5
8F2
330
1F
100
AcDbEntity
  8
COERTES
100
AcDbBlockReference
  2
block 316
 10
0.0
 20
0.0
 30
0.0
  0
INSERT
  5
8FB
330
1F
100
AcDbEntity
  8
COERTES
100
AcDbBlockReference
  2
block 317
 10
0.0
 20
0.0
 30
0.0
  0
INSERT
  5
904
330
1F
100
AcDbEntity
  8
COERTES
100
AcDbBlockReference
  2
block 318
 10
0.0
 20
0.0
 30
0.0
  0
INSERT
  5
90D
330
1F
100
AcDbEntity
  8
COERTES
100
AcDbBlockReference
  2
block 319
 10
0.0
 20
0.0
 30
0.0
  0
INSERT
  5
916
330
1F
100
AcDbEntity
  8
COERTES
100
AcDbBlockReference
  2
block 320
 10
0.0
 20
0.0
 30
0.0
  0
ENDSEC
  0
SECTION
  2
OBJECTS
  0
DICTIONARY
  5
C
330
0
100
AcDbDictionary
281
     1
  3
ACAD_GROUP
350
D
  3
ACAD_LAYOUT
350
1A
  3
ACAD_MLINESTYLE
350
17
  3
ACAD_PLOTSETTINGS
350
19
  3
ACAD_PLOTSTYLENAME
350
E
  3
ACAD_TABLESTYLE
350
91E
  3
ACAD_VISUALSTYLE
350
2A
  0
DICTIONARY
  5
D
102
{ACAD_REACTORS
330
C
102
}
330
C
100
AcDbDictionary
281
     1
  0
DICTIONARY
  5
1A
102
{ACAD_REACTORS
330
C
102
}
330
C
100
AcDbDictionary
281
     1
  3
Layout1
350
1E
  3
Layout2
350
26
  3
Model
350
22
  0
DICTIONARY
  5
17
102
{ACAD_REACTORS
330
C
102
}
330
C
100
AcDbDictionary
281
     1
  3
Standard
350
18
  0
DICTIONARY
  5
19
102
{ACAD_REACTORS
330
C
102
}
330
C
100
AcDbDictionary
281
     1
  0
ACDBDICTIONARYWDFLT
  5
E
102
{ACAD_REACTORS
330
C
102
}
330
C
100
AcDbDictionary
281
     1
  3
Normal
350
F
100
AcDbDictionaryWithDefault
340
F
  0
DICTIONARY
  5
91E
102
{ACAD_REACTORS
330
C
102
}
330
C
100
AcDbDictionary
281
     1
  0
DICTIONARY
  5
2A
102
{ACAD_REACTORS
330
C
102
}
330
C
100
AcDbDictionary
281
     1
  3
2dWireframe
350
2F
  3
3D Hidden
350
31
  3
3dWireframe
350
30
  3
Basic
350
32
  3
Brighten
350
36
  3
ColorChange
350
3A
  3
Conceptual
350
34
  3
Dim
350
35
  3
Facepattern
350
39
  3
Flat
350
2B
  3
FlatWithEdges
350
2C
  3
Gouraud
350
2D
  3
GouraudWithEdges
350
2E
  3
Linepattern
350
38
  3
Realistic
350
33
  3
Thicken
350
37
  0
LAYOUT
  5
1E
102
{ACAD_REACTORS
330
1A
102
}
330
1A
100
AcDbPlotSettings
  1

  2
none_device
  4

  6

 40
0.0
 41
0.0
 42
0.0
 43
0.0
 44
0.0
 45
0.0
 46
0.0
 47
0.0
 48
0.0
 49
0.0
140
0.0
141
0.0
142
1.0
143
1.0
 70
   688
 72
     0
 73
     0
 74
     5
  7

 75
    16
 76
     0
 77
     2
 78
   300
147
1.0
148
0.0
149
0.0
100
AcDbLayout
  1
Layout1
 70
     1
 71
     1
 10
0.0
 20
0.0
 11
12.0
 21
9.0
 12
0.0
 22
0.0
 32
0.0
 14
1.000000000000000E+20
 24
1.000000000000000E+20
 34
1.000000000000000E+20
 15
-1.000000000000000E+20
 25
-1.000000000000000E+20
 35
-1.000000000000000E+20
146
0.0
 13
0.0
 23
0.0
 33
0.0
 16
1.0
 26
0.0
 36
0.0
 17
0.0
 27
1.0
 37
0.0
 76
     0
330
1B
  0
LAYOUT
  5
26
102
{ACAD_REACTORS
330
1A
102
}
330
1A
100
AcDbPlotSettings
  1

  2
none_device
  4

  6

 40
0.0
 41
0.0
 42
0.0
 43
0.0
 44
0.0
 45
0.0
 46
0.0
 47
0.0
 48
0.0
 49
0.0
140
0.0
141
0.0
142
1.0
143
1.0
 70
   688
 72
     0
 73
     0
 74
     5
  7

 75
    16
 76
     0
 77
     2
 78
   300
147
1.0
148
0.0
149
0.0
100
AcDbLayout
  1
Layout2
 70
     1
 71
     2
 10
0.0
 20
0.0
 11
0.0
 21
0.0
 12
0.0
 22
0.0
 32
0.0
 14
0.0
 24
0.0
 34
0.0
 15
0.0
 25
0.0
 35
0.0
146
0.0
 13
0.0
 23
0.0
 33
0.0
 16
1.0
 26
0.0
 36
0.0
 17
0.0
 27
1.0
 37
0.0
 76
     0
330
23
  0
LAYOUT
  5
22
102
{ACAD_REACTORS
330
1A
102
}
330
1A
100
AcDbPlotSettings
  1

  2
none_device
  4

  6

 40
0.0
 41
0.0
 42
0.0
 43
0.0
 44
0.0
 45
0.0
 46
0.0
 47
0.0
 48
0.0
 49
0.0
140
0.0
141
0.0
142
1.0
143
1.0
 70
  1712
 72
     0
 73
     0
 74
     0
  7

 75
     0
 76
     0
 77
     2
 78
   300
147
1.0
148
0.0
149
0.0
100
AcDbLayout
  1
Model
 70
     1
 71
     0
 10
0.0
 20
0.0
 11
12.0
 21
9.0
 12
0.0
 22
0.0
 32
0.0
 14
1.000000000000000E+20
 24
1.000000000000000E+20
 34
1.000000000000000E+20
 15
-1.000000000000000E+20
 25
-1.000000000000000E+20
 35
-1.000000000000000E+20
146
0.0
 13
0.0
 23
0.0
 33
0.0
 16
1.0
 26
0.0
 36
0.0
 17
0.0
 27
1.0
 37
0.0
 76
     0
330
1F
331
29
  0
MLINESTYLE
  5
18
102
{ACAD_REACTORS
330
17
102
}
330
17
100
AcDbMlineStyle
  2
Standard
 70
     0
  3

 62
   256
 51
90.0
 52
90.0
 71
     2
 49
0.5
 62
   256
  6
BYLAYER
 49
-0.5
 62
   256
  6
BYLAYER
  0
ACDBPLACEHOLDER
  5
F
102
{ACAD_REACTORS
330
E
102
}
330
E
  0
VISUALSTYLE
  5
2F
102
{ACAD_REACTORS
330
2A
102
}
330
2A
100
AcDbVisualStyle
  2
2dWireframe
 70
     4
 71
     0
 72
     2
 73
     0
 90
        0
 40
-0.6
 41
-30.0
 62
     5
 63
     7
421
 16777215
 74
     1
 91
        4
 64
     7
 65
   257
 75
     1
175
     1
 42
1.0
 92
        0
 66
   257
 43
1.0
 76
     1
 77
     6
 78
     2
 67
     7
 79
     5
170
     0
171
     0
290
     0
174
     0
 93
        1
 44
0.0
173
     0
291
     0
 45
0.0
1001
ACAD
1000
AcDbSavedByObjectVersion
1070
     0
  0
VISUALSTYLE
  5
31
102
{ACAD_REACTORS
330
2A
102
}
330
2A
100
AcDbVisualStyle
  2
3D Hidden
 70
     6
 71
     1
 72
     2
 73
     2
 90
        0
 40
-0.6
 41
-30.0
 62
     5
 63
     7
421
 16777215
 74
     2
 91
        2
 64
     7
 65
   257
 75
     2
175
     1
 42
40.0
 92
        0
 66
   257
 43
1.0
 76
     1
 77
     6
 78
     2
 67
     7
 79
     3
170
     0
171
     0
290
     0
174
     0
 93
        1
 44
0.0
173
     0
291
     0
 45
0.0
1001
ACAD
1000
AcDbSavedByObjectVersion
1070
     0
  0
VISUALSTYLE
  5
30
102
{ACAD_REACTORS
330
2A
102
}
330
2A
100
AcDbVisualStyle
  2
3dWireframe
 70
     5
 71
     0
 72
     2
 73
     0
 90
        0
 40
-0.6
 41
-30.0
 62
     5
 63
     7
421
 16777215
 74
     1
 91
        4
 64
     7
 65
   257
 75
     1
175
     1
 42
1.0
 92
        0
 66
   257
 43
1.0
 76
     1
 77
     6
 78
     2
 67
     7
 79
     5
170
     0
171
     0
290
     0
174
     0
 93
        1
 44
0.0
173
     0
291
     0
 45
0.0
1001
ACAD
1000
AcDbSavedByObjectVersion
1070
     0
  0
VISUALSTYLE
  5
32
102
{ACAD_REACTORS
330
2A
102
}
330
2A
100
AcDbVisualStyle
  2
Basic
 70
     7
 71
     1
 72
     0
 73
     1
 90
        0
 40
-0.6
 41
-30.0
 62
     5
 63
     7
421
 16777215
 74
     0
 91
        4
 64
     7
 65
   257
 75
     1
175
     1
 42
1.0
 92
        8
 66
     7
 43
1.0
 76
     1
 77
     6
 78
     2
 67
     7
 79
     5
170
     0
171
     0
290
     0
174
     0
 93
        1
 44
0.0
173
     0
291
     1
 45
0.0
1001
ACAD
1000
AcDbSavedByObjectVersion
1070
     0
  0
VISUALSTYLE
  5
36
102
{ACAD_REACTORS
330
2A
102
}
330
2A
100
AcDbVisualStyle
  2
Brighten
 70
    12
 71
     2
 72
     2
 73
     0
 90
        0
 40
-0.6
 41
-30.0
 62
     5
 63
     7
421
 16777215
 74
     1
 91
        4
 64
     7
 65
   257
 75
     1
175
     1
 42
1.0
 92
        8
 66
     7
 43
1.0
 76
     1
 77
     6
 78
     2
 67
     7
 79
     5
170
     0
171
     0
290
     0
174
     0
 93
        1
 44
50.0
173
     0
291
     1
 45
0.0
1001
ACAD
1000
AcDbSavedByObjectVersion
1070
     0
  0
VISUALSTYLE
  5
3A
102
{ACAD_REACTORS
330
2A
102
}
330
2A
100
AcDbVisualStyle
  2
ColorChange
 70
    16
 71
     2
 72
     2
 73
     3
 90
        0
 40
-0.6
 41
-30.0
 62
     5
 63
     8
421
  8421504
 74
     1
 91
        4
 64
     7
 65
   257
 75
     1
175
     1
 42
1.0
 92
        8
 66
     8
424
  8421504
 43
1.0
 76
     1
 77
     6
 78
     2
 67
     7
 79
     5
170
     0
171
     0
290
     0
174
     0
 93
        1
 44
0.0
173
     0
291
     1
 45
0.0
1001
ACAD
1000
AcDbSavedByObjectVersion
1070
     0
  0
VISUALSTYLE
  5
34
102
{ACAD_REACTORS
330
2A
102
}
330
2A
100
AcDbVisualStyle
  2
Conceptual
 70
     9
 71
     3
 72
     2
 73
     0
 90
        0
 40
-0.6
 41
-30.0
 62
     5
 63
     7
421
 16777215
 74
     2
 91
        2
 64
     7
 65
   257
 75
     1
175
     1
 42
40.0
 92
        8
 66
     7
 43
1.0
 76
     1
 77
     6
 78
     2
 67
     7
 79
     3
170
     0
171
     0
290
     0
174
     0
 93
        1
 44
0.0
173
     0
291
     0
 45
0.0
1001
ACAD
1000
AcDbSavedByObjectVersion
1070
     0
  0
VISUALSTYLE
  5
35
102
{ACAD_REACTORS
330
2A
102
}
330
2A
100
AcDbVisualStyle
  2
Dim
 70
    11
 71
     2
 72
     2
 73
     0
 90
        0
 40
-0.6
 41
-30.0
 62
     5
 63
     7
421
 16777215
 74
     1
 91
        4
 64
     7
 65
   257
 75
     1
175
     1
 42
1.0
 92
        8
 66
     7
 43
1.0
 76
     1
 77
     6
 78
     2
 67
     7
 79
     5
170
     0
171
     0
290
     0
174
     0
 93
        1
 44
-50.0
173
     0
291
     1
 45
0.0
1001
ACAD
1000
AcDbSavedByObjectVersion
1070
     0
  0
VISUALSTYLE
  5
39
102
{ACAD_REACTORS
330
2A
102
}
330
2A
100
AcDbVisualStyle
  2
Facepattern
 70
    15
 71
     2
 72
     2
 73
     0
 90
        0
 40
-0.6
 41
-30.0
 62
     5
 63
     7
421
 16777215
 74
     1
 91
        4
 64
     7
 65
   257
 75
     1
175
     1
 42
1.0
 92
        8
 66
     7
 43
1.0
 76
     1
 77
     6
 78
     2
 67
     7
 79
     5
170
     0
171
     0
290
     0
174
     0
 93
        1
 44
0.0
173
     0
291
     1
 45
0.0
1001
ACAD
1000
AcDbSavedByObjectVersion
1070
     0
  0
VISUALSTYLE
  5
2B
102
{ACAD_REACTORS
330
2A
102
}
330
2A
100
AcDbVisualStyle
  2
Flat
 70
     0
 71
     2
 72
     1
 73
     1
 90
        2
 40
-0.6
 41
30.0
 62
     5
 63
     7
421
 16777215
 74
     0
 91
        4
 64
     7
 65
   257
 75
     1
175
     1
 42
1.0
 92
        8
 66
     7
 43
1.0
 76
     1
 77
     6
 78
     2
 67
     7
 79
     5
170
     0
171
     0
290
     0
174
     0
 93
       13
 44
0.0
173
     0
291
     1
 45
0.0
1001
ACAD
1000
AcDbSavedByObjectVersion
1070
     0
  0
VISUALSTYLE
  5
2C
102
{ACAD_REACTORS
330
2A
102
}
330
2A
100
AcDbVisualStyle
  2
FlatWithEdges
 70
     1
 71
     2
 72
     1
 73
     1
 90
        2
 40
-0.6
 41
30.0
 62
     5
 63
     7
421
 16777215
 74
     1
 91
        4
 64
     7
 65
   257
 75
     1
175
     1
 42
1.0
 92
        0
 66
   257
 43
1.0
 76
     1
 77
     6
 78
     2
 67
     7
 79
     5
170
     0
171
     0
290
     0
174
     0
 93
       13
 44
0.0
173
     0
291
     1
 45
0.0
1001
ACAD
1000
AcDbSavedByObjectVersion
1070
     0
  0
VISUALSTYLE
  5
2D
102
{ACAD_REACTORS
330
2A
102
}
330
2A
100
AcDbVisualStyle
  2
Gouraud
 70
     2
 71
     2
 72
     2
 73
     1
 90
        2
 40
-0.6
 41
30.0
 62
     5
 63
     7
421
 16777215
 74
     0
 91
        4
 64
     7
 65
   257
 75
     1
175
     1
 42
1.0
 92
        0
 66
     7
 43
1.0
 76
     1
 77
     6
 78
     2
 67
     7
 79
     5
170
     0
171
     0
290
     0
174
     0
 93
       13
 44
0.0
173
     0
291
     1
 45
0.0
1001
ACAD
1000
AcDbSavedByObjectVersion
1070
     0
  0
VISUALSTYLE
  5
2E
102
{ACAD_REACTORS
330
2A
102
}
330
2A
100
AcDbVisualStyle
  2
GouraudWithEdges
 70
     3
 71
     2
 72
     2
 73
     1
 90
        2
 40
-0.6
 41
30.0
 62
     5
 63
     7
421
 16777215
 74
     1
 91
        4
 64
     7
 65
   257
 75
     1
175
     1
 42
1.0
 92
        0
 66
   257
 43
1.0
 76
     1
 77
     6
 78
     2
 67
     7
 79
     5
170
     0
171
     0
290
     0
174
     0
 93
       13
 44
0.0
173
     0
291
     1
 45
0.0
1001
ACAD
1000
AcDbSavedByObjectVersion
1070
     0
  0
VISUALSTYLE
  5
38
102
{ACAD_REACTORS
330
2A
102
}
330
2A
100
AcDbVisualStyle
  2
Linepattern
 70
    14
 71
     2
 72
     2
 73
     0
 90
        0
 40
-0.6
 41
-30.0
 62
     5
 63
     7
421
 16777215
 74
     1
 91
        4
 64
     7
 65
   257
 75
     7
175
     7
 42
1.0
 92
        8
 66
     7
 43
1.0
 76
     1
 77
     6
 78
     2
 67
     7
 79
     5
170
     0
171
     0
290
     0
174
     0
 93
        1
 44
0.0
173
     0
291
     1
 45
0.0
1001
ACAD
1000
AcDbSavedByObjectVersion
1070
     0
  0
VISUALSTYLE
  5
33
102
{ACAD_REACTORS
330
2A
102
}
330
2A
100
AcDbVisualStyle
  2
Realistic
 70
     8
 71
     2
 72
     2
 73
     0
 90
        0
 40
-0.6
 41
-30.0
 62
     5
 63
     7
421
 16777215
 74
     1
 91
        0
 64
     7
 65
   257
 75
     1
175
     1
 42
1.0
 92
        8
 66
     8
424
  7895160
 43
1.0
 76
     1
 77
     6
 78
     2
 67
     7
 79
     5
170
     0
171
     0
290
     0
174
     0
 93
       13
 44
0.0
173
     0
291
     0
 45
0.0
1001
ACAD
1000
AcDbSavedByObjectVersion
1070
     0
  0
VISUALSTYLE
  5
37
102
{ACAD_REACTORS
330
2A
102
}
330
2A
100
AcDbVisualStyle
  2
Thicken
 70
    13
 71
     2
 72
     2
 73
     0
 90
        0
 40
-0.6
 41
-30.0
 62
     5
 63
     7
421
 16777215
 74
     1
 91
        4
 64
     7
 65
   257
 75
     1
175
     1
 42
1.0
 92
       12
 66
     7
 43
1.0
 76
     1
 77
     6
 78
     2
 67
     7
 79
     5
170
     0
171
     0
290
     0
174
     0
 93
        1
 44
0.0
173
     0
291
     1
 45
0.0
1001
ACAD
1000
AcDbSavedByObjectVersion
1070
     0
  0
ENDSEC
  0
EOF
