  0
SECTION
  2
HEADER
  9
$ACADVER
  1
AC1024
  9
$ACADMAINTVER
 70
     6
  9
$DWGCODEPAGE
  3
ANSI_1252
  9
$INSBASE
 10
0.0
 20
0.0
 30
0.0
  9
$EXTMIN
 10
1.000000000000000E+20
 20
1.000000000000000E+20
 30
1.000000000000000E+20
  9
$EXTMAX
 10
-1.000000000000000E+20
 20
-1.000000000000000E+20
 30
-1.000000000000000E+20
  9
$LIMMIN
 10
0.0
 20
0.0
  9
$LIMMAX
 10
12.0
 20
9.0
  9
$ORTHOMODE
 70
     0
  9
$REGENMODE
 70
     1
  9
$FILLMODE
 70
     1
  9
$QTEXTMODE
 70
     0
  9
$MIRRTEXT
 70
     1
  9
$LTSCALE
 40
1.0
  9
$ATTMODE
 70
     1
  9
$TEXTSIZE
 40
0.2
  9
$TRACEWID
 40
0.05
  9
$TEXTSTYLE
  7
Standard
  9
$CLAYER
  8
0
  9
$CELTYPE
  6
ByLayer
  9
$CECOLOR
 62
   256
  9
$CELTSCALE
 40
1.0
  9
$DISPSILH
 70
     0
  9
$DIMSCALE
 40
1.0
  9
$DIMASZ
 40
0.18
  9
$DIMEXO
 40
0.0625
  9
$DIMDLI
 40
0.38
  9
$DIMRND
 40
0.0
  9
$DIMDLE
 40
0.0
  9
$DIMEXE
 40
0.18
  9
$DIMTP
 40
0.0
  9
$DIMTM
 40
0.0
  9
$DIMTXT
 40
0.18
  9
$DIMCEN
 40
0.09
  9
$DIMTSZ
 40
0.0
  9
$DIMTOL
 70
     0
  9
$DIMLIM
 70
     0
  9
$DIMTIH
 70
     1
  9
$DIMTOH
 70
     1
  9
$DIMSE1
 70
     0
  9
$DIMSE2
 70
     0
  9
$DIMTAD
 70
     0
  9
$DIMZIN
 70
     0
  9
$DIMBLK
  1

  9
$DIMASO
 70
     1
  9
$DIMSHO
 70
     1
  9
$DIMPOST
  1

  9
$DIMAPOST
  1

  9
$DIMALT
 70
     0
  9
$DIMALTD
 70
     2
  9
$DIMALTF
 40
25.4
  9
$DIMLFAC
 40
1.0
  9
$DIMTOFL
 70
     0
  9
$DIMTVP
 40
0.0
  9
$DIMTIX
 70
     0
  9
$DIMSOXD
 70
     0
  9
$DIMSAH
 70
     0
  9
$DIMBLK1
  1

  9
$DIMBLK2
  1

  9
$DIMSTYLE
  2
Standard
  9
$DIMCLRD
 70
     0
  9
$DIMCLRE
 70
     0
  9
$DIMCLRT
 70
     0
  9
$DIMTFAC
 40
1.0
  9
$DIMGAP
 40
0.09
  9
$DIMJUST
 70
     0
  9
$DIMSD1
 70
     0
  9
$DIMSD2
 70
     0
  9
$DIMTOLJ
 70
     1
  9
$DIMTZIN
 70
     0
  9
$DIMALTZ
 70
     0
  9
$DIMALTTZ
 70
     0
  9
$DIMUPT
 70
     0
  9
$DIMDEC
 70
     4
  9
$DIMTDEC
 70
     4
  9
$DIMALTU
 70
     2
  9
$DIMALTTD
 70
     2
  9
$DIMTXSTY
  7
Standard
  9
$DIMAUNIT
 70
     0
  9
$DIMADEC
 70
     0
  9
$DIMALTRND
 40
0.0
  9
$DIMAZIN
 70
     0
  9
$DIMDSEP
 70
    46
  9
$DIMATFIT
 70
     3
  9
$DIMFRAC
 70
     0
  9
$DIMLDRBLK
  1

  9
$DIMLUNIT
 70
     2
  9
$DIMLWD
 70
    -2
  9
$DIMLWE
 70
    -2
  9
$DIMTMOVE
 70
     0
  9
$DIMFXL
 40
1.0
  9
$DIMFXLON
 70
     0
  9
$DIMJOGANG
 40
0.7853981633974483
  9
$DIMTFILL
 70
     0
  9
$DIMTFILLCLR
 70
     0
  9
$DIMARCSYM
 70
     0
  9
$DIMLTYPE
  6

  9
$DIMLTEX1
  6

  9
$DIMLTEX2
  6

  9
$DIMTXTDIRECTION
 70
     0
  9
$LUNITS
 70
     2
  9
$LUPREC
 70
     4
  9
$SKETCHINC
 40
0.1
  9
$FILLETRAD
 40
0.5
  9
$AUNITS
 70
     0
  9
$AUPREC
 70
     0
  9
$MENU
  1
.
  9
$ELEVATION
 40
0.0
  9
$PELEVATION
 40
0.0
  9
$THICKNESS
 40
0.0
  9
$LIMCHECK
 70
     0
  9
$CHAMFERA
 40
0.5
  9
$CHAMFERB
 40
0.5
  9
$CHAMFERC
 40
1.0
  9
$CHAMFERD
 40
0.0
  9
$SKPOLY
 70
     0
  9
$TDCREATE
 40
2458895.464871516
  9
$TDUCREATE
 40
2458895.423204849
  9
$TDUPDATE
 40
2458895.464873322
  9
$TDUUPDATE
 40
2458895.423206655
  9
$TDINDWG
 40
0.0000000116
  9
$TDUSRTIMER
 40
0.0000000116
  9
$USRTIMER
 70
     1
  9
$ANGBASE
 50
0.0
  9
$ANGDIR
 70
     0
  9
$PDMODE
 70
     0
  9
$PDSIZE
 40
0.0
  9
$PLINEWID
 40
0.0
  9
$SPLFRAME
 70
     0
  9
$SPLINETYPE
 70
     6
  9
$SPLINESEGS
 70
     8
  9
$HANDSEED
  5
7EF
  9
$SURFTAB1
 70
     6
  9
$SURFTAB2
 70
     6
  9
$SURFTYPE
 70
     6
  9
$SURFU
 70
     6
  9
$SURFV
 70
     6
  9
$UCSBASE
  2

  9
$UCSNAME
  2

  9
$UCSORG
 10
0.0
 20
0.0
 30
0.0
  9
$UCSXDIR
 10
1.0
 20
0.0
 30
0.0
  9
$UCSYDIR
 10
0.0
 20
1.0
 30
0.0
  9
$UCSORTHOREF
  2

  9
$UCSORTHOVIEW
 70
     0
  9
$UCSORGTOP
 10
0.0
 20
0.0
 30
0.0
  9
$UCSORGBOTTOM
 10
0.0
 20
0.0
 30
0.0
  9
$UCSORGLEFT
 10
0.0
 20
0.0
 30
0.0
  9
$UCSORGRIGHT
 10
0.0
 20
0.0
 30
0.0
  9
$UCSORGFRONT
 10
0.0
 20
0.0
 30
0.0
  9
$UCSORGBACK
 10
0.0
 20
0.0
 30
0.0
  9
$PUCSBASE
  2

  9
$PUCSNAME
  2

  9
$PUCSORG
 10
0.0
 20
0.0
 30
0.0
  9
$PUCSXDIR
 10
1.0
 20
0.0
 30
0.0
  9
$PUCSYDIR
 10
0.0
 20
1.0
 30
0.0
  9
$PUCSORTHOREF
  2

  9
$PUCSORTHOVIEW
 70
     0
  9
$PUCSORGTOP
 10
0.0
 20
0.0
 30
0.0
  9
$PUCSORGBOTTOM
 10
0.0
 20
0.0
 30
0.0
  9
$PUCSORGLEFT
 10
0.0
 20
0.0
 30
0.0
  9
$PUCSORGRIGHT
 10
0.0
 20
0.0
 30
0.0
  9
$PUCSORGFRONT
 10
0.0
 20
0.0
 30
0.0
  9
$PUCSORGBACK
 10
0.0
 20
0.0
 30
0.0
  9
$USERI1
 70
     0
  9
$USERI2
 70
     0
  9
$USERI3
 70
     0
  9
$USERI4
 70
     0
  9
$USERI5
 70
     0
  9
$USERR1
 40
0.0
  9
$USERR2
 40
0.0
  9
$USERR3
 40
0.0
  9
$USERR4
 40
0.0
  9
$USERR5
 40
0.0
  9
$WORLDVIEW
 70
     1
  9
$SHADEDGE
 70
     3
  9
$SHADEDIF
 70
    70
  9
$TILEMODE
 70
     1
  9
$MAXACTVP
 70
    64
  9
$PINSBASE
 10
0.0
 20
0.0
 30
0.0
  9
$PLIMCHECK
 70
     0
  9
$PEXTMIN
 10
1.000000000000000E+20
 20
1.000000000000000E+20
 30
1.000000000000000E+20
  9
$PEXTMAX
 10
-1.000000000000000E+20
 20
-1.000000000000000E+20
 30
-1.000000000000000E+20
  9
$PLIMMIN
 10
0.0
 20
0.0
  9
$PLIMMAX
 10
12.0
 20
9.0
  9
$UNITMODE
 70
     0
  9
$VISRETAIN
 70
     1
  9
$PLINEGEN
 70
     0
  9
$PSLTSCALE
 70
     1
  9
$TREEDEPTH
 70
  3020
  9
$CMLSTYLE
  2
Standard
  9
$CMLJUST
 70
     0
  9
$CMLSCALE
 40
1.0
  9
$PROXYGRAPHICS
 70
     1
  9
$MEASUREMENT
 70
     0
  9
$CELWEIGHT
370
    -1
  9
$ENDCAPS
280
     0
  9
$JOINSTYLE
280
     0
  9
$LWDISPLAY
290
     1
  9
$INSUNITS
 70
     4
  9
$HYPERLINKBASE
  1

  9
$STYLESHEET
  1

  9
$XEDIT
290
     1
  9
$CEPSNTYPE
380
     0
  9
$PSTYLEMODE
290
     1
  9
$FINGERPRINTGUID
  2
{0521E771-3E36-40CE-9ED2-6A0B3E35A4D0}
  9
$VERSIONGUID
  2
{FAEB1C32-E019-11D5-929B-00C0DF256EC4}
  9
$EXTNAMES
290
     1
  9
$PSVPSCALE
 40
0.0
  9
$OLESTARTUP
290
     0
  9
$SORTENTS
280
   127
  9
$INDEXCTL
280
     0
  9
$HIDETEXT
280
     1
  9
$XCLIPFRAME
280
     2
  9
$HALOGAP
280
     0
  9
$OBSCOLOR
 70
   257
  9
$OBSLTYPE
280
     0
  9
$INTERSECTIONDISPLAY
280
     0
  9
$INTERSECTIONCOLOR
 70
   257
  9
$DIMASSOC
280
     2
  9
$PROJECTNAME
  1

  9
$CAMERADISPLAY
290
     0
  9
$LENSLENGTH
 40
50.0
  9
$CAMERAHEIGHT
 40
0.0
  9
$STEPSPERSEC
 40
2.0
  9
$STEPSIZE
 40
6.0
  9
$3DDWFPREC
 40
2.0
  9
$PSOLWIDTH
 40
0.25
  9
$PSOLHEIGHT
 40
4.0
  9
$LOFTANG1
 40
1.570796326794897
  9
$LOFTANG2
 40
1.570796326794897
  9
$LOFTMAG1
 40
0.0
  9
$LOFTMAG2
 40
0.0
  9
$LOFTPARAM
 70
     7
  9
$LOFTNORMALS
280
     1
  9
$LATITUDE
 40
37.795
  9
$LONGITUDE
 40
-122.394
  9
$NORTHDIRECTION
 40
0.0
  9
$TIMEZONE
 70
 -8000
  9
$LIGHTGLYPHDISPLAY
280
     1
  9
$TILEMODELIGHTSYNCH
280
     1
  9
$CMATERIAL
347
3C
  9
$SOLIDHIST
280
     1
  9
$SHOWHIST
280
     1
  9
$DWFFRAME
280
     2
  9
$DGNFRAME
280
     2
  9
$REALWORLDSCALE
290
     1
  9
$INTERFERECOLOR
 62
   256
  9
$CSHADOW
280
     0
  9
$SHADOWPLANELOCATION
 40
0.0
  0
ENDSEC
  0
SECTION
  2
CLASSES
  0
CLASS
  1
ACDBDICTIONARYWDFLT
  2
AcDbDictionaryWithDefault
  3
ObjectDBX Classes
 90
        0
 91
        4
280
     0
281
     0
  0
CLASS
  1
VISUALSTYLE
  2
AcDbVisualStyle
  3
ObjectDBX Classes
 90
     4095
 91
        4
280
     0
281
     0
  0
CLASS
  1
MATERIAL
  2
AcDbMaterial
  3
ObjectDBX Classes
 90
     1153
 91
        4
280
     0
281
     0
  0
CLASS
  1
SUN
  2
AcDbSun
  3
SCENEOE
 90
     1024
 91
        4
280
     0
281
     0
  0
ENDSEC
  0
SECTION
  2
TABLES
  0
TABLE
  2
VPORT
  5
8
330
0
100
AcDbSymbolTable
 70
     1
  0
VPORT
  5
29
330
8
100
AcDbSymbolTableRecord
100
AcDbViewportTableRecord
  2
*Active
 70
     0
 10
0.0
 20
0.0
 11
1.0
 21
1.0
 12
0.0
 22
0.0
 13
0.0
 23
0.0
 14
0.5
 24
0.5
 15
0.5
 25
0.5
 16
0.0
 26
0.0
 36
1.0
 17
104.951388862651
 27
148.5194444073146
 37
0.0
 40
297.0388888146292
 41
0.7066508313539193
 42
50.0
 43
0.0
 44
0.0
 50
0.0
 51
0.0
 71
     0
 72
   100
 73
     1
 74
     3
 75
     0
 76
     0
 77
     0
 78
     0
281
     0
 65
     1
110
0.0
120
0.0
130
0.0
111
1.0
121
0.0
131
0.0
112
0.0
122
1.0
132
0.0
 79
     0
146
0.0
 60
     3
 61
     5
292
     1
282
     1
141
0.0
142
0.0
 63
   250
361
3F
  0
ENDTAB
  0
TABLE
  2
LTYPE
  5
5
330
0
100
AcDbSymbolTable
 70
     1
  0
LTYPE
  5
14
330
5
100
AcDbSymbolTableRecord
100
AcDbLinetypeTableRecord
  2
ByBlock
 70
     0
  3

 72
    65
 73
     0
 40
0.0
  0
LTYPE
  5
15
330
5
100
AcDbSymbolTableRecord
100
AcDbLinetypeTableRecord
  2
ByLayer
 70
     0
  3

 72
    65
 73
     0
 40
0.0
  0
LTYPE
  5
16
330
5
100
AcDbSymbolTableRecord
100
AcDbLinetypeTableRecord
  2
Continuous
 70
     0
  3
Solid line
 72
    65
 73
     0
 40
0.0
  0
ENDTAB
  0
TABLE
  2
LAYER
  5
2
330
0
100
AcDbSymbolTable
 70
     2
  0
LAYER
  5
10
330
2
100
AcDbSymbolTableRecord
100
AcDbLayerTableRecord
  2
0
 70
     0
 62
     7
  6
Continuous
370
    -3
390
F
347
3E
  0
LAYER
  5
40
330
2
100
AcDbSymbolTableRecord
100
AcDbLayerTableRecord
  2
Capa 1
 70
     0
 62
     7
  6
Continuous
370
    -3
390
F
347
3E
  0
ENDTAB
  0
TABLE
  2
STYLE
  5
3
330
0
100
AcDbSymbolTable
 70
     1
  0
STYLE
  5
11
330
3
100
AcDbSymbolTableRecord
100
AcDbTextStyleTableRecord
  2
Standard
 70
     0
 40
0.0
 41
1.0
 50
0.0
 71
     0
 42
0.2
  3
txt
  4

  0
ENDTAB
  0
TABLE
  2
VIEW
  5
6
330
0
100
AcDbSymbolTable
 70
     0
  0
ENDTAB
  0
TABLE
  2
UCS
  5
7
330
0
100
AcDbSymbolTable
 70
     0
  0
ENDTAB
  0
TABLE
  2
APPID
  5
9
330
0
100
AcDbSymbolTable
 70
     1
  0
APPID
  5
12
330
9
100
AcDbSymbolTableRecord
100
AcDbRegAppTableRecord
  2
ACAD
 70
     0
  0
ENDTAB
  0
TABLE
  2
DIMSTYLE
  5
A
330
0
100
AcDbSymbolTable
 70
     1
100
AcDbDimStyleTable
  0
DIMSTYLE
105
27
330
A
100
AcDbSymbolTableRecord
100
AcDbDimStyleTableRecord
  2
Standard
 70
     0
178
     0
340
11
  0
ENDTAB
  0
TABLE
  2
BLOCK_RECORD
  5
1
330
0
100
AcDbSymbolTable
 70
     1
  0
BLOCK_RECORD
  5
1F
330
1
100
AcDbSymbolTableRecord
100
AcDbBlockTableRecord
  2
*Model_Space
340
22
 70
     0
280
     1
281
     0
  0
BLOCK_RECORD
  5
1B
330
1
100
AcDbSymbolTableRecord
100
AcDbBlockTableRecord
  2
*Paper_Space
340
1E
 70
     0
280
     1
281
     0
  0
BLOCK_RECORD
  5
23
330
1
100
AcDbSymbolTableRecord
100
AcDbBlockTableRecord
  2
*Paper_Space0
340
26
 70
     0
280
     1
281
     0
  0
ENDTAB
  0
ENDSEC
  0
SECTION
  2
BLOCKS
  0
BLOCK
  5
20
330
1F
100
AcDbEntity
  8
0
100
AcDbBlockBegin
  2
*Model_Space
 70
     0
 10
0.0
 20
0.0
 30
0.0
  3
*Model_Space
  1

  0
ENDBLK
  5
21
330
1F
100
AcDbEntity
  8
0
100
AcDbBlockEnd
  0
BLOCK
  5
1C
330
1B
100
AcDbEntity
 67
     1
  8
0
100
AcDbBlockBegin
  2
*Paper_Space
 70
     0
 10
0.0
 20
0.0
 30
0.0
  3
*Paper_Space
  1

  0
ENDBLK
  5
1D
330
1B
100
AcDbEntity
 67
     1
  8
0
100
AcDbBlockEnd
  0
BLOCK
  5
24
330
23
100
AcDbEntity
  8
0
100
AcDbBlockBegin
  2
*Paper_Space0
 70
     0
 10
0.0
 20
0.0
 30
0.0
  3
*Paper_Space0
  1

  0
ENDBLK
  5
25
330
23
100
AcDbEntity
  8
0
100
AcDbBlockEnd
  0
ENDSEC
  0
SECTION
  2
ENTITIES
  0
POLYLINE
  5
41
330
1F
100
AcDbEntity
  8
Capa 1
 62
     7
420
 16777215
370
     9
100
AcDb2dPolyline
 66
     1
 10
0.0
 20
0.0
 30
0.0
  0
VERTEX
  5
42
330
41
100
AcDbEntity
  8
Capa 1
 62
     7
420
 16777215
370
     9
100
AcDbVertex
100
AcDb2dVertex
 10
154.0618766796878
 20
163.9001283765699
 30
0.0
  0
VERTEX
  5
43
330
41
100
AcDbEntity
  8
Capa 1
 62
     7
420
 16777215
370
     9
100
AcDbVertex
100
AcDb2dVertex
 10
153.7761221580714
 20
159.4868803155394
 30
0.0
  0
VERTEX
  5
44
330
41
100
AcDbEntity
  8
Capa 1
 62
     7
420
 16777215
370
     9
100
AcDbVertex
100
AcDb2dVertex
 10
153.5856218351413
 20
155.0418754719851
 30
0.0
  0
VERTEX
  5
45
330
41
100
AcDbEntity
  8
Capa 1
 62
     7
420
 16777215
370
     9
100
AcDbVertex
100
AcDb2dVertex
 10
153.4586189283737
 20
150.5968787028734
 30
0.0
  0
VERTEX
  5
46
330
41
100
AcDbEntity
  8
Capa 1
 62
     7
420
 16777215
370
     9
100
AcDbVertex
100
AcDb2dVertex
 10
153.36337280413
 20
146.1518738593191
 30
0.0
  0
SEQEND
  5
47
330
41
100
AcDbEntity
  8
Capa 1
 62
     7
420
 16777215
370
     9
  0
POLYLINE
  5
48
330
1F
100
AcDbEntity
  8
Capa 1
 62
     7
420
 16777215
370
     9
100
AcDb2dPolyline
 66
     1
 10
0.0
 20
0.0
 30
0.0
  0
VERTEX
  5
49
330
48
100
AcDbEntity
  8
Capa 1
 62
     7
420
 16777215
370
     9
100
AcDbVertex
100
AcDb2dVertex
 10
169.873371185114
 20
146.1518738593191
 30
0.0
  0
VERTEX
  5
4A
330
48
100
AcDbEntity
  8
Capa 1
 62
     7
420
 16777215
370
     9
100
AcDbVertex
100
AcDb2dVertex
 10
169.8416224770327
 20
148.6918754735726
 30
0.0
  0
VERTEX
  5
4B
330
48
100
AcDbEntity
  8
Capa 1
 62
     7
420
 16777215
370
     9
100
AcDbVertex
100
AcDb2dVertex
 10
169.7781250608702
 20
151.1683796716636
 30
0.0
  0
VERTEX
  5
4C
330
48
100
AcDbEntity
  8
Capa 1
 62
     7
420
 16777215
370
     9
100
AcDbVertex
100
AcDb2dVertex
 10
169.7146195702651
 20
153.454375472382
 30
0.0
  0
VERTEX
  5
4D
330
48
100
AcDbEntity
  8
Capa 1
 62
     7
420
 16777215
370
     9
100
AcDbVertex
100
AcDb2dVertex
 10
169.6511221541026
 20
155.6451251488566
 30
0.0
  0
VERTEX
  5
4E
330
48
100
AcDbEntity
  8
Capa 1
 62
     7
420
 16777215
370
     9
100
AcDbVertex
100
AcDb2dVertex
 10
169.4288731230913
 20
159.8678809613995
 30
0.0
  0
VERTEX
  5
4F
330
48
100
AcDbEntity
  8
Capa 1
 62
     7
420
 16777215
370
     9
100
AcDbVertex
100
AcDb2dVertex
 10
169.20662409208
 20
163.9001283765699
 30
0.0
  0
SEQEND
  5
50
330
48
100
AcDbEntity
  8
Capa 1
 62
     7
420
 16777215
370
     9
  0
POLYLINE
  5
51
330
1F
100
AcDbEntity
  8
Capa 1
 62
     7
420
 16777215
370
     9
100
AcDb2dPolyline
 66
     1
 10
0.0
 20
0.0
 30
0.0
  0
VERTEX
  5
52
330
51
100
AcDbEntity
  8
Capa 1
 62
     7
420
 16777215
370
     9
100
AcDbVertex
100
AcDb2dVertex
 10
149.9026263577499
 20
176.155622236931
 30
0.0
  0
VERTEX
  5
53
330
51
100
AcDbEntity
  8
Capa 1
 62
     7
420
 16777215
370
     9
100
AcDbVertex
100
AcDb2dVertex
 10
149.9343750658311
 20
176.155622236931
 30
0.0
  0
SEQEND
  5
54
330
51
100
AcDbEntity
  8
Capa 1
 62
     7
420
 16777215
370
     9
  0
POLYLINE
  5
55
330
1F
100
AcDbEntity
  8
Capa 1
 62
     7
420
 16777215
370
     9
100
AcDb2dPolyline
 66
     1
 10
0.0
 20
0.0
 30
0.0
  0
VERTEX
  5
56
330
55
100
AcDbEntity
  8
Capa 1
 62
     7
420
 16777215
370
     9
100
AcDbVertex
100
AcDb2dVertex
 10
148.5691240972393
 20
176.155622236931
 30
0.0
  0
VERTEX
  5
57
330
55
100
AcDbEntity
  8
Capa 1
 62
     7
420
 16777215
370
     9
100
AcDbVertex
100
AcDb2dVertex
 10
148.346875066228
 20
176.0921248207671
 30
0.0
  0
VERTEX
  5
58
330
55
100
AcDbEntity
  8
Capa 1
 62
     7
420
 16777215
370
     9
100
AcDbVertex
100
AcDb2dVertex
 10
148.1881234513792
 20
175.9333651314758
 30
0.0
  0
VERTEX
  5
59
330
55
100
AcDbEntity
  8
Capa 1
 62
     7
420
 16777215
370
     9
100
AcDbVertex
100
AcDb2dVertex
 10
148.1246260352167
 20
175.711124174907
 30
0.0
  0
SEQEND
  5
5A
330
55
100
AcDbEntity
  8
Capa 1
 62
     7
420
 16777215
370
     9
  0
POLYLINE
  5
5B
330
1F
100
AcDbEntity
  8
Capa 1
 62
     7
420
 16777215
370
     9
100
AcDb2dPolyline
 66
     1
 10
0.0
 20
0.0
 30
0.0
  0
VERTEX
  5
5C
330
5B
100
AcDbEntity
  8
Capa 1
 62
     7
420
 16777215
370
     9
100
AcDbVertex
100
AcDb2dVertex
 10
148.5691240972393
 20
176.155622236931
 30
0.0
  0
VERTEX
  5
5D
330
5B
100
AcDbEntity
  8
Capa 1
 62
     7
420
 16777215
370
     9
100
AcDbVertex
100
AcDb2dVertex
 10
174.6676198920046
 20
176.155622236931
 30
0.0
  0
SEQEND
  5
5E
330
5B
100
AcDbEntity
  8
Capa 1
 62
     7
420
 16777215
370
     9
  0
POLYLINE
  5
5F
330
1F
100
AcDbEntity
  8
Capa 1
 62
     7
420
 16777215
370
     9
100
AcDb2dPolyline
 66
     1
 10
0.0
 20
0.0
 30
0.0
  0
VERTEX
  5
60
330
5F
100
AcDbEntity
  8
Capa 1
 62
     7
420
 16777215
370
     9
100
AcDbVertex
100
AcDb2dVertex
 10
175.1121260284698
 20
175.711124174907
 30
0.0
  0
VERTEX
  5
61
330
5F
100
AcDbEntity
  8
Capa 1
 62
     7
420
 16777215
370
     9
100
AcDbVertex
100
AcDb2dVertex
 10
175.0486205378647
 20
175.9333651314758
 30
0.0
  0
VERTEX
  5
62
330
5F
100
AcDbEntity
  8
Capa 1
 62
     7
420
 16777215
370
     9
100
AcDbVertex
100
AcDb2dVertex
 10
174.8898689230159
 20
176.0921248207671
 30
0.0
  0
VERTEX
  5
63
330
5F
100
AcDbEntity
  8
Capa 1
 62
     7
420
 16777215
370
     9
100
AcDbVertex
100
AcDb2dVertex
 10
174.6676198920046
 20
176.155622236931
 30
0.0
  0
SEQEND
  5
64
330
5F
100
AcDbEntity
  8
Capa 1
 62
     7
420
 16777215
370
     9
  0
POLYLINE
  5
65
330
1F
100
AcDbEntity
  8
Capa 1
 62
     7
420
 16777215
370
     9
100
AcDb2dPolyline
 66
     1
 10
0.0
 20
0.0
 30
0.0
  0
VERTEX
  5
66
330
65
100
AcDbEntity
  8
Capa 1
 62
     7
420
 16777215
370
     9
100
AcDbVertex
100
AcDb2dVertex
 10
153.5856218351413
 20
165.7416261152656
 30
0.0
  0
VERTEX
  5
67
330
65
100
AcDbEntity
  8
Capa 1
 62
     7
420
 16777215
370
     9
100
AcDbVertex
100
AcDb2dVertex
 10
153.6173705432226
 20
165.7416261152656
 30
0.0
  0
SEQEND
  5
68
330
65
100
AcDbEntity
  8
Capa 1
 62
     7
420
 16777215
370
     9
  0
POLYLINE
  5
69
330
1F
100
AcDbEntity
  8
Capa 1
 62
     7
420
 16777215
370
     9
100
AcDb2dPolyline
 66
     1
 10
0.0
 20
0.0
 30
0.0
  0
VERTEX
  5
6A
330
69
100
AcDbEntity
  8
Capa 1
 62
     7
420
 16777215
370
     9
100
AcDbVertex
100
AcDb2dVertex
 10
148.2198721594604
 20
175.4571183613719
 30
0.0
  0
VERTEX
  5
6B
330
69
100
AcDbEntity
  8
Capa 1
 62
     7
420
 16777215
370
     9
100
AcDbVertex
100
AcDb2dVertex
 10
149.3946228051222
 20
172.9806303121659
 30
0.0
  0
VERTEX
  5
6C
330
69
100
AcDbEntity
  8
Capa 1
 62
     7
420
 16777215
370
     9
100
AcDbVertex
100
AcDb2dVertex
 10
150.6963763575514
 20
170.5358748221562
 30
0.0
  0
VERTEX
  5
6D
330
69
100
AcDbEntity
  8
Capa 1
 62
     7
420
 16777215
370
     9
100
AcDbVertex
100
AcDb2dVertex
 10
152.0933760342245
 20
168.1228761146703
 30
0.0
  0
VERTEX
  5
6E
330
69
100
AcDbEntity
  8
Capa 1
 62
     7
420
 16777215
370
     9
100
AcDbVertex
100
AcDb2dVertex
 10
153.5856218351413
 20
165.7416261152656
 30
0.0
  0
SEQEND
  5
6F
330
69
100
AcDbEntity
  8
Capa 1
 62
     7
420
 16777215
370
     9
  0
POLYLINE
  5
70
330
1F
100
AcDbEntity
  8
Capa 1
 62
     7
420
 16777215
370
     9
100
AcDb2dPolyline
 66
     1
 10
0.0
 20
0.0
 30
0.0
  0
VERTEX
  5
71
330
70
100
AcDbEntity
  8
Capa 1
 62
     7
420
 16777215
370
     9
100
AcDbVertex
100
AcDb2dVertex
 10
148.1246260352167
 20
175.711124174907
 30
0.0
  0
VERTEX
  5
72
330
70
100
AcDbEntity
  8
Capa 1
 62
     7
420
 16777215
370
     9
100
AcDbVertex
100
AcDb2dVertex
 10
148.1881234513792
 20
175.4888670694531
 30
0.0
  0
SEQEND
  5
73
330
70
100
AcDbEntity
  8
Capa 1
 62
     7
420
 16777215
370
     9
  0
POLYLINE
  5
74
330
1F
100
AcDbEntity
  8
Capa 1
 62
     7
420
 16777215
370
     9
100
AcDb2dPolyline
 66
     1
 10
0.0
 20
0.0
 30
0.0
  0
VERTEX
  5
75
330
74
100
AcDbEntity
  8
Capa 1
 62
     7
420
 16777215
370
     9
100
AcDbVertex
100
AcDb2dVertex
 10
148.1881234513792
 20
175.4571183613719
 30
0.0
  0
VERTEX
  5
76
330
74
100
AcDbEntity
  8
Capa 1
 62
     7
420
 16777215
370
     9
100
AcDbVertex
100
AcDb2dVertex
 10
148.2198721594604
 20
175.4571183613719
 30
0.0
  0
SEQEND
  5
77
330
74
100
AcDbEntity
  8
Capa 1
 62
     7
420
 16777215
370
     9
  0
POLYLINE
  5
78
330
1F
100
AcDbEntity
  8
Capa 1
 62
     7
420
 16777215
370
     9
100
AcDb2dPolyline
 66
     1
 10
0.0
 20
0.0
 30
0.0
  0
VERTEX
  5
79
330
78
100
AcDbEntity
  8
Capa 1
 62
     7
420
 16777215
370
     9
100
AcDbVertex
100
AcDb2dVertex
 10
148.1881234513792
 20
175.4888670694531
 30
0.0
  0
VERTEX
  5
7A
330
78
100
AcDbEntity
  8
Capa 1
 62
     7
420
 16777215
370
     9
100
AcDbVertex
100
AcDb2dVertex
 10
148.2198721594604
 20
175.4888670694531
 30
0.0
  0
SEQEND
  5
7B
330
78
100
AcDbEntity
  8
Capa 1
 62
     7
420
 16777215
370
     9
  0
POLYLINE
  5
7C
330
1F
100
AcDbEntity
  8
Capa 1
 62
     7
420
 16777215
370
     9
100
AcDb2dPolyline
 66
     1
 10
0.0
 20
0.0
 30
0.0
  0
VERTEX
  5
7D
330
7C
100
AcDbEntity
  8
Capa 1
 62
     7
420
 16777215
370
     9
100
AcDbVertex
100
AcDb2dVertex
 10
175.1121260284698
 20
175.711124174907
 30
0.0
  0
VERTEX
  5
7E
330
7C
100
AcDbEntity
  8
Capa 1
 62
     7
420
 16777215
370
     9
100
AcDbVertex
100
AcDb2dVertex
 10
175.0486205378647
 20
175.4888670694531
 30
0.0
  0
VERTEX
  5
7F
330
7C
100
AcDbEntity
  8
Capa 1
 62
     7
420
 16777215
370
     9
100
AcDbVertex
100
AcDb2dVertex
 10
175.0486205378647
 20
175.4571183613719
 30
0.0
  0
SEQEND
  5
80
330
7C
100
AcDbEntity
  8
Capa 1
 62
     7
420
 16777215
370
     9
  0
POLYLINE
  5
81
330
1F
100
AcDbEntity
  8
Capa 1
 62
     7
420
 16777215
370
     9
100
AcDb2dPolyline
 66
     1
 10
0.0
 20
0.0
 30
0.0
  0
VERTEX
  5
82
330
81
100
AcDbEntity
  8
Capa 1
 62
     7
420
 16777215
370
     9
100
AcDbVertex
100
AcDb2dVertex
 10
169.6828708621839
 20
165.7416261152656
 30
0.0
  0
VERTEX
  5
83
330
81
100
AcDbEntity
  8
Capa 1
 62
     7
420
 16777215
370
     9
100
AcDbVertex
100
AcDb2dVertex
 10
171.1751247375432
 20
168.1228761146703
 30
0.0
  0
VERTEX
  5
84
330
81
100
AcDbEntity
  8
Capa 1
 62
     7
420
 16777215
370
     9
100
AcDbVertex
100
AcDb2dVertex
 10
172.540375706135
 20
170.5358748221562
 30
0.0
  0
VERTEX
  5
85
330
81
100
AcDbEntity
  8
Capa 1
 62
     7
420
 16777215
370
     9
100
AcDbVertex
100
AcDb2dVertex
 10
173.8421211841218
 20
172.9806303121659
 30
0.0
  0
VERTEX
  5
86
330
81
100
AcDbEntity
  8
Capa 1
 62
     7
420
 16777215
370
     9
100
AcDbVertex
100
AcDb2dVertex
 10
175.0486205378647
 20
175.4571183613719
 30
0.0
  0
SEQEND
  5
87
330
81
100
AcDbEntity
  8
Capa 1
 62
     7
420
 16777215
370
     9
  0
POLYLINE
  5
88
330
1F
100
AcDbEntity
  8
Capa 1
 62
     7
420
 16777215
370
     9
100
AcDb2dPolyline
 66
     1
 10
0.0
 20
0.0
 30
0.0
  0
VERTEX
  5
89
330
88
100
AcDbEntity
  8
Capa 1
 62
     7
420
 16777215
370
     9
100
AcDbVertex
100
AcDb2dVertex
 10
153.36337280413
 20
146.1518738593191
 30
0.0
  0
VERTEX
  5
8A
330
88
100
AcDbEntity
  8
Capa 1
 62
     7
420
 16777215
370
     9
100
AcDbVertex
100
AcDb2dVertex
 10
169.873371185114
 20
146.1518738593191
 30
0.0
  0
SEQEND
  5
8B
330
88
100
AcDbEntity
  8
Capa 1
 62
     7
420
 16777215
370
     9
  0
POLYLINE
  5
8C
330
1F
100
AcDbEntity
  8
Capa 1
 62
     7
420
 16777215
370
     9
100
AcDb2dPolyline
 66
     1
 10
0.0
 20
0.0
 30
0.0
  0
VERTEX
  5
8D
330
8C
100
AcDbEntity
  8
Capa 1
 62
     7
420
 16777215
370
     9
100
AcDbVertex
100
AcDb2dVertex
 10
153.5856218351413
 20
165.7416261152656
 30
0.0
  0
VERTEX
  5
8E
330
8C
100
AcDbEntity
  8
Capa 1
 62
     7
420
 16777215
370
     9
100
AcDbVertex
100
AcDb2dVertex
 10
153.8078708661526
 20
165.2971280532429
 30
0.0
  0
VERTEX
  5
8F
330
8C
100
AcDbEntity
  8
Capa 1
 62
     7
420
 16777215
370
     9
100
AcDbVertex
100
AcDb2dVertex
 10
153.9666224810015
 20
164.8526299912203
 30
0.0
  0
VERTEX
  5
90
330
8C
100
AcDbEntity
  8
Capa 1
 62
     7
420
 16777215
370
     9
100
AcDbVertex
100
AcDb2dVertex
 10
154.0618766796878
 20
164.3763751466738
 30
0.0
  0
VERTEX
  5
91
330
8C
100
AcDbEntity
  8
Capa 1
 62
     7
420
 16777215
370
     9
100
AcDbVertex
100
AcDb2dVertex
 10
154.0618766796878
 20
163.9001283765699
 30
0.0
  0
SEQEND
  5
92
330
8C
100
AcDbEntity
  8
Capa 1
 62
     7
420
 16777215
370
     9
  0
POLYLINE
  5
93
330
1F
100
AcDbEntity
  8
Capa 1
 62
     7
420
 16777215
370
     9
100
AcDb2dPolyline
 66
     1
 10
0.0
 20
0.0
 30
0.0
  0
VERTEX
  5
94
330
93
100
AcDbEntity
  8
Capa 1
 62
     7
420
 16777215
370
     9
100
AcDbVertex
100
AcDb2dVertex
 10
169.20662409208
 20
163.9001283765699
 30
0.0
  0
VERTEX
  5
95
330
93
100
AcDbEntity
  8
Capa 1
 62
     7
420
 16777215
370
     9
100
AcDbVertex
100
AcDb2dVertex
 10
169.20662409208
 20
164.3763751466738
 30
0.0
  0
VERTEX
  5
96
330
93
100
AcDbEntity
  8
Capa 1
 62
     7
420
 16777215
370
     9
100
AcDbVertex
100
AcDb2dVertex
 10
169.2701215082425
 20
164.8526299912203
 30
0.0
  0
VERTEX
  5
97
330
93
100
AcDbEntity
  8
Capa 1
 62
     7
420
 16777215
370
     9
100
AcDbVertex
100
AcDb2dVertex
 10
169.4288731230913
 20
165.2971280532429
 30
0.0
  0
VERTEX
  5
98
330
93
100
AcDbEntity
  8
Capa 1
 62
     7
420
 16777215
370
     9
100
AcDbVertex
100
AcDb2dVertex
 10
169.6828708621839
 20
165.7416261152656
 30
0.0
  0
SEQEND
  5
99
330
93
100
AcDbEntity
  8
Capa 1
 62
     7
420
 16777215
370
     9
  0
POLYLINE
  5
9A
330
1F
100
AcDbEntity
  8
Capa 1
 62
     7
420
 16777215
370
     9
100
AcDb2dPolyline
 66
     1
 10
0.0
 20
0.0
 30
0.0
  0
VERTEX
  5
9B
330
9A
100
AcDbEntity
  8
Capa 1
 62
     7
420
 16777215
370
     9
100
AcDbVertex
100
AcDb2dVertex
 10
173.4293718301804
 20
202.4128696465437
 30
0.0
  0
VERTEX
  5
9C
330
9A
100
AcDbEntity
  8
Capa 1
 62
     7
420
 16777215
370
     9
100
AcDbVertex
100
AcDb2dVertex
 10
174.5406250596796
 20
202.4128696465437
 30
0.0
  0
SEQEND
  5
9D
330
9A
100
AcDbEntity
  8
Capa 1
 62
     7
420
 16777215
370
     9
  0
POLYLINE
  5
9E
330
1F
100
AcDbEntity
  8
Capa 1
 62
     7
420
 16777215
370
     9
100
AcDb2dPolyline
 66
     1
 10
0.0
 20
0.0
 30
0.0
  0
VERTEX
  5
9F
330
9E
100
AcDbEntity
  8
Capa 1
 62
     7
420
 16777215
370
     9
100
AcDbVertex
100
AcDb2dVertex
 10
174.8898689230159
 20
202.1271151249273
 30
0.0
  0
VERTEX
  5
A0
330
9E
100
AcDbEntity
  8
Capa 1
 62
     7
420
 16777215
370
     9
100
AcDbVertex
100
AcDb2dVertex
 10
174.6676198920046
 20
202.1906286899749
 30
0.0
  0
VERTEX
  5
A1
330
9E
100
AcDbEntity
  8
Capa 1
 62
     7
420
 16777215
370
     9
100
AcDbVertex
100
AcDb2dVertex
 10
174.5406250596796
 20
202.4128696465437
 30
0.0
  0
SEQEND
  5
A2
330
9E
100
AcDbEntity
  8
Capa 1
 62
     7
420
 16777215
370
     9
  0
POLYLINE
  5
A3
330
1F
100
AcDbEntity
  8
Capa 1
 62
     7
420
 16777215
370
     9
100
AcDb2dPolyline
 66
     1
 10
0.0
 20
0.0
 30
0.0
  0
VERTEX
  5
A4
330
A3
100
AcDbEntity
  8
Capa 1
 62
     7
420
 16777215
370
     9
100
AcDbVertex
100
AcDb2dVertex
 10
148.346875066228
 20
202.1271151249273
 30
0.0
  0
VERTEX
  5
A5
330
A3
100
AcDbEntity
  8
Capa 1
 62
     7
420
 16777215
370
     9
100
AcDbVertex
100
AcDb2dVertex
 10
148.6008728053206
 20
202.1906286899749
 30
0.0
  0
VERTEX
  5
A6
330
A3
100
AcDbEntity
  8
Capa 1
 62
     7
420
 16777215
370
     9
100
AcDbVertex
100
AcDb2dVertex
 10
148.7278757120881
 20
202.4128696465437
 30
0.0
  0
VERTEX
  5
A7
330
A3
100
AcDbEntity
  8
Capa 1
 62
     7
420
 16777215
370
     9
100
AcDbVertex
100
AcDb2dVertex
 10
149.8391208671448
 20
202.4128696465437
 30
0.0
  0
SEQEND
  5
A8
330
A3
100
AcDbEntity
  8
Capa 1
 62
     7
420
 16777215
370
     9
  0
POLYLINE
  5
A9
330
1F
100
AcDbEntity
  8
Capa 1
 62
     7
420
 16777215
370
     9
100
AcDb2dPolyline
 66
     1
 10
0.0
 20
0.0
 30
0.0
  0
VERTEX
  5
AA
330
A9
100
AcDbEntity
  8
Capa 1
 62
     7
420
 16777215
370
     9
100
AcDbVertex
100
AcDb2dVertex
 10
174.0008727989706
 20
176.4413767585461
 30
0.0
  0
VERTEX
  5
AB
330
A9
100
AcDbEntity
  8
Capa 1
 62
     7
420
 16777215
370
     9
100
AcDbVertex
100
AcDb2dVertex
 10
174.8898689230159
 20
202.1271151249273
 30
0.0
  0
VERTEX
  5
AC
330
A9
100
AcDbEntity
  8
Capa 1
 62
     7
420
 16777215
370
     9
100
AcDbVertex
100
AcDb2dVertex
 10
149.8391208671448
 20
202.1271151249273
 30
0.0
  0
SEQEND
  5
AD
330
A9
100
AcDbEntity
  8
Capa 1
 62
     7
420
 16777215
370
     9
  0
POLYLINE
  5
AE
330
1F
100
AcDbEntity
  8
Capa 1
 62
     7
420
 16777215
370
     9
100
AcDb2dPolyline
 66
     1
 10
0.0
 20
0.0
 30
0.0
  0
VERTEX
  5
AF
330
AE
100
AcDbEntity
  8
Capa 1
 62
     7
420
 16777215
370
     9
100
AcDbVertex
100
AcDb2dVertex
 10
149.2358711902733
 20
176.4413767585461
 30
0.0
  0
VERTEX
  5
B0
330
AE
100
AcDbEntity
  8
Capa 1
 62
     7
420
 16777215
370
     9
100
AcDbVertex
100
AcDb2dVertex
 10
148.346875066228
 20
202.1271151249273
 30
0.0
  0
VERTEX
  5
B1
330
AE
100
AcDbEntity
  8
Capa 1
 62
     7
420
 16777215
370
     9
100
AcDbVertex
100
AcDb2dVertex
 10
149.8391208671448
 20
202.1271151249273
 30
0.0
  0
SEQEND
  5
B2
330
AE
100
AcDbEntity
  8
Capa 1
 62
     7
420
 16777215
370
     9
  0
POLYLINE
  5
B3
330
1F
100
AcDbEntity
  8
Capa 1
 62
     7
420
 16777215
370
     9
100
AcDb2dPolyline
 66
     1
 10
0.0
 20
0.0
 30
0.0
  0
VERTEX
  5
B4
330
B3
100
AcDbEntity
  8
Capa 1
 62
     7
420
 16777215
370
     9
100
AcDbVertex
100
AcDb2dVertex
 10
149.8391208671448
 20
202.4128696465437
 30
0.0
  0
VERTEX
  5
B5
330
B3
100
AcDbEntity
  8
Capa 1
 62
     7
420
 16777215
370
     9
100
AcDbVertex
100
AcDb2dVertex
 10
173.4293718301804
 20
202.4128696465437
 30
0.0
  0
SEQEND
  5
B6
330
B3
100
AcDbEntity
  8
Capa 1
 62
     7
420
 16777215
370
     9
  0
POLYLINE
  5
B7
330
1F
100
AcDbEntity
  8
Capa 1
 62
     7
420
 16777215
370
     9
100
AcDb2dPolyline
 66
     1
 10
0.0
 20
0.0
 30
0.0
  0
VERTEX
  5
B8
330
B7
100
AcDbEntity
  8
Capa 1
 62
     7
420
 16777215
370
     9
100
AcDbVertex
100
AcDb2dVertex
 10
173.7151182773542
 20
176.155622236931
 30
0.0
  0
VERTEX
  5
B9
330
B7
100
AcDbEntity
  8
Capa 1
 62
     7
420
 16777215
370
     9
100
AcDbVertex
100
AcDb2dVertex
 10
173.9056186002843
 20
176.2508683611734
 30
0.0
  0
VERTEX
  5
BA
330
B7
100
AcDbEntity
  8
Capa 1
 62
     7
420
 16777215
370
     9
100
AcDbVertex
100
AcDb2dVertex
 10
174.0008727989706
 20
176.4413767585461
 30
0.0
  0
SEQEND
  5
BB
330
B7
100
AcDbEntity
  8
Capa 1
 62
     7
420
 16777215
370
     9
  0
POLYLINE
  5
BC
330
1F
100
AcDbEntity
  8
Capa 1
 62
     7
420
 16777215
370
     9
100
AcDb2dPolyline
 66
     1
 10
0.0
 20
0.0
 30
0.0
  0
VERTEX
  5
BD
330
BC
100
AcDbEntity
  8
Capa 1
 62
     7
420
 16777215
370
     9
100
AcDbVertex
100
AcDb2dVertex
 10
149.553374419971
 20
176.155622236931
 30
0.0
  0
VERTEX
  5
BE
330
BC
100
AcDbEntity
  8
Capa 1
 62
     7
420
 16777215
370
     9
100
AcDbVertex
100
AcDb2dVertex
 10
149.3311253889596
 20
176.2508683611734
 30
0.0
  0
VERTEX
  5
BF
330
BC
100
AcDbEntity
  8
Capa 1
 62
     7
420
 16777215
370
     9
100
AcDbVertex
100
AcDb2dVertex
 10
149.2358711902733
 20
176.4413767585461
 30
0.0
  0
SEQEND
  5
C0
330
BC
100
AcDbEntity
  8
Capa 1
 62
     7
420
 16777215
370
     9
  0
POLYLINE
  5
C1
330
1F
100
AcDbEntity
  8
Capa 1
 62
     7
420
 16777215
370
     9
100
AcDb2dPolyline
 66
     1
 10
0.0
 20
0.0
 30
0.0
  0
VERTEX
  5
C2
330
C1
100
AcDbEntity
  8
Capa 1
 62
     7
420
 16777215
370
     9
100
AcDbVertex
100
AcDb2dVertex
 10
149.8391208671448
 20
202.444618354625
 30
0.0
  0
VERTEX
  5
C3
330
C1
100
AcDbEntity
  8
Capa 1
 62
     7
420
 16777215
370
     9
100
AcDbVertex
100
AcDb2dVertex
 10
148.6326215134019
 20
202.444618354625
 30
0.0
  0
SEQEND
  5
C4
330
C1
100
AcDbEntity
  8
Capa 1
 62
     7
420
 16777215
370
     9
  0
POLYLINE
  5
C5
330
1F
100
AcDbEntity
  8
Capa 1
 62
     7
420
 16777215
370
     9
100
AcDb2dPolyline
 66
     1
 10
0.0
 20
0.0
 30
0.0
  0
VERTEX
  5
C6
330
C5
100
AcDbEntity
  8
Capa 1
 62
     7
420
 16777215
370
     9
100
AcDbVertex
100
AcDb2dVertex
 10
148.346875066228
 20
202.7621215843226
 30
0.0
  0
VERTEX
  5
C7
330
C5
100
AcDbEntity
  8
Capa 1
 62
     7
420
 16777215
370
     9
100
AcDbVertex
100
AcDb2dVertex
 10
148.3786237743093
 20
202.6033780439164
 30
0.0
  0
VERTEX
  5
C8
330
C5
100
AcDbEntity
  8
Capa 1
 62
     7
420
 16777215
370
     9
100
AcDbVertex
100
AcDb2dVertex
 10
148.5056266810768
 20
202.5081157707875
 30
0.0
  0
VERTEX
  5
C9
330
C5
100
AcDbEntity
  8
Capa 1
 62
     7
420
 16777215
370
     9
100
AcDbVertex
100
AcDb2dVertex
 10
148.6326215134019
 20
202.444618354625
 30
0.0
  0
SEQEND
  5
CA
330
C5
100
AcDbEntity
  8
Capa 1
 62
     7
420
 16777215
370
     9
  0
POLYLINE
  5
CB
330
1F
100
AcDbEntity
  8
Capa 1
 62
     7
420
 16777215
370
     9
100
AcDb2dPolyline
 66
     1
 10
0.0
 20
0.0
 30
0.0
  0
VERTEX
  5
CC
330
CB
100
AcDbEntity
  8
Capa 1
 62
     7
420
 16777215
370
     9
100
AcDbVertex
100
AcDb2dVertex
 10
149.8391208671448
 20
202.444618354625
 30
0.0
  0
VERTEX
  5
CD
330
CB
100
AcDbEntity
  8
Capa 1
 62
     7
420
 16777215
370
     9
100
AcDbVertex
100
AcDb2dVertex
 10
174.6041224758421
 20
202.444618354625
 30
0.0
  0
VERTEX
  5
CE
330
CB
100
AcDbEntity
  8
Capa 1
 62
     7
420
 16777215
370
     9
100
AcDbVertex
100
AcDb2dVertex
 10
174.7628740906909
 20
202.5081157707875
 30
0.0
  0
VERTEX
  5
CF
330
CB
100
AcDbEntity
  8
Capa 1
 62
     7
420
 16777215
370
     9
100
AcDbVertex
100
AcDb2dVertex
 10
174.8581202149347
 20
202.6033780439164
 30
0.0
  0
VERTEX
  5
D0
330
CB
100
AcDbEntity
  8
Capa 1
 62
     7
420
 16777215
370
     9
100
AcDbVertex
100
AcDb2dVertex
 10
174.9216257055397
 20
202.7621215843226
 30
0.0
  0
SEQEND
  5
D1
330
CB
100
AcDbEntity
  8
Capa 1
 62
     7
420
 16777215
370
     9
  0
POLYLINE
  5
D2
330
1F
100
AcDbEntity
  8
Capa 1
 62
     7
420
 16777215
370
     9
100
AcDb2dPolyline
 66
     1
 10
0.0
 20
0.0
 30
0.0
  0
VERTEX
  5
D3
330
D2
100
AcDbEntity
  8
Capa 1
 62
     7
420
 16777215
370
     9
100
AcDbVertex
100
AcDb2dVertex
 10
173.4293718301804
 20
205.0798741675648
 30
0.0
  0
VERTEX
  5
D4
330
D2
100
AcDbEntity
  8
Capa 1
 62
     7
420
 16777215
370
     9
100
AcDbVertex
100
AcDb2dVertex
 10
174.413622152912
 20
205.0798741675648
 30
0.0
  0
SEQEND
  5
D5
330
D2
100
AcDbEntity
  8
Capa 1
 62
     7
420
 16777215
370
     9
  0
POLYLINE
  5
D6
330
1F
100
AcDbEntity
  8
Capa 1
 62
     7
420
 16777215
370
     9
100
AcDb2dPolyline
 66
     1
 10
0.0
 20
0.0
 30
0.0
  0
VERTEX
  5
D7
330
D6
100
AcDbEntity
  8
Capa 1
 62
     7
420
 16777215
370
     9
100
AcDbVertex
100
AcDb2dVertex
 10
174.9216257055397
 20
202.7621215843226
 30
0.0
  0
VERTEX
  5
D8
330
D6
100
AcDbEntity
  8
Capa 1
 62
     7
420
 16777215
370
     9
100
AcDbVertex
100
AcDb2dVertex
 10
174.8898689230159
 20
204.6353761055422
 30
0.0
  0
SEQEND
  5
D9
330
D6
100
AcDbEntity
  8
Capa 1
 62
     7
420
 16777215
370
     9
  0
POLYLINE
  5
DA
330
1F
100
AcDbEntity
  8
Capa 1
 62
     7
420
 16777215
370
     9
100
AcDb2dPolyline
 66
     1
 10
0.0
 20
0.0
 30
0.0
  0
VERTEX
  5
DB
330
DA
100
AcDbEntity
  8
Capa 1
 62
     7
420
 16777215
370
     9
100
AcDbVertex
100
AcDb2dVertex
 10
148.346875066228
 20
202.7621215843226
 30
0.0
  0
VERTEX
  5
DC
330
DA
100
AcDbEntity
  8
Capa 1
 62
     7
420
 16777215
370
     9
100
AcDbVertex
100
AcDb2dVertex
 10
148.3786237743093
 20
204.6353761055422
 30
0.0
  0
SEQEND
  5
DD
330
DA
100
AcDbEntity
  8
Capa 1
 62
     7
420
 16777215
370
     9
  0
POLYLINE
  5
DE
330
1F
100
AcDbEntity
  8
Capa 1
 62
     7
420
 16777215
370
     9
100
AcDb2dPolyline
 66
     1
 10
0.0
 20
0.0
 30
0.0
  0
VERTEX
  5
DF
330
DE
100
AcDbEntity
  8
Capa 1
 62
     7
420
 16777215
370
     9
100
AcDbVertex
100
AcDb2dVertex
 10
174.8898689230159
 20
204.6353761055422
 30
0.0
  0
VERTEX
  5
E0
330
DE
100
AcDbEntity
  8
Capa 1
 62
     7
420
 16777215
370
     9
100
AcDbVertex
100
AcDb2dVertex
 10
174.8263715068534
 20
204.8576170621109
 30
0.0
  0
VERTEX
  5
E1
330
DE
100
AcDbEntity
  8
Capa 1
 62
     7
420
 16777215
370
     9
100
AcDbVertex
100
AcDb2dVertex
 10
174.6358711839233
 20
205.0163767514023
 30
0.0
  0
VERTEX
  5
E2
330
DE
100
AcDbEntity
  8
Capa 1
 62
     7
420
 16777215
370
     9
100
AcDbVertex
100
AcDb2dVertex
 10
174.413622152912
 20
205.0798741675648
 30
0.0
  0
SEQEND
  5
E3
330
DE
100
AcDbEntity
  8
Capa 1
 62
     7
420
 16777215
370
     9
  0
POLYLINE
  5
E4
330
1F
100
AcDbEntity
  8
Capa 1
 62
     7
420
 16777215
370
     9
100
AcDb2dPolyline
 66
     1
 10
0.0
 20
0.0
 30
0.0
  0
VERTEX
  5
E5
330
E4
100
AcDbEntity
  8
Capa 1
 62
     7
420
 16777215
370
     9
100
AcDbVertex
100
AcDb2dVertex
 10
149.8391208671448
 20
205.0798741675648
 30
0.0
  0
VERTEX
  5
E6
330
E4
100
AcDbEntity
  8
Capa 1
 62
     7
420
 16777215
370
     9
100
AcDbVertex
100
AcDb2dVertex
 10
148.8231218363319
 20
205.0798741675648
 30
0.0
  0
VERTEX
  5
E7
330
E4
100
AcDbEntity
  8
Capa 1
 62
     7
420
 16777215
370
     9
100
AcDbVertex
100
AcDb2dVertex
 10
148.6008728053206
 20
205.0163767514023
 30
0.0
  0
VERTEX
  5
E8
330
E4
100
AcDbEntity
  8
Capa 1
 62
     7
420
 16777215
370
     9
100
AcDbVertex
100
AcDb2dVertex
 10
148.4421211904718
 20
204.8576170621109
 30
0.0
  0
VERTEX
  5
E9
330
E4
100
AcDbEntity
  8
Capa 1
 62
     7
420
 16777215
370
     9
100
AcDbVertex
100
AcDb2dVertex
 10
148.3786237743093
 20
204.6353761055422
 30
0.0
  0
SEQEND
  5
EA
330
E4
100
AcDbEntity
  8
Capa 1
 62
     7
420
 16777215
370
     9
  0
POLYLINE
  5
EB
330
1F
100
AcDbEntity
  8
Capa 1
 62
     7
420
 16777215
370
     9
100
AcDb2dPolyline
 66
     1
 10
0.0
 20
0.0
 30
0.0
  0
VERTEX
  5
EC
330
EB
100
AcDbEntity
  8
Capa 1
 62
     7
420
 16777215
370
     9
100
AcDbVertex
100
AcDb2dVertex
 10
169.6828708621839
 20
165.7416261152656
 30
0.0
  0
VERTEX
  5
ED
330
EB
100
AcDbEntity
  8
Capa 1
 62
     7
420
 16777215
370
     9
100
AcDbVertex
100
AcDb2dVertex
 10
169.7146195702651
 20
165.7416261152656
 30
0.0
  0
SEQEND
  5
EE
330
EB
100
AcDbEntity
  8
Capa 1
 62
     7
420
 16777215
370
     9
  0
POLYLINE
  5
EF
330
1F
100
AcDbEntity
  8
Capa 1
 62
     7
420
 16777215
370
     9
100
AcDb2dPolyline
 66
     1
 10
0.0
 20
0.0
 30
0.0
  0
VERTEX
  5
F0
330
EF
100
AcDbEntity
  8
Capa 1
 62
     7
420
 16777215
370
     9
100
AcDbVertex
100
AcDb2dVertex
 10
153.5856218351413
 20
165.7416261152656
 30
0.0
  0
VERTEX
  5
F1
330
EF
100
AcDbEntity
  8
Capa 1
 62
     7
420
 16777215
370
     9
100
AcDbVertex
100
AcDb2dVertex
 10
153.6173705432226
 20
165.7416261152656
 30
0.0
  0
SEQEND
  5
F2
330
EF
100
AcDbEntity
  8
Capa 1
 62
     7
420
 16777215
370
     9
  0
POLYLINE
  5
F3
330
1F
100
AcDbEntity
  8
Capa 1
 62
     7
420
 16777215
370
     9
100
AcDb2dPolyline
 66
     1
 10
0.0
 20
0.0
 30
0.0
  0
VERTEX
  5
F4
330
F3
100
AcDbEntity
  8
Capa 1
 62
     7
420
 16777215
370
     9
100
AcDbVertex
100
AcDb2dVertex
 10
169.6511221541026
 20
165.7416261152656
 30
0.0
  0
VERTEX
  5
F5
330
F3
100
AcDbEntity
  8
Capa 1
 62
     7
420
 16777215
370
     9
100
AcDbVertex
100
AcDb2dVertex
 10
169.6828708621839
 20
165.7416261152656
 30
0.0
  0
SEQEND
  5
F6
330
F3
100
AcDbEntity
  8
Capa 1
 62
     7
420
 16777215
370
     9
  0
POLYLINE
  5
F7
330
1F
100
AcDbEntity
  8
Capa 1
 62
     7
420
 16777215
370
     9
100
AcDb2dPolyline
 66
     1
 10
0.0
 20
0.0
 30
0.0
  0
VERTEX
  5
F8
330
F7
100
AcDbEntity
  8
Capa 1
 62
     7
420
 16777215
370
     9
100
AcDbVertex
100
AcDb2dVertex
 10
149.8391208671448
 20
205.0798741675648
 30
0.0
  0
VERTEX
  5
F9
330
F7
100
AcDbEntity
  8
Capa 1
 62
     7
420
 16777215
370
     9
100
AcDbVertex
100
AcDb2dVertex
 10
173.4293718301804
 20
205.0798741675648
 30
0.0
  0
SEQEND
  5
FA
330
F7
100
AcDbEntity
  8
Capa 1
 62
     7
420
 16777215
370
     9
  0
POLYLINE
  5
FB
330
1F
100
AcDbEntity
  8
Capa 1
 62
     7
420
 16777215
370
     9
100
AcDb2dPolyline
 66
     1
 10
0.0
 20
0.0
 30
0.0
  0
VERTEX
  5
FC
330
FB
100
AcDbEntity
  8
Capa 1
 62
     7
420
 16777215
370
     9
100
AcDbVertex
100
AcDb2dVertex
 10
154.0618766796878
 20
163.9318770846511
 30
0.0
  0
VERTEX
  5
FD
330
FB
100
AcDbEntity
  8
Capa 1
 62
     7
420
 16777215
370
     9
100
AcDbVertex
100
AcDb2dVertex
 10
154.030119897164
 20
164.5668754696039
 30
0.0
  0
VERTEX
  5
FE
330
FB
100
AcDbEntity
  8
Capa 1
 62
     7
420
 16777215
370
     9
100
AcDbVertex
100
AcDb2dVertex
 10
153.8713763567577
 20
165.1701251464754
 30
0.0
  0
VERTEX
  5
FF
330
FB
100
AcDbEntity
  8
Capa 1
 62
     7
420
 16777215
370
     9
100
AcDbVertex
100
AcDb2dVertex
 10
153.5856218351413
 20
165.7416261152656
 30
0.0
  0
SEQEND
  5
100
330
FB
100
AcDbEntity
  8
Capa 1
 62
     7
420
 16777215
370
     9
  0
POLYLINE
  5
101
330
1F
100
AcDbEntity
  8
Capa 1
 62
     7
420
 16777215
370
     9
100
AcDb2dPolyline
 66
     1
 10
0.0
 20
0.0
 30
0.0
  0
VERTEX
  5
102
330
101
100
AcDbEntity
  8
Capa 1
 62
     7
420
 16777215
370
     9
100
AcDbVertex
100
AcDb2dVertex
 10
169.6828708621839
 20
165.7416261152656
 30
0.0
  0
VERTEX
  5
103
330
101
100
AcDbEntity
  8
Capa 1
 62
     7
420
 16777215
370
     9
100
AcDbVertex
100
AcDb2dVertex
 10
169.3653757069288
 20
165.1701251464754
 30
0.0
  0
VERTEX
  5
104
330
101
100
AcDbEntity
  8
Capa 1
 62
     7
420
 16777215
370
     9
100
AcDbVertex
100
AcDb2dVertex
 10
169.20662409208
 20
164.5668754696039
 30
0.0
  0
VERTEX
  5
105
330
101
100
AcDbEntity
  8
Capa 1
 62
     7
420
 16777215
370
     9
100
AcDbVertex
100
AcDb2dVertex
 10
169.1748753839987
 20
163.9318770846511
 30
0.0
  0
SEQEND
  5
106
330
101
100
AcDbEntity
  8
Capa 1
 62
     7
420
 16777215
370
     9
  0
POLYLINE
  5
107
330
1F
100
AcDbEntity
  8
Capa 1
 62
     7
420
 16777215
370
     9
100
AcDb2dPolyline
 66
     1
 10
0.0
 20
0.0
 30
0.0
  0
VERTEX
  5
108
330
107
100
AcDbEntity
  8
Capa 1
 62
     7
420
 16777215
370
     9
100
AcDbVertex
100
AcDb2dVertex
 10
168.4446228003597
 20
164.1223774075812
 30
0.0
  0
VERTEX
  5
109
330
107
100
AcDbEntity
  8
Capa 1
 62
     7
420
 16777215
370
     9
100
AcDbVertex
100
AcDb2dVertex
 10
168.4128740922784
 20
164.0906286994999
 30
0.0
  0
VERTEX
  5
10A
330
107
100
AcDbEntity
  8
Capa 1
 62
     7
420
 16777215
370
     9
100
AcDbVertex
100
AcDb2dVertex
 10
168.3176198935921
 20
164.0271232088949
 30
0.0
  0
VERTEX
  5
10B
330
107
100
AcDbEntity
  8
Capa 1
 62
     7
420
 16777215
370
     9
100
AcDbVertex
100
AcDb2dVertex
 10
168.1588763531858
 20
163.9953745008136
 30
0.0
  0
VERTEX
  5
10C
330
107
100
AcDbEntity
  8
Capa 1
 62
     7
420
 16777215
370
     9
100
AcDbVertex
100
AcDb2dVertex
 10
167.9048705396507
 20
163.9318770846511
 30
0.0
  0
VERTEX
  5
10D
330
107
100
AcDbEntity
  8
Capa 1
 62
     7
420
 16777215
370
     9
100
AcDbVertex
100
AcDb2dVertex
 10
167.3016208627792
 20
163.8683796684886
 30
0.0
  0
VERTEX
  5
10E
330
107
100
AcDbEntity
  8
Capa 1
 62
     7
420
 16777215
370
     9
100
AcDbVertex
100
AcDb2dVertex
 10
166.4443734468151
 20
163.7731254698023
 30
0.0
  0
VERTEX
  5
10F
330
107
100
AcDbEntity
  8
Capa 1
 62
     7
420
 16777215
370
     9
100
AcDbVertex
100
AcDb2dVertex
 10
165.4283744160022
 20
163.7096280536398
 30
0.0
  0
VERTEX
  5
110
330
107
100
AcDbEntity
  8
Capa 1
 62
     7
420
 16777215
370
     9
100
AcDbVertex
100
AcDb2dVertex
 10
164.2536237703405
 20
163.6461306374773
 30
0.0
  0
VERTEX
  5
111
330
107
100
AcDbEntity
  8
Capa 1
 62
     7
420
 16777215
370
     9
100
AcDbVertex
100
AcDb2dVertex
 10
161.6183760318432
 20
163.6143738549535
 30
0.0
  0
VERTEX
  5
112
330
107
100
AcDbEntity
  8
Capa 1
 62
     7
420
 16777215
370
     9
100
AcDbVertex
100
AcDb2dVertex
 10
159.0148689269847
 20
163.6461306374773
 30
0.0
  0
VERTEX
  5
113
330
107
100
AcDbEntity
  8
Capa 1
 62
     7
420
 16777215
370
     9
100
AcDbVertex
100
AcDb2dVertex
 10
157.8401263557655
 20
163.7096280536398
 30
0.0
  0
VERTEX
  5
114
330
107
100
AcDbEntity
  8
Capa 1
 62
     7
420
 16777215
370
     9
100
AcDbVertex
100
AcDb2dVertex
 10
156.7923705424288
 20
163.7731254698023
 30
0.0
  0
VERTEX
  5
115
330
107
100
AcDbEntity
  8
Capa 1
 62
     7
420
 16777215
370
     9
100
AcDbVertex
100
AcDb2dVertex
 10
155.966871834546
 20
163.8683796684886
 30
0.0
  0
VERTEX
  5
116
330
107
100
AcDbEntity
  8
Capa 1
 62
     7
420
 16777215
370
     9
100
AcDbVertex
100
AcDb2dVertex
 10
155.3318734495932
 20
163.9318770846511
 30
0.0
  0
VERTEX
  5
117
330
107
100
AcDbEntity
  8
Capa 1
 62
     7
420
 16777215
370
     9
100
AcDbVertex
100
AcDb2dVertex
 10
154.9508728037331
 20
164.0271232088949
 30
0.0
  0
VERTEX
  5
118
330
107
100
AcDbEntity
  8
Capa 1
 62
     7
420
 16777215
370
     9
100
AcDbVertex
100
AcDb2dVertex
 10
154.8556266794893
 20
164.0588799914187
 30
0.0
  0
VERTEX
  5
119
330
107
100
AcDbEntity
  8
Capa 1
 62
     7
420
 16777215
370
     9
100
AcDbVertex
100
AcDb2dVertex
 10
154.8238698969655
 20
164.1223774075812
 30
0.0
  0
SEQEND
  5
11A
330
107
100
AcDbEntity
  8
Capa 1
 62
     7
420
 16777215
370
     9
  0
POLYLINE
  5
11B
330
1F
100
AcDbEntity
  8
Capa 1
 62
     7
420
 16777215
370
     9
100
AcDb2dPolyline
 66
     1
 10
0.0
 20
0.0
 30
0.0
  0
VERTEX
  5
11C
330
11B
100
AcDbEntity
  8
Capa 1
 62
     7
420
 16777215
370
     9
100
AcDbVertex
100
AcDb2dVertex
 10
169.20662409208
 20
163.9001283765699
 30
0.0
  0
VERTEX
  5
11D
330
11B
100
AcDbEntity
  8
Capa 1
 62
     7
420
 16777215
370
     9
100
AcDbVertex
100
AcDb2dVertex
 10
169.1748753839987
 20
163.9318770846511
 30
0.0
  0
SEQEND
  5
11E
330
11B
100
AcDbEntity
  8
Capa 1
 62
     7
420
 16777215
370
     9
  0
POLYLINE
  5
11F
330
1F
100
AcDbEntity
  8
Capa 1
 62
     7
420
 16777215
370
     9
100
AcDb2dPolyline
 66
     1
 10
0.0
 20
0.0
 30
0.0
  0
VERTEX
  5
120
330
11F
100
AcDbEntity
  8
Capa 1
 62
     7
420
 16777215
370
     9
100
AcDbVertex
100
AcDb2dVertex
 10
154.0618766796878
 20
163.9318770846511
 30
0.0
  0
VERTEX
  5
121
330
11F
100
AcDbEntity
  8
Capa 1
 62
     7
420
 16777215
370
     9
100
AcDbVertex
100
AcDb2dVertex
 10
154.0618766796878
 20
163.9001283765699
 30
0.0
  0
SEQEND
  5
122
330
11F
100
AcDbEntity
  8
Capa 1
 62
     7
420
 16777215
370
     9
  0
POLYLINE
  5
123
330
1F
100
AcDbEntity
  8
Capa 1
 62
     7
420
 16777215
370
     9
100
AcDb2dPolyline
 66
     1
 10
0.0
 20
0.0
 30
0.0
  0
VERTEX
  5
124
330
123
100
AcDbEntity
  8
Capa 1
 62
     7
420
 16777215
370
     9
100
AcDbVertex
100
AcDb2dVertex
 10
107.463453242139
 20
175.711124174907
 30
0.0
  0
VERTEX
  5
125
330
123
100
AcDbEntity
  8
Capa 1
 62
     7
420
 16777215
370
     9
100
AcDbVertex
100
AcDb2dVertex
 10
107.3999558259764
 20
175.9333651314758
 30
0.0
  0
VERTEX
  5
126
330
123
100
AcDbEntity
  8
Capa 1
 62
     7
420
 16777215
370
     9
100
AcDbVertex
100
AcDb2dVertex
 10
107.2412042111276
 20
176.0921248207671
 30
0.0
  0
VERTEX
  5
127
330
123
100
AcDbEntity
  8
Capa 1
 62
     7
420
 16777215
370
     9
100
AcDbVertex
100
AcDb2dVertex
 10
107.0189551801163
 20
176.155622236931
 30
0.0
  0
SEQEND
  5
128
330
123
100
AcDbEntity
  8
Capa 1
 62
     7
420
 16777215
370
     9
  0
POLYLINE
  5
129
330
1F
100
AcDbEntity
  8
Capa 1
 62
     7
420
 16777215
370
     9
100
AcDb2dPolyline
 66
     1
 10
0.0
 20
0.0
 30
0.0
  0
VERTEX
  5
12A
330
129
100
AcDbEntity
  8
Capa 1
 62
     7
420
 16777215
370
     9
100
AcDbVertex
100
AcDb2dVertex
 10
98.47820550522918
 20
165.9321264381957
 30
0.0
  0
VERTEX
  5
12B
330
129
100
AcDbEntity
  8
Capa 1
 62
     7
420
 16777215
370
     9
100
AcDbVertex
100
AcDb2dVertex
 10
100.9229529207964
 20
168.2181303133566
 30
0.0
  0
VERTEX
  5
12C
330
129
100
AcDbEntity
  8
Capa 1
 62
     7
420
 16777215
370
     9
100
AcDbVertex
100
AcDb2dVertex
 10
103.2407055040386
 20
170.5993803127613
 30
0.0
  0
VERTEX
  5
12D
330
129
100
AcDbEntity
  8
Capa 1
 62
     7
420
 16777215
370
     9
100
AcDbVertex
100
AcDb2dVertex
 10
105.4632038885944
 20
173.0758764364097
 30
0.0
  0
VERTEX
  5
12E
330
129
100
AcDbEntity
  8
Capa 1
 62
     7
420
 16777215
370
     9
100
AcDbVertex
100
AcDb2dVertex
 10
106.5109597019311
 20
174.377629988839
 30
0.0
  0
VERTEX
  5
12F
330
129
100
AcDbEntity
  8
Capa 1
 62
     7
420
 16777215
370
     9
100
AcDbVertex
100
AcDb2dVertex
 10
107.0507038881976
 20
175.0126283737918
 30
0.0
  0
VERTEX
  5
130
330
129
100
AcDbEntity
  8
Capa 1
 62
     7
420
 16777215
370
     9
100
AcDbVertex
100
AcDb2dVertex
 10
107.3047097017327
 20
175.3301235290469
 30
0.0
  0
VERTEX
  5
131
330
129
100
AcDbEntity
  8
Capa 1
 62
     7
420
 16777215
370
     9
100
AcDbVertex
100
AcDb2dVertex
 10
107.4317045340577
 20
175.5206157775344
 30
0.0
  0
VERTEX
  5
132
330
129
100
AcDbEntity
  8
Capa 1
 62
     7
420
 16777215
370
     9
100
AcDbVertex
100
AcDb2dVertex
 10
107.463453242139
 20
175.711124174907
 30
0.0
  0
SEQEND
  5
133
330
129
100
AcDbEntity
  8
Capa 1
 62
     7
420
 16777215
370
     9
  0
POLYLINE
  5
134
330
1F
100
AcDbEntity
  8
Capa 1
 62
     7
420
 16777215
370
     9
100
AcDb2dPolyline
 66
     1
 10
0.0
 20
0.0
 30
0.0
  0
VERTEX
  5
135
330
134
100
AcDbEntity
  8
Capa 1
 62
     7
420
 16777215
370
     9
100
AcDbVertex
100
AcDb2dVertex
 10
97.52570389057881
 20
163.3603761158609
 30
0.0
  0
VERTEX
  5
136
330
134
100
AcDbEntity
  8
Capa 1
 62
     7
420
 16777215
370
     9
100
AcDbVertex
100
AcDb2dVertex
 10
97.52570389057881
 20
164.0906286994999
 30
0.0
  0
VERTEX
  5
137
330
134
100
AcDbEntity
  8
Capa 1
 62
     7
420
 16777215
370
     9
100
AcDbVertex
100
AcDb2dVertex
 10
97.68445550542762
 20
164.7573757925339
 30
0.0
  0
VERTEX
  5
138
330
134
100
AcDbEntity
  8
Capa 1
 62
     7
420
 16777215
370
     9
100
AcDbVertex
100
AcDb2dVertex
 10
98.03370744320652
 20
165.3923741774867
 30
0.0
  0
VERTEX
  5
139
330
134
100
AcDbEntity
  8
Capa 1
 62
     7
420
 16777215
370
     9
100
AcDbVertex
100
AcDb2dVertex
 10
98.50995421331044
 20
165.9321264381957
 30
0.0
  0
SEQEND
  5
13A
330
134
100
AcDbEntity
  8
Capa 1
 62
     7
420
 16777215
370
     9
  0
POLYLINE
  5
13B
330
1F
100
AcDbEntity
  8
Capa 1
 62
     7
420
 16777215
370
     9
100
AcDb2dPolyline
 66
     1
 10
0.0
 20
0.0
 30
0.0
  0
VERTEX
  5
13C
330
13B
100
AcDbEntity
  8
Capa 1
 62
     7
420
 16777215
370
     9
100
AcDbVertex
100
AcDb2dVertex
 10
98.82745744300809
 20
146.1518738593191
 30
0.0
  0
VERTEX
  5
13D
330
13B
100
AcDbEntity
  8
Capa 1
 62
     7
420
 16777215
370
     9
100
AcDbVertex
100
AcDb2dVertex
 10
98.63695712007801
 20
150.4698757961058
 30
0.0
  0
VERTEX
  5
13E
330
13B
100
AcDbEntity
  8
Capa 1
 62
     7
420
 16777215
370
     9
100
AcDbVertex
100
AcDb2dVertex
 10
98.35121067290416
 20
154.7878777328925
 30
0.0
  0
VERTEX
  5
13F
330
13B
100
AcDbEntity
  8
Capa 1
 62
     7
420
 16777215
370
     9
100
AcDbVertex
100
AcDb2dVertex
 10
97.97021002704402
 20
159.074130961598
 30
0.0
  0
VERTEX
  5
140
330
13B
100
AcDbEntity
  8
Capa 1
 62
     7
420
 16777215
370
     9
100
AcDbVertex
100
AcDb2dVertex
 10
97.52570389057881
 20
163.3603761158609
 30
0.0
  0
SEQEND
  5
141
330
13B
100
AcDbEntity
  8
Capa 1
 62
     7
420
 16777215
370
     9
  0
POLYLINE
  5
142
330
1F
100
AcDbEntity
  8
Capa 1
 62
     7
420
 16777215
370
     9
100
AcDb2dPolyline
 66
     1
 10
0.0
 20
0.0
 30
0.0
  0
VERTEX
  5
143
330
142
100
AcDbEntity
  8
Capa 1
 62
     7
420
 16777215
370
     9
100
AcDbVertex
100
AcDb2dVertex
 10
58.18746189411149
 20
176.155622236931
 30
0.0
  0
VERTEX
  5
144
330
142
100
AcDbEntity
  8
Capa 1
 62
     7
420
 16777215
370
     9
100
AcDbVertex
100
AcDb2dVertex
 10
58.28271003696589
 20
176.155622236931
 30
0.0
  0
SEQEND
  5
145
330
142
100
AcDbEntity
  8
Capa 1
 62
     7
420
 16777215
370
     9
  0
POLYLINE
  5
146
330
1F
100
AcDbEntity
  8
Capa 1
 62
     7
420
 16777215
370
     9
100
AcDb2dPolyline
 66
     1
 10
0.0
 20
0.0
 30
0.0
  0
VERTEX
  5
147
330
146
100
AcDbEntity
  8
Capa 1
 62
     7
420
 16777215
370
     9
100
AcDbVertex
100
AcDb2dVertex
 10
69.71270922666413
 20
176.155622236931
 30
0.0
  0
VERTEX
  5
148
330
146
100
AcDbEntity
  8
Capa 1
 62
     7
420
 16777215
370
     9
100
AcDbVertex
100
AcDb2dVertex
 10
70.44295777308191
 20
176.155622236931
 30
0.0
  0
SEQEND
  5
149
330
146
100
AcDbEntity
  8
Capa 1
 62
     7
420
 16777215
370
     9
  0
POLYLINE
  5
14A
330
1F
100
AcDbEntity
  8
Capa 1
 62
     7
420
 16777215
370
     9
100
AcDb2dPolyline
 66
     1
 10
0.0
 20
0.0
 30
0.0
  0
VERTEX
  5
14B
330
14A
100
AcDbEntity
  8
Capa 1
 62
     7
420
 16777215
370
     9
100
AcDbVertex
100
AcDb2dVertex
 10
57.96521084448951
 20
175.6476267587445
 30
0.0
  0
VERTEX
  5
14C
330
14A
100
AcDbEntity
  8
Capa 1
 62
     7
420
 16777215
370
     9
100
AcDbVertex
100
AcDb2dVertex
 10
57.96521084448951
 20
175.9333651314758
 30
0.0
  0
SEQEND
  5
14D
330
14A
100
AcDbEntity
  8
Capa 1
 62
     7
420
 16777215
370
     9
  0
POLYLINE
  5
14E
330
1F
100
AcDbEntity
  8
Capa 1
 62
     7
420
 16777215
370
     9
100
AcDb2dPolyline
 66
     1
 10
0.0
 20
0.0
 30
0.0
  0
VERTEX
  5
14F
330
14E
100
AcDbEntity
  8
Capa 1
 62
     7
420
 16777215
370
     9
100
AcDbVertex
100
AcDb2dVertex
 10
58.18746189411149
 20
176.155622236931
 30
0.0
  0
VERTEX
  5
150
330
14E
100
AcDbEntity
  8
Capa 1
 62
     7
420
 16777215
370
     9
100
AcDbVertex
100
AcDb2dVertex
 10
58.02871027926266
 20
176.0921248207671
 30
0.0
  0
VERTEX
  5
151
330
14E
100
AcDbEntity
  8
Capa 1
 62
     7
420
 16777215
370
     9
100
AcDbVertex
100
AcDb2dVertex
 10
57.96521084448951
 20
175.9333651314758
 30
0.0
  0
SEQEND
  5
152
330
14E
100
AcDbEntity
  8
Capa 1
 62
     7
420
 16777215
370
     9
  0
POLYLINE
  5
153
330
1F
100
AcDbEntity
  8
Capa 1
 62
     7
420
 16777215
370
     9
100
AcDb2dPolyline
 66
     1
 10
0.0
 20
0.0
 30
0.0
  0
VERTEX
  5
154
330
153
100
AcDbEntity
  8
Capa 1
 62
     7
420
 16777215
370
     9
100
AcDbVertex
100
AcDb2dVertex
 10
57.96521084448951
 20
174.5681303117691
 30
0.0
  0
VERTEX
  5
155
330
153
100
AcDbEntity
  8
Capa 1
 62
     7
420
 16777215
370
     9
100
AcDbVertex
100
AcDb2dVertex
 10
57.96521084448951
 20
175.6476267587445
 30
0.0
  0
SEQEND
  5
156
330
153
100
AcDbEntity
  8
Capa 1
 62
     7
420
 16777215
370
     9
  0
POLYLINE
  5
157
330
1F
100
AcDbEntity
  8
Capa 1
 62
     7
420
 16777215
370
     9
100
AcDb2dPolyline
 66
     1
 10
0.0
 20
0.0
 30
0.0
  0
VERTEX
  5
158
330
157
100
AcDbEntity
  8
Capa 1
 62
     7
420
 16777215
370
     9
100
AcDbVertex
100
AcDb2dVertex
 10
58.25096132888463
 20
174.2188783739902
 30
0.0
  0
VERTEX
  5
159
330
157
100
AcDbEntity
  8
Capa 1
 62
     7
420
 16777215
370
     9
100
AcDbVertex
100
AcDb2dVertex
 10
58.06046100595455
 20
174.3458732063152
 30
0.0
  0
VERTEX
  5
15A
330
157
100
AcDbEntity
  8
Capa 1
 62
     7
420
 16777215
370
     9
100
AcDbVertex
100
AcDb2dVertex
 10
57.96521084448951
 20
174.5681303117691
 30
0.0
  0
SEQEND
  5
15B
330
157
100
AcDbEntity
  8
Capa 1
 62
     7
420
 16777215
370
     9
  0
POLYLINE
  5
15C
330
1F
100
AcDbEntity
  8
Capa 1
 62
     7
420
 16777215
370
     9
100
AcDb2dPolyline
 66
     1
 10
0.0
 20
0.0
 30
0.0
  0
VERTEX
  5
15D
330
15C
100
AcDbEntity
  8
Capa 1
 62
     7
420
 16777215
370
     9
100
AcDbVertex
100
AcDb2dVertex
 10
64.66445874345965
 20
172.4726267595382
 30
0.0
  0
VERTEX
  5
15E
330
15C
100
AcDbEntity
  8
Capa 1
 62
     7
420
 16777215
370
     9
100
AcDbVertex
100
AcDb2dVertex
 10
58.25096132888463
 20
174.2188783739902
 30
0.0
  0
SEQEND
  5
15F
330
15C
100
AcDbEntity
  8
Capa 1
 62
     7
420
 16777215
370
     9
  0
POLYLINE
  5
160
330
1F
100
AcDbEntity
  8
Capa 1
 62
     7
420
 16777215
370
     9
100
AcDb2dPolyline
 66
     1
 10
0.0
 20
0.0
 30
0.0
  0
VERTEX
  5
161
330
160
100
AcDbEntity
  8
Capa 1
 62
     7
420
 16777215
370
     9
100
AcDbVertex
100
AcDb2dVertex
 10
65.83920938912135
 20
171.5201251448879
 30
0.0
  0
VERTEX
  5
162
330
160
100
AcDbEntity
  8
Capa 1
 62
     7
420
 16777215
370
     9
100
AcDbVertex
100
AcDb2dVertex
 10
65.64870906619129
 20
171.8376283745855
 30
0.0
  0
VERTEX
  5
163
330
160
100
AcDbEntity
  8
Capa 1
 62
     7
420
 16777215
370
     9
100
AcDbVertex
100
AcDb2dVertex
 10
65.36295858179616
 20
172.1233748217593
 30
0.0
  0
VERTEX
  5
164
330
160
100
AcDbEntity
  8
Capa 1
 62
     7
420
 16777215
370
     9
100
AcDbVertex
100
AcDb2dVertex
 10
65.04545938931979
 20
172.3456238527707
 30
0.0
  0
VERTEX
  5
165
330
160
100
AcDbEntity
  8
Capa 1
 62
     7
420
 16777215
370
     9
100
AcDbVertex
100
AcDb2dVertex
 10
64.66445874345965
 20
172.4726267595382
 30
0.0
  0
SEQEND
  5
166
330
160
100
AcDbEntity
  8
Capa 1
 62
     7
420
 16777215
370
     9
  0
POLYLINE
  5
167
330
1F
100
AcDbEntity
  8
Capa 1
 62
     7
420
 16777215
370
     9
100
AcDb2dPolyline
 66
     1
 10
0.0
 20
0.0
 30
0.0
  0
VERTEX
  5
168
330
167
100
AcDbEntity
  8
Capa 1
 62
     7
420
 16777215
370
     9
100
AcDbVertex
100
AcDb2dVertex
 10
68.41095971145741
 20
166.5036274069859
 30
0.0
  0
VERTEX
  5
169
330
167
100
AcDbEntity
  8
Capa 1
 62
     7
420
 16777215
370
     9
100
AcDbVertex
100
AcDb2dVertex
 10
67.5854610035733
 20
168.1546248227515
 30
0.0
  0
VERTEX
  5
16A
330
167
100
AcDbEntity
  8
Capa 1
 62
     7
420
 16777215
370
     9
100
AcDbVertex
100
AcDb2dVertex
 10
66.72820955038796
 20
169.837379021041
 30
0.0
  0
VERTEX
  5
16B
330
167
100
AcDbEntity
  8
Capa 1
 62
     7
420
 16777215
370
     9
100
AcDbVertex
100
AcDb2dVertex
 10
65.83920938912135
 20
171.5201251448879
 30
0.0
  0
SEQEND
  5
16C
330
167
100
AcDbEntity
  8
Capa 1
 62
     7
420
 16777215
370
     9
  0
POLYLINE
  5
16D
330
1F
100
AcDbEntity
  8
Capa 1
 62
     7
420
 16777215
370
     9
100
AcDb2dPolyline
 66
     1
 10
0.0
 20
0.0
 30
0.0
  0
VERTEX
  5
16E
330
16D
100
AcDbEntity
  8
Capa 1
 62
     7
420
 16777215
370
     9
100
AcDbVertex
100
AcDb2dVertex
 10
69.17296100317643
 20
163.9001283765699
 30
0.0
  0
VERTEX
  5
16F
330
16D
100
AcDbEntity
  8
Capa 1
 62
     7
420
 16777215
370
     9
100
AcDbVertex
100
AcDb2dVertex
 10
68.09346051897975
 20
146.1518738593191
 30
0.0
  0
VERTEX
  5
170
330
16D
100
AcDbEntity
  8
Capa 1
 62
     7
420
 16777215
370
     9
100
AcDbVertex
100
AcDb2dVertex
 10
98.82745744300809
 20
146.1518738593191
 30
0.0
  0
SEQEND
  5
171
330
16D
100
AcDbEntity
  8
Capa 1
 62
     7
420
 16777215
370
     9
  0
POLYLINE
  5
172
330
1F
100
AcDbEntity
  8
Capa 1
 62
     7
420
 16777215
370
     9
100
AcDb2dPolyline
 66
     1
 10
0.0
 20
0.0
 30
0.0
  0
VERTEX
  5
173
330
172
100
AcDbEntity
  8
Capa 1
 62
     7
420
 16777215
370
     9
100
AcDbVertex
100
AcDb2dVertex
 10
68.34745825807362
 20
176.155622236931
 30
0.0
  0
VERTEX
  5
174
330
172
100
AcDbEntity
  8
Capa 1
 62
     7
420
 16777215
370
     9
100
AcDbVertex
100
AcDb2dVertex
 10
107.0189551801163
 20
176.155622236931
 30
0.0
  0
SEQEND
  5
175
330
172
100
AcDbEntity
  8
Capa 1
 62
     7
420
 16777215
370
     9
  0
POLYLINE
  5
176
330
1F
100
AcDbEntity
  8
Capa 1
 62
     7
420
 16777215
370
     9
100
AcDb2dPolyline
 66
     1
 10
0.0
 20
0.0
 30
0.0
  0
VERTEX
  5
177
330
176
100
AcDbEntity
  8
Capa 1
 62
     7
420
 16777215
370
     9
100
AcDbVertex
100
AcDb2dVertex
 10
69.0142093883276
 20
165.3606254694054
 30
0.0
  0
VERTEX
  5
178
330
176
100
AcDbEntity
  8
Capa 1
 62
     7
420
 16777215
370
     9
100
AcDbVertex
100
AcDb2dVertex
 10
68.82370906539754
 20
165.7733748233468
 30
0.0
  0
VERTEX
  5
179
330
176
100
AcDbEntity
  8
Capa 1
 62
     7
420
 16777215
370
     9
100
AcDbVertex
100
AcDb2dVertex
 10
68.60146003438619
 20
166.154375469207
 30
0.0
  0
VERTEX
  5
17A
330
176
100
AcDbEntity
  8
Capa 1
 62
     7
420
 16777215
370
     9
100
AcDbVertex
100
AcDb2dVertex
 10
68.41095971145741
 20
166.5036274069859
 30
0.0
  0
SEQEND
  5
17B
330
176
100
AcDbEntity
  8
Capa 1
 62
     7
420
 16777215
370
     9
  0
POLYLINE
  5
17C
330
1F
100
AcDbEntity
  8
Capa 1
 62
     7
420
 16777215
370
     9
100
AcDb2dPolyline
 66
     1
 10
0.0
 20
0.0
 30
0.0
  0
VERTEX
  5
17D
330
17C
100
AcDbEntity
  8
Capa 1
 62
     7
420
 16777215
370
     9
100
AcDbVertex
100
AcDb2dVertex
 10
69.20470971125897
 20
164.408123854755
 30
0.0
  0
VERTEX
  5
17E
330
17C
100
AcDbEntity
  8
Capa 1
 62
     7
420
 16777215
370
     9
100
AcDbVertex
100
AcDb2dVertex
 10
69.17296100317643
 20
164.9161274073828
 30
0.0
  0
VERTEX
  5
17F
330
17C
100
AcDbEntity
  8
Capa 1
 62
     7
420
 16777215
370
     9
100
AcDbVertex
100
AcDb2dVertex
 10
69.0142093883276
 20
165.3606254694054
 30
0.0
  0
SEQEND
  5
180
330
17C
100
AcDbEntity
  8
Capa 1
 62
     7
420
 16777215
370
     9
  0
POLYLINE
  5
181
330
1F
100
AcDbEntity
  8
Capa 1
 62
     7
420
 16777215
370
     9
100
AcDb2dPolyline
 66
     1
 10
0.0
 20
0.0
 30
0.0
  0
VERTEX
  5
182
330
181
100
AcDbEntity
  8
Capa 1
 62
     7
420
 16777215
370
     9
100
AcDbVertex
100
AcDb2dVertex
 10
69.17296100317643
 20
163.9001283765699
 30
0.0
  0
VERTEX
  5
183
330
181
100
AcDbEntity
  8
Capa 1
 62
     7
420
 16777215
370
     9
100
AcDbVertex
100
AcDb2dVertex
 10
69.20470971125897
 20
164.0588799914187
 30
0.0
  0
VERTEX
  5
184
330
181
100
AcDbEntity
  8
Capa 1
 62
     7
420
 16777215
370
     9
100
AcDbVertex
100
AcDb2dVertex
 10
69.20470971125897
 20
164.408123854755
 30
0.0
  0
SEQEND
  5
185
330
181
100
AcDbEntity
  8
Capa 1
 62
     7
420
 16777215
370
     9
  0
POLYLINE
  5
186
330
1F
100
AcDbEntity
  8
Capa 1
 62
     7
420
 16777215
370
     9
100
AcDb2dPolyline
 66
     1
 10
0.0
 20
0.0
 30
0.0
  0
VERTEX
  5
187
330
186
100
AcDbEntity
  8
Capa 1
 62
     7
420
 16777215
370
     9
100
AcDbVertex
100
AcDb2dVertex
 10
68.09346051897975
 20
146.1518738593191
 30
0.0
  0
VERTEX
  5
188
330
186
100
AcDbEntity
  8
Capa 1
 62
     7
420
 16777215
370
     9
100
AcDbVertex
100
AcDb2dVertex
 10
65.99796100397018
 20
146.1518738593191
 30
0.0
  0
SEQEND
  5
189
330
186
100
AcDbEntity
  8
Capa 1
 62
     7
420
 16777215
370
     9
  0
POLYLINE
  5
18A
330
1F
100
AcDbEntity
  8
Capa 1
 62
     7
420
 16777215
370
     9
100
AcDb2dPolyline
 66
     1
 10
0.0
 20
0.0
 30
0.0
  0
VERTEX
  5
18B
330
18A
100
AcDbEntity
  8
Capa 1
 62
     7
420
 16777215
370
     9
100
AcDbVertex
100
AcDb2dVertex
 10
69.74445793474538
 20
202.1271151249273
 30
0.0
  0
VERTEX
  5
18C
330
18A
100
AcDbEntity
  8
Capa 1
 62
     7
420
 16777215
370
     9
100
AcDbVertex
100
AcDb2dVertex
 10
69.52220890373405
 20
202.1906286899749
 30
0.0
  0
VERTEX
  5
18D
330
18A
100
AcDbEntity
  8
Capa 1
 62
     7
420
 16777215
370
     9
100
AcDbVertex
100
AcDb2dVertex
 10
69.39521003418776
 20
202.4128696465437
 30
0.0
  0
SEQEND
  5
18E
330
18A
100
AcDbEntity
  8
Capa 1
 62
     7
420
 16777215
370
     9
  0
POLYLINE
  5
18F
330
1F
100
AcDbEntity
  8
Capa 1
 62
     7
420
 16777215
370
     9
100
AcDb2dPolyline
 66
     1
 10
0.0
 20
0.0
 30
0.0
  0
VERTEX
  5
190
330
18F
100
AcDbEntity
  8
Capa 1
 62
     7
420
 16777215
370
     9
100
AcDbVertex
100
AcDb2dVertex
 10
57.96521084448951
 20
176.4731254666273
 30
0.0
  0
VERTEX
  5
191
330
18F
100
AcDbEntity
  8
Capa 1
 62
     7
420
 16777215
370
     9
100
AcDbVertex
100
AcDb2dVertex
 10
57.96521084448951
 20
202.1271151249273
 30
0.0
  0
VERTEX
  5
192
330
18F
100
AcDbEntity
  8
Capa 1
 62
     7
420
 16777215
370
     9
100
AcDbVertex
100
AcDb2dVertex
 10
58.28271003696589
 20
202.1271151249273
 30
0.0
  0
SEQEND
  5
193
330
18F
100
AcDbEntity
  8
Capa 1
 62
     7
420
 16777215
370
     9
  0
POLYLINE
  5
194
330
1F
100
AcDbEntity
  8
Capa 1
 62
     7
420
 16777215
370
     9
100
AcDb2dPolyline
 66
     1
 10
0.0
 20
0.0
 30
0.0
  0
VERTEX
  5
195
330
194
100
AcDbEntity
  8
Capa 1
 62
     7
420
 16777215
370
     9
100
AcDbVertex
100
AcDb2dVertex
 10
64.1564592280532
 20
198.2853761071297
 30
0.0
  0
VERTEX
  5
196
330
194
100
AcDbEntity
  8
Capa 1
 62
     7
420
 16777215
370
     9
100
AcDbVertex
100
AcDb2dVertex
 10
64.09295777466942
 20
198.5711144798609
 30
0.0
  0
VERTEX
  5
197
330
194
100
AcDbEntity
  8
Capa 1
 62
     7
420
 16777215
370
     9
100
AcDbVertex
100
AcDb2dVertex
 10
63.96595890512312
 20
198.7933715853148
 30
0.0
  0
VERTEX
  5
198
330
194
100
AcDbEntity
  8
Capa 1
 62
     7
420
 16777215
370
     9
100
AcDbVertex
100
AcDb2dVertex
 10
63.71196116603053
 20
198.9521151257211
 30
0.0
  0
VERTEX
  5
199
330
194
100
AcDbEntity
  8
Capa 1
 62
     7
420
 16777215
370
     9
100
AcDbVertex
100
AcDb2dVertex
 10
63.45795938971667
 20
199.0156286907687
 30
0.0
  0
VERTEX
  5
19A
330
194
100
AcDbEntity
  8
Capa 1
 62
     7
420
 16777215
370
     9
100
AcDbVertex
100
AcDb2dVertex
 10
63.17220890532155
 20
198.9521151257211
 30
0.0
  0
VERTEX
  5
19B
330
194
100
AcDbEntity
  8
Capa 1
 62
     7
420
 16777215
370
     9
100
AcDbVertex
100
AcDb2dVertex
 10
62.94995987431022
 20
198.7933715853148
 30
0.0
  0
VERTEX
  5
19C
330
194
100
AcDbEntity
  8
Capa 1
 62
     7
420
 16777215
370
     9
100
AcDbVertex
100
AcDb2dVertex
 10
62.79120825946269
 20
198.5711144798609
 30
0.0
  0
VERTEX
  5
19D
330
194
100
AcDbEntity
  8
Capa 1
 62
     7
420
 16777215
370
     9
100
AcDbVertex
100
AcDb2dVertex
 10
62.72771084329889
 20
198.2853761071297
 30
0.0
  0
VERTEX
  5
19E
330
194
100
AcDbEntity
  8
Capa 1
 62
     7
420
 16777215
370
     9
100
AcDbVertex
100
AcDb2dVertex
 10
62.79120825946269
 20
198.0313702935945
 30
0.0
  0
VERTEX
  5
19F
330
194
100
AcDbEntity
  8
Capa 1
 62
     7
420
 16777215
370
     9
100
AcDbVertex
100
AcDb2dVertex
 10
62.94995987431022
 20
197.7773644800594
 30
0.0
  0
VERTEX
  5
1A0
330
194
100
AcDbEntity
  8
Capa 1
 62
     7
420
 16777215
370
     9
100
AcDbVertex
100
AcDb2dVertex
 10
63.17220890532155
 20
197.6186209396531
 30
0.0
  0
VERTEX
  5
1A1
330
194
100
AcDbEntity
  8
Capa 1
 62
     7
420
 16777215
370
     9
100
AcDbVertex
100
AcDb2dVertex
 10
63.45795938971667
 20
197.5868722315731
 30
0.0
  0
VERTEX
  5
1A2
330
194
100
AcDbEntity
  8
Capa 1
 62
     7
420
 16777215
370
     9
100
AcDbVertex
100
AcDb2dVertex
 10
63.71196116603053
 20
197.6186209396531
 30
0.0
  0
VERTEX
  5
1A3
330
194
100
AcDbEntity
  8
Capa 1
 62
     7
420
 16777215
370
     9
100
AcDbVertex
100
AcDb2dVertex
 10
63.96595890512312
 20
197.7773644800594
 30
0.0
  0
VERTEX
  5
1A4
330
194
100
AcDbEntity
  8
Capa 1
 62
     7
420
 16777215
370
     9
100
AcDbVertex
100
AcDb2dVertex
 10
64.09295777466942
 20
198.0313702935945
 30
0.0
  0
VERTEX
  5
1A5
330
194
100
AcDbEntity
  8
Capa 1
 62
     7
420
 16777215
370
     9
100
AcDbVertex
100
AcDb2dVertex
 10
64.1564592280532
 20
198.2853761071297
 30
0.0
  0
SEQEND
  5
1A6
330
194
100
AcDbEntity
  8
Capa 1
 62
     7
420
 16777215
370
     9
  0
POLYLINE
  5
1A7
330
1F
100
AcDbEntity
  8
Capa 1
 62
     7
420
 16777215
370
     9
100
AcDb2dPolyline
 66
     1
 10
0.0
 20
0.0
 30
0.0
  0
VERTEX
  5
1A8
330
1A7
100
AcDbEntity
  8
Capa 1
 62
     7
420
 16777215
370
     9
100
AcDbVertex
100
AcDb2dVertex
 10
68.2522080966073
 20
202.1271151249273
 30
0.0
  0
VERTEX
  5
1A9
330
1A7
100
AcDbEntity
  8
Capa 1
 62
     7
420
 16777215
370
     9
100
AcDbVertex
100
AcDb2dVertex
 10
58.28271003696589
 20
202.1271151249273
 30
0.0
  0
SEQEND
  5
1AA
330
1A7
100
AcDbEntity
  8
Capa 1
 62
     7
420
 16777215
370
     9
  0
POLYLINE
  5
1AB
330
1F
100
AcDbEntity
  8
Capa 1
 62
     7
420
 16777215
370
     9
100
AcDb2dPolyline
 66
     1
 10
0.0
 20
0.0
 30
0.0
  0
VERTEX
  5
1AC
330
1AB
100
AcDbEntity
  8
Capa 1
 62
     7
420
 16777215
370
     9
100
AcDbVertex
100
AcDb2dVertex
 10
68.85545777347879
 20
176.4413767585461
 30
0.0
  0
VERTEX
  5
1AD
330
1AB
100
AcDbEntity
  8
Capa 1
 62
     7
420
 16777215
370
     9
100
AcDbVertex
100
AcDb2dVertex
 10
69.74445793474538
 20
202.1271151249273
 30
0.0
  0
VERTEX
  5
1AE
330
1AB
100
AcDbEntity
  8
Capa 1
 62
     7
420
 16777215
370
     9
100
AcDbVertex
100
AcDb2dVertex
 10
68.2522080966073
 20
202.1271151249273
 30
0.0
  0
SEQEND
  5
1AF
330
1AB
100
AcDbEntity
  8
Capa 1
 62
     7
420
 16777215
370
     9
  0
POLYLINE
  5
1B0
330
1F
100
AcDbEntity
  8
Capa 1
 62
     7
420
 16777215
370
     9
100
AcDb2dPolyline
 66
     1
 10
0.0
 20
0.0
 30
0.0
  0
VERTEX
  5
1B1
330
1B0
100
AcDbEntity
  8
Capa 1
 62
     7
420
 16777215
370
     9
100
AcDbVertex
100
AcDb2dVertex
 10
58.34621149034967
 20
202.4128696465437
 30
0.0
  0
VERTEX
  5
1B2
330
1B0
100
AcDbEntity
  8
Capa 1
 62
     7
420
 16777215
370
     9
100
AcDbVertex
100
AcDb2dVertex
 10
69.39521003418776
 20
202.4128696465437
 30
0.0
  0
SEQEND
  5
1B3
330
1B0
100
AcDbEntity
  8
Capa 1
 62
     7
420
 16777215
370
     9
  0
POLYLINE
  5
1B4
330
1F
100
AcDbEntity
  8
Capa 1
 62
     7
420
 16777215
370
     9
100
AcDb2dPolyline
 66
     1
 10
0.0
 20
0.0
 30
0.0
  0
VERTEX
  5
1B5
330
1B4
100
AcDbEntity
  8
Capa 1
 62
     7
420
 16777215
370
     9
100
AcDbVertex
100
AcDb2dVertex
 10
57.99696157118141
 20
202.1271151249273
 30
0.0
  0
VERTEX
  5
1B6
330
1B4
100
AcDbEntity
  8
Capa 1
 62
     7
420
 16777215
370
     9
100
AcDbVertex
100
AcDb2dVertex
 10
58.15571116741959
 20
202.1588799818937
 30
0.0
  0
VERTEX
  5
1B7
330
1B4
100
AcDbEntity
  8
Capa 1
 62
     7
420
 16777215
370
     9
100
AcDbVertex
100
AcDb2dVertex
 10
58.28271003696589
 20
202.2541261061374
 30
0.0
  0
VERTEX
  5
1B8
330
1B4
100
AcDbEntity
  8
Capa 1
 62
     7
420
 16777215
370
     9
100
AcDbVertex
100
AcDb2dVertex
 10
58.34621149034967
 20
202.4128696465437
 30
0.0
  0
SEQEND
  5
1B9
330
1B4
100
AcDbEntity
  8
Capa 1
 62
     7
420
 16777215
370
     9
  0
POLYLINE
  5
1BA
330
1F
100
AcDbEntity
  8
Capa 1
 62
     7
420
 16777215
370
     9
100
AcDb2dPolyline
 66
     1
 10
0.0
 20
0.0
 30
0.0
  0
VERTEX
  5
1BB
330
1BA
100
AcDbEntity
  8
Capa 1
 62
     7
420
 16777215
370
     9
100
AcDbVertex
100
AcDb2dVertex
 10
68.56971132630494
 20
176.155622236931
 30
0.0
  0
VERTEX
  5
1BC
330
1BA
100
AcDbEntity
  8
Capa 1
 62
     7
420
 16777215
370
     9
100
AcDbVertex
100
AcDb2dVertex
 10
68.76021164923502
 20
176.2508683611734
 30
0.0
  0
VERTEX
  5
1BD
330
1BA
100
AcDbEntity
  8
Capa 1
 62
     7
420
 16777215
370
     9
100
AcDbVertex
100
AcDb2dVertex
 10
68.85545777347879
 20
176.4413767585461
 30
0.0
  0
SEQEND
  5
1BE
330
1BA
100
AcDbEntity
  8
Capa 1
 62
     7
420
 16777215
370
     9
  0
POLYLINE
  5
1BF
330
1F
100
AcDbEntity
  8
Capa 1
 62
     7
420
 16777215
370
     9
100
AcDb2dPolyline
 66
     1
 10
0.0
 20
0.0
 30
0.0
  0
VERTEX
  5
1C0
330
1BF
100
AcDbEntity
  8
Capa 1
 62
     7
420
 16777215
370
     9
100
AcDbVertex
100
AcDb2dVertex
 10
58.28271003696589
 20
176.155622236931
 30
0.0
  0
VERTEX
  5
1C1
330
1BF
100
AcDbEntity
  8
Capa 1
 62
     7
420
 16777215
370
     9
100
AcDbVertex
100
AcDb2dVertex
 10
68.34745825807362
 20
176.155622236931
 30
0.0
  0
SEQEND
  5
1C2
330
1BF
100
AcDbEntity
  8
Capa 1
 62
     7
420
 16777215
370
     9
  0
POLYLINE
  5
1C3
330
1F
100
AcDbEntity
  8
Capa 1
 62
     7
420
 16777215
370
     9
100
AcDb2dPolyline
 66
     1
 10
0.0
 20
0.0
 30
0.0
  0
VERTEX
  5
1C4
330
1C3
100
AcDbEntity
  8
Capa 1
 62
     7
420
 16777215
370
     9
100
AcDbVertex
100
AcDb2dVertex
 10
57.96521084448951
 20
176.4731254666273
 30
0.0
  0
VERTEX
  5
1C5
330
1C3
100
AcDbEntity
  8
Capa 1
 62
     7
420
 16777215
370
     9
100
AcDbVertex
100
AcDb2dVertex
 10
58.02871027926266
 20
176.314365777336
 30
0.0
  0
VERTEX
  5
1C6
330
1C3
100
AcDbEntity
  8
Capa 1
 62
     7
420
 16777215
370
     9
100
AcDbVertex
100
AcDb2dVertex
 10
58.1239604407277
 20
176.2191196530922
 30
0.0
  0
VERTEX
  5
1C7
330
1C3
100
AcDbEntity
  8
Capa 1
 62
     7
420
 16777215
370
     9
100
AcDbVertex
100
AcDb2dVertex
 10
58.28271003696589
 20
176.155622236931
 30
0.0
  0
SEQEND
  5
1C8
330
1C3
100
AcDbEntity
  8
Capa 1
 62
     7
420
 16777215
370
     9
  0
POLYLINE
  5
1C9
330
1F
100
AcDbEntity
  8
Capa 1
 62
     7
420
 16777215
370
     9
100
AcDb2dPolyline
 66
     1
 10
0.0
 20
0.0
 30
0.0
  0
VERTEX
  5
1CA
330
1C9
100
AcDbEntity
  8
Capa 1
 62
     7
420
 16777215
370
     9
100
AcDbVertex
100
AcDb2dVertex
 10
58.28271003696589
 20
202.444618354625
 30
0.0
  0
VERTEX
  5
1CB
330
1C9
100
AcDbEntity
  8
Capa 1
 62
     7
420
 16777215
370
     9
100
AcDbVertex
100
AcDb2dVertex
 10
69.45871148757155
 20
202.444618354625
 30
0.0
  0
VERTEX
  5
1CC
330
1C9
100
AcDbEntity
  8
Capa 1
 62
     7
420
 16777215
370
     9
100
AcDbVertex
100
AcDb2dVertex
 10
69.6174590651991
 20
202.5081157707875
 30
0.0
  0
VERTEX
  5
1CD
330
1C9
100
AcDbEntity
  8
Capa 1
 62
     7
420
 16777215
370
     9
100
AcDbVertex
100
AcDb2dVertex
 10
69.71270922666413
 20
202.6033780439164
 30
0.0
  0
VERTEX
  5
1CE
330
1C9
100
AcDbEntity
  8
Capa 1
 62
     7
420
 16777215
370
     9
100
AcDbVertex
100
AcDb2dVertex
 10
69.74445793474538
 20
202.7621215843226
 30
0.0
  0
SEQEND
  5
1CF
330
1C9
100
AcDbEntity
  8
Capa 1
 62
     7
420
 16777215
370
     9
  0
POLYLINE
  5
1D0
330
1F
100
AcDbEntity
  8
Capa 1
 62
     7
420
 16777215
370
     9
100
AcDb2dPolyline
 66
     1
 10
0.0
 20
0.0
 30
0.0
  0
VERTEX
  5
1D1
330
1D0
100
AcDbEntity
  8
Capa 1
 62
     7
420
 16777215
370
     9
100
AcDbVertex
100
AcDb2dVertex
 10
57.96521084448951
 20
202.7621215843226
 30
0.0
  0
VERTEX
  5
1D2
330
1D0
100
AcDbEntity
  8
Capa 1
 62
     7
420
 16777215
370
     9
100
AcDbVertex
100
AcDb2dVertex
 10
58.02871027926266
 20
202.6033780439164
 30
0.0
  0
VERTEX
  5
1D3
330
1D0
100
AcDbEntity
  8
Capa 1
 62
     7
420
 16777215
370
     9
100
AcDbVertex
100
AcDb2dVertex
 10
58.1239604407277
 20
202.5081157707875
 30
0.0
  0
VERTEX
  5
1D4
330
1D0
100
AcDbEntity
  8
Capa 1
 62
     7
420
 16777215
370
     9
100
AcDbVertex
100
AcDb2dVertex
 10
58.28271003696589
 20
202.444618354625
 30
0.0
  0
SEQEND
  5
1D5
330
1D0
100
AcDbEntity
  8
Capa 1
 62
     7
420
 16777215
370
     9
  0
POLYLINE
  5
1D6
330
1F
100
AcDbEntity
  8
Capa 1
 62
     7
420
 16777215
370
     9
100
AcDb2dPolyline
 66
     1
 10
0.0
 20
0.0
 30
0.0
  0
VERTEX
  5
1D7
330
1D6
100
AcDbEntity
  8
Capa 1
 62
     7
420
 16777215
370
     9
100
AcDbVertex
100
AcDb2dVertex
 10
69.71270922666413
 20
204.6353761055422
 30
0.0
  0
VERTEX
  5
1D8
330
1D6
100
AcDbEntity
  8
Capa 1
 62
     7
420
 16777215
370
     9
100
AcDbVertex
100
AcDb2dVertex
 10
69.74445793474538
 20
202.7621215843226
 30
0.0
  0
SEQEND
  5
1D9
330
1D6
100
AcDbEntity
  8
Capa 1
 62
     7
420
 16777215
370
     9
  0
POLYLINE
  5
1DA
330
1F
100
AcDbEntity
  8
Capa 1
 62
     7
420
 16777215
370
     9
100
AcDb2dPolyline
 66
     1
 10
0.0
 20
0.0
 30
0.0
  0
VERTEX
  5
1DB
330
1DA
100
AcDbEntity
  8
Capa 1
 62
     7
420
 16777215
370
     9
100
AcDbVertex
100
AcDb2dVertex
 10
57.96521084448951
 20
202.7621215843226
 30
0.0
  0
VERTEX
  5
1DC
330
1DA
100
AcDbEntity
  8
Capa 1
 62
     7
420
 16777215
370
     9
100
AcDbVertex
100
AcDb2dVertex
 10
57.96521084448951
 20
204.7941196459484
 30
0.0
  0
SEQEND
  5
1DD
330
1DA
100
AcDbEntity
  8
Capa 1
 62
     7
420
 16777215
370
     9
  0
POLYLINE
  5
1DE
330
1F
100
AcDbEntity
  8
Capa 1
 62
     7
420
 16777215
370
     9
100
AcDb2dPolyline
 66
     1
 10
0.0
 20
0.0
 30
0.0
  0
VERTEX
  5
1DF
330
1DE
100
AcDbEntity
  8
Capa 1
 62
     7
420
 16777215
370
     9
100
AcDbVertex
100
AcDb2dVertex
 10
58.28271003696589
 20
205.0798741675648
 30
0.0
  0
VERTEX
  5
1E0
330
1DE
100
AcDbEntity
  8
Capa 1
 62
     7
420
 16777215
370
     9
100
AcDbVertex
100
AcDb2dVertex
 10
58.1239604407277
 20
205.0481254594835
 30
0.0
  0
VERTEX
  5
1E1
330
1DE
100
AcDbEntity
  8
Capa 1
 62
     7
420
 16777215
370
     9
100
AcDbVertex
100
AcDb2dVertex
 10
58.02871027926266
 20
204.9211144782734
 30
0.0
  0
VERTEX
  5
1E2
330
1DE
100
AcDbEntity
  8
Capa 1
 62
     7
420
 16777215
370
     9
100
AcDbVertex
100
AcDb2dVertex
 10
57.96521084448951
 20
204.7941196459484
 30
0.0
  0
SEQEND
  5
1E3
330
1DE
100
AcDbEntity
  8
Capa 1
 62
     7
420
 16777215
370
     9
  0
POLYLINE
  5
1E4
330
1F
100
AcDbEntity
  8
Capa 1
 62
     7
420
 16777215
370
     9
100
AcDb2dPolyline
 66
     1
 10
0.0
 20
0.0
 30
0.0
  0
VERTEX
  5
1E5
330
1E4
100
AcDbEntity
  8
Capa 1
 62
     7
420
 16777215
370
     9
100
AcDbVertex
100
AcDb2dVertex
 10
58.28271003696589
 20
205.0798741675648
 30
0.0
  0
VERTEX
  5
1E6
330
1E4
100
AcDbEntity
  8
Capa 1
 62
     7
420
 16777215
370
     9
100
AcDbVertex
100
AcDb2dVertex
 10
69.26821116464147
 20
205.0798741675648
 30
0.0
  0
SEQEND
  5
1E7
330
1E4
100
AcDbEntity
  8
Capa 1
 62
     7
420
 16777215
370
     9
  0
POLYLINE
  5
1E8
330
1F
100
AcDbEntity
  8
Capa 1
 62
     7
420
 16777215
370
     9
100
AcDb2dPolyline
 66
     1
 10
0.0
 20
0.0
 30
0.0
  0
VERTEX
  5
1E9
330
1E8
100
AcDbEntity
  8
Capa 1
 62
     7
420
 16777215
370
     9
100
AcDbVertex
100
AcDb2dVertex
 10
69.71270922666413
 20
204.6353761055422
 30
0.0
  0
VERTEX
  5
1EA
330
1E8
100
AcDbEntity
  8
Capa 1
 62
     7
420
 16777215
370
     9
100
AcDbVertex
100
AcDb2dVertex
 10
69.64920777328035
 20
204.8576170621109
 30
0.0
  0
VERTEX
  5
1EB
330
1E8
100
AcDbEntity
  8
Capa 1
 62
     7
420
 16777215
370
     9
100
AcDbVertex
100
AcDb2dVertex
 10
69.4904601956528
 20
205.0163767514023
 30
0.0
  0
VERTEX
  5
1EC
330
1E8
100
AcDbEntity
  8
Capa 1
 62
     7
420
 16777215
370
     9
100
AcDbVertex
100
AcDb2dVertex
 10
69.26821116464147
 20
205.0798741675648
 30
0.0
  0
SEQEND
  5
1ED
330
1E8
100
AcDbEntity
  8
Capa 1
 62
     7
420
 16777215
370
     9
  0
POLYLINE
  5
1EE
330
1F
100
AcDbEntity
  8
Capa 1
 62
     7
420
 16777215
370
     9
100
AcDb2dPolyline
 66
     1
 10
0.0
 20
0.0
 30
0.0
  0
VERTEX
  5
1EF
330
1EE
100
AcDbEntity
  8
Capa 1
 62
     7
420
 16777215
370
     9
100
AcDbVertex
100
AcDb2dVertex
 10
69.45871148757155
 20
175.2666261128843
 30
0.0
  0
VERTEX
  5
1F0
330
1EE
100
AcDbEntity
  8
Capa 1
 62
     7
420
 16777215
370
     9
100
AcDbVertex
100
AcDb2dVertex
 10
69.33170858080398
 20
175.4888670694531
 30
0.0
  0
VERTEX
  5
1F1
330
1EE
100
AcDbEntity
  8
Capa 1
 62
     7
420
 16777215
370
     9
100
AcDbVertex
100
AcDb2dVertex
 10
69.29995987272272
 20
175.711124174907
 30
0.0
  0
VERTEX
  5
1F2
330
1EE
100
AcDbEntity
  8
Capa 1
 62
     7
420
 16777215
370
     9
100
AcDbVertex
100
AcDb2dVertex
 10
69.33170858080398
 20
175.9333651314758
 30
0.0
  0
VERTEX
  5
1F3
330
1EE
100
AcDbEntity
  8
Capa 1
 62
     7
420
 16777215
370
     9
100
AcDbVertex
100
AcDb2dVertex
 10
69.4904601956528
 20
176.0921248207671
 30
0.0
  0
VERTEX
  5
1F4
330
1EE
100
AcDbEntity
  8
Capa 1
 62
     7
420
 16777215
370
     9
100
AcDbVertex
100
AcDb2dVertex
 10
69.71270922666413
 20
176.155622236931
 30
0.0
  0
SEQEND
  5
1F5
330
1EE
100
AcDbEntity
  8
Capa 1
 62
     7
420
 16777215
370
     9
  0
POLYLINE
  5
1F6
330
1F
100
AcDbEntity
  8
Capa 1
 62
     7
420
 16777215
370
     9
100
AcDb2dPolyline
 66
     1
 10
0.0
 20
0.0
 30
0.0
  0
VERTEX
  5
1F7
330
1F6
100
AcDbEntity
  8
Capa 1
 62
     7
420
 16777215
370
     9
100
AcDbVertex
100
AcDb2dVertex
 10
69.45871148757155
 20
175.2666261128843
 30
0.0
  0
VERTEX
  5
1F8
330
1F6
100
AcDbEntity
  8
Capa 1
 62
     7
420
 16777215
370
     9
100
AcDbVertex
100
AcDb2dVertex
 10
69.4904601956528
 20
175.2031286967218
 30
0.0
  0
VERTEX
  5
1F9
330
1F6
100
AcDbEntity
  8
Capa 1
 62
     7
420
 16777215
370
     9
100
AcDbVertex
100
AcDb2dVertex
 10
71.77646003359244
 20
171.6788767597367
 30
0.0
  0
SEQEND
  5
1FA
330
1F6
100
AcDbEntity
  8
Capa 1
 62
     7
420
 16777215
370
     9
  0
POLYLINE
  5
1FB
330
1F
100
AcDbEntity
  8
Capa 1
 62
     7
420
 16777215
370
     9
100
AcDb2dPolyline
 66
     1
 10
0.0
 20
0.0
 30
0.0
  0
VERTEX
  5
1FC
330
1FB
100
AcDbEntity
  8
Capa 1
 62
     7
420
 16777215
370
     9
100
AcDbVertex
100
AcDb2dVertex
 10
75.07845890234499
 20
166.7258764379972
 30
0.0
  0
VERTEX
  5
1FD
330
1FB
100
AcDbEntity
  8
Capa 1
 62
     7
420
 16777215
370
     9
100
AcDbVertex
100
AcDb2dVertex
 10
75.49120825628769
 20
166.154375469207
 30
0.0
  0
VERTEX
  5
1FE
330
1FB
100
AcDbEntity
  8
Capa 1
 62
     7
420
 16777215
370
     9
100
AcDbVertex
100
AcDb2dVertex
 10
75.99920777169285
 20
165.6463799910218
 30
0.0
  0
SEQEND
  5
1FF
330
1FB
100
AcDbEntity
  8
Capa 1
 62
     7
420
 16777215
370
     9
  0
POLYLINE
  5
200
330
1F
100
AcDbEntity
  8
Capa 1
 62
     7
420
 16777215
370
     9
100
AcDb2dPolyline
 66
     1
 10
0.0
 20
0.0
 30
0.0
  0
VERTEX
  5
201
330
200
100
AcDbEntity
  8
Capa 1
 62
     7
420
 16777215
370
     9
100
AcDbVertex
100
AcDb2dVertex
 10
71.77646003359244
 20
171.6788767597367
 30
0.0
  0
VERTEX
  5
202
330
200
100
AcDbEntity
  8
Capa 1
 62
     7
420
 16777215
370
     9
100
AcDbVertex
100
AcDb2dVertex
 10
75.07845890234499
 20
166.7258764379972
 30
0.0
  0
SEQEND
  5
203
330
200
100
AcDbEntity
  8
Capa 1
 62
     7
420
 16777215
370
     9
  0
POLYLINE
  5
204
330
1F
100
AcDbEntity
  8
Capa 1
 62
     7
420
 16777215
370
     9
100
AcDb2dPolyline
 66
     1
 10
0.0
 20
0.0
 30
0.0
  0
VERTEX
  5
205
330
204
100
AcDbEntity
  8
Capa 1
 62
     7
420
 16777215
370
     9
100
AcDbVertex
100
AcDb2dVertex
 10
96.76371067330103
 20
164.3128777305113
 30
0.0
  0
VERTEX
  5
206
330
204
100
AcDbEntity
  8
Capa 1
 62
     7
420
 16777215
370
     9
100
AcDbVertex
100
AcDb2dVertex
 10
96.70020518269598
 20
164.3128777305113
 30
0.0
  0
VERTEX
  5
207
330
204
100
AcDbEntity
  8
Capa 1
 62
     7
420
 16777215
370
     9
100
AcDbVertex
100
AcDb2dVertex
 10
96.57321035037096
 20
164.3446264385925
 30
0.0
  0
VERTEX
  5
208
330
204
100
AcDbEntity
  8
Capa 1
 62
     7
420
 16777215
370
     9
100
AcDbVertex
100
AcDb2dVertex
 10
96.3509532449171
 20
164.3446264385925
 30
0.0
  0
VERTEX
  5
209
330
204
100
AcDbEntity
  8
Capa 1
 62
     7
420
 16777215
370
     9
100
AcDbVertex
100
AcDb2dVertex
 10
96.06520679774324
 20
164.3763751466738
 30
0.0
  0
VERTEX
  5
20A
330
204
100
AcDbEntity
  8
Capa 1
 62
     7
420
 16777215
370
     9
100
AcDbVertex
100
AcDb2dVertex
 10
95.68420615188309
 20
164.408123854755
 30
0.0
  0
VERTEX
  5
20B
330
204
100
AcDbEntity
  8
Capa 1
 62
     7
420
 16777215
370
     9
100
AcDbVertex
100
AcDb2dVertex
 10
95.23970808986043
 20
164.4398806372788
 30
0.0
  0
VERTEX
  5
20C
330
204
100
AcDbEntity
  8
Capa 1
 62
     7
420
 16777215
370
     9
100
AcDbVertex
100
AcDb2dVertex
 10
94.7317045372327
 20
164.5033780534414
 30
0.0
  0
VERTEX
  5
20D
330
204
100
AcDbEntity
  8
Capa 1
 62
     7
420
 16777215
370
     9
100
AcDbVertex
100
AcDb2dVertex
 10
94.12845486036122
 20
164.5351267615226
 30
0.0
  0
VERTEX
  5
20E
330
204
100
AcDbEntity
  8
Capa 1
 62
     7
420
 16777215
370
     9
100
AcDbVertex
100
AcDb2dVertex
 10
93.49345647540848
 20
164.5668754696039
 30
0.0
  0
VERTEX
  5
20F
330
204
100
AcDbEntity
  8
Capa 1
 62
     7
420
 16777215
370
     9
100
AcDbVertex
100
AcDb2dVertex
 10
92.82670938237449
 20
164.6303809602089
 30
0.0
  0
VERTEX
  5
210
330
204
100
AcDbEntity
  8
Capa 1
 62
     7
420
 16777215
370
     9
100
AcDbVertex
100
AcDb2dVertex
 10
92.0964608359567
 20
164.6621296682902
 30
0.0
  0
VERTEX
  5
211
330
204
100
AcDbEntity
  8
Capa 1
 62
     7
420
 16777215
370
     9
100
AcDbVertex
100
AcDb2dVertex
 10
91.36620825231765
 20
164.7256270844527
 30
0.0
  0
VERTEX
  5
212
330
204
100
AcDbEntity
  8
Capa 1
 62
     7
420
 16777215
370
     9
100
AcDbVertex
100
AcDb2dVertex
 10
90.60421099781861
 20
164.7891245006152
 30
0.0
  0
VERTEX
  5
213
330
204
100
AcDbEntity
  8
Capa 1
 62
     7
420
 16777215
370
     9
100
AcDbVertex
100
AcDb2dVertex
 10
90.25495906003972
 20
164.7891245006152
 30
0.0
  0
VERTEX
  5
214
330
204
100
AcDbEntity
  8
Capa 1
 62
     7
420
 16777215
370
     9
100
AcDbVertex
100
AcDb2dVertex
 10
89.87395841417957
 20
164.8208732086965
 30
0.0
  0
SEQEND
  5
215
330
204
100
AcDbEntity
  8
Capa 1
 62
     7
420
 16777215
370
     9
  0
POLYLINE
  5
216
330
1F
100
AcDbEntity
  8
Capa 1
 62
     7
420
 16777215
370
     9
100
AcDb2dPolyline
 66
     1
 10
0.0
 20
0.0
 30
0.0
  0
VERTEX
  5
217
330
216
100
AcDbEntity
  8
Capa 1
 62
     7
420
 16777215
370
     9
100
AcDbVertex
100
AcDb2dVertex
 10
75.99920777169285
 20
165.6463799910218
 30
0.0
  0
VERTEX
  5
218
330
216
100
AcDbEntity
  8
Capa 1
 62
     7
420
 16777215
370
     9
100
AcDbVertex
100
AcDb2dVertex
 10
77.87245825569238
 20
163.9001283765699
 30
0.0
  0
SEQEND
  5
219
330
216
100
AcDbEntity
  8
Capa 1
 62
     7
420
 16777215
370
     9
  0
POLYLINE
  5
21A
330
1F
100
AcDbEntity
  8
Capa 1
 62
     7
420
 16777215
370
     9
100
AcDb2dPolyline
 66
     1
 10
0.0
 20
0.0
 30
0.0
  0
VERTEX
  5
21B
330
21A
100
AcDbEntity
  8
Capa 1
 62
     7
420
 16777215
370
     9
100
AcDbVertex
100
AcDb2dVertex
 10
89.84220970609832
 20
164.8208732086965
 30
0.0
  0
VERTEX
  5
21C
330
21A
100
AcDbEntity
  8
Capa 1
 62
     7
420
 16777215
370
     9
100
AcDbVertex
100
AcDb2dVertex
 10
79.07895760943406
 20
164.7891245006152
 30
0.0
  0
SEQEND
  5
21D
330
21A
100
AcDbEntity
  8
Capa 1
 62
     7
420
 16777215
370
     9
  0
POLYLINE
  5
21E
330
1F
100
AcDbEntity
  8
Capa 1
 62
     7
420
 16777215
370
     9
100
AcDb2dPolyline
 66
     1
 10
0.0
 20
0.0
 30
0.0
  0
VERTEX
  5
21F
330
21E
100
AcDbEntity
  8
Capa 1
 62
     7
420
 16777215
370
     9
100
AcDbVertex
100
AcDb2dVertex
 10
69.33170858080398
 20
74.0370533016337
 30
0.0
  0
VERTEX
  5
220
330
21E
100
AcDbEntity
  8
Capa 1
 62
     7
420
 16777215
370
     9
100
AcDbVertex
100
AcDb2dVertex
 10
69.52220890373405
 20
73.75130281723858
 30
0.0
  0
VERTEX
  5
221
330
21E
100
AcDbEntity
  8
Capa 1
 62
     7
420
 16777215
370
     9
100
AcDbVertex
100
AcDb2dVertex
 10
69.80795938812916
 20
73.5608024943085
 30
0.0
  0
VERTEX
  5
222
330
21E
100
AcDbEntity
  8
Capa 1
 62
     7
420
 16777215
370
     9
100
AcDbVertex
100
AcDb2dVertex
 10
70.12545858060554
 20
73.43379958754095
 30
0.0
  0
VERTEX
  5
223
330
21E
100
AcDbEntity
  8
Capa 1
 62
     7
420
 16777215
370
     9
100
AcDbVertex
100
AcDb2dVertex
 10
70.44295777308191
 20
73.37030217137843
 30
0.0
  0
SEQEND
  5
224
330
21E
100
AcDbEntity
  8
Capa 1
 62
     7
420
 16777215
370
     9
  0
POLYLINE
  5
225
330
1F
100
AcDbEntity
  8
Capa 1
 62
     7
420
 16777215
370
     9
100
AcDb2dPolyline
 66
     1
 10
0.0
 20
0.0
 30
0.0
  0
VERTEX
  5
226
330
225
100
AcDbEntity
  8
Capa 1
 62
     7
420
 16777215
370
     9
100
AcDbVertex
100
AcDb2dVertex
 10
70.44295777308191
 20
100.3895427982703
 30
0.0
  0
VERTEX
  5
227
330
225
100
AcDbEntity
  8
Capa 1
 62
     7
420
 16777215
370
     9
100
AcDbVertex
100
AcDb2dVertex
 10
70.12545858060554
 20
100.3260453821078
 30
0.0
  0
VERTEX
  5
228
330
225
100
AcDbEntity
  8
Capa 1
 62
     7
420
 16777215
370
     9
100
AcDbVertex
100
AcDb2dVertex
 10
69.80795938812916
 20
100.1990424753402
 30
0.0
  0
VERTEX
  5
229
330
225
100
AcDbEntity
  8
Capa 1
 62
     7
420
 16777215
370
     9
100
AcDbVertex
100
AcDb2dVertex
 10
69.52220890373405
 20
100.0085421524101
 30
0.0
  0
VERTEX
  5
22A
330
225
100
AcDbEntity
  8
Capa 1
 62
     7
420
 16777215
370
     9
100
AcDbVertex
100
AcDb2dVertex
 10
69.33170858080398
 20
99.72279570523627
 30
0.0
  0
SEQEND
  5
22B
330
225
100
AcDbEntity
  8
Capa 1
 62
     7
420
 16777215
370
     9
  0
POLYLINE
  5
22C
330
1F
100
AcDbEntity
  8
Capa 1
 62
     7
420
 16777215
370
     9
100
AcDb2dPolyline
 66
     1
 10
0.0
 20
0.0
 30
0.0
  0
VERTEX
  5
22D
330
22C
100
AcDbEntity
  8
Capa 1
 62
     7
420
 16777215
370
     9
100
AcDbVertex
100
AcDb2dVertex
 10
75.26895922527507
 20
80.86330007015012
 30
0.0
  0
VERTEX
  5
22E
330
22C
100
AcDbEntity
  8
Capa 1
 62
     7
420
 16777215
370
     9
100
AcDbVertex
100
AcDb2dVertex
 10
75.20545777189129
 20
81.08555313838272
 30
0.0
  0
VERTEX
  5
22F
330
22C
100
AcDbEntity
  8
Capa 1
 62
     7
420
 16777215
370
     9
100
AcDbVertex
100
AcDb2dVertex
 10
75.07845890234499
 20
81.27604942409152
 30
0.0
  0
VERTEX
  5
230
330
22C
100
AcDbEntity
  8
Capa 1
 62
     7
420
 16777215
370
     9
100
AcDbVertex
100
AcDb2dVertex
 10
74.91971132471744
 20
81.4030523308591
 30
0.0
  0
VERTEX
  5
231
330
22C
100
AcDbEntity
  8
Capa 1
 62
     7
420
 16777215
370
     9
100
AcDbVertex
100
AcDb2dVertex
 10
74.69745825648613
 20
81.43480103894035
 30
0.0
  0
VERTEX
  5
232
330
22C
100
AcDbEntity
  8
Capa 1
 62
     7
420
 16777215
370
     9
100
AcDbVertex
100
AcDb2dVertex
 10
74.4752092254735
 20
81.4030523308591
 30
0.0
  0
VERTEX
  5
233
330
22C
100
AcDbEntity
  8
Capa 1
 62
     7
420
 16777215
370
     9
100
AcDbVertex
100
AcDb2dVertex
 10
74.28470890254343
 20
81.27604942409152
 30
0.0
  0
VERTEX
  5
234
330
22C
100
AcDbEntity
  8
Capa 1
 62
     7
420
 16777215
370
     9
100
AcDbVertex
100
AcDb2dVertex
 10
74.1894587410784
 20
81.08555313838272
 30
0.0
  0
VERTEX
  5
235
330
22C
100
AcDbEntity
  8
Capa 1
 62
     7
420
 16777215
370
     9
100
AcDbVertex
100
AcDb2dVertex
 10
74.12596132491588
 20
80.86330007015012
 30
0.0
  0
VERTEX
  5
236
330
22C
100
AcDbEntity
  8
Capa 1
 62
     7
420
 16777215
370
     9
100
AcDbVertex
100
AcDb2dVertex
 10
74.1894587410784
 20
80.67279974722004
 30
0.0
  0
VERTEX
  5
237
330
22C
100
AcDbEntity
  8
Capa 1
 62
     7
420
 16777215
370
     9
100
AcDbVertex
100
AcDb2dVertex
 10
74.28470890254343
 20
80.48229942428996
 30
0.0
  0
VERTEX
  5
238
330
22C
100
AcDbEntity
  8
Capa 1
 62
     7
420
 16777215
370
     9
100
AcDbVertex
100
AcDb2dVertex
 10
74.4752092254735
 20
80.35530055474366
 30
0.0
  0
VERTEX
  5
239
330
22C
100
AcDbEntity
  8
Capa 1
 62
     7
420
 16777215
370
     9
100
AcDbVertex
100
AcDb2dVertex
 10
74.69745825648613
 20
80.32355184666241
 30
0.0
  0
VERTEX
  5
23A
330
22C
100
AcDbEntity
  8
Capa 1
 62
     7
420
 16777215
370
     9
100
AcDbVertex
100
AcDb2dVertex
 10
74.91971132471744
 20
80.35530055474366
 30
0.0
  0
VERTEX
  5
23B
330
22C
100
AcDbEntity
  8
Capa 1
 62
     7
420
 16777215
370
     9
100
AcDbVertex
100
AcDb2dVertex
 10
75.07845890234499
 20
80.48229942428996
 30
0.0
  0
VERTEX
  5
23C
330
22C
100
AcDbEntity
  8
Capa 1
 62
     7
420
 16777215
370
     9
100
AcDbVertex
100
AcDb2dVertex
 10
75.20545777189129
 20
80.67279974722004
 30
0.0
  0
VERTEX
  5
23D
330
22C
100
AcDbEntity
  8
Capa 1
 62
     7
420
 16777215
370
     9
100
AcDbVertex
100
AcDb2dVertex
 10
75.26895922527507
 20
80.86330007015012
 30
0.0
  0
SEQEND
  5
23E
330
22C
100
AcDbEntity
  8
Capa 1
 62
     7
420
 16777215
370
     9
  0
POLYLINE
  5
23F
330
1F
100
AcDbEntity
  8
Capa 1
 62
     7
420
 16777215
370
     9
100
AcDb2dPolyline
 66
     1
 10
0.0
 20
0.0
 30
0.0
  0
VERTEX
  5
240
330
23F
100
AcDbEntity
  8
Capa 1
 62
     7
420
 16777215
370
     9
100
AcDbVertex
100
AcDb2dVertex
 10
75.26895922527507
 20
92.8648002286386
 30
0.0
  0
VERTEX
  5
241
330
23F
100
AcDbEntity
  8
Capa 1
 62
     7
420
 16777215
370
     9
100
AcDbVertex
100
AcDb2dVertex
 10
75.20545777189129
 20
93.08704925964993
 30
0.0
  0
VERTEX
  5
242
330
23F
100
AcDbEntity
  8
Capa 1
 62
     7
420
 16777215
370
     9
100
AcDbVertex
100
AcDb2dVertex
 10
75.07845890234499
 20
93.27754958258001
 30
0.0
  0
VERTEX
  5
243
330
23F
100
AcDbEntity
  8
Capa 1
 62
     7
420
 16777215
370
     9
100
AcDbVertex
100
AcDb2dVertex
 10
74.91971132471744
 20
93.40455248934757
 30
0.0
  0
VERTEX
  5
244
330
23F
100
AcDbEntity
  8
Capa 1
 62
     7
420
 16777215
370
     9
100
AcDbVertex
100
AcDb2dVertex
 10
74.69745825648613
 20
93.43630119742882
 30
0.0
  0
VERTEX
  5
245
330
23F
100
AcDbEntity
  8
Capa 1
 62
     7
420
 16777215
370
     9
100
AcDbVertex
100
AcDb2dVertex
 10
74.4752092254735
 20
93.40455248934757
 30
0.0
  0
VERTEX
  5
246
330
23F
100
AcDbEntity
  8
Capa 1
 62
     7
420
 16777215
370
     9
100
AcDbVertex
100
AcDb2dVertex
 10
74.28470890254343
 20
93.27754958258001
 30
0.0
  0
VERTEX
  5
247
330
23F
100
AcDbEntity
  8
Capa 1
 62
     7
420
 16777215
370
     9
100
AcDbVertex
100
AcDb2dVertex
 10
74.1894587410784
 20
93.08704925964993
 30
0.0
  0
VERTEX
  5
248
330
23F
100
AcDbEntity
  8
Capa 1
 62
     7
420
 16777215
370
     9
100
AcDbVertex
100
AcDb2dVertex
 10
74.12596132491588
 20
92.8648002286386
 30
0.0
  0
VERTEX
  5
249
330
23F
100
AcDbEntity
  8
Capa 1
 62
     7
420
 16777215
370
     9
100
AcDbVertex
100
AcDb2dVertex
 10
74.1894587410784
 20
92.67429990570852
 30
0.0
  0
VERTEX
  5
24A
330
23F
100
AcDbEntity
  8
Capa 1
 62
     7
420
 16777215
370
     9
100
AcDbVertex
100
AcDb2dVertex
 10
74.28470890254343
 20
92.48379958277845
 30
0.0
  0
VERTEX
  5
24B
330
23F
100
AcDbEntity
  8
Capa 1
 62
     7
420
 16777215
370
     9
100
AcDbVertex
100
AcDb2dVertex
 10
74.4752092254735
 20
92.35680071323215
 30
0.0
  0
VERTEX
  5
24C
330
23F
100
AcDbEntity
  8
Capa 1
 62
     7
420
 16777215
370
     9
100
AcDbVertex
100
AcDb2dVertex
 10
74.69745825648613
 20
92.3250520051509
 30
0.0
  0
VERTEX
  5
24D
330
23F
100
AcDbEntity
  8
Capa 1
 62
     7
420
 16777215
370
     9
100
AcDbVertex
100
AcDb2dVertex
 10
74.91971132471744
 20
92.35680071323215
 30
0.0
  0
VERTEX
  5
24E
330
23F
100
AcDbEntity
  8
Capa 1
 62
     7
420
 16777215
370
     9
100
AcDbVertex
100
AcDb2dVertex
 10
75.07845890234499
 20
92.48379958277845
 30
0.0
  0
VERTEX
  5
24F
330
23F
100
AcDbEntity
  8
Capa 1
 62
     7
420
 16777215
370
     9
100
AcDbVertex
100
AcDb2dVertex
 10
75.20545777189129
 20
92.67429990570852
 30
0.0
  0
VERTEX
  5
250
330
23F
100
AcDbEntity
  8
Capa 1
 62
     7
420
 16777215
370
     9
100
AcDbVertex
100
AcDb2dVertex
 10
75.26895922527507
 20
92.8648002286386
 30
0.0
  0
SEQEND
  5
251
330
23F
100
AcDbEntity
  8
Capa 1
 62
     7
420
 16777215
370
     9
  0
POLYLINE
  5
252
330
1F
100
AcDbEntity
  8
Capa 1
 62
     7
420
 16777215
370
     9
100
AcDb2dPolyline
 66
     1
 10
0.0
 20
0.0
 30
0.0
  0
VERTEX
  5
253
330
252
100
AcDbEntity
  8
Capa 1
 62
     7
420
 16777215
370
     9
100
AcDbVertex
100
AcDb2dVertex
 10
93.9697032455124
 20
100.3895427982703
 30
0.0
  0
VERTEX
  5
254
330
252
100
AcDbEntity
  8
Capa 1
 62
     7
420
 16777215
370
     9
100
AcDbVertex
100
AcDb2dVertex
 10
70.44295777308191
 20
100.3895427982703
 30
0.0
  0
SEQEND
  5
255
330
252
100
AcDbEntity
  8
Capa 1
 62
     7
420
 16777215
370
     9
  0
POLYLINE
  5
256
330
1F
100
AcDbEntity
  8
Capa 1
 62
     7
420
 16777215
370
     9
100
AcDb2dPolyline
 66
     1
 10
0.0
 20
0.0
 30
0.0
  0
VERTEX
  5
257
330
256
100
AcDbEntity
  8
Capa 1
 62
     7
420
 16777215
370
     9
100
AcDbVertex
100
AcDb2dVertex
 10
93.9697032455124
 20
73.37030217137843
 30
0.0
  0
VERTEX
  5
258
330
256
100
AcDbEntity
  8
Capa 1
 62
     7
420
 16777215
370
     9
100
AcDbVertex
100
AcDb2dVertex
 10
95.30320550602293
 20
73.43379958754095
 30
0.0
  0
VERTEX
  5
259
330
256
100
AcDbEntity
  8
Capa 1
 62
     7
420
 16777215
370
     9
100
AcDbVertex
100
AcDb2dVertex
 10
96.60495905845222
 20
73.62429991047102
 30
0.0
  0
VERTEX
  5
25A
330
256
100
AcDbEntity
  8
Capa 1
 62
     7
420
 16777215
370
     9
100
AcDbVertex
100
AcDb2dVertex
 10
97.8749558283577
 20
73.97355184824991
 30
0.0
  0
VERTEX
  5
25B
330
256
100
AcDbEntity
  8
Capa 1
 62
     7
420
 16777215
370
     9
100
AcDbVertex
100
AcDb2dVertex
 10
99.14496067270572
 20
74.41804991027259
 30
0.0
  0
VERTEX
  5
25C
330
256
100
AcDbEntity
  8
Capa 1
 62
     7
420
 16777215
370
     9
100
AcDbVertex
100
AcDb2dVertex
 10
100.3197032439249
 20
74.95780217098155
 30
0.0
  0
VERTEX
  5
25D
330
256
100
AcDbEntity
  8
Capa 1
 62
     7
420
 16777215
370
     9
100
AcDbVertex
100
AcDb2dVertex
 10
101.4627051815054
 20
75.65630200931808
 30
0.0
  0
VERTEX
  5
25E
330
256
100
AcDbEntity
  8
Capa 1
 62
     7
420
 16777215
370
     9
100
AcDbVertex
100
AcDb2dVertex
 10
102.5422097029233
 20
76.45005200911964
 30
0.0
  0
VERTEX
  5
25F
330
256
100
AcDbEntity
  8
Capa 1
 62
     7
420
 16777215
370
     9
100
AcDbVertex
100
AcDb2dVertex
 10
103.526460025655
 20
77.33905217038624
 30
0.0
  0
VERTEX
  5
260
330
256
100
AcDbEntity
  8
Capa 1
 62
     7
420
 16777215
370
     9
100
AcDbVertex
100
AcDb2dVertex
 10
104.4154561497003
 20
78.32330249311788
 30
0.0
  0
VERTEX
  5
261
330
256
100
AcDbEntity
  8
Capa 1
 62
     7
420
 16777215
370
     9
100
AcDbVertex
100
AcDb2dVertex
 10
105.1774574414206
 20
79.37105023201204
 30
0.0
  0
VERTEX
  5
262
330
256
100
AcDbEntity
  8
Capa 1
 62
     7
420
 16777215
370
     9
100
AcDbVertex
100
AcDb2dVertex
 10
105.8759532425358
 20
80.51405216959249
 30
0.0
  0
VERTEX
  5
263
330
256
100
AcDbEntity
  8
Capa 1
 62
     7
420
 16777215
370
     9
100
AcDbVertex
100
AcDb2dVertex
 10
106.4474542113261
 20
81.72055152333546
 30
0.0
  0
VERTEX
  5
264
330
256
100
AcDbEntity
  8
Capa 1
 62
     7
420
 16777215
370
     9
100
AcDbVertex
100
AcDb2dVertex
 10
106.8919603477913
 20
82.9587995851597
 30
0.0
  0
VERTEX
  5
265
330
256
100
AcDbEntity
  8
Capa 1
 62
     7
420
 16777215
370
     9
100
AcDbVertex
100
AcDb2dVertex
 10
107.2094555030464
 20
84.26055313758897
 30
0.0
  0
VERTEX
  5
266
330
256
100
AcDbEntity
  8
Capa 1
 62
     7
420
 16777215
370
     9
100
AcDbVertex
100
AcDb2dVertex
 10
107.3999558259764
 20
85.56230265279699
 30
0.0
  0
VERTEX
  5
267
330
256
100
AcDbEntity
  8
Capa 1
 62
     7
420
 16777215
370
     9
100
AcDbVertex
100
AcDb2dVertex
 10
107.463453242139
 20
86.86405216800499
 30
0.0
  0
VERTEX
  5
268
330
256
100
AcDbEntity
  8
Capa 1
 62
     7
420
 16777215
370
     9
100
AcDbVertex
100
AcDb2dVertex
 10
107.3999558259764
 20
88.19755039129426
 30
0.0
  0
VERTEX
  5
269
330
256
100
AcDbEntity
  8
Capa 1
 62
     7
420
 16777215
370
     9
100
AcDbVertex
100
AcDb2dVertex
 10
107.2094555030464
 20
89.49929990650227
 30
0.0
  0
VERTEX
  5
26A
330
256
100
AcDbEntity
  8
Capa 1
 62
     7
420
 16777215
370
     9
100
AcDbVertex
100
AcDb2dVertex
 10
106.8919603477913
 20
90.80104942171027
 30
0.0
  0
VERTEX
  5
26B
330
256
100
AcDbEntity
  8
Capa 1
 62
     7
420
 16777215
370
     9
100
AcDbVertex
100
AcDb2dVertex
 10
106.4474542113261
 20
92.03930152075577
 30
0.0
  0
VERTEX
  5
26C
330
256
100
AcDbEntity
  8
Capa 1
 62
     7
420
 16777215
370
     9
100
AcDbVertex
100
AcDb2dVertex
 10
105.8759532425358
 20
93.24580087449876
 30
0.0
  0
VERTEX
  5
26D
330
256
100
AcDbEntity
  8
Capa 1
 62
     7
420
 16777215
370
     9
100
AcDbVertex
100
AcDb2dVertex
 10
105.1774574414206
 20
94.38879877485793
 30
0.0
  0
VERTEX
  5
26E
330
256
100
AcDbEntity
  8
Capa 1
 62
     7
420
 16777215
370
     9
100
AcDbVertex
100
AcDb2dVertex
 10
104.4154561497003
 20
95.43654651375209
 30
0.0
  0
VERTEX
  5
26F
330
256
100
AcDbEntity
  8
Capa 1
 62
     7
420
 16777215
370
     9
100
AcDbVertex
100
AcDb2dVertex
 10
103.526460025655
 20
96.42079683648373
 30
0.0
  0
VERTEX
  5
270
330
256
100
AcDbEntity
  8
Capa 1
 62
     7
420
 16777215
370
     9
100
AcDbVertex
100
AcDb2dVertex
 10
102.5422097029233
 20
97.30979699775033
 30
0.0
  0
VERTEX
  5
271
330
256
100
AcDbEntity
  8
Capa 1
 62
     7
420
 16777215
370
     9
100
AcDbVertex
100
AcDb2dVertex
 10
101.4627051815054
 20
98.10354699755189
 30
0.0
  0
VERTEX
  5
272
330
256
100
AcDbEntity
  8
Capa 1
 62
     7
420
 16777215
370
     9
100
AcDbVertex
100
AcDb2dVertex
 10
100.3197032439249
 20
98.77029409058589
 30
0.0
  0
VERTEX
  5
273
330
256
100
AcDbEntity
  8
Capa 1
 62
     7
420
 16777215
370
     9
100
AcDbVertex
100
AcDb2dVertex
 10
99.14496067270572
 20
99.34179505937611
 30
0.0
  0
VERTEX
  5
274
330
256
100
AcDbEntity
  8
Capa 1
 62
     7
420
 16777215
370
     9
100
AcDbVertex
100
AcDb2dVertex
 10
97.8749558283577
 20
99.78629312139878
 30
0.0
  0
VERTEX
  5
275
330
256
100
AcDbEntity
  8
Capa 1
 62
     7
420
 16777215
370
     9
100
AcDbVertex
100
AcDb2dVertex
 10
96.60495905845222
 20
100.1037963510964
 30
0.0
  0
VERTEX
  5
276
330
256
100
AcDbEntity
  8
Capa 1
 62
     7
420
 16777215
370
     9
100
AcDbVertex
100
AcDb2dVertex
 10
95.30320550602293
 20
100.3260453821078
 30
0.0
  0
VERTEX
  5
277
330
256
100
AcDbEntity
  8
Capa 1
 62
     7
420
 16777215
370
     9
100
AcDbVertex
100
AcDb2dVertex
 10
93.9697032455124
 20
100.3895427982703
 30
0.0
  0
SEQEND
  5
278
330
256
100
AcDbEntity
  8
Capa 1
 62
     7
420
 16777215
370
     9
  0
POLYLINE
  5
279
330
1F
100
AcDbEntity
  8
Capa 1
 62
     7
420
 16777215
370
     9
100
AcDb2dPolyline
 66
     1
 10
0.0
 20
0.0
 30
0.0
  0
VERTEX
  5
27A
330
279
100
AcDbEntity
  8
Capa 1
 62
     7
420
 16777215
370
     9
100
AcDbVertex
100
AcDb2dVertex
 10
70.44295777308191
 20
73.37030217137843
 30
0.0
  0
VERTEX
  5
27B
330
279
100
AcDbEntity
  8
Capa 1
 62
     7
420
 16777215
370
     9
100
AcDbVertex
100
AcDb2dVertex
 10
93.9697032455124
 20
73.37030217137843
 30
0.0
  0
SEQEND
  5
27C
330
279
100
AcDbEntity
  8
Capa 1
 62
     7
420
 16777215
370
     9
  0
POLYLINE
  5
27D
330
1F
100
AcDbEntity
  8
Capa 1
 62
     7
420
 16777215
370
     9
100
AcDb2dPolyline
 66
     1
 10
0.0
 20
0.0
 30
0.0
  0
VERTEX
  5
27E
330
27D
100
AcDbEntity
  8
Capa 1
 62
     7
420
 16777215
370
     9
100
AcDbVertex
100
AcDb2dVertex
 10
102.1612090570632
 20
86.86405216800499
 30
0.0
  0
VERTEX
  5
27F
330
27D
100
AcDbEntity
  8
Capa 1
 62
     7
420
 16777215
370
     9
100
AcDbVertex
100
AcDb2dVertex
 10
102.1294603489819
 20
87.72129958396907
 30
0.0
  0
VERTEX
  5
280
330
27D
100
AcDbEntity
  8
Capa 1
 62
     7
420
 16777215
370
     9
100
AcDbVertex
100
AcDb2dVertex
 10
102.0024574422143
 20
88.54680232907316
 30
0.0
  0
VERTEX
  5
281
330
27D
100
AcDbEntity
  8
Capa 1
 62
     7
420
 16777215
370
     9
100
AcDbVertex
100
AcDb2dVertex
 10
101.780208411203
 20
89.37230103695597
 30
0.0
  0
VERTEX
  5
282
330
27D
100
AcDbEntity
  8
Capa 1
 62
     7
420
 16777215
370
     9
100
AcDbVertex
100
AcDb2dVertex
 10
101.4944538895866
 20
90.16605103675754
 30
0.0
  0
VERTEX
  5
283
330
27D
100
AcDbEntity
  8
Capa 1
 62
     7
420
 16777215
370
     9
100
AcDbVertex
100
AcDb2dVertex
 10
101.1452100262503
 20
90.92805232847785
 30
0.0
  0
VERTEX
  5
284
330
27D
100
AcDbEntity
  8
Capa 1
 62
     7
420
 16777215
370
     9
100
AcDbVertex
100
AcDb2dVertex
 10
100.7007038897851
 20
91.65830087489563
 30
0.0
  0
VERTEX
  5
285
330
27D
100
AcDbEntity
  8
Capa 1
 62
     7
420
 16777215
370
     9
100
AcDbVertex
100
AcDb2dVertex
 10
100.2244571196811
 20
92.35680071323215
 30
0.0
  0
VERTEX
  5
286
330
27D
100
AcDbEntity
  8
Capa 1
 62
     7
420
 16777215
370
     9
100
AcDbVertex
100
AcDb2dVertex
 10
99.6529561508909
 20
92.96005039010363
 30
0.0
  0
VERTEX
  5
287
330
27D
100
AcDbEntity
  8
Capa 1
 62
     7
420
 16777215
370
     9
100
AcDbVertex
100
AcDb2dVertex
 10
99.01795776593816
 20
93.53155135889386
 30
0.0
  0
VERTEX
  5
288
330
27D
100
AcDbEntity
  8
Capa 1
 62
     7
420
 16777215
370
     9
100
AcDbVertex
100
AcDb2dVertex
 10
98.35121067290416
 20
94.03955087430032
 30
0.0
  0
VERTEX
  5
289
330
27D
100
AcDbEntity
  8
Capa 1
 62
     7
420
 16777215
370
     9
100
AcDbVertex
100
AcDb2dVertex
 10
97.62095808926512
 20
94.48404893632298
 30
0.0
  0
VERTEX
  5
28A
330
27D
100
AcDbEntity
  8
Capa 1
 62
     7
420
 16777215
370
     9
100
AcDbVertex
100
AcDb2dVertex
 10
96.8589567975448
 20
94.8332968368806
 30
0.0
  0
VERTEX
  5
28B
330
27D
100
AcDbEntity
  8
Capa 1
 62
     7
420
 16777215
370
     9
100
AcDbVertex
100
AcDb2dVertex
 10
96.06520679774324
 20
95.11904732127572
 30
0.0
  0
VERTEX
  5
28C
330
27D
100
AcDbEntity
  8
Capa 1
 62
     7
420
 16777215
370
     9
100
AcDbVertex
100
AcDb2dVertex
 10
95.27145679794168
 20
95.3095476442058
 30
0.0
  0
VERTEX
  5
28D
330
27D
100
AcDbEntity
  8
Capa 1
 62
     7
420
 16777215
370
     9
100
AcDbVertex
100
AcDb2dVertex
 10
94.41420938197761
 20
95.43654651375209
 30
0.0
  0
VERTEX
  5
28E
330
27D
100
AcDbEntity
  8
Capa 1
 62
     7
420
 16777215
370
     9
100
AcDbVertex
100
AcDb2dVertex
 10
93.58871067409478
 20
95.50004796713587
 30
0.0
  0
VERTEX
  5
28F
330
27D
100
AcDbEntity
  8
Capa 1
 62
     7
420
 16777215
370
     9
100
AcDbVertex
100
AcDb2dVertex
 10
82.95245744697684
 20
95.50004796713587
 30
0.0
  0
VERTEX
  5
290
330
27D
100
AcDbEntity
  8
Capa 1
 62
     7
420
 16777215
370
     9
100
AcDbVertex
100
AcDb2dVertex
 10
82.38096051540788
 20
95.43654651375209
 30
0.0
  0
VERTEX
  5
291
330
27D
100
AcDbEntity
  8
Capa 1
 62
     7
420
 16777215
370
     9
100
AcDbVertex
100
AcDb2dVertex
 10
81.80945954661765
 20
95.27779893612454
 30
0.0
  0
VERTEX
  5
292
330
27D
100
AcDbEntity
  8
Capa 1
 62
     7
420
 16777215
370
     9
100
AcDbVertex
100
AcDb2dVertex
 10
81.26971132312994
 20
94.99204845172942
 30
0.0
  0
VERTEX
  5
293
330
27D
100
AcDbEntity
  8
Capa 1
 62
     7
420
 16777215
370
     9
100
AcDbVertex
100
AcDb2dVertex
 10
80.825209223886
 20
94.64279651395053
 30
0.0
  0
VERTEX
  5
294
330
27D
100
AcDbEntity
  8
Capa 1
 62
     7
420
 16777215
370
     9
100
AcDbVertex
100
AcDb2dVertex
 10
80.4124598699446
 20
94.19830248914913
 30
0.0
  0
VERTEX
  5
295
330
27D
100
AcDbEntity
  8
Capa 1
 62
     7
420
 16777215
370
     9
100
AcDbVertex
100
AcDb2dVertex
 10
80.12670938554949
 20
93.69030297374269
 30
0.0
  0
VERTEX
  5
296
330
27D
100
AcDbEntity
  8
Capa 1
 62
     7
420
 16777215
370
     9
100
AcDbVertex
100
AcDb2dVertex
 10
79.93620906261941
 20
93.11880200495246
 30
0.0
  0
VERTEX
  5
297
330
27D
100
AcDbEntity
  8
Capa 1
 62
     7
420
 16777215
370
     9
100
AcDbVertex
100
AcDb2dVertex
 10
79.84095890115437
 20
92.54730103616222
 30
0.0
  0
VERTEX
  5
298
330
27D
100
AcDbEntity
  8
Capa 1
 62
     7
420
 16777215
370
     9
100
AcDbVertex
100
AcDb2dVertex
 10
79.71396003160807
 20
89.72155297473488
 30
0.0
  0
VERTEX
  5
299
330
27D
100
AcDbEntity
  8
Capa 1
 62
     7
420
 16777215
370
     9
100
AcDbVertex
100
AcDb2dVertex
 10
79.65045857822429
 20
86.86405216800499
 30
0.0
  0
SEQEND
  5
29A
330
27D
100
AcDbEntity
  8
Capa 1
 62
     7
420
 16777215
370
     9
  0
POLYLINE
  5
29B
330
1F
100
AcDbEntity
  8
Capa 1
 62
     7
420
 16777215
370
     9
100
AcDb2dPolyline
 66
     1
 10
0.0
 20
0.0
 30
0.0
  0
VERTEX
  5
29C
330
29B
100
AcDbEntity
  8
Capa 1
 62
     7
420
 16777215
370
     9
100
AcDbVertex
100
AcDb2dVertex
 10
79.84095890115437
 20
81.21255200792902
 30
0.0
  0
VERTEX
  5
29D
330
29B
100
AcDbEntity
  8
Capa 1
 62
     7
420
 16777215
370
     9
100
AcDbVertex
100
AcDb2dVertex
 10
79.71396003160807
 20
84.03830006935637
 30
0.0
  0
VERTEX
  5
29E
330
29B
100
AcDbEntity
  8
Capa 1
 62
     7
420
 16777215
370
     9
100
AcDbVertex
100
AcDb2dVertex
 10
79.65045857822429
 20
86.86405216800499
 30
0.0
  0
SEQEND
  5
29F
330
29B
100
AcDbEntity
  8
Capa 1
 62
     7
420
 16777215
370
     9
  0
POLYLINE
  5
2A0
330
1F
100
AcDbEntity
  8
Capa 1
 62
     7
420
 16777215
370
     9
100
AcDb2dPolyline
 66
     1
 10
0.0
 20
0.0
 30
0.0
  0
VERTEX
  5
2A1
330
2A0
100
AcDbEntity
  8
Capa 1
 62
     7
420
 16777215
370
     9
100
AcDbVertex
100
AcDb2dVertex
 10
82.95245744697684
 20
78.2598010397341
 30
0.0
  0
VERTEX
  5
2A2
330
2A0
100
AcDbEntity
  8
Capa 1
 62
     7
420
 16777215
370
     9
100
AcDbVertex
100
AcDb2dVertex
 10
82.38096051540788
 20
78.32330249311788
 30
0.0
  0
VERTEX
  5
2A3
330
2A0
100
AcDbEntity
  8
Capa 1
 62
     7
420
 16777215
370
     9
100
AcDbVertex
100
AcDb2dVertex
 10
81.80945954661765
 20
78.48205007074543
 30
0.0
  0
VERTEX
  5
2A4
330
2A0
100
AcDbEntity
  8
Capa 1
 62
     7
420
 16777215
370
     9
100
AcDbVertex
100
AcDb2dVertex
 10
81.26971132312994
 20
78.76780055514054
 30
0.0
  0
VERTEX
  5
2A5
330
2A0
100
AcDbEntity
  8
Capa 1
 62
     7
420
 16777215
370
     9
100
AcDbVertex
100
AcDb2dVertex
 10
80.825209223886
 20
79.11705249291944
 30
0.0
  0
VERTEX
  5
2A6
330
2A0
100
AcDbEntity
  8
Capa 1
 62
     7
420
 16777215
370
     9
100
AcDbVertex
100
AcDb2dVertex
 10
80.4124598699446
 20
79.5615505549421
 30
0.0
  0
VERTEX
  5
2A7
330
2A0
100
AcDbEntity
  8
Capa 1
 62
     7
420
 16777215
370
     9
100
AcDbVertex
100
AcDb2dVertex
 10
80.12670938554949
 20
80.06955007034855
 30
0.0
  0
VERTEX
  5
2A8
330
2A0
100
AcDbEntity
  8
Capa 1
 62
     7
420
 16777215
370
     9
100
AcDbVertex
100
AcDb2dVertex
 10
79.93620906261941
 20
80.64105103913879
 30
0.0
  0
VERTEX
  5
2A9
330
2A0
100
AcDbEntity
  8
Capa 1
 62
     7
420
 16777215
370
     9
100
AcDbVertex
100
AcDb2dVertex
 10
79.84095890115437
 20
81.21255200792902
 30
0.0
  0
SEQEND
  5
2AA
330
2A0
100
AcDbEntity
  8
Capa 1
 62
     7
420
 16777215
370
     9
  0
POLYLINE
  5
2AB
330
1F
100
AcDbEntity
  8
Capa 1
 62
     7
420
 16777215
370
     9
100
AcDb2dPolyline
 66
     1
 10
0.0
 20
0.0
 30
0.0
  0
VERTEX
  5
2AC
330
2AB
100
AcDbEntity
  8
Capa 1
 62
     7
420
 16777215
370
     9
100
AcDbVertex
100
AcDb2dVertex
 10
93.58871067409478
 20
78.2598010397341
 30
0.0
  0
VERTEX
  5
2AD
330
2AB
100
AcDbEntity
  8
Capa 1
 62
     7
420
 16777215
370
     9
100
AcDbVertex
100
AcDb2dVertex
 10
82.95245744697684
 20
78.2598010397341
 30
0.0
  0
SEQEND
  5
2AE
330
2AB
100
AcDbEntity
  8
Capa 1
 62
     7
420
 16777215
370
     9
  0
POLYLINE
  5
2AF
330
1F
100
AcDbEntity
  8
Capa 1
 62
     7
420
 16777215
370
     9
100
AcDb2dPolyline
 66
     1
 10
0.0
 20
0.0
 30
0.0
  0
VERTEX
  5
2B0
330
2AF
100
AcDbEntity
  8
Capa 1
 62
     7
420
 16777215
370
     9
100
AcDbVertex
100
AcDb2dVertex
 10
102.1612090570632
 20
86.86405216800499
 30
0.0
  0
VERTEX
  5
2B1
330
2AF
100
AcDbEntity
  8
Capa 1
 62
     7
420
 16777215
370
     9
100
AcDbVertex
100
AcDb2dVertex
 10
102.1294603489819
 20
86.0385494229009
 30
0.0
  0
VERTEX
  5
2B2
330
2AF
100
AcDbEntity
  8
Capa 1
 62
     7
420
 16777215
370
     9
100
AcDbVertex
100
AcDb2dVertex
 10
102.0024574422143
 20
85.21305071501808
 30
0.0
  0
VERTEX
  5
2B3
330
2AF
100
AcDbEntity
  8
Capa 1
 62
     7
420
 16777215
370
     9
100
AcDbVertex
100
AcDb2dVertex
 10
101.780208411203
 20
84.38755200713527
 30
0.0
  0
VERTEX
  5
2B4
330
2AF
100
AcDbEntity
  8
Capa 1
 62
     7
420
 16777215
370
     9
100
AcDbVertex
100
AcDb2dVertex
 10
101.4944538895866
 20
83.59380200733371
 30
0.0
  0
VERTEX
  5
2B5
330
2AF
100
AcDbEntity
  8
Capa 1
 62
     7
420
 16777215
370
     9
100
AcDbVertex
100
AcDb2dVertex
 10
101.1452100262503
 20
82.8318007156134
 30
0.0
  0
VERTEX
  5
2B6
330
2AF
100
AcDbEntity
  8
Capa 1
 62
     7
420
 16777215
370
     9
100
AcDbVertex
100
AcDb2dVertex
 10
100.7007038897851
 20
82.10155216919561
 30
0.0
  0
VERTEX
  5
2B7
330
2AF
100
AcDbEntity
  8
Capa 1
 62
     7
420
 16777215
370
     9
100
AcDbVertex
100
AcDb2dVertex
 10
100.2244571196811
 20
81.4030523308591
 30
0.0
  0
VERTEX
  5
2B8
330
2AF
100
AcDbEntity
  8
Capa 1
 62
     7
420
 16777215
370
     9
100
AcDbVertex
100
AcDb2dVertex
 10
99.6529561508909
 20
80.79980265398761
 30
0.0
  0
VERTEX
  5
2B9
330
2AF
100
AcDbEntity
  8
Capa 1
 62
     7
420
 16777215
370
     9
100
AcDbVertex
100
AcDb2dVertex
 10
99.01795776593816
 20
80.22830168519738
 30
0.0
  0
VERTEX
  5
2BA
330
2AF
100
AcDbEntity
  8
Capa 1
 62
     7
420
 16777215
370
     9
100
AcDbVertex
100
AcDb2dVertex
 10
98.35121067290416
 20
79.72030216979093
 30
0.0
  0
VERTEX
  5
2BB
330
2AF
100
AcDbEntity
  8
Capa 1
 62
     7
420
 16777215
370
     9
100
AcDbVertex
100
AcDb2dVertex
 10
97.62095808926512
 20
79.27580007054699
 30
0.0
  0
VERTEX
  5
2BC
330
2AF
100
AcDbEntity
  8
Capa 1
 62
     7
420
 16777215
370
     9
100
AcDbVertex
100
AcDb2dVertex
 10
96.8589567975448
 20
78.92655216998936
 30
0.0
  0
VERTEX
  5
2BD
330
2AF
100
AcDbEntity
  8
Capa 1
 62
     7
420
 16777215
370
     9
100
AcDbVertex
100
AcDb2dVertex
 10
96.06520679774324
 20
78.64080168559425
 30
0.0
  0
VERTEX
  5
2BE
330
2AF
100
AcDbEntity
  8
Capa 1
 62
     7
420
 16777215
370
     9
100
AcDbVertex
100
AcDb2dVertex
 10
95.27145679794168
 20
78.41855265458292
 30
0.0
  0
VERTEX
  5
2BF
330
2AF
100
AcDbEntity
  8
Capa 1
 62
     7
420
 16777215
370
     9
100
AcDbVertex
100
AcDb2dVertex
 10
94.41420938197761
 20
78.32330249311788
 30
0.0
  0
VERTEX
  5
2C0
330
2AF
100
AcDbEntity
  8
Capa 1
 62
     7
420
 16777215
370
     9
100
AcDbVertex
100
AcDb2dVertex
 10
93.58871067409478
 20
78.2598010397341
 30
0.0
  0
SEQEND
  5
2C1
330
2AF
100
AcDbEntity
  8
Capa 1
 62
     7
420
 16777215
370
     9
  0
POLYLINE
  5
2C2
330
1F
100
AcDbEntity
  8
Capa 1
 62
     7
420
 16777215
370
     9
100
AcDb2dPolyline
 66
     1
 10
0.0
 20
0.0
 30
0.0
  0
VERTEX
  5
2C3
330
2C2
100
AcDbEntity
  8
Capa 1
 62
     7
420
 16777215
370
     9
100
AcDbVertex
100
AcDb2dVertex
 10
57.96521084448951
 20
73.91005039486613
 30
0.0
  0
VERTEX
  5
2C4
330
2C2
100
AcDbEntity
  8
Capa 1
 62
     7
420
 16777215
370
     9
100
AcDbVertex
100
AcDb2dVertex
 10
57.96521084448951
 20
74.06880200971496
 30
0.0
  0
SEQEND
  5
2C5
330
2C2
100
AcDbEntity
  8
Capa 1
 62
     7
420
 16777215
370
     9
  0
POLYLINE
  5
2C6
330
1F
100
AcDbEntity
  8
Capa 1
 62
     7
420
 16777215
370
     9
100
AcDb2dPolyline
 66
     1
 10
0.0
 20
0.0
 30
0.0
  0
VERTEX
  5
2C7
330
2C6
100
AcDbEntity
  8
Capa 1
 62
     7
420
 16777215
370
     9
100
AcDbVertex
100
AcDb2dVertex
 10
57.96521084448951
 20
99.81804182948004
 30
0.0
  0
VERTEX
  5
2C8
330
2C6
100
AcDbEntity
  8
Capa 1
 62
     7
420
 16777215
370
     9
100
AcDbVertex
100
AcDb2dVertex
 10
57.96521084448951
 20
74.06880200971496
 30
0.0
  0
SEQEND
  5
2C9
330
2C6
100
AcDbEntity
  8
Capa 1
 62
     7
420
 16777215
370
     9
  0
POLYLINE
  5
2CA
330
1F
100
AcDbEntity
  8
Capa 1
 62
     7
420
 16777215
370
     9
100
AcDb2dPolyline
 66
     1
 10
0.0
 20
0.0
 30
0.0
  0
VERTEX
  5
2CB
330
2CA
100
AcDbEntity
  8
Capa 1
 62
     7
420
 16777215
370
     9
100
AcDbVertex
100
AcDb2dVertex
 10
64.95020922785476
 20
86.86405216800499
 30
0.0
  0
VERTEX
  5
2CC
330
2CA
100
AcDbEntity
  8
Capa 1
 62
     7
420
 16777215
370
     9
100
AcDbVertex
100
AcDb2dVertex
 10
64.88670777447098
 20
87.2768015219464
 30
0.0
  0
VERTEX
  5
2CD
330
2CA
100
AcDbEntity
  8
Capa 1
 62
     7
420
 16777215
370
     9
100
AcDbVertex
100
AcDb2dVertex
 10
64.75970890492468
 20
87.62604942250402
 30
0.0
  0
VERTEX
  5
2CE
330
2CA
100
AcDbEntity
  8
Capa 1
 62
     7
420
 16777215
370
     9
100
AcDbVertex
100
AcDb2dVertex
 10
64.5057111658321
 20
87.94355265220167
 30
0.0
  0
VERTEX
  5
2CF
330
2CA
100
AcDbEntity
  8
Capa 1
 62
     7
420
 16777215
370
     9
100
AcDbVertex
100
AcDb2dVertex
 10
64.18820793613445
 20
88.165801683213
 30
0.0
  0
VERTEX
  5
2D0
330
2CA
100
AcDbEntity
  8
Capa 1
 62
     7
420
 16777215
370
     9
100
AcDbVertex
100
AcDb2dVertex
 10
63.83896003557683
 20
88.32454926084056
 30
0.0
  0
VERTEX
  5
2D1
330
2CA
100
AcDbEntity
  8
Capa 1
 62
     7
420
 16777215
370
     9
100
AcDbVertex
100
AcDb2dVertex
 10
63.45795938971667
 20
88.38805071422433
 30
0.0
  0
VERTEX
  5
2D2
330
2CA
100
AcDbEntity
  8
Capa 1
 62
     7
420
 16777215
370
     9
100
AcDbVertex
100
AcDb2dVertex
 10
63.04521003577526
 20
88.32454926084056
 30
0.0
  0
VERTEX
  5
2D3
330
2CA
100
AcDbEntity
  8
Capa 1
 62
     7
420
 16777215
370
     9
100
AcDbVertex
100
AcDb2dVertex
 10
62.69595809799636
 20
88.165801683213
 30
0.0
  0
VERTEX
  5
2D4
330
2CA
100
AcDbEntity
  8
Capa 1
 62
     7
420
 16777215
370
     9
100
AcDbVertex
100
AcDb2dVertex
 10
62.37845890551999
 20
87.94355265220167
 30
0.0
  0
VERTEX
  5
2D5
330
2CA
100
AcDbEntity
  8
Capa 1
 62
     7
420
 16777215
370
     9
100
AcDbVertex
100
AcDb2dVertex
 10
62.15620987450866
 20
87.62604942250402
 30
0.0
  0
VERTEX
  5
2D6
330
2CA
100
AcDbEntity
  8
Capa 1
 62
     7
420
 16777215
370
     9
100
AcDbVertex
100
AcDb2dVertex
 10
61.99745825966112
 20
87.2768015219464
 30
0.0
  0
VERTEX
  5
2D7
330
2CA
100
AcDbEntity
  8
Capa 1
 62
     7
420
 16777215
370
     9
100
AcDbVertex
100
AcDb2dVertex
 10
61.93396084349732
 20
86.86405216800499
 30
0.0
  0
VERTEX
  5
2D8
330
2CA
100
AcDbEntity
  8
Capa 1
 62
     7
420
 16777215
370
     9
100
AcDbVertex
100
AcDb2dVertex
 10
61.99745825966112
 20
86.48305152214483
 30
0.0
  0
VERTEX
  5
2D9
330
2CA
100
AcDbEntity
  8
Capa 1
 62
     7
420
 16777215
370
     9
100
AcDbVertex
100
AcDb2dVertex
 10
62.15620987450866
 20
86.13379958436595
 30
0.0
  0
VERTEX
  5
2DA
330
2CA
100
AcDbEntity
  8
Capa 1
 62
     7
420
 16777215
370
     9
100
AcDbVertex
100
AcDb2dVertex
 10
62.37845890551999
 20
85.81630039188957
 30
0.0
  0
VERTEX
  5
2DB
330
2CA
100
AcDbEntity
  8
Capa 1
 62
     7
420
 16777215
370
     9
100
AcDbVertex
100
AcDb2dVertex
 10
62.69595809799636
 20
85.59405136087824
 30
0.0
  0
VERTEX
  5
2DC
330
2CA
100
AcDbEntity
  8
Capa 1
 62
     7
420
 16777215
370
     9
100
AcDbVertex
100
AcDb2dVertex
 10
63.04521003577526
 20
85.43529974602941
 30
0.0
  0
VERTEX
  5
2DD
330
2CA
100
AcDbEntity
  8
Capa 1
 62
     7
420
 16777215
370
     9
100
AcDbVertex
100
AcDb2dVertex
 10
63.45795938971667
 20
85.37180232986691
 30
0.0
  0
VERTEX
  5
2DE
330
2CA
100
AcDbEntity
  8
Capa 1
 62
     7
420
 16777215
370
     9
100
AcDbVertex
100
AcDb2dVertex
 10
63.83896003557683
 20
85.43529974602941
 30
0.0
  0
VERTEX
  5
2DF
330
2CA
100
AcDbEntity
  8
Capa 1
 62
     7
420
 16777215
370
     9
100
AcDbVertex
100
AcDb2dVertex
 10
64.18820793613445
 20
85.59405136087824
 30
0.0
  0
VERTEX
  5
2E0
330
2CA
100
AcDbEntity
  8
Capa 1
 62
     7
420
 16777215
370
     9
100
AcDbVertex
100
AcDb2dVertex
 10
64.5057111658321
 20
85.81630039188957
 30
0.0
  0
VERTEX
  5
2E1
330
2CA
100
AcDbEntity
  8
Capa 1
 62
     7
420
 16777215
370
     9
100
AcDbVertex
100
AcDb2dVertex
 10
64.75970890492468
 20
86.13379958436595
 30
0.0
  0
VERTEX
  5
2E2
330
2CA
100
AcDbEntity
  8
Capa 1
 62
     7
420
 16777215
370
     9
100
AcDbVertex
100
AcDb2dVertex
 10
64.88670777447098
 20
86.48305152214483
 30
0.0
  0
VERTEX
  5
2E3
330
2CA
100
AcDbEntity
  8
Capa 1
 62
     7
420
 16777215
370
     9
100
AcDbVertex
100
AcDb2dVertex
 10
64.95020922785476
 20
86.86405216800499
 30
0.0
  0
SEQEND
  5
2E4
330
2CA
100
AcDbEntity
  8
Capa 1
 62
     7
420
 16777215
370
     9
  0
POLYLINE
  5
2E5
330
1F
100
AcDbEntity
  8
Capa 1
 62
     7
420
 16777215
370
     9
100
AcDb2dPolyline
 66
     1
 10
0.0
 20
0.0
 30
0.0
  0
VERTEX
  5
2E6
330
2E5
100
AcDbEntity
  8
Capa 1
 62
     7
420
 16777215
370
     9
100
AcDbVertex
100
AcDb2dVertex
 10
69.74445793474538
 20
98.67504796634212
 30
0.0
  0
VERTEX
  5
2E7
330
2E5
100
AcDbEntity
  8
Capa 1
 62
     7
420
 16777215
370
     9
100
AcDbVertex
100
AcDb2dVertex
 10
69.71270922666413
 20
99.05604861220228
 30
0.0
  0
VERTEX
  5
2E8
330
2E5
100
AcDbEntity
  8
Capa 1
 62
     7
420
 16777215
370
     9
100
AcDbVertex
100
AcDb2dVertex
 10
69.5539576118153
 20
99.40529247553863
 30
0.0
  0
VERTEX
  5
2E9
330
2E5
100
AcDbEntity
  8
Capa 1
 62
     7
420
 16777215
370
     9
100
AcDbVertex
100
AcDb2dVertex
 10
69.33170858080398
 20
99.72279570523627
 30
0.0
  0
VERTEX
  5
2EA
330
2E5
100
AcDbEntity
  8
Capa 1
 62
     7
420
 16777215
370
     9
100
AcDbVertex
100
AcDb2dVertex
 10
69.0142093883276
 20
99.97679344432886
 30
0.0
  0
VERTEX
  5
2EB
330
2E5
100
AcDbEntity
  8
Capa 1
 62
     7
420
 16777215
370
     9
100
AcDbVertex
100
AcDb2dVertex
 10
68.66496148776999
 20
100.1037963510964
 30
0.0
  0
VERTEX
  5
2EC
330
2E5
100
AcDbEntity
  8
Capa 1
 62
     7
420
 16777215
370
     9
100
AcDbVertex
100
AcDb2dVertex
 10
68.2522080966073
 20
100.1672937672589
 30
0.0
  0
SEQEND
  5
2ED
330
2E5
100
AcDbEntity
  8
Capa 1
 62
     7
420
 16777215
370
     9
  0
POLYLINE
  5
2EE
330
1F
100
AcDbEntity
  8
Capa 1
 62
     7
420
 16777215
370
     9
100
AcDb2dPolyline
 66
     1
 10
0.0
 20
0.0
 30
0.0
  0
VERTEX
  5
2EF
330
2EE
100
AcDbEntity
  8
Capa 1
 62
     7
420
 16777215
370
     9
100
AcDbVertex
100
AcDb2dVertex
 10
58.28271003696589
 20
100.1672937672589
 30
0.0
  0
VERTEX
  5
2F0
330
2EE
100
AcDbEntity
  8
Capa 1
 62
     7
420
 16777215
370
     9
100
AcDbVertex
100
AcDb2dVertex
 10
58.1239604407277
 20
100.1355450591777
 30
0.0
  0
VERTEX
  5
2F1
330
2EE
100
AcDbEntity
  8
Capa 1
 62
     7
420
 16777215
370
     9
100
AcDbVertex
100
AcDb2dVertex
 10
58.02871027926266
 20
100.0085421524101
 30
0.0
  0
VERTEX
  5
2F2
330
2EE
100
AcDbEntity
  8
Capa 1
 62
     7
420
 16777215
370
     9
100
AcDbVertex
100
AcDb2dVertex
 10
57.96521084448951
 20
99.84979861200384
 30
0.0
  0
VERTEX
  5
2F3
330
2EE
100
AcDbEntity
  8
Capa 1
 62
     7
420
 16777215
370
     9
100
AcDbVertex
100
AcDb2dVertex
 10
57.96521084448951
 20
99.81804182948004
 30
0.0
  0
SEQEND
  5
2F4
330
2EE
100
AcDbEntity
  8
Capa 1
 62
     7
420
 16777215
370
     9
  0
POLYLINE
  5
2F5
330
1F
100
AcDbEntity
  8
Capa 1
 62
     7
420
 16777215
370
     9
100
AcDb2dPolyline
 66
     1
 10
0.0
 20
0.0
 30
0.0
  0
VERTEX
  5
2F6
330
2F5
100
AcDbEntity
  8
Capa 1
 62
     7
420
 16777215
370
     9
100
AcDbVertex
100
AcDb2dVertex
 10
69.74445793474538
 20
75.08480104052785
 30
0.0
  0
VERTEX
  5
2F7
330
2F5
100
AcDbEntity
  8
Capa 1
 62
     7
420
 16777215
370
     9
100
AcDbVertex
100
AcDb2dVertex
 10
69.74445793474538
 20
98.67504796634212
 30
0.0
  0
SEQEND
  5
2F8
330
2F5
100
AcDbEntity
  8
Capa 1
 62
     7
420
 16777215
370
     9
  0
POLYLINE
  5
2F9
330
1F
100
AcDbEntity
  8
Capa 1
 62
     7
420
 16777215
370
     9
100
AcDb2dPolyline
 66
     1
 10
0.0
 20
0.0
 30
0.0
  0
VERTEX
  5
2FA
330
2F9
100
AcDbEntity
  8
Capa 1
 62
     7
420
 16777215
370
     9
100
AcDbVertex
100
AcDb2dVertex
 10
68.2522080966073
 20
100.1672937672589
 30
0.0
  0
VERTEX
  5
2FB
330
2F9
100
AcDbEntity
  8
Capa 1
 62
     7
420
 16777215
370
     9
100
AcDbVertex
100
AcDb2dVertex
 10
58.28271003696589
 20
100.1672937672589
 30
0.0
  0
SEQEND
  5
2FC
330
2F9
100
AcDbEntity
  8
Capa 1
 62
     7
420
 16777215
370
     9
  0
POLYLINE
  5
2FD
330
1F
100
AcDbEntity
  8
Capa 1
 62
     7
420
 16777215
370
     9
100
AcDb2dPolyline
 66
     1
 10
0.0
 20
0.0
 30
0.0
  0
VERTEX
  5
2FE
330
2FD
100
AcDbEntity
  8
Capa 1
 62
     7
420
 16777215
370
     9
100
AcDbVertex
100
AcDb2dVertex
 10
68.2522080966073
 20
73.59255120238976
 30
0.0
  0
VERTEX
  5
2FF
330
2FD
100
AcDbEntity
  8
Capa 1
 62
     7
420
 16777215
370
     9
100
AcDbVertex
100
AcDb2dVertex
 10
68.66496148776999
 20
73.65605265577355
 30
0.0
  0
VERTEX
  5
300
330
2FD
100
AcDbEntity
  8
Capa 1
 62
     7
420
 16777215
370
     9
100
AcDbVertex
100
AcDb2dVertex
 10
69.0142093883276
 20
73.78305152531983
 30
0.0
  0
VERTEX
  5
301
330
2FD
100
AcDbEntity
  8
Capa 1
 62
     7
420
 16777215
370
     9
100
AcDbVertex
100
AcDb2dVertex
 10
69.33170858080398
 20
74.0370533016337
 30
0.0
  0
VERTEX
  5
302
330
2FD
100
AcDbEntity
  8
Capa 1
 62
     7
420
 16777215
370
     9
100
AcDbVertex
100
AcDb2dVertex
 10
69.5539576118153
 20
74.35455249411007
 30
0.0
  0
VERTEX
  5
303
330
2FD
100
AcDbEntity
  8
Capa 1
 62
     7
420
 16777215
370
     9
100
AcDbVertex
100
AcDb2dVertex
 10
69.71270922666413
 20
74.7038003946677
 30
0.0
  0
VERTEX
  5
304
330
2FD
100
AcDbEntity
  8
Capa 1
 62
     7
420
 16777215
370
     9
100
AcDbVertex
100
AcDb2dVertex
 10
69.74445793474538
 20
75.08480104052785
 30
0.0
  0
SEQEND
  5
305
330
2FD
100
AcDbEntity
  8
Capa 1
 62
     7
420
 16777215
370
     9
  0
POLYLINE
  5
306
330
1F
100
AcDbEntity
  8
Capa 1
 62
     7
420
 16777215
370
     9
100
AcDb2dPolyline
 66
     1
 10
0.0
 20
0.0
 30
0.0
  0
VERTEX
  5
307
330
306
100
AcDbEntity
  8
Capa 1
 62
     7
420
 16777215
370
     9
100
AcDbVertex
100
AcDb2dVertex
 10
57.96521084448951
 20
73.87830168678488
 30
0.0
  0
VERTEX
  5
308
330
306
100
AcDbEntity
  8
Capa 1
 62
     7
420
 16777215
370
     9
100
AcDbVertex
100
AcDb2dVertex
 10
58.02871027926266
 20
73.75130281723858
 30
0.0
  0
VERTEX
  5
309
330
306
100
AcDbEntity
  8
Capa 1
 62
     7
420
 16777215
370
     9
100
AcDbVertex
100
AcDb2dVertex
 10
58.1239604407277
 20
73.62429991047102
 30
0.0
  0
VERTEX
  5
30A
330
306
100
AcDbEntity
  8
Capa 1
 62
     7
420
 16777215
370
     9
100
AcDbVertex
100
AcDb2dVertex
 10
58.28271003696589
 20
73.59255120238976
 30
0.0
  0
SEQEND
  5
30B
330
306
100
AcDbEntity
  8
Capa 1
 62
     7
420
 16777215
370
     9
  0
POLYLINE
  5
30C
330
1F
100
AcDbEntity
  8
Capa 1
 62
     7
420
 16777215
370
     9
100
AcDb2dPolyline
 66
     1
 10
0.0
 20
0.0
 30
0.0
  0
VERTEX
  5
30D
330
30C
100
AcDbEntity
  8
Capa 1
 62
     7
420
 16777215
370
     9
100
AcDbVertex
100
AcDb2dVertex
 10
58.28271003696589
 20
73.59255120238976
 30
0.0
  0
VERTEX
  5
30E
330
30C
100
AcDbEntity
  8
Capa 1
 62
     7
420
 16777215
370
     9
100
AcDbVertex
100
AcDb2dVertex
 10
68.2522080966073
 20
73.59255120238976
 30
0.0
  0
SEQEND
  5
30F
330
30C
100
AcDbEntity
  8
Capa 1
 62
     7
420
 16777215
370
     9
  0
POLYLINE
  5
310
330
1F
100
AcDbEntity
  8
Capa 1
 62
     7
420
 16777215
370
     9
100
AcDb2dPolyline
 66
     1
 10
0.0
 20
0.0
 30
0.0
  0
VERTEX
  5
311
330
310
100
AcDbEntity
  8
Capa 1
 62
     7
420
 16777215
370
     9
100
AcDbVertex
100
AcDb2dVertex
 10
57.96521084448951
 20
73.87830168678488
 30
0.0
  0
VERTEX
  5
312
330
310
100
AcDbEntity
  8
Capa 1
 62
     7
420
 16777215
370
     9
100
AcDbVertex
100
AcDb2dVertex
 10
57.96521084448951
 20
73.91005039486613
 30
0.0
  0
SEQEND
  5
313
330
310
100
AcDbEntity
  8
Capa 1
 62
     7
420
 16777215
370
     9
  0
POLYLINE
  5
314
330
1F
100
AcDbEntity
  8
Capa 1
 62
     7
420
 16777215
370
     9
100
AcDb2dPolyline
 66
     1
 10
0.0
 20
0.0
 30
0.0
  0
VERTEX
  5
315
330
314
100
AcDbEntity
  8
Capa 1
 62
     7
420
 16777215
370
     9
100
AcDbVertex
100
AcDb2dVertex
 10
102.5104529203995
 20
86.86405216800499
 30
0.0
  0
VERTEX
  5
316
330
314
100
AcDbEntity
  8
Capa 1
 62
     7
420
 16777215
370
     9
100
AcDbVertex
100
AcDb2dVertex
 10
102.446955504237
 20
88.00705006836418
 30
0.0
  0
VERTEX
  5
317
330
314
100
AcDbEntity
  8
Capa 1
 62
     7
420
 16777215
370
     9
100
AcDbVertex
100
AcDb2dVertex
 10
102.2564551813069
 20
89.08655055256087
 30
0.0
  0
VERTEX
  5
318
330
314
100
AcDbEntity
  8
Capa 1
 62
     7
420
 16777215
370
     9
100
AcDbVertex
100
AcDb2dVertex
 10
101.907203243528
 20
90.16605103675754
 30
0.0
  0
VERTEX
  5
319
330
314
100
AcDbEntity
  8
Capa 1
 62
     7
420
 16777215
370
     9
100
AcDbVertex
100
AcDb2dVertex
 10
101.4309564734241
 20
91.18205006757043
 30
0.0
  0
VERTEX
  5
31A
330
314
100
AcDbEntity
  8
Capa 1
 62
     7
420
 16777215
370
     9
100
AcDbVertex
100
AcDb2dVertex
 10
100.8277067965526
 20
92.13455168222082
 30
0.0
  0
VERTEX
  5
31B
330
314
100
AcDbEntity
  8
Capa 1
 62
     7
420
 16777215
370
     9
100
AcDbVertex
100
AcDb2dVertex
 10
100.1292029209948
 20
92.99179909818488
 30
0.0
  0
VERTEX
  5
31C
330
314
100
AcDbEntity
  8
Capa 1
 62
     7
420
 16777215
370
     9
100
AcDbVertex
100
AcDb2dVertex
 10
99.33545292119327
 20
93.7538003899052
 30
0.0
  0
VERTEX
  5
31D
330
314
100
AcDbEntity
  8
Capa 1
 62
     7
420
 16777215
370
     9
100
AcDbVertex
100
AcDb2dVertex
 10
98.41470808906668
 20
94.4205474829392
 30
0.0
  0
VERTEX
  5
31E
330
314
100
AcDbEntity
  8
Capa 1
 62
     7
420
 16777215
370
     9
100
AcDbVertex
100
AcDb2dVertex
 10
97.46220647441629
 20
94.99204845172942
 30
0.0
  0
VERTEX
  5
31F
330
314
100
AcDbEntity
  8
Capa 1
 62
     7
420
 16777215
370
     9
100
AcDbVertex
100
AcDb2dVertex
 10
96.41445873552215
 20
95.40479780567084
 30
0.0
  0
VERTEX
  5
320
330
314
100
AcDbEntity
  8
Capa 1
 62
     7
420
 16777215
370
     9
100
AcDbVertex
100
AcDb2dVertex
 10
95.33495421410419
 20
95.69054829006595
 30
0.0
  0
VERTEX
  5
321
330
314
100
AcDbEntity
  8
Capa 1
 62
     7
420
 16777215
370
     9
100
AcDbVertex
100
AcDb2dVertex
 10
94.22370905904754
 20
95.8492958676935
 30
0.0
  0
VERTEX
  5
322
330
314
100
AcDbEntity
  8
Capa 1
 62
     7
420
 16777215
370
     9
100
AcDbVertex
100
AcDb2dVertex
 10
89.74695954463327
 20
95.91279732107728
 30
0.0
  0
VERTEX
  5
323
330
314
100
AcDbEntity
  8
Capa 1
 62
     7
420
 16777215
370
     9
100
AcDbVertex
100
AcDb2dVertex
 10
85.270210030219
 20
95.94454602915853
 30
0.0
  0
VERTEX
  5
324
330
314
100
AcDbEntity
  8
Capa 1
 62
     7
420
 16777215
370
     9
100
AcDbVertex
100
AcDb2dVertex
 10
83.04770760844187
 20
95.94454602915853
 30
0.0
  0
VERTEX
  5
325
330
314
100
AcDbEntity
  8
Capa 1
 62
     7
420
 16777215
370
     9
100
AcDbVertex
100
AcDb2dVertex
 10
82.47621067687291
 20
95.91279732107728
 30
0.0
  0
VERTEX
  5
326
330
314
100
AcDbEntity
  8
Capa 1
 62
     7
420
 16777215
370
     9
100
AcDbVertex
100
AcDb2dVertex
 10
81.93645841616394
 20
95.81754715961225
 30
0.0
  0
VERTEX
  5
327
330
314
100
AcDbEntity
  8
Capa 1
 62
     7
420
 16777215
370
     9
100
AcDbVertex
100
AcDb2dVertex
 10
81.42845890075749
 20
95.5952981286009
 30
0.0
  0
VERTEX
  5
328
330
314
100
AcDbEntity
  8
Capa 1
 62
     7
420
 16777215
370
     9
100
AcDbVertex
100
AcDb2dVertex
 10
80.92045938535105
 20
95.34129635228705
 30
0.0
  0
VERTEX
  5
329
330
314
100
AcDbEntity
  8
Capa 1
 62
     7
420
 16777215
370
     9
100
AcDbVertex
100
AcDb2dVertex
 10
80.50771003140963
 20
94.96029570642689
 30
0.0
  0
VERTEX
  5
32A
330
314
100
AcDbEntity
  8
Capa 1
 62
     7
420
 16777215
370
     9
100
AcDbVertex
100
AcDb2dVertex
 10
80.12670938554949
 20
94.54754635248548
 30
0.0
  0
VERTEX
  5
32B
330
314
100
AcDbEntity
  8
Capa 1
 62
     7
420
 16777215
370
     9
100
AcDbVertex
100
AcDb2dVertex
 10
79.84095890115437
 20
94.07129958238157
 30
0.0
  0
VERTEX
  5
32C
330
314
100
AcDbEntity
  8
Capa 1
 62
     7
420
 16777215
370
     9
100
AcDbVertex
100
AcDb2dVertex
 10
79.61870987014304
 20
93.56330006697512
 30
0.0
  0
VERTEX
  5
32D
330
314
100
AcDbEntity
  8
Capa 1
 62
     7
420
 16777215
370
     9
100
AcDbVertex
100
AcDb2dVertex
 10
79.4599582552955
 20
93.02355184348741
 30
0.0
  0
VERTEX
  5
32E
330
314
100
AcDbEntity
  8
Capa 1
 62
     7
420
 16777215
370
     9
100
AcDbVertex
100
AcDb2dVertex
 10
79.42820954721296
 20
92.48379958277845
 30
0.0
  0
VERTEX
  5
32F
330
314
100
AcDbEntity
  8
Capa 1
 62
     7
420
 16777215
370
     9
100
AcDbVertex
100
AcDb2dVertex
 10
79.36470809382918
 20
91.34080168241925
 30
0.0
  0
VERTEX
  5
330
330
314
100
AcDbEntity
  8
Capa 1
 62
     7
420
 16777215
370
     9
100
AcDbVertex
100
AcDb2dVertex
 10
79.23770922428288
 20
86.86405216800499
 30
0.0
  0
VERTEX
  5
331
330
314
100
AcDbEntity
  8
Capa 1
 62
     7
420
 16777215
370
     9
100
AcDbVertex
100
AcDb2dVertex
 10
79.36470809382918
 20
82.41905136167199
 30
0.0
  0
VERTEX
  5
332
330
314
100
AcDbEntity
  8
Capa 1
 62
     7
420
 16777215
370
     9
100
AcDbVertex
100
AcDb2dVertex
 10
79.42820954721296
 20
81.27604942409152
 30
0.0
  0
VERTEX
  5
333
330
314
100
AcDbEntity
  8
Capa 1
 62
     7
420
 16777215
370
     9
100
AcDbVertex
100
AcDb2dVertex
 10
79.4599582552955
 20
80.73630120060382
 30
0.0
  0
VERTEX
  5
334
330
314
100
AcDbEntity
  8
Capa 1
 62
     7
420
 16777215
370
     9
100
AcDbVertex
100
AcDb2dVertex
 10
79.61870987014304
 20
80.19655297711613
 30
0.0
  0
VERTEX
  5
335
330
314
100
AcDbEntity
  8
Capa 1
 62
     7
420
 16777215
370
     9
100
AcDbVertex
100
AcDb2dVertex
 10
79.84095890115437
 20
79.6885494244884
 30
0.0
  0
VERTEX
  5
336
330
314
100
AcDbEntity
  8
Capa 1
 62
     7
420
 16777215
370
     9
100
AcDbVertex
100
AcDb2dVertex
 10
80.12670938554949
 20
79.21230265438449
 30
0.0
  0
VERTEX
  5
337
330
314
100
AcDbEntity
  8
Capa 1
 62
     7
420
 16777215
370
     9
100
AcDbVertex
100
AcDb2dVertex
 10
80.50771003140963
 20
78.79955330044308
 30
0.0
  0
VERTEX
  5
338
330
314
100
AcDbEntity
  8
Capa 1
 62
     7
420
 16777215
370
     9
100
AcDbVertex
100
AcDb2dVertex
 10
80.92045938535105
 20
78.41855265458292
 30
0.0
  0
VERTEX
  5
339
330
314
100
AcDbEntity
  8
Capa 1
 62
     7
420
 16777215
370
     9
100
AcDbVertex
100
AcDb2dVertex
 10
81.42845890075749
 20
78.16455087826905
 30
0.0
  0
VERTEX
  5
33A
330
314
100
AcDbEntity
  8
Capa 1
 62
     7
420
 16777215
370
     9
100
AcDbVertex
100
AcDb2dVertex
 10
81.93645841616394
 20
77.94230184725772
 30
0.0
  0
VERTEX
  5
33B
330
314
100
AcDbEntity
  8
Capa 1
 62
     7
420
 16777215
370
     9
100
AcDbVertex
100
AcDb2dVertex
 10
82.47621067687291
 20
77.84705168579269
 30
0.0
  0
VERTEX
  5
33C
330
314
100
AcDbEntity
  8
Capa 1
 62
     7
420
 16777215
370
     9
100
AcDbVertex
100
AcDb2dVertex
 10
83.04770760844187
 20
77.81530297771144
 30
0.0
  0
VERTEX
  5
33D
330
314
100
AcDbEntity
  8
Capa 1
 62
     7
420
 16777215
370
     9
100
AcDbVertex
100
AcDb2dVertex
 10
85.270210030219
 20
77.81530297771144
 30
0.0
  0
VERTEX
  5
33E
330
314
100
AcDbEntity
  8
Capa 1
 62
     7
420
 16777215
370
     9
100
AcDbVertex
100
AcDb2dVertex
 10
89.74695954463327
 20
77.84705168579269
 30
0.0
  0
VERTEX
  5
33F
330
314
100
AcDbEntity
  8
Capa 1
 62
     7
420
 16777215
370
     9
100
AcDbVertex
100
AcDb2dVertex
 10
94.22370905904754
 20
77.91055313917647
 30
0.0
  0
VERTEX
  5
340
330
314
100
AcDbEntity
  8
Capa 1
 62
     7
420
 16777215
370
     9
100
AcDbVertex
100
AcDb2dVertex
 10
95.33495421410419
 20
78.06930071680402
 30
0.0
  0
VERTEX
  5
341
330
314
100
AcDbEntity
  8
Capa 1
 62
     7
420
 16777215
370
     9
100
AcDbVertex
100
AcDb2dVertex
 10
96.41445873552215
 20
78.35505120119913
 30
0.0
  0
VERTEX
  5
342
330
314
100
AcDbEntity
  8
Capa 1
 62
     7
420
 16777215
370
     9
100
AcDbVertex
100
AcDb2dVertex
 10
97.46220647441629
 20
78.76780055514054
 30
0.0
  0
VERTEX
  5
343
330
314
100
AcDbEntity
  8
Capa 1
 62
     7
420
 16777215
370
     9
100
AcDbVertex
100
AcDb2dVertex
 10
98.41470808906668
 20
79.33930152393077
 30
0.0
  0
VERTEX
  5
344
330
314
100
AcDbEntity
  8
Capa 1
 62
     7
420
 16777215
370
     9
100
AcDbVertex
100
AcDb2dVertex
 10
99.33545292119327
 20
80.00605265418605
 30
0.0
  0
VERTEX
  5
345
330
314
100
AcDbEntity
  8
Capa 1
 62
     7
420
 16777215
370
     9
100
AcDbVertex
100
AcDb2dVertex
 10
100.1292029209948
 20
80.76804990868509
 30
0.0
  0
VERTEX
  5
346
330
314
100
AcDbEntity
  8
Capa 1
 62
     7
420
 16777215
370
     9
100
AcDbVertex
100
AcDb2dVertex
 10
100.8277067965526
 20
81.62530136187043
 30
0.0
  0
VERTEX
  5
347
330
314
100
AcDbEntity
  8
Capa 1
 62
     7
420
 16777215
370
     9
100
AcDbVertex
100
AcDb2dVertex
 10
101.4309564734241
 20
82.57780297652081
 30
0.0
  0
VERTEX
  5
348
330
314
100
AcDbEntity
  8
Capa 1
 62
     7
420
 16777215
370
     9
100
AcDbVertex
100
AcDb2dVertex
 10
101.907203243528
 20
83.59380200733371
 30
0.0
  0
VERTEX
  5
349
330
314
100
AcDbEntity
  8
Capa 1
 62
     7
420
 16777215
370
     9
100
AcDbVertex
100
AcDb2dVertex
 10
102.2564551813069
 20
84.67330249153038
 30
0.0
  0
VERTEX
  5
34A
330
314
100
AcDbEntity
  8
Capa 1
 62
     7
420
 16777215
370
     9
100
AcDbVertex
100
AcDb2dVertex
 10
102.446955504237
 20
85.75280297572706
 30
0.0
  0
VERTEX
  5
34B
330
314
100
AcDbEntity
  8
Capa 1
 62
     7
420
 16777215
370
     9
100
AcDbVertex
100
AcDb2dVertex
 10
102.5104529203995
 20
86.86405216800499
 30
0.0
  0
SEQEND
  5
34C
330
314
100
AcDbEntity
  8
Capa 1
 62
     7
420
 16777215
370
     9
  0
POLYLINE
  5
34D
330
1F
100
AcDbEntity
  8
Capa 1
 62
     7
420
 16777215
370
     9
100
AcDb2dPolyline
 66
     1
 10
0.0
 20
0.0
 30
0.0
  0
VERTEX
  5
34E
330
34D
100
AcDbEntity
  8
Capa 1
 62
     7
420
 16777215
370
     9
100
AcDbVertex
100
AcDb2dVertex
 10
161.6183760318432
 20
163.3921248239421
 30
0.0
  0
VERTEX
  5
34F
330
34D
100
AcDbEntity
  8
Capa 1
 62
     7
420
 16777215
370
     9
100
AcDbVertex
100
AcDb2dVertex
 10
161.6183760318432
 20
163.8683796684886
 30
0.0
  0
SEQEND
  5
350
330
34D
100
AcDbEntity
  8
Capa 1
 62
     7
420
 16777215
370
     9
  0
POLYLINE
  5
351
330
1F
100
AcDbEntity
  8
Capa 1
 62
     7
420
 16777215
370
     9
100
AcDb2dPolyline
 66
     1
 10
0.0
 20
0.0
 30
0.0
  0
VERTEX
  5
352
330
351
100
AcDbEntity
  8
Capa 1
 62
     7
420
 16777215
370
     9
100
AcDbVertex
100
AcDb2dVertex
 10
161.6183760318432
 20
160.1218787004921
 30
0.0
  0
VERTEX
  5
353
330
351
100
AcDbEntity
  8
Capa 1
 62
     7
420
 16777215
370
     9
100
AcDbVertex
100
AcDb2dVertex
 10
161.6183760318432
 20
162.9158780538382
 30
0.0
  0
SEQEND
  5
354
330
351
100
AcDbEntity
  8
Capa 1
 62
     7
420
 16777215
370
     9
  0
POLYLINE
  5
355
330
1F
100
AcDbEntity
  8
Capa 1
 62
     7
420
 16777215
370
     9
100
AcDb2dPolyline
 66
     1
 10
0.0
 20
0.0
 30
0.0
  0
VERTEX
  5
356
330
355
100
AcDbEntity
  8
Capa 1
 62
     7
420
 16777215
370
     9
100
AcDbVertex
100
AcDb2dVertex
 10
161.6183760318432
 20
159.1693770858417
 30
0.0
  0
VERTEX
  5
357
330
355
100
AcDbEntity
  8
Capa 1
 62
     7
420
 16777215
370
     9
100
AcDbVertex
100
AcDb2dVertex
 10
161.6183760318432
 20
159.6456238559457
 30
0.0
  0
SEQEND
  5
358
330
355
100
AcDbEntity
  8
Capa 1
 62
     7
420
 16777215
370
     9
  0
POLYLINE
  5
359
330
1F
100
AcDbEntity
  8
Capa 1
 62
     7
420
 16777215
370
     9
100
AcDb2dPolyline
 66
     1
 10
0.0
 20
0.0
 30
0.0
  0
VERTEX
  5
35A
330
359
100
AcDbEntity
  8
Capa 1
 62
     7
420
 16777215
370
     9
100
AcDbVertex
100
AcDb2dVertex
 10
161.6183760318432
 20
155.8991309623917
 30
0.0
  0
VERTEX
  5
35B
330
359
100
AcDbEntity
  8
Capa 1
 62
     7
420
 16777215
370
     9
100
AcDbVertex
100
AcDb2dVertex
 10
161.6183760318432
 20
158.7248790238191
 30
0.0
  0
SEQEND
  5
35C
330
359
100
AcDbEntity
  8
Capa 1
 62
     7
420
 16777215
370
     9
  0
POLYLINE
  5
35D
330
1F
100
AcDbEntity
  8
Capa 1
 62
     7
420
 16777215
370
     9
100
AcDb2dPolyline
 66
     1
 10
0.0
 20
0.0
 30
0.0
  0
VERTEX
  5
35E
330
35D
100
AcDbEntity
  8
Capa 1
 62
     7
420
 16777215
370
     9
100
AcDbVertex
100
AcDb2dVertex
 10
161.6183760318432
 20
154.9466293477414
 30
0.0
  0
VERTEX
  5
35F
330
35D
100
AcDbEntity
  8
Capa 1
 62
     7
420
 16777215
370
     9
100
AcDbVertex
100
AcDb2dVertex
 10
161.6183760318432
 20
155.4228761178453
 30
0.0
  0
SEQEND
  5
360
330
35D
100
AcDbEntity
  8
Capa 1
 62
     7
420
 16777215
370
     9
  0
POLYLINE
  5
361
330
1F
100
AcDbEntity
  8
Capa 1
 62
     7
420
 16777215
370
     9
100
AcDb2dPolyline
 66
     1
 10
0.0
 20
0.0
 30
0.0
  0
VERTEX
  5
362
330
361
100
AcDbEntity
  8
Capa 1
 62
     7
420
 16777215
370
     9
100
AcDbVertex
100
AcDb2dVertex
 10
161.6183760318432
 20
151.6763751498488
 30
0.0
  0
VERTEX
  5
363
330
361
100
AcDbEntity
  8
Capa 1
 62
     7
420
 16777215
370
     9
100
AcDbVertex
100
AcDb2dVertex
 10
161.6183760318432
 20
154.5021312857187
 30
0.0
  0
SEQEND
  5
364
330
361
100
AcDbEntity
  8
Capa 1
 62
     7
420
 16777215
370
     9
  0
POLYLINE
  5
365
330
1F
100
AcDbEntity
  8
Capa 1
 62
     7
420
 16777215
370
     9
100
AcDb2dPolyline
 66
     1
 10
0.0
 20
0.0
 30
0.0
  0
VERTEX
  5
366
330
365
100
AcDbEntity
  8
Capa 1
 62
     7
420
 16777215
370
     9
100
AcDbVertex
100
AcDb2dVertex
 10
161.6183760318432
 20
150.7556303177222
 30
0.0
  0
VERTEX
  5
367
330
365
100
AcDbEntity
  8
Capa 1
 62
     7
420
 16777215
370
     9
100
AcDbVertex
100
AcDb2dVertex
 10
161.6183760318432
 20
151.2001283797449
 30
0.0
  0
SEQEND
  5
368
330
365
100
AcDbEntity
  8
Capa 1
 62
     7
420
 16777215
370
     9
  0
POLYLINE
  5
369
330
1F
100
AcDbEntity
  8
Capa 1
 62
     7
420
 16777215
370
     9
100
AcDb2dPolyline
 66
     1
 10
0.0
 20
0.0
 30
0.0
  0
VERTEX
  5
36A
330
369
100
AcDbEntity
  8
Capa 1
 62
     7
420
 16777215
370
     9
100
AcDbVertex
100
AcDb2dVertex
 10
161.6183760318432
 20
147.4536274117484
 30
0.0
  0
VERTEX
  5
36B
330
369
100
AcDbEntity
  8
Capa 1
 62
     7
420
 16777215
370
     9
100
AcDbVertex
100
AcDb2dVertex
 10
161.6183760318432
 20
150.2793754731757
 30
0.0
  0
SEQEND
  5
36C
330
369
100
AcDbEntity
  8
Capa 1
 62
     7
420
 16777215
370
     9
  0
POLYLINE
  5
36D
330
1F
100
AcDbEntity
  8
Capa 1
 62
     7
420
 16777215
370
     9
100
AcDb2dPolyline
 66
     1
 10
0.0
 20
0.0
 30
0.0
  0
VERTEX
  5
36E
330
36D
100
AcDbEntity
  8
Capa 1
 62
     7
420
 16777215
370
     9
100
AcDbVertex
100
AcDb2dVertex
 10
161.6183760318432
 20
146.5328745051793
 30
0.0
  0
VERTEX
  5
36F
330
36D
100
AcDbEntity
  8
Capa 1
 62
     7
420
 16777215
370
     9
100
AcDbVertex
100
AcDb2dVertex
 10
161.6183760318432
 20
146.9773806416445
 30
0.0
  0
SEQEND
  5
370
330
36D
100
AcDbEntity
  8
Capa 1
 62
     7
420
 16777215
370
     9
  0
POLYLINE
  5
371
330
1F
100
AcDbEntity
  8
Capa 1
 62
     7
420
 16777215
370
     9
100
AcDb2dPolyline
 66
     1
 10
0.0
 20
0.0
 30
0.0
  0
VERTEX
  5
372
330
371
100
AcDbEntity
  8
Capa 1
 62
     7
420
 16777215
370
     9
100
AcDbVertex
100
AcDb2dVertex
 10
161.6183760318432
 20
144.564373859716
 30
0.0
  0
VERTEX
  5
373
330
371
100
AcDbEntity
  8
Capa 1
 62
     7
420
 16777215
370
     9
100
AcDbVertex
100
AcDb2dVertex
 10
161.6183760318432
 20
146.0566277350754
 30
0.0
  0
SEQEND
  5
374
330
371
100
AcDbEntity
  8
Capa 1
 62
     7
420
 16777215
370
     9
  0
POLYLINE
  5
375
330
1F
100
AcDbEntity
  8
Capa 1
 62
     7
420
 16777215
370
     9
100
AcDb2dPolyline
 66
     1
 10
0.0
 20
0.0
 30
0.0
  0
VERTEX
  5
376
330
375
100
AcDbEntity
  8
Capa 1
 62
     7
420
 16777215
370
     9
100
AcDbVertex
100
AcDb2dVertex
 10
161.6183760318432
 20
164.3446264385925
 30
0.0
  0
VERTEX
  5
377
330
375
100
AcDbEntity
  8
Capa 1
 62
     7
420
 16777215
370
     9
100
AcDbVertex
100
AcDb2dVertex
 10
161.6183760318432
 20
165.8051235314281
 30
0.0
  0
SEQEND
  5
378
330
375
100
AcDbEntity
  8
Capa 1
 62
     7
420
 16777215
370
     9
  0
POLYLINE
  5
379
330
1F
100
AcDbEntity
  8
Capa 1
 62
     7
420
 16777215
370
     9
100
AcDb2dPolyline
 66
     1
 10
0.0
 20
0.0
 30
0.0
  0
VERTEX
  5
37A
330
379
100
AcDbEntity
  8
Capa 1
 62
     7
420
 16777215
370
     9
100
AcDbVertex
100
AcDb2dVertex
 10
182.2241111697175
 20
203.7146151245305
 30
0.0
  0
VERTEX
  5
37B
330
379
100
AcDbEntity
  8
Capa 1
 62
     7
420
 16777215
370
     9
100
AcDbVertex
100
AcDb2dVertex
 10
182.2241111697175
 20
177.8383683607765
 30
0.0
  0
SEQEND
  5
37C
330
379
100
AcDbEntity
  8
Capa 1
 62
     7
420
 16777215
370
     9
  0
POLYLINE
  5
37D
330
1F
100
AcDbEntity
  8
Capa 1
 62
     7
420
 16777215
370
     9
100
AcDb2dPolyline
 66
     1
 10
0.0
 20
0.0
 30
0.0
  0
VERTEX
  5
37E
330
37D
100
AcDbEntity
  8
Capa 1
 62
     7
420
 16777215
370
     9
100
AcDbVertex
100
AcDb2dVertex
 10
182.2241111697175
 20
147.5171248279109
 30
0.0
  0
VERTEX
  5
37F
330
37D
100
AcDbEntity
  8
Capa 1
 62
     7
420
 16777215
370
     9
100
AcDbVertex
100
AcDb2dVertex
 10
182.2241111697175
 20
174.0918754672226
 30
0.0
  0
SEQEND
  5
380
330
37D
100
AcDbEntity
  8
Capa 1
 62
     7
420
 16777215
370
     9
  0
POLYLINE
  5
381
330
1F
100
AcDbEntity
  8
Capa 1
 62
     7
420
 16777215
370
     9
100
AcDb2dPolyline
 66
     1
 10
0.0
 20
0.0
 30
0.0
  0
VERTEX
  5
382
330
381
100
AcDbEntity
  8
Capa 1
 62
     7
420
 16777215
370
     9
100
AcDbVertex
100
AcDb2dVertex
 10
162.7613698949812
 20
205.0798741675648
 30
0.0
  0
VERTEX
  5
383
330
381
100
AcDbEntity
  8
Capa 1
 62
     7
420
 16777215
370
     9
100
AcDbVertex
100
AcDb2dVertex
 10
182.9861124614378
 20
205.0798741675648
 30
0.0
  0
SEQEND
  5
384
330
381
100
AcDbEntity
  8
Capa 1
 62
     7
420
 16777215
370
     9
  0
POLYLINE
  5
385
330
1F
100
AcDbEntity
  8
Capa 1
 62
     7
420
 16777215
370
     9
100
AcDb2dPolyline
 66
     1
 10
0.0
 20
0.0
 30
0.0
  0
VERTEX
  5
386
330
385
100
AcDbEntity
  8
Capa 1
 62
     7
420
 16777215
370
     9
100
AcDbVertex
100
AcDb2dVertex
 10
170.9846244146132
 20
146.1518738593191
 30
0.0
  0
VERTEX
  5
387
330
385
100
AcDbEntity
  8
Capa 1
 62
     7
420
 16777215
370
     9
100
AcDbVertex
100
AcDb2dVertex
 10
182.9861124614378
 20
146.1518738593191
 30
0.0
  0
SEQEND
  5
388
330
385
100
AcDbEntity
  8
Capa 1
 62
     7
420
 16777215
370
     9
  0
POLYLINE
  5
389
330
1F
100
AcDbEntity
  8
Capa 1
370
     0
100
AcDb2dPolyline
 66
     1
 10
0.0
 20
0.0
 30
0.0
  0
VERTEX
  5
38A
330
389
100
AcDbEntity
  8
Capa 1
370
     0
100
AcDbVertex
100
AcDb2dVertex
 10
182.0018702131487
 20
147.5171248279109
 30
0.0
  0
VERTEX
  5
38B
330
389
100
AcDbEntity
  8
Capa 1
370
     0
100
AcDbVertex
100
AcDb2dVertex
 10
182.4463682751714
 20
147.5171248279109
 30
0.0
  0
VERTEX
  5
38C
330
389
100
AcDbEntity
  8
Capa 1
370
     0
100
AcDbVertex
100
AcDb2dVertex
 10
182.2241111697175
 20
146.1518738593191
 30
0.0
  0
SEQEND
  5
38E
330
389
100
AcDbEntity
  8
Capa 1
370
     0
  0
HATCH
  5
38D
330
1F
100
AcDbEntity
  8
Capa 1
 62
     7
420
 16777215
100
AcDbHatch
 10
0.0
 20
0.0
 30
0.0
210
0.0
220
0.0
230
1.0
  2
SOLID
 70
     1
 71
     0
 91
        1
 92
        1
 93
        3
 72
     1
 10
182.0018702131487
 20
147.5171248279109
 11
182.4463682751714
 21
147.5171248279109
 72
     1
 10
182.4463682751714
 20
147.5171248279109
 11
182.2241111697175
 21
146.1518738593191
 72
     1
 10
182.2241111697175
 20
146.1518738593191
 11
182.0018702131487
 21
147.5171248279109
 97
        0
 75
     0
 76
     1
 98
        0
  0
POLYLINE
  5
38F
330
1F
100
AcDbEntity
  8
Capa 1
370
     0
100
AcDb2dPolyline
 66
     1
 10
0.0
 20
0.0
 30
0.0
  0
VERTEX
  5
390
330
38F
100
AcDbEntity
  8
Capa 1
370
     0
100
AcDbVertex
100
AcDb2dVertex
 10
182.0018702131487
 20
203.7146151245305
 30
0.0
  0
VERTEX
  5
391
330
38F
100
AcDbEntity
  8
Capa 1
370
     0
100
AcDbVertex
100
AcDb2dVertex
 10
182.4463682751714
 20
203.7146151245305
 30
0.0
  0
VERTEX
  5
392
330
38F
100
AcDbEntity
  8
Capa 1
370
     0
100
AcDbVertex
100
AcDb2dVertex
 10
182.2241111697175
 20
205.0798741675648
 30
0.0
  0
SEQEND
  5
394
330
38F
100
AcDbEntity
  8
Capa 1
370
     0
  0
HATCH
  5
393
330
1F
100
AcDbEntity
  8
Capa 1
 62
     7
420
 16777215
100
AcDbHatch
 10
0.0
 20
0.0
 30
0.0
210
0.0
220
0.0
230
1.0
  2
SOLID
 70
     1
 71
     0
 91
        1
 92
        1
 93
        3
 72
     1
 10
182.0018702131487
 20
203.7146151245305
 11
182.4463682751714
 21
203.7146151245305
 72
     1
 10
182.4463682751714
 20
203.7146151245305
 11
182.2241111697175
 21
205.0798741675648
 72
     1
 10
182.2241111697175
 20
205.0798741675648
 11
182.0018702131487
 21
203.7146151245305
 97
        0
 75
     0
 76
     1
 98
        0
  0
POLYLINE
  5
395
330
1F
100
AcDbEntity
  8
Capa 1
 62
     7
420
 16777215
370
     9
100
AcDb2dPolyline
 66
     1
 10
0.0
 20
0.0
 30
0.0
  0
VERTEX
  5
396
330
395
100
AcDbEntity
  8
Capa 1
 62
     7
420
 16777215
370
     9
100
AcDbVertex
100
AcDb2dVertex
 10
151.2678692518991
 20
161.1696264393863
 30
0.0
  0
VERTEX
  5
397
330
395
100
AcDbEntity
  8
Capa 1
 62
     7
420
 16777215
370
     9
100
AcDbVertex
100
AcDb2dVertex
 10
151.7441240964456
 20
161.1696264393863
 30
0.0
  0
SEQEND
  5
398
330
395
100
AcDbEntity
  8
Capa 1
 62
     7
420
 16777215
370
     9
  0
POLYLINE
  5
399
330
1F
100
AcDbEntity
  8
Capa 1
 62
     7
420
 16777215
370
     9
100
AcDb2dPolyline
 66
     1
 10
0.0
 20
0.0
 30
0.0
  0
VERTEX
  5
39A
330
399
100
AcDbEntity
  8
Capa 1
 62
     7
420
 16777215
370
     9
100
AcDbVertex
100
AcDb2dVertex
 10
149.1723737741108
 20
161.1696264393863
 30
0.0
  0
VERTEX
  5
39B
330
399
100
AcDbEntity
  8
Capa 1
 62
     7
420
 16777215
370
     9
100
AcDbVertex
100
AcDb2dVertex
 10
150.7916224817952
 20
161.1696264393863
 30
0.0
  0
SEQEND
  5
39C
330
399
100
AcDbEntity
  8
Capa 1
 62
     7
420
 16777215
370
     9
  0
POLYLINE
  5
39D
330
1F
100
AcDbEntity
  8
Capa 1
 62
     7
420
 16777215
370
     9
100
AcDb2dPolyline
 66
     1
 10
0.0
 20
0.0
 30
0.0
  0
VERTEX
  5
39E
330
39D
100
AcDbEntity
  8
Capa 1
 62
     7
420
 16777215
370
     9
100
AcDbVertex
100
AcDb2dVertex
 10
152.2203708665495
 20
161.1696264393863
 30
0.0
  0
VERTEX
  5
39F
330
39D
100
AcDbEntity
  8
Capa 1
 62
     7
420
 16777215
370
     9
100
AcDbVertex
100
AcDb2dVertex
 10
153.8396195742339
 20
161.1696264393863
 30
0.0
  0
SEQEND
  5
3A0
330
39D
100
AcDbEntity
  8
Capa 1
 62
     7
420
 16777215
370
     9
  0
POLYLINE
  5
3A1
330
1F
100
AcDbEntity
  8
Capa 1
 62
     7
420
 16777215
370
     9
100
AcDb2dPolyline
 66
     1
 10
0.0
 20
0.0
 30
0.0
  0
VERTEX
  5
3A2
330
3A1
100
AcDbEntity
  8
Capa 1
 62
     7
420
 16777215
370
     9
100
AcDbVertex
100
AcDb2dVertex
 10
152.6331202204909
 20
162.3761257931293
 30
0.0
  0
VERTEX
  5
3A3
330
3A1
100
AcDbEntity
  8
Capa 1
 62
     7
420
 16777215
370
     9
100
AcDbVertex
100
AcDb2dVertex
 10
152.6331202204909
 20
159.9631270856433
 30
0.0
  0
SEQEND
  5
3A4
330
3A1
100
AcDbEntity
  8
Capa 1
 62
     7
420
 16777215
370
     9
  0
POLYLINE
  5
3A5
330
1F
100
AcDbEntity
  8
Capa 1
 62
     7
420
 16777215
370
     9
100
AcDb2dPolyline
 66
     1
 10
0.0
 20
0.0
 30
0.0
  0
VERTEX
  5
3A6
330
3A5
100
AcDbEntity
  8
Capa 1
 62
     7
420
 16777215
370
     9
100
AcDbVertex
100
AcDb2dVertex
 10
153.2046211892811
 20
161.1696264393863
 30
0.0
  0
VERTEX
  5
3A7
330
3A5
100
AcDbEntity
  8
Capa 1
 62
     7
420
 16777215
370
     9
100
AcDbVertex
100
AcDb2dVertex
 10
153.1411237731186
 20
161.3918754703976
 30
0.0
  0
VERTEX
  5
3A8
330
3A5
100
AcDbEntity
  8
Capa 1
 62
     7
420
 16777215
370
     9
100
AcDbVertex
100
AcDb2dVertex
 10
153.0141208663511
 20
161.5506270852464
 30
0.0
  0
VERTEX
  5
3A9
330
3A5
100
AcDbEntity
  8
Capa 1
 62
     7
420
 16777215
370
     9
100
AcDbVertex
100
AcDb2dVertex
 10
153.0141208663511
 20
161.5823757933277
 30
0.0
  0
SEQEND
  5
3AA
330
3A5
100
AcDbEntity
  8
Capa 1
 62
     7
420
 16777215
370
     9
  0
POLYLINE
  5
3AB
330
1F
100
AcDbEntity
  8
Capa 1
 62
     7
420
 16777215
370
     9
100
AcDb2dPolyline
 66
     1
 10
0.0
 20
0.0
 30
0.0
  0
VERTEX
  5
3AC
330
3AB
100
AcDbEntity
  8
Capa 1
 62
     7
420
 16777215
370
     9
100
AcDbVertex
100
AcDb2dVertex
 10
152.7918718353397
 20
161.7093787000953
 30
0.0
  0
VERTEX
  5
3AD
330
3AB
100
AcDbEntity
  8
Capa 1
 62
     7
420
 16777215
370
     9
100
AcDbVertex
100
AcDb2dVertex
 10
152.6331202204909
 20
161.7411274081765
 30
0.0
  0
VERTEX
  5
3AE
330
3AB
100
AcDbEntity
  8
Capa 1
 62
     7
420
 16777215
370
     9
100
AcDbVertex
100
AcDb2dVertex
 10
152.4108711894796
 20
161.677629992014
 30
0.0
  0
VERTEX
  5
3AF
330
3AB
100
AcDbEntity
  8
Capa 1
 62
     7
420
 16777215
370
     9
100
AcDbVertex
100
AcDb2dVertex
 10
152.3473737733171
 20
161.6458732094902
 30
0.0
  0
SEQEND
  5
3B0
330
3AB
100
AcDbEntity
  8
Capa 1
 62
     7
420
 16777215
370
     9
  0
POLYLINE
  5
3B1
330
1F
100
AcDbEntity
  8
Capa 1
 62
     7
420
 16777215
370
     9
100
AcDb2dPolyline
 66
     1
 10
0.0
 20
0.0
 30
0.0
  0
VERTEX
  5
3B2
330
3B1
100
AcDbEntity
  8
Capa 1
 62
     7
420
 16777215
370
     9
100
AcDbVertex
100
AcDb2dVertex
 10
152.1886221584683
 20
161.4871296690839
 30
0.0
  0
VERTEX
  5
3B3
330
3B1
100
AcDbEntity
  8
Capa 1
 62
     7
420
 16777215
370
     9
100
AcDbVertex
100
AcDb2dVertex
 10
152.0933760342245
 20
161.3918754703976
 30
0.0
  0
VERTEX
  5
3B4
330
3B1
100
AcDbEntity
  8
Capa 1
 62
     7
420
 16777215
370
     9
100
AcDbVertex
100
AcDb2dVertex
 10
152.0616192517007
 20
161.1696264393863
 30
0.0
  0
VERTEX
  5
3B5
330
3B1
100
AcDbEntity
  8
Capa 1
 62
     7
420
 16777215
370
     9
100
AcDbVertex
100
AcDb2dVertex
 10
152.0933760342245
 20
161.0426235326187
 30
0.0
  0
SEQEND
  5
3B6
330
3B1
100
AcDbEntity
  8
Capa 1
 62
     7
420
 16777215
370
     9
  0
POLYLINE
  5
3B7
330
1F
100
AcDbEntity
  8
Capa 1
 62
     7
420
 16777215
370
     9
100
AcDb2dPolyline
 66
     1
 10
0.0
 20
0.0
 30
0.0
  0
VERTEX
  5
3B8
330
3B7
100
AcDbEntity
  8
Capa 1
 62
     7
420
 16777215
370
     9
100
AcDbVertex
100
AcDb2dVertex
 10
152.1886221584683
 20
160.8521232096886
 30
0.0
  0
VERTEX
  5
3B9
330
3B7
100
AcDbEntity
  8
Capa 1
 62
     7
420
 16777215
370
     9
100
AcDbVertex
100
AcDb2dVertex
 10
152.2203708665495
 20
160.7568770854449
 30
0.0
  0
VERTEX
  5
3BA
330
3B7
100
AcDbEntity
  8
Capa 1
 62
     7
420
 16777215
370
     9
100
AcDbVertex
100
AcDb2dVertex
 10
152.4108711894796
 20
160.6616309612011
 30
0.0
  0
VERTEX
  5
3BB
330
3B7
100
AcDbEntity
  8
Capa 1
 62
     7
420
 16777215
370
     9
100
AcDbVertex
100
AcDb2dVertex
 10
152.5696228043284
 20
160.6298741786773
 30
0.0
  0
SEQEND
  5
3BC
330
3B7
100
AcDbEntity
  8
Capa 1
 62
     7
420
 16777215
370
     9
  0
POLYLINE
  5
3BD
330
1F
100
AcDbEntity
  8
Capa 1
 62
     7
420
 16777215
370
     9
100
AcDb2dPolyline
 66
     1
 10
0.0
 20
0.0
 30
0.0
  0
VERTEX
  5
3BE
330
3BD
100
AcDbEntity
  8
Capa 1
 62
     7
420
 16777215
370
     9
100
AcDbVertex
100
AcDb2dVertex
 10
152.7918718353397
 20
160.6298741786773
 30
0.0
  0
VERTEX
  5
3BF
330
3BD
100
AcDbEntity
  8
Capa 1
 62
     7
420
 16777215
370
     9
100
AcDbVertex
100
AcDb2dVertex
 10
152.8553692515023
 20
160.6616309612011
 30
0.0
  0
VERTEX
  5
3C0
330
3BD
100
AcDbEntity
  8
Capa 1
 62
     7
420
 16777215
370
     9
100
AcDbVertex
100
AcDb2dVertex
 10
153.0141208663511
 20
160.7568770854449
 30
0.0
  0
VERTEX
  5
3C1
330
3BD
100
AcDbEntity
  8
Capa 1
 62
     7
420
 16777215
370
     9
100
AcDbVertex
100
AcDb2dVertex
 10
153.1411237731186
 20
160.947377408375
 30
0.0
  0
SEQEND
  5
3C2
330
3BD
100
AcDbEntity
  8
Capa 1
 62
     7
420
 16777215
370
     9
  0
POLYLINE
  5
3C3
330
1F
100
AcDbEntity
  8
Capa 1
 62
     7
420
 16777215
370
     9
100
AcDb2dPolyline
 66
     1
 10
0.0
 20
0.0
 30
0.0
  0
VERTEX
  5
3C4
330
3C3
100
AcDbEntity
  8
Capa 1
 62
     7
420
 16777215
370
     9
100
AcDbVertex
100
AcDb2dVertex
 10
153.2046211892811
 20
161.1696264393863
 30
0.0
  0
VERTEX
  5
3C5
330
3C3
100
AcDbEntity
  8
Capa 1
 62
     7
420
 16777215
370
     9
100
AcDbVertex
100
AcDb2dVertex
 10
153.2363698973624
 20
161.1696264393863
 30
0.0
  0
SEQEND
  5
3C6
330
3C3
100
AcDbEntity
  8
Capa 1
 62
     7
420
 16777215
370
     9
  0
POLYLINE
  5
3C7
330
1F
100
AcDbEntity
  8
Capa 1
 62
     7
420
 16777215
370
     9
100
AcDb2dPolyline
 66
     1
 10
0.0
 20
0.0
 30
0.0
  0
VERTEX
  5
3C8
330
3C7
100
AcDbEntity
  8
Capa 1
 62
     7
420
 16777215
370
     9
100
AcDbVertex
100
AcDb2dVertex
 10
152.6331202204909
 20
155.6768738569378
 30
0.0
  0
VERTEX
  5
3C9
330
3C7
100
AcDbEntity
  8
Capa 1
 62
     7
420
 16777215
370
     9
100
AcDbVertex
100
AcDb2dVertex
 10
153.8396195742339
 20
155.6768738569378
 30
0.0
  0
SEQEND
  5
3CA
330
3C7
100
AcDbEntity
  8
Capa 1
 62
     7
420
 16777215
370
     9
  0
POLYLINE
  5
3CB
330
1F
100
AcDbEntity
  8
Capa 1
 62
     7
420
 16777215
370
     9
100
AcDb2dPolyline
 66
     1
 10
0.0
 20
0.0
 30
0.0
  0
VERTEX
  5
3CC
330
3CB
100
AcDbEntity
  8
Capa 1
 62
     7
420
 16777215
370
     9
100
AcDbVertex
100
AcDb2dVertex
 10
161.6183760318432
 20
155.6768738569378
 30
0.0
  0
VERTEX
  5
3CD
330
3CB
100
AcDbEntity
  8
Capa 1
 62
     7
420
 16777215
370
     9
100
AcDbVertex
100
AcDb2dVertex
 10
159.7451215106237
 20
155.6768738569378
 30
0.0
  0
SEQEND
  5
3CE
330
3CB
100
AcDbEntity
  8
Capa 1
 62
     7
420
 16777215
370
     9
  0
POLYLINE
  5
3CF
330
1F
100
AcDbEntity
  8
Capa 1
 62
     7
420
 16777215
370
     9
100
AcDb2dPolyline
 66
     1
 10
0.0
 20
0.0
 30
0.0
  0
VERTEX
  5
3D0
330
3CF
100
AcDbEntity
  8
Capa 1
 62
     7
420
 16777215
370
     9
100
AcDbVertex
100
AcDb2dVertex
 10
151.2678692518991
 20
155.6768738569378
 30
0.0
  0
VERTEX
  5
3D1
330
3CF
100
AcDbEntity
  8
Capa 1
 62
     7
420
 16777215
370
     9
100
AcDbVertex
100
AcDb2dVertex
 10
149.9343750658311
 20
155.6768738569378
 30
0.0
  0
SEQEND
  5
3D2
330
3CF
100
AcDbEntity
  8
Capa 1
 62
     7
420
 16777215
370
     9
  0
POLYLINE
  5
3D3
330
1F
100
AcDbEntity
  8
Capa 1
 62
     7
420
 16777215
370
     9
100
AcDb2dPolyline
 66
     1
 10
0.0
 20
0.0
 30
0.0
  0
VERTEX
  5
3D4
330
3D3
100
AcDbEntity
  8
Capa 1
 62
     7
420
 16777215
370
     9
100
AcDbVertex
100
AcDb2dVertex
 10
162.9836189259925
 20
155.6768738569378
 30
0.0
  0
VERTEX
  5
3D5
330
3D3
100
AcDbEntity
  8
Capa 1
 62
     7
420
 16777215
370
     9
100
AcDbVertex
100
AcDb2dVertex
 10
164.317121186503
 20
155.6768738569378
 30
0.0
  0
SEQEND
  5
3D6
330
3D3
100
AcDbEntity
  8
Capa 1
 62
     7
420
 16777215
370
     9
  0
POLYLINE
  5
3D7
330
1F
100
AcDbEntity
  8
Capa 1
 62
     7
420
 16777215
370
     9
100
AcDb2dPolyline
 66
     1
 10
0.0
 20
0.0
 30
0.0
  0
VERTEX
  5
3D8
330
3D7
100
AcDbEntity
  8
Capa 1
 62
     7
420
 16777215
370
     9
100
AcDbVertex
100
AcDb2dVertex
 10
152.6331202204909
 20
159.4868803155394
 30
0.0
  0
VERTEX
  5
3D9
330
3D7
100
AcDbEntity
  8
Capa 1
 62
     7
420
 16777215
370
     9
100
AcDbVertex
100
AcDb2dVertex
 10
152.6331202204909
 20
154.9148806396601
 30
0.0
  0
SEQEND
  5
3DA
330
3D7
100
AcDbEntity
  8
Capa 1
 62
     7
420
 16777215
370
     9
  0
POLYLINE
  5
3DB
330
1F
100
AcDbEntity
  8
Capa 1
 62
     7
420
 16777215
370
     9
100
AcDb2dPolyline
 66
     1
 10
0.0
 20
0.0
 30
0.0
  0
VERTEX
  5
3DC
330
3DB
100
AcDbEntity
  8
Capa 1
 62
     7
420
 16777215
370
     9
100
AcDbVertex
100
AcDb2dVertex
 10
161.6183760318432
 20
157.0103761174484
 30
0.0
  0
VERTEX
  5
3DD
330
3DB
100
AcDbEntity
  8
Capa 1
 62
     7
420
 16777215
370
     9
100
AcDbVertex
100
AcDb2dVertex
 10
161.6183760318432
 20
154.9148806396601
 30
0.0
  0
SEQEND
  5
3DE
330
3DB
100
AcDbEntity
  8
Capa 1
 62
     7
420
 16777215
370
     9
  0
POLYLINE
  5
3DF
330
1F
100
AcDbEntity
  8
Capa 1
370
     0
100
AcDb2dPolyline
 66
     1
 10
0.0
 20
0.0
 30
0.0
  0
VERTEX
  5
3E0
330
3DF
100
AcDbEntity
  8
Capa 1
370
     0
100
AcDbVertex
100
AcDb2dVertex
 10
162.9836189259925
 20
155.8991309623917
 30
0.0
  0
VERTEX
  5
3E1
330
3DF
100
AcDbEntity
  8
Capa 1
370
     0
100
AcDbVertex
100
AcDb2dVertex
 10
162.9836189259925
 20
155.4228761178453
 30
0.0
  0
VERTEX
  5
3E2
330
3DF
100
AcDbEntity
  8
Capa 1
370
     0
100
AcDbVertex
100
AcDb2dVertex
 10
161.6183760318432
 20
155.6768738569378
 30
0.0
  0
SEQEND
  5
3E4
330
3DF
100
AcDbEntity
  8
Capa 1
370
     0
  0
HATCH
  5
3E3
330
1F
100
AcDbEntity
  8
Capa 1
 62
     7
420
 16777215
100
AcDbHatch
 10
0.0
 20
0.0
 30
0.0
210
0.0
220
0.0
230
1.0
  2
SOLID
 70
     1
 71
     0
 91
        1
 92
        1
 93
        3
 72
     1
 10
162.9836189259925
 20
155.8991309623917
 11
162.9836189259925
 21
155.4228761178452
 72
     1
 10
162.9836189259925
 20
155.4228761178453
 11
161.6183760318432
 21
155.6768738569379
 72
     1
 10
161.6183760318432
 20
155.6768738569378
 11
162.9836189259925
 21
155.8991309623917
 97
        0
 75
     0
 76
     1
 98
        0
  0
POLYLINE
  5
3E5
330
1F
100
AcDbEntity
  8
Capa 1
370
     0
100
AcDb2dPolyline
 66
     1
 10
0.0
 20
0.0
 30
0.0
  0
VERTEX
  5
3E6
330
3E5
100
AcDbEntity
  8
Capa 1
370
     0
100
AcDbVertex
100
AcDb2dVertex
 10
151.2678692518991
 20
155.8991309623917
 30
0.0
  0
VERTEX
  5
3E7
330
3E5
100
AcDbEntity
  8
Capa 1
370
     0
100
AcDbVertex
100
AcDb2dVertex
 10
151.2678692518991
 20
155.4228761178453
 30
0.0
  0
VERTEX
  5
3E8
330
3E5
100
AcDbEntity
  8
Capa 1
370
     0
100
AcDbVertex
100
AcDb2dVertex
 10
152.6331202204909
 20
155.6768738569378
 30
0.0
  0
SEQEND
  5
3EA
330
3E5
100
AcDbEntity
  8
Capa 1
370
     0
  0
HATCH
  5
3E9
330
1F
100
AcDbEntity
  8
Capa 1
 62
     7
420
 16777215
100
AcDbHatch
 10
0.0
 20
0.0
 30
0.0
210
0.0
220
0.0
230
1.0
  2
SOLID
 70
     1
 71
     0
 91
        1
 92
        1
 93
        3
 72
     1
 10
151.2678692518991
 20
155.8991309623917
 11
151.2678692518991
 21
155.4228761178452
 72
     1
 10
151.2678692518991
 20
155.4228761178453
 11
152.6331202204909
 21
155.6768738569379
 72
     1
 10
152.6331202204909
 20
155.6768738569378
 11
151.2678692518991
 21
155.8991309623917
 97
        0
 75
     0
 76
     1
 98
        0
  0
POLYLINE
  5
3EB
330
1F
100
AcDbEntity
  8
Capa 1
 62
     7
420
 16777215
370
     9
100
AcDb2dPolyline
 66
     1
 10
0.0
 20
0.0
 30
0.0
  0
VERTEX
  5
3EC
330
3EB
100
AcDbEntity
  8
Capa 1
 62
     7
420
 16777215
370
     9
100
AcDbVertex
100
AcDb2dVertex
 10
146.7276263585436
 20
159.8043754707945
 30
0.0
  0
VERTEX
  5
3ED
330
3EB
100
AcDbEntity
  8
Capa 1
 62
     7
420
 16777215
370
     9
100
AcDbVertex
100
AcDb2dVertex
 10
146.7276263585436
 20
155.5498790246128
 30
0.0
  0
SEQEND
  5
3EE
330
3EB
100
AcDbEntity
  8
Capa 1
 62
     7
420
 16777215
370
     9
  0
POLYLINE
  5
3EF
330
1F
100
AcDbEntity
  8
Capa 1
 62
     7
420
 16777215
370
     9
100
AcDb2dPolyline
 66
     1
 10
0.0
 20
0.0
 30
0.0
  0
VERTEX
  5
3F0
330
3EF
100
AcDbEntity
  8
Capa 1
 62
     7
420
 16777215
370
     9
100
AcDbVertex
100
AcDb2dVertex
 10
146.7276263585436
 20
147.5171248279109
 30
0.0
  0
VERTEX
  5
3F1
330
3EF
100
AcDbEntity
  8
Capa 1
 62
     7
420
 16777215
370
     9
100
AcDbVertex
100
AcDb2dVertex
 10
146.7276263585436
 20
151.8033780566164
 30
0.0
  0
SEQEND
  5
3F2
330
3EF
100
AcDbEntity
  8
Capa 1
 62
     7
420
 16777215
370
     9
  0
POLYLINE
  5
3F3
330
1F
100
AcDbEntity
  8
Capa 1
 62
     7
420
 16777215
370
     9
100
AcDb2dPolyline
 66
     1
 10
0.0
 20
0.0
 30
0.0
  0
VERTEX
  5
3F4
330
3F3
100
AcDbEntity
  8
Capa 1
 62
     7
420
 16777215
370
     9
100
AcDbVertex
100
AcDb2dVertex
 10
148.0611205446116
 20
161.1696264393863
 30
0.0
  0
VERTEX
  5
3F5
330
3F3
100
AcDbEntity
  8
Capa 1
 62
     7
420
 16777215
370
     9
100
AcDbVertex
100
AcDb2dVertex
 10
145.9656250668233
 20
161.1696264393863
 30
0.0
  0
SEQEND
  5
3F6
330
3F3
100
AcDbEntity
  8
Capa 1
 62
     7
420
 16777215
370
     9
  0
POLYLINE
  5
3F7
330
1F
100
AcDbEntity
  8
Capa 1
 62
     7
420
 16777215
370
     9
100
AcDb2dPolyline
 66
     1
 10
0.0
 20
0.0
 30
0.0
  0
VERTEX
  5
3F8
330
3F7
100
AcDbEntity
  8
Capa 1
 62
     7
420
 16777215
370
     9
100
AcDbVertex
100
AcDb2dVertex
 10
152.2521195746308
 20
146.1518738593191
 30
0.0
  0
VERTEX
  5
3F9
330
3F7
100
AcDbEntity
  8
Capa 1
 62
     7
420
 16777215
370
     9
100
AcDbVertex
100
AcDb2dVertex
 10
145.9656250668233
 20
146.1518738593191
 30
0.0
  0
SEQEND
  5
3FA
330
3F7
100
AcDbEntity
  8
Capa 1
 62
     7
420
 16777215
370
     9
  0
POLYLINE
  5
3FB
330
1F
100
AcDbEntity
  8
Capa 1
370
     0
100
AcDb2dPolyline
 66
     1
 10
0.0
 20
0.0
 30
0.0
  0
VERTEX
  5
3FC
330
3FB
100
AcDbEntity
  8
Capa 1
370
     0
100
AcDbVertex
100
AcDb2dVertex
 10
146.5053692530898
 20
147.5171248279109
 30
0.0
  0
VERTEX
  5
3FD
330
3FB
100
AcDbEntity
  8
Capa 1
370
     0
100
AcDbVertex
100
AcDb2dVertex
 10
146.949875389555
 20
147.5171248279109
 30
0.0
  0
VERTEX
  5
3FE
330
3FB
100
AcDbEntity
  8
Capa 1
370
     0
100
AcDbVertex
100
AcDb2dVertex
 10
146.7276263585436
 20
146.1518738593191
 30
0.0
  0
SEQEND
  5
400
330
3FB
100
AcDbEntity
  8
Capa 1
370
     0
  0
HATCH
  5
3FF
330
1F
100
AcDbEntity
  8
Capa 1
 62
     7
420
 16777215
100
AcDbHatch
 10
0.0
 20
0.0
 30
0.0
210
0.0
220
0.0
230
1.0
  2
SOLID
 70
     1
 71
     0
 91
        1
 92
        1
 93
        3
 72
     1
 10
146.5053692530898
 20
147.5171248279109
 11
146.949875389555
 21
147.5171248279109
 72
     1
 10
146.949875389555
 20
147.5171248279109
 11
146.7276263585436
 21
146.1518738593191
 72
     1
 10
146.7276263585436
 20
146.1518738593191
 11
146.5053692530898
 21
147.5171248279109
 97
        0
 75
     0
 76
     1
 98
        0
  0
POLYLINE
  5
401
330
1F
100
AcDbEntity
  8
Capa 1
370
     0
100
AcDb2dPolyline
 66
     1
 10
0.0
 20
0.0
 30
0.0
  0
VERTEX
  5
402
330
401
100
AcDbEntity
  8
Capa 1
370
     0
100
AcDbVertex
100
AcDb2dVertex
 10
146.5053692530898
 20
159.8043754707945
 30
0.0
  0
VERTEX
  5
403
330
401
100
AcDbEntity
  8
Capa 1
370
     0
100
AcDbVertex
100
AcDb2dVertex
 10
146.949875389555
 20
159.8043754707945
 30
0.0
  0
VERTEX
  5
404
330
401
100
AcDbEntity
  8
Capa 1
370
     0
100
AcDbVertex
100
AcDb2dVertex
 10
146.7276263585436
 20
161.1696264393863
 30
0.0
  0
SEQEND
  5
406
330
401
100
AcDbEntity
  8
Capa 1
370
     0
  0
HATCH
  5
405
330
1F
100
AcDbEntity
  8
Capa 1
 62
     7
420
 16777215
100
AcDbHatch
 10
0.0
 20
0.0
 30
0.0
210
0.0
220
0.0
230
1.0
  2
SOLID
 70
     1
 71
     0
 91
        1
 92
        1
 93
        3
 72
     1
 10
146.5053692530898
 20
159.8043754707945
 11
146.949875389555
 21
159.8043754707945
 72
     1
 10
146.949875389555
 20
159.8043754707945
 11
146.7276263585436
 21
161.1696264393863
 72
     1
 10
146.7276263585436
 20
161.1696264393863
 11
146.5053692530898
 21
159.8043754707945
 97
        0
 75
     0
 76
     1
 98
        0
  0
POLYLINE
  5
407
330
1F
100
AcDbEntity
  8
Capa 1
 62
     7
420
 16777215
370
     9
100
AcDb2dPolyline
 66
     1
 10
0.0
 20
0.0
 30
0.0
  0
VERTEX
  5
408
330
407
100
AcDbEntity
  8
Capa 1
 62
     7
420
 16777215
370
     9
100
AcDbVertex
100
AcDb2dVertex
 10
168.5398689246034
 20
140.9766245065683
 30
0.0
  0
VERTEX
  5
409
330
407
100
AcDbEntity
  8
Capa 1
 62
     7
420
 16777215
370
     9
100
AcDbVertex
100
AcDb2dVertex
 10
164.6663731242819
 20
140.9766245065683
 30
0.0
  0
SEQEND
  5
40A
330
407
100
AcDbEntity
  8
Capa 1
 62
     7
420
 16777215
370
     9
  0
POLYLINE
  5
40B
330
1F
100
AcDbEntity
  8
Capa 1
 62
     7
420
 16777215
370
     9
100
AcDb2dPolyline
 66
     1
 10
0.0
 20
0.0
 30
0.0
  0
VERTEX
  5
40C
330
40B
100
AcDbEntity
  8
Capa 1
 62
     7
420
 16777215
370
     9
100
AcDbVertex
100
AcDb2dVertex
 10
154.7286237727218
 20
140.9766245065683
 30
0.0
  0
VERTEX
  5
40D
330
40B
100
AcDbEntity
  8
Capa 1
 62
     7
420
 16777215
370
     9
100
AcDbVertex
100
AcDb2dVertex
 10
158.570370864962
 20
140.9766245065683
 30
0.0
  0
SEQEND
  5
40E
330
40B
100
AcDbEntity
  8
Capa 1
 62
     7
420
 16777215
370
     9
  0
POLYLINE
  5
40F
330
1F
100
AcDbEntity
  8
Capa 1
 62
     7
420
 16777215
370
     9
100
AcDb2dPolyline
 66
     1
 10
0.0
 20
0.0
 30
0.0
  0
VERTEX
  5
410
330
40F
100
AcDbEntity
  8
Capa 1
 62
     7
420
 16777215
370
     9
100
AcDbVertex
100
AcDb2dVertex
 10
169.873371185114
 20
145.0406287042624
 30
0.0
  0
VERTEX
  5
411
330
40F
100
AcDbEntity
  8
Capa 1
 62
     7
420
 16777215
370
     9
100
AcDbVertex
100
AcDb2dVertex
 10
169.873371185114
 20
140.2146312892906
 30
0.0
  0
SEQEND
  5
412
330
40F
100
AcDbEntity
  8
Capa 1
 62
     7
420
 16777215
370
     9
  0
POLYLINE
  5
413
330
1F
100
AcDbEntity
  8
Capa 1
 62
     7
420
 16777215
370
     9
100
AcDb2dPolyline
 66
     1
 10
0.0
 20
0.0
 30
0.0
  0
VERTEX
  5
414
330
413
100
AcDbEntity
  8
Capa 1
 62
     7
420
 16777215
370
     9
100
AcDbVertex
100
AcDb2dVertex
 10
153.36337280413
 20
145.0406287042624
 30
0.0
  0
VERTEX
  5
415
330
413
100
AcDbEntity
  8
Capa 1
 62
     7
420
 16777215
370
     9
100
AcDbVertex
100
AcDb2dVertex
 10
153.36337280413
 20
140.2146312892906
 30
0.0
  0
SEQEND
  5
416
330
413
100
AcDbEntity
  8
Capa 1
 62
     7
420
 16777215
370
     9
  0
POLYLINE
  5
417
330
1F
100
AcDbEntity
  8
Capa 1
370
     0
100
AcDb2dPolyline
 66
     1
 10
0.0
 20
0.0
 30
0.0
  0
VERTEX
  5
418
330
417
100
AcDbEntity
  8
Capa 1
370
     0
100
AcDbVertex
100
AcDb2dVertex
 10
154.7286237727218
 20
141.1988735375797
 30
0.0
  0
VERTEX
  5
419
330
417
100
AcDbEntity
  8
Capa 1
370
     0
100
AcDbVertex
100
AcDb2dVertex
 10
154.7286237727218
 20
140.754375475557
 30
0.0
  0
VERTEX
  5
41A
330
417
100
AcDbEntity
  8
Capa 1
370
     0
100
AcDbVertex
100
AcDb2dVertex
 10
153.36337280413
 20
140.9766245065683
 30
0.0
  0
SEQEND
  5
41C
330
417
100
AcDbEntity
  8
Capa 1
370
     0
  0
HATCH
  5
41B
330
1F
100
AcDbEntity
  8
Capa 1
 62
     7
420
 16777215
100
AcDbHatch
 10
0.0
 20
0.0
 30
0.0
210
0.0
220
0.0
230
1.0
  2
SOLID
 70
     1
 71
     0
 91
        1
 92
        1
 93
        3
 72
     1
 10
154.7286237727218
 20
141.1988735375797
 11
154.7286237727218
 21
140.754375475557
 72
     1
 10
154.7286237727218
 20
140.754375475557
 11
153.36337280413
 21
140.9766245065683
 72
     1
 10
153.36337280413
 20
140.9766245065683
 11
154.7286237727218
 21
141.1988735375797
 97
        0
 75
     0
 76
     1
 98
        0
  0
POLYLINE
  5
41D
330
1F
100
AcDbEntity
  8
Capa 1
370
     0
100
AcDb2dPolyline
 66
     1
 10
0.0
 20
0.0
 30
0.0
  0
VERTEX
  5
41E
330
41D
100
AcDbEntity
  8
Capa 1
370
     0
100
AcDbVertex
100
AcDb2dVertex
 10
168.5398689246034
 20
141.1988735375797
 30
0.0
  0
VERTEX
  5
41F
330
41D
100
AcDbEntity
  8
Capa 1
370
     0
100
AcDbVertex
100
AcDb2dVertex
 10
168.5398689246034
 20
140.754375475557
 30
0.0
  0
VERTEX
  5
420
330
41D
100
AcDbEntity
  8
Capa 1
370
     0
100
AcDbVertex
100
AcDb2dVertex
 10
169.873371185114
 20
140.9766245065683
 30
0.0
  0
SEQEND
  5
422
330
41D
100
AcDbEntity
  8
Capa 1
370
     0
  0
HATCH
  5
421
330
1F
100
AcDbEntity
  8
Capa 1
 62
     7
420
 16777215
100
AcDbHatch
 10
0.0
 20
0.0
 30
0.0
210
0.0
220
0.0
230
1.0
  2
SOLID
 70
     1
 71
     0
 91
        1
 92
        1
 93
        3
 72
     1
 10
168.5398689246034
 20
141.1988735375797
 11
168.5398689246034
 21
140.754375475557
 72
     1
 10
168.5398689246034
 20
140.754375475557
 11
169.8733711851139
 21
140.9766245065683
 72
     1
 10
169.873371185114
 20
140.9766245065683
 11
168.5398689246034
 21
141.1988735375797
 97
        0
 75
     0
 76
     1
 98
        0
  0
POLYLINE
  5
423
330
1F
100
AcDbEntity
  8
Capa 1
 62
     7
420
 16777215
370
     9
100
AcDb2dPolyline
 66
     1
 10
0.0
 20
0.0
 30
0.0
  0
VERTEX
  5
424
330
423
100
AcDbEntity
  8
Capa 1
 62
     7
420
 16777215
370
     9
100
AcDbVertex
100
AcDb2dVertex
 10
72.18920938753385
 20
133.7693770921917
 30
0.0
  0
VERTEX
  5
425
330
423
100
AcDbEntity
  8
Capa 1
 62
     7
420
 16777215
370
     9
100
AcDbVertex
100
AcDb2dVertex
 10
68.28396084190983
 20
133.7693770921917
 30
0.0
  0
SEQEND
  5
426
330
423
100
AcDbEntity
  8
Capa 1
 62
     7
420
 16777215
370
     9
  0
POLYLINE
  5
427
330
1F
100
AcDbEntity
  8
Capa 1
 62
     7
420
 16777215
370
     9
100
AcDb2dPolyline
 66
     1
 10
0.0
 20
0.0
 30
0.0
  0
VERTEX
  5
428
330
427
100
AcDbEntity
  8
Capa 1
 62
     7
420
 16777215
370
     9
100
AcDbVertex
100
AcDb2dVertex
 10
59.33046181308131
 20
133.7693770921917
 30
0.0
  0
VERTEX
  5
429
330
427
100
AcDbEntity
  8
Capa 1
 62
     7
420
 16777215
370
     9
100
AcDbVertex
100
AcDb2dVertex
 10
62.15620987450866
 20
133.7693770921917
 30
0.0
  0
SEQEND
  5
42A
330
427
100
AcDbEntity
  8
Capa 1
 62
     7
420
 16777215
370
     9
  0
POLYLINE
  5
42B
330
1F
100
AcDbEntity
  8
Capa 1
 62
     7
420
 16777215
370
     9
100
AcDb2dPolyline
 66
     1
 10
0.0
 20
0.0
 30
0.0
  0
VERTEX
  5
42C
330
42B
100
AcDbEntity
  8
Capa 1
 62
     7
420
 16777215
370
     9
100
AcDbVertex
100
AcDb2dVertex
 10
73.52270761082312
 20
137.1348774143281
 30
0.0
  0
VERTEX
  5
42D
330
42B
100
AcDbEntity
  8
Capa 1
 62
     7
420
 16777215
370
     9
100
AcDbVertex
100
AcDb2dVertex
 10
73.52270761082312
 20
133.0073758004714
 30
0.0
  0
SEQEND
  5
42E
330
42B
100
AcDbEntity
  8
Capa 1
 62
     7
420
 16777215
370
     9
  0
POLYLINE
  5
42F
330
1F
100
AcDbEntity
  8
Capa 1
 62
     7
420
 16777215
370
     9
100
AcDb2dPolyline
 66
     1
 10
0.0
 20
0.0
 30
0.0
  0
VERTEX
  5
430
330
42F
100
AcDbEntity
  8
Capa 1
 62
     7
420
 16777215
370
     9
100
AcDbVertex
100
AcDb2dVertex
 10
57.96521084448951
 20
201.6191196467422
 30
0.0
  0
VERTEX
  5
431
330
42F
100
AcDbEntity
  8
Capa 1
 62
     7
420
 16777215
370
     9
100
AcDbVertex
100
AcDb2dVertex
 10
57.96521084448951
 20
133.0073758004714
 30
0.0
  0
SEQEND
  5
432
330
42F
100
AcDbEntity
  8
Capa 1
 62
     7
420
 16777215
370
     9
  0
POLYLINE
  5
433
330
1F
100
AcDbEntity
  8
Capa 1
370
     0
100
AcDb2dPolyline
 66
     1
 10
0.0
 20
0.0
 30
0.0
  0
VERTEX
  5
434
330
433
100
AcDbEntity
  8
Capa 1
370
     0
100
AcDbVertex
100
AcDb2dVertex
 10
59.33046181308131
 20
133.9916261232031
 30
0.0
  0
VERTEX
  5
435
330
433
100
AcDbEntity
  8
Capa 1
370
     0
100
AcDbVertex
100
AcDb2dVertex
 10
59.33046181308131
 20
133.5471280611804
 30
0.0
  0
VERTEX
  5
436
330
433
100
AcDbEntity
  8
Capa 1
370
     0
100
AcDbVertex
100
AcDb2dVertex
 10
57.96521084448951
 20
133.7693770921917
 30
0.0
  0
SEQEND
  5
438
330
433
100
AcDbEntity
  8
Capa 1
370
     0
  0
HATCH
  5
437
330
1F
100
AcDbEntity
  8
Capa 1
 62
     7
420
 16777215
100
AcDbHatch
 10
0.0
 20
0.0
 30
0.0
210
0.0
220
0.0
230
1.0
  2
SOLID
 70
     1
 71
     0
 91
        1
 92
        1
 93
        3
 72
     1
 10
59.33046181308131
 20
133.9916261232031
 11
59.33046181308131
 21
133.5471280611804
 72
     1
 10
59.33046181308131
 20
133.5471280611804
 11
57.96521084448951
 21
133.7693770921917
 72
     1
 10
57.96521084448951
 20
133.7693770921917
 11
59.33046181308131
 21
133.9916261232031
 97
        0
 75
     0
 76
     1
 98
        0
  0
POLYLINE
  5
439
330
1F
100
AcDbEntity
  8
Capa 1
370
     0
100
AcDb2dPolyline
 66
     1
 10
0.0
 20
0.0
 30
0.0
  0
VERTEX
  5
43A
330
439
100
AcDbEntity
  8
Capa 1
370
     0
100
AcDbVertex
100
AcDb2dVertex
 10
72.18920938753385
 20
133.9916261232031
 30
0.0
  0
VERTEX
  5
43B
330
439
100
AcDbEntity
  8
Capa 1
370
     0
100
AcDbVertex
100
AcDb2dVertex
 10
72.18920938753385
 20
133.5471280611804
 30
0.0
  0
VERTEX
  5
43C
330
439
100
AcDbEntity
  8
Capa 1
370
     0
100
AcDbVertex
100
AcDb2dVertex
 10
73.52270761082312
 20
133.7693770921917
 30
0.0
  0
SEQEND
  5
43E
330
439
100
AcDbEntity
  8
Capa 1
370
     0
  0
HATCH
  5
43D
330
1F
100
AcDbEntity
  8
Capa 1
 62
     7
420
 16777215
100
AcDbHatch
 10
0.0
 20
0.0
 30
0.0
210
0.0
220
0.0
230
1.0
  2
SOLID
 70
     1
 71
     0
 91
        1
 92
        1
 93
        3
 72
     1
 10
72.18920938753385
 20
133.9916261232031
 11
72.18920938753385
 21
133.5471280611804
 72
     1
 10
72.18920938753385
 20
133.5471280611804
 11
73.52270761082312
 21
133.7693770921917
 72
     1
 10
73.52270761082312
 20
133.7693770921917
 11
72.18920938753385
 21
133.9916261232031
 97
        0
 75
     0
 76
     1
 98
        0
  0
POLYLINE
  5
43F
330
1F
100
AcDbEntity
  8
Capa 1
 62
     7
420
 16777215
370
     9
100
AcDb2dPolyline
 66
     1
 10
0.0
 20
0.0
 30
0.0
  0
VERTEX
  5
440
330
43F
100
AcDbEntity
  8
Capa 1
 62
     7
420
 16777215
370
     9
100
AcDbVertex
100
AcDb2dVertex
 10
69.64920777328035
 20
148.5331238587238
 30
0.0
  0
VERTEX
  5
441
330
43F
100
AcDbEntity
  8
Capa 1
 62
     7
420
 16777215
370
     9
100
AcDbVertex
100
AcDb2dVertex
 10
69.58571035711783
 20
149.3586306410492
 30
0.0
  0
SEQEND
  5
442
330
43F
100
AcDbEntity
  8
Capa 1
 62
     7
420
 16777215
370
     9
  0
POLYLINE
  5
443
330
1F
100
AcDbEntity
  8
Capa 1
 62
     7
420
 16777215
370
     9
100
AcDb2dPolyline
 66
     1
 10
0.0
 20
0.0
 30
0.0
  0
VERTEX
  5
444
330
443
100
AcDbEntity
  8
Capa 1
 62
     7
420
 16777215
370
     9
100
AcDbVertex
100
AcDb2dVertex
 10
69.71270922666413
 20
147.2948757968996
 30
0.0
  0
VERTEX
  5
445
330
443
100
AcDbEntity
  8
Capa 1
 62
     7
420
 16777215
370
     9
100
AcDbVertex
100
AcDb2dVertex
 10
69.68096051858288
 20
148.0886257967011
 30
0.0
  0
SEQEND
  5
446
330
443
100
AcDbEntity
  8
Capa 1
 62
     7
420
 16777215
370
     9
  0
POLYLINE
  5
447
330
1F
100
AcDbEntity
  8
Capa 1
 62
     7
420
 16777215
370
     9
100
AcDb2dPolyline
 66
     1
 10
0.0
 20
0.0
 30
0.0
  0
VERTEX
  5
448
330
447
100
AcDbEntity
  8
Capa 1
 62
     7
420
 16777215
370
     9
100
AcDbVertex
100
AcDb2dVertex
 10
69.58571035711783
 20
149.7713799949906
 30
0.0
  0
VERTEX
  5
449
330
447
100
AcDbEntity
  8
Capa 1
 62
     7
420
 16777215
370
     9
100
AcDbVertex
100
AcDb2dVertex
 10
69.52220890373405
 20
150.5651299947921
 30
0.0
  0
SEQEND
  5
44A
330
447
100
AcDbEntity
  8
Capa 1
 62
     7
420
 16777215
370
     9
  0
POLYLINE
  5
44B
330
1F
100
AcDbEntity
  8
Capa 1
 62
     7
420
 16777215
370
     9
100
AcDb2dPolyline
 66
     1
 10
0.0
 20
0.0
 30
0.0
  0
VERTEX
  5
44C
330
44B
100
AcDbEntity
  8
Capa 1
 62
     7
420
 16777215
370
     9
100
AcDbVertex
100
AcDb2dVertex
 10
77.42796019366843
 20
148.5331238587238
 30
0.0
  0
VERTEX
  5
44D
330
44B
100
AcDbEntity
  8
Capa 1
 62
     7
420
 16777215
370
     9
100
AcDbVertex
100
AcDb2dVertex
 10
77.45970890174968
 20
149.3586306410492
 30
0.0
  0
SEQEND
  5
44E
330
44B
100
AcDbEntity
  8
Capa 1
 62
     7
420
 16777215
370
     9
  0
POLYLINE
  5
44F
330
1F
100
AcDbEntity
  8
Capa 1
 62
     7
420
 16777215
370
     9
100
AcDb2dPolyline
 66
     1
 10
0.0
 20
0.0
 30
0.0
  0
VERTEX
  5
450
330
44F
100
AcDbEntity
  8
Capa 1
 62
     7
420
 16777215
370
     9
100
AcDbVertex
100
AcDb2dVertex
 10
77.36445874028465
 20
147.2948757968996
 30
0.0
  0
VERTEX
  5
451
330
44F
100
AcDbEntity
  8
Capa 1
 62
     7
420
 16777215
370
     9
100
AcDbVertex
100
AcDb2dVertex
 10
77.3962074483659
 20
148.0886257967011
 30
0.0
  0
SEQEND
  5
452
330
44F
100
AcDbEntity
  8
Capa 1
 62
     7
420
 16777215
370
     9
  0
POLYLINE
  5
453
330
1F
100
AcDbEntity
  8
Capa 1
 62
     7
420
 16777215
370
     9
100
AcDb2dPolyline
 66
     1
 10
0.0
 20
0.0
 30
0.0
  0
VERTEX
  5
454
330
453
100
AcDbEntity
  8
Capa 1
 62
     7
420
 16777215
370
     9
100
AcDbVertex
100
AcDb2dVertex
 10
77.49145760983093
 20
149.7713799949906
 30
0.0
  0
VERTEX
  5
455
330
453
100
AcDbEntity
  8
Capa 1
 62
     7
420
 16777215
370
     9
100
AcDbVertex
100
AcDb2dVertex
 10
77.52321035513346
 20
150.5651299947921
 30
0.0
  0
SEQEND
  5
456
330
453
100
AcDbEntity
  8
Capa 1
 62
     7
420
 16777215
370
     9
  0
POLYLINE
  5
457
330
1F
100
AcDbEntity
  8
Capa 1
 62
     7
420
 16777215
370
     9
100
AcDb2dPolyline
 66
     1
 10
0.0
 20
0.0
 30
0.0
  0
VERTEX
  5
458
330
457
100
AcDbEntity
  8
Capa 1
 62
     7
420
 16777215
370
     9
100
AcDbVertex
100
AcDb2dVertex
 10
73.52270761082312
 20
152.6288767644992
 30
0.0
  0
VERTEX
  5
459
330
457
100
AcDbEntity
  8
Capa 1
 62
     7
420
 16777215
370
     9
100
AcDbVertex
100
AcDb2dVertex
 10
73.52270761082312
 20
152.6923741806617
 30
0.0
  0
SEQEND
  5
45A
330
457
100
AcDbEntity
  8
Capa 1
 62
     7
420
 16777215
370
     9
  0
POLYLINE
  5
45B
330
1F
100
AcDbEntity
  8
Capa 1
 62
     7
420
 16777215
370
     9
100
AcDb2dPolyline
 66
     1
 10
0.0
 20
0.0
 30
0.0
  0
VERTEX
  5
45C
330
45B
100
AcDbEntity
  8
Capa 1
 62
     7
420
 16777215
370
     9
100
AcDbVertex
100
AcDb2dVertex
 10
73.52270761082312
 20
152.3113735348015
 30
0.0
  0
VERTEX
  5
45D
330
45B
100
AcDbEntity
  8
Capa 1
 62
     7
420
 16777215
370
     9
100
AcDbVertex
100
AcDb2dVertex
 10
73.52270761082312
 20
152.5971280564179
 30
0.0
  0
SEQEND
  5
45E
330
45B
100
AcDbEntity
  8
Capa 1
 62
     7
420
 16777215
370
     9
  0
POLYLINE
  5
45F
330
1F
100
AcDbEntity
  8
Capa 1
 62
     7
420
 16777215
370
     9
100
AcDb2dPolyline
 66
     1
 10
0.0
 20
0.0
 30
0.0
  0
VERTEX
  5
460
330
45F
100
AcDbEntity
  8
Capa 1
 62
     7
420
 16777215
370
     9
100
AcDbVertex
100
AcDb2dVertex
 10
73.52270761082312
 20
152.2161274105578
 30
0.0
  0
VERTEX
  5
461
330
45F
100
AcDbEntity
  8
Capa 1
 62
     7
420
 16777215
370
     9
100
AcDbVertex
100
AcDb2dVertex
 10
73.52270761082312
 20
152.247876118639
 30
0.0
  0
SEQEND
  5
462
330
45F
100
AcDbEntity
  8
Capa 1
 62
     7
420
 16777215
370
     9
  0
POLYLINE
  5
463
330
1F
100
AcDbEntity
  8
Capa 1
 62
     7
420
 16777215
370
     9
100
AcDb2dPolyline
 66
     1
 10
0.0
 20
0.0
 30
0.0
  0
VERTEX
  5
464
330
463
100
AcDbEntity
  8
Capa 1
 62
     7
420
 16777215
370
     9
100
AcDbVertex
100
AcDb2dVertex
 10
73.52270761082312
 20
151.8986241808601
 30
0.0
  0
VERTEX
  5
465
330
463
100
AcDbEntity
  8
Capa 1
 62
     7
420
 16777215
370
     9
100
AcDbVertex
100
AcDb2dVertex
 10
73.52270761082312
 20
152.1843787024765
 30
0.0
  0
SEQEND
  5
466
330
463
100
AcDbEntity
  8
Capa 1
 62
     7
420
 16777215
370
     9
  0
POLYLINE
  5
467
330
1F
100
AcDbEntity
  8
Capa 1
 62
     7
420
 16777215
370
     9
100
AcDb2dPolyline
 66
     1
 10
0.0
 20
0.0
 30
0.0
  0
VERTEX
  5
468
330
467
100
AcDbEntity
  8
Capa 1
 62
     7
420
 16777215
370
     9
100
AcDbVertex
100
AcDb2dVertex
 10
73.52270761082312
 20
151.8033780566164
 30
0.0
  0
VERTEX
  5
469
330
467
100
AcDbEntity
  8
Capa 1
 62
     7
420
 16777215
370
     9
100
AcDbVertex
100
AcDb2dVertex
 10
73.52270761082312
 20
151.8351267646976
 30
0.0
  0
SEQEND
  5
46A
330
467
100
AcDbEntity
  8
Capa 1
 62
     7
420
 16777215
370
     9
  0
POLYLINE
  5
46B
330
1F
100
AcDbEntity
  8
Capa 1
 62
     7
420
 16777215
370
     9
100
AcDb2dPolyline
 66
     1
 10
0.0
 20
0.0
 30
0.0
  0
VERTEX
  5
46C
330
46B
100
AcDbEntity
  8
Capa 1
 62
     7
420
 16777215
370
     9
100
AcDbVertex
100
AcDb2dVertex
 10
73.52270761082312
 20
151.4541261188375
 30
0.0
  0
VERTEX
  5
46D
330
46B
100
AcDbEntity
  8
Capa 1
 62
     7
420
 16777215
370
     9
100
AcDbVertex
100
AcDb2dVertex
 10
73.52270761082312
 20
151.7398806404538
 30
0.0
  0
SEQEND
  5
46E
330
46B
100
AcDbEntity
  8
Capa 1
 62
     7
420
 16777215
370
     9
  0
POLYLINE
  5
46F
330
1F
100
AcDbEntity
  8
Capa 1
 62
     7
420
 16777215
370
     9
100
AcDb2dPolyline
 66
     1
 10
0.0
 20
0.0
 30
0.0
  0
VERTEX
  5
470
330
46F
100
AcDbEntity
  8
Capa 1
 62
     7
420
 16777215
370
     9
100
AcDbVertex
100
AcDb2dVertex
 10
73.52270761082312
 20
151.3588799945937
 30
0.0
  0
VERTEX
  5
471
330
46F
100
AcDbEntity
  8
Capa 1
 62
     7
420
 16777215
370
     9
100
AcDbVertex
100
AcDb2dVertex
 10
73.52270761082312
 20
151.4223774107562
 30
0.0
  0
SEQEND
  5
472
330
46F
100
AcDbEntity
  8
Capa 1
 62
     7
420
 16777215
370
     9
  0
POLYLINE
  5
473
330
1F
100
AcDbEntity
  8
Capa 1
 62
     7
420
 16777215
370
     9
100
AcDb2dPolyline
 66
     1
 10
0.0
 20
0.0
 30
0.0
  0
VERTEX
  5
474
330
473
100
AcDbEntity
  8
Capa 1
 62
     7
420
 16777215
370
     9
100
AcDbVertex
100
AcDb2dVertex
 10
73.52270761082312
 20
151.0413767648961
 30
0.0
  0
VERTEX
  5
475
330
473
100
AcDbEntity
  8
Capa 1
 62
     7
420
 16777215
370
     9
100
AcDbVertex
100
AcDb2dVertex
 10
73.52270761082312
 20
151.3271312865124
 30
0.0
  0
SEQEND
  5
476
330
473
100
AcDbEntity
  8
Capa 1
 62
     7
420
 16777215
370
     9
  0
POLYLINE
  5
477
330
1F
100
AcDbEntity
  8
Capa 1
 62
     7
420
 16777215
370
     9
100
AcDb2dPolyline
 66
     1
 10
0.0
 20
0.0
 30
0.0
  0
VERTEX
  5
478
330
477
100
AcDbEntity
  8
Capa 1
 62
     7
420
 16777215
370
     9
100
AcDbVertex
100
AcDb2dVertex
 10
73.52270761082312
 20
150.9461306406523
 30
0.0
  0
VERTEX
  5
479
330
477
100
AcDbEntity
  8
Capa 1
 62
     7
420
 16777215
370
     9
100
AcDbVertex
100
AcDb2dVertex
 10
73.52270761082312
 20
151.0096280568148
 30
0.0
  0
SEQEND
  5
47A
330
477
100
AcDbEntity
  8
Capa 1
 62
     7
420
 16777215
370
     9
  0
POLYLINE
  5
47B
330
1F
100
AcDbEntity
  8
Capa 1
 62
     7
420
 16777215
370
     9
100
AcDb2dPolyline
 66
     1
 10
0.0
 20
0.0
 30
0.0
  0
VERTEX
  5
47C
330
47B
100
AcDbEntity
  8
Capa 1
 62
     7
420
 16777215
370
     9
100
AcDbVertex
100
AcDb2dVertex
 10
73.52270761082312
 20
150.6286274109546
 30
0.0
  0
VERTEX
  5
47D
330
47B
100
AcDbEntity
  8
Capa 1
 62
     7
420
 16777215
370
     9
100
AcDbVertex
100
AcDb2dVertex
 10
73.52270761082312
 20
150.9143738581285
 30
0.0
  0
SEQEND
  5
47E
330
47B
100
AcDbEntity
  8
Capa 1
 62
     7
420
 16777215
370
     9
  0
POLYLINE
  5
47F
330
1F
100
AcDbEntity
  8
Capa 1
 62
     7
420
 16777215
370
     9
100
AcDb2dPolyline
 66
     1
 10
0.0
 20
0.0
 30
0.0
  0
VERTEX
  5
480
330
47F
100
AcDbEntity
  8
Capa 1
 62
     7
420
 16777215
370
     9
100
AcDbVertex
100
AcDb2dVertex
 10
73.52270761082312
 20
150.5333812867109
 30
0.0
  0
VERTEX
  5
481
330
47F
100
AcDbEntity
  8
Capa 1
 62
     7
420
 16777215
370
     9
100
AcDbVertex
100
AcDb2dVertex
 10
73.52270761082312
 20
150.5651299947921
 30
0.0
  0
SEQEND
  5
482
330
47F
100
AcDbEntity
  8
Capa 1
 62
     7
420
 16777215
370
     9
  0
POLYLINE
  5
483
330
1F
100
AcDbEntity
  8
Capa 1
 62
     7
420
 16777215
370
     9
100
AcDb2dPolyline
 66
     1
 10
0.0
 20
0.0
 30
0.0
  0
VERTEX
  5
484
330
483
100
AcDbEntity
  8
Capa 1
 62
     7
420
 16777215
370
     9
100
AcDbVertex
100
AcDb2dVertex
 10
73.52270761082312
 20
150.2158780570132
 30
0.0
  0
VERTEX
  5
485
330
483
100
AcDbEntity
  8
Capa 1
 62
     7
420
 16777215
370
     9
100
AcDbVertex
100
AcDb2dVertex
 10
73.52270761082312
 20
150.4698757961058
 30
0.0
  0
SEQEND
  5
486
330
483
100
AcDbEntity
  8
Capa 1
 62
     7
420
 16777215
370
     9
  0
POLYLINE
  5
487
330
1F
100
AcDbEntity
  8
Capa 1
 62
     7
420
 16777215
370
     9
100
AcDb2dPolyline
 66
     1
 10
0.0
 20
0.0
 30
0.0
  0
VERTEX
  5
488
330
487
100
AcDbEntity
  8
Capa 1
 62
     7
420
 16777215
370
     9
100
AcDbVertex
100
AcDb2dVertex
 10
73.52270761082312
 20
150.1206238583269
 30
0.0
  0
VERTEX
  5
489
330
487
100
AcDbEntity
  8
Capa 1
 62
     7
420
 16777215
370
     9
100
AcDbVertex
100
AcDb2dVertex
 10
73.52270761082312
 20
150.1523806408507
 30
0.0
  0
SEQEND
  5
48A
330
487
100
AcDbEntity
  8
Capa 1
 62
     7
420
 16777215
370
     9
  0
POLYLINE
  5
48B
330
1F
100
AcDbEntity
  8
Capa 1
 62
     7
420
 16777215
370
     9
100
AcDb2dPolyline
 66
     1
 10
0.0
 20
0.0
 30
0.0
  0
VERTEX
  5
48C
330
48B
100
AcDbEntity
  8
Capa 1
 62
     7
420
 16777215
370
     9
100
AcDbVertex
100
AcDb2dVertex
 10
73.52270761082312
 20
149.7713799949906
 30
0.0
  0
VERTEX
  5
48D
330
48B
100
AcDbEntity
  8
Capa 1
 62
     7
420
 16777215
370
     9
100
AcDbVertex
100
AcDb2dVertex
 10
73.52270761082312
 20
150.0571264421644
 30
0.0
  0
SEQEND
  5
48E
330
48B
100
AcDbEntity
  8
Capa 1
 62
     7
420
 16777215
370
     9
  0
POLYLINE
  5
48F
330
1F
100
AcDbEntity
  8
Capa 1
 62
     7
420
 16777215
370
     9
100
AcDb2dPolyline
 66
     1
 10
0.0
 20
0.0
 30
0.0
  0
VERTEX
  5
490
330
48F
100
AcDbEntity
  8
Capa 1
 62
     7
420
 16777215
370
     9
100
AcDbVertex
100
AcDb2dVertex
 10
73.52270761082312
 20
149.6761257963043
 30
0.0
  0
VERTEX
  5
491
330
48F
100
AcDbEntity
  8
Capa 1
 62
     7
420
 16777215
370
     9
100
AcDbVertex
100
AcDb2dVertex
 10
73.52270761082312
 20
149.7396312869093
 30
0.0
  0
SEQEND
  5
492
330
48F
100
AcDbEntity
  8
Capa 1
 62
     7
420
 16777215
370
     9
  0
POLYLINE
  5
493
330
1F
100
AcDbEntity
  8
Capa 1
 62
     7
420
 16777215
370
     9
100
AcDb2dPolyline
 66
     1
 10
0.0
 20
0.0
 30
0.0
  0
VERTEX
  5
494
330
493
100
AcDbEntity
  8
Capa 1
 62
     7
420
 16777215
370
     9
100
AcDbVertex
100
AcDb2dVertex
 10
73.52270761082312
 20
149.3586306410492
 30
0.0
  0
VERTEX
  5
495
330
493
100
AcDbEntity
  8
Capa 1
 62
     7
420
 16777215
370
     9
100
AcDbVertex
100
AcDb2dVertex
 10
73.52270761082312
 20
149.644377088223
 30
0.0
  0
SEQEND
  5
496
330
493
100
AcDbEntity
  8
Capa 1
 62
     7
420
 16777215
370
     9
  0
POLYLINE
  5
497
330
1F
100
AcDbEntity
  8
Capa 1
 62
     7
420
 16777215
370
     9
100
AcDb2dPolyline
 66
     1
 10
0.0
 20
0.0
 30
0.0
  0
VERTEX
  5
498
330
497
100
AcDbEntity
  8
Capa 1
 62
     7
420
 16777215
370
     9
100
AcDbVertex
100
AcDb2dVertex
 10
73.52270761082312
 20
149.2633764423628
 30
0.0
  0
VERTEX
  5
499
330
497
100
AcDbEntity
  8
Capa 1
 62
     7
420
 16777215
370
     9
100
AcDbVertex
100
AcDb2dVertex
 10
73.52270761082312
 20
149.2951251504441
 30
0.0
  0
SEQEND
  5
49A
330
497
100
AcDbEntity
  8
Capa 1
 62
     7
420
 16777215
370
     9
  0
POLYLINE
  5
49B
330
1F
100
AcDbEntity
  8
Capa 1
 62
     7
420
 16777215
370
     9
100
AcDb2dPolyline
 66
     1
 10
0.0
 20
0.0
 30
0.0
  0
VERTEX
  5
49C
330
49B
100
AcDbEntity
  8
Capa 1
 62
     7
420
 16777215
370
     9
100
AcDbVertex
100
AcDb2dVertex
 10
73.52270761082312
 20
148.9458812871077
 30
0.0
  0
VERTEX
  5
49D
330
49B
100
AcDbEntity
  8
Capa 1
 62
     7
420
 16777215
370
     9
100
AcDbVertex
100
AcDb2dVertex
 10
73.52270761082312
 20
149.2316277342816
 30
0.0
  0
SEQEND
  5
49E
330
49B
100
AcDbEntity
  8
Capa 1
 62
     7
420
 16777215
370
     9
  0
POLYLINE
  5
49F
330
1F
100
AcDbEntity
  8
Capa 1
 62
     7
420
 16777215
370
     9
100
AcDb2dPolyline
 66
     1
 10
0.0
 20
0.0
 30
0.0
  0
VERTEX
  5
4A0
330
49F
100
AcDbEntity
  8
Capa 1
 62
     7
420
 16777215
370
     9
100
AcDbVertex
100
AcDb2dVertex
 10
73.52270761082312
 20
148.8506270884214
 30
0.0
  0
VERTEX
  5
4A1
330
49F
100
AcDbEntity
  8
Capa 1
 62
     7
420
 16777215
370
     9
100
AcDbVertex
100
AcDb2dVertex
 10
73.52270761082312
 20
148.8823757965027
 30
0.0
  0
SEQEND
  5
4A2
330
49F
100
AcDbEntity
  8
Capa 1
 62
     7
420
 16777215
370
     9
  0
POLYLINE
  5
4A3
330
1F
100
AcDbEntity
  8
Capa 1
 62
     7
420
 16777215
370
     9
100
AcDb2dPolyline
 66
     1
 10
0.0
 20
0.0
 30
0.0
  0
VERTEX
  5
4A4
330
4A3
100
AcDbEntity
  8
Capa 1
 62
     7
420
 16777215
370
     9
100
AcDbVertex
100
AcDb2dVertex
 10
73.52270761082312
 20
148.5013751506425
 30
0.0
  0
VERTEX
  5
4A5
330
4A3
100
AcDbEntity
  8
Capa 1
 62
     7
420
 16777215
370
     9
100
AcDbVertex
100
AcDb2dVertex
 10
73.52270761082312
 20
148.7871296722589
 30
0.0
  0
SEQEND
  5
4A6
330
4A3
100
AcDbEntity
  8
Capa 1
 62
     7
420
 16777215
370
     9
  0
POLYLINE
  5
4A7
330
1F
100
AcDbEntity
  8
Capa 1
 62
     7
420
 16777215
370
     9
100
AcDb2dPolyline
 66
     1
 10
0.0
 20
0.0
 30
0.0
  0
VERTEX
  5
4A8
330
4A7
100
AcDbEntity
  8
Capa 1
 62
     7
420
 16777215
370
     9
100
AcDbVertex
100
AcDb2dVertex
 10
73.52270761082312
 20
148.4061290263988
 30
0.0
  0
VERTEX
  5
4A9
330
4A7
100
AcDbEntity
  8
Capa 1
 62
     7
420
 16777215
370
     9
100
AcDbVertex
100
AcDb2dVertex
 10
73.52270761082312
 20
148.4696264425613
 30
0.0
  0
SEQEND
  5
4AA
330
4A7
100
AcDbEntity
  8
Capa 1
 62
     7
420
 16777215
370
     9
  0
POLYLINE
  5
4AB
330
1F
100
AcDbEntity
  8
Capa 1
 62
     7
420
 16777215
370
     9
100
AcDb2dPolyline
 66
     1
 10
0.0
 20
0.0
 30
0.0
  0
VERTEX
  5
4AC
330
4AB
100
AcDbEntity
  8
Capa 1
 62
     7
420
 16777215
370
     9
100
AcDbVertex
100
AcDb2dVertex
 10
73.52270761082312
 20
148.0886257967011
 30
0.0
  0
VERTEX
  5
4AD
330
4AB
100
AcDbEntity
  8
Capa 1
 62
     7
420
 16777215
370
     9
100
AcDbVertex
100
AcDb2dVertex
 10
73.52270761082312
 20
148.3743803183175
 30
0.0
  0
SEQEND
  5
4AE
330
4AB
100
AcDbEntity
  8
Capa 1
 62
     7
420
 16777215
370
     9
  0
POLYLINE
  5
4AF
330
1F
100
AcDbEntity
  8
Capa 1
 62
     7
420
 16777215
370
     9
100
AcDb2dPolyline
 66
     1
 10
0.0
 20
0.0
 30
0.0
  0
VERTEX
  5
4B0
330
4AF
100
AcDbEntity
  8
Capa 1
 62
     7
420
 16777215
370
     9
100
AcDbVertex
100
AcDb2dVertex
 10
73.52270761082312
 20
147.9933796724574
 30
0.0
  0
VERTEX
  5
4B1
330
4AF
100
AcDbEntity
  8
Capa 1
 62
     7
420
 16777215
370
     9
100
AcDbVertex
100
AcDb2dVertex
 10
73.52270761082312
 20
148.0568770886199
 30
0.0
  0
SEQEND
  5
4B2
330
4AF
100
AcDbEntity
  8
Capa 1
 62
     7
420
 16777215
370
     9
  0
POLYLINE
  5
4B3
330
1F
100
AcDbEntity
  8
Capa 1
 62
     7
420
 16777215
370
     9
100
AcDb2dPolyline
 66
     1
 10
0.0
 20
0.0
 30
0.0
  0
VERTEX
  5
4B4
330
4B3
100
AcDbEntity
  8
Capa 1
 62
     7
420
 16777215
370
     9
100
AcDbVertex
100
AcDb2dVertex
 10
73.52270761082312
 20
147.6758764427597
 30
0.0
  0
VERTEX
  5
4B5
330
4B3
100
AcDbEntity
  8
Capa 1
 62
     7
420
 16777215
370
     9
100
AcDbVertex
100
AcDb2dVertex
 10
73.52270761082312
 20
147.9616309643761
 30
0.0
  0
SEQEND
  5
4B6
330
4B3
100
AcDbEntity
  8
Capa 1
 62
     7
420
 16777215
370
     9
  0
POLYLINE
  5
4B7
330
1F
100
AcDbEntity
  8
Capa 1
 62
     7
420
 16777215
370
     9
100
AcDb2dPolyline
 66
     1
 10
0.0
 20
0.0
 30
0.0
  0
VERTEX
  5
4B8
330
4B7
100
AcDbEntity
  8
Capa 1
 62
     7
420
 16777215
370
     9
100
AcDbVertex
100
AcDb2dVertex
 10
73.52270761082312
 20
147.5806303185159
 30
0.0
  0
VERTEX
  5
4B9
330
4B7
100
AcDbEntity
  8
Capa 1
 62
     7
420
 16777215
370
     9
100
AcDbVertex
100
AcDb2dVertex
 10
73.52270761082312
 20
147.6123790265972
 30
0.0
  0
SEQEND
  5
4BA
330
4B7
100
AcDbEntity
  8
Capa 1
 62
     7
420
 16777215
370
     9
  0
POLYLINE
  5
4BB
330
1F
100
AcDbEntity
  8
Capa 1
 62
     7
420
 16777215
370
     9
100
AcDb2dPolyline
 66
     1
 10
0.0
 20
0.0
 30
0.0
  0
VERTEX
  5
4BC
330
4BB
100
AcDbEntity
  8
Capa 1
 62
     7
420
 16777215
370
     9
100
AcDbVertex
100
AcDb2dVertex
 10
73.52270761082312
 20
147.2631270888183
 30
0.0
  0
VERTEX
  5
4BD
330
4BB
100
AcDbEntity
  8
Capa 1
 62
     7
420
 16777215
370
     9
100
AcDbVertex
100
AcDb2dVertex
 10
73.52270761082312
 20
147.5171248279109
 30
0.0
  0
SEQEND
  5
4BE
330
4BB
100
AcDbEntity
  8
Capa 1
 62
     7
420
 16777215
370
     9
  0
POLYLINE
  5
4BF
330
1F
100
AcDbEntity
  8
Capa 1
 62
     7
420
 16777215
370
     9
100
AcDb2dPolyline
 66
     1
 10
0.0
 20
0.0
 30
0.0
  0
VERTEX
  5
4C0
330
4BF
100
AcDbEntity
  8
Capa 1
 62
     7
420
 16777215
370
     9
100
AcDbVertex
100
AcDb2dVertex
 10
73.52270761082312
 20
147.1678809645746
 30
0.0
  0
VERTEX
  5
4C1
330
4BF
100
AcDbEntity
  8
Capa 1
 62
     7
420
 16777215
370
     9
100
AcDbVertex
100
AcDb2dVertex
 10
73.52270761082312
 20
147.1996296726558
 30
0.0
  0
SEQEND
  5
4C2
330
4BF
100
AcDbEntity
  8
Capa 1
 62
     7
420
 16777215
370
     9
  0
POLYLINE
  5
4C3
330
1F
100
AcDbEntity
  8
Capa 1
 62
     7
420
 16777215
370
     9
100
AcDb2dPolyline
 66
     1
 10
0.0
 20
0.0
 30
0.0
  0
VERTEX
  5
4C4
330
4C3
100
AcDbEntity
  8
Capa 1
 62
     7
420
 16777215
370
     9
100
AcDbVertex
100
AcDb2dVertex
 10
73.52270761082312
 20
146.8186290267956
 30
0.0
  0
VERTEX
  5
4C5
330
4C3
100
AcDbEntity
  8
Capa 1
 62
     7
420
 16777215
370
     9
100
AcDbVertex
100
AcDb2dVertex
 10
73.52270761082312
 20
147.1043754739695
 30
0.0
  0
SEQEND
  5
4C6
330
4C3
100
AcDbEntity
  8
Capa 1
 62
     7
420
 16777215
370
     9
  0
POLYLINE
  5
4C7
330
1F
100
AcDbEntity
  8
Capa 1
 62
     7
420
 16777215
370
     9
100
AcDb2dPolyline
 66
     1
 10
0.0
 20
0.0
 30
0.0
  0
VERTEX
  5
4C8
330
4C7
100
AcDbEntity
  8
Capa 1
 62
     7
420
 16777215
370
     9
100
AcDbVertex
100
AcDb2dVertex
 10
73.52270761082312
 20
146.7233748281093
 30
0.0
  0
VERTEX
  5
4C9
330
4C7
100
AcDbEntity
  8
Capa 1
 62
     7
420
 16777215
370
     9
100
AcDbVertex
100
AcDb2dVertex
 10
73.52270761082312
 20
146.7868803187144
 30
0.0
  0
SEQEND
  5
4CA
330
4C7
100
AcDbEntity
  8
Capa 1
 62
     7
420
 16777215
370
     9
  0
POLYLINE
  5
4CB
330
1F
100
AcDbEntity
  8
Capa 1
 62
     7
420
 16777215
370
     9
100
AcDb2dPolyline
 66
     1
 10
0.0
 20
0.0
 30
0.0
  0
VERTEX
  5
4CC
330
4CB
100
AcDbEntity
  8
Capa 1
 62
     7
420
 16777215
370
     9
100
AcDbVertex
100
AcDb2dVertex
 10
73.52270761082312
 20
146.4058796728542
 30
0.0
  0
VERTEX
  5
4CD
330
4CB
100
AcDbEntity
  8
Capa 1
 62
     7
420
 16777215
370
     9
100
AcDbVertex
100
AcDb2dVertex
 10
73.52270761082312
 20
146.6916261200281
 30
0.0
  0
SEQEND
  5
4CE
330
4CB
100
AcDbEntity
  8
Capa 1
 62
     7
420
 16777215
370
     9
  0
POLYLINE
  5
4CF
330
1F
100
AcDbEntity
  8
Capa 1
 62
     7
420
 16777215
370
     9
100
AcDb2dPolyline
 66
     1
 10
0.0
 20
0.0
 30
0.0
  0
VERTEX
  5
4D0
330
4CF
100
AcDbEntity
  8
Capa 1
 62
     7
420
 16777215
370
     9
100
AcDbVertex
100
AcDb2dVertex
 10
73.52270761082312
 20
146.3106254741679
 30
0.0
  0
VERTEX
  5
4D1
330
4CF
100
AcDbEntity
  8
Capa 1
 62
     7
420
 16777215
370
     9
100
AcDbVertex
100
AcDb2dVertex
 10
73.52270761082312
 20
146.3423741822492
 30
0.0
  0
SEQEND
  5
4D2
330
4CF
100
AcDbEntity
  8
Capa 1
 62
     7
420
 16777215
370
     9
  0
POLYLINE
  5
4D3
330
1F
100
AcDbEntity
  8
Capa 1
 62
     7
420
 16777215
370
     9
100
AcDb2dPolyline
 66
     1
 10
0.0
 20
0.0
 30
0.0
  0
VERTEX
  5
4D4
330
4D3
100
AcDbEntity
  8
Capa 1
 62
     7
420
 16777215
370
     9
100
AcDbVertex
100
AcDb2dVertex
 10
73.52270761082312
 20
145.9931303189128
 30
0.0
  0
VERTEX
  5
4D5
330
4D3
100
AcDbEntity
  8
Capa 1
 62
     7
420
 16777215
370
     9
100
AcDbVertex
100
AcDb2dVertex
 10
73.52270761082312
 20
146.2788767660867
 30
0.0
  0
SEQEND
  5
4D6
330
4D3
100
AcDbEntity
  8
Capa 1
 62
     7
420
 16777215
370
     9
  0
POLYLINE
  5
4D7
330
1F
100
AcDbEntity
  8
Capa 1
 62
     7
420
 16777215
370
     9
100
AcDb2dPolyline
 66
     1
 10
0.0
 20
0.0
 30
0.0
  0
VERTEX
  5
4D8
330
4D7
100
AcDbEntity
  8
Capa 1
 62
     7
420
 16777215
370
     9
100
AcDbVertex
100
AcDb2dVertex
 10
73.52270761082312
 20
145.8978761202265
 30
0.0
  0
VERTEX
  5
4D9
330
4D7
100
AcDbEntity
  8
Capa 1
 62
     7
420
 16777215
370
     9
100
AcDbVertex
100
AcDb2dVertex
 10
73.52270761082312
 20
145.9296248283078
 30
0.0
  0
SEQEND
  5
4DA
330
4D7
100
AcDbEntity
  8
Capa 1
 62
     7
420
 16777215
370
     9
  0
POLYLINE
  5
4DB
330
1F
100
AcDbEntity
  8
Capa 1
 62
     7
420
 16777215
370
     9
100
AcDb2dPolyline
 66
     1
 10
0.0
 20
0.0
 30
0.0
  0
VERTEX
  5
4DC
330
4DB
100
AcDbEntity
  8
Capa 1
 62
     7
420
 16777215
370
     9
100
AcDbVertex
100
AcDb2dVertex
 10
73.52270761082312
 20
145.5486241824476
 30
0.0
  0
VERTEX
  5
4DD
330
4DB
100
AcDbEntity
  8
Capa 1
 62
     7
420
 16777215
370
     9
100
AcDbVertex
100
AcDb2dVertex
 10
73.52270761082312
 20
145.834378704064
 30
0.0
  0
SEQEND
  5
4DE
330
4DB
100
AcDbEntity
  8
Capa 1
 62
     7
420
 16777215
370
     9
  0
POLYLINE
  5
4DF
330
1F
100
AcDbEntity
  8
Capa 1
 62
     7
420
 16777215
370
     9
100
AcDb2dPolyline
 66
     1
 10
0.0
 20
0.0
 30
0.0
  0
VERTEX
  5
4E0
330
4DF
100
AcDbEntity
  8
Capa 1
 62
     7
420
 16777215
370
     9
100
AcDbVertex
100
AcDb2dVertex
 10
73.52270761082312
 20
145.4533780582039
 30
0.0
  0
VERTEX
  5
4E1
330
4DF
100
AcDbEntity
  8
Capa 1
 62
     7
420
 16777215
370
     9
100
AcDbVertex
100
AcDb2dVertex
 10
73.52270761082312
 20
145.5168754743664
 30
0.0
  0
SEQEND
  5
4E2
330
4DF
100
AcDbEntity
  8
Capa 1
 62
     7
420
 16777215
370
     9
  0
POLYLINE
  5
4E3
330
1F
100
AcDbEntity
  8
Capa 1
 62
     7
420
 16777215
370
     9
100
AcDb2dPolyline
 66
     1
 10
0.0
 20
0.0
 30
0.0
  0
VERTEX
  5
4E4
330
4E3
100
AcDbEntity
  8
Capa 1
 62
     7
420
 16777215
370
     9
100
AcDbVertex
100
AcDb2dVertex
 10
73.52270761082312
 20
145.1358748285062
 30
0.0
  0
VERTEX
  5
4E5
330
4E3
100
AcDbEntity
  8
Capa 1
 62
     7
420
 16777215
370
     9
100
AcDbVertex
100
AcDb2dVertex
 10
73.52270761082312
 20
145.4216293501226
 30
0.0
  0
SEQEND
  5
4E6
330
4E3
100
AcDbEntity
  8
Capa 1
 62
     7
420
 16777215
370
     9
  0
POLYLINE
  5
4E7
330
1F
100
AcDbEntity
  8
Capa 1
 62
     7
420
 16777215
370
     9
100
AcDb2dPolyline
 66
     1
 10
0.0
 20
0.0
 30
0.0
  0
VERTEX
  5
4E8
330
4E7
100
AcDbEntity
  8
Capa 1
 62
     7
420
 16777215
370
     9
100
AcDbVertex
100
AcDb2dVertex
 10
73.52270761082312
 20
145.0406287042624
 30
0.0
  0
VERTEX
  5
4E9
330
4E7
100
AcDbEntity
  8
Capa 1
 62
     7
420
 16777215
370
     9
100
AcDbVertex
100
AcDb2dVertex
 10
73.52270761082312
 20
145.104126120425
 30
0.0
  0
SEQEND
  5
4EA
330
4E7
100
AcDbEntity
  8
Capa 1
 62
     7
420
 16777215
370
     9
  0
POLYLINE
  5
4EB
330
1F
100
AcDbEntity
  8
Capa 1
 62
     7
420
 16777215
370
     9
100
AcDb2dPolyline
 66
     1
 10
0.0
 20
0.0
 30
0.0
  0
VERTEX
  5
4EC
330
4EB
100
AcDbEntity
  8
Capa 1
 62
     7
420
 16777215
370
     9
100
AcDbVertex
100
AcDb2dVertex
 10
73.52270761082312
 20
144.7231254745648
 30
0.0
  0
VERTEX
  5
4ED
330
4EB
100
AcDbEntity
  8
Capa 1
 62
     7
420
 16777215
370
     9
100
AcDbVertex
100
AcDb2dVertex
 10
73.52270761082312
 20
145.0088799961812
 30
0.0
  0
SEQEND
  5
4EE
330
4EB
100
AcDbEntity
  8
Capa 1
 62
     7
420
 16777215
370
     9
  0
POLYLINE
  5
4EF
330
1F
100
AcDbEntity
  8
Capa 1
 62
     7
420
 16777215
370
     9
100
AcDb2dPolyline
 66
     1
 10
0.0
 20
0.0
 30
0.0
  0
VERTEX
  5
4F0
330
4EF
100
AcDbEntity
  8
Capa 1
 62
     7
420
 16777215
370
     9
100
AcDbVertex
100
AcDb2dVertex
 10
73.52270761082312
 20
144.627879350321
 30
0.0
  0
VERTEX
  5
4F1
330
4EF
100
AcDbEntity
  8
Capa 1
 62
     7
420
 16777215
370
     9
100
AcDbVertex
100
AcDb2dVertex
 10
73.52270761082312
 20
144.6596280584023
 30
0.0
  0
SEQEND
  5
4F2
330
4EF
100
AcDbEntity
  8
Capa 1
 62
     7
420
 16777215
370
     9
  0
POLYLINE
  5
4F3
330
1F
100
AcDbEntity
  8
Capa 1
 62
     7
420
 16777215
370
     9
100
AcDb2dPolyline
 66
     1
 10
0.0
 20
0.0
 30
0.0
  0
VERTEX
  5
4F4
330
4F3
100
AcDbEntity
  8
Capa 1
 62
     7
420
 16777215
370
     9
100
AcDbVertex
100
AcDb2dVertex
 10
73.52270761082312
 20
144.3421248287046
 30
0.0
  0
VERTEX
  5
4F5
330
4F3
100
AcDbEntity
  8
Capa 1
 62
     7
420
 16777215
370
     9
100
AcDbVertex
100
AcDb2dVertex
 10
73.52270761082312
 20
144.564373859716
 30
0.0
  0
SEQEND
  5
4F6
330
4F3
100
AcDbEntity
  8
Capa 1
 62
     7
420
 16777215
370
     9
  0
POLYLINE
  5
4F7
330
1F
100
AcDbEntity
  8
Capa 1
 62
     7
420
 16777215
370
     9
100
AcDb2dPolyline
 66
     1
 10
0.0
 20
0.0
 30
0.0
  0
VERTEX
  5
4F8
330
4F7
100
AcDbEntity
  8
Capa 1
 62
     7
420
 16777215
370
     9
100
AcDbVertex
100
AcDb2dVertex
 10
73.52270761082312
 20
152.7241309631855
 30
0.0
  0
VERTEX
  5
4F9
330
4F7
100
AcDbEntity
  8
Capa 1
 62
     7
420
 16777215
370
     9
100
AcDbVertex
100
AcDb2dVertex
 10
73.52270761082312
 20
152.9781287022781
 30
0.0
  0
SEQEND
  5
4FA
330
4F7
100
AcDbEntity
  8
Capa 1
 62
     7
420
 16777215
370
     9
  0
POLYLINE
  5
4FB
330
1F
100
AcDbEntity
  8
Capa 1
 62
     7
420
 16777215
370
     9
100
AcDb2dPolyline
 66
     1
 10
0.0
 20
0.0
 30
0.0
  0
VERTEX
  5
4FC
330
4FB
100
AcDbEntity
  8
Capa 1
 62
     7
420
 16777215
370
     9
100
AcDbVertex
100
AcDb2dVertex
 10
75.61821116305397
 20
147.2948757968996
 30
0.0
  0
VERTEX
  5
4FD
330
4FB
100
AcDbEntity
  8
Capa 1
 62
     7
420
 16777215
370
     9
100
AcDbVertex
100
AcDb2dVertex
 10
76.44370987093679
 20
147.2948757968996
 30
0.0
  0
SEQEND
  5
4FE
330
4FB
100
AcDbEntity
  8
Capa 1
 62
     7
420
 16777215
370
     9
  0
POLYLINE
  5
4FF
330
1F
100
AcDbEntity
  8
Capa 1
 62
     7
420
 16777215
370
     9
100
AcDb2dPolyline
 66
     1
 10
0.0
 20
0.0
 30
0.0
  0
VERTEX
  5
500
330
4FF
100
AcDbEntity
  8
Capa 1
 62
     7
420
 16777215
370
     9
100
AcDbVertex
100
AcDb2dVertex
 10
74.37995906400847
 20
147.2948757968996
 30
0.0
  0
VERTEX
  5
501
330
4FF
100
AcDbEntity
  8
Capa 1
 62
     7
420
 16777215
370
     9
100
AcDbVertex
100
AcDb2dVertex
 10
75.20545777189129
 20
147.2948757968996
 30
0.0
  0
SEQEND
  5
502
330
4FF
100
AcDbEntity
  8
Capa 1
 62
     7
420
 16777215
370
     9
  0
POLYLINE
  5
503
330
1F
100
AcDbEntity
  8
Capa 1
 62
     7
420
 16777215
370
     9
100
AcDb2dPolyline
 66
     1
 10
0.0
 20
0.0
 30
0.0
  0
VERTEX
  5
504
330
503
100
AcDbEntity
  8
Capa 1
 62
     7
420
 16777215
370
     9
100
AcDbVertex
100
AcDb2dVertex
 10
73.10995825688299
 20
147.2948757968996
 30
0.0
  0
VERTEX
  5
505
330
503
100
AcDbEntity
  8
Capa 1
 62
     7
420
 16777215
370
     9
100
AcDbVertex
100
AcDb2dVertex
 10
73.9354610019858
 20
147.2948757968996
 30
0.0
  0
SEQEND
  5
506
330
503
100
AcDbEntity
  8
Capa 1
 62
     7
420
 16777215
370
     9
  0
POLYLINE
  5
507
330
1F
100
AcDbEntity
  8
Capa 1
 62
     7
420
 16777215
370
     9
100
AcDb2dPolyline
 66
     1
 10
0.0
 20
0.0
 30
0.0
  0
VERTEX
  5
508
330
507
100
AcDbEntity
  8
Capa 1
 62
     7
420
 16777215
370
     9
100
AcDbVertex
100
AcDb2dVertex
 10
71.87171019505749
 20
147.2948757968996
 30
0.0
  0
VERTEX
  5
509
330
507
100
AcDbEntity
  8
Capa 1
 62
     7
420
 16777215
370
     9
100
AcDbVertex
100
AcDb2dVertex
 10
72.6972089029403
 20
147.2948757968996
 30
0.0
  0
SEQEND
  5
50A
330
507
100
AcDbEntity
  8
Capa 1
 62
     7
420
 16777215
370
     9
  0
POLYLINE
  5
50B
330
1F
100
AcDbEntity
  8
Capa 1
 62
     7
420
 16777215
370
     9
100
AcDb2dPolyline
 66
     1
 10
0.0
 20
0.0
 30
0.0
  0
VERTEX
  5
50C
330
50B
100
AcDbEntity
  8
Capa 1
 62
     7
420
 16777215
370
     9
100
AcDbVertex
100
AcDb2dVertex
 10
70.60170938793073
 20
147.2948757968996
 30
0.0
  0
VERTEX
  5
50D
330
50B
100
AcDbEntity
  8
Capa 1
 62
     7
420
 16777215
370
     9
100
AcDbVertex
100
AcDb2dVertex
 10
71.45896084111608
 20
147.2948757968996
 30
0.0
  0
SEQEND
  5
50E
330
50B
100
AcDbEntity
  8
Capa 1
 62
     7
420
 16777215
370
     9
  0
POLYLINE
  5
50F
330
1F
100
AcDbEntity
  8
Capa 1
 62
     7
420
 16777215
370
     9
100
AcDb2dPolyline
 66
     1
 10
0.0
 20
0.0
 30
0.0
  0
VERTEX
  5
510
330
50F
100
AcDbEntity
  8
Capa 1
 62
     7
420
 16777215
370
     9
100
AcDbVertex
100
AcDb2dVertex
 10
69.71270922666413
 20
147.2948757968996
 30
0.0
  0
VERTEX
  5
511
330
50F
100
AcDbEntity
  8
Capa 1
 62
     7
420
 16777215
370
     9
100
AcDbVertex
100
AcDb2dVertex
 10
70.18896003398932
 20
147.2948757968996
 30
0.0
  0
SEQEND
  5
512
330
50F
100
AcDbEntity
  8
Capa 1
 62
     7
420
 16777215
370
     9
  0
POLYLINE
  5
513
330
1F
100
AcDbEntity
  8
Capa 1
 62
     7
420
 16777215
370
     9
100
AcDb2dPolyline
 66
     1
 10
0.0
 20
0.0
 30
0.0
  0
VERTEX
  5
514
330
513
100
AcDbEntity
  8
Capa 1
 62
     7
420
 16777215
370
     9
100
AcDbVertex
100
AcDb2dVertex
 10
76.8564592248782
 20
147.2948757968996
 30
0.0
  0
VERTEX
  5
515
330
513
100
AcDbEntity
  8
Capa 1
 62
     7
420
 16777215
370
     9
100
AcDbVertex
100
AcDb2dVertex
 10
77.36445874028465
 20
147.2948757968996
 30
0.0
  0
SEQEND
  5
516
330
513
100
AcDbEntity
  8
Capa 1
 62
     7
420
 16777215
370
     9
  0
POLYLINE
  5
517
330
1F
100
AcDbEntity
  8
Capa 1
 62
     7
420
 16777215
370
     9
100
AcDb2dPolyline
 66
     1
 10
0.0
 20
0.0
 30
0.0
  0
VERTEX
  5
518
330
517
100
AcDbEntity
  8
Capa 1
 62
     7
420
 16777215
370
     9
100
AcDbVertex
100
AcDb2dVertex
 10
69.71270922666413
 20
141.5163767672773
 30
0.0
  0
VERTEX
  5
519
330
517
100
AcDbEntity
  8
Capa 1
 62
     7
420
 16777215
370
     9
100
AcDbVertex
100
AcDb2dVertex
 10
69.80795938812916
 20
141.5163767672773
 30
0.0
  0
SEQEND
  5
51A
330
517
100
AcDbEntity
  8
Capa 1
 62
     7
420
 16777215
370
     9
  0
POLYLINE
  5
51B
330
1F
100
AcDbEntity
  8
Capa 1
 62
     7
420
 16777215
370
     9
100
AcDb2dPolyline
 66
     1
 10
0.0
 20
0.0
 30
0.0
  0
VERTEX
  5
51C
330
51B
100
AcDbEntity
  8
Capa 1
 62
     7
420
 16777215
370
     9
100
AcDbVertex
100
AcDb2dVertex
 10
77.36445874028465
 20
141.5163767672773
 30
0.0
  0
VERTEX
  5
51D
330
51B
100
AcDbEntity
  8
Capa 1
 62
     7
420
 16777215
370
     9
100
AcDbVertex
100
AcDb2dVertex
 10
77.2692085788196
 20
141.5163767672773
 30
0.0
  0
SEQEND
  5
51E
330
51B
100
AcDbEntity
  8
Capa 1
 62
     7
420
 16777215
370
     9
  0
POLYLINE
  5
51F
330
1F
100
AcDbEntity
  8
Capa 1
 62
     7
420
 16777215
370
     9
100
AcDb2dPolyline
 66
     1
 10
0.0
 20
0.0
 30
0.0
  0
VERTEX
  5
520
330
51F
100
AcDbEntity
  8
Capa 1
 62
     7
420
 16777215
370
     9
100
AcDbVertex
100
AcDb2dVertex
 10
68.34745825807362
 20
141.5163767672773
 30
0.0
  0
VERTEX
  5
521
330
51F
100
AcDbEntity
  8
Capa 1
 62
     7
420
 16777215
370
     9
100
AcDbVertex
100
AcDb2dVertex
 10
67.01396003478307
 20
141.5163767672773
 30
0.0
  0
SEQEND
  5
522
330
51F
100
AcDbEntity
  8
Capa 1
 62
     7
420
 16777215
370
     9
  0
POLYLINE
  5
523
330
1F
100
AcDbEntity
  8
Capa 1
 62
     7
420
 16777215
370
     9
100
AcDb2dPolyline
 66
     1
 10
0.0
 20
0.0
 30
0.0
  0
VERTEX
  5
524
330
523
100
AcDbEntity
  8
Capa 1
 62
     7
420
 16777215
370
     9
100
AcDbVertex
100
AcDb2dVertex
 10
78.69796100079517
 20
141.5163767672773
 30
0.0
  0
VERTEX
  5
525
330
523
100
AcDbEntity
  8
Capa 1
 62
     7
420
 16777215
370
     9
100
AcDbVertex
100
AcDb2dVertex
 10
80.0632079321657
 20
141.5163767672773
 30
0.0
  0
SEQEND
  5
526
330
523
100
AcDbEntity
  8
Capa 1
 62
     7
420
 16777215
370
     9
  0
POLYLINE
  5
527
330
1F
100
AcDbEntity
  8
Capa 1
 62
     7
420
 16777215
370
     9
100
AcDb2dPolyline
 66
     1
 10
0.0
 20
0.0
 30
0.0
  0
VERTEX
  5
528
330
527
100
AcDbEntity
  8
Capa 1
 62
     7
420
 16777215
370
     9
100
AcDbVertex
100
AcDb2dVertex
 10
69.71270922666413
 20
146.1518738593191
 30
0.0
  0
VERTEX
  5
529
330
527
100
AcDbEntity
  8
Capa 1
 62
     7
420
 16777215
370
     9
100
AcDbVertex
100
AcDb2dVertex
 10
69.71270922666413
 20
140.7861241836382
 30
0.0
  0
SEQEND
  5
52A
330
527
100
AcDbEntity
  8
Capa 1
 62
     7
420
 16777215
370
     9
  0
POLYLINE
  5
52B
330
1F
100
AcDbEntity
  8
Capa 1
 62
     7
420
 16777215
370
     9
100
AcDb2dPolyline
 66
     1
 10
0.0
 20
0.0
 30
0.0
  0
VERTEX
  5
52C
330
52B
100
AcDbEntity
  8
Capa 1
 62
     7
420
 16777215
370
     9
100
AcDbVertex
100
AcDb2dVertex
 10
77.36445874028465
 20
146.1518738593191
 30
0.0
  0
VERTEX
  5
52D
330
52B
100
AcDbEntity
  8
Capa 1
 62
     7
420
 16777215
370
     9
100
AcDbVertex
100
AcDb2dVertex
 10
77.36445874028465
 20
140.7861241836382
 30
0.0
  0
SEQEND
  5
52E
330
52B
100
AcDbEntity
  8
Capa 1
 62
     7
420
 16777215
370
     9
  0
POLYLINE
  5
52F
330
1F
100
AcDbEntity
  8
Capa 1
370
     0
100
AcDb2dPolyline
 66
     1
 10
0.0
 20
0.0
 30
0.0
  0
VERTEX
  5
530
330
52F
100
AcDbEntity
  8
Capa 1
370
     0
100
AcDbVertex
100
AcDb2dVertex
 10
78.69796100079517
 20
141.7386257982886
 30
0.0
  0
VERTEX
  5
531
330
52F
100
AcDbEntity
  8
Capa 1
370
     0
100
AcDbVertex
100
AcDb2dVertex
 10
78.69796100079517
 20
141.294127736266
 30
0.0
  0
VERTEX
  5
532
330
52F
100
AcDbEntity
  8
Capa 1
370
     0
100
AcDbVertex
100
AcDb2dVertex
 10
77.36445874028465
 20
141.5163767672773
 30
0.0
  0
SEQEND
  5
534
330
52F
100
AcDbEntity
  8
Capa 1
370
     0
  0
HATCH
  5
533
330
1F
100
AcDbEntity
  8
Capa 1
 62
     7
420
 16777215
100
AcDbHatch
 10
0.0
 20
0.0
 30
0.0
210
0.0
220
0.0
230
1.0
  2
SOLID
 70
     1
 71
     0
 91
        1
 92
        1
 93
        3
 72
     1
 10
78.69796100079517
 20
141.7386257982886
 11
78.69796100079517
 21
141.294127736266
 72
     1
 10
78.69796100079517
 20
141.294127736266
 11
77.36445874028463
 21
141.5163767672773
 72
     1
 10
77.36445874028465
 20
141.5163767672773
 11
78.69796100079519
 21
141.7386257982886
 97
        0
 75
     0
 76
     1
 98
        0
  0
POLYLINE
  5
535
330
1F
100
AcDbEntity
  8
Capa 1
370
     0
100
AcDb2dPolyline
 66
     1
 10
0.0
 20
0.0
 30
0.0
  0
VERTEX
  5
536
330
535
100
AcDbEntity
  8
Capa 1
370
     0
100
AcDbVertex
100
AcDb2dVertex
 10
68.34745825807362
 20
141.7386257982886
 30
0.0
  0
VERTEX
  5
537
330
535
100
AcDbEntity
  8
Capa 1
370
     0
100
AcDbVertex
100
AcDb2dVertex
 10
68.34745825807362
 20
141.294127736266
 30
0.0
  0
VERTEX
  5
538
330
535
100
AcDbEntity
  8
Capa 1
370
     0
100
AcDbVertex
100
AcDb2dVertex
 10
69.71270922666413
 20
141.5163767672773
 30
0.0
  0
SEQEND
  5
53A
330
535
100
AcDbEntity
  8
Capa 1
370
     0
  0
HATCH
  5
539
330
1F
100
AcDbEntity
  8
Capa 1
 62
     7
420
 16777215
100
AcDbHatch
 10
0.0
 20
0.0
 30
0.0
210
0.0
220
0.0
230
1.0
  2
SOLID
 70
     1
 71
     0
 91
        1
 92
        1
 93
        3
 72
     1
 10
68.34745825807362
 20
141.7386257982886
 11
68.34745825807362
 21
141.294127736266
 72
     1
 10
68.34745825807362
 20
141.294127736266
 11
69.71270922666413
 21
141.5163767672773
 72
     1
 10
69.71270922666413
 20
141.5163767672773
 11
68.34745825807362
 21
141.7386257982886
 97
        0
 75
     0
 76
     1
 98
        0
  0
POLYLINE
  5
53B
330
1F
100
AcDbEntity
  8
Capa 1
 62
     7
420
 16777215
370
     9
100
AcDb2dPolyline
 66
     1
 10
0.0
 20
0.0
 30
0.0
  0
VERTEX
  5
53C
330
53B
100
AcDbEntity
  8
Capa 1
 62
     7
420
 16777215
370
     9
100
AcDbVertex
100
AcDb2dVertex
 10
97.49395518249754
 20
137.5476267682695
 30
0.0
  0
VERTEX
  5
53D
330
53B
100
AcDbEntity
  8
Capa 1
 62
     7
420
 16777215
370
     9
100
AcDbVertex
100
AcDb2dVertex
 10
85.46071035314908
 20
137.5476267682695
 30
0.0
  0
SEQEND
  5
53E
330
53B
100
AcDbEntity
  8
Capa 1
 62
     7
420
 16777215
370
     9
  0
POLYLINE
  5
53F
330
1F
100
AcDbEntity
  8
Capa 1
 62
     7
420
 16777215
370
     9
100
AcDb2dPolyline
 66
     1
 10
0.0
 20
0.0
 30
0.0
  0
VERTEX
  5
540
330
53F
100
AcDbEntity
  8
Capa 1
 62
     7
420
 16777215
370
     9
100
AcDbVertex
100
AcDb2dVertex
 10
67.33145922725944
 20
137.5476267682695
 30
0.0
  0
VERTEX
  5
541
330
53F
100
AcDbEntity
  8
Capa 1
 62
     7
420
 16777215
370
     9
100
AcDbVertex
100
AcDb2dVertex
 10
79.36470809382918
 20
137.5476267682695
 30
0.0
  0
SEQEND
  5
542
330
53F
100
AcDbEntity
  8
Capa 1
 62
     7
420
 16777215
370
     9
  0
POLYLINE
  5
543
330
1F
100
AcDbEntity
  8
Capa 1
 62
     7
420
 16777215
370
     9
100
AcDb2dPolyline
 66
     1
 10
0.0
 20
0.0
 30
0.0
  0
VERTEX
  5
544
330
543
100
AcDbEntity
  8
Capa 1
 62
     7
420
 16777215
370
     9
100
AcDbVertex
100
AcDb2dVertex
 10
98.82745744300809
 20
145.0406287042624
 30
0.0
  0
VERTEX
  5
545
330
543
100
AcDbEntity
  8
Capa 1
 62
     7
420
 16777215
370
     9
100
AcDbVertex
100
AcDb2dVertex
 10
98.82745744300809
 20
136.7856254765492
 30
0.0
  0
SEQEND
  5
546
330
543
100
AcDbEntity
  8
Capa 1
 62
     7
420
 16777215
370
     9
  0
POLYLINE
  5
547
330
1F
100
AcDbEntity
  8
Capa 1
 62
     7
420
 16777215
370
     9
100
AcDb2dPolyline
 66
     1
 10
0.0
 20
0.0
 30
0.0
  0
VERTEX
  5
548
330
547
100
AcDbEntity
  8
Capa 1
 62
     7
420
 16777215
370
     9
100
AcDbVertex
100
AcDb2dVertex
 10
65.99796100397018
 20
145.0406287042624
 30
0.0
  0
VERTEX
  5
549
330
547
100
AcDbEntity
  8
Capa 1
 62
     7
420
 16777215
370
     9
100
AcDbVertex
100
AcDb2dVertex
 10
65.99796100397018
 20
136.7856254765492
 30
0.0
  0
SEQEND
  5
54A
330
547
100
AcDbEntity
  8
Capa 1
 62
     7
420
 16777215
370
     9
  0
POLYLINE
  5
54B
330
1F
100
AcDbEntity
  8
Capa 1
370
     0
100
AcDb2dPolyline
 66
     1
 10
0.0
 20
0.0
 30
0.0
  0
VERTEX
  5
54C
330
54B
100
AcDbEntity
  8
Capa 1
370
     0
100
AcDbVertex
100
AcDb2dVertex
 10
67.33145922725944
 20
137.7698757992808
 30
0.0
  0
VERTEX
  5
54D
330
54B
100
AcDbEntity
  8
Capa 1
370
     0
100
AcDbVertex
100
AcDb2dVertex
 10
67.33145922725944
 20
137.3253777372582
 30
0.0
  0
VERTEX
  5
54E
330
54B
100
AcDbEntity
  8
Capa 1
370
     0
100
AcDbVertex
100
AcDb2dVertex
 10
65.99796100397018
 20
137.5476267682695
 30
0.0
  0
SEQEND
  5
550
330
54B
100
AcDbEntity
  8
Capa 1
370
     0
  0
HATCH
  5
54F
330
1F
100
AcDbEntity
  8
Capa 1
 62
     7
420
 16777215
100
AcDbHatch
 10
0.0
 20
0.0
 30
0.0
210
0.0
220
0.0
230
1.0
  2
SOLID
 70
     1
 71
     0
 91
        1
 92
        1
 93
        3
 72
     1
 10
67.33145922725944
 20
137.7698757992808
 11
67.33145922725944
 21
137.3253777372582
 72
     1
 10
67.33145922725944
 20
137.3253777372582
 11
65.99796100397018
 21
137.5476267682695
 72
     1
 10
65.99796100397018
 20
137.5476267682695
 11
67.33145922725944
 21
137.7698757992808
 97
        0
 75
     0
 76
     1
 98
        0
  0
POLYLINE
  5
551
330
1F
100
AcDbEntity
  8
Capa 1
370
     0
100
AcDb2dPolyline
 66
     1
 10
0.0
 20
0.0
 30
0.0
  0
VERTEX
  5
552
330
551
100
AcDbEntity
  8
Capa 1
370
     0
100
AcDbVertex
100
AcDb2dVertex
 10
97.49395518249754
 20
137.7698757992808
 30
0.0
  0
VERTEX
  5
553
330
551
100
AcDbEntity
  8
Capa 1
370
     0
100
AcDbVertex
100
AcDb2dVertex
 10
97.49395518249754
 20
137.3253777372582
 30
0.0
  0
VERTEX
  5
554
330
551
100
AcDbEntity
  8
Capa 1
370
     0
100
AcDbVertex
100
AcDb2dVertex
 10
98.82745744300809
 20
137.5476267682695
 30
0.0
  0
SEQEND
  5
556
330
551
100
AcDbEntity
  8
Capa 1
370
     0
  0
HATCH
  5
555
330
1F
100
AcDbEntity
  8
Capa 1
 62
     7
420
 16777215
100
AcDbHatch
 10
0.0
 20
0.0
 30
0.0
210
0.0
220
0.0
230
1.0
  2
SOLID
 70
     1
 71
     0
 91
        1
 92
        1
 93
        3
 72
     1
 10
97.49395518249754
 20
137.7698757992808
 11
97.49395518249754
 21
137.3253777372582
 72
     1
 10
97.49395518249754
 20
137.3253777372582
 11
98.82745744300809
 21
137.5476267682695
 72
     1
 10
98.82745744300809
 20
137.5476267682695
 11
97.49395518249754
 21
137.7698757992808
 97
        0
 75
     0
 76
     1
 98
        0
  0
POLYLINE
  5
557
330
1F
100
AcDbEntity
  8
Capa 1
 62
     7
420
 16777215
370
     9
100
AcDb2dPolyline
 66
     1
 10
0.0
 20
0.0
 30
0.0
  0
VERTEX
  5
558
330
557
100
AcDbEntity
  8
Capa 1
 62
     7
420
 16777215
370
     9
100
AcDbVertex
100
AcDb2dVertex
 10
113.4959580852964
 20
174.8221280508617
 30
0.0
  0
VERTEX
  5
559
330
557
100
AcDbEntity
  8
Capa 1
 62
     7
420
 16777215
370
     9
100
AcDbVertex
100
AcDb2dVertex
 10
113.4959580852964
 20
163.3603761158609
 30
0.0
  0
SEQEND
  5
55A
330
557
100
AcDbEntity
  8
Capa 1
 62
     7
420
 16777215
370
     9
  0
POLYLINE
  5
55B
330
1F
100
AcDbEntity
  8
Capa 1
 62
     7
420
 16777215
370
     9
100
AcDb2dPolyline
 66
     1
 10
0.0
 20
0.0
 30
0.0
  0
VERTEX
  5
55C
330
55B
100
AcDbEntity
  8
Capa 1
 62
     7
420
 16777215
370
     9
100
AcDbVertex
100
AcDb2dVertex
 10
113.4959580852964
 20
147.5171248279109
 30
0.0
  0
VERTEX
  5
55D
330
55B
100
AcDbEntity
  8
Capa 1
 62
     7
420
 16777215
370
     9
100
AcDbVertex
100
AcDb2dVertex
 10
113.4959580852964
 20
159.6138751478644
 30
0.0
  0
SEQEND
  5
55E
330
55B
100
AcDbEntity
  8
Capa 1
 62
     7
420
 16777215
370
     9
  0
POLYLINE
  5
55F
330
1F
100
AcDbEntity
  8
Capa 1
 62
     7
420
 16777215
370
     9
100
AcDb2dPolyline
 66
     1
 10
0.0
 20
0.0
 30
0.0
  0
VERTEX
  5
560
330
55F
100
AcDbEntity
  8
Capa 1
 62
     7
420
 16777215
370
     9
100
AcDbVertex
100
AcDb2dVertex
 10
108.1302084096155
 20
176.155622236931
 30
0.0
  0
VERTEX
  5
561
330
55F
100
AcDbEntity
  8
Capa 1
 62
     7
420
 16777215
370
     9
100
AcDbVertex
100
AcDb2dVertex
 10
114.2579593770167
 20
176.155622236931
 30
0.0
  0
SEQEND
  5
562
330
55F
100
AcDbEntity
  8
Capa 1
 62
     7
420
 16777215
370
     9
  0
POLYLINE
  5
563
330
1F
100
AcDbEntity
  8
Capa 1
 62
     7
420
 16777215
370
     9
100
AcDb2dPolyline
 66
     1
 10
0.0
 20
0.0
 30
0.0
  0
VERTEX
  5
564
330
563
100
AcDbEntity
  8
Capa 1
 62
     7
420
 16777215
370
     9
100
AcDbVertex
100
AcDb2dVertex
 10
99.97045938058855
 20
146.1518738593191
 30
0.0
  0
VERTEX
  5
565
330
563
100
AcDbEntity
  8
Capa 1
 62
     7
420
 16777215
370
     9
100
AcDbVertex
100
AcDb2dVertex
 10
114.2579593770167
 20
146.1518738593191
 30
0.0
  0
SEQEND
  5
566
330
563
100
AcDbEntity
  8
Capa 1
 62
     7
420
 16777215
370
     9
  0
POLYLINE
  5
567
330
1F
100
AcDbEntity
  8
Capa 1
 62
     7
420
 16777215
370
     9
100
AcDb2dPolyline
 66
     1
 10
0.0
 20
0.0
 30
0.0
  0
VERTEX
  5
568
330
567
100
AcDbEntity
  8
Capa 1
 62
     7
420
 16777215
370
     9
100
AcDbVertex
100
AcDb2dVertex
 10
73.52270761082312
 20
138.2461306438273
 30
0.0
  0
VERTEX
  5
569
330
567
100
AcDbEntity
  8
Capa 1
 62
     7
420
 16777215
370
     9
100
AcDbVertex
100
AcDb2dVertex
 10
73.52270761082312
 20
140.1828745067668
 30
0.0
  0
SEQEND
  5
56A
330
567
100
AcDbEntity
  8
Capa 1
 62
     7
420
 16777215
370
     9
  0
POLYLINE
  5
56B
330
1F
100
AcDbEntity
  8
Capa 1
370
     0
100
AcDb2dPolyline
 66
     1
 10
0.0
 20
0.0
 30
0.0
  0
VERTEX
  5
56C
330
56B
100
AcDbEntity
  8
Capa 1
370
     0
100
AcDbVertex
100
AcDb2dVertex
 10
113.273709054285
 20
147.5171248279109
 30
0.0
  0
VERTEX
  5
56D
330
56B
100
AcDbEntity
  8
Capa 1
370
     0
100
AcDbVertex
100
AcDb2dVertex
 10
113.7182071163077
 20
147.5171248279109
 30
0.0
  0
VERTEX
  5
56E
330
56B
100
AcDbEntity
  8
Capa 1
370
     0
100
AcDbVertex
100
AcDb2dVertex
 10
113.4959580852964
 20
146.1518738593191
 30
0.0
  0
SEQEND
  5
570
330
56B
100
AcDbEntity
  8
Capa 1
370
     0
  0
HATCH
  5
56F
330
1F
100
AcDbEntity
  8
Capa 1
 62
     7
420
 16777215
100
AcDbHatch
 10
0.0
 20
0.0
 30
0.0
210
0.0
220
0.0
230
1.0
  2
SOLID
 70
     1
 71
     0
 91
        1
 92
        1
 93
        3
 72
     1
 10
113.273709054285
 20
147.5171248279109
 11
113.7182071163077
 21
147.5171248279109
 72
     1
 10
113.7182071163077
 20
147.5171248279109
 11
113.4959580852964
 21
146.1518738593191
 72
     1
 10
113.4959580852964
 20
146.1518738593191
 11
113.273709054285
 21
147.5171248279109
 97
        0
 75
     0
 76
     1
 98
        0
  0
POLYLINE
  5
571
330
1F
100
AcDbEntity
  8
Capa 1
370
     0
100
AcDb2dPolyline
 66
     1
 10
0.0
 20
0.0
 30
0.0
  0
VERTEX
  5
572
330
571
100
AcDbEntity
  8
Capa 1
370
     0
100
AcDbVertex
100
AcDb2dVertex
 10
113.273709054285
 20
174.8221280508617
 30
0.0
  0
VERTEX
  5
573
330
571
100
AcDbEntity
  8
Capa 1
370
     0
100
AcDbVertex
100
AcDb2dVertex
 10
113.7182071163077
 20
174.8221280508617
 30
0.0
  0
VERTEX
  5
574
330
571
100
AcDbEntity
  8
Capa 1
370
     0
100
AcDbVertex
100
AcDb2dVertex
 10
113.4959580852964
 20
176.155622236931
 30
0.0
  0
SEQEND
  5
576
330
571
100
AcDbEntity
  8
Capa 1
370
     0
  0
HATCH
  5
575
330
1F
100
AcDbEntity
  8
Capa 1
 62
     7
420
 16777215
100
AcDbHatch
 10
0.0
 20
0.0
 30
0.0
210
0.0
220
0.0
230
1.0
  2
SOLID
 70
     1
 71
     0
 91
        1
 92
        1
 93
        3
 72
     1
 10
113.273709054285
 20
174.8221280508617
 11
113.7182071163077
 21
174.8221280508617
 72
     1
 10
113.7182071163077
 20
174.8221280508617
 11
113.4959580852964
 21
176.155622236931
 72
     1
 10
113.4959580852964
 20
176.155622236931
 11
113.273709054285
 21
174.8221280508617
 97
        0
 75
     0
 76
     1
 98
        0
  0
POLYLINE
  5
577
330
1F
100
AcDbEntity
  8
Capa 1
 62
     7
420
 16777215
370
     9
100
AcDb2dPolyline
 66
     1
 10
0.0
 20
0.0
 30
0.0
  0
VERTEX
  5
578
330
577
100
AcDbEntity
  8
Capa 1
 62
     7
420
 16777215
370
     9
100
AcDbVertex
100
AcDb2dVertex
 10
63.99771165042564
 20
80.86330007015012
 30
0.0
  0
VERTEX
  5
579
330
577
100
AcDbEntity
  8
Capa 1
 62
     7
420
 16777215
370
     9
100
AcDbVertex
100
AcDb2dVertex
 10
63.96595890512312
 20
81.08555313838272
 30
0.0
  0
VERTEX
  5
57A
330
577
100
AcDbEntity
  8
Capa 1
 62
     7
420
 16777215
370
     9
100
AcDbVertex
100
AcDb2dVertex
 10
63.83896003557683
 20
81.27604942409152
 30
0.0
  0
VERTEX
  5
57B
330
577
100
AcDbEntity
  8
Capa 1
 62
     7
420
 16777215
370
     9
100
AcDbVertex
100
AcDb2dVertex
 10
63.80721132749557
 20
81.30780216939405
 30
0.0
  0
SEQEND
  5
57C
330
577
100
AcDbEntity
  8
Capa 1
 62
     7
420
 16777215
370
     9
  0
POLYLINE
  5
57D
330
1F
100
AcDbEntity
  8
Capa 1
 62
     7
420
 16777215
370
     9
100
AcDb2dPolyline
 66
     1
 10
0.0
 20
0.0
 30
0.0
  0
VERTEX
  5
57E
330
57D
100
AcDbEntity
  8
Capa 1
 62
     7
420
 16777215
370
     9
100
AcDbVertex
100
AcDb2dVertex
 10
63.61671100456549
 20
81.4030523308591
 30
0.0
  0
VERTEX
  5
57F
330
57D
100
AcDbEntity
  8
Capa 1
 62
     7
420
 16777215
370
     9
100
AcDbVertex
100
AcDb2dVertex
 10
63.45795938971667
 20
81.43480103894035
 30
0.0
  0
VERTEX
  5
580
330
57D
100
AcDbEntity
  8
Capa 1
 62
     7
420
 16777215
370
     9
100
AcDbVertex
100
AcDb2dVertex
 10
63.23571035870534
 20
81.4030523308591
 30
0.0
  0
VERTEX
  5
581
330
57D
100
AcDbEntity
  8
Capa 1
 62
     7
420
 16777215
370
     9
100
AcDbVertex
100
AcDb2dVertex
 10
63.17220890532155
 20
81.37129958555657
 30
0.0
  0
SEQEND
  5
582
330
57D
100
AcDbEntity
  8
Capa 1
 62
     7
420
 16777215
370
     9
  0
POLYLINE
  5
583
330
1F
100
AcDbEntity
  8
Capa 1
 62
     7
420
 16777215
370
     9
100
AcDb2dPolyline
 66
     1
 10
0.0
 20
0.0
 30
0.0
  0
VERTEX
  5
584
330
583
100
AcDbEntity
  8
Capa 1
 62
     7
420
 16777215
370
     9
100
AcDbVertex
100
AcDb2dVertex
 10
63.013461327694
 20
81.21255200792902
 30
0.0
  0
VERTEX
  5
585
330
583
100
AcDbEntity
  8
Capa 1
 62
     7
420
 16777215
370
     9
100
AcDbVertex
100
AcDb2dVertex
 10
62.91821116622896
 20
81.08555313838272
 30
0.0
  0
VERTEX
  5
586
330
583
100
AcDbEntity
  8
Capa 1
 62
     7
420
 16777215
370
     9
100
AcDbVertex
100
AcDb2dVertex
 10
62.88645842092644
 20
80.86330007015012
 30
0.0
  0
VERTEX
  5
587
330
583
100
AcDbEntity
  8
Capa 1
 62
     7
420
 16777215
370
     9
100
AcDbVertex
100
AcDb2dVertex
 10
62.91821116622896
 20
80.76804990868509
 30
0.0
  0
SEQEND
  5
588
330
583
100
AcDbEntity
  8
Capa 1
 62
     7
420
 16777215
370
     9
  0
POLYLINE
  5
589
330
1F
100
AcDbEntity
  8
Capa 1
 62
     7
420
 16777215
370
     9
100
AcDb2dPolyline
 66
     1
 10
0.0
 20
0.0
 30
0.0
  0
VERTEX
  5
58A
330
589
100
AcDbEntity
  8
Capa 1
 62
     7
420
 16777215
370
     9
100
AcDbVertex
100
AcDb2dVertex
 10
63.013461327694
 20
80.54580087767374
 30
0.0
  0
VERTEX
  5
58B
330
589
100
AcDbEntity
  8
Capa 1
 62
     7
420
 16777215
370
     9
100
AcDbVertex
100
AcDb2dVertex
 10
63.04521003577526
 20
80.48229942428996
 30
0.0
  0
VERTEX
  5
58C
330
589
100
AcDbEntity
  8
Capa 1
 62
     7
420
 16777215
370
     9
100
AcDbVertex
100
AcDb2dVertex
 10
63.23571035870534
 20
80.35530055474366
 30
0.0
  0
VERTEX
  5
58D
330
589
100
AcDbEntity
  8
Capa 1
 62
     7
420
 16777215
370
     9
100
AcDbVertex
100
AcDb2dVertex
 10
63.39445793633288
 20
80.32355184666241
 30
0.0
  0
SEQEND
  5
58E
330
589
100
AcDbEntity
  8
Capa 1
 62
     7
420
 16777215
370
     9
  0
POLYLINE
  5
58F
330
1F
100
AcDbEntity
  8
Capa 1
 62
     7
420
 16777215
370
     9
100
AcDb2dPolyline
 66
     1
 10
0.0
 20
0.0
 30
0.0
  0
VERTEX
  5
590
330
58F
100
AcDbEntity
  8
Capa 1
 62
     7
420
 16777215
370
     9
100
AcDbVertex
100
AcDb2dVertex
 10
63.61671100456549
 20
80.35530055474366
 30
0.0
  0
VERTEX
  5
591
330
58F
100
AcDbEntity
  8
Capa 1
 62
     7
420
 16777215
370
     9
100
AcDbVertex
100
AcDb2dVertex
 10
63.64845971264803
 20
80.35530055474366
 30
0.0
  0
VERTEX
  5
592
330
58F
100
AcDbEntity
  8
Capa 1
 62
     7
420
 16777215
370
     9
100
AcDbVertex
100
AcDb2dVertex
 10
63.83896003557683
 20
80.48229942428996
 30
0.0
  0
VERTEX
  5
593
330
58F
100
AcDbEntity
  8
Capa 1
 62
     7
420
 16777215
370
     9
100
AcDbVertex
100
AcDb2dVertex
 10
63.96595890512312
 20
80.64105103913879
 30
0.0
  0
SEQEND
  5
594
330
58F
100
AcDbEntity
  8
Capa 1
 62
     7
420
 16777215
370
     9
  0
POLYLINE
  5
595
330
1F
100
AcDbEntity
  8
Capa 1
 62
     7
420
 16777215
370
     9
100
AcDb2dPolyline
 66
     1
 10
0.0
 20
0.0
 30
0.0
  0
VERTEX
  5
596
330
595
100
AcDbEntity
  8
Capa 1
 62
     7
420
 16777215
370
     9
100
AcDbVertex
100
AcDb2dVertex
 10
63.99771165042564
 20
80.86330007015012
 30
0.0
  0
VERTEX
  5
597
330
595
100
AcDbEntity
  8
Capa 1
 62
     7
420
 16777215
370
     9
100
AcDbVertex
100
AcDb2dVertex
 10
64.0294603585069
 20
80.86330007015012
 30
0.0
  0
SEQEND
  5
598
330
595
100
AcDbEntity
  8
Capa 1
 62
     7
420
 16777215
370
     9
  0
POLYLINE
  5
599
330
1F
100
AcDbEntity
  8
Capa 1
 62
     7
420
 16777215
370
     9
100
AcDb2dPolyline
 66
     1
 10
0.0
 20
0.0
 30
0.0
  0
VERTEX
  5
59A
330
599
100
AcDbEntity
  8
Capa 1
 62
     7
420
 16777215
370
     9
100
AcDbVertex
100
AcDb2dVertex
 10
63.99771165042564
 20
92.8648002286386
 30
0.0
  0
VERTEX
  5
59B
330
599
100
AcDbEntity
  8
Capa 1
 62
     7
420
 16777215
370
     9
100
AcDbVertex
100
AcDb2dVertex
 10
63.96595890512312
 20
93.08704925964993
 30
0.0
  0
VERTEX
  5
59C
330
599
100
AcDbEntity
  8
Capa 1
 62
     7
420
 16777215
370
     9
100
AcDbVertex
100
AcDb2dVertex
 10
63.83896003557683
 20
93.27754958258001
 30
0.0
  0
VERTEX
  5
59D
330
599
100
AcDbEntity
  8
Capa 1
 62
     7
420
 16777215
370
     9
100
AcDbVertex
100
AcDb2dVertex
 10
63.80721132749557
 20
93.27754958258001
 30
0.0
  0
SEQEND
  5
59E
330
599
100
AcDbEntity
  8
Capa 1
 62
     7
420
 16777215
370
     9
  0
POLYLINE
  5
59F
330
1F
100
AcDbEntity
  8
Capa 1
 62
     7
420
 16777215
370
     9
100
AcDb2dPolyline
 66
     1
 10
0.0
 20
0.0
 30
0.0
  0
VERTEX
  5
5A0
330
59F
100
AcDbEntity
  8
Capa 1
 62
     7
420
 16777215
370
     9
100
AcDbVertex
100
AcDb2dVertex
 10
63.61671100456549
 20
93.40455248934757
 30
0.0
  0
VERTEX
  5
5A1
330
59F
100
AcDbEntity
  8
Capa 1
 62
     7
420
 16777215
370
     9
100
AcDbVertex
100
AcDb2dVertex
 10
63.45795938971667
 20
93.43630119742882
 30
0.0
  0
VERTEX
  5
5A2
330
59F
100
AcDbEntity
  8
Capa 1
 62
     7
420
 16777215
370
     9
100
AcDbVertex
100
AcDb2dVertex
 10
63.23571035870534
 20
93.40455248934757
 30
0.0
  0
VERTEX
  5
5A3
330
59F
100
AcDbEntity
  8
Capa 1
 62
     7
420
 16777215
370
     9
100
AcDbVertex
100
AcDb2dVertex
 10
63.17220890532155
 20
93.37279974404504
 30
0.0
  0
SEQEND
  5
5A4
330
59F
100
AcDbEntity
  8
Capa 1
 62
     7
420
 16777215
370
     9
  0
POLYLINE
  5
5A5
330
1F
100
AcDbEntity
  8
Capa 1
 62
     7
420
 16777215
370
     9
100
AcDb2dPolyline
 66
     1
 10
0.0
 20
0.0
 30
0.0
  0
VERTEX
  5
5A6
330
5A5
100
AcDbEntity
  8
Capa 1
 62
     7
420
 16777215
370
     9
100
AcDbVertex
100
AcDb2dVertex
 10
63.013461327694
 20
93.21405216641749
 30
0.0
  0
VERTEX
  5
5A7
330
5A5
100
AcDbEntity
  8
Capa 1
 62
     7
420
 16777215
370
     9
100
AcDbVertex
100
AcDb2dVertex
 10
62.91821116622896
 20
93.08704925964993
 30
0.0
  0
VERTEX
  5
5A8
330
5A5
100
AcDbEntity
  8
Capa 1
 62
     7
420
 16777215
370
     9
100
AcDbVertex
100
AcDb2dVertex
 10
62.88645842092644
 20
92.8648002286386
 30
0.0
  0
VERTEX
  5
5A9
330
5A5
100
AcDbEntity
  8
Capa 1
 62
     7
420
 16777215
370
     9
100
AcDbVertex
100
AcDb2dVertex
 10
62.91821116622896
 20
92.76955006717355
 30
0.0
  0
SEQEND
  5
5AA
330
5A5
100
AcDbEntity
  8
Capa 1
 62
     7
420
 16777215
370
     9
  0
POLYLINE
  5
5AB
330
1F
100
AcDbEntity
  8
Capa 1
 62
     7
420
 16777215
370
     9
100
AcDb2dPolyline
 66
     1
 10
0.0
 20
0.0
 30
0.0
  0
VERTEX
  5
5AC
330
5AB
100
AcDbEntity
  8
Capa 1
 62
     7
420
 16777215
370
     9
100
AcDbVertex
100
AcDb2dVertex
 10
63.013461327694
 20
92.54730103616222
 30
0.0
  0
VERTEX
  5
5AD
330
5AB
100
AcDbEntity
  8
Capa 1
 62
     7
420
 16777215
370
     9
100
AcDbVertex
100
AcDb2dVertex
 10
63.04521003577526
 20
92.48379958277845
 30
0.0
  0
VERTEX
  5
5AE
330
5AB
100
AcDbEntity
  8
Capa 1
 62
     7
420
 16777215
370
     9
100
AcDbVertex
100
AcDb2dVertex
 10
63.23571035870534
 20
92.35680071323215
 30
0.0
  0
VERTEX
  5
5AF
330
5AB
100
AcDbEntity
  8
Capa 1
 62
     7
420
 16777215
370
     9
100
AcDbVertex
100
AcDb2dVertex
 10
63.39445793633288
 20
92.3250520051509
 30
0.0
  0
SEQEND
  5
5B0
330
5AB
100
AcDbEntity
  8
Capa 1
 62
     7
420
 16777215
370
     9
  0
POLYLINE
  5
5B1
330
1F
100
AcDbEntity
  8
Capa 1
 62
     7
420
 16777215
370
     9
100
AcDb2dPolyline
 66
     1
 10
0.0
 20
0.0
 30
0.0
  0
VERTEX
  5
5B2
330
5B1
100
AcDbEntity
  8
Capa 1
 62
     7
420
 16777215
370
     9
100
AcDbVertex
100
AcDb2dVertex
 10
63.61671100456549
 20
92.35680071323215
 30
0.0
  0
VERTEX
  5
5B3
330
5B1
100
AcDbEntity
  8
Capa 1
 62
     7
420
 16777215
370
     9
100
AcDbVertex
100
AcDb2dVertex
 10
63.64845971264803
 20
92.35680071323215
 30
0.0
  0
VERTEX
  5
5B4
330
5B1
100
AcDbEntity
  8
Capa 1
 62
     7
420
 16777215
370
     9
100
AcDbVertex
100
AcDb2dVertex
 10
63.83896003557683
 20
92.48379958277845
 30
0.0
  0
VERTEX
  5
5B5
330
5B1
100
AcDbEntity
  8
Capa 1
 62
     7
420
 16777215
370
     9
100
AcDbVertex
100
AcDb2dVertex
 10
63.96595890512312
 20
92.64255119762726
 30
0.0
  0
SEQEND
  5
5B6
330
5B1
100
AcDbEntity
  8
Capa 1
 62
     7
420
 16777215
370
     9
  0
POLYLINE
  5
5B7
330
1F
100
AcDbEntity
  8
Capa 1
 62
     7
420
 16777215
370
     9
100
AcDb2dPolyline
 66
     1
 10
0.0
 20
0.0
 30
0.0
  0
VERTEX
  5
5B8
330
5B7
100
AcDbEntity
  8
Capa 1
 62
     7
420
 16777215
370
     9
100
AcDbVertex
100
AcDb2dVertex
 10
63.99771165042564
 20
92.8648002286386
 30
0.0
  0
VERTEX
  5
5B9
330
5B7
100
AcDbEntity
  8
Capa 1
 62
     7
420
 16777215
370
     9
100
AcDbVertex
100
AcDb2dVertex
 10
64.0294603585069
 20
92.8648002286386
 30
0.0
  0
SEQEND
  5
5BA
330
5B7
100
AcDbEntity
  8
Capa 1
 62
     7
420
 16777215
370
     9
  0
POLYLINE
  5
5BB
330
1F
100
AcDbEntity
  8
Capa 1
 62
     7
420
 16777215
370
     9
100
AcDb2dPolyline
 66
     1
 10
0.0
 20
0.0
 30
0.0
  0
VERTEX
  5
5BC
330
5BB
100
AcDbEntity
  8
Capa 1
 62
     7
420
 16777215
370
     9
100
AcDbVertex
100
AcDb2dVertex
 10
63.45795938971667
 20
93.05530055156868
 30
0.0
  0
VERTEX
  5
5BD
330
5BB
100
AcDbEntity
  8
Capa 1
 62
     7
420
 16777215
370
     9
100
AcDbVertex
100
AcDb2dVertex
 10
63.45795938971667
 20
92.8648002286386
 30
0.0
  0
VERTEX
  5
5BE
330
5BB
100
AcDbEntity
  8
Capa 1
 62
     7
420
 16777215
370
     9
100
AcDbVertex
100
AcDb2dVertex
 10
63.26745906678659
 20
92.8648002286386
 30
0.0
  0
SEQEND
  5
5BF
330
5BB
100
AcDbEntity
  8
Capa 1
 62
     7
420
 16777215
370
     9
  0
POLYLINE
  5
5C0
330
1F
100
AcDbEntity
  8
Capa 1
 62
     7
420
 16777215
370
     9
100
AcDb2dPolyline
 66
     1
 10
0.0
 20
0.0
 30
0.0
  0
VERTEX
  5
5C1
330
5C0
100
AcDbEntity
  8
Capa 1
 62
     7
420
 16777215
370
     9
100
AcDbVertex
100
AcDb2dVertex
 10
63.45795938971667
 20
92.70605265101105
 30
0.0
  0
VERTEX
  5
5C2
330
5C0
100
AcDbEntity
  8
Capa 1
 62
     7
420
 16777215
370
     9
100
AcDbVertex
100
AcDb2dVertex
 10
63.45795938971667
 20
92.8648002286386
 30
0.0
  0
VERTEX
  5
5C3
330
5C0
100
AcDbEntity
  8
Capa 1
 62
     7
420
 16777215
370
     9
100
AcDbVertex
100
AcDb2dVertex
 10
63.64845971264803
 20
92.8648002286386
 30
0.0
  0
SEQEND
  5
5C4
330
5C0
100
AcDbEntity
  8
Capa 1
 62
     7
420
 16777215
370
     9
  0
POLYLINE
  5
5C5
330
1F
100
AcDbEntity
  8
Capa 1
 62
     7
420
 16777215
370
     9
100
AcDb2dPolyline
 66
     1
 10
0.0
 20
0.0
 30
0.0
  0
VERTEX
  5
5C6
330
5C5
100
AcDbEntity
  8
Capa 1
 62
     7
420
 16777215
370
     9
100
AcDbVertex
100
AcDb2dVertex
 10
63.83896003557683
 20
92.8648002286386
 30
0.0
  0
VERTEX
  5
5C7
330
5C5
100
AcDbEntity
  8
Capa 1
 62
     7
420
 16777215
370
     9
100
AcDbVertex
100
AcDb2dVertex
 10
64.18820793613445
 20
92.8648002286386
 30
0.0
  0
SEQEND
  5
5C8
330
5C5
100
AcDbEntity
  8
Capa 1
 62
     7
420
 16777215
370
     9
  0
POLYLINE
  5
5C9
330
1F
100
AcDbEntity
  8
Capa 1
 62
     7
420
 16777215
370
     9
100
AcDb2dPolyline
 66
     1
 10
0.0
 20
0.0
 30
0.0
  0
VERTEX
  5
5CA
330
5C9
100
AcDbEntity
  8
Capa 1
 62
     7
420
 16777215
370
     9
100
AcDbVertex
100
AcDb2dVertex
 10
63.45795938971667
 20
92.51555232808097
 30
0.0
  0
VERTEX
  5
5CB
330
5C9
100
AcDbEntity
  8
Capa 1
 62
     7
420
 16777215
370
     9
100
AcDbVertex
100
AcDb2dVertex
 10
63.45795938971667
 20
92.13455168222082
 30
0.0
  0
SEQEND
  5
5CC
330
5C9
100
AcDbEntity
  8
Capa 1
 62
     7
420
 16777215
370
     9
  0
POLYLINE
  5
5CD
330
1F
100
AcDbEntity
  8
Capa 1
 62
     7
420
 16777215
370
     9
100
AcDb2dPolyline
 66
     1
 10
0.0
 20
0.0
 30
0.0
  0
VERTEX
  5
5CE
330
5CD
100
AcDbEntity
  8
Capa 1
 62
     7
420
 16777215
370
     9
100
AcDbVertex
100
AcDb2dVertex
 10
63.07695874385652
 20
92.8648002286386
 30
0.0
  0
VERTEX
  5
5CF
330
5CD
100
AcDbEntity
  8
Capa 1
 62
     7
420
 16777215
370
     9
100
AcDbVertex
100
AcDb2dVertex
 10
62.69595809799636
 20
92.8648002286386
 30
0.0
  0
SEQEND
  5
5D0
330
5CD
100
AcDbEntity
  8
Capa 1
 62
     7
420
 16777215
370
     9
  0
POLYLINE
  5
5D1
330
1F
100
AcDbEntity
  8
Capa 1
 62
     7
420
 16777215
370
     9
100
AcDb2dPolyline
 66
     1
 10
0.0
 20
0.0
 30
0.0
  0
VERTEX
  5
5D2
330
5D1
100
AcDbEntity
  8
Capa 1
 62
     7
420
 16777215
370
     9
100
AcDbVertex
100
AcDb2dVertex
 10
63.45795938971667
 20
93.24580087449876
 30
0.0
  0
VERTEX
  5
5D3
330
5D1
100
AcDbEntity
  8
Capa 1
 62
     7
420
 16777215
370
     9
100
AcDbVertex
100
AcDb2dVertex
 10
63.45795938971667
 20
93.6268015203589
 30
0.0
  0
SEQEND
  5
5D4
330
5D1
100
AcDbEntity
  8
Capa 1
 62
     7
420
 16777215
370
     9
  0
POLYLINE
  5
5D5
330
1F
100
AcDbEntity
  8
Capa 1
 62
     7
420
 16777215
370
     9
100
AcDb2dPolyline
 66
     1
 10
0.0
 20
0.0
 30
0.0
  0
VERTEX
  5
5D6
330
5D5
100
AcDbEntity
  8
Capa 1
 62
     7
420
 16777215
370
     9
100
AcDbVertex
100
AcDb2dVertex
 10
63.45795938971667
 20
81.0538003930802
 30
0.0
  0
VERTEX
  5
5D7
330
5D5
100
AcDbEntity
  8
Capa 1
 62
     7
420
 16777215
370
     9
100
AcDbVertex
100
AcDb2dVertex
 10
63.45795938971667
 20
80.86330007015012
 30
0.0
  0
VERTEX
  5
5D8
330
5D5
100
AcDbEntity
  8
Capa 1
 62
     7
420
 16777215
370
     9
100
AcDbVertex
100
AcDb2dVertex
 10
63.26745906678659
 20
80.86330007015012
 30
0.0
  0
SEQEND
  5
5D9
330
5D5
100
AcDbEntity
  8
Capa 1
 62
     7
420
 16777215
370
     9
  0
POLYLINE
  5
5DA
330
1F
100
AcDbEntity
  8
Capa 1
 62
     7
420
 16777215
370
     9
100
AcDb2dPolyline
 66
     1
 10
0.0
 20
0.0
 30
0.0
  0
VERTEX
  5
5DB
330
5DA
100
AcDbEntity
  8
Capa 1
 62
     7
420
 16777215
370
     9
100
AcDbVertex
100
AcDb2dVertex
 10
63.45795938971667
 20
80.70455249252257
 30
0.0
  0
VERTEX
  5
5DC
330
5DA
100
AcDbEntity
  8
Capa 1
 62
     7
420
 16777215
370
     9
100
AcDbVertex
100
AcDb2dVertex
 10
63.45795938971667
 20
80.86330007015012
 30
0.0
  0
VERTEX
  5
5DD
330
5DA
100
AcDbEntity
  8
Capa 1
 62
     7
420
 16777215
370
     9
100
AcDbVertex
100
AcDb2dVertex
 10
63.64845971264803
 20
80.86330007015012
 30
0.0
  0
SEQEND
  5
5DE
330
5DA
100
AcDbEntity
  8
Capa 1
 62
     7
420
 16777215
370
     9
  0
POLYLINE
  5
5DF
330
1F
100
AcDbEntity
  8
Capa 1
 62
     7
420
 16777215
370
     9
100
AcDb2dPolyline
 66
     1
 10
0.0
 20
0.0
 30
0.0
  0
VERTEX
  5
5E0
330
5DF
100
AcDbEntity
  8
Capa 1
 62
     7
420
 16777215
370
     9
100
AcDbVertex
100
AcDb2dVertex
 10
63.20396165062408
 20
86.86405216800499
 30
0.0
  0
VERTEX
  5
5E1
330
5DF
100
AcDbEntity
  8
Capa 1
 62
     7
420
 16777215
370
     9
100
AcDbVertex
100
AcDb2dVertex
 10
63.680208420728
 20
86.86405216800499
 30
0.0
  0
SEQEND
  5
5E2
330
5DF
100
AcDbEntity
  8
Capa 1
 62
     7
420
 16777215
370
     9
  0
POLYLINE
  5
5E3
330
1F
100
AcDbEntity
  8
Capa 1
 62
     7
420
 16777215
370
     9
100
AcDb2dPolyline
 66
     1
 10
0.0
 20
0.0
 30
0.0
  0
VERTEX
  5
5E4
330
5E3
100
AcDbEntity
  8
Capa 1
 62
     7
420
 16777215
370
     9
100
AcDbVertex
100
AcDb2dVertex
 10
61.10845809839324
 20
86.86405216800499
 30
0.0
  0
VERTEX
  5
5E5
330
5E3
100
AcDbEntity
  8
Capa 1
 62
     7
420
 16777215
370
     9
100
AcDbVertex
100
AcDb2dVertex
 10
62.75945955138015
 20
86.86405216800499
 30
0.0
  0
SEQEND
  5
5E6
330
5E3
100
AcDbEntity
  8
Capa 1
 62
     7
420
 16777215
370
     9
  0
POLYLINE
  5
5E7
330
1F
100
AcDbEntity
  8
Capa 1
 62
     7
420
 16777215
370
     9
100
AcDb2dPolyline
 66
     1
 10
0.0
 20
0.0
 30
0.0
  0
VERTEX
  5
5E8
330
5E7
100
AcDbEntity
  8
Capa 1
 62
     7
420
 16777215
370
     9
100
AcDbVertex
100
AcDb2dVertex
 10
63.83896003557683
 20
80.86330007015012
 30
0.0
  0
VERTEX
  5
5E9
330
5E7
100
AcDbEntity
  8
Capa 1
 62
     7
420
 16777215
370
     9
100
AcDbVertex
100
AcDb2dVertex
 10
64.18820793613445
 20
80.86330007015012
 30
0.0
  0
SEQEND
  5
5EA
330
5E7
100
AcDbEntity
  8
Capa 1
 62
     7
420
 16777215
370
     9
  0
POLYLINE
  5
5EB
330
1F
100
AcDbEntity
  8
Capa 1
 62
     7
420
 16777215
370
     9
100
AcDb2dPolyline
 66
     1
 10
0.0
 20
0.0
 30
0.0
  0
VERTEX
  5
5EC
330
5EB
100
AcDbEntity
  8
Capa 1
 62
     7
420
 16777215
370
     9
100
AcDbVertex
100
AcDb2dVertex
 10
63.45795938971667
 20
80.51405216959249
 30
0.0
  0
VERTEX
  5
5ED
330
5EB
100
AcDbEntity
  8
Capa 1
 62
     7
420
 16777215
370
     9
100
AcDbVertex
100
AcDb2dVertex
 10
63.45795938971667
 20
80.13305152373233
 30
0.0
  0
SEQEND
  5
5EE
330
5EB
100
AcDbEntity
  8
Capa 1
 62
     7
420
 16777215
370
     9
  0
POLYLINE
  5
5EF
330
1F
100
AcDbEntity
  8
Capa 1
 62
     7
420
 16777215
370
     9
100
AcDb2dPolyline
 66
     1
 10
0.0
 20
0.0
 30
0.0
  0
VERTEX
  5
5F0
330
5EF
100
AcDbEntity
  8
Capa 1
 62
     7
420
 16777215
370
     9
100
AcDbVertex
100
AcDb2dVertex
 10
63.07695874385652
 20
80.86330007015012
 30
0.0
  0
VERTEX
  5
5F1
330
5EF
100
AcDbEntity
  8
Capa 1
 62
     7
420
 16777215
370
     9
100
AcDbVertex
100
AcDb2dVertex
 10
62.69595809799636
 20
80.86330007015012
 30
0.0
  0
SEQEND
  5
5F2
330
5EF
100
AcDbEntity
  8
Capa 1
 62
     7
420
 16777215
370
     9
  0
POLYLINE
  5
5F3
330
1F
100
AcDbEntity
  8
Capa 1
 62
     7
420
 16777215
370
     9
100
AcDb2dPolyline
 66
     1
 10
0.0
 20
0.0
 30
0.0
  0
VERTEX
  5
5F4
330
5F3
100
AcDbEntity
  8
Capa 1
 62
     7
420
 16777215
370
     9
100
AcDbVertex
100
AcDb2dVertex
 10
63.45795938971667
 20
81.24430071601027
 30
0.0
  0
VERTEX
  5
5F5
330
5F3
100
AcDbEntity
  8
Capa 1
 62
     7
420
 16777215
370
     9
100
AcDbVertex
100
AcDb2dVertex
 10
63.45795938971667
 20
81.62530136187043
 30
0.0
  0
SEQEND
  5
5F6
330
5F3
100
AcDbEntity
  8
Capa 1
 62
     7
420
 16777215
370
     9
  0
POLYLINE
  5
5F7
330
1F
100
AcDbEntity
  8
Capa 1
 62
     7
420
 16777215
370
     9
100
AcDb2dPolyline
 66
     1
 10
0.0
 20
0.0
 30
0.0
  0
VERTEX
  5
5F8
330
5F7
100
AcDbEntity
  8
Capa 1
 62
     7
420
 16777215
370
     9
100
AcDbVertex
100
AcDb2dVertex
 10
64.1564592280532
 20
86.86405216800499
 30
0.0
  0
VERTEX
  5
5F9
330
5F7
100
AcDbEntity
  8
Capa 1
 62
     7
420
 16777215
370
     9
100
AcDbVertex
100
AcDb2dVertex
 10
65.8074606810401
 20
86.86405216800499
 30
0.0
  0
SEQEND
  5
5FA
330
5F7
100
AcDbEntity
  8
Capa 1
 62
     7
420
 16777215
370
     9
  0
POLYLINE
  5
5FB
330
1F
100
AcDbEntity
  8
Capa 1
 62
     7
420
 16777215
370
     9
100
AcDb2dPolyline
 66
     1
 10
0.0
 20
0.0
 30
0.0
  0
VERTEX
  5
5FC
330
5FB
100
AcDbEntity
  8
Capa 1
 62
     7
420
 16777215
370
     9
100
AcDbVertex
100
AcDb2dVertex
 10
63.45795938971667
 20
87.18155136048136
 30
0.0
  0
VERTEX
  5
5FD
330
5FB
100
AcDbEntity
  8
Capa 1
 62
     7
420
 16777215
370
     9
100
AcDbVertex
100
AcDb2dVertex
 10
63.45795938971667
 20
86.70530055315618
 30
0.0
  0
SEQEND
  5
5FE
330
5FB
100
AcDbEntity
  8
Capa 1
 62
     7
420
 16777215
370
     9
  0
POLYLINE
  5
5FF
330
1F
100
AcDbEntity
  8
Capa 1
 62
     7
420
 16777215
370
     9
100
AcDb2dPolyline
 66
     1
 10
0.0
 20
0.0
 30
0.0
  0
VERTEX
  5
600
330
5FF
100
AcDbEntity
  8
Capa 1
 62
     7
420
 16777215
370
     9
100
AcDbVertex
100
AcDb2dVertex
 10
63.45795938971667
 20
89.65805152135108
 30
0.0
  0
VERTEX
  5
601
330
5FF
100
AcDbEntity
  8
Capa 1
 62
     7
420
 16777215
370
     9
100
AcDbVertex
100
AcDb2dVertex
 10
63.45795938971667
 20
87.65780216780655
 30
0.0
  0
SEQEND
  5
602
330
5FF
100
AcDbEntity
  8
Capa 1
 62
     7
420
 16777215
370
     9
  0
POLYLINE
  5
603
330
1F
100
AcDbEntity
  8
Capa 1
 62
     7
420
 16777215
370
     9
100
AcDb2dPolyline
 66
     1
 10
0.0
 20
0.0
 30
0.0
  0
VERTEX
  5
604
330
603
100
AcDbEntity
  8
Capa 1
 62
     7
420
 16777215
370
     9
100
AcDbVertex
100
AcDb2dVertex
 10
63.45795938971667
 20
86.2608024911335
 30
0.0
  0
VERTEX
  5
605
330
603
100
AcDbEntity
  8
Capa 1
 62
     7
420
 16777215
370
     9
100
AcDbVertex
100
AcDb2dVertex
 10
63.45795938971667
 20
84.26055313758897
 30
0.0
  0
SEQEND
  5
606
330
603
100
AcDbEntity
  8
Capa 1
 62
     7
420
 16777215
370
     9
  0
POLYLINE
  5
607
330
1F
100
AcDbEntity
  8
Capa 1
 62
     7
420
 16777215
370
     9
100
AcDb2dPolyline
 66
     1
 10
0.0
 20
0.0
 30
0.0
  0
VERTEX
  5
608
330
607
100
AcDbEntity
  8
Capa 1
 62
     7
420
 16777215
370
     9
100
AcDbVertex
100
AcDb2dVertex
 10
55.29808318821965
 20
82.22855103874191
 30
0.0
  0
VERTEX
  5
609
330
607
100
AcDbEntity
  8
Capa 1
 62
     7
420
 16777215
370
     9
100
AcDbVertex
100
AcDb2dVertex
 10
55.29808318821965
 20
84.99080168400675
 30
0.0
  0
SEQEND
  5
60A
330
607
100
AcDbEntity
  8
Capa 1
 62
     7
420
 16777215
370
     9
  0
POLYLINE
  5
60B
330
1F
100
AcDbEntity
  8
Capa 1
 62
     7
420
 16777215
370
     9
100
AcDb2dPolyline
 66
     1
 10
0.0
 20
0.0
 30
0.0
  0
VERTEX
  5
60C
330
60B
100
AcDbEntity
  8
Capa 1
 62
     7
420
 16777215
370
     9
100
AcDbVertex
100
AcDb2dVertex
 10
55.29808318821965
 20
91.53130200534933
 30
0.0
  0
VERTEX
  5
60D
330
60B
100
AcDbEntity
  8
Capa 1
 62
     7
420
 16777215
370
     9
100
AcDbVertex
100
AcDb2dVertex
 10
55.29808318821965
 20
88.76905136008449
 30
0.0
  0
SEQEND
  5
60E
330
60B
100
AcDbEntity
  8
Capa 1
 62
     7
420
 16777215
370
     9
  0
POLYLINE
  5
60F
330
1F
100
AcDbEntity
  8
Capa 1
 62
     7
420
 16777215
370
     9
100
AcDb2dPolyline
 66
     1
 10
0.0
 20
0.0
 30
0.0
  0
VERTEX
  5
610
330
60F
100
AcDbEntity
  8
Capa 1
 62
     7
420
 16777215
370
     9
100
AcDbVertex
100
AcDb2dVertex
 10
62.31496148935748
 20
80.86330007015012
 30
0.0
  0
VERTEX
  5
611
330
60F
100
AcDbEntity
  8
Capa 1
 62
     7
420
 16777215
370
     9
100
AcDbVertex
100
AcDb2dVertex
 10
54.56783262319124
 20
80.86330007015012
 30
0.0
  0
SEQEND
  5
612
330
60F
100
AcDbEntity
  8
Capa 1
 62
     7
420
 16777215
370
     9
  0
POLYLINE
  5
613
330
1F
100
AcDbEntity
  8
Capa 1
 62
     7
420
 16777215
370
     9
100
AcDb2dPolyline
 66
     1
 10
0.0
 20
0.0
 30
0.0
  0
VERTEX
  5
614
330
613
100
AcDbEntity
  8
Capa 1
 62
     7
420
 16777215
370
     9
100
AcDbVertex
100
AcDb2dVertex
 10
62.31496148935748
 20
92.8648002286386
 30
0.0
  0
VERTEX
  5
615
330
613
100
AcDbEntity
  8
Capa 1
 62
     7
420
 16777215
370
     9
100
AcDbVertex
100
AcDb2dVertex
 10
54.56783262319124
 20
92.8648002286386
 30
0.0
  0
SEQEND
  5
616
330
613
100
AcDbEntity
  8
Capa 1
 62
     7
420
 16777215
370
     9
  0
POLYLINE
  5
617
330
1F
100
AcDbEntity
  8
Capa 1
370
     0
100
AcDb2dPolyline
 66
     1
 10
0.0
 20
0.0
 30
0.0
  0
VERTEX
  5
618
330
617
100
AcDbEntity
  8
Capa 1
370
     0
100
AcDbVertex
100
AcDb2dVertex
 10
55.07583213859768
 20
91.53130200534933
 30
0.0
  0
VERTEX
  5
619
330
617
100
AcDbEntity
  8
Capa 1
370
     0
100
AcDbVertex
100
AcDb2dVertex
 10
55.55208294592288
 20
91.53130200534933
 30
0.0
  0
VERTEX
  5
61A
330
617
100
AcDbEntity
  8
Capa 1
370
     0
100
AcDbVertex
100
AcDb2dVertex
 10
55.29808318821965
 20
92.8648002286386
 30
0.0
  0
SEQEND
  5
61C
330
617
100
AcDbEntity
  8
Capa 1
370
     0
  0
HATCH
  5
61B
330
1F
100
AcDbEntity
  8
Capa 1
 62
     7
420
 16777215
100
AcDbHatch
 10
0.0
 20
0.0
 30
0.0
210
0.0
220
0.0
230
1.0
  2
SOLID
 70
     1
 71
     0
 91
        1
 92
        1
 93
        3
 72
     1
 10
55.07583213859768
 20
91.53130200534933
 11
55.55208294592288
 21
91.53130200534933
 72
     1
 10
55.55208294592288
 20
91.53130200534933
 11
55.29808318821965
 21
92.8648002286386
 72
     1
 10
55.29808318821965
 20
92.8648002286386
 11
55.07583213859768
 21
91.53130200534933
 97
        0
 75
     0
 76
     1
 98
        0
  0
POLYLINE
  5
61D
330
1F
100
AcDbEntity
  8
Capa 1
370
     0
100
AcDb2dPolyline
 66
     1
 10
0.0
 20
0.0
 30
0.0
  0
VERTEX
  5
61E
330
61D
100
AcDbEntity
  8
Capa 1
370
     0
100
AcDbVertex
100
AcDb2dVertex
 10
55.07583213859768
 20
82.22855103874191
 30
0.0
  0
VERTEX
  5
61F
330
61D
100
AcDbEntity
  8
Capa 1
370
     0
100
AcDbVertex
100
AcDb2dVertex
 10
55.55208294592288
 20
82.22855103874191
 30
0.0
  0
VERTEX
  5
620
330
61D
100
AcDbEntity
  8
Capa 1
370
     0
100
AcDbVertex
100
AcDb2dVertex
 10
55.29808318821965
 20
80.86330007015012
 30
0.0
  0
SEQEND
  5
622
330
61D
100
AcDbEntity
  8
Capa 1
370
     0
  0
HATCH
  5
621
330
1F
100
AcDbEntity
  8
Capa 1
 62
     7
420
 16777215
100
AcDbHatch
 10
0.0
 20
0.0
 30
0.0
210
0.0
220
0.0
230
1.0
  2
SOLID
 70
     1
 71
     0
 91
        1
 92
        1
 93
        3
 72
     1
 10
55.07583213859768
 20
82.22855103874191
 11
55.55208294592288
 21
82.22855103874191
 72
     1
 10
55.55208294592288
 20
82.22855103874191
 11
55.29808318821965
 21
80.86330007015012
 72
     1
 10
55.29808318821965
 20
80.86330007015012
 11
55.07583213859768
 21
82.22855103874191
 97
        0
 75
     0
 76
     1
 98
        0
  0
POLYLINE
  5
623
330
1F
100
AcDbEntity
  8
Capa 1
 62
     7
420
 16777215
370
     9
100
AcDb2dPolyline
 66
     1
 10
0.0
 20
0.0
 30
0.0
  0
VERTEX
  5
624
330
623
100
AcDbEntity
  8
Capa 1
 62
     7
420
 16777215
370
     9
100
AcDbVertex
100
AcDb2dVertex
 10
74.69745825648613
 20
93.05530055156868
 30
0.0
  0
VERTEX
  5
625
330
623
100
AcDbEntity
  8
Capa 1
 62
     7
420
 16777215
370
     9
100
AcDbVertex
100
AcDb2dVertex
 10
74.69745825648613
 20
92.8648002286386
 30
0.0
  0
VERTEX
  5
626
330
623
100
AcDbEntity
  8
Capa 1
 62
     7
420
 16777215
370
     9
100
AcDbVertex
100
AcDb2dVertex
 10
74.50695793355476
 20
92.8648002286386
 30
0.0
  0
SEQEND
  5
627
330
623
100
AcDbEntity
  8
Capa 1
 62
     7
420
 16777215
370
     9
  0
POLYLINE
  5
628
330
1F
100
AcDbEntity
  8
Capa 1
 62
     7
420
 16777215
370
     9
100
AcDb2dPolyline
 66
     1
 10
0.0
 20
0.0
 30
0.0
  0
VERTEX
  5
629
330
628
100
AcDbEntity
  8
Capa 1
 62
     7
420
 16777215
370
     9
100
AcDbVertex
100
AcDb2dVertex
 10
74.69745825648613
 20
92.70605265101105
 30
0.0
  0
VERTEX
  5
62A
330
628
100
AcDbEntity
  8
Capa 1
 62
     7
420
 16777215
370
     9
100
AcDbVertex
100
AcDb2dVertex
 10
74.69745825648613
 20
92.8648002286386
 30
0.0
  0
VERTEX
  5
62B
330
628
100
AcDbEntity
  8
Capa 1
 62
     7
420
 16777215
370
     9
100
AcDbVertex
100
AcDb2dVertex
 10
74.88795857941491
 20
92.8648002286386
 30
0.0
  0
SEQEND
  5
62C
330
628
100
AcDbEntity
  8
Capa 1
 62
     7
420
 16777215
370
     9
  0
POLYLINE
  5
62D
330
1F
100
AcDbEntity
  8
Capa 1
 62
     7
420
 16777215
370
     9
100
AcDb2dPolyline
 66
     1
 10
0.0
 20
0.0
 30
0.0
  0
VERTEX
  5
62E
330
62D
100
AcDbEntity
  8
Capa 1
 62
     7
420
 16777215
370
     9
100
AcDbVertex
100
AcDb2dVertex
 10
75.07845890234499
 20
92.8648002286386
 30
0.0
  0
VERTEX
  5
62F
330
62D
100
AcDbEntity
  8
Capa 1
 62
     7
420
 16777215
370
     9
100
AcDbVertex
100
AcDb2dVertex
 10
75.45945954820515
 20
92.8648002286386
 30
0.0
  0
SEQEND
  5
630
330
62D
100
AcDbEntity
  8
Capa 1
 62
     7
420
 16777215
370
     9
  0
POLYLINE
  5
631
330
1F
100
AcDbEntity
  8
Capa 1
 62
     7
420
 16777215
370
     9
100
AcDb2dPolyline
 66
     1
 10
0.0
 20
0.0
 30
0.0
  0
VERTEX
  5
632
330
631
100
AcDbEntity
  8
Capa 1
 62
     7
420
 16777215
370
     9
100
AcDbVertex
100
AcDb2dVertex
 10
74.69745825648613
 20
92.51555232808097
 30
0.0
  0
VERTEX
  5
633
330
631
100
AcDbEntity
  8
Capa 1
 62
     7
420
 16777215
370
     9
100
AcDbVertex
100
AcDb2dVertex
 10
74.69745825648613
 20
92.13455168222082
 30
0.0
  0
SEQEND
  5
634
330
631
100
AcDbEntity
  8
Capa 1
 62
     7
420
 16777215
370
     9
  0
POLYLINE
  5
635
330
1F
100
AcDbEntity
  8
Capa 1
 62
     7
420
 16777215
370
     9
100
AcDb2dPolyline
 66
     1
 10
0.0
 20
0.0
 30
0.0
  0
VERTEX
  5
636
330
635
100
AcDbEntity
  8
Capa 1
 62
     7
420
 16777215
370
     9
100
AcDbVertex
100
AcDb2dVertex
 10
74.31645761062468
 20
92.8648002286386
 30
0.0
  0
VERTEX
  5
637
330
635
100
AcDbEntity
  8
Capa 1
 62
     7
420
 16777215
370
     9
100
AcDbVertex
100
AcDb2dVertex
 10
73.9354610019858
 20
92.8648002286386
 30
0.0
  0
SEQEND
  5
638
330
635
100
AcDbEntity
  8
Capa 1
 62
     7
420
 16777215
370
     9
  0
POLYLINE
  5
639
330
1F
100
AcDbEntity
  8
Capa 1
 62
     7
420
 16777215
370
     9
100
AcDb2dPolyline
 66
     1
 10
0.0
 20
0.0
 30
0.0
  0
VERTEX
  5
63A
330
639
100
AcDbEntity
  8
Capa 1
 62
     7
420
 16777215
370
     9
100
AcDbVertex
100
AcDb2dVertex
 10
74.69745825648613
 20
93.24580087449876
 30
0.0
  0
VERTEX
  5
63B
330
639
100
AcDbEntity
  8
Capa 1
 62
     7
420
 16777215
370
     9
100
AcDbVertex
100
AcDb2dVertex
 10
74.69745825648613
 20
93.6268015203589
 30
0.0
  0
SEQEND
  5
63C
330
639
100
AcDbEntity
  8
Capa 1
 62
     7
420
 16777215
370
     9
  0
POLYLINE
  5
63D
330
1F
100
AcDbEntity
  8
Capa 1
 62
     7
420
 16777215
370
     9
100
AcDb2dPolyline
 66
     1
 10
0.0
 20
0.0
 30
0.0
  0
VERTEX
  5
63E
330
63D
100
AcDbEntity
  8
Capa 1
 62
     7
420
 16777215
370
     9
100
AcDbVertex
100
AcDb2dVertex
 10
74.50695793355476
 20
80.86330007015012
 30
0.0
  0
VERTEX
  5
63F
330
63D
100
AcDbEntity
  8
Capa 1
 62
     7
420
 16777215
370
     9
100
AcDbVertex
100
AcDb2dVertex
 10
74.69745825648613
 20
80.86330007015012
 30
0.0
  0
VERTEX
  5
640
330
63D
100
AcDbEntity
  8
Capa 1
 62
     7
420
 16777215
370
     9
100
AcDbVertex
100
AcDb2dVertex
 10
74.69745825648613
 20
80.70455249252257
 30
0.0
  0
SEQEND
  5
641
330
63D
100
AcDbEntity
  8
Capa 1
 62
     7
420
 16777215
370
     9
  0
POLYLINE
  5
642
330
1F
100
AcDbEntity
  8
Capa 1
 62
     7
420
 16777215
370
     9
100
AcDb2dPolyline
 66
     1
 10
0.0
 20
0.0
 30
0.0
  0
VERTEX
  5
643
330
642
100
AcDbEntity
  8
Capa 1
 62
     7
420
 16777215
370
     9
100
AcDbVertex
100
AcDb2dVertex
 10
74.88795857941491
 20
80.86330007015012
 30
0.0
  0
VERTEX
  5
644
330
642
100
AcDbEntity
  8
Capa 1
 62
     7
420
 16777215
370
     9
100
AcDbVertex
100
AcDb2dVertex
 10
74.69745825648613
 20
80.86330007015012
 30
0.0
  0
VERTEX
  5
645
330
642
100
AcDbEntity
  8
Capa 1
 62
     7
420
 16777215
370
     9
100
AcDbVertex
100
AcDb2dVertex
 10
74.69745825648613
 20
81.0538003930802
 30
0.0
  0
SEQEND
  5
646
330
642
100
AcDbEntity
  8
Capa 1
 62
     7
420
 16777215
370
     9
  0
POLYLINE
  5
647
330
1F
100
AcDbEntity
  8
Capa 1
 62
     7
420
 16777215
370
     9
100
AcDb2dPolyline
 66
     1
 10
0.0
 20
0.0
 30
0.0
  0
VERTEX
  5
648
330
647
100
AcDbEntity
  8
Capa 1
 62
     7
420
 16777215
370
     9
100
AcDbVertex
100
AcDb2dVertex
 10
72.53846132531275
 20
82.22855103874191
 30
0.0
  0
VERTEX
  5
649
330
647
100
AcDbEntity
  8
Capa 1
 62
     7
420
 16777215
370
     9
100
AcDbVertex
100
AcDb2dVertex
 10
72.53846132531275
 20
84.99080168400675
 30
0.0
  0
SEQEND
  5
64A
330
647
100
AcDbEntity
  8
Capa 1
 62
     7
420
 16777215
370
     9
  0
POLYLINE
  5
64B
330
1F
100
AcDbEntity
  8
Capa 1
 62
     7
420
 16777215
370
     9
100
AcDb2dPolyline
 66
     1
 10
0.0
 20
0.0
 30
0.0
  0
VERTEX
  5
64C
330
64B
100
AcDbEntity
  8
Capa 1
 62
     7
420
 16777215
370
     9
100
AcDbVertex
100
AcDb2dVertex
 10
72.53846132531275
 20
91.53130200534933
 30
0.0
  0
VERTEX
  5
64D
330
64B
100
AcDbEntity
  8
Capa 1
 62
     7
420
 16777215
370
     9
100
AcDbVertex
100
AcDb2dVertex
 10
72.53846132531275
 20
88.76905136008449
 30
0.0
  0
SEQEND
  5
64E
330
64B
100
AcDbEntity
  8
Capa 1
 62
     7
420
 16777215
370
     9
  0
POLYLINE
  5
64F
330
1F
100
AcDbEntity
  8
Capa 1
 62
     7
420
 16777215
370
     9
100
AcDb2dPolyline
 66
     1
 10
0.0
 20
0.0
 30
0.0
  0
VERTEX
  5
650
330
64F
100
AcDbEntity
  8
Capa 1
 62
     7
420
 16777215
370
     9
100
AcDbVertex
100
AcDb2dVertex
 10
73.58620906420691
 20
80.86330007015012
 30
0.0
  0
VERTEX
  5
651
330
64F
100
AcDbEntity
  8
Capa 1
 62
     7
420
 16777215
370
     9
100
AcDbVertex
100
AcDb2dVertex
 10
71.77646003359244
 20
80.86330007015012
 30
0.0
  0
SEQEND
  5
652
330
64F
100
AcDbEntity
  8
Capa 1
 62
     7
420
 16777215
370
     9
  0
POLYLINE
  5
653
330
1F
100
AcDbEntity
  8
Capa 1
 62
     7
420
 16777215
370
     9
100
AcDb2dPolyline
 66
     1
 10
0.0
 20
0.0
 30
0.0
  0
VERTEX
  5
654
330
653
100
AcDbEntity
  8
Capa 1
 62
     7
420
 16777215
370
     9
100
AcDbVertex
100
AcDb2dVertex
 10
73.58620906420691
 20
92.8648002286386
 30
0.0
  0
VERTEX
  5
655
330
653
100
AcDbEntity
  8
Capa 1
 62
     7
420
 16777215
370
     9
100
AcDbVertex
100
AcDb2dVertex
 10
71.77646003359244
 20
92.8648002286386
 30
0.0
  0
SEQEND
  5
656
330
653
100
AcDbEntity
  8
Capa 1
 62
     7
420
 16777215
370
     9
  0
POLYLINE
  5
657
330
1F
100
AcDbEntity
  8
Capa 1
 62
     7
420
 16777215
370
     9
100
AcDb2dPolyline
 66
     1
 10
0.0
 20
0.0
 30
0.0
  0
VERTEX
  5
658
330
657
100
AcDbEntity
  8
Capa 1
 62
     7
420
 16777215
370
     9
100
AcDbVertex
100
AcDb2dVertex
 10
74.69745825648613
 20
81.24430071601027
 30
0.0
  0
VERTEX
  5
659
330
657
100
AcDbEntity
  8
Capa 1
 62
     7
420
 16777215
370
     9
100
AcDbVertex
100
AcDb2dVertex
 10
74.69745825648613
 20
81.62530136187043
 30
0.0
  0
SEQEND
  5
65A
330
657
100
AcDbEntity
  8
Capa 1
 62
     7
420
 16777215
370
     9
  0
POLYLINE
  5
65B
330
1F
100
AcDbEntity
  8
Capa 1
 62
     7
420
 16777215
370
     9
100
AcDb2dPolyline
 66
     1
 10
0.0
 20
0.0
 30
0.0
  0
VERTEX
  5
65C
330
65B
100
AcDbEntity
  8
Capa 1
 62
     7
420
 16777215
370
     9
100
AcDbVertex
100
AcDb2dVertex
 10
75.07845890234499
 20
80.86330007015012
 30
0.0
  0
VERTEX
  5
65D
330
65B
100
AcDbEntity
  8
Capa 1
 62
     7
420
 16777215
370
     9
100
AcDbVertex
100
AcDb2dVertex
 10
75.45945954820515
 20
80.86330007015012
 30
0.0
  0
SEQEND
  5
65E
330
65B
100
AcDbEntity
  8
Capa 1
 62
     7
420
 16777215
370
     9
  0
POLYLINE
  5
65F
330
1F
100
AcDbEntity
  8
Capa 1
 62
     7
420
 16777215
370
     9
100
AcDb2dPolyline
 66
     1
 10
0.0
 20
0.0
 30
0.0
  0
VERTEX
  5
660
330
65F
100
AcDbEntity
  8
Capa 1
 62
     7
420
 16777215
370
     9
100
AcDbVertex
100
AcDb2dVertex
 10
74.69745825648613
 20
80.51405216959249
 30
0.0
  0
VERTEX
  5
661
330
65F
100
AcDbEntity
  8
Capa 1
 62
     7
420
 16777215
370
     9
100
AcDbVertex
100
AcDb2dVertex
 10
74.69745825648613
 20
80.13305152373233
 30
0.0
  0
SEQEND
  5
662
330
65F
100
AcDbEntity
  8
Capa 1
 62
     7
420
 16777215
370
     9
  0
POLYLINE
  5
663
330
1F
100
AcDbEntity
  8
Capa 1
 62
     7
420
 16777215
370
     9
100
AcDb2dPolyline
 66
     1
 10
0.0
 20
0.0
 30
0.0
  0
VERTEX
  5
664
330
663
100
AcDbEntity
  8
Capa 1
 62
     7
420
 16777215
370
     9
100
AcDbVertex
100
AcDb2dVertex
 10
74.31645761062468
 20
80.86330007015012
 30
0.0
  0
VERTEX
  5
665
330
663
100
AcDbEntity
  8
Capa 1
 62
     7
420
 16777215
370
     9
100
AcDbVertex
100
AcDb2dVertex
 10
73.9354610019858
 20
80.86330007015012
 30
0.0
  0
SEQEND
  5
666
330
663
100
AcDbEntity
  8
Capa 1
 62
     7
420
 16777215
370
     9
  0
POLYLINE
  5
667
330
1F
100
AcDbEntity
  8
Capa 1
370
     0
100
AcDb2dPolyline
 66
     1
 10
0.0
 20
0.0
 30
0.0
  0
VERTEX
  5
668
330
667
100
AcDbEntity
  8
Capa 1
370
     0
100
AcDbVertex
100
AcDb2dVertex
 10
72.31620825708143
 20
91.53130200534933
 30
0.0
  0
VERTEX
  5
669
330
667
100
AcDbEntity
  8
Capa 1
370
     0
100
AcDbVertex
100
AcDb2dVertex
 10
72.76071035632408
 20
91.53130200534933
 30
0.0
  0
VERTEX
  5
66A
330
667
100
AcDbEntity
  8
Capa 1
370
     0
100
AcDbVertex
100
AcDb2dVertex
 10
72.53846132531275
 20
92.8648002286386
 30
0.0
  0
SEQEND
  5
66C
330
667
100
AcDbEntity
  8
Capa 1
370
     0
  0
HATCH
  5
66B
330
1F
100
AcDbEntity
  8
Capa 1
 62
     7
420
 16777215
100
AcDbHatch
 10
0.0
 20
0.0
 30
0.0
210
0.0
220
0.0
230
1.0
  2
SOLID
 70
     1
 71
     0
 91
        1
 92
        1
 93
        3
 72
     1
 10
72.31620825708143
 20
91.53130200534933
 11
72.76071035632408
 21
91.53130200534933
 72
     1
 10
72.76071035632408
 20
91.53130200534933
 11
72.53846132531275
 21
92.8648002286386
 72
     1
 10
72.53846132531275
 20
92.8648002286386
 11
72.31620825708143
 21
91.53130200534933
 97
        0
 75
     0
 76
     1
 98
        0
  0
POLYLINE
  5
66D
330
1F
100
AcDbEntity
  8
Capa 1
370
     0
100
AcDb2dPolyline
 66
     1
 10
0.0
 20
0.0
 30
0.0
  0
VERTEX
  5
66E
330
66D
100
AcDbEntity
  8
Capa 1
370
     0
100
AcDbVertex
100
AcDb2dVertex
 10
72.31620825708143
 20
82.22855103874191
 30
0.0
  0
VERTEX
  5
66F
330
66D
100
AcDbEntity
  8
Capa 1
370
     0
100
AcDbVertex
100
AcDb2dVertex
 10
72.76071035632408
 20
82.22855103874191
 30
0.0
  0
VERTEX
  5
670
330
66D
100
AcDbEntity
  8
Capa 1
370
     0
100
AcDbVertex
100
AcDb2dVertex
 10
72.53846132531275
 20
80.86330007015012
 30
0.0
  0
SEQEND
  5
672
330
66D
100
AcDbEntity
  8
Capa 1
370
     0
  0
HATCH
  5
671
330
1F
100
AcDbEntity
  8
Capa 1
 62
     7
420
 16777215
100
AcDbHatch
 10
0.0
 20
0.0
 30
0.0
210
0.0
220
0.0
230
1.0
  2
SOLID
 70
     1
 71
     0
 91
        1
 92
        1
 93
        3
 72
     1
 10
72.31620825708143
 20
82.22855103874191
 11
72.76071035632408
 21
82.22855103874191
 72
     1
 10
72.76071035632408
 20
82.22855103874191
 11
72.53846132531275
 21
80.86330007015012
 72
     1
 10
72.53846132531275
 20
80.86330007015012
 11
72.31620825708143
 21
82.22855103874191
 97
        0
 75
     0
 76
     1
 98
        0
  0
POLYLINE
  5
673
330
1F
100
AcDbEntity
  8
Capa 1
 62
     7
420
 16777215
370
     9
100
AcDb2dPolyline
 66
     1
 10
0.0
 20
0.0
 30
0.0
  0
VERTEX
  5
674
330
673
100
AcDbEntity
  8
Capa 1
 62
     7
420
 16777215
370
     9
100
AcDbVertex
100
AcDb2dVertex
 10
51.10708213958987
 20
97.53204602876166
 30
0.0
  0
VERTEX
  5
675
330
673
100
AcDbEntity
  8
Capa 1
 62
     7
420
 16777215
370
     9
100
AcDbVertex
100
AcDb2dVertex
 10
51.10708213958987
 20
76.22780297810831
 30
0.0
  0
SEQEND
  5
676
330
673
100
AcDbEntity
  8
Capa 1
 62
     7
420
 16777215
370
     9
  0
POLYLINE
  5
677
330
1F
100
AcDbEntity
  8
Capa 1
 62
     7
420
 16777215
370
     9
100
AcDb2dPolyline
 66
     1
 10
0.0
 20
0.0
 30
0.0
  0
VERTEX
  5
678
330
677
100
AcDbEntity
  8
Capa 1
 62
     7
420
 16777215
370
     9
100
AcDbVertex
100
AcDb2dVertex
 10
58.28271003696589
 20
73.59255120238976
 30
0.0
  0
VERTEX
  5
679
330
677
100
AcDbEntity
  8
Capa 1
 62
     7
420
 16777215
370
     9
100
AcDbVertex
100
AcDb2dVertex
 10
49.96408222062004
 20
73.59255120238976
 30
0.0
  0
SEQEND
  5
67A
330
677
100
AcDbEntity
  8
Capa 1
 62
     7
420
 16777215
370
     9
  0
POLYLINE
  5
67B
330
1F
100
AcDbEntity
  8
Capa 1
 62
     7
420
 16777215
370
     9
100
AcDb2dPolyline
 66
     1
 10
0.0
 20
0.0
 30
0.0
  0
VERTEX
  5
67C
330
67B
100
AcDbEntity
  8
Capa 1
 62
     7
420
 16777215
370
     9
100
AcDbVertex
100
AcDb2dVertex
 10
58.28271003696589
 20
100.1672937672589
 30
0.0
  0
VERTEX
  5
67D
330
67B
100
AcDbEntity
  8
Capa 1
 62
     7
420
 16777215
370
     9
100
AcDbVertex
100
AcDb2dVertex
 10
49.96408222062004
 20
100.1672937672589
 30
0.0
  0
SEQEND
  5
67E
330
67B
100
AcDbEntity
  8
Capa 1
 62
     7
420
 16777215
370
     9
  0
POLYLINE
  5
67F
330
1F
100
AcDbEntity
  8
Capa 1
370
     0
100
AcDb2dPolyline
 66
     1
 10
0.0
 20
0.0
 30
0.0
  0
VERTEX
  5
680
330
67F
100
AcDbEntity
  8
Capa 1
370
     0
100
AcDbVertex
100
AcDb2dVertex
 10
50.6625840775672
 20
97.53204602876166
 30
0.0
  0
VERTEX
  5
681
330
67F
100
AcDbEntity
  8
Capa 1
370
     0
100
AcDbVertex
100
AcDb2dVertex
 10
51.51983351214191
 20
97.53204602876166
 30
0.0
  0
VERTEX
  5
682
330
67F
100
AcDbEntity
  8
Capa 1
370
     0
100
AcDbVertex
100
AcDb2dVertex
 10
51.10708213958987
 20
100.1672937672589
 30
0.0
  0
SEQEND
  5
684
330
67F
100
AcDbEntity
  8
Capa 1
370
     0
  0
HATCH
  5
683
330
1F
100
AcDbEntity
  8
Capa 1
 62
     7
420
 16777215
100
AcDbHatch
 10
0.0
 20
0.0
 30
0.0
210
0.0
220
0.0
230
1.0
  2
SOLID
 70
     1
 71
     0
 91
        1
 92
        1
 93
        3
 72
     1
 10
50.6625840775672
 20
97.53204602876166
 11
51.51983351214191
 21
97.53204602876166
 72
     1
 10
51.51983351214191
 20
97.53204602876166
 11
51.10708213958987
 21
100.1672937672589
 72
     1
 10
51.10708213958987
 20
100.1672937672589
 11
50.6625840775672
 21
97.53204602876167
 97
        0
 75
     0
 76
     1
 98
        0
  0
POLYLINE
  5
685
330
1F
100
AcDbEntity
  8
Capa 1
370
     0
100
AcDb2dPolyline
 66
     1
 10
0.0
 20
0.0
 30
0.0
  0
VERTEX
  5
686
330
685
100
AcDbEntity
  8
Capa 1
370
     0
100
AcDbVertex
100
AcDb2dVertex
 10
50.6625840775672
 20
76.22780297810831
 30
0.0
  0
VERTEX
  5
687
330
685
100
AcDbEntity
  8
Capa 1
370
     0
100
AcDbVertex
100
AcDb2dVertex
 10
51.51983351214191
 20
76.22780297810831
 30
0.0
  0
VERTEX
  5
688
330
685
100
AcDbEntity
  8
Capa 1
370
     0
100
AcDbVertex
100
AcDb2dVertex
 10
51.10708213958987
 20
73.59255120238976
 30
0.0
  0
SEQEND
  5
68A
330
685
100
AcDbEntity
  8
Capa 1
370
     0
  0
HATCH
  5
689
330
1F
100
AcDbEntity
  8
Capa 1
 62
     7
420
 16777215
100
AcDbHatch
 10
0.0
 20
0.0
 30
0.0
210
0.0
220
0.0
230
1.0
  2
SOLID
 70
     1
 71
     0
 91
        1
 92
        1
 93
        3
 72
     1
 10
50.6625840775672
 20
76.22780297810831
 11
51.51983351214191
 21
76.22780297810831
 72
     1
 10
51.51983351214191
 20
76.22780297810831
 11
51.10708213958987
 21
73.59255120238977
 72
     1
 10
51.10708213958987
 20
73.59255120238976
 11
50.6625840775672
 21
76.2278029781083
 97
        0
 75
     0
 76
     1
 98
        0
  0
POLYLINE
  5
68B
330
1F
100
AcDbEntity
  8
Capa 1
 62
     7
420
 16777215
370
     9
100
AcDb2dPolyline
 66
     1
 10
0.0
 20
0.0
 30
0.0
  0
VERTEX
  5
68C
330
68B
100
AcDbEntity
  8
Capa 1
 62
     7
420
 16777215
370
     9
100
AcDbVertex
100
AcDb2dVertex
 10
67.14095890432937
 20
106.1680418278925
 30
0.0
  0
VERTEX
  5
68D
330
68B
100
AcDbEntity
  8
Capa 1
 62
     7
420
 16777215
370
     9
100
AcDbVertex
100
AcDb2dVertex
 10
60.60045858298679
 20
106.1680418278925
 30
0.0
  0
SEQEND
  5
68E
330
68B
100
AcDbEntity
  8
Capa 1
 62
     7
420
 16777215
370
     9
  0
POLYLINE
  5
68F
330
1F
100
AcDbEntity
  8
Capa 1
 62
     7
420
 16777215
370
     9
100
AcDb2dPolyline
 66
     1
 10
0.0
 20
0.0
 30
0.0
  0
VERTEX
  5
690
330
68F
100
AcDbEntity
  8
Capa 1
 62
     7
420
 16777215
370
     9
100
AcDbVertex
100
AcDb2dVertex
 10
57.96521084448951
 20
99.69104699715501
 30
0.0
  0
VERTEX
  5
691
330
68F
100
AcDbEntity
  8
Capa 1
 62
     7
420
 16777215
370
     9
100
AcDbVertex
100
AcDb2dVertex
 10
57.96521084448951
 20
107.2792950573917
 30
0.0
  0
SEQEND
  5
692
330
68F
100
AcDbEntity
  8
Capa 1
 62
     7
420
 16777215
370
     9
  0
POLYLINE
  5
693
330
1F
100
AcDbEntity
  8
Capa 1
 62
     7
420
 16777215
370
     9
100
AcDb2dPolyline
 66
     1
 10
0.0
 20
0.0
 30
0.0
  0
VERTEX
  5
694
330
693
100
AcDbEntity
  8
Capa 1
 62
     7
420
 16777215
370
     9
100
AcDbVertex
100
AcDb2dVertex
 10
69.74445793474538
 20
98.67504796634212
 30
0.0
  0
VERTEX
  5
695
330
693
100
AcDbEntity
  8
Capa 1
 62
     7
420
 16777215
370
     9
100
AcDbVertex
100
AcDb2dVertex
 10
69.74445793474538
 20
107.2792950573917
 30
0.0
  0
SEQEND
  5
696
330
693
100
AcDbEntity
  8
Capa 1
 62
     7
420
 16777215
370
     9
  0
POLYLINE
  5
697
330
1F
100
AcDbEntity
  8
Capa 1
370
     0
100
AcDb2dPolyline
 66
     1
 10
0.0
 20
0.0
 30
0.0
  0
VERTEX
  5
698
330
697
100
AcDbEntity
  8
Capa 1
370
     0
100
AcDbVertex
100
AcDb2dVertex
 10
67.14095890432937
 20
106.5807911818339
 30
0.0
  0
VERTEX
  5
699
330
697
100
AcDbEntity
  8
Capa 1
370
     0
100
AcDbVertex
100
AcDb2dVertex
 10
67.14095890432937
 20
105.7235437658699
 30
0.0
  0
VERTEX
  5
69A
330
697
100
AcDbEntity
  8
Capa 1
370
     0
100
AcDbVertex
100
AcDb2dVertex
 10
69.74445793474538
 20
106.1680418278925
 30
0.0
  0
SEQEND
  5
69C
330
697
100
AcDbEntity
  8
Capa 1
370
     0
  0
HATCH
  5
69B
330
1F
100
AcDbEntity
  8
Capa 1
 62
     7
420
 16777215
100
AcDbHatch
 10
0.0
 20
0.0
 30
0.0
210
0.0
220
0.0
230
1.0
  2
SOLID
 70
     1
 71
     0
 91
        1
 92
        1
 93
        3
 72
     1
 10
67.14095890432937
 20
106.5807911818339
 11
67.14095890432937
 21
105.7235437658699
 72
     1
 10
67.14095890432937
 20
105.7235437658699
 11
69.74445793474538
 21
106.1680418278925
 72
     1
 10
69.74445793474538
 20
106.1680418278925
 11
67.14095890432937
 21
106.5807911818339
 97
        0
 75
     0
 76
     1
 98
        0
  0
POLYLINE
  5
69D
330
1F
100
AcDbEntity
  8
Capa 1
370
     0
100
AcDb2dPolyline
 66
     1
 10
0.0
 20
0.0
 30
0.0
  0
VERTEX
  5
69E
330
69D
100
AcDbEntity
  8
Capa 1
370
     0
100
AcDbVertex
100
AcDb2dVertex
 10
60.60045858298679
 20
106.5807911818339
 30
0.0
  0
VERTEX
  5
69F
330
69D
100
AcDbEntity
  8
Capa 1
370
     0
100
AcDbVertex
100
AcDb2dVertex
 10
60.60045858298679
 20
105.7235437658699
 30
0.0
  0
VERTEX
  5
6A0
330
69D
100
AcDbEntity
  8
Capa 1
370
     0
100
AcDbVertex
100
AcDb2dVertex
 10
57.96521084448951
 20
106.1680418278925
 30
0.0
  0
SEQEND
  5
6A2
330
69D
100
AcDbEntity
  8
Capa 1
370
     0
  0
HATCH
  5
6A1
330
1F
100
AcDbEntity
  8
Capa 1
 62
     7
420
 16777215
100
AcDbHatch
 10
0.0
 20
0.0
 30
0.0
210
0.0
220
0.0
230
1.0
  2
SOLID
 70
     1
 71
     0
 91
        1
 92
        1
 93
        3
 72
     1
 10
60.60045858298679
 20
106.5807911818339
 11
60.60045858298679
 21
105.7235437658699
 72
     1
 10
60.60045858298679
 20
105.7235437658699
 11
57.96521084448951
 21
106.1680418278925
 72
     1
 10
57.96521084448951
 20
106.1680418278925
 11
60.60045858298679
 21
106.5807911818339
 97
        0
 75
     0
 76
     1
 98
        0
  0
POLYLINE
  5
6A3
330
1F
100
AcDbEntity
  8
Capa 1
 62
     7
420
 16777215
370
     9
100
AcDb2dPolyline
 66
     1
 10
0.0
 20
0.0
 30
0.0
  0
VERTEX
  5
6A4
330
6A3
100
AcDbEntity
  8
Capa 1
 62
     7
420
 16777215
370
     9
100
AcDbVertex
100
AcDb2dVertex
 10
77.33271003220338
 20
106.0727957036488
 30
0.0
  0
VERTEX
  5
6A5
330
6A3
100
AcDbEntity
  8
Capa 1
 62
     7
420
 16777215
370
     9
100
AcDbVertex
100
AcDb2dVertex
 10
104.8282055036417
 20
106.0727957036488
 30
0.0
  0
SEQEND
  5
6A6
330
6A3
100
AcDbEntity
  8
Capa 1
 62
     7
420
 16777215
370
     9
  0
POLYLINE
  5
6A7
330
1F
100
AcDbEntity
  8
Capa 1
 62
     7
420
 16777215
370
     9
100
AcDb2dPolyline
 66
     1
 10
0.0
 20
0.0
 30
0.0
  0
VERTEX
  5
6A8
330
6A7
100
AcDbEntity
  8
Capa 1
 62
     7
420
 16777215
370
     9
100
AcDbVertex
100
AcDb2dVertex
 10
107.463453242139
 20
86.86405216800499
 30
0.0
  0
VERTEX
  5
6A9
330
6A7
100
AcDbEntity
  8
Capa 1
 62
     7
420
 16777215
370
     9
100
AcDbVertex
100
AcDb2dVertex
 10
107.463453242139
 20
107.1840408587054
 30
0.0
  0
SEQEND
  5
6AA
330
6A7
100
AcDbEntity
  8
Capa 1
 62
     7
420
 16777215
370
     9
  0
POLYLINE
  5
6AB
330
1F
100
AcDbEntity
  8
Capa 1
 62
     7
420
 16777215
370
     9
100
AcDb2dPolyline
 66
     1
 10
0.0
 20
0.0
 30
0.0
  0
VERTEX
  5
6AC
330
6AB
100
AcDbEntity
  8
Capa 1
 62
     7
420
 16777215
370
     9
100
AcDbVertex
100
AcDb2dVertex
 10
74.69745825648613
 20
92.8648002286386
 30
0.0
  0
VERTEX
  5
6AD
330
6AB
100
AcDbEntity
  8
Capa 1
 62
     7
420
 16777215
370
     9
100
AcDbVertex
100
AcDb2dVertex
 10
74.69745825648613
 20
107.1840408587054
 30
0.0
  0
SEQEND
  5
6AE
330
6AB
100
AcDbEntity
  8
Capa 1
 62
     7
420
 16777215
370
     9
  0
POLYLINE
  5
6AF
330
1F
100
AcDbEntity
  8
Capa 1
370
     0
100
AcDb2dPolyline
 66
     1
 10
0.0
 20
0.0
 30
0.0
  0
VERTEX
  5
6B0
330
6AF
100
AcDbEntity
  8
Capa 1
370
     0
100
AcDbVertex
100
AcDb2dVertex
 10
77.33271003220338
 20
106.4855450575902
 30
0.0
  0
VERTEX
  5
6B1
330
6AF
100
AcDbEntity
  8
Capa 1
370
     0
100
AcDbVertex
100
AcDb2dVertex
 10
77.33271003220338
 20
105.6282976416261
 30
0.0
  0
VERTEX
  5
6B2
330
6AF
100
AcDbEntity
  8
Capa 1
370
     0
100
AcDbVertex
100
AcDb2dVertex
 10
74.69745825648613
 20
106.0727957036488
 30
0.0
  0
SEQEND
  5
6B4
330
6AF
100
AcDbEntity
  8
Capa 1
370
     0
  0
HATCH
  5
6B3
330
1F
100
AcDbEntity
  8
Capa 1
 62
     7
420
 16777215
100
AcDbHatch
 10
0.0
 20
0.0
 30
0.0
210
0.0
220
0.0
230
1.0
  2
SOLID
 70
     1
 71
     0
 91
        1
 92
        1
 93
        3
 72
     1
 10
77.33271003220338
 20
106.4855450575902
 11
77.33271003220338
 21
105.6282976416261
 72
     1
 10
77.33271003220338
 20
105.6282976416261
 11
74.69745825648612
 21
106.0727957036488
 72
     1
 10
74.69745825648613
 20
106.0727957036488
 11
77.3327100322034
 21
106.4855450575902
 97
        0
 75
     0
 76
     1
 98
        0
  0
POLYLINE
  5
6B5
330
1F
100
AcDbEntity
  8
Capa 1
370
     0
100
AcDb2dPolyline
 66
     1
 10
0.0
 20
0.0
 30
0.0
  0
VERTEX
  5
6B6
330
6B5
100
AcDbEntity
  8
Capa 1
370
     0
100
AcDbVertex
100
AcDb2dVertex
 10
104.8282055036417
 20
106.4855450575902
 30
0.0
  0
VERTEX
  5
6B7
330
6B5
100
AcDbEntity
  8
Capa 1
370
     0
100
AcDbVertex
100
AcDb2dVertex
 10
104.8282055036417
 20
105.6282976416261
 30
0.0
  0
VERTEX
  5
6B8
330
6B5
100
AcDbEntity
  8
Capa 1
370
     0
100
AcDbVertex
100
AcDb2dVertex
 10
107.463453242139
 20
106.0727957036488
 30
0.0
  0
SEQEND
  5
6BA
330
6B5
100
AcDbEntity
  8
Capa 1
370
     0
  0
HATCH
  5
6B9
330
1F
100
AcDbEntity
  8
Capa 1
 62
     7
420
 16777215
100
AcDbHatch
 10
0.0
 20
0.0
 30
0.0
210
0.0
220
0.0
230
1.0
  2
SOLID
 70
     1
 71
     0
 91
        1
 92
        1
 93
        3
 72
     1
 10
104.8282055036417
 20
106.4855450575902
 11
104.8282055036417
 21
105.6282976416261
 72
     1
 10
104.8282055036417
 20
105.6282976416261
 11
107.463453242139
 21
106.0727957036488
 72
     1
 10
107.463453242139
 20
106.0727957036488
 11
104.8282055036417
 21
106.4855450575902
 97
        0
 75
     0
 76
     1
 98
        0
  0
POLYLINE
  5
6BB
330
1F
100
AcDbEntity
  8
Capa 1
 62
     7
420
 16777215
370
     9
100
AcDb2dPolyline
 66
     1
 10
0.0
 20
0.0
 30
0.0
  0
VERTEX
  5
6BC
330
6BB
100
AcDbEntity
  8
Capa 1
 62
     7
420
 16777215
370
     9
100
AcDbVertex
100
AcDb2dVertex
 10
116.41696034541
 20
97.75429505977299
 30
0.0
  0
VERTEX
  5
6BD
330
6BB
100
AcDbEntity
  8
Capa 1
 62
     7
420
 16777215
370
     9
100
AcDbVertex
100
AcDb2dVertex
 10
116.41696034541
 20
76.00554990987571
 30
0.0
  0
SEQEND
  5
6BE
330
6BB
100
AcDbEntity
  8
Capa 1
 62
     7
420
 16777215
370
     9
  0
POLYLINE
  5
6BF
330
1F
100
AcDbEntity
  8
Capa 1
 62
     7
420
 16777215
370
     9
100
AcDb2dPolyline
 66
     1
 10
0.0
 20
0.0
 30
0.0
  0
VERTEX
  5
6C0
330
6BF
100
AcDbEntity
  8
Capa 1
 62
     7
420
 16777215
370
     9
100
AcDbVertex
100
AcDb2dVertex
 10
93.9697032455124
 20
73.37030217137843
 30
0.0
  0
VERTEX
  5
6C1
330
6BF
100
AcDbEntity
  8
Capa 1
 62
     7
420
 16777215
370
     9
100
AcDbVertex
100
AcDb2dVertex
 10
117.5282055004667
 20
73.37030217137843
 30
0.0
  0
SEQEND
  5
6C2
330
6BF
100
AcDbEntity
  8
Capa 1
 62
     7
420
 16777215
370
     9
  0
POLYLINE
  5
6C3
330
1F
100
AcDbEntity
  8
Capa 1
 62
     7
420
 16777215
370
     9
100
AcDb2dPolyline
 66
     1
 10
0.0
 20
0.0
 30
0.0
  0
VERTEX
  5
6C4
330
6C3
100
AcDbEntity
  8
Capa 1
 62
     7
420
 16777215
370
     9
100
AcDbVertex
100
AcDb2dVertex
 10
93.9697032455124
 20
100.3895427982703
 30
0.0
  0
VERTEX
  5
6C5
330
6C3
100
AcDbEntity
  8
Capa 1
 62
     7
420
 16777215
370
     9
100
AcDbVertex
100
AcDb2dVertex
 10
117.5282055004667
 20
100.3895427982703
 30
0.0
  0
SEQEND
  5
6C6
330
6C3
100
AcDbEntity
  8
Capa 1
 62
     7
420
 16777215
370
     9
  0
POLYLINE
  5
6C7
330
1F
100
AcDbEntity
  8
Capa 1
370
     0
100
AcDb2dPolyline
 66
     1
 10
0.0
 20
0.0
 30
0.0
  0
VERTEX
  5
6C8
330
6C7
100
AcDbEntity
  8
Capa 1
370
     0
100
AcDbVertex
100
AcDb2dVertex
 10
115.9724542089448
 20
97.75429505977299
 30
0.0
  0
VERTEX
  5
6C9
330
6C7
100
AcDbEntity
  8
Capa 1
370
     0
100
AcDbVertex
100
AcDb2dVertex
 10
116.8297096993514
 20
97.75429505977299
 30
0.0
  0
VERTEX
  5
6CA
330
6C7
100
AcDbEntity
  8
Capa 1
370
     0
100
AcDbVertex
100
AcDb2dVertex
 10
116.41696034541
 20
100.3895427982703
 30
0.0
  0
SEQEND
  5
6CC
330
6C7
100
AcDbEntity
  8
Capa 1
370
     0
  0
HATCH
  5
6CB
330
1F
100
AcDbEntity
  8
Capa 1
 62
     7
420
 16777215
100
AcDbHatch
 10
0.0
 20
0.0
 30
0.0
210
0.0
220
0.0
230
1.0
  2
SOLID
 70
     1
 71
     0
 91
        1
 92
        1
 93
        3
 72
     1
 10
115.9724542089448
 20
97.75429505977299
 11
116.8297096993514
 21
97.75429505977299
 72
     1
 10
116.8297096993514
 20
97.75429505977299
 11
116.41696034541
 21
100.3895427982703
 72
     1
 10
116.41696034541
 20
100.3895427982703
 11
115.9724542089448
 21
97.754295059773
 97
        0
 75
     0
 76
     1
 98
        0
  0
POLYLINE
  5
6CD
330
1F
100
AcDbEntity
  8
Capa 1
370
     0
100
AcDb2dPolyline
 66
     1
 10
0.0
 20
0.0
 30
0.0
  0
VERTEX
  5
6CE
330
6CD
100
AcDbEntity
  8
Capa 1
370
     0
100
AcDbVertex
100
AcDb2dVertex
 10
115.9724542089448
 20
76.00554990987571
 30
0.0
  0
VERTEX
  5
6CF
330
6CD
100
AcDbEntity
  8
Capa 1
370
     0
100
AcDbVertex
100
AcDb2dVertex
 10
116.8297096993514
 20
76.00554990987571
 30
0.0
  0
VERTEX
  5
6D0
330
6CD
100
AcDbEntity
  8
Capa 1
370
     0
100
AcDbVertex
100
AcDb2dVertex
 10
116.41696034541
 20
73.37030217137843
 30
0.0
  0
SEQEND
  5
6D2
330
6CD
100
AcDbEntity
  8
Capa 1
370
     0
  0
HATCH
  5
6D1
330
1F
100
AcDbEntity
  8
Capa 1
 62
     7
420
 16777215
100
AcDbHatch
 10
0.0
 20
0.0
 30
0.0
210
0.0
220
0.0
230
1.0
  2
SOLID
 70
     1
 71
     0
 91
        1
 92
        1
 93
        3
 72
     1
 10
115.9724542089448
 20
76.00554990987571
 11
116.8297096993514
 21
76.00554990987571
 72
     1
 10
116.8297096993514
 20
76.00554990987571
 11
116.41696034541
 21
73.37030217137844
 72
     1
 10
116.41696034541
 20
73.37030217137843
 11
115.9724542089448
 21
76.0055499098757
 97
        0
 75
     0
 76
     1
 98
        0
  0
POLYLINE
  5
6D3
330
1F
100
AcDbEntity
  8
Capa 1
 62
     7
420
 16777215
370
     9
100
AcDb2dPolyline
 66
     1
 10
0.0
 20
0.0
 30
0.0
  0
VERTEX
  5
6D4
330
6D3
100
AcDbEntity
  8
Capa 1
 62
     7
420
 16777215
370
     9
100
AcDbVertex
100
AcDb2dVertex
 10
63.45795938971667
 20
198.5076170636984
 30
0.0
  0
VERTEX
  5
6D5
330
6D3
100
AcDbEntity
  8
Capa 1
 62
     7
420
 16777215
370
     9
100
AcDbVertex
100
AcDb2dVertex
 10
63.45795938971667
 20
198.2853761071297
 30
0.0
  0
VERTEX
  5
6D6
330
6D3
100
AcDbEntity
  8
Capa 1
 62
     7
420
 16777215
370
     9
100
AcDbVertex
100
AcDb2dVertex
 10
63.23571035870534
 20
198.2853761071297
 30
0.0
  0
SEQEND
  5
6D7
330
6D3
100
AcDbEntity
  8
Capa 1
 62
     7
420
 16777215
370
     9
  0
POLYLINE
  5
6D8
330
1F
100
AcDbEntity
  8
Capa 1
 62
     7
420
 16777215
370
     9
100
AcDb2dPolyline
 66
     1
 10
0.0
 20
0.0
 30
0.0
  0
VERTEX
  5
6D9
330
6D8
100
AcDbEntity
  8
Capa 1
 62
     7
420
 16777215
370
     9
100
AcDbVertex
100
AcDb2dVertex
 10
63.45795938971667
 20
198.0631190016758
 30
0.0
  0
VERTEX
  5
6DA
330
6D8
100
AcDbEntity
  8
Capa 1
 62
     7
420
 16777215
370
     9
100
AcDbVertex
100
AcDb2dVertex
 10
63.45795938971667
 20
198.2853761071297
 30
0.0
  0
VERTEX
  5
6DB
330
6D8
100
AcDbEntity
  8
Capa 1
 62
     7
420
 16777215
370
     9
100
AcDbVertex
100
AcDb2dVertex
 10
63.680208420728
 20
198.2853761071297
 30
0.0
  0
SEQEND
  5
6DC
330
6D8
100
AcDbEntity
  8
Capa 1
 62
     7
420
 16777215
370
     9
  0
POLYLINE
  5
6DD
330
1F
100
AcDbEntity
  8
Capa 1
 62
     7
420
 16777215
370
     9
100
AcDb2dPolyline
 66
     1
 10
0.0
 20
0.0
 30
0.0
  0
VERTEX
  5
6DE
330
6DD
100
AcDbEntity
  8
Capa 1
 62
     7
420
 16777215
370
     9
100
AcDbVertex
100
AcDb2dVertex
 10
63.45795938971667
 20
198.9521151257211
 30
0.0
  0
VERTEX
  5
6DF
330
6DD
100
AcDbEntity
  8
Capa 1
 62
     7
420
 16777215
370
     9
100
AcDbVertex
100
AcDb2dVertex
 10
63.45795938971667
 20
198.9838799826875
 30
0.0
  0
SEQEND
  5
6E0
330
6DD
100
AcDbEntity
  8
Capa 1
 62
     7
420
 16777215
370
     9
  0
POLYLINE
  5
6E1
330
1F
100
AcDbEntity
  8
Capa 1
 62
     7
420
 16777215
370
     9
100
AcDb2dPolyline
 66
     1
 10
0.0
 20
0.0
 30
0.0
  0
VERTEX
  5
6E2
330
6E1
100
AcDbEntity
  8
Capa 1
 62
     7
420
 16777215
370
     9
100
AcDbVertex
100
AcDb2dVertex
 10
63.45795938971667
 20
198.7298741691523
 30
0.0
  0
VERTEX
  5
6E3
330
6E1
100
AcDbEntity
  8
Capa 1
 62
     7
420
 16777215
370
     9
100
AcDbVertex
100
AcDb2dVertex
 10
63.45795938971667
 20
198.8886177095586
 30
0.0
  0
SEQEND
  5
6E4
330
6E1
100
AcDbEntity
  8
Capa 1
 62
     7
420
 16777215
370
     9
  0
POLYLINE
  5
6E5
330
1F
100
AcDbEntity
  8
Capa 1
 62
     7
420
 16777215
370
     9
100
AcDb2dPolyline
 66
     1
 10
0.0
 20
0.0
 30
0.0
  0
VERTEX
  5
6E6
330
6E5
100
AcDbEntity
  8
Capa 1
 62
     7
420
 16777215
370
     9
100
AcDbVertex
100
AcDb2dVertex
 10
63.45795938971667
 20
199.04737739885
 30
0.0
  0
VERTEX
  5
6E7
330
6E5
100
AcDbEntity
  8
Capa 1
 62
     7
420
 16777215
370
     9
100
AcDbVertex
100
AcDb2dVertex
 10
63.45795938971667
 20
199.2061209392562
 30
0.0
  0
SEQEND
  5
6E8
330
6E5
100
AcDbEntity
  8
Capa 1
 62
     7
420
 16777215
370
     9
  0
POLYLINE
  5
6E9
330
1F
100
AcDbEntity
  8
Capa 1
 62
     7
420
 16777215
370
     9
100
AcDb2dPolyline
 66
     1
 10
0.0
 20
0.0
 30
0.0
  0
VERTEX
  5
6EA
330
6E9
100
AcDbEntity
  8
Capa 1
 62
     7
420
 16777215
370
     9
100
AcDbVertex
100
AcDb2dVertex
 10
62.79120825946269
 20
198.2853761071297
 30
0.0
  0
VERTEX
  5
6EB
330
6E9
100
AcDbEntity
  8
Capa 1
 62
     7
420
 16777215
370
     9
100
AcDbVertex
100
AcDb2dVertex
 10
62.75945955138015
 20
198.2853761071297
 30
0.0
  0
SEQEND
  5
6EC
330
6E9
100
AcDbEntity
  8
Capa 1
 62
     7
420
 16777215
370
     9
  0
POLYLINE
  5
6ED
330
1F
100
AcDbEntity
  8
Capa 1
 62
     7
420
 16777215
370
     9
100
AcDb2dPolyline
 66
     1
 10
0.0
 20
0.0
 30
0.0
  0
VERTEX
  5
6EE
330
6ED
100
AcDbEntity
  8
Capa 1
 62
     7
420
 16777215
370
     9
100
AcDbVertex
100
AcDb2dVertex
 10
63.013461327694
 20
198.2853761071297
 30
0.0
  0
VERTEX
  5
6EF
330
6ED
100
AcDbEntity
  8
Capa 1
 62
     7
420
 16777215
370
     9
100
AcDbVertex
100
AcDb2dVertex
 10
62.85470971284646
 20
198.2853761071297
 30
0.0
  0
SEQEND
  5
6F0
330
6ED
100
AcDbEntity
  8
Capa 1
 62
     7
420
 16777215
370
     9
  0
POLYLINE
  5
6F1
330
1F
100
AcDbEntity
  8
Capa 1
 62
     7
420
 16777215
370
     9
100
AcDb2dPolyline
 66
     1
 10
0.0
 20
0.0
 30
0.0
  0
VERTEX
  5
6F2
330
6F1
100
AcDbEntity
  8
Capa 1
 62
     7
420
 16777215
370
     9
100
AcDbVertex
100
AcDb2dVertex
 10
62.69595809799636
 20
198.2853761071297
 30
0.0
  0
VERTEX
  5
6F3
330
6F1
100
AcDbEntity
  8
Capa 1
 62
     7
420
 16777215
370
     9
100
AcDbVertex
100
AcDb2dVertex
 10
62.53721052036882
 20
198.2853761071297
 30
0.0
  0
SEQEND
  5
6F4
330
6F1
100
AcDbEntity
  8
Capa 1
 62
     7
420
 16777215
370
     9
  0
POLYLINE
  5
6F5
330
1F
100
AcDbEntity
  8
Capa 1
 62
     7
420
 16777215
370
     9
100
AcDb2dPolyline
 66
     1
 10
0.0
 20
0.0
 30
0.0
  0
VERTEX
  5
6F6
330
6F5
100
AcDbEntity
  8
Capa 1
 62
     7
420
 16777215
370
     9
100
AcDbVertex
100
AcDb2dVertex
 10
63.45795938971667
 20
197.6503696477344
 30
0.0
  0
VERTEX
  5
6F7
330
6F5
100
AcDbEntity
  8
Capa 1
 62
     7
420
 16777215
370
     9
100
AcDbVertex
100
AcDb2dVertex
 10
63.45795938971667
 20
197.5868722315731
 30
0.0
  0
SEQEND
  5
6F8
330
6F5
100
AcDbEntity
  8
Capa 1
 62
     7
420
 16777215
370
     9
  0
POLYLINE
  5
6F9
330
1F
100
AcDbEntity
  8
Capa 1
 62
     7
420
 16777215
370
     9
100
AcDb2dPolyline
 66
     1
 10
0.0
 20
0.0
 30
0.0
  0
VERTEX
  5
6FA
330
6F9
100
AcDbEntity
  8
Capa 1
 62
     7
420
 16777215
370
     9
100
AcDbVertex
100
AcDb2dVertex
 10
63.45795938971667
 20
197.840878045107
 30
0.0
  0
VERTEX
  5
6FB
330
6F9
100
AcDbEntity
  8
Capa 1
 62
     7
420
 16777215
370
     9
100
AcDbVertex
100
AcDb2dVertex
 10
63.45795938971667
 20
197.6821183558156
 30
0.0
  0
SEQEND
  5
6FC
330
6F9
100
AcDbEntity
  8
Capa 1
 62
     7
420
 16777215
370
     9
  0
POLYLINE
  5
6FD
330
1F
100
AcDbEntity
  8
Capa 1
 62
     7
420
 16777215
370
     9
100
AcDb2dPolyline
 66
     1
 10
0.0
 20
0.0
 30
0.0
  0
VERTEX
  5
6FE
330
6FD
100
AcDbEntity
  8
Capa 1
 62
     7
420
 16777215
370
     9
100
AcDbVertex
100
AcDb2dVertex
 10
63.45795938971667
 20
197.5551235234906
 30
0.0
  0
VERTEX
  5
6FF
330
6FD
100
AcDbEntity
  8
Capa 1
 62
     7
420
 16777215
370
     9
100
AcDbVertex
100
AcDb2dVertex
 10
63.45795938971667
 20
197.3963799830843
 30
0.0
  0
SEQEND
  5
700
330
6FD
100
AcDbEntity
  8
Capa 1
 62
     7
420
 16777215
370
     9
  0
POLYLINE
  5
701
330
1F
100
AcDbEntity
  8
Capa 1
 62
     7
420
 16777215
370
     9
100
AcDb2dPolyline
 66
     1
 10
0.0
 20
0.0
 30
0.0
  0
VERTEX
  5
702
330
701
100
AcDbEntity
  8
Capa 1
 62
     7
420
 16777215
370
     9
100
AcDbVertex
100
AcDb2dVertex
 10
64.09295777466942
 20
198.2853761071297
 30
0.0
  0
VERTEX
  5
703
330
701
100
AcDbEntity
  8
Capa 1
 62
     7
420
 16777215
370
     9
100
AcDbVertex
100
AcDb2dVertex
 10
64.1564592280532
 20
198.2853761071297
 30
0.0
  0
SEQEND
  5
704
330
701
100
AcDbEntity
  8
Capa 1
 62
     7
420
 16777215
370
     9
  0
POLYLINE
  5
705
330
1F
100
AcDbEntity
  8
Capa 1
 62
     7
420
 16777215
370
     9
100
AcDb2dPolyline
 66
     1
 10
0.0
 20
0.0
 30
0.0
  0
VERTEX
  5
706
330
705
100
AcDbEntity
  8
Capa 1
 62
     7
420
 16777215
370
     9
100
AcDbVertex
100
AcDb2dVertex
 10
63.9024614889606
 20
198.2853761071297
 30
0.0
  0
VERTEX
  5
707
330
705
100
AcDbEntity
  8
Capa 1
 62
     7
420
 16777215
370
     9
100
AcDbVertex
100
AcDb2dVertex
 10
64.06120906658815
 20
198.2853761071297
 30
0.0
  0
SEQEND
  5
708
330
705
100
AcDbEntity
  8
Capa 1
 62
     7
420
 16777215
370
     9
  0
POLYLINE
  5
709
330
1F
100
AcDbEntity
  8
Capa 1
 62
     7
420
 16777215
370
     9
100
AcDb2dPolyline
 66
     1
 10
0.0
 20
0.0
 30
0.0
  0
VERTEX
  5
70A
330
709
100
AcDbEntity
  8
Capa 1
 62
     7
420
 16777215
370
     9
100
AcDbVertex
100
AcDb2dVertex
 10
64.18820793613445
 20
198.2853761071297
 30
0.0
  0
VERTEX
  5
70B
330
709
100
AcDbEntity
  8
Capa 1
 62
     7
420
 16777215
370
     9
100
AcDbVertex
100
AcDb2dVertex
 10
64.34695955098327
 20
198.2853761071297
 30
0.0
  0
SEQEND
  5
70C
330
709
100
AcDbEntity
  8
Capa 1
 62
     7
420
 16777215
370
     9
  0
POLYLINE
  5
70D
330
1F
100
AcDbEntity
  8
Capa 1
 62
     7
420
 16777215
370
     9
100
AcDb2dPolyline
 66
     1
 10
0.0
 20
0.0
 30
0.0
  0
VERTEX
  5
70E
330
70D
100
AcDbEntity
  8
Capa 1
 62
     7
420
 16777215
370
     9
100
AcDbVertex
100
AcDb2dVertex
 10
52.44058238148977
 20
147.5171248279109
 30
0.0
  0
VERTEX
  5
70F
330
70D
100
AcDbEntity
  8
Capa 1
 62
     7
420
 16777215
370
     9
100
AcDbVertex
100
AcDb2dVertex
 10
52.44058238148977
 20
171.5836306354929
 30
0.0
  0
SEQEND
  5
710
330
70D
100
AcDbEntity
  8
Capa 1
 62
     7
420
 16777215
370
     9
  0
POLYLINE
  5
711
330
1F
100
AcDbEntity
  8
Capa 1
 62
     7
420
 16777215
370
     9
100
AcDb2dPolyline
 66
     1
 10
0.0
 20
0.0
 30
0.0
  0
VERTEX
  5
712
330
711
100
AcDbEntity
  8
Capa 1
 62
     7
420
 16777215
370
     9
100
AcDbVertex
100
AcDb2dVertex
 10
52.44058238148977
 20
196.9518657721766
 30
0.0
  0
VERTEX
  5
713
330
711
100
AcDbEntity
  8
Capa 1
 62
     7
420
 16777215
370
     9
100
AcDbVertex
100
AcDb2dVertex
 10
52.44058238148977
 20
175.3301235290469
 30
0.0
  0
SEQEND
  5
714
330
711
100
AcDbEntity
  8
Capa 1
 62
     7
420
 16777215
370
     9
  0
POLYLINE
  5
715
330
1F
100
AcDbEntity
  8
Capa 1
 62
     7
420
 16777215
370
     9
100
AcDb2dPolyline
 66
     1
 10
0.0
 20
0.0
 30
0.0
  0
VERTEX
  5
716
330
715
100
AcDbEntity
  8
Capa 1
 62
     7
420
 16777215
370
     9
100
AcDbVertex
100
AcDb2dVertex
 10
65.23595971225116
 20
146.1518738593191
 30
0.0
  0
VERTEX
  5
717
330
715
100
AcDbEntity
  8
Capa 1
 62
     7
420
 16777215
370
     9
100
AcDbVertex
100
AcDb2dVertex
 10
51.6785831083801
 20
146.1518738593191
 30
0.0
  0
SEQEND
  5
718
330
715
100
AcDbEntity
  8
Capa 1
 62
     7
420
 16777215
370
     9
  0
POLYLINE
  5
719
330
1F
100
AcDbEntity
  8
Capa 1
 62
     7
420
 16777215
370
     9
100
AcDb2dPolyline
 66
     1
 10
0.0
 20
0.0
 30
0.0
  0
VERTEX
  5
71A
330
719
100
AcDbEntity
  8
Capa 1
 62
     7
420
 16777215
370
     9
100
AcDbVertex
100
AcDb2dVertex
 10
62.31496148935748
 20
198.2853761071297
 30
0.0
  0
VERTEX
  5
71B
330
719
100
AcDbEntity
  8
Capa 1
 62
     7
420
 16777215
370
     9
100
AcDbVertex
100
AcDb2dVertex
 10
51.6785831083801
 20
198.2853761071297
 30
0.0
  0
SEQEND
  5
71C
330
719
100
AcDbEntity
  8
Capa 1
 62
     7
420
 16777215
370
     9
  0
POLYLINE
  5
71D
330
1F
100
AcDbEntity
  8
Capa 1
370
     0
100
AcDb2dPolyline
 66
     1
 10
0.0
 20
0.0
 30
0.0
  0
VERTEX
  5
71E
330
71D
100
AcDbEntity
  8
Capa 1
370
     0
100
AcDbVertex
100
AcDb2dVertex
 10
52.21833335047844
 20
196.9518657721766
 30
0.0
  0
VERTEX
  5
71F
330
71D
100
AcDbEntity
  8
Capa 1
370
     0
100
AcDbVertex
100
AcDb2dVertex
 10
52.66283343111174
 20
196.9518657721766
 30
0.0
  0
VERTEX
  5
720
330
71D
100
AcDbEntity
  8
Capa 1
370
     0
100
AcDbVertex
100
AcDb2dVertex
 10
52.44058238148977
 20
198.2853761071297
 30
0.0
  0
SEQEND
  5
722
330
71D
100
AcDbEntity
  8
Capa 1
370
     0
  0
HATCH
  5
721
330
1F
100
AcDbEntity
  8
Capa 1
 62
     7
420
 16777215
100
AcDbHatch
 10
0.0
 20
0.0
 30
0.0
210
0.0
220
0.0
230
1.0
  2
SOLID
 70
     1
 71
     0
 91
        1
 92
        1
 93
        3
 72
     1
 10
52.21833335047844
 20
196.9518657721766
 11
52.66283343111174
 21
196.9518657721766
 72
     1
 10
52.66283343111174
 20
196.9518657721766
 11
52.44058238148978
 21
198.2853761071297
 72
     1
 10
52.44058238148977
 20
198.2853761071297
 11
52.21833335047844
 21
196.9518657721766
 97
        0
 75
     0
 76
     1
 98
        0
  0
POLYLINE
  5
723
330
1F
100
AcDbEntity
  8
Capa 1
370
     0
100
AcDb2dPolyline
 66
     1
 10
0.0
 20
0.0
 30
0.0
  0
VERTEX
  5
724
330
723
100
AcDbEntity
  8
Capa 1
370
     0
100
AcDbVertex
100
AcDb2dVertex
 10
52.21833335047844
 20
147.5171248279109
 30
0.0
  0
VERTEX
  5
725
330
723
100
AcDbEntity
  8
Capa 1
370
     0
100
AcDbVertex
100
AcDb2dVertex
 10
52.66283343111174
 20
147.5171248279109
 30
0.0
  0
VERTEX
  5
726
330
723
100
AcDbEntity
  8
Capa 1
370
     0
100
AcDbVertex
100
AcDb2dVertex
 10
52.44058238148977
 20
146.1518738593191
 30
0.0
  0
SEQEND
  5
728
330
723
100
AcDbEntity
  8
Capa 1
370
     0
  0
HATCH
  5
727
330
1F
100
AcDbEntity
  8
Capa 1
 62
     7
420
 16777215
100
AcDbHatch
 10
0.0
 20
0.0
 30
0.0
210
0.0
220
0.0
230
1.0
  2
SOLID
 70
     1
 71
     0
 91
        1
 92
        1
 93
        3
 72
     1
 10
52.21833335047844
 20
147.5171248279109
 11
52.66283343111174
 21
147.5171248279109
 72
     1
 10
52.66283343111174
 20
147.5171248279109
 11
52.44058238148978
 21
146.1518738593191
 72
     1
 10
52.44058238148977
 20
146.1518738593191
 11
52.21833335047844
 21
147.5171248279109
 97
        0
 75
     0
 76
     1
 98
        0
  0
POLYLINE
  5
729
330
1F
100
AcDbEntity
  8
Capa 1
 62
     7
420
 16777215
370
     9
100
AcDb2dPolyline
 66
     1
 10
0.0
 20
0.0
 30
0.0
  0
VERTEX
  5
72A
330
729
100
AcDbEntity
  8
Capa 1
 62
     7
420
 16777215
370
     9
100
AcDbVertex
100
AcDb2dVertex
 10
55.3615826229928
 20
208.4771151233398
 30
0.0
  0
VERTEX
  5
72B
330
729
100
AcDbEntity
  8
Capa 1
 62
     7
420
 16777215
370
     9
100
AcDbVertex
100
AcDb2dVertex
 10
52.72633286588488
 20
208.4771151233398
 30
0.0
  0
SEQEND
  5
72C
330
729
100
AcDbEntity
  8
Capa 1
 62
     7
420
 16777215
370
     9
  0
POLYLINE
  5
72D
330
1F
100
AcDbEntity
  8
Capa 1
 62
     7
420
 16777215
370
     9
100
AcDb2dPolyline
 66
     1
 10
0.0
 20
0.0
 30
0.0
  0
VERTEX
  5
72E
330
72D
100
AcDbEntity
  8
Capa 1
 62
     7
420
 16777215
370
     9
100
AcDbVertex
100
AcDb2dVertex
 10
66.0614584201327
 20
208.4771151233398
 30
0.0
  0
VERTEX
  5
72F
330
72D
100
AcDbEntity
  8
Capa 1
 62
     7
420
 16777215
370
     9
100
AcDbVertex
100
AcDb2dVertex
 10
68.69671019585124
 20
208.4771151233398
 30
0.0
  0
SEQEND
  5
730
330
72D
100
AcDbEntity
  8
Capa 1
 62
     7
420
 16777215
370
     9
  0
POLYLINE
  5
731
330
1F
100
AcDbEntity
  8
Capa 1
 62
     7
420
 16777215
370
     9
100
AcDb2dPolyline
 66
     1
 10
0.0
 20
0.0
 30
0.0
  0
VERTEX
  5
732
330
731
100
AcDbEntity
  8
Capa 1
 62
     7
420
 16777215
370
     9
100
AcDbVertex
100
AcDb2dVertex
 10
57.96521084448951
 20
202.1271151249273
 30
0.0
  0
VERTEX
  5
733
330
731
100
AcDbEntity
  8
Capa 1
 62
     7
420
 16777215
370
     9
100
AcDbVertex
100
AcDb2dVertex
 10
57.96521084448951
 20
209.5883683528391
 30
0.0
  0
SEQEND
  5
734
330
731
100
AcDbEntity
  8
Capa 1
 62
     7
420
 16777215
370
     9
  0
POLYLINE
  5
735
330
1F
100
AcDbEntity
  8
Capa 1
 62
     7
420
 16777215
370
     9
100
AcDb2dPolyline
 66
     1
 10
0.0
 20
0.0
 30
0.0
  0
VERTEX
  5
736
330
735
100
AcDbEntity
  8
Capa 1
 62
     7
420
 16777215
370
     9
100
AcDbVertex
100
AcDb2dVertex
 10
63.45795938971667
 20
198.2853761071297
 30
0.0
  0
VERTEX
  5
737
330
735
100
AcDbEntity
  8
Capa 1
 62
     7
420
 16777215
370
     9
100
AcDbVertex
100
AcDb2dVertex
 10
63.45795938971667
 20
209.5883683528391
 30
0.0
  0
SEQEND
  5
738
330
735
100
AcDbEntity
  8
Capa 1
 62
     7
420
 16777215
370
     9
  0
POLYLINE
  5
739
330
1F
100
AcDbEntity
  8
Capa 1
370
     0
100
AcDb2dPolyline
 66
     1
 10
0.0
 20
0.0
 30
0.0
  0
VERTEX
  5
73A
330
739
100
AcDbEntity
  8
Capa 1
370
     0
100
AcDbVertex
100
AcDb2dVertex
 10
66.0614584201327
 20
208.9216293342476
 30
0.0
  0
VERTEX
  5
73B
330
739
100
AcDbEntity
  8
Capa 1
370
     0
100
AcDbVertex
100
AcDb2dVertex
 10
66.0614584201327
 20
208.0326170613172
 30
0.0
  0
VERTEX
  5
73C
330
739
100
AcDbEntity
  8
Capa 1
370
     0
100
AcDbVertex
100
AcDb2dVertex
 10
63.45795938971667
 20
208.4771151233398
 30
0.0
  0
SEQEND
  5
73E
330
739
100
AcDbEntity
  8
Capa 1
370
     0
  0
HATCH
  5
73D
330
1F
100
AcDbEntity
  8
Capa 1
 62
     7
420
 16777215
100
AcDbHatch
 10
0.0
 20
0.0
 30
0.0
210
0.0
220
0.0
230
1.0
  2
SOLID
 70
     1
 71
     0
 91
        1
 92
        1
 93
        3
 72
     1
 10
66.0614584201327
 20
208.9216293342476
 11
66.0614584201327
 21
208.0326170613172
 72
     1
 10
66.0614584201327
 20
208.0326170613172
 11
63.45795938971668
 21
208.4771151233398
 72
     1
 10
63.45795938971667
 20
208.4771151233398
 11
66.0614584201327
 21
208.9216293342476
 97
        0
 75
     0
 76
     1
 98
        0
  0
POLYLINE
  5
73F
330
1F
100
AcDbEntity
  8
Capa 1
370
     0
100
AcDb2dPolyline
 66
     1
 10
0.0
 20
0.0
 30
0.0
  0
VERTEX
  5
740
330
73F
100
AcDbEntity
  8
Capa 1
370
     0
100
AcDbVertex
100
AcDb2dVertex
 10
55.3615826229928
 20
208.9216293342476
 30
0.0
  0
VERTEX
  5
741
330
73F
100
AcDbEntity
  8
Capa 1
370
     0
100
AcDbVertex
100
AcDb2dVertex
 10
55.3615826229928
 20
208.0326170613172
 30
0.0
  0
VERTEX
  5
742
330
73F
100
AcDbEntity
  8
Capa 1
370
     0
100
AcDbVertex
100
AcDb2dVertex
 10
57.96521084448951
 20
208.4771151233398
 30
0.0
  0
SEQEND
  5
744
330
73F
100
AcDbEntity
  8
Capa 1
370
     0
  0
HATCH
  5
743
330
1F
100
AcDbEntity
  8
Capa 1
 62
     7
420
 16777215
100
AcDbHatch
 10
0.0
 20
0.0
 30
0.0
210
0.0
220
0.0
230
1.0
  2
SOLID
 70
     1
 71
     0
 91
        1
 92
        1
 93
        3
 72
     1
 10
55.3615826229928
 20
208.9216293342476
 11
55.3615826229928
 21
208.0326170613172
 72
     1
 10
55.3615826229928
 20
208.0326170613172
 11
57.96521084448952
 21
208.4771151233398
 72
     1
 10
57.96521084448951
 20
208.4771151233398
 11
55.3615826229928
 21
208.9216293342476
 97
        0
 75
     0
 76
     1
 98
        0
  0
POLYLINE
  5
745
330
1F
100
AcDbEntity
  8
Capa 1
 62
     7
420
 16777215
370
     9
100
AcDb2dPolyline
 66
     1
 10
0.0
 20
0.0
 30
0.0
  0
VERTEX
  5
746
330
745
100
AcDbEntity
  8
Capa 1
 62
     7
420
 16777215
370
     9
100
AcDbVertex
100
AcDb2dVertex
 10
60.60045858298679
 20
66.82980185003585
 30
0.0
  0
VERTEX
  5
747
330
745
100
AcDbEntity
  8
Capa 1
 62
     7
420
 16777215
370
     9
100
AcDbVertex
100
AcDb2dVertex
 10
104.8282055036417
 20
66.82980185003585
 30
0.0
  0
SEQEND
  5
748
330
745
100
AcDbEntity
  8
Capa 1
 62
     7
420
 16777215
370
     9
  0
POLYLINE
  5
749
330
1F
100
AcDbEntity
  8
Capa 1
 62
     7
420
 16777215
370
     9
100
AcDb2dPolyline
 66
     1
 10
0.0
 20
0.0
 30
0.0
  0
VERTEX
  5
74A
330
749
100
AcDbEntity
  8
Capa 1
 62
     7
420
 16777215
370
     9
100
AcDbVertex
100
AcDb2dVertex
 10
107.463453242139
 20
86.67355184507491
 30
0.0
  0
VERTEX
  5
74B
330
749
100
AcDbEntity
  8
Capa 1
 62
     7
420
 16777215
370
     9
100
AcDbVertex
100
AcDb2dVertex
 10
107.463453242139
 20
65.71855265775793
 30
0.0
  0
SEQEND
  5
74C
330
749
100
AcDbEntity
  8
Capa 1
 62
     7
420
 16777215
370
     9
  0
POLYLINE
  5
74D
330
1F
100
AcDbEntity
  8
Capa 1
 62
     7
420
 16777215
370
     9
100
AcDb2dPolyline
 66
     1
 10
0.0
 20
0.0
 30
0.0
  0
VERTEX
  5
74E
330
74D
100
AcDbEntity
  8
Capa 1
 62
     7
420
 16777215
370
     9
100
AcDbVertex
100
AcDb2dVertex
 10
57.96521084448951
 20
73.6878013638548
 30
0.0
  0
VERTEX
  5
74F
330
74D
100
AcDbEntity
  8
Capa 1
 62
     7
420
 16777215
370
     9
100
AcDbVertex
100
AcDb2dVertex
 10
57.96521084448951
 20
65.71855265775793
 30
0.0
  0
SEQEND
  5
750
330
74D
100
AcDbEntity
  8
Capa 1
 62
     7
420
 16777215
370
     9
  0
POLYLINE
  5
751
330
1F
100
AcDbEntity
  8
Capa 1
370
     0
100
AcDb2dPolyline
 66
     1
 10
0.0
 20
0.0
 30
0.0
  0
VERTEX
  5
752
330
751
100
AcDbEntity
  8
Capa 1
370
     0
100
AcDbVertex
100
AcDb2dVertex
 10
60.60045858298679
 20
67.27429991205852
 30
0.0
  0
VERTEX
  5
753
330
751
100
AcDbEntity
  8
Capa 1
370
     0
100
AcDbVertex
100
AcDb2dVertex
 10
60.60045858298679
 20
66.38529975079192
 30
0.0
  0
VERTEX
  5
754
330
751
100
AcDbEntity
  8
Capa 1
370
     0
100
AcDbVertex
100
AcDb2dVertex
 10
57.96521084448951
 20
66.82980185003585
 30
0.0
  0
SEQEND
  5
756
330
751
100
AcDbEntity
  8
Capa 1
370
     0
  0
HATCH
  5
755
330
1F
100
AcDbEntity
  8
Capa 1
 62
     7
420
 16777215
100
AcDbHatch
 10
0.0
 20
0.0
 30
0.0
210
0.0
220
0.0
230
1.0
  2
SOLID
 70
     1
 71
     0
 91
        1
 92
        1
 93
        3
 72
     1
 10
60.60045858298679
 20
67.27429991205852
 11
60.60045858298679
 21
66.38529975079193
 72
     1
 10
60.60045858298679
 20
66.38529975079192
 11
57.96521084448951
 21
66.82980185003585
 72
     1
 10
57.96521084448951
 20
66.82980185003585
 11
60.60045858298679
 21
67.27429991205851
 97
        0
 75
     0
 76
     1
 98
        0
  0
POLYLINE
  5
757
330
1F
100
AcDbEntity
  8
Capa 1
370
     0
100
AcDb2dPolyline
 66
     1
 10
0.0
 20
0.0
 30
0.0
  0
VERTEX
  5
758
330
757
100
AcDbEntity
  8
Capa 1
370
     0
100
AcDbVertex
100
AcDb2dVertex
 10
104.8282055036417
 20
67.27429991205852
 30
0.0
  0
VERTEX
  5
759
330
757
100
AcDbEntity
  8
Capa 1
370
     0
100
AcDbVertex
100
AcDb2dVertex
 10
104.8282055036417
 20
66.38529975079192
 30
0.0
  0
VERTEX
  5
75A
330
757
100
AcDbEntity
  8
Capa 1
370
     0
100
AcDbVertex
100
AcDb2dVertex
 10
107.463453242139
 20
66.82980185003585
 30
0.0
  0
SEQEND
  5
75C
330
757
100
AcDbEntity
  8
Capa 1
370
     0
  0
HATCH
  5
75B
330
1F
100
AcDbEntity
  8
Capa 1
 62
     7
420
 16777215
100
AcDbHatch
 10
0.0
 20
0.0
 30
0.0
210
0.0
220
0.0
230
1.0
  2
SOLID
 70
     1
 71
     0
 91
        1
 92
        1
 93
        3
 72
     1
 10
104.8282055036417
 20
67.27429991205852
 11
104.8282055036417
 21
66.38529975079193
 72
     1
 10
104.8282055036417
 20
66.38529975079192
 11
107.463453242139
 21
66.82980185003585
 72
     1
 10
107.463453242139
 20
66.82980185003585
 11
104.8282055036417
 21
67.27429991205851
 97
        0
 75
     0
 76
     1
 98
        0
  0
POLYLINE
  5
75D
330
1F
100
AcDbEntity
  8
Capa 1
 62
     7
420
 16777215
370
     9
100
AcDb2dPolyline
 66
     1
 10
0.0
 20
0.0
 30
0.0
  0
VERTEX
  5
75E
330
75D
100
AcDbEntity
  8
Capa 1
 62
     7
420
 16777215
370
     9
100
AcDbVertex
100
AcDb2dVertex
 10
86.19095889956687
 20
83.62555071541496
 30
0.0
  0
VERTEX
  5
75F
330
75D
100
AcDbEntity
  8
Capa 1
 62
     7
420
 16777215
370
     9
100
AcDbVertex
100
AcDb2dVertex
 10
89.17545857584304
 20
83.62555071541496
 30
0.0
  0
SEQEND
  5
760
330
75D
100
AcDbEntity
  8
Capa 1
 62
     7
420
 16777215
370
     9
  0
POLYLINE
  5
761
330
1F
100
AcDbEntity
  8
Capa 1
 62
     7
420
 16777215
370
     9
100
AcDb2dPolyline
 66
     1
 10
0.0
 20
0.0
 30
0.0
  0
VERTEX
  5
762
330
761
100
AcDbEntity
  8
Capa 1
 62
     7
420
 16777215
370
     9
100
AcDbVertex
100
AcDb2dVertex
 10
86.19095889956687
 20
90.13430232867628
 30
0.0
  0
VERTEX
  5
763
330
761
100
AcDbEntity
  8
Capa 1
 62
     7
420
 16777215
370
     9
100
AcDbVertex
100
AcDb2dVertex
 10
89.17545857584304
 20
90.13430232867628
 30
0.0
  0
SEQEND
  5
764
330
761
100
AcDbEntity
  8
Capa 1
 62
     7
420
 16777215
370
     9
  0
POLYLINE
  5
765
330
1F
100
AcDbEntity
  8
Capa 1
 62
     7
420
 16777215
370
     9
100
AcDb2dPolyline
 66
     1
 10
0.0
 20
0.0
 30
0.0
  0
VERTEX
  5
766
330
765
100
AcDbEntity
  8
Capa 1
 62
     7
420
 16777215
370
     9
100
AcDbVertex
100
AcDb2dVertex
 10
89.14370986776179
 20
90.13430232867628
 30
0.0
  0
VERTEX
  5
767
330
765
100
AcDbEntity
  8
Capa 1
 62
     7
420
 16777215
370
     9
100
AcDbVertex
100
AcDb2dVertex
 10
89.77870825271582
 20
90.07080087529249
 30
0.0
  0
VERTEX
  5
768
330
765
100
AcDbEntity
  8
Capa 1
 62
     7
420
 16777215
370
     9
100
AcDbVertex
100
AcDb2dVertex
 10
90.38195792958601
 20
89.88030055236243
 30
0.0
  0
VERTEX
  5
769
330
765
100
AcDbEntity
  8
Capa 1
 62
     7
420
 16777215
370
     9
100
AcDbVertex
100
AcDb2dVertex
 10
90.95345889837624
 20
89.5945500679673
 30
0.0
  0
VERTEX
  5
76A
330
765
100
AcDbEntity
  8
Capa 1
 62
     7
420
 16777215
370
     9
100
AcDbVertex
100
AcDb2dVertex
 10
91.42970970570144
 20
89.1818007140259
 30
0.0
  0
VERTEX
  5
76B
330
765
100
AcDbEntity
  8
Capa 1
 62
     7
420
 16777215
370
     9
100
AcDbVertex
100
AcDb2dVertex
 10
91.84245905964285
 20
88.67380119861944
 30
0.0
  0
VERTEX
  5
76C
330
765
100
AcDbEntity
  8
Capa 1
 62
     7
420
 16777215
370
     9
100
AcDbVertex
100
AcDb2dVertex
 10
92.12820954403796
 20
88.13405297513175
 30
0.0
  0
VERTEX
  5
76D
330
765
100
AcDbEntity
  8
Capa 1
 62
     7
420
 16777215
370
     9
100
AcDbVertex
100
AcDb2dVertex
 10
92.31870986696804
 20
87.49905055295774
 30
0.0
  0
VERTEX
  5
76E
330
765
100
AcDbEntity
  8
Capa 1
 62
     7
420
 16777215
370
     9
100
AcDbVertex
100
AcDb2dVertex
 10
92.38220728313054
 20
86.86405216800499
 30
0.0
  0
SEQEND
  5
76F
330
765
100
AcDbEntity
  8
Capa 1
 62
     7
420
 16777215
370
     9
  0
POLYLINE
  5
770
330
1F
100
AcDbEntity
  8
Capa 1
 62
     7
420
 16777215
370
     9
100
AcDb2dPolyline
 66
     1
 10
0.0
 20
0.0
 30
0.0
  0
VERTEX
  5
771
330
770
100
AcDbEntity
  8
Capa 1
 62
     7
420
 16777215
370
     9
100
AcDbVertex
100
AcDb2dVertex
 10
89.14370986776179
 20
83.62555071541496
 30
0.0
  0
VERTEX
  5
772
330
770
100
AcDbEntity
  8
Capa 1
 62
     7
420
 16777215
370
     9
100
AcDbVertex
100
AcDb2dVertex
 10
89.77870825271582
 20
83.68905216879874
 30
0.0
  0
VERTEX
  5
773
330
770
100
AcDbEntity
  8
Capa 1
 62
     7
420
 16777215
370
     9
100
AcDbVertex
100
AcDb2dVertex
 10
90.38195792958601
 20
83.87955249172882
 30
0.0
  0
VERTEX
  5
774
330
770
100
AcDbEntity
  8
Capa 1
 62
     7
420
 16777215
370
     9
100
AcDbVertex
100
AcDb2dVertex
 10
90.95345889837624
 20
84.16530297612394
 30
0.0
  0
VERTEX
  5
775
330
770
100
AcDbEntity
  8
Capa 1
 62
     7
420
 16777215
370
     9
100
AcDbVertex
100
AcDb2dVertex
 10
91.42970970570144
 20
84.57805233006535
 30
0.0
  0
VERTEX
  5
776
330
770
100
AcDbEntity
  8
Capa 1
 62
     7
420
 16777215
370
     9
100
AcDbVertex
100
AcDb2dVertex
 10
91.84245905964285
 20
85.08605184547179
 30
0.0
  0
VERTEX
  5
777
330
770
100
AcDbEntity
  8
Capa 1
 62
     7
420
 16777215
370
     9
100
AcDbVertex
100
AcDb2dVertex
 10
92.12820954403796
 20
85.62580006895949
 30
0.0
  0
VERTEX
  5
778
330
770
100
AcDbEntity
  8
Capa 1
 62
     7
420
 16777215
370
     9
100
AcDbVertex
100
AcDb2dVertex
 10
92.31870986696804
 20
86.2608024911335
 30
0.0
  0
VERTEX
  5
779
330
770
100
AcDbEntity
  8
Capa 1
 62
     7
420
 16777215
370
     9
100
AcDbVertex
100
AcDb2dVertex
 10
92.38220728313054
 20
86.86405216800499
 30
0.0
  0
SEQEND
  5
77A
330
770
100
AcDbEntity
  8
Capa 1
 62
     7
420
 16777215
370
     9
  0
POLYLINE
  5
77B
330
1F
100
AcDbEntity
  8
Capa 1
 62
     7
420
 16777215
370
     9
100
AcDb2dPolyline
 66
     1
 10
0.0
 20
0.0
 30
0.0
  0
VERTEX
  5
77C
330
77B
100
AcDbEntity
  8
Capa 1
 62
     7
420
 16777215
370
     9
100
AcDbVertex
100
AcDb2dVertex
 10
86.19095889956687
 20
90.13430232867628
 30
0.0
  0
VERTEX
  5
77D
330
77B
100
AcDbEntity
  8
Capa 1
 62
     7
420
 16777215
370
     9
100
AcDbVertex
100
AcDb2dVertex
 10
85.71470809224168
 20
89.49929990650227
 30
0.0
  0
VERTEX
  5
77E
330
77B
100
AcDbEntity
  8
Capa 1
 62
     7
420
 16777215
370
     9
100
AcDbVertex
100
AcDb2dVertex
 10
85.36546019168405
 20
88.80080006816574
 30
0.0
  0
VERTEX
  5
77F
330
77B
100
AcDbEntity
  8
Capa 1
 62
     7
420
 16777215
370
     9
100
AcDbVertex
100
AcDb2dVertex
 10
85.1114584153702
 20
88.07055152174796
 30
0.0
  0
VERTEX
  5
780
330
77B
100
AcDbEntity
  8
Capa 1
 62
     7
420
 16777215
370
     9
100
AcDbVertex
100
AcDb2dVertex
 10
84.9844595458239
 20
87.2768015219464
 30
0.0
  0
VERTEX
  5
781
330
77B
100
AcDbEntity
  8
Capa 1
 62
     7
420
 16777215
370
     9
100
AcDbVertex
100
AcDb2dVertex
 10
84.9844595458239
 20
86.48305152214483
 30
0.0
  0
VERTEX
  5
782
330
77B
100
AcDbEntity
  8
Capa 1
 62
     7
420
 16777215
370
     9
100
AcDbVertex
100
AcDb2dVertex
 10
85.1114584153702
 20
85.68930152234327
 30
0.0
  0
VERTEX
  5
783
330
77B
100
AcDbEntity
  8
Capa 1
 62
     7
420
 16777215
370
     9
100
AcDbVertex
100
AcDb2dVertex
 10
85.36546019168405
 20
84.9590529759255
 30
0.0
  0
VERTEX
  5
784
330
77B
100
AcDbEntity
  8
Capa 1
 62
     7
420
 16777215
370
     9
100
AcDbVertex
100
AcDb2dVertex
 10
85.71470809224168
 20
84.22880039228644
 30
0.0
  0
VERTEX
  5
785
330
77B
100
AcDbEntity
  8
Capa 1
 62
     7
420
 16777215
370
     9
100
AcDbVertex
100
AcDb2dVertex
 10
86.19095889956687
 20
83.62555071541496
 30
0.0
  0
SEQEND
  5
786
330
77B
100
AcDbEntity
  8
Capa 1
 62
     7
420
 16777215
370
     9
  0
POLYLINE
  5
787
330
1F
100
AcDbEntity
  8
Capa 1
 62
     7
420
 16777215
370
     9
100
AcDb2dPolyline
 66
     1
 10
0.0
 20
0.0
 30
0.0
  0
VERTEX
  5
788
330
787
100
AcDbEntity
  8
Capa 1
 62
     7
420
 16777215
370
     9
100
AcDbVertex
100
AcDb2dVertex
 10
60.09245906758034
 20
172.6631270824683
 30
0.0
  0
VERTEX
  5
789
330
787
100
AcDbEntity
  8
Capa 1
 62
     7
420
 16777215
370
     9
100
AcDbVertex
100
AcDb2dVertex
 10
60.88620906738191
 20
172.5996296663058
 30
0.0
  0
SEQEND
  5
78A
330
787
100
AcDbEntity
  8
Capa 1
 62
     7
420
 16777215
370
     9
  0
POLYLINE
  5
78B
330
1F
100
AcDbEntity
  8
Capa 1
 62
     7
420
 16777215
370
     9
100
AcDb2dPolyline
 66
     1
 10
0.0
 20
0.0
 30
0.0
  0
VERTEX
  5
78C
330
78B
100
AcDbEntity
  8
Capa 1
 62
     7
420
 16777215
370
     9
100
AcDbVertex
100
AcDb2dVertex
 10
58.72721011759918
 20
174.0918754672226
 30
0.0
  0
VERTEX
  5
78D
330
78B
100
AcDbEntity
  8
Capa 1
 62
     7
420
 16777215
370
     9
100
AcDbVertex
100
AcDb2dVertex
 10
58.82246027906422
 20
173.6791261132812
 30
0.0
  0
VERTEX
  5
78E
330
78B
100
AcDbEntity
  8
Capa 1
 62
     7
420
 16777215
370
     9
100
AcDbVertex
100
AcDb2dVertex
 10
59.0129606019943
 20
173.298125467421
 30
0.0
  0
VERTEX
  5
78F
330
78B
100
AcDbEntity
  8
Capa 1
 62
     7
420
 16777215
370
     9
100
AcDbVertex
100
AcDb2dVertex
 10
59.29871108638942
 20
172.9806303121659
 30
0.0
  0
VERTEX
  5
790
330
78B
100
AcDbEntity
  8
Capa 1
 62
     7
420
 16777215
370
     9
100
AcDbVertex
100
AcDb2dVertex
 10
59.67970971364021
 20
172.7583732067121
 30
0.0
  0
VERTEX
  5
791
330
78B
100
AcDbEntity
  8
Capa 1
 62
     7
420
 16777215
370
     9
100
AcDbVertex
100
AcDb2dVertex
 10
60.09245906758034
 20
172.6631270824683
 30
0.0
  0
SEQEND
  5
792
330
78B
100
AcDbEntity
  8
Capa 1
 62
     7
420
 16777215
370
     9
  0
POLYLINE
  5
793
330
1F
100
AcDbEntity
  8
Capa 1
 62
     7
420
 16777215
370
     9
100
AcDb2dPolyline
 66
     1
 10
0.0
 20
0.0
 30
0.0
  0
VERTEX
  5
794
330
793
100
AcDbEntity
  8
Capa 1
 62
     7
420
 16777215
370
     9
100
AcDbVertex
100
AcDb2dVertex
 10
66.3472089045278
 20
151.8033780566164
 30
0.0
  0
VERTEX
  5
795
330
793
100
AcDbEntity
  8
Capa 1
 62
     7
420
 16777215
370
     9
100
AcDbVertex
100
AcDb2dVertex
 10
65.99796100397018
 20
146.1518738593191
 30
0.0
  0
SEQEND
  5
796
330
793
100
AcDbEntity
  8
Capa 1
 62
     7
420
 16777215
370
     9
  0
POLYLINE
  5
797
330
1F
100
AcDbEntity
  8
Capa 1
 62
     7
420
 16777215
370
     9
100
AcDb2dPolyline
 66
     1
 10
0.0
 20
0.0
 30
0.0
  0
VERTEX
  5
798
330
797
100
AcDbEntity
  8
Capa 1
 62
     7
420
 16777215
370
     9
100
AcDbVertex
100
AcDb2dVertex
 10
67.04570874286433
 20
152.1526299943953
 30
0.0
  0
VERTEX
  5
799
330
797
100
AcDbEntity
  8
Capa 1
 62
     7
420
 16777215
370
     9
100
AcDbVertex
100
AcDb2dVertex
 10
67.33145922725944
 20
152.1843787024765
 30
0.0
  0
VERTEX
  5
79A
330
797
100
AcDbEntity
  8
Capa 1
 62
     7
420
 16777215
370
     9
100
AcDbVertex
100
AcDb2dVertex
 10
67.61720971165585
 20
152.2796248267203
 30
0.0
  0
VERTEX
  5
79B
330
797
100
AcDbEntity
  8
Capa 1
 62
     7
420
 16777215
370
     9
100
AcDbVertex
100
AcDb2dVertex
 10
67.87121148796842
 20
152.4066277334879
 30
0.0
  0
VERTEX
  5
79C
330
797
100
AcDbEntity
  8
Capa 1
 62
     7
420
 16777215
370
     9
100
AcDbVertex
100
AcDb2dVertex
 10
68.09346051897975
 20
152.5653793483366
 30
0.0
  0
VERTEX
  5
79D
330
797
100
AcDbEntity
  8
Capa 1
 62
     7
420
 16777215
370
     9
100
AcDbVertex
100
AcDb2dVertex
 10
68.2522080966073
 20
152.787628379348
 30
0.0
  0
VERTEX
  5
79E
330
797
100
AcDbEntity
  8
Capa 1
 62
     7
420
 16777215
370
     9
100
AcDbVertex
100
AcDb2dVertex
 10
68.41095971145741
 20
153.0416261184406
 30
0.0
  0
VERTEX
  5
79F
330
797
100
AcDbEntity
  8
Capa 1
 62
     7
420
 16777215
370
     9
100
AcDbVertex
100
AcDb2dVertex
 10
68.50620987292116
 20
153.2956238575332
 30
0.0
  0
VERTEX
  5
7A0
330
797
100
AcDbEntity
  8
Capa 1
 62
     7
420
 16777215
370
     9
100
AcDbVertex
100
AcDb2dVertex
 10
68.53795858100241
 20
153.5813783791496
 30
0.0
  0
SEQEND
  5
7A1
330
797
100
AcDbEntity
  8
Capa 1
 62
     7
420
 16777215
370
     9
  0
POLYLINE
  5
7A2
330
1F
100
AcDbEntity
  8
Capa 1
 62
     7
420
 16777215
370
     9
100
AcDb2dPolyline
 66
     1
 10
0.0
 20
0.0
 30
0.0
  0
VERTEX
  5
7A3
330
7A2
100
AcDbEntity
  8
Capa 1
 62
     7
420
 16777215
370
     9
100
AcDbVertex
100
AcDb2dVertex
 10
66.72820955038796
 20
152.1526299943953
 30
0.0
  0
VERTEX
  5
7A4
330
7A2
100
AcDbEntity
  8
Capa 1
 62
     7
420
 16777215
370
     9
100
AcDbVertex
100
AcDb2dVertex
 10
67.14095890432937
 20
152.1526299943953
 30
0.0
  0
SEQEND
  5
7A5
330
7A2
100
AcDbEntity
  8
Capa 1
 62
     7
420
 16777215
370
     9
  0
POLYLINE
  5
7A6
330
1F
100
AcDbEntity
  8
Capa 1
 62
     7
420
 16777215
370
     9
100
AcDb2dPolyline
 66
     1
 10
0.0
 20
0.0
 30
0.0
  0
VERTEX
  5
7A7
330
7A6
100
AcDbEntity
  8
Capa 1
 62
     7
420
 16777215
370
     9
100
AcDbVertex
100
AcDb2dVertex
 10
66.72820955038796
 20
152.1526299943953
 30
0.0
  0
VERTEX
  5
7A8
330
7A6
100
AcDbEntity
  8
Capa 1
 62
     7
420
 16777215
370
     9
100
AcDbVertex
100
AcDb2dVertex
 10
66.53770922745788
 20
152.120881286314
 30
0.0
  0
VERTEX
  5
7A9
330
7A6
100
AcDbEntity
  8
Capa 1
 62
     7
420
 16777215
370
     9
100
AcDbVertex
100
AcDb2dVertex
 10
66.41071035791158
 20
151.9938783795464
 30
0.0
  0
VERTEX
  5
7AA
330
7A6
100
AcDbEntity
  8
Capa 1
 62
     7
420
 16777215
370
     9
100
AcDbVertex
100
AcDb2dVertex
 10
66.3472089045278
 20
151.8033780566164
 30
0.0
  0
SEQEND
  5
7AB
330
7A6
100
AcDbEntity
  8
Capa 1
 62
     7
420
 16777215
370
     9
  0
POLYLINE
  5
7AC
330
1F
100
AcDbEntity
  8
Capa 1
 62
     7
420
 16777215
370
     9
100
AcDb2dPolyline
 66
     1
 10
0.0
 20
0.0
 30
0.0
  0
VERTEX
  5
7AD
330
7AC
100
AcDbEntity
  8
Capa 1
 62
     7
420
 16777215
370
     9
100
AcDbVertex
100
AcDb2dVertex
 10
62.02921100496236
 20
171.9328744988292
 30
0.0
  0
VERTEX
  5
7AE
330
7AC
100
AcDbEntity
  8
Capa 1
 62
     7
420
 16777215
370
     9
100
AcDbVertex
100
AcDb2dVertex
 10
61.80695793672976
 20
172.1868803123644
 30
0.0
  0
VERTEX
  5
7AF
330
7AC
100
AcDbEntity
  8
Capa 1
 62
     7
420
 16777215
370
     9
100
AcDbVertex
100
AcDb2dVertex
 10
61.52121148955592
 20
172.4091293433757
 30
0.0
  0
VERTEX
  5
7B0
330
7AC
100
AcDbEntity
  8
Capa 1
 62
     7
420
 16777215
370
     9
100
AcDbVertex
100
AcDb2dVertex
 10
61.20370825985956
 20
172.5361241757007
 30
0.0
  0
VERTEX
  5
7B1
330
7AC
100
AcDbEntity
  8
Capa 1
 62
     7
420
 16777215
370
     9
100
AcDbVertex
100
AcDb2dVertex
 10
60.88620906738191
 20
172.5996296663058
 30
0.0
  0
SEQEND
  5
7B2
330
7AC
100
AcDbEntity
  8
Capa 1
 62
     7
420
 16777215
370
     9
  0
POLYLINE
  5
7B3
330
1F
100
AcDbEntity
  8
Capa 1
 62
     7
420
 16777215
370
     9
100
AcDb2dPolyline
 66
     1
 10
0.0
 20
0.0
 30
0.0
  0
VERTEX
  5
7B4
330
7B3
100
AcDbEntity
  8
Capa 1
 62
     7
420
 16777215
370
     9
100
AcDbVertex
100
AcDb2dVertex
 10
68.85545777347879
 20
162.1538767621179
 30
0.0
  0
VERTEX
  5
7B5
330
7B3
100
AcDbEntity
  8
Capa 1
 62
     7
420
 16777215
370
     9
100
AcDbVertex
100
AcDb2dVertex
 10
62.02921100496236
 20
171.9328744988292
 30
0.0
  0
SEQEND
  5
7B6
330
7B3
100
AcDbEntity
  8
Capa 1
 62
     7
420
 16777215
370
     9
  0
POLYLINE
  5
7B7
330
1F
100
AcDbEntity
  8
Capa 1
 62
     7
420
 16777215
370
     9
100
AcDb2dPolyline
 66
     1
 10
0.0
 20
0.0
 30
0.0
  0
VERTEX
  5
7B8
330
7B7
100
AcDbEntity
  8
Capa 1
 62
     7
420
 16777215
370
     9
100
AcDbVertex
100
AcDb2dVertex
 10
69.04595809640887
 20
161.5188783771652
 30
0.0
  0
VERTEX
  5
7B9
330
7B7
100
AcDbEntity
  8
Capa 1
 62
     7
420
 16777215
370
     9
100
AcDbVertex
100
AcDb2dVertex
 10
69.04595809640887
 20
161.7093787000953
 30
0.0
  0
VERTEX
  5
7BA
330
7B7
100
AcDbEntity
  8
Capa 1
 62
     7
420
 16777215
370
     9
100
AcDbVertex
100
AcDb2dVertex
 10
69.0142093883276
 20
161.8681303149441
 30
0.0
  0
VERTEX
  5
7BB
330
7B7
100
AcDbEntity
  8
Capa 1
 62
     7
420
 16777215
370
     9
100
AcDbVertex
100
AcDb2dVertex
 10
68.95070793494382
 20
161.9951251472691
 30
0.0
  0
VERTEX
  5
7BC
330
7B7
100
AcDbEntity
  8
Capa 1
 62
     7
420
 16777215
370
     9
100
AcDbVertex
100
AcDb2dVertex
 10
68.85545777347879
 20
162.1538767621179
 30
0.0
  0
SEQEND
  5
7BD
330
7B7
100
AcDbEntity
  8
Capa 1
 62
     7
420
 16777215
370
     9
  0
POLYLINE
  5
7BE
330
1F
100
AcDbEntity
  8
Capa 1
 62
     7
420
 16777215
370
     9
100
AcDb2dPolyline
 66
     1
 10
0.0
 20
0.0
 30
0.0
  0
VERTEX
  5
7BF
330
7BE
100
AcDbEntity
  8
Capa 1
 62
     7
420
 16777215
370
     9
100
AcDbVertex
100
AcDb2dVertex
 10
60.09245906758034
 20
172.6631270824683
 30
0.0
  0
VERTEX
  5
7C0
330
7BE
100
AcDbEntity
  8
Capa 1
 62
     7
420
 16777215
370
     9
100
AcDbVertex
100
AcDb2dVertex
 10
60.88620906738191
 20
172.5996296663058
 30
0.0
  0
SEQEND
  5
7C1
330
7BE
100
AcDbEntity
  8
Capa 1
 62
     7
420
 16777215
370
     9
  0
POLYLINE
  5
7C2
330
1F
100
AcDbEntity
  8
Capa 1
 62
     7
420
 16777215
370
     9
100
AcDb2dPolyline
 66
     1
 10
0.0
 20
0.0
 30
0.0
  0
VERTEX
  5
7C3
330
7C2
100
AcDbEntity
  8
Capa 1
 62
     7
420
 16777215
370
     9
100
AcDbVertex
100
AcDb2dVertex
 10
58.72721011759918
 20
174.0918754672226
 30
0.0
  0
VERTEX
  5
7C4
330
7C2
100
AcDbEntity
  8
Capa 1
 62
     7
420
 16777215
370
     9
100
AcDbVertex
100
AcDb2dVertex
 10
58.82246027906422
 20
173.6791261132812
 30
0.0
  0
VERTEX
  5
7C5
330
7C2
100
AcDbEntity
  8
Capa 1
 62
     7
420
 16777215
370
     9
100
AcDbVertex
100
AcDb2dVertex
 10
59.0129606019943
 20
173.298125467421
 30
0.0
  0
VERTEX
  5
7C6
330
7C2
100
AcDbEntity
  8
Capa 1
 62
     7
420
 16777215
370
     9
100
AcDbVertex
100
AcDb2dVertex
 10
59.29871108638942
 20
172.9806303121659
 30
0.0
  0
VERTEX
  5
7C7
330
7C2
100
AcDbEntity
  8
Capa 1
 62
     7
420
 16777215
370
     9
100
AcDbVertex
100
AcDb2dVertex
 10
59.67970971364021
 20
172.7583732067121
 30
0.0
  0
VERTEX
  5
7C8
330
7C2
100
AcDbEntity
  8
Capa 1
 62
     7
420
 16777215
370
     9
100
AcDbVertex
100
AcDb2dVertex
 10
60.09245906758034
 20
172.6631270824683
 30
0.0
  0
SEQEND
  5
7C9
330
7C2
100
AcDbEntity
  8
Capa 1
 62
     7
420
 16777215
370
     9
  0
POLYLINE
  5
7CA
330
1F
100
AcDbEntity
  8
Capa 1
 62
     7
420
 16777215
370
     9
100
AcDb2dPolyline
 66
     1
 10
0.0
 20
0.0
 30
0.0
  0
VERTEX
  5
7CB
330
7CA
100
AcDbEntity
  8
Capa 1
 62
     7
420
 16777215
370
     9
100
AcDbVertex
100
AcDb2dVertex
 10
62.02921100496236
 20
171.9328744988292
 30
0.0
  0
VERTEX
  5
7CC
330
7CA
100
AcDbEntity
  8
Capa 1
 62
     7
420
 16777215
370
     9
100
AcDbVertex
100
AcDb2dVertex
 10
61.80695793672976
 20
172.1868803123644
 30
0.0
  0
VERTEX
  5
7CD
330
7CA
100
AcDbEntity
  8
Capa 1
 62
     7
420
 16777215
370
     9
100
AcDbVertex
100
AcDb2dVertex
 10
61.52121148955592
 20
172.4091293433757
 30
0.0
  0
VERTEX
  5
7CE
330
7CA
100
AcDbEntity
  8
Capa 1
 62
     7
420
 16777215
370
     9
100
AcDbVertex
100
AcDb2dVertex
 10
61.20370825985956
 20
172.5361241757007
 30
0.0
  0
VERTEX
  5
7CF
330
7CA
100
AcDbEntity
  8
Capa 1
 62
     7
420
 16777215
370
     9
100
AcDbVertex
100
AcDb2dVertex
 10
60.88620906738191
 20
172.5996296663058
 30
0.0
  0
SEQEND
  5
7D0
330
7CA
100
AcDbEntity
  8
Capa 1
 62
     7
420
 16777215
370
     9
  0
POLYLINE
  5
7D1
330
1F
100
AcDbEntity
  8
Capa 1
 62
     7
420
 16777215
370
     9
100
AcDb2dPolyline
 66
     1
 10
0.0
 20
0.0
 30
0.0
  0
VERTEX
  5
7D2
330
7D1
100
AcDbEntity
  8
Capa 1
 62
     7
420
 16777215
370
     9
100
AcDbVertex
100
AcDb2dVertex
 10
62.1244611664274
 20
172.5043754676195
 30
0.0
  0
VERTEX
  5
7D3
330
7D1
100
AcDbEntity
  8
Capa 1
 62
     7
420
 16777215
370
     9
100
AcDbVertex
100
AcDb2dVertex
 10
62.66420938991511
 20
172.4726267595382
 30
0.0
  0
VERTEX
  5
7D4
330
7D1
100
AcDbEntity
  8
Capa 1
 62
     7
420
 16777215
370
     9
100
AcDbVertex
100
AcDb2dVertex
 10
64.75970890492468
 20
172.2821264366082
 30
0.0
  0
VERTEX
  5
7D5
330
7D1
100
AcDbEntity
  8
Capa 1
 62
     7
420
 16777215
370
     9
100
AcDbVertex
100
AcDb2dVertex
 10
65.20421100416861
 20
172.2503777285269
 30
0.0
  0
SEQEND
  5
7D6
330
7D1
100
AcDbEntity
  8
Capa 1
 62
     7
420
 16777215
370
     9
  0
POLYLINE
  5
7D7
330
1F
100
AcDbEntity
  8
Capa 1
 62
     7
420
 16777215
370
     9
100
AcDb2dPolyline
 66
     1
 10
0.0
 20
0.0
 30
0.0
  0
VERTEX
  5
7D8
330
7D7
100
AcDbEntity
  8
Capa 1
 62
     7
420
 16777215
370
     9
100
AcDbVertex
100
AcDb2dVertex
 10
60.88620906738191
 20
172.5996296663058
 30
0.0
  0
VERTEX
  5
7D9
330
7D7
100
AcDbEntity
  8
Capa 1
 62
     7
420
 16777215
370
     9
100
AcDbVertex
100
AcDb2dVertex
 10
61.48945874425339
 20
172.567872883782
 30
0.0
  0
VERTEX
  5
7DA
330
7D7
100
AcDbEntity
  8
Capa 1
 62
     7
420
 16777215
370
     9
100
AcDbVertex
100
AcDb2dVertex
 10
62.1244611664274
 20
172.5043754676195
 30
0.0
  0
SEQEND
  5
7DB
330
7D7
100
AcDbEntity
  8
Capa 1
 62
     7
420
 16777215
370
     9
  0
MTEXT
  5
7DC
330
1F
100
AcDbEntity
  8
Capa 1
 62
     7
420
 16777215
100
AcDbMText
 10
58.35164929096764
 20
209.5885850170473
 30
0.0
 40
2.49766666604225
 41
0.0
 46
0.0
 71
     7
 72
     1
  1
\fArial|b1|i0|c0|p34;\W1;73
 73
     1
 44
1.0
  0
MTEXT
  5
7DD
330
1F
100
AcDbEntity
  8
Capa 1
 62
     7
420
 16777215
100
AcDbMText
 10
45.37121852164331
 20
171.5416394970452
 30
0.0
 40
2.49766666604225
 41
0.0
 46
0.0
 71
     7
 72
     1
  1
\fArial|b1|i0|c0|p34;\W1;695
 73
     1
 44
1.0
  0
MTEXT
  5
7DE
330
1F
100
AcDbEntity
  8
Capa 1
 62
     7
420
 16777215
100
AcDbMText
 10
114.36890188113
 20
159.625054213566
 30
0.0
 40
2.49766666604225
 41
0.0
 46
0.0
 71
     7
 72
     1
  1
\fArial|b1|i0|c0|p34;\W1;400
 73
     1
 44
1.0
  0
MTEXT
  5
7DF
330
1F
100
AcDbEntity
  8
Capa 1
 62
     7
420
 16777215
100
AcDbMText
 10
78.72663300983224
 20
133.9604708866488
 30
0.0
 40
2.49766666604225
 41
0.0
 46
0.0
 71
     7
 72
     1
  1
\fArial|b1|i0|c0|p34;\W1;438
 73
     1
 44
1.0
  0
MTEXT
  5
7E0
330
1F
100
AcDbEntity
  8
Capa 1
 62
     7
420
 16777215
100
AcDbMText
 10
78.90991208964752
 20
140.1940266576598
 30
0.0
 40
2.49766666604225
 41
0.0
 46
0.0
 71
     7
 72
     1
  1
\fArial|b1|i0|c0|p34;\W1;Ø102
 73
     1
 44
1.0
  0
MTEXT
  5
7E1
330
1F
100
AcDbEntity
  8
Capa 1
 62
     7
420
 16777215
100
AcDbMText
 10
61.70786131269804
 20
130.5381130316016
 30
0.0
 40
2.49766666604225
 41
0.0
 46
0.0
 71
     7
 72
     1
  1
\fArial|b1|i0|c0|p34;\W1;210
 73
     1
 44
1.0
  0
MTEXT
  5
7E2
330
1F
100
AcDbEntity
  8
Capa 1
 62
     7
420
 16777215
100
AcDbMText
 10
139.0915961023799
 20
151.5022080784439
 30
0.0
 40
2.49766666604225
 41
0.0
 46
0.0
 71
     7
 72
     1
  1
\fArial|b1|i0|c0|p34;\W1;200
 73
     1
 44
1.0
  0
MTEXT
  5
7E3
330
1F
100
AcDbEntity
  8
Capa 1
 62
     7
420
 16777215
100
AcDbMText
 10
154.591769709616
 20
154.7557562547138
 30
0.0
 40
2.49766666604225
 41
0.0
 46
0.0
 71
     7
 72
     1
  1
\fArial|b1|i0|c0|p34;\W1;120
 73
     1
 44
1.0
  0
MTEXT
  5
7E4
330
1F
100
AcDbEntity
  8
Capa 1
 62
     7
420
 16777215
100
AcDbMText
 10
157.363693537048
 20
137.0396972313651
 30
0.0
 40
2.49766666604225
 41
0.0
 46
0.0
 71
     7
 72
     1
  1
\fArial|b1|i0|c0|p34;\W1;220
 73
     1
 44
1.0
  0
MTEXT
  5
7E5
330
1F
100
AcDbEntity
  8
Capa 1
 62
     7
420
 16777215
100
AcDbMText
 10
183.3610730878403
 20
174.5691894094827
 30
0.0
 40
2.49766666604225
 41
0.0
 46
0.0
 71
     7
 72
     1
  1
\fArial|b1|i0|c0|p34;\W1;795
 73
     1
 44
1.0
  0
MTEXT
  5
7E6
330
1F
100
AcDbEntity
  8
Capa 1
 62
     7
420
 16777215
100
AcDbMText
 10
85.56652558624727
 20
107.1838107370929
 30
0.0
 40
2.49766666604225
 41
0.0
 46
0.0
 71
     7
 72
     1
  1
\fArial|b1|i0|c0|p34;\W1;437
 73
     1
 44
1.0
  0
MTEXT
  5
7E7
330
1F
100
AcDbEntity
  8
Capa 1
 62
     7
420
 16777215
100
AcDbMText
 10
59.91227754578582
 20
106.9936414663072
 30
0.0
 40
2.49766666604225
 41
0.0
 46
0.0
 71
     7
 72
     1
  1
\fArial|b1|i0|c0|p34;\W1;157
 73
     1
 44
1.0
  0
MTEXT
  5
7E8
330
1F
100
AcDbEntity
  8
Capa 1
 62
     7
420
 16777215
100
AcDbMText
 10
49.33996852065112
 20
83.28656139410892
 30
0.0
 40
2.49766666604225
 41
0.0
 46
0.0
 71
     7
 72
     1
  1
\fArial|b1|i0|c0|p34;\W1;355
 11
6.123233995736766E-17
 21
1.0
 31
0.0
 73
     1
 44
1.0
  0
MTEXT
  5
7E9
330
1F
100
AcDbEntity
  8
Capa 1
 62
     7
420
 16777215
100
AcDbMText
 10
55.55216469965363
 20
81.36006399875721
 30
0.0
 40
2.49766666604225
 41
0.0
 46
0.0
 71
     7
 72
     1
  1
\fArial|b1|i0|c0|p34;\W1;160
 11
6.123233995736766E-17
 21
1.0
 31
0.0
 73
     1
 44
1.0
  0
MTEXT
  5
7EA
330
1F
100
AcDbEntity
  8
Capa 1
 62
     7
420
 16777215
100
AcDbMText
 10
77.69310436425728
 20
81.69906139450579
 30
0.0
 40
2.49766666604225
 41
0.0
 46
0.0
 71
     7
 72
     1
  1
\fArial|b1|i0|c0|p34;\W1;160
 11
6.123233995736766E-17
 21
1.0
 31
0.0
 73
     1
 44
1.0
  0
MTEXT
  5
7EB
330
1F
100
AcDbEntity
  8
Capa 1
 62
     7
420
 16777215
100
AcDbMText
 10
79.3812011520297
 20
62.99701604327853
 30
0.0
 40
2.49766666604225
 41
0.0
 46
0.0
 71
     7
 72
     1
  1
\fArial|b1|i0|c0|p34;\W1;660
 73
     1
 44
1.0
  0
MTEXT
  5
7EC
330
1F
100
AcDbEntity
  8
Capa 1
 62
     7
420
 16777215
100
AcDbMText
 10
120.5590494490269
 20
83.20181204517178
 30
0.0
 40
2.49766666604225
 41
0.0
 46
0.0
 71
     7
 72
     1
  1
\fArial|b1|i0|c0|p34;\W1;360
 11
6.123233995736766E-17
 21
1.0
 31
0.0
 73
     1
 44
1.0
  0
ENDSEC
  0
SECTION
  2
OBJECTS
  0
DICTIONARY
  5
C
330
0
100
AcDbDictionary
281
     1
  3
ACAD_GROUP
350
D
  3
ACAD_LAYOUT
350
1A
  3
ACAD_MATERIAL
350
3B
  3
ACAD_MLEADERSTYLE
350
7EE
  3
ACAD_MLINESTYLE
350
17
  3
ACAD_PLOTSETTINGS
350
19
  3
ACAD_PLOTSTYLENAME
350
E
  3
ACAD_TABLESTYLE
350
7ED
  3
ACAD_VISUALSTYLE
350
2A
  0
SUN
  5
3F
330
29
100
AcDbSun
 90
        1
290
     0
 63
     7
421
 16777215
 40
1.0
291
     1
 91
  2455826
 92
 54000000
292
     0
 70
     2
 71
   256
280
     1
  0
DICTIONARY
  5
D
102
{ACAD_REACTORS
330
C
102
}
330
C
100
AcDbDictionary
281
     1
  0
DICTIONARY
  5
1A
102
{ACAD_REACTORS
330
C
102
}
330
C
100
AcDbDictionary
281
     1
  3
Layout1
350
1E
  3
Layout2
350
26
  3
Model
350
22
  0
DICTIONARY
  5
3B
102
{ACAD_REACTORS
330
C
102
}
330
C
100
AcDbDictionary
281
     1
  3
ByBlock
350
3D
  3
ByLayer
350
3C
  3
Global
350
3E
  0
DICTIONARY
  5
7EE
102
{ACAD_REACTORS
330
C
102
}
330
C
100
AcDbDictionary
281
     1
  0
DICTIONARY
  5
17
102
{ACAD_REACTORS
330
C
102
}
330
C
100
AcDbDictionary
281
     1
  3
Standard
350
18
  0
DICTIONARY
  5
19
102
{ACAD_REACTORS
330
C
102
}
330
C
100
AcDbDictionary
281
     1
  0
ACDBDICTIONARYWDFLT
  5
E
102
{ACAD_REACTORS
330
C
102
}
330
C
100
AcDbDictionary
281
     1
  3
Normal
350
F
100
AcDbDictionaryWithDefault
340
F
  0
DICTIONARY
  5
7ED
102
{ACAD_REACTORS
330
C
102
}
330
C
100
AcDbDictionary
281
     1
  0
DICTIONARY
  5
2A
102
{ACAD_REACTORS
330
C
102
}
330
C
100
AcDbDictionary
281
     1
  3
2dWireframe
350
2F
  3
3D Hidden
350
31
  3
3dWireframe
350
30
  3
Basic
350
32
  3
Brighten
350
36
  3
ColorChange
350
3A
  3
Conceptual
350
34
  3
Dim
350
35
  3
Facepattern
350
39
  3
Flat
350
2B
  3
FlatWithEdges
350
2C
  3
Gouraud
350
2D
  3
GouraudWithEdges
350
2E
  3
Linepattern
350
38
  3
Realistic
350
33
  3
Thicken
350
37
  0
LAYOUT
  5
1E
102
{ACAD_REACTORS
330
1A
102
}
330
1A
100
AcDbPlotSettings
  1

  2
none_device
  4

  6

 40
0.0
 41
0.0
 42
0.0
 43
0.0
 44
0.0
 45
0.0
 46
0.0
 47
0.0
 48
0.0
 49
0.0
140
0.0
141
0.0
142
1.0
143
1.0
 70
   688
 72
     0
 73
     0
 74
     5
  7

 75
    16
 76
     0
 77
     2
 78
   300
147
1.0
148
0.0
149
0.0
100
AcDbLayout
  1
Layout1
 70
     1
 71
     1
 10
0.0
 20
0.0
 11
12.0
 21
9.0
 12
0.0
 22
0.0
 32
0.0
 14
1.000000000000000E+20
 24
1.000000000000000E+20
 34
1.000000000000000E+20
 15
-1.000000000000000E+20
 25
-1.000000000000000E+20
 35
-1.000000000000000E+20
146
0.0
 13
0.0
 23
0.0
 33
0.0
 16
1.0
 26
0.0
 36
0.0
 17
0.0
 27
1.0
 37
0.0
 76
     0
330
1B
  0
LAYOUT
  5
26
102
{ACAD_REACTORS
330
1A
102
}
330
1A
100
AcDbPlotSettings
  1

  2
none_device
  4

  6

 40
0.0
 41
0.0
 42
0.0
 43
0.0
 44
0.0
 45
0.0
 46
0.0
 47
0.0
 48
0.0
 49
0.0
140
0.0
141
0.0
142
1.0
143
1.0
 70
   688
 72
     0
 73
     0
 74
     5
  7

 75
    16
 76
     0
 77
     2
 78
   300
147
1.0
148
0.0
149
0.0
100
AcDbLayout
  1
Layout2
 70
     1
 71
     2
 10
0.0
 20
0.0
 11
0.0
 21
0.0
 12
0.0
 22
0.0
 32
0.0
 14
0.0
 24
0.0
 34
0.0
 15
0.0
 25
0.0
 35
0.0
146
0.0
 13
0.0
 23
0.0
 33
0.0
 16
1.0
 26
0.0
 36
0.0
 17
0.0
 27
1.0
 37
0.0
 76
     0
330
23
  0
LAYOUT
  5
22
102
{ACAD_REACTORS
330
1A
102
}
330
1A
100
AcDbPlotSettings
  1

  2
none_device
  4

  6

 40
0.0
 41
0.0
 42
0.0
 43
0.0
 44
0.0
 45
0.0
 46
0.0
 47
0.0
 48
0.0
 49
0.0
140
0.0
141
0.0
142
1.0
143
1.0
 70
  1712
 72
     0
 73
     0
 74
     0
  7

 75
     0
 76
     0
 77
     2
 78
   300
147
1.0
148
0.0
149
0.0
100
AcDbLayout
  1
Model
 70
     1
 71
     0
 10
0.0
 20
0.0
 11
12.0
 21
9.0
 12
0.0
 22
0.0
 32
0.0
 14
1.000000000000000E+20
 24
1.000000000000000E+20
 34
1.000000000000000E+20
 15
-1.000000000000000E+20
 25
-1.000000000000000E+20
 35
-1.000000000000000E+20
146
0.0
 13
0.0
 23
0.0
 33
0.0
 16
1.0
 26
0.0
 36
0.0
 17
0.0
 27
1.0
 37
0.0
 76
     0
330
1F
331
29
  0
MATERIAL
  5
3D
102
{ACAD_REACTORS
330
3B
102
}
330
3B
100
AcDbMaterial
  1
ByBlock
 72
     1
 94
      127
  0
MATERIAL
  5
3C
102
{ACAD_REACTORS
330
3B
102
}
330
3B
100
AcDbMaterial
  1
ByLayer
 72
     1
 94
      127
  0
MATERIAL
  5
3E
102
{ACAD_REACTORS
330
3B
102
}
330
3B
100
AcDbMaterial
  1
Global
 72
     1
 94
      127
  0
MLINESTYLE
  5
18
102
{ACAD_REACTORS
330
17
102
}
330
17
100
AcDbMlineStyle
  2
Standard
 70
     0
  3

 62
   256
 51
90.0
 52
90.0
 71
     2
 49
0.5
 62
   256
  6
BYLAYER
 49
-0.5
 62
   256
  6
BYLAYER
  0
ACDBPLACEHOLDER
  5
F
102
{ACAD_REACTORS
330
E
102
}
330
E
  0
VISUALSTYLE
  5
2F
102
{ACAD_REACTORS
330
2A
102
}
330
2A
100
AcDbVisualStyle
  2
2dWireframe
 70
     4
177
     2
291
     0
 71
     0
176
     1
 72
     2
176
     1
 73
     0
176
     1
 90
        0
176
     1
 40
-0.6
176
     1
 41
-30.0
176
     1
 62
     5
 63
     7
421
 16777215
176
     1
 74
     1
176
     1
 91
        4
176
     1
 64
     7
176
     1
 65
   257
176
     1
 75
     1
176
     1
175
     1
176
     1
 42
1.0
176
     1
 92
        0
176
     1
 66
   257
176
     1
 43
1.0
176
     1
 76
     1
176
     1
 77
     6
176
     1
 78
     2
176
     1
 67
     7
176
     1
 79
     5
176
     1
170
     0
176
     1
171
     0
176
     1
290
     0
176
     1
 93
        1
176
     1
 44
0.0
176
     1
173
     0
176
     1
  0
VISUALSTYLE
  5
31
102
{ACAD_REACTORS
330
2A
102
}
330
2A
100
AcDbVisualStyle
  2
3D Hidden
 70
     6
177
     2
291
     0
 71
     1
176
     1
 72
     2
176
     1
 73
     2
176
     1
 90
        0
176
     1
 40
-0.6
176
     1
 41
-30.0
176
     1
 62
     5
 63
     7
421
 16777215
176
     1
 74
     2
176
     1
 91
        2
176
     1
 64
     7
176
     1
 65
   257
176
     1
 75
     2
176
     1
175
     1
176
     1
 42
40.0
176
     1
 92
        0
176
     1
 66
   257
176
     1
 43
1.0
176
     1
 76
     1
176
     1
 77
     6
176
     1
 78
     2
176
     1
 67
     7
176
     1
 79
     3
176
     1
170
     0
176
     1
171
     0
176
     1
290
     0
176
     1
 93
        1
176
     1
 44
0.0
176
     1
173
     0
176
     1
  0
VISUALSTYLE
  5
30
102
{ACAD_REACTORS
330
2A
102
}
330
2A
100
AcDbVisualStyle
  2
3dWireframe
 70
     5
177
     2
291
     0
 71
     0
176
     1
 72
     2
176
     1
 73
     0
176
     1
 90
        0
176
     1
 40
-0.6
176
     1
 41
-30.0
176
     1
 62
     5
 63
     7
421
 16777215
176
     1
 74
     1
176
     1
 91
        4
176
     1
 64
     7
176
     1
 65
   257
176
     1
 75
     1
176
     1
175
     1
176
     1
 42
1.0
176
     1
 92
        0
176
     1
 66
   257
176
     1
 43
1.0
176
     1
 76
     1
176
     1
 77
     6
176
     1
 78
     2
176
     1
 67
     7
176
     1
 79
     5
176
     1
170
     0
176
     1
171
     0
176
     1
290
     0
176
     1
 93
        1
176
     1
 44
0.0
176
     1
173
     0
176
     1
  0
VISUALSTYLE
  5
32
102
{ACAD_REACTORS
330
2A
102
}
330
2A
100
AcDbVisualStyle
  2
Basic
 70
     7
177
     2
291
     1
 71
     1
176
     1
 72
     0
176
     1
 73
     1
176
     1
 90
        0
176
     1
 40
-0.6
176
     1
 41
-30.0
176
     1
 62
     5
 63
     7
421
 16777215
176
     1
 74
     0
176
     1
 91
        4
176
     1
 64
     7
176
     1
 65
   257
176
     1
 75
     1
176
     1
175
     1
176
     1
 42
1.0
176
     1
 92
        8
176
     1
 66
     7
176
     1
 43
1.0
176
     1
 76
     1
176
     1
 77
     6
176
     1
 78
     2
176
     1
 67
     7
176
     1
 79
     5
176
     1
170
     0
176
     1
171
     0
176
     1
290
     0
176
     1
 93
        1
176
     1
 44
0.0
176
     1
173
     0
176
     1
  0
VISUALSTYLE
  5
36
102
{ACAD_REACTORS
330
2A
102
}
330
2A
100
AcDbVisualStyle
  2
Brighten
 70
    12
177
     2
291
     1
 71
     2
176
     1
 72
     2
176
     1
 73
     0
176
     1
 90
        0
176
     1
 40
-0.6
176
     1
 41
-30.0
176
     1
 62
     5
 63
     7
421
 16777215
176
     1
 74
     1
176
     1
 91
        4
176
     1
 64
     7
176
     1
 65
   257
176
     1
 75
     1
176
     1
175
     1
176
     1
 42
1.0
176
     1
 92
        8
176
     1
 66
     7
176
     1
 43
1.0
176
     1
 76
     1
176
     1
 77
     6
176
     1
 78
     2
176
     1
 67
     7
176
     1
 79
     5
176
     1
170
     0
176
     1
171
     0
176
     1
290
     0
176
     1
 93
        1
176
     1
 44
50.0
176
     1
173
     0
176
     1
  0
VISUALSTYLE
  5
3A
102
{ACAD_REACTORS
330
2A
102
}
330
2A
100
AcDbVisualStyle
  2
ColorChange
 70
    16
177
     2
291
     1
 71
     2
176
     1
 72
     2
176
     1
 73
     3
176
     1
 90
        0
176
     1
 40
-0.6
176
     1
 41
-30.0
176
     1
 62
     5
 63
     8
421
  8421504
176
     1
 74
     1
176
     1
 91
        4
176
     1
 64
     7
176
     1
 65
   257
176
     1
 75
     1
176
     1
175
     1
176
     1
 42
1.0
176
     1
 92
        8
176
     1
 66
     8
424
  8421504
176
     1
 43
1.0
176
     1
 76
     1
176
     1
 77
     6
176
     1
 78
     2
176
     1
 67
     7
176
     1
 79
     5
176
     1
170
     0
176
     1
171
     0
176
     1
290
     0
176
     1
 93
        1
176
     1
 44
0.0
176
     1
173
     0
176
     1
  0
VISUALSTYLE
  5
34
102
{ACAD_REACTORS
330
2A
102
}
330
2A
100
AcDbVisualStyle
  2
Conceptual
 70
     9
177
     2
291
     0
 71
     3
176
     1
 72
     2
176
     1
 73
     0
176
     1
 90
        0
176
     1
 40
-0.6
176
     1
 41
-30.0
176
     1
 62
     5
 63
     7
421
 16777215
176
     1
 74
     2
176
     1
 91
        2
176
     1
 64
     7
176
     1
 65
   257
176
     1
 75
     1
176
     1
175
     1
176
     1
 42
40.0
176
     1
 92
        8
176
     1
 66
     7
176
     1
 43
1.0
176
     1
 76
     1
176
     1
 77
     6
176
     1
 78
     2
176
     1
 67
     7
176
     1
 79
     3
176
     1
170
     0
176
     1
171
     0
176
     1
290
     0
176
     1
 93
        1
176
     1
 44
0.0
176
     1
173
     0
176
     1
  0
VISUALSTYLE
  5
35
102
{ACAD_REACTORS
330
2A
102
}
330
2A
100
AcDbVisualStyle
  2
Dim
 70
    11
177
     2
291
     1
 71
     2
176
     1
 72
     2
176
     1
 73
     0
176
     1
 90
        0
176
     1
 40
-0.6
176
     1
 41
-30.0
176
     1
 62
     5
 63
     7
421
 16777215
176
     1
 74
     1
176
     1
 91
        4
176
     1
 64
     7
176
     1
 65
   257
176
     1
 75
     1
176
     1
175
     1
176
     1
 42
1.0
176
     1
 92
        8
176
     1
 66
     7
176
     1
 43
1.0
176
     1
 76
     1
176
     1
 77
     6
176
     1
 78
     2
176
     1
 67
     7
176
     1
 79
     5
176
     1
170
     0
176
     1
171
     0
176
     1
290
     0
176
     1
 93
        1
176
     1
 44
-50.0
176
     1
173
     0
176
     1
  0
VISUALSTYLE
  5
39
102
{ACAD_REACTORS
330
2A
102
}
330
2A
100
AcDbVisualStyle
  2
Facepattern
 70
    15
177
     2
291
     1
 71
     2
176
     1
 72
     2
176
     1
 73
     0
176
     1
 90
        0
176
     1
 40
-0.6
176
     1
 41
-30.0
176
     1
 62
     5
 63
     7
421
 16777215
176
     1
 74
     1
176
     1
 91
        4
176
     1
 64
     7
176
     1
 65
   257
176
     1
 75
     1
176
     1
175
     1
176
     1
 42
1.0
176
     1
 92
        8
176
     1
 66
     7
176
     1
 43
1.0
176
     1
 76
     1
176
     1
 77
     6
176
     1
 78
     2
176
     1
 67
     7
176
     1
 79
     5
176
     1
170
     0
176
     1
171
     0
176
     1
290
     0
176
     1
 93
        1
176
     1
 44
0.0
176
     1
173
     0
176
     1
  0
VISUALSTYLE
  5
2B
102
{ACAD_REACTORS
330
2A
102
}
330
2A
100
AcDbVisualStyle
  2
Flat
 70
     0
177
     2
291
     1
 71
     2
176
     1
 72
     1
176
     1
 73
     1
176
     1
 90
        2
176
     1
 40
-0.6
176
     1
 41
30.0
176
     1
 62
     5
 63
     7
421
 16777215
176
     1
 74
     0
176
     1
 91
        4
176
     1
 64
     7
176
     1
 65
   257
176
     1
 75
     1
176
     1
175
     1
176
     1
 42
1.0
176
     1
 92
        8
176
     1
 66
     7
176
     1
 43
1.0
176
     1
 76
     1
176
     1
 77
     6
176
     1
 78
     2
176
     1
 67
     7
176
     1
 79
     5
176
     1
170
     0
176
     1
171
     0
176
     1
290
     0
176
     1
 93
       13
176
     1
 44
0.0
176
     1
173
     0
176
     1
  0
VISUALSTYLE
  5
2C
102
{ACAD_REACTORS
330
2A
102
}
330
2A
100
AcDbVisualStyle
  2
FlatWithEdges
 70
     1
177
     2
291
     1
 71
     2
176
     1
 72
     1
176
     1
 73
     1
176
     1
 90
        2
176
     1
 40
-0.6
176
     1
 41
30.0
176
     1
 62
     5
 63
     7
421
 16777215
176
     1
 74
     1
176
     1
 91
        4
176
     1
 64
     7
176
     1
 65
   257
176
     1
 75
     1
176
     1
175
     1
176
     1
 42
1.0
176
     1
 92
        0
176
     1
 66
   257
176
     1
 43
1.0
176
     1
 76
     1
176
     1
 77
     6
176
     1
 78
     2
176
     1
 67
     7
176
     1
 79
     5
176
     1
170
     0
176
     1
171
     0
176
     1
290
     0
176
     1
 93
       13
176
     1
 44
0.0
176
     1
173
     0
176
     1
  0
VISUALSTYLE
  5
2D
102
{ACAD_REACTORS
330
2A
102
}
330
2A
100
AcDbVisualStyle
  2
Gouraud
 70
     2
177
     2
291
     1
 71
     2
176
     1
 72
     2
176
     1
 73
     1
176
     1
 90
        2
176
     1
 40
-0.6
176
     1
 41
30.0
176
     1
 62
     5
 63
     7
421
 16777215
176
     1
 74
     0
176
     1
 91
        4
176
     1
 64
     7
176
     1
 65
   257
176
     1
 75
     1
176
     1
175
     1
176
     1
 42
1.0
176
     1
 92
        0
176
     1
 66
     7
176
     1
 43
1.0
176
     1
 76
     1
176
     1
 77
     6
176
     1
 78
     2
176
     1
 67
     7
176
     1
 79
     5
176
     1
170
     0
176
     1
171
     0
176
     1
290
     0
176
     1
 93
       13
176
     1
 44
0.0
176
     1
173
     0
176
     1
  0
VISUALSTYLE
  5
2E
102
{ACAD_REACTORS
330
2A
102
}
330
2A
100
AcDbVisualStyle
  2
GouraudWithEdges
 70
     3
177
     2
291
     1
 71
     2
176
     1
 72
     2
176
     1
 73
     1
176
     1
 90
        2
176
     1
 40
-0.6
176
     1
 41
30.0
176
     1
 62
     5
 63
     7
421
 16777215
176
     1
 74
     1
176
     1
 91
        4
176
     1
 64
     7
176
     1
 65
   257
176
     1
 75
     1
176
     1
175
     1
176
     1
 42
1.0
176
     1
 92
        0
176
     1
 66
   257
176
     1
 43
1.0
176
     1
 76
     1
176
     1
 77
     6
176
     1
 78
     2
176
     1
 67
     7
176
     1
 79
     5
176
     1
170
     0
176
     1
171
     0
176
     1
290
     0
176
     1
 93
       13
176
     1
 44
0.0
176
     1
173
     0
176
     1
  0
VISUALSTYLE
  5
38
102
{ACAD_REACTORS
330
2A
102
}
330
2A
100
AcDbVisualStyle
  2
Linepattern
 70
    14
177
     2
291
     1
 71
     2
176
     1
 72
     2
176
     1
 73
     0
176
     1
 90
        0
176
     1
 40
-0.6
176
     1
 41
-30.0
176
     1
 62
     5
 63
     7
421
 16777215
176
     1
 74
     1
176
     1
 91
        4
176
     1
 64
     7
176
     1
 65
   257
176
     1
 75
     7
176
     1
175
     7
176
     1
 42
1.0
176
     1
 92
        8
176
     1
 66
     7
176
     1
 43
1.0
176
     1
 76
     1
176
     1
 77
     6
176
     1
 78
     2
176
     1
 67
     7
176
     1
 79
     5
176
     1
170
     0
176
     1
171
     0
176
     1
290
     0
176
     1
 93
        1
176
     1
 44
0.0
176
     1
173
     0
176
     1
  0
VISUALSTYLE
  5
33
102
{ACAD_REACTORS
330
2A
102
}
330
2A
100
AcDbVisualStyle
  2
Realistic
 70
     8
177
     2
291
     0
 71
     2
176
     1
 72
     2
176
     1
 73
     0
176
     1
 90
        0
176
     1
 40
-0.6
176
     1
 41
-30.0
176
     1
 62
     5
 63
     7
421
 16777215
176
     1
 74
     1
176
     1
 91
        0
176
     1
 64
     7
176
     1
 65
   257
176
     1
 75
     1
176
     1
175
     1
176
     1
 42
1.0
176
     1
 92
        8
176
     1
 66
     8
424
  7895160
176
     1
 43
1.0
176
     1
 76
     1
176
     1
 77
     6
176
     1
 78
     2
176
     1
 67
     7
176
     1
 79
     5
176
     1
170
     0
176
     1
171
     0
176
     1
290
     0
176
     1
 93
       13
176
     1
 44
0.0
176
     1
173
     0
176
     1
  0
VISUALSTYLE
  5
37
102
{ACAD_REACTORS
330
2A
102
}
330
2A
100
AcDbVisualStyle
  2
Thicken
 70
    13
177
     2
291
     1
 71
     2
176
     1
 72
     2
176
     1
 73
     0
176
     1
 90
        0
176
     1
 40
-0.6
176
     1
 41
-30.0
176
     1
 62
     5
 63
     7
421
 16777215
176
     1
 74
     1
176
     1
 91
        4
176
     1
 64
     7
176
     1
 65
   257
176
     1
 75
     1
176
     1
175
     1
176
     1
 42
1.0
176
     1
 92
       12
176
     1
 66
     7
176
     1
 43
1.0
176
     1
 76
     1
176
     1
 77
     6
176
     1
 78
     2
176
     1
 67
     7
176
     1
 79
     5
176
     1
170
     0
176
     1
171
     0
176
     1
290
     0
176
     1
 93
        1
176
     1
 44
0.0
176
     1
173
     0
176
     1
  0
ENDSEC
  0
EOF
