  0
SECTION
  2
HEADER
  9
$ACADVER
  1
AC1024
  9
$ACADMAINTVER
 70
     6
  9
$DWGCODEPAGE
  3
ANSI_1252
  9
$INSBASE
 10
0.0
 20
0.0
 30
0.0
  9
$EXTMIN
 10
1.000000000000000E+20
 20
1.000000000000000E+20
 30
1.000000000000000E+20
  9
$EXTMAX
 10
-1.000000000000000E+20
 20
-1.000000000000000E+20
 30
-1.000000000000000E+20
  9
$LIMMIN
 10
0.0
 20
0.0
  9
$LIMMAX
 10
12.0
 20
9.0
  9
$ORTHOMODE
 70
     0
  9
$REGENMODE
 70
     1
  9
$FILLMODE
 70
     1
  9
$QTEXTMODE
 70
     0
  9
$MIRRTEXT
 70
     1
  9
$LTSCALE
 40
1.0
  9
$ATTMODE
 70
     1
  9
$TEXTSIZE
 40
0.2
  9
$TRACEWID
 40
0.05
  9
$TEXTSTYLE
  7
Standard
  9
$CLAYER
  8
0
  9
$CELTYPE
  6
ByLayer
  9
$CECOLOR
 62
   256
  9
$CELTSCALE
 40
1.0
  9
$DISPSILH
 70
     0
  9
$DIMSCALE
 40
1.0
  9
$DIMASZ
 40
0.18
  9
$DIMEXO
 40
0.0625
  9
$DIMDLI
 40
0.38
  9
$DIMRND
 40
0.0
  9
$DIMDLE
 40
0.0
  9
$DIMEXE
 40
0.18
  9
$DIMTP
 40
0.0
  9
$DIMTM
 40
0.0
  9
$DIMTXT
 40
0.18
  9
$DIMCEN
 40
0.09
  9
$DIMTSZ
 40
0.0
  9
$DIMTOL
 70
     0
  9
$DIMLIM
 70
     0
  9
$DIMTIH
 70
     1
  9
$DIMTOH
 70
     1
  9
$DIMSE1
 70
     0
  9
$DIMSE2
 70
     0
  9
$DIMTAD
 70
     0
  9
$DIMZIN
 70
     0
  9
$DIMBLK
  1

  9
$DIMASO
 70
     1
  9
$DIMSHO
 70
     1
  9
$DIMPOST
  1

  9
$DIMAPOST
  1

  9
$DIMALT
 70
     0
  9
$DIMALTD
 70
     2
  9
$DIMALTF
 40
25.4
  9
$DIMLFAC
 40
1.0
  9
$DIMTOFL
 70
     0
  9
$DIMTVP
 40
0.0
  9
$DIMTIX
 70
     0
  9
$DIMSOXD
 70
     0
  9
$DIMSAH
 70
     0
  9
$DIMBLK1
  1

  9
$DIMBLK2
  1

  9
$DIMSTYLE
  2
Standard
  9
$DIMCLRD
 70
     0
  9
$DIMCLRE
 70
     0
  9
$DIMCLRT
 70
     0
  9
$DIMTFAC
 40
1.0
  9
$DIMGAP
 40
0.09
  9
$DIMJUST
 70
     0
  9
$DIMSD1
 70
     0
  9
$DIMSD2
 70
     0
  9
$DIMTOLJ
 70
     1
  9
$DIMTZIN
 70
     0
  9
$DIMALTZ
 70
     0
  9
$DIMALTTZ
 70
     0
  9
$DIMUPT
 70
     0
  9
$DIMDEC
 70
     4
  9
$DIMTDEC
 70
     4
  9
$DIMALTU
 70
     2
  9
$DIMALTTD
 70
     2
  9
$DIMTXSTY
  7
Standard
  9
$DIMAUNIT
 70
     0
  9
$DIMADEC
 70
     0
  9
$DIMALTRND
 40
0.0
  9
$DIMAZIN
 70
     0
  9
$DIMDSEP
 70
    46
  9
$DIMATFIT
 70
     3
  9
$DIMFRAC
 70
     0
  9
$DIMLDRBLK
  1

  9
$DIMLUNIT
 70
     2
  9
$DIMLWD
 70
    -2
  9
$DIMLWE
 70
    -2
  9
$DIMTMOVE
 70
     0
  9
$DIMFXL
 40
1.0
  9
$DIMFXLON
 70
     0
  9
$DIMJOGANG
 40
0.7853981633974483
  9
$DIMTFILL
 70
     0
  9
$DIMTFILLCLR
 70
     0
  9
$DIMARCSYM
 70
     0
  9
$DIMLTYPE
  6

  9
$DIMLTEX1
  6

  9
$DIMLTEX2
  6

  9
$DIMTXTDIRECTION
 70
     0
  9
$LUNITS
 70
     2
  9
$LUPREC
 70
     4
  9
$SKETCHINC
 40
0.1
  9
$FILLETRAD
 40
0.5
  9
$AUNITS
 70
     0
  9
$AUPREC
 70
     0
  9
$MENU
  1
.
  9
$ELEVATION
 40
0.0
  9
$PELEVATION
 40
0.0
  9
$THICKNESS
 40
0.0
  9
$LIMCHECK
 70
     0
  9
$CHAMFERA
 40
0.5
  9
$CHAMFERB
 40
0.5
  9
$CHAMFERC
 40
1.0
  9
$CHAMFERD
 40
0.0
  9
$SKPOLY
 70
     0
  9
$TDCREATE
 40
2458895.462675787
  9
$TDUCREATE
 40
2458895.421009121
  9
$TDUPDATE
 40
2458895.462677963
  9
$TDUUPDATE
 40
2458895.421011296
  9
$TDINDWG
 40
0.0000000116
  9
$TDUSRTIMER
 40
0.0000000116
  9
$USRTIMER
 70
     1
  9
$ANGBASE
 50
0.0
  9
$ANGDIR
 70
     0
  9
$PDMODE
 70
     0
  9
$PDSIZE
 40
0.0
  9
$PLINEWID
 40
0.0
  9
$SPLFRAME
 70
     0
  9
$SPLINETYPE
 70
     6
  9
$SPLINESEGS
 70
     8
  9
$HANDSEED
  5
81F
  9
$SURFTAB1
 70
     6
  9
$SURFTAB2
 70
     6
  9
$SURFTYPE
 70
     6
  9
$SURFU
 70
     6
  9
$SURFV
 70
     6
  9
$UCSBASE
  2

  9
$UCSNAME
  2

  9
$UCSORG
 10
0.0
 20
0.0
 30
0.0
  9
$UCSXDIR
 10
1.0
 20
0.0
 30
0.0
  9
$UCSYDIR
 10
0.0
 20
1.0
 30
0.0
  9
$UCSORTHOREF
  2

  9
$UCSORTHOVIEW
 70
     0
  9
$UCSORGTOP
 10
0.0
 20
0.0
 30
0.0
  9
$UCSORGBOTTOM
 10
0.0
 20
0.0
 30
0.0
  9
$UCSORGLEFT
 10
0.0
 20
0.0
 30
0.0
  9
$UCSORGRIGHT
 10
0.0
 20
0.0
 30
0.0
  9
$UCSORGFRONT
 10
0.0
 20
0.0
 30
0.0
  9
$UCSORGBACK
 10
0.0
 20
0.0
 30
0.0
  9
$PUCSBASE
  2

  9
$PUCSNAME
  2

  9
$PUCSORG
 10
0.0
 20
0.0
 30
0.0
  9
$PUCSXDIR
 10
1.0
 20
0.0
 30
0.0
  9
$PUCSYDIR
 10
0.0
 20
1.0
 30
0.0
  9
$PUCSORTHOREF
  2

  9
$PUCSORTHOVIEW
 70
     0
  9
$PUCSORGTOP
 10
0.0
 20
0.0
 30
0.0
  9
$PUCSORGBOTTOM
 10
0.0
 20
0.0
 30
0.0
  9
$PUCSORGLEFT
 10
0.0
 20
0.0
 30
0.0
  9
$PUCSORGRIGHT
 10
0.0
 20
0.0
 30
0.0
  9
$PUCSORGFRONT
 10
0.0
 20
0.0
 30
0.0
  9
$PUCSORGBACK
 10
0.0
 20
0.0
 30
0.0
  9
$USERI1
 70
     0
  9
$USERI2
 70
     0
  9
$USERI3
 70
     0
  9
$USERI4
 70
     0
  9
$USERI5
 70
     0
  9
$USERR1
 40
0.0
  9
$USERR2
 40
0.0
  9
$USERR3
 40
0.0
  9
$USERR4
 40
0.0
  9
$USERR5
 40
0.0
  9
$WORLDVIEW
 70
     1
  9
$SHADEDGE
 70
     3
  9
$SHADEDIF
 70
    70
  9
$TILEMODE
 70
     1
  9
$MAXACTVP
 70
    64
  9
$PINSBASE
 10
0.0
 20
0.0
 30
0.0
  9
$PLIMCHECK
 70
     0
  9
$PEXTMIN
 10
1.000000000000000E+20
 20
1.000000000000000E+20
 30
1.000000000000000E+20
  9
$PEXTMAX
 10
-1.000000000000000E+20
 20
-1.000000000000000E+20
 30
-1.000000000000000E+20
  9
$PLIMMIN
 10
0.0
 20
0.0
  9
$PLIMMAX
 10
12.0
 20
9.0
  9
$UNITMODE
 70
     0
  9
$VISRETAIN
 70
     1
  9
$PLINEGEN
 70
     0
  9
$PSLTSCALE
 70
     1
  9
$TREEDEPTH
 70
  3020
  9
$CMLSTYLE
  2
Standard
  9
$CMLJUST
 70
     0
  9
$CMLSCALE
 40
1.0
  9
$PROXYGRAPHICS
 70
     1
  9
$MEASUREMENT
 70
     0
  9
$CELWEIGHT
370
    -1
  9
$ENDCAPS
280
     0
  9
$JOINSTYLE
280
     0
  9
$LWDISPLAY
290
     1
  9
$INSUNITS
 70
     4
  9
$HYPERLINKBASE
  1

  9
$STYLESHEET
  1

  9
$XEDIT
290
     1
  9
$CEPSNTYPE
380
     0
  9
$PSTYLEMODE
290
     1
  9
$FINGERPRINTGUID
  2
{5DD0763B-E6D4-48C2-A77A-36BD5921C661}
  9
$VERSIONGUID
  2
{FAEB1C32-E019-11D5-929B-00C0DF256EC4}
  9
$EXTNAMES
290
     1
  9
$PSVPSCALE
 40
0.0
  9
$OLESTARTUP
290
     0
  9
$SORTENTS
280
   127
  9
$INDEXCTL
280
     0
  9
$HIDETEXT
280
     1
  9
$XCLIPFRAME
280
     2
  9
$HALOGAP
280
     0
  9
$OBSCOLOR
 70
   257
  9
$OBSLTYPE
280
     0
  9
$INTERSECTIONDISPLAY
280
     0
  9
$INTERSECTIONCOLOR
 70
   257
  9
$DIMASSOC
280
     2
  9
$PROJECTNAME
  1

  9
$CAMERADISPLAY
290
     0
  9
$LENSLENGTH
 40
50.0
  9
$CAMERAHEIGHT
 40
0.0
  9
$STEPSPERSEC
 40
2.0
  9
$STEPSIZE
 40
6.0
  9
$3DDWFPREC
 40
2.0
  9
$PSOLWIDTH
 40
0.25
  9
$PSOLHEIGHT
 40
4.0
  9
$LOFTANG1
 40
1.570796326794897
  9
$LOFTANG2
 40
1.570796326794897
  9
$LOFTMAG1
 40
0.0
  9
$LOFTMAG2
 40
0.0
  9
$LOFTPARAM
 70
     7
  9
$LOFTNORMALS
280
     1
  9
$LATITUDE
 40
37.795
  9
$LONGITUDE
 40
-122.394
  9
$NORTHDIRECTION
 40
0.0
  9
$TIMEZONE
 70
 -8000
  9
$LIGHTGLYPHDISPLAY
280
     1
  9
$TILEMODELIGHTSYNCH
280
     1
  9
$CMATERIAL
347
3C
  9
$SOLIDHIST
280
     1
  9
$SHOWHIST
280
     1
  9
$DWFFRAME
280
     2
  9
$DGNFRAME
280
     2
  9
$REALWORLDSCALE
290
     1
  9
$INTERFERECOLOR
 62
   256
  9
$CSHADOW
280
     0
  9
$SHADOWPLANELOCATION
 40
0.0
  0
ENDSEC
  0
SECTION
  2
CLASSES
  0
CLASS
  1
ACDBDICTIONARYWDFLT
  2
AcDbDictionaryWithDefault
  3
ObjectDBX Classes
 90
        0
 91
        4
280
     0
281
     0
  0
CLASS
  1
VISUALSTYLE
  2
AcDbVisualStyle
  3
ObjectDBX Classes
 90
     4095
 91
        4
280
     0
281
     0
  0
CLASS
  1
MATERIAL
  2
AcDbMaterial
  3
ObjectDBX Classes
 90
     1153
 91
        4
280
     0
281
     0
  0
CLASS
  1
SUN
  2
AcDbSun
  3
SCENEOE
 90
     1024
 91
        4
280
     0
281
     0
  0
ENDSEC
  0
SECTION
  2
TABLES
  0
TABLE
  2
VPORT
  5
8
330
0
100
AcDbSymbolTable
 70
     1
  0
VPORT
  5
29
330
8
100
AcDbSymbolTableRecord
100
AcDbViewportTableRecord
  2
*Active
 70
     0
 10
0.0
 20
0.0
 11
1.0
 21
1.0
 12
0.0
 22
0.0
 13
0.0
 23
0.0
 14
0.5
 24
0.5
 15
0.5
 25
0.5
 16
0.0
 26
0.0
 36
1.0
 17
104.951388862651
 27
148.5194444073146
 37
0.0
 40
297.0388888146292
 41
0.7066508313539193
 42
50.0
 43
0.0
 44
0.0
 50
0.0
 51
0.0
 71
     0
 72
   100
 73
     1
 74
     3
 75
     0
 76
     0
 77
     0
 78
     0
281
     0
 65
     1
110
0.0
120
0.0
130
0.0
111
1.0
121
0.0
131
0.0
112
0.0
122
1.0
132
0.0
 79
     0
146
0.0
 60
     3
 61
     5
292
     1
282
     1
141
0.0
142
0.0
 63
   250
361
3F
  0
ENDTAB
  0
TABLE
  2
LTYPE
  5
5
330
0
100
AcDbSymbolTable
 70
     1
  0
LTYPE
  5
14
330
5
100
AcDbSymbolTableRecord
100
AcDbLinetypeTableRecord
  2
ByBlock
 70
     0
  3

 72
    65
 73
     0
 40
0.0
  0
LTYPE
  5
15
330
5
100
AcDbSymbolTableRecord
100
AcDbLinetypeTableRecord
  2
ByLayer
 70
     0
  3

 72
    65
 73
     0
 40
0.0
  0
LTYPE
  5
16
330
5
100
AcDbSymbolTableRecord
100
AcDbLinetypeTableRecord
  2
Continuous
 70
     0
  3
Solid line
 72
    65
 73
     0
 40
0.0
  0
ENDTAB
  0
TABLE
  2
LAYER
  5
2
330
0
100
AcDbSymbolTable
 70
     2
  0
LAYER
  5
10
330
2
100
AcDbSymbolTableRecord
100
AcDbLayerTableRecord
  2
0
 70
     0
 62
     7
  6
Continuous
370
    -3
390
F
347
3E
  0
LAYER
  5
40
330
2
100
AcDbSymbolTableRecord
100
AcDbLayerTableRecord
  2
Capa 1
 70
     0
 62
     7
  6
Continuous
370
    -3
390
F
347
3E
  0
ENDTAB
  0
TABLE
  2
STYLE
  5
3
330
0
100
AcDbSymbolTable
 70
     1
  0
STYLE
  5
11
330
3
100
AcDbSymbolTableRecord
100
AcDbTextStyleTableRecord
  2
Standard
 70
     0
 40
0.0
 41
1.0
 50
0.0
 71
     0
 42
0.2
  3
txt
  4

  0
ENDTAB
  0
TABLE
  2
VIEW
  5
6
330
0
100
AcDbSymbolTable
 70
     0
  0
ENDTAB
  0
TABLE
  2
UCS
  5
7
330
0
100
AcDbSymbolTable
 70
     0
  0
ENDTAB
  0
TABLE
  2
APPID
  5
9
330
0
100
AcDbSymbolTable
 70
     1
  0
APPID
  5
12
330
9
100
AcDbSymbolTableRecord
100
AcDbRegAppTableRecord
  2
ACAD
 70
     0
  0
ENDTAB
  0
TABLE
  2
DIMSTYLE
  5
A
330
0
100
AcDbSymbolTable
 70
     1
100
AcDbDimStyleTable
  0
DIMSTYLE
105
27
330
A
100
AcDbSymbolTableRecord
100
AcDbDimStyleTableRecord
  2
Standard
 70
     0
178
     0
340
11
  0
ENDTAB
  0
TABLE
  2
BLOCK_RECORD
  5
1
330
0
100
AcDbSymbolTable
 70
     1
  0
BLOCK_RECORD
  5
1F
330
1
100
AcDbSymbolTableRecord
100
AcDbBlockTableRecord
  2
*Model_Space
340
22
 70
     0
280
     1
281
     0
  0
BLOCK_RECORD
  5
1B
330
1
100
AcDbSymbolTableRecord
100
AcDbBlockTableRecord
  2
*Paper_Space
340
1E
 70
     0
280
     1
281
     0
  0
BLOCK_RECORD
  5
23
330
1
100
AcDbSymbolTableRecord
100
AcDbBlockTableRecord
  2
*Paper_Space0
340
26
 70
     0
280
     1
281
     0
  0
ENDTAB
  0
ENDSEC
  0
SECTION
  2
BLOCKS
  0
BLOCK
  5
20
330
1F
100
AcDbEntity
  8
0
100
AcDbBlockBegin
  2
*Model_Space
 70
     0
 10
0.0
 20
0.0
 30
0.0
  3
*Model_Space
  1

  0
ENDBLK
  5
21
330
1F
100
AcDbEntity
  8
0
100
AcDbBlockEnd
  0
BLOCK
  5
1C
330
1B
100
AcDbEntity
 67
     1
  8
0
100
AcDbBlockBegin
  2
*Paper_Space
 70
     0
 10
0.0
 20
0.0
 30
0.0
  3
*Paper_Space
  1

  0
ENDBLK
  5
1D
330
1B
100
AcDbEntity
 67
     1
  8
0
100
AcDbBlockEnd
  0
BLOCK
  5
24
330
23
100
AcDbEntity
  8
0
100
AcDbBlockBegin
  2
*Paper_Space0
 70
     0
 10
0.0
 20
0.0
 30
0.0
  3
*Paper_Space0
  1

  0
ENDBLK
  5
25
330
23
100
AcDbEntity
  8
0
100
AcDbBlockEnd
  0
ENDSEC
  0
SECTION
  2
ENTITIES
  0
POLYLINE
  5
41
330
1F
100
AcDbEntity
  8
Capa 1
 62
     7
420
 16777215
370
     9
100
AcDb2dPolyline
 66
     1
 10
0.0
 20
0.0
 30
0.0
  0
VERTEX
  5
42
330
41
100
AcDbEntity
  8
Capa 1
 62
     7
420
 16777215
370
     9
100
AcDbVertex
100
AcDb2dVertex
 10
148.2454947206969
 20
166.3766433405843
 30
0.0
  0
VERTEX
  5
43
330
41
100
AcDbEntity
  8
Capa 1
 62
     7
420
 16777215
370
     9
100
AcDbVertex
100
AcDb2dVertex
 10
147.9597401990805
 20
161.93163849703
 30
0.0
  0
VERTEX
  5
44
330
41
100
AcDbEntity
  8
Capa 1
 62
     7
420
 16777215
370
     9
100
AcDbVertex
100
AcDb2dVertex
 10
147.7692398761504
 20
157.5183904359995
 30
0.0
  0
VERTEX
  5
45
330
41
100
AcDbEntity
  8
Capa 1
 62
     7
420
 16777215
370
     9
100
AcDbVertex
100
AcDb2dVertex
 10
147.6422369693829
 20
153.0733936668878
 30
0.0
  0
VERTEX
  5
46
330
41
100
AcDbEntity
  8
Capa 1
 62
     7
420
 16777215
370
     9
100
AcDbVertex
100
AcDb2dVertex
 10
147.5469908451391
 20
148.6283888233335
 30
0.0
  0
SEQEND
  5
47
330
41
100
AcDbEntity
  8
Capa 1
 62
     7
420
 16777215
370
     9
  0
POLYLINE
  5
48
330
1F
100
AcDbEntity
  8
Capa 1
 62
     7
420
 16777215
370
     9
100
AcDb2dPolyline
 66
     1
 10
0.0
 20
0.0
 30
0.0
  0
VERTEX
  5
49
330
48
100
AcDbEntity
  8
Capa 1
 62
     7
420
 16777215
370
     9
100
AcDbVertex
100
AcDb2dVertex
 10
164.0569892261231
 20
148.6283888233335
 30
0.0
  0
VERTEX
  5
4A
330
48
100
AcDbEntity
  8
Capa 1
 62
     7
420
 16777215
370
     9
100
AcDbVertex
100
AcDb2dVertex
 10
164.0252405180418
 20
151.168390437587
 30
0.0
  0
VERTEX
  5
4B
330
48
100
AcDbEntity
  8
Capa 1
 62
     7
420
 16777215
370
     9
100
AcDbVertex
100
AcDb2dVertex
 10
163.9934918099606
 20
152.4383872074925
 30
0.0
  0
VERTEX
  5
4C
330
48
100
AcDbEntity
  8
Capa 1
 62
     7
420
 16777215
370
     9
100
AcDbVertex
100
AcDb2dVertex
 10
163.9617431018793
 20
153.6448865612355
 30
0.0
  0
VERTEX
  5
4D
330
48
100
AcDbEntity
  8
Capa 1
 62
     7
420
 16777215
370
     9
100
AcDbVertex
100
AcDb2dVertex
 10
163.929994393798
 20
154.8196372068972
 30
0.0
  0
VERTEX
  5
4E
330
48
100
AcDbEntity
  8
Capa 1
 62
     7
420
 16777215
370
     9
100
AcDbVertex
100
AcDb2dVertex
 10
163.8982376112743
 20
155.9308904363964
 30
0.0
  0
VERTEX
  5
4F
330
48
100
AcDbEntity
  8
Capa 1
 62
     7
420
 16777215
370
     9
100
AcDbVertex
100
AcDb2dVertex
 10
163.8347401951117
 20
158.121640112871
 30
0.0
  0
VERTEX
  5
50
330
48
100
AcDbEntity
  8
Capa 1
 62
     7
420
 16777215
370
     9
100
AcDbVertex
100
AcDb2dVertex
 10
163.739494070868
 20
160.2488923731831
 30
0.0
  0
VERTEX
  5
51
330
48
100
AcDbEntity
  8
Capa 1
 62
     7
420
 16777215
370
     9
100
AcDbVertex
100
AcDb2dVertex
 10
163.6124911641004
 20
162.3126391428901
 30
0.0
  0
VERTEX
  5
52
330
48
100
AcDbEntity
  8
Capa 1
 62
     7
420
 16777215
370
     9
100
AcDbVertex
100
AcDb2dVertex
 10
163.3902421330891
 20
166.3766433405843
 30
0.0
  0
SEQEND
  5
53
330
48
100
AcDbEntity
  8
Capa 1
 62
     7
420
 16777215
370
     9
  0
POLYLINE
  5
54
330
1F
100
AcDbEntity
  8
Capa 1
 62
     7
420
 16777215
370
     9
100
AcDb2dPolyline
 66
     1
 10
0.0
 20
0.0
 30
0.0
  0
VERTEX
  5
55
330
54
100
AcDbEntity
  8
Capa 1
 62
     7
420
 16777215
370
     9
100
AcDbVertex
100
AcDb2dVertex
 10
144.086244398759
 20
178.6321291265015
 30
0.0
  0
VERTEX
  5
56
330
54
100
AcDbEntity
  8
Capa 1
 62
     7
420
 16777215
370
     9
100
AcDbVertex
100
AcDb2dVertex
 10
144.1179931068403
 20
178.6321291265015
 30
0.0
  0
SEQEND
  5
57
330
54
100
AcDbEntity
  8
Capa 1
 62
     7
420
 16777215
370
     9
  0
POLYLINE
  5
58
330
1F
100
AcDbEntity
  8
Capa 1
 62
     7
420
 16777215
370
     9
100
AcDb2dPolyline
 66
     1
 10
0.0
 20
0.0
 30
0.0
  0
VERTEX
  5
59
330
58
100
AcDbEntity
  8
Capa 1
 62
     7
420
 16777215
370
     9
100
AcDbVertex
100
AcDb2dVertex
 10
142.7527421382485
 20
178.6321291265015
 30
0.0
  0
VERTEX
  5
5A
330
58
100
AcDbEntity
  8
Capa 1
 62
     7
420
 16777215
370
     9
100
AcDbVertex
100
AcDb2dVertex
 10
142.5304931072371
 20
178.568631710339
 30
0.0
  0
VERTEX
  5
5B
330
58
100
AcDbEntity
  8
Capa 1
 62
     7
420
 16777215
370
     9
100
AcDbVertex
100
AcDb2dVertex
 10
142.3717414923883
 20
178.4098881699327
 30
0.0
  0
VERTEX
  5
5C
330
58
100
AcDbEntity
  8
Capa 1
 62
     7
420
 16777215
370
     9
100
AcDbVertex
100
AcDb2dVertex
 10
142.3082440762258
 20
178.1876310644788
 30
0.0
  0
SEQEND
  5
5D
330
58
100
AcDbEntity
  8
Capa 1
 62
     7
420
 16777215
370
     9
  0
POLYLINE
  5
5E
330
1F
100
AcDbEntity
  8
Capa 1
 62
     7
420
 16777215
370
     9
100
AcDb2dPolyline
 66
     1
 10
0.0
 20
0.0
 30
0.0
  0
VERTEX
  5
5F
330
5E
100
AcDbEntity
  8
Capa 1
 62
     7
420
 16777215
370
     9
100
AcDbVertex
100
AcDb2dVertex
 10
142.7527421382485
 20
178.6321291265015
 30
0.0
  0
VERTEX
  5
60
330
5E
100
AcDbEntity
  8
Capa 1
 62
     7
420
 16777215
370
     9
100
AcDbVertex
100
AcDb2dVertex
 10
168.8512379330137
 20
178.6321291265015
 30
0.0
  0
SEQEND
  5
61
330
5E
100
AcDbEntity
  8
Capa 1
 62
     7
420
 16777215
370
     9
  0
POLYLINE
  5
62
330
1F
100
AcDbEntity
  8
Capa 1
 62
     7
420
 16777215
370
     9
100
AcDb2dPolyline
 66
     1
 10
0.0
 20
0.0
 30
0.0
  0
VERTEX
  5
63
330
62
100
AcDbEntity
  8
Capa 1
 62
     7
420
 16777215
370
     9
100
AcDbVertex
100
AcDb2dVertex
 10
169.2957440694789
 20
178.1876310644788
 30
0.0
  0
VERTEX
  5
64
330
62
100
AcDbEntity
  8
Capa 1
 62
     7
420
 16777215
370
     9
100
AcDbVertex
100
AcDb2dVertex
 10
169.2322385788738
 20
178.4098881699327
 30
0.0
  0
VERTEX
  5
65
330
62
100
AcDbEntity
  8
Capa 1
 62
     7
420
 16777215
370
     9
100
AcDbVertex
100
AcDb2dVertex
 10
169.0734869640251
 20
178.568631710339
 30
0.0
  0
VERTEX
  5
66
330
62
100
AcDbEntity
  8
Capa 1
 62
     7
420
 16777215
370
     9
100
AcDbVertex
100
AcDb2dVertex
 10
168.8512379330137
 20
178.6321291265015
 30
0.0
  0
SEQEND
  5
67
330
62
100
AcDbEntity
  8
Capa 1
 62
     7
420
 16777215
370
     9
  0
POLYLINE
  5
68
330
1F
100
AcDbEntity
  8
Capa 1
 62
     7
420
 16777215
370
     9
100
AcDb2dPolyline
 66
     1
 10
0.0
 20
0.0
 30
0.0
  0
VERTEX
  5
69
330
68
100
AcDbEntity
  8
Capa 1
 62
     7
420
 16777215
370
     9
100
AcDbVertex
100
AcDb2dVertex
 10
147.7692398761504
 20
168.21814107928
 30
0.0
  0
VERTEX
  5
6A
330
68
100
AcDbEntity
  8
Capa 1
 62
     7
420
 16777215
370
     9
100
AcDbVertex
100
AcDb2dVertex
 10
147.8009885842317
 20
168.21814107928
 30
0.0
  0
SEQEND
  5
6B
330
68
100
AcDbEntity
  8
Capa 1
 62
     7
420
 16777215
370
     9
  0
POLYLINE
  5
6C
330
1F
100
AcDbEntity
  8
Capa 1
 62
     7
420
 16777215
370
     9
100
AcDb2dPolyline
 66
     1
 10
0.0
 20
0.0
 30
0.0
  0
VERTEX
  5
6D
330
6C
100
AcDbEntity
  8
Capa 1
 62
     7
420
 16777215
370
     9
100
AcDbVertex
100
AcDb2dVertex
 10
142.4034902004695
 20
177.9018926917475
 30
0.0
  0
VERTEX
  5
6E
330
6C
100
AcDbEntity
  8
Capa 1
 62
     7
420
 16777215
370
     9
100
AcDbVertex
100
AcDb2dVertex
 10
143.5782408461313
 20
175.425380419214
 30
0.0
  0
VERTEX
  5
6F
330
6C
100
AcDbEntity
  8
Capa 1
 62
     7
420
 16777215
370
     9
100
AcDbVertex
100
AcDb2dVertex
 10
144.8799943985605
 20
172.9806330036468
 30
0.0
  0
VERTEX
  5
70
330
6C
100
AcDbEntity
  8
Capa 1
 62
     7
420
 16777215
370
     9
100
AcDbVertex
100
AcDb2dVertex
 10
146.2769940752336
 20
170.5993910786846
 30
0.0
  0
VERTEX
  5
71
330
6C
100
AcDbEntity
  8
Capa 1
 62
     7
420
 16777215
370
     9
100
AcDbVertex
100
AcDb2dVertex
 10
147.7692398761504
 20
168.21814107928
 30
0.0
  0
SEQEND
  5
72
330
6C
100
AcDbEntity
  8
Capa 1
 62
     7
420
 16777215
370
     9
  0
POLYLINE
  5
73
330
1F
100
AcDbEntity
  8
Capa 1
 62
     7
420
 16777215
370
     9
100
AcDb2dPolyline
 66
     1
 10
0.0
 20
0.0
 30
0.0
  0
VERTEX
  5
74
330
73
100
AcDbEntity
  8
Capa 1
 62
     7
420
 16777215
370
     9
100
AcDbVertex
100
AcDb2dVertex
 10
142.3717414923883
 20
177.9336413998288
 30
0.0
  0
VERTEX
  5
75
330
73
100
AcDbEntity
  8
Capa 1
 62
     7
420
 16777215
370
     9
100
AcDbVertex
100
AcDb2dVertex
 10
142.4034902004695
 20
177.9018926917475
 30
0.0
  0
SEQEND
  5
76
330
73
100
AcDbEntity
  8
Capa 1
 62
     7
420
 16777215
370
     9
  0
POLYLINE
  5
77
330
1F
100
AcDbEntity
  8
Capa 1
 62
     7
420
 16777215
370
     9
100
AcDb2dPolyline
 66
     1
 10
0.0
 20
0.0
 30
0.0
  0
VERTEX
  5
78
330
77
100
AcDbEntity
  8
Capa 1
 62
     7
420
 16777215
370
     9
100
AcDbVertex
100
AcDb2dVertex
 10
142.3082440762258
 20
178.1876310644788
 30
0.0
  0
VERTEX
  5
79
330
77
100
AcDbEntity
  8
Capa 1
 62
     7
420
 16777215
370
     9
100
AcDbVertex
100
AcDb2dVertex
 10
142.3717414923883
 20
177.9336413998288
 30
0.0
  0
SEQEND
  5
7A
330
77
100
AcDbEntity
  8
Capa 1
 62
     7
420
 16777215
370
     9
  0
POLYLINE
  5
7B
330
1F
100
AcDbEntity
  8
Capa 1
 62
     7
420
 16777215
370
     9
100
AcDb2dPolyline
 66
     1
 10
0.0
 20
0.0
 30
0.0
  0
VERTEX
  5
7C
330
7B
100
AcDbEntity
  8
Capa 1
 62
     7
420
 16777215
370
     9
100
AcDbVertex
100
AcDb2dVertex
 10
169.2957440694789
 20
178.1876310644788
 30
0.0
  0
VERTEX
  5
7D
330
7B
100
AcDbEntity
  8
Capa 1
 62
     7
420
 16777215
370
     9
100
AcDbVertex
100
AcDb2dVertex
 10
169.2322385788738
 20
177.9336413998288
 30
0.0
  0
SEQEND
  5
7E
330
7B
100
AcDbEntity
  8
Capa 1
 62
     7
420
 16777215
370
     9
  0
POLYLINE
  5
7F
330
1F
100
AcDbEntity
  8
Capa 1
 62
     7
420
 16777215
370
     9
100
AcDb2dPolyline
 66
     1
 10
0.0
 20
0.0
 30
0.0
  0
VERTEX
  5
80
330
7F
100
AcDbEntity
  8
Capa 1
 62
     7
420
 16777215
370
     9
100
AcDbVertex
100
AcDb2dVertex
 10
163.866488903193
 20
168.21814107928
 30
0.0
  0
VERTEX
  5
81
330
7F
100
AcDbEntity
  8
Capa 1
 62
     7
420
 16777215
370
     9
100
AcDbVertex
100
AcDb2dVertex
 10
165.3587427785524
 20
170.5993910786846
 30
0.0
  0
VERTEX
  5
82
330
7F
100
AcDbEntity
  8
Capa 1
 62
     7
420
 16777215
370
     9
100
AcDbVertex
100
AcDb2dVertex
 10
166.7239937471442
 20
172.9806330036468
 30
0.0
  0
VERTEX
  5
83
330
7F
100
AcDbEntity
  8
Capa 1
 62
     7
420
 16777215
370
     9
100
AcDbVertex
100
AcDb2dVertex
 10
168.0257392251309
 20
175.425380419214
 30
0.0
  0
VERTEX
  5
84
330
7F
100
AcDbEntity
  8
Capa 1
 62
     7
420
 16777215
370
     9
100
AcDbVertex
100
AcDb2dVertex
 10
169.2322385788738
 20
177.9018926917475
 30
0.0
  0
SEQEND
  5
85
330
7F
100
AcDbEntity
  8
Capa 1
 62
     7
420
 16777215
370
     9
  0
POLYLINE
  5
86
330
1F
100
AcDbEntity
  8
Capa 1
 62
     7
420
 16777215
370
     9
100
AcDb2dPolyline
 66
     1
 10
0.0
 20
0.0
 30
0.0
  0
VERTEX
  5
87
330
86
100
AcDbEntity
  8
Capa 1
 62
     7
420
 16777215
370
     9
100
AcDbVertex
100
AcDb2dVertex
 10
147.5469908451391
 20
148.6283888233335
 30
0.0
  0
VERTEX
  5
88
330
86
100
AcDbEntity
  8
Capa 1
 62
     7
420
 16777215
370
     9
100
AcDbVertex
100
AcDb2dVertex
 10
164.0569892261231
 20
148.6283888233335
 30
0.0
  0
SEQEND
  5
89
330
86
100
AcDbEntity
  8
Capa 1
 62
     7
420
 16777215
370
     9
  0
POLYLINE
  5
8A
330
1F
100
AcDbEntity
  8
Capa 1
 62
     7
420
 16777215
370
     9
100
AcDb2dPolyline
 66
     1
 10
0.0
 20
0.0
 30
0.0
  0
VERTEX
  5
8B
330
8A
100
AcDbEntity
  8
Capa 1
 62
     7
420
 16777215
370
     9
100
AcDbVertex
100
AcDb2dVertex
 10
147.7692398761504
 20
168.21814107928
 30
0.0
  0
VERTEX
  5
8C
330
8A
100
AcDbEntity
  8
Capa 1
 62
     7
420
 16777215
370
     9
100
AcDbVertex
100
AcDb2dVertex
 10
147.9914889071617
 20
167.7736430172573
 30
0.0
  0
VERTEX
  5
8D
330
8A
100
AcDbEntity
  8
Capa 1
 62
     7
420
 16777215
370
     9
100
AcDbVertex
100
AcDb2dVertex
 10
148.1502405220106
 20
167.3291368807921
 30
0.0
  0
VERTEX
  5
8E
330
8A
100
AcDbEntity
  8
Capa 1
 62
     7
420
 16777215
370
     9
100
AcDbVertex
100
AcDb2dVertex
 10
148.2454947206969
 20
166.8528901106882
 30
0.0
  0
VERTEX
  5
8F
330
8A
100
AcDbEntity
  8
Capa 1
 62
     7
420
 16777215
370
     9
100
AcDbVertex
100
AcDb2dVertex
 10
148.2454947206969
 20
166.3766433405843
 30
0.0
  0
SEQEND
  5
90
330
8A
100
AcDbEntity
  8
Capa 1
 62
     7
420
 16777215
370
     9
  0
POLYLINE
  5
91
330
1F
100
AcDbEntity
  8
Capa 1
 62
     7
420
 16777215
370
     9
100
AcDb2dPolyline
 66
     1
 10
0.0
 20
0.0
 30
0.0
  0
VERTEX
  5
92
330
91
100
AcDbEntity
  8
Capa 1
 62
     7
420
 16777215
370
     9
100
AcDbVertex
100
AcDb2dVertex
 10
163.3902421330891
 20
166.3766433405843
 30
0.0
  0
VERTEX
  5
93
330
91
100
AcDbEntity
  8
Capa 1
 62
     7
420
 16777215
370
     9
100
AcDbVertex
100
AcDb2dVertex
 10
163.3902421330891
 20
166.8528901106882
 30
0.0
  0
VERTEX
  5
94
330
91
100
AcDbEntity
  8
Capa 1
 62
     7
420
 16777215
370
     9
100
AcDbVertex
100
AcDb2dVertex
 10
163.4537395492516
 20
167.3291368807921
 30
0.0
  0
VERTEX
  5
95
330
91
100
AcDbEntity
  8
Capa 1
 62
     7
420
 16777215
370
     9
100
AcDbVertex
100
AcDb2dVertex
 10
163.6124911641004
 20
167.7736430172573
 30
0.0
  0
VERTEX
  5
96
330
91
100
AcDbEntity
  8
Capa 1
 62
     7
420
 16777215
370
     9
100
AcDbVertex
100
AcDb2dVertex
 10
163.866488903193
 20
168.21814107928
 30
0.0
  0
SEQEND
  5
97
330
91
100
AcDbEntity
  8
Capa 1
 62
     7
420
 16777215
370
     9
  0
POLYLINE
  5
98
330
1F
100
AcDbEntity
  8
Capa 1
 62
     7
420
 16777215
370
     9
100
AcDb2dPolyline
 66
     1
 10
0.0
 20
0.0
 30
0.0
  0
VERTEX
  5
99
330
98
100
AcDbEntity
  8
Capa 1
 62
     7
420
 16777215
370
     9
100
AcDbVertex
100
AcDb2dVertex
 10
167.6129898711895
 20
204.8893926850007
 30
0.0
  0
VERTEX
  5
9A
330
98
100
AcDbEntity
  8
Capa 1
 62
     7
420
 16777215
370
     9
100
AcDbVertex
100
AcDb2dVertex
 10
168.7242431006887
 20
204.8893926850007
 30
0.0
  0
SEQEND
  5
9B
330
98
100
AcDbEntity
  8
Capa 1
 62
     7
420
 16777215
370
     9
  0
POLYLINE
  5
9C
330
1F
100
AcDbEntity
  8
Capa 1
 62
     7
420
 16777215
370
     9
100
AcDb2dPolyline
 66
     1
 10
0.0
 20
0.0
 30
0.0
  0
VERTEX
  5
9D
330
9C
100
AcDbEntity
  8
Capa 1
 62
     7
420
 16777215
370
     9
100
AcDbVertex
100
AcDb2dVertex
 10
169.0734869640251
 20
204.571889455303
 30
0.0
  0
VERTEX
  5
9E
330
9C
100
AcDbEntity
  8
Capa 1
 62
     7
420
 16777215
370
     9
100
AcDbVertex
100
AcDb2dVertex
 10
168.9464921317
 20
204.6036381633843
 30
0.0
  0
VERTEX
  5
9F
330
9C
100
AcDbEntity
  8
Capa 1
 62
     7
420
 16777215
370
     9
100
AcDbVertex
100
AcDb2dVertex
 10
168.8512379330137
 20
204.6671355795468
 30
0.0
  0
VERTEX
  5
A0
330
9C
100
AcDbEntity
  8
Capa 1
 62
     7
420
 16777215
370
     9
100
AcDbVertex
100
AcDb2dVertex
 10
168.7559918087699
 20
204.7623817037906
 30
0.0
  0
VERTEX
  5
A1
330
9C
100
AcDbEntity
  8
Capa 1
 62
     7
420
 16777215
370
     9
100
AcDbVertex
100
AcDb2dVertex
 10
168.7242431006887
 20
204.8893926850007
 30
0.0
  0
SEQEND
  5
A2
330
9C
100
AcDbEntity
  8
Capa 1
 62
     7
420
 16777215
370
     9
  0
POLYLINE
  5
A3
330
1F
100
AcDbEntity
  8
Capa 1
 62
     7
420
 16777215
370
     9
100
AcDb2dPolyline
 66
     1
 10
0.0
 20
0.0
 30
0.0
  0
VERTEX
  5
A4
330
A3
100
AcDbEntity
  8
Capa 1
 62
     7
420
 16777215
370
     9
100
AcDbVertex
100
AcDb2dVertex
 10
142.5304931072371
 20
204.571889455303
 30
0.0
  0
VERTEX
  5
A5
330
A3
100
AcDbEntity
  8
Capa 1
 62
     7
420
 16777215
370
     9
100
AcDbVertex
100
AcDb2dVertex
 10
142.6574879395621
 20
204.6036381633843
 30
0.0
  0
VERTEX
  5
A6
330
A3
100
AcDbEntity
  8
Capa 1
 62
     7
420
 16777215
370
     9
100
AcDbVertex
100
AcDb2dVertex
 10
142.7844908463297
 20
204.6671355795468
 30
0.0
  0
VERTEX
  5
A7
330
A3
100
AcDbEntity
  8
Capa 1
 62
     7
420
 16777215
370
     9
100
AcDbVertex
100
AcDb2dVertex
 10
142.8479882624922
 20
204.7623817037906
 30
0.0
  0
VERTEX
  5
A8
330
A3
100
AcDbEntity
  8
Capa 1
 62
     7
420
 16777215
370
     9
100
AcDbVertex
100
AcDb2dVertex
 10
142.9114937530973
 20
204.8893926850007
 30
0.0
  0
VERTEX
  5
A9
330
A3
100
AcDbEntity
  8
Capa 1
 62
     7
420
 16777215
370
     9
100
AcDbVertex
100
AcDb2dVertex
 10
144.0227389081539
 20
204.8893926850007
 30
0.0
  0
SEQEND
  5
AA
330
A3
100
AcDbEntity
  8
Capa 1
 62
     7
420
 16777215
370
     9
  0
POLYLINE
  5
AB
330
1F
100
AcDbEntity
  8
Capa 1
 62
     7
420
 16777215
370
     9
100
AcDb2dPolyline
 66
     1
 10
0.0
 20
0.0
 30
0.0
  0
VERTEX
  5
AC
330
AB
100
AcDbEntity
  8
Capa 1
 62
     7
420
 16777215
370
     9
100
AcDbVertex
100
AcDb2dVertex
 10
168.1844908399797
 20
178.9178836481179
 30
0.0
  0
VERTEX
  5
AD
330
AB
100
AcDbEntity
  8
Capa 1
 62
     7
420
 16777215
370
     9
100
AcDbVertex
100
AcDb2dVertex
 10
169.0734869640251
 20
204.571889455303
 30
0.0
  0
VERTEX
  5
AE
330
AB
100
AcDbEntity
  8
Capa 1
 62
     7
420
 16777215
370
     9
100
AcDbVertex
100
AcDb2dVertex
 10
144.0227389081539
 20
204.571889455303
 30
0.0
  0
SEQEND
  5
AF
330
AB
100
AcDbEntity
  8
Capa 1
 62
     7
420
 16777215
370
     9
  0
POLYLINE
  5
B0
330
1F
100
AcDbEntity
  8
Capa 1
 62
     7
420
 16777215
370
     9
100
AcDb2dPolyline
 66
     1
 10
0.0
 20
0.0
 30
0.0
  0
VERTEX
  5
B1
330
B0
100
AcDbEntity
  8
Capa 1
 62
     7
420
 16777215
370
     9
100
AcDbVertex
100
AcDb2dVertex
 10
143.4194892312825
 20
178.9178836481179
 30
0.0
  0
VERTEX
  5
B2
330
B0
100
AcDbEntity
  8
Capa 1
 62
     7
420
 16777215
370
     9
100
AcDbVertex
100
AcDb2dVertex
 10
142.5304931072371
 20
204.571889455303
 30
0.0
  0
VERTEX
  5
B3
330
B0
100
AcDbEntity
  8
Capa 1
 62
     7
420
 16777215
370
     9
100
AcDbVertex
100
AcDb2dVertex
 10
144.0227389081539
 20
204.571889455303
 30
0.0
  0
SEQEND
  5
B4
330
B0
100
AcDbEntity
  8
Capa 1
 62
     7
420
 16777215
370
     9
  0
POLYLINE
  5
B5
330
1F
100
AcDbEntity
  8
Capa 1
 62
     7
420
 16777215
370
     9
100
AcDb2dPolyline
 66
     1
 10
0.0
 20
0.0
 30
0.0
  0
VERTEX
  5
B6
330
B5
100
AcDbEntity
  8
Capa 1
 62
     7
420
 16777215
370
     9
100
AcDbVertex
100
AcDb2dVertex
 10
144.0227389081539
 20
204.8893926850007
 30
0.0
  0
VERTEX
  5
B7
330
B5
100
AcDbEntity
  8
Capa 1
 62
     7
420
 16777215
370
     9
100
AcDbVertex
100
AcDb2dVertex
 10
167.6129898711895
 20
204.8893926850007
 30
0.0
  0
SEQEND
  5
B8
330
B5
100
AcDbEntity
  8
Capa 1
 62
     7
420
 16777215
370
     9
  0
POLYLINE
  5
B9
330
1F
100
AcDbEntity
  8
Capa 1
 62
     7
420
 16777215
370
     9
100
AcDb2dPolyline
 66
     1
 10
0.0
 20
0.0
 30
0.0
  0
VERTEX
  5
BA
330
B9
100
AcDbEntity
  8
Capa 1
 62
     7
420
 16777215
370
     9
100
AcDbVertex
100
AcDb2dVertex
 10
167.8987363183633
 20
178.6321291265015
 30
0.0
  0
VERTEX
  5
BB
330
B9
100
AcDbEntity
  8
Capa 1
 62
     7
420
 16777215
370
     9
100
AcDbVertex
100
AcDb2dVertex
 10
167.9939905170496
 20
178.6638939834679
 30
0.0
  0
VERTEX
  5
BC
330
B9
100
AcDbEntity
  8
Capa 1
 62
     7
420
 16777215
370
     9
100
AcDbVertex
100
AcDb2dVertex
 10
168.0892366412934
 20
178.7273913996304
 30
0.0
  0
VERTEX
  5
BD
330
B9
100
AcDbEntity
  8
Capa 1
 62
     7
420
 16777215
370
     9
100
AcDbVertex
100
AcDb2dVertex
 10
168.1527421318985
 20
178.8226375238741
 30
0.0
  0
VERTEX
  5
BE
330
B9
100
AcDbEntity
  8
Capa 1
 62
     7
420
 16777215
370
     9
100
AcDbVertex
100
AcDb2dVertex
 10
168.1844908399797
 20
178.9178836481179
 30
0.0
  0
SEQEND
  5
BF
330
B9
100
AcDbEntity
  8
Capa 1
 62
     7
420
 16777215
370
     9
  0
POLYLINE
  5
C0
330
1F
100
AcDbEntity
  8
Capa 1
 62
     7
420
 16777215
370
     9
100
AcDb2dPolyline
 66
     1
 10
0.0
 20
0.0
 30
0.0
  0
VERTEX
  5
C1
330
C0
100
AcDbEntity
  8
Capa 1
 62
     7
420
 16777215
370
     9
100
AcDbVertex
100
AcDb2dVertex
 10
143.7369924609801
 20
178.6321291265015
 30
0.0
  0
VERTEX
  5
C2
330
C0
100
AcDbEntity
  8
Capa 1
 62
     7
420
 16777215
370
     9
100
AcDbVertex
100
AcDb2dVertex
 10
143.6099895542125
 20
178.6638939834679
 30
0.0
  0
VERTEX
  5
C3
330
C0
100
AcDbEntity
  8
Capa 1
 62
     7
420
 16777215
370
     9
100
AcDbVertex
100
AcDb2dVertex
 10
143.5147434299687
 20
178.7273913996304
 30
0.0
  0
VERTEX
  5
C4
330
C0
100
AcDbEntity
  8
Capa 1
 62
     7
420
 16777215
370
     9
100
AcDbVertex
100
AcDb2dVertex
 10
143.4512379393637
 20
178.8226375238741
 30
0.0
  0
VERTEX
  5
C5
330
C0
100
AcDbEntity
  8
Capa 1
 62
     7
420
 16777215
370
     9
100
AcDbVertex
100
AcDb2dVertex
 10
143.4194892312825
 20
178.9178836481179
 30
0.0
  0
SEQEND
  5
C6
330
C0
100
AcDbEntity
  8
Capa 1
 62
     7
420
 16777215
370
     9
  0
POLYLINE
  5
C7
330
1F
100
AcDbEntity
  8
Capa 1
 62
     7
420
 16777215
370
     9
100
AcDb2dPolyline
 66
     1
 10
0.0
 20
0.0
 30
0.0
  0
VERTEX
  5
C8
330
C7
100
AcDbEntity
  8
Capa 1
 62
     7
420
 16777215
370
     9
100
AcDbVertex
100
AcDb2dVertex
 10
144.0227389081539
 20
204.9211413930819
 30
0.0
  0
VERTEX
  5
C9
330
C7
100
AcDbEntity
  8
Capa 1
 62
     7
420
 16777215
370
     9
100
AcDbVertex
100
AcDb2dVertex
 10
142.816239554411
 20
204.9211413930819
 30
0.0
  0
SEQEND
  5
CA
330
C7
100
AcDbEntity
  8
Capa 1
 62
     7
420
 16777215
370
     9
  0
POLYLINE
  5
CB
330
1F
100
AcDbEntity
  8
Capa 1
 62
     7
420
 16777215
370
     9
100
AcDb2dPolyline
 66
     1
 10
0.0
 20
0.0
 30
0.0
  0
VERTEX
  5
CC
330
CB
100
AcDbEntity
  8
Capa 1
 62
     7
420
 16777215
370
     9
100
AcDbVertex
100
AcDb2dVertex
 10
142.5304931072371
 20
205.2386284738945
 30
0.0
  0
VERTEX
  5
CD
330
CB
100
AcDbEntity
  8
Capa 1
 62
     7
420
 16777215
370
     9
100
AcDbVertex
100
AcDb2dVertex
 10
142.5622418153184
 20
205.0798849334882
 30
0.0
  0
VERTEX
  5
CE
330
CB
100
AcDbEntity
  8
Capa 1
 62
     7
420
 16777215
370
     9
100
AcDbVertex
100
AcDb2dVertex
 10
142.6892447220859
 20
204.9528901011632
 30
0.0
  0
VERTEX
  5
CF
330
CB
100
AcDbEntity
  8
Capa 1
 62
     7
420
 16777215
370
     9
100
AcDbVertex
100
AcDb2dVertex
 10
142.816239554411
 20
204.9211413930819
 30
0.0
  0
SEQEND
  5
D0
330
CB
100
AcDbEntity
  8
Capa 1
 62
     7
420
 16777215
370
     9
  0
POLYLINE
  5
D1
330
1F
100
AcDbEntity
  8
Capa 1
 62
     7
420
 16777215
370
     9
100
AcDb2dPolyline
 66
     1
 10
0.0
 20
0.0
 30
0.0
  0
VERTEX
  5
D2
330
D1
100
AcDbEntity
  8
Capa 1
 62
     7
420
 16777215
370
     9
100
AcDbVertex
100
AcDb2dVertex
 10
144.0227389081539
 20
204.9211413930819
 30
0.0
  0
VERTEX
  5
D3
330
D1
100
AcDbEntity
  8
Capa 1
 62
     7
420
 16777215
370
     9
100
AcDbVertex
100
AcDb2dVertex
 10
168.7877405168512
 20
204.9211413930819
 30
0.0
  0
VERTEX
  5
D4
330
D1
100
AcDbEntity
  8
Capa 1
 62
     7
420
 16777215
370
     9
100
AcDbVertex
100
AcDb2dVertex
 10
168.9464921317
 20
204.9528901011632
 30
0.0
  0
VERTEX
  5
D5
330
D1
100
AcDbEntity
  8
Capa 1
 62
     7
420
 16777215
370
     9
100
AcDbVertex
100
AcDb2dVertex
 10
169.0417382559438
 20
205.0798849334882
 30
0.0
  0
VERTEX
  5
D6
330
D1
100
AcDbEntity
  8
Capa 1
 62
     7
420
 16777215
370
     9
100
AcDbVertex
100
AcDb2dVertex
 10
169.1052437465488
 20
205.2386284738945
 30
0.0
  0
SEQEND
  5
D7
330
D1
100
AcDbEntity
  8
Capa 1
 62
     7
420
 16777215
370
     9
  0
POLYLINE
  5
D8
330
1F
100
AcDbEntity
  8
Capa 1
 62
     7
420
 16777215
370
     9
100
AcDb2dPolyline
 66
     1
 10
0.0
 20
0.0
 30
0.0
  0
VERTEX
  5
D9
330
D8
100
AcDbEntity
  8
Capa 1
 62
     7
420
 16777215
370
     9
100
AcDbVertex
100
AcDb2dVertex
 10
167.6129898711895
 20
207.5563810571367
 30
0.0
  0
VERTEX
  5
DA
330
D8
100
AcDbEntity
  8
Capa 1
 62
     7
420
 16777215
370
     9
100
AcDbVertex
100
AcDb2dVertex
 10
168.5972401939211
 20
207.5563810571367
 30
0.0
  0
SEQEND
  5
DB
330
D8
100
AcDbEntity
  8
Capa 1
 62
     7
420
 16777215
370
     9
  0
POLYLINE
  5
DC
330
1F
100
AcDbEntity
  8
Capa 1
 62
     7
420
 16777215
370
     9
100
AcDb2dPolyline
 66
     1
 10
0.0
 20
0.0
 30
0.0
  0
VERTEX
  5
DD
330
DC
100
AcDbEntity
  8
Capa 1
 62
     7
420
 16777215
370
     9
100
AcDbVertex
100
AcDb2dVertex
 10
169.1052437465488
 20
205.2386284738945
 30
0.0
  0
VERTEX
  5
DE
330
DC
100
AcDbEntity
  8
Capa 1
 62
     7
420
 16777215
370
     9
100
AcDbVertex
100
AcDb2dVertex
 10
169.0734869640251
 20
207.111882995114
 30
0.0
  0
SEQEND
  5
DF
330
DC
100
AcDbEntity
  8
Capa 1
 62
     7
420
 16777215
370
     9
  0
POLYLINE
  5
E0
330
1F
100
AcDbEntity
  8
Capa 1
 62
     7
420
 16777215
370
     9
100
AcDb2dPolyline
 66
     1
 10
0.0
 20
0.0
 30
0.0
  0
VERTEX
  5
E1
330
E0
100
AcDbEntity
  8
Capa 1
 62
     7
420
 16777215
370
     9
100
AcDbVertex
100
AcDb2dVertex
 10
142.5304931072371
 20
205.2386284738945
 30
0.0
  0
VERTEX
  5
E2
330
E0
100
AcDbEntity
  8
Capa 1
 62
     7
420
 16777215
370
     9
100
AcDbVertex
100
AcDb2dVertex
 10
142.5622418153184
 20
207.111882995114
 30
0.0
  0
SEQEND
  5
E3
330
E0
100
AcDbEntity
  8
Capa 1
 62
     7
420
 16777215
370
     9
  0
POLYLINE
  5
E4
330
1F
100
AcDbEntity
  8
Capa 1
 62
     7
420
 16777215
370
     9
100
AcDb2dPolyline
 66
     1
 10
0.0
 20
0.0
 30
0.0
  0
VERTEX
  5
E5
330
E4
100
AcDbEntity
  8
Capa 1
 62
     7
420
 16777215
370
     9
100
AcDbVertex
100
AcDb2dVertex
 10
169.0734869640251
 20
207.111882995114
 30
0.0
  0
VERTEX
  5
E6
330
E4
100
AcDbEntity
  8
Capa 1
 62
     7
420
 16777215
370
     9
100
AcDbVertex
100
AcDb2dVertex
 10
169.0099895478625
 20
207.3341401005679
 30
0.0
  0
VERTEX
  5
E7
330
E4
100
AcDbEntity
  8
Capa 1
 62
     7
420
 16777215
370
     9
100
AcDbVertex
100
AcDb2dVertex
 10
168.8194892249325
 20
207.4928836409742
 30
0.0
  0
VERTEX
  5
E8
330
E4
100
AcDbEntity
  8
Capa 1
 62
     7
420
 16777215
370
     9
100
AcDbVertex
100
AcDb2dVertex
 10
168.5972401939211
 20
207.5563810571367
 30
0.0
  0
SEQEND
  5
E9
330
E4
100
AcDbEntity
  8
Capa 1
 62
     7
420
 16777215
370
     9
  0
POLYLINE
  5
EA
330
1F
100
AcDbEntity
  8
Capa 1
 62
     7
420
 16777215
370
     9
100
AcDb2dPolyline
 66
     1
 10
0.0
 20
0.0
 30
0.0
  0
VERTEX
  5
EB
330
EA
100
AcDbEntity
  8
Capa 1
 62
     7
420
 16777215
370
     9
100
AcDbVertex
100
AcDb2dVertex
 10
144.0227389081539
 20
207.5563810571367
 30
0.0
  0
VERTEX
  5
EC
330
EA
100
AcDbEntity
  8
Capa 1
 62
     7
420
 16777215
370
     9
100
AcDbVertex
100
AcDb2dVertex
 10
143.006739877341
 20
207.5563810571367
 30
0.0
  0
VERTEX
  5
ED
330
EA
100
AcDbEntity
  8
Capa 1
 62
     7
420
 16777215
370
     9
100
AcDbVertex
100
AcDb2dVertex
 10
142.7844908463297
 20
207.4928836409742
 30
0.0
  0
VERTEX
  5
EE
330
EA
100
AcDbEntity
  8
Capa 1
 62
     7
420
 16777215
370
     9
100
AcDbVertex
100
AcDb2dVertex
 10
142.6257392314809
 20
207.3341401005679
 30
0.0
  0
VERTEX
  5
EF
330
EA
100
AcDbEntity
  8
Capa 1
 62
     7
420
 16777215
370
     9
100
AcDbVertex
100
AcDb2dVertex
 10
142.5622418153184
 20
207.111882995114
 30
0.0
  0
SEQEND
  5
F0
330
EA
100
AcDbEntity
  8
Capa 1
 62
     7
420
 16777215
370
     9
  0
POLYLINE
  5
F1
330
1F
100
AcDbEntity
  8
Capa 1
 62
     7
420
 16777215
370
     9
100
AcDb2dPolyline
 66
     1
 10
0.0
 20
0.0
 30
0.0
  0
VERTEX
  5
F2
330
F1
100
AcDbEntity
  8
Capa 1
 62
     7
420
 16777215
370
     9
100
AcDbVertex
100
AcDb2dVertex
 10
163.866488903193
 20
168.21814107928
 30
0.0
  0
VERTEX
  5
F3
330
F1
100
AcDbEntity
  8
Capa 1
 62
     7
420
 16777215
370
     9
100
AcDbVertex
100
AcDb2dVertex
 10
163.8982376112743
 20
168.21814107928
 30
0.0
  0
SEQEND
  5
F4
330
F1
100
AcDbEntity
  8
Capa 1
 62
     7
420
 16777215
370
     9
  0
POLYLINE
  5
F5
330
1F
100
AcDbEntity
  8
Capa 1
 62
     7
420
 16777215
370
     9
100
AcDb2dPolyline
 66
     1
 10
0.0
 20
0.0
 30
0.0
  0
VERTEX
  5
F6
330
F5
100
AcDbEntity
  8
Capa 1
 62
     7
420
 16777215
370
     9
100
AcDbVertex
100
AcDb2dVertex
 10
147.7692398761504
 20
168.21814107928
 30
0.0
  0
VERTEX
  5
F7
330
F5
100
AcDbEntity
  8
Capa 1
 62
     7
420
 16777215
370
     9
100
AcDbVertex
100
AcDb2dVertex
 10
147.8009885842317
 20
168.21814107928
 30
0.0
  0
SEQEND
  5
F8
330
F5
100
AcDbEntity
  8
Capa 1
 62
     7
420
 16777215
370
     9
  0
POLYLINE
  5
F9
330
1F
100
AcDbEntity
  8
Capa 1
 62
     7
420
 16777215
370
     9
100
AcDb2dPolyline
 66
     1
 10
0.0
 20
0.0
 30
0.0
  0
VERTEX
  5
FA
330
F9
100
AcDbEntity
  8
Capa 1
 62
     7
420
 16777215
370
     9
100
AcDbVertex
100
AcDb2dVertex
 10
163.8347401951117
 20
168.21814107928
 30
0.0
  0
VERTEX
  5
FB
330
F9
100
AcDbEntity
  8
Capa 1
 62
     7
420
 16777215
370
     9
100
AcDbVertex
100
AcDb2dVertex
 10
163.866488903193
 20
168.21814107928
 30
0.0
  0
SEQEND
  5
FC
330
F9
100
AcDbEntity
  8
Capa 1
 62
     7
420
 16777215
370
     9
  0
POLYLINE
  5
FD
330
1F
100
AcDbEntity
  8
Capa 1
 62
     7
420
 16777215
370
     9
100
AcDb2dPolyline
 66
     1
 10
0.0
 20
0.0
 30
0.0
  0
VERTEX
  5
FE
330
FD
100
AcDbEntity
  8
Capa 1
 62
     7
420
 16777215
370
     9
100
AcDbVertex
100
AcDb2dVertex
 10
144.0227389081539
 20
207.5563810571367
 30
0.0
  0
VERTEX
  5
FF
330
FD
100
AcDbEntity
  8
Capa 1
 62
     7
420
 16777215
370
     9
100
AcDbVertex
100
AcDb2dVertex
 10
167.6129898711895
 20
207.5563810571367
 30
0.0
  0
SEQEND
  5
100
330
FD
100
AcDbEntity
  8
Capa 1
 62
     7
420
 16777215
370
     9
  0
POLYLINE
  5
101
330
1F
100
AcDbEntity
  8
Capa 1
 62
     7
420
 16777215
370
     9
100
AcDb2dPolyline
 66
     1
 10
0.0
 20
0.0
 30
0.0
  0
VERTEX
  5
102
330
101
100
AcDbEntity
  8
Capa 1
 62
     7
420
 16777215
370
     9
100
AcDbVertex
100
AcDb2dVertex
 10
148.2454947206969
 20
166.3766433405843
 30
0.0
  0
VERTEX
  5
103
330
101
100
AcDbEntity
  8
Capa 1
 62
     7
420
 16777215
370
     9
100
AcDbVertex
100
AcDb2dVertex
 10
148.2137379381731
 20
167.011641725537
 30
0.0
  0
VERTEX
  5
104
330
101
100
AcDbEntity
  8
Capa 1
 62
     7
420
 16777215
370
     9
100
AcDbVertex
100
AcDb2dVertex
 10
148.0549943977668
 20
167.6466401104898
 30
0.0
  0
VERTEX
  5
105
330
101
100
AcDbEntity
  8
Capa 1
 62
     7
420
 16777215
370
     9
100
AcDbVertex
100
AcDb2dVertex
 10
147.7692398761504
 20
168.21814107928
 30
0.0
  0
SEQEND
  5
106
330
101
100
AcDbEntity
  8
Capa 1
 62
     7
420
 16777215
370
     9
  0
POLYLINE
  5
107
330
1F
100
AcDbEntity
  8
Capa 1
 62
     7
420
 16777215
370
     9
100
AcDb2dPolyline
 66
     1
 10
0.0
 20
0.0
 30
0.0
  0
VERTEX
  5
108
330
107
100
AcDbEntity
  8
Capa 1
 62
     7
420
 16777215
370
     9
100
AcDbVertex
100
AcDb2dVertex
 10
163.866488903193
 20
168.21814107928
 30
0.0
  0
VERTEX
  5
109
330
107
100
AcDbEntity
  8
Capa 1
 62
     7
420
 16777215
370
     9
100
AcDbVertex
100
AcDb2dVertex
 10
163.5489937479379
 20
167.6466401104898
 30
0.0
  0
VERTEX
  5
10A
330
107
100
AcDbEntity
  8
Capa 1
 62
     7
420
 16777215
370
     9
100
AcDbVertex
100
AcDb2dVertex
 10
163.3902421330891
 20
167.011641725537
 30
0.0
  0
VERTEX
  5
10B
330
107
100
AcDbEntity
  8
Capa 1
 62
     7
420
 16777215
370
     9
100
AcDbVertex
100
AcDb2dVertex
 10
163.3584934250078
 20
166.3766433405843
 30
0.0
  0
SEQEND
  5
10C
330
107
100
AcDbEntity
  8
Capa 1
 62
     7
420
 16777215
370
     9
  0
POLYLINE
  5
10D
330
1F
100
AcDbEntity
  8
Capa 1
 62
     7
420
 16777215
370
     9
100
AcDb2dPolyline
 66
     1
 10
0.0
 20
0.0
 30
0.0
  0
VERTEX
  5
10E
330
10D
100
AcDbEntity
  8
Capa 1
 62
     7
420
 16777215
370
     9
100
AcDbVertex
100
AcDb2dVertex
 10
162.6282408413688
 20
166.5671436635143
 30
0.0
  0
VERTEX
  5
10F
330
10D
100
AcDbEntity
  8
Capa 1
 62
     7
420
 16777215
370
     9
100
AcDbVertex
100
AcDb2dVertex
 10
162.5964921332875
 20
166.5671436635143
 30
0.0
  0
VERTEX
  5
110
330
10D
100
AcDbEntity
  8
Capa 1
 62
     7
420
 16777215
370
     9
100
AcDbVertex
100
AcDb2dVertex
 10
162.5012379346012
 20
166.5036381729093
 30
0.0
  0
VERTEX
  5
111
330
10D
100
AcDbEntity
  8
Capa 1
 62
     7
420
 16777215
370
     9
100
AcDbVertex
100
AcDb2dVertex
 10
162.3424943941949
 20
166.4401407567468
 30
0.0
  0
VERTEX
  5
112
330
10D
100
AcDbEntity
  8
Capa 1
 62
     7
420
 16777215
370
     9
100
AcDbVertex
100
AcDb2dVertex
 10
162.0884885806598
 20
166.4083920486655
 30
0.0
  0
VERTEX
  5
113
330
10D
100
AcDbEntity
  8
Capa 1
 62
     7
420
 16777215
370
     9
100
AcDbVertex
100
AcDb2dVertex
 10
161.802742133486
 20
166.3766433405843
 30
0.0
  0
VERTEX
  5
114
330
10D
100
AcDbEntity
  8
Capa 1
 62
     7
420
 16777215
370
     9
100
AcDbVertex
100
AcDb2dVertex
 10
161.4852389037883
 20
166.3448865580605
 30
0.0
  0
VERTEX
  5
115
330
10D
100
AcDbEntity
  8
Capa 1
 62
     7
420
 16777215
370
     9
100
AcDbVertex
100
AcDb2dVertex
 10
161.0724895498469
 20
166.281389141898
 30
0.0
  0
VERTEX
  5
116
330
10D
100
AcDbEntity
  8
Capa 1
 62
     7
420
 16777215
370
     9
100
AcDbVertex
100
AcDb2dVertex
 10
160.6279914878242
 20
166.2496404338167
 30
0.0
  0
VERTEX
  5
117
330
10D
100
AcDbEntity
  8
Capa 1
 62
     7
420
 16777215
370
     9
100
AcDbVertex
100
AcDb2dVertex
 10
160.1517366432778
 20
166.2178917257354
 30
0.0
  0
VERTEX
  5
118
330
10D
100
AcDbEntity
  8
Capa 1
 62
     7
420
 16777215
370
     9
100
AcDbVertex
100
AcDb2dVertex
 10
159.6119924570114
 20
166.1861430176542
 30
0.0
  0
VERTEX
  5
119
330
10D
100
AcDbEntity
  8
Capa 1
 62
     7
420
 16777215
370
     9
100
AcDbVertex
100
AcDb2dVertex
 10
159.0404914882211
 20
166.1543943095729
 30
0.0
  0
VERTEX
  5
11A
330
10D
100
AcDbEntity
  8
Capa 1
 62
     7
420
 16777215
370
     9
100
AcDbVertex
100
AcDb2dVertex
 10
158.4372418113496
 20
166.1226375270491
 30
0.0
  0
VERTEX
  5
11B
330
10D
100
AcDbEntity
  8
Capa 1
 62
     7
420
 16777215
370
     9
100
AcDbVertex
100
AcDb2dVertex
 10
157.1354882589203
 20
166.0908888189679
 30
0.0
  0
VERTEX
  5
11C
330
10D
100
AcDbEntity
  8
Capa 1
 62
     7
420
 16777215
370
     9
100
AcDbVertex
100
AcDb2dVertex
 10
154.4684918123418
 20
166.0908888189679
 30
0.0
  0
VERTEX
  5
11D
330
10D
100
AcDbEntity
  8
Capa 1
 62
     7
420
 16777215
370
     9
100
AcDbVertex
100
AcDb2dVertex
 10
153.1984869679938
 20
166.1226375270491
 30
0.0
  0
VERTEX
  5
11E
330
10D
100
AcDbEntity
  8
Capa 1
 62
     7
420
 16777215
370
     9
100
AcDbVertex
100
AcDb2dVertex
 10
152.5952372911223
 20
166.1543943095729
 30
0.0
  0
VERTEX
  5
11F
330
10D
100
AcDbEntity
  8
Capa 1
 62
     7
420
 16777215
370
     9
100
AcDbVertex
100
AcDb2dVertex
 10
152.0237443967746
 20
166.1861430176542
 30
0.0
  0
VERTEX
  5
120
330
10D
100
AcDbEntity
  8
Capa 1
 62
     7
420
 16777215
370
     9
100
AcDbVertex
100
AcDb2dVertex
 10
151.4839921360656
 20
166.2178917257354
 30
0.0
  0
VERTEX
  5
121
330
10D
100
AcDbEntity
  8
Capa 1
 62
     7
420
 16777215
370
     9
100
AcDbVertex
100
AcDb2dVertex
 10
150.9759885834379
 20
166.2496404338167
 30
0.0
  0
VERTEX
  5
122
330
10D
100
AcDbEntity
  8
Capa 1
 62
     7
420
 16777215
370
     9
100
AcDbVertex
100
AcDb2dVertex
 10
150.5314905214153
 20
166.281389141898
 30
0.0
  0
VERTEX
  5
123
330
10D
100
AcDbEntity
  8
Capa 1
 62
     7
420
 16777215
370
     9
100
AcDbVertex
100
AcDb2dVertex
 10
150.1504898755551
 20
166.3448865580605
 30
0.0
  0
VERTEX
  5
124
330
10D
100
AcDbEntity
  8
Capa 1
 62
     7
420
 16777215
370
     9
100
AcDbVertex
100
AcDb2dVertex
 10
149.8012379377762
 20
166.3766433405843
 30
0.0
  0
VERTEX
  5
125
330
10D
100
AcDbEntity
  8
Capa 1
 62
     7
420
 16777215
370
     9
100
AcDbVertex
100
AcDb2dVertex
 10
149.5154914906024
 20
166.4083920486655
 30
0.0
  0
VERTEX
  5
126
330
10D
100
AcDbEntity
  8
Capa 1
 62
     7
420
 16777215
370
     9
100
AcDbVertex
100
AcDb2dVertex
 10
149.293242459591
 20
166.4401407567468
 30
0.0
  0
VERTEX
  5
127
330
10D
100
AcDbEntity
  8
Capa 1
 62
     7
420
 16777215
370
     9
100
AcDbVertex
100
AcDb2dVertex
 10
149.1344908447422
 20
166.5036381729093
 30
0.0
  0
VERTEX
  5
128
330
10D
100
AcDbEntity
  8
Capa 1
 62
     7
420
 16777215
370
     9
100
AcDbVertex
100
AcDb2dVertex
 10
149.0392447204984
 20
166.5353868809905
 30
0.0
  0
VERTEX
  5
129
330
10D
100
AcDbEntity
  8
Capa 1
 62
     7
420
 16777215
370
     9
100
AcDbVertex
100
AcDb2dVertex
 10
149.0074879379746
 20
166.5671436635143
 30
0.0
  0
SEQEND
  5
12A
330
10D
100
AcDbEntity
  8
Capa 1
 62
     7
420
 16777215
370
     9
  0
POLYLINE
  5
12B
330
1F
100
AcDbEntity
  8
Capa 1
 62
     7
420
 16777215
370
     9
100
AcDb2dPolyline
 66
     1
 10
0.0
 20
0.0
 30
0.0
  0
VERTEX
  5
12C
330
12B
100
AcDbEntity
  8
Capa 1
 62
     7
420
 16777215
370
     9
100
AcDbVertex
100
AcDb2dVertex
 10
163.3902421330891
 20
166.3766433405843
 30
0.0
  0
VERTEX
  5
12D
330
12B
100
AcDbEntity
  8
Capa 1
 62
     7
420
 16777215
370
     9
100
AcDbVertex
100
AcDb2dVertex
 10
163.3584934250078
 20
166.3766433405843
 30
0.0
  0
SEQEND
  5
12E
330
12B
100
AcDbEntity
  8
Capa 1
 62
     7
420
 16777215
370
     9
  0
POLYLINE
  5
12F
330
1F
100
AcDbEntity
  8
Capa 1
 62
     7
420
 16777215
370
     9
100
AcDb2dPolyline
 66
     1
 10
0.0
 20
0.0
 30
0.0
  0
VERTEX
  5
130
330
12F
100
AcDbEntity
  8
Capa 1
 62
     7
420
 16777215
370
     9
100
AcDbVertex
100
AcDb2dVertex
 10
148.2454947206969
 20
166.3766433405843
 30
0.0
  0
VERTEX
  5
131
330
12F
100
AcDbEntity
  8
Capa 1
 62
     7
420
 16777215
370
     9
100
AcDbVertex
100
AcDb2dVertex
 10
148.2772434287781
 20
166.3766433405843
 30
0.0
  0
SEQEND
  5
132
330
12F
100
AcDbEntity
  8
Capa 1
 62
     7
420
 16777215
370
     9
  0
POLYLINE
  5
133
330
1F
100
AcDbEntity
  8
Capa 1
 62
     7
420
 16777215
370
     9
100
AcDb2dPolyline
 66
     1
 10
0.0
 20
0.0
 30
0.0
  0
VERTEX
  5
134
330
133
100
AcDbEntity
  8
Capa 1
 62
     7
420
 16777215
370
     9
100
AcDbVertex
100
AcDb2dVertex
 10
104.8220712823543
 20
178.1876310644788
 30
0.0
  0
VERTEX
  5
135
330
133
100
AcDbEntity
  8
Capa 1
 62
     7
420
 16777215
370
     9
100
AcDbVertex
100
AcDb2dVertex
 10
104.7585738661918
 20
178.4098881699327
 30
0.0
  0
VERTEX
  5
136
330
133
100
AcDbEntity
  8
Capa 1
 62
     7
420
 16777215
370
     9
100
AcDbVertex
100
AcDb2dVertex
 10
104.599822251343
 20
178.568631710339
 30
0.0
  0
VERTEX
  5
137
330
133
100
AcDbEntity
  8
Capa 1
 62
     7
420
 16777215
370
     9
100
AcDbVertex
100
AcDb2dVertex
 10
104.3775732203317
 20
178.6321291265015
 30
0.0
  0
SEQEND
  5
138
330
133
100
AcDbEntity
  8
Capa 1
 62
     7
420
 16777215
370
     9
  0
POLYLINE
  5
139
330
1F
100
AcDbEntity
  8
Capa 1
 62
     7
420
 16777215
370
     9
100
AcDb2dPolyline
 66
     1
 10
0.0
 20
0.0
 30
0.0
  0
VERTEX
  5
13A
330
139
100
AcDbEntity
  8
Capa 1
 62
     7
420
 16777215
370
     9
100
AcDbVertex
100
AcDb2dVertex
 10
95.83682354544456
 20
168.40864140221
 30
0.0
  0
VERTEX
  5
13B
330
139
100
AcDbEntity
  8
Capa 1
 62
     7
420
 16777215
370
     9
100
AcDbVertex
100
AcDb2dVertex
 10
97.07507160726878
 20
169.5198865572667
 30
0.0
  0
VERTEX
  5
13C
330
139
100
AcDbEntity
  8
Capa 1
 62
     7
420
 16777215
370
     9
100
AcDbVertex
100
AcDb2dVertex
 10
98.28157096101175
 20
170.6946372029284
 30
0.0
  0
VERTEX
  5
13D
330
139
100
AcDbEntity
  8
Capa 1
 62
     7
420
 16777215
370
     9
100
AcDbVertex
100
AcDb2dVertex
 10
99.45632160667347
 20
171.8693878485902
 30
0.0
  0
VERTEX
  5
13E
330
139
100
AcDbEntity
  8
Capa 1
 62
     7
420
 16777215
370
     9
100
AcDbVertex
100
AcDb2dVertex
 10
100.5993235442539
 20
173.0758791278906
 30
0.0
  0
VERTEX
  5
13F
330
139
100
AcDbEntity
  8
Capa 1
 62
     7
420
 16777215
370
     9
100
AcDbVertex
100
AcDb2dVertex
 10
101.7105767737531
 20
174.3141433385999
 30
0.0
  0
VERTEX
  5
140
330
139
100
AcDbEntity
  8
Capa 1
 62
     7
420
 16777215
370
     9
100
AcDbVertex
100
AcDb2dVertex
 10
102.8218219288098
 20
175.5523914004241
 30
0.0
  0
VERTEX
  5
141
330
139
100
AcDbEntity
  8
Capa 1
 62
     7
420
 16777215
370
     9
100
AcDbVertex
100
AcDb2dVertex
 10
103.8695777421465
 20
176.8541368784109
 30
0.0
  0
VERTEX
  5
142
330
139
100
AcDbEntity
  8
Capa 1
 62
     7
420
 16777215
370
     9
100
AcDbVertex
100
AcDb2dVertex
 10
104.4093219284129
 20
177.4891433378061
 30
0.0
  0
VERTEX
  5
143
330
139
100
AcDbEntity
  8
Capa 1
 62
     7
420
 16777215
370
     9
100
AcDbVertex
100
AcDb2dVertex
 10
104.6633277419481
 20
177.8066304186187
 30
0.0
  0
VERTEX
  5
144
330
139
100
AcDbEntity
  8
Capa 1
 62
     7
420
 16777215
370
     9
100
AcDbVertex
100
AcDb2dVertex
 10
104.7903225742731
 20
177.9971388159913
 30
0.0
  0
VERTEX
  5
145
330
139
100
AcDbEntity
  8
Capa 1
 62
     7
420
 16777215
370
     9
100
AcDbVertex
100
AcDb2dVertex
 10
104.8220712823543
 20
178.1876310644788
 30
0.0
  0
SEQEND
  5
146
330
139
100
AcDbEntity
  8
Capa 1
 62
     7
420
 16777215
370
     9
  0
POLYLINE
  5
147
330
1F
100
AcDbEntity
  8
Capa 1
 62
     7
420
 16777215
370
     9
100
AcDb2dPolyline
 66
     1
 10
0.0
 20
0.0
 30
0.0
  0
VERTEX
  5
148
330
147
100
AcDbEntity
  8
Capa 1
 62
     7
420
 16777215
370
     9
100
AcDbVertex
100
AcDb2dVertex
 10
94.88432193079417
 20
165.8368910798753
 30
0.0
  0
VERTEX
  5
149
330
147
100
AcDbEntity
  8
Capa 1
 62
     7
420
 16777215
370
     9
100
AcDbVertex
100
AcDb2dVertex
 10
94.85257322271292
 20
166.1861430176542
 30
0.0
  0
VERTEX
  5
14A
330
147
100
AcDbEntity
  8
Capa 1
 62
     7
420
 16777215
370
     9
100
AcDbVertex
100
AcDb2dVertex
 10
94.88432193079417
 20
166.5353868809905
 30
0.0
  0
VERTEX
  5
14B
330
147
100
AcDbEntity
  8
Capa 1
 62
     7
420
 16777215
370
     9
100
AcDbVertex
100
AcDb2dVertex
 10
94.94782742139923
 20
166.8846388187694
 30
0.0
  0
VERTEX
  5
14C
330
147
100
AcDbEntity
  8
Capa 1
 62
     7
420
 16777215
370
     9
100
AcDbVertex
100
AcDb2dVertex
 10
95.043073545643
 20
167.2338907565483
 30
0.0
  0
VERTEX
  5
14D
330
147
100
AcDbEntity
  8
Capa 1
 62
     7
420
 16777215
370
     9
100
AcDbVertex
100
AcDb2dVertex
 10
95.20182516049181
 20
167.551393986246
 30
0.0
  0
VERTEX
  5
14E
330
147
100
AcDbEntity
  8
Capa 1
 62
     7
420
 16777215
370
     9
100
AcDbVertex
100
AcDb2dVertex
 10
95.39232548342189
 20
167.8688891415011
 30
0.0
  0
VERTEX
  5
14F
330
147
100
AcDbEntity
  8
Capa 1
 62
     7
420
 16777215
370
     9
100
AcDbVertex
100
AcDb2dVertex
 10
95.61457451443322
 20
168.1546436631175
 30
0.0
  0
VERTEX
  5
150
330
147
100
AcDbEntity
  8
Capa 1
 62
     7
420
 16777215
370
     9
100
AcDbVertex
100
AcDb2dVertex
 10
95.86857225352581
 20
168.40864140221
 30
0.0
  0
SEQEND
  5
151
330
147
100
AcDbEntity
  8
Capa 1
 62
     7
420
 16777215
370
     9
  0
POLYLINE
  5
152
330
1F
100
AcDbEntity
  8
Capa 1
 62
     7
420
 16777215
370
     9
100
AcDb2dPolyline
 66
     1
 10
0.0
 20
0.0
 30
0.0
  0
VERTEX
  5
153
330
152
100
AcDbEntity
  8
Capa 1
 62
     7
420
 16777215
370
     9
100
AcDbVertex
100
AcDb2dVertex
 10
96.18607548322345
 20
148.6283888233335
 30
0.0
  0
VERTEX
  5
154
330
152
100
AcDbEntity
  8
Capa 1
 62
     7
420
 16777215
370
     9
100
AcDbVertex
100
AcDb2dVertex
 10
95.99557516029337
 20
152.9463907601202
 30
0.0
  0
VERTEX
  5
155
330
152
100
AcDbEntity
  8
Capa 1
 62
     7
420
 16777215
370
     9
100
AcDbVertex
100
AcDb2dVertex
 10
95.70982871311953
 20
157.2326439888257
 30
0.0
  0
VERTEX
  5
156
330
152
100
AcDbEntity
  8
Capa 1
 62
     7
420
 16777215
370
     9
100
AcDbVertex
100
AcDb2dVertex
 10
95.32882806725938
 20
161.5506378511698
 30
0.0
  0
VERTEX
  5
157
330
152
100
AcDbEntity
  8
Capa 1
 62
     7
420
 16777215
370
     9
100
AcDbVertex
100
AcDb2dVertex
 10
94.88432193079417
 20
165.8368910798753
 30
0.0
  0
SEQEND
  5
158
330
152
100
AcDbEntity
  8
Capa 1
 62
     7
420
 16777215
370
     9
  0
POLYLINE
  5
159
330
1F
100
AcDbEntity
  8
Capa 1
 62
     7
420
 16777215
370
     9
100
AcDb2dPolyline
 66
     1
 10
0.0
 20
0.0
 30
0.0
  0
VERTEX
  5
15A
330
159
100
AcDbEntity
  8
Capa 1
 62
     7
420
 16777215
370
     9
100
AcDbVertex
100
AcDb2dVertex
 10
55.54607993432685
 20
178.6321291265015
 30
0.0
  0
VERTEX
  5
15B
330
159
100
AcDbEntity
  8
Capa 1
 62
     7
420
 16777215
370
     9
100
AcDbVertex
100
AcDb2dVertex
 10
55.64132807718125
 20
178.6321291265015
 30
0.0
  0
SEQEND
  5
15C
330
159
100
AcDbEntity
  8
Capa 1
 62
     7
420
 16777215
370
     9
  0
POLYLINE
  5
15D
330
1F
100
AcDbEntity
  8
Capa 1
 62
     7
420
 16777215
370
     9
100
AcDb2dPolyline
 66
     1
 10
0.0
 20
0.0
 30
0.0
  0
VERTEX
  5
15E
330
15D
100
AcDbEntity
  8
Capa 1
 62
     7
420
 16777215
370
     9
100
AcDbVertex
100
AcDb2dVertex
 10
67.07132726687949
 20
178.6321291265015
 30
0.0
  0
VERTEX
  5
15F
330
15D
100
AcDbEntity
  8
Capa 1
 62
     7
420
 16777215
370
     9
100
AcDbVertex
100
AcDb2dVertex
 10
67.80157581329728
 20
178.6321291265015
 30
0.0
  0
SEQEND
  5
160
330
15D
100
AcDbEntity
  8
Capa 1
 62
     7
420
 16777215
370
     9
  0
POLYLINE
  5
161
330
1F
100
AcDbEntity
  8
Capa 1
 62
     7
420
 16777215
370
     9
100
AcDb2dPolyline
 66
     1
 10
0.0
 20
0.0
 30
0.0
  0
VERTEX
  5
162
330
161
100
AcDbEntity
  8
Capa 1
 62
     7
420
 16777215
370
     9
100
AcDbVertex
100
AcDb2dVertex
 10
55.32382888470488
 20
178.0923849402351
 30
0.0
  0
VERTEX
  5
163
330
161
100
AcDbEntity
  8
Capa 1
 62
     7
420
 16777215
370
     9
100
AcDbVertex
100
AcDb2dVertex
 10
55.32382888470488
 20
178.4098881699327
 30
0.0
  0
SEQEND
  5
164
330
161
100
AcDbEntity
  8
Capa 1
 62
     7
420
 16777215
370
     9
  0
POLYLINE
  5
165
330
1F
100
AcDbEntity
  8
Capa 1
 62
     7
420
 16777215
370
     9
100
AcDb2dPolyline
 66
     1
 10
0.0
 20
0.0
 30
0.0
  0
VERTEX
  5
166
330
165
100
AcDbEntity
  8
Capa 1
 62
     7
420
 16777215
370
     9
100
AcDbVertex
100
AcDb2dVertex
 10
55.54607993432685
 20
178.6321291265015
 30
0.0
  0
VERTEX
  5
167
330
165
100
AcDbEntity
  8
Capa 1
 62
     7
420
 16777215
370
     9
100
AcDbVertex
100
AcDb2dVertex
 10
55.38732831947803
 20
178.568631710339
 30
0.0
  0
VERTEX
  5
168
330
165
100
AcDbEntity
  8
Capa 1
 62
     7
420
 16777215
370
     9
100
AcDbVertex
100
AcDb2dVertex
 10
55.32382888470488
 20
178.4098881699327
 30
0.0
  0
SEQEND
  5
169
330
165
100
AcDbEntity
  8
Capa 1
 62
     7
420
 16777215
370
     9
  0
POLYLINE
  5
16A
330
1F
100
AcDbEntity
  8
Capa 1
 62
     7
420
 16777215
370
     9
100
AcDb2dPolyline
 66
     1
 10
0.0
 20
0.0
 30
0.0
  0
VERTEX
  5
16B
330
16A
100
AcDbEntity
  8
Capa 1
 62
     7
420
 16777215
370
     9
100
AcDbVertex
100
AcDb2dVertex
 10
55.32382888470488
 20
177.0446291268984
 30
0.0
  0
VERTEX
  5
16C
330
16A
100
AcDbEntity
  8
Capa 1
 62
     7
420
 16777215
370
     9
100
AcDbVertex
100
AcDb2dVertex
 10
55.32382888470488
 20
178.0923849402351
 30
0.0
  0
SEQEND
  5
16D
330
16A
100
AcDbEntity
  8
Capa 1
 62
     7
420
 16777215
370
     9
  0
POLYLINE
  5
16E
330
1F
100
AcDbEntity
  8
Capa 1
 62
     7
420
 16777215
370
     9
100
AcDb2dPolyline
 66
     1
 10
0.0
 20
0.0
 30
0.0
  0
VERTEX
  5
16F
330
16E
100
AcDbEntity
  8
Capa 1
 62
     7
420
 16777215
370
     9
100
AcDbVertex
100
AcDb2dVertex
 10
55.6095793691
 20
176.6953933380046
 30
0.0
  0
VERTEX
  5
170
330
16E
100
AcDbEntity
  8
Capa 1
 62
     7
420
 16777215
370
     9
100
AcDbVertex
100
AcDb2dVertex
 10
55.51432920763496
 20
176.7271420460858
 30
0.0
  0
VERTEX
  5
171
330
16E
100
AcDbEntity
  8
Capa 1
 62
     7
420
 16777215
370
     9
100
AcDbVertex
100
AcDb2dVertex
 10
55.41907904616992
 20
176.8223881703296
 30
0.0
  0
VERTEX
  5
172
330
16E
100
AcDbEntity
  8
Capa 1
 62
     7
420
 16777215
370
     9
100
AcDbVertex
100
AcDb2dVertex
 10
55.35557961139677
 20
176.9176342945734
 30
0.0
  0
VERTEX
  5
173
330
16E
100
AcDbEntity
  8
Capa 1
 62
     7
420
 16777215
370
     9
100
AcDbVertex
100
AcDb2dVertex
 10
55.32382888470488
 20
177.0446291268984
 30
0.0
  0
SEQEND
  5
174
330
16E
100
AcDbEntity
  8
Capa 1
 62
     7
420
 16777215
370
     9
  0
POLYLINE
  5
175
330
1F
100
AcDbEntity
  8
Capa 1
 62
     7
420
 16777215
370
     9
100
AcDb2dPolyline
 66
     1
 10
0.0
 20
0.0
 30
0.0
  0
VERTEX
  5
176
330
175
100
AcDbEntity
  8
Capa 1
 62
     7
420
 16777215
370
     9
100
AcDbVertex
100
AcDb2dVertex
 10
62.02307678367501
 20
174.9491336491101
 30
0.0
  0
VERTEX
  5
177
330
175
100
AcDbEntity
  8
Capa 1
 62
     7
420
 16777215
370
     9
100
AcDbVertex
100
AcDb2dVertex
 10
55.6095793691
 20
176.6953933380046
 30
0.0
  0
SEQEND
  5
178
330
175
100
AcDbEntity
  8
Capa 1
 62
     7
420
 16777215
370
     9
  0
POLYLINE
  5
179
330
1F
100
AcDbEntity
  8
Capa 1
 62
     7
420
 16777215
370
     9
100
AcDb2dPolyline
 66
     1
 10
0.0
 20
0.0
 30
0.0
  0
VERTEX
  5
17A
330
179
100
AcDbEntity
  8
Capa 1
 62
     7
420
 16777215
370
     9
100
AcDbVertex
100
AcDb2dVertex
 10
63.19782742933672
 20
173.9966401089023
 30
0.0
  0
VERTEX
  5
17B
330
179
100
AcDbEntity
  8
Capa 1
 62
     7
420
 16777215
370
     9
100
AcDbVertex
100
AcDb2dVertex
 10
63.00732710640665
 20
174.3141433385999
 30
0.0
  0
VERTEX
  5
17C
330
179
100
AcDbEntity
  8
Capa 1
 62
     7
420
 16777215
370
     9
100
AcDbVertex
100
AcDb2dVertex
 10
62.72157662201153
 20
174.5998817113312
 30
0.0
  0
VERTEX
  5
17D
330
179
100
AcDbEntity
  8
Capa 1
 62
     7
420
 16777215
370
     9
100
AcDbVertex
100
AcDb2dVertex
 10
62.40407742953516
 20
174.8221388167851
 30
0.0
  0
VERTEX
  5
17E
330
179
100
AcDbEntity
  8
Capa 1
 62
     7
420
 16777215
370
     9
100
AcDbVertex
100
AcDb2dVertex
 10
62.02307678367501
 20
174.9491336491101
 30
0.0
  0
SEQEND
  5
17F
330
179
100
AcDbEntity
  8
Capa 1
 62
     7
420
 16777215
370
     9
  0
POLYLINE
  5
180
330
1F
100
AcDbEntity
  8
Capa 1
 62
     7
420
 16777215
370
     9
100
AcDb2dPolyline
 66
     1
 10
0.0
 20
0.0
 30
0.0
  0
VERTEX
  5
181
330
180
100
AcDbEntity
  8
Capa 1
 62
     7
420
 16777215
370
     9
100
AcDbVertex
100
AcDb2dVertex
 10
65.76957775167149
 20
168.9801423710003
 30
0.0
  0
VERTEX
  5
182
330
180
100
AcDbEntity
  8
Capa 1
 62
     7
420
 16777215
370
     9
100
AcDbVertex
100
AcDb2dVertex
 10
64.94407904378866
 20
170.6311397867659
 30
0.0
  0
VERTEX
  5
183
330
180
100
AcDbEntity
  8
Capa 1
 62
     7
420
 16777215
370
     9
100
AcDbVertex
100
AcDb2dVertex
 10
64.08682759060332
 20
172.3138939850554
 30
0.0
  0
VERTEX
  5
184
330
180
100
AcDbEntity
  8
Capa 1
 62
     7
420
 16777215
370
     9
100
AcDbVertex
100
AcDb2dVertex
 10
63.19782742933672
 20
173.9966401089023
 30
0.0
  0
SEQEND
  5
185
330
180
100
AcDbEntity
  8
Capa 1
 62
     7
420
 16777215
370
     9
  0
POLYLINE
  5
186
330
1F
100
AcDbEntity
  8
Capa 1
 62
     7
420
 16777215
370
     9
100
AcDb2dPolyline
 66
     1
 10
0.0
 20
0.0
 30
0.0
  0
VERTEX
  5
187
330
186
100
AcDbEntity
  8
Capa 1
 62
     7
420
 16777215
370
     9
100
AcDbVertex
100
AcDb2dVertex
 10
66.53157904339179
 20
166.3766433405843
 30
0.0
  0
VERTEX
  5
188
330
186
100
AcDbEntity
  8
Capa 1
 62
     7
420
 16777215
370
     9
100
AcDbVertex
100
AcDb2dVertex
 10
65.45207855919512
 20
148.6283888233335
 30
0.0
  0
VERTEX
  5
189
330
186
100
AcDbEntity
  8
Capa 1
 62
     7
420
 16777215
370
     9
100
AcDbVertex
100
AcDb2dVertex
 10
96.18607548322345
 20
148.6283888233335
 30
0.0
  0
SEQEND
  5
18A
330
186
100
AcDbEntity
  8
Capa 1
 62
     7
420
 16777215
370
     9
  0
POLYLINE
  5
18B
330
1F
100
AcDbEntity
  8
Capa 1
 62
     7
420
 16777215
370
     9
100
AcDb2dPolyline
 66
     1
 10
0.0
 20
0.0
 30
0.0
  0
VERTEX
  5
18C
330
18B
100
AcDbEntity
  8
Capa 1
 62
     7
420
 16777215
370
     9
100
AcDbVertex
100
AcDb2dVertex
 10
65.7060762982877
 20
178.6321291265015
 30
0.0
  0
VERTEX
  5
18D
330
18B
100
AcDbEntity
  8
Capa 1
 62
     7
420
 16777215
370
     9
100
AcDbVertex
100
AcDb2dVertex
 10
104.3775732203317
 20
178.6321291265015
 30
0.0
  0
SEQEND
  5
18E
330
18B
100
AcDbEntity
  8
Capa 1
 62
     7
420
 16777215
370
     9
  0
POLYLINE
  5
18F
330
1F
100
AcDbEntity
  8
Capa 1
 62
     7
420
 16777215
370
     9
100
AcDb2dPolyline
 66
     1
 10
0.0
 20
0.0
 30
0.0
  0
VERTEX
  5
190
330
18F
100
AcDbEntity
  8
Capa 1
 62
     7
420
 16777215
370
     9
100
AcDbVertex
100
AcDb2dVertex
 10
66.37282742854298
 20
167.8371404334198
 30
0.0
  0
VERTEX
  5
191
330
18F
100
AcDbEntity
  8
Capa 1
 62
     7
420
 16777215
370
     9
100
AcDbVertex
100
AcDb2dVertex
 10
66.1823271056129
 20
168.21814107928
 30
0.0
  0
VERTEX
  5
192
330
18F
100
AcDbEntity
  8
Capa 1
 62
     7
420
 16777215
370
     9
100
AcDbVertex
100
AcDb2dVertex
 10
65.96007807460157
 20
168.5991417251401
 30
0.0
  0
VERTEX
  5
193
330
18F
100
AcDbEntity
  8
Capa 1
 62
     7
420
 16777215
370
     9
100
AcDbVertex
100
AcDb2dVertex
 10
65.76957775167149
 20
168.9801423710003
 30
0.0
  0
SEQEND
  5
194
330
18F
100
AcDbEntity
  8
Capa 1
 62
     7
420
 16777215
370
     9
  0
POLYLINE
  5
195
330
1F
100
AcDbEntity
  8
Capa 1
 62
     7
420
 16777215
370
     9
100
AcDb2dPolyline
 66
     1
 10
0.0
 20
0.0
 30
0.0
  0
VERTEX
  5
196
330
195
100
AcDbEntity
  8
Capa 1
 62
     7
420
 16777215
370
     9
100
AcDbVertex
100
AcDb2dVertex
 10
66.56332775147305
 20
166.8846388187694
 30
0.0
  0
VERTEX
  5
197
330
195
100
AcDbEntity
  8
Capa 1
 62
     7
420
 16777215
370
     9
100
AcDbVertex
100
AcDb2dVertex
 10
66.56332775147305
 20
167.138636557862
 30
0.0
  0
VERTEX
  5
198
330
195
100
AcDbEntity
  8
Capa 1
 62
     7
420
 16777215
370
     9
100
AcDbVertex
100
AcDb2dVertex
 10
66.53157904339179
 20
167.3926423713972
 30
0.0
  0
VERTEX
  5
199
330
195
100
AcDbEntity
  8
Capa 1
 62
     7
420
 16777215
370
     9
100
AcDbVertex
100
AcDb2dVertex
 10
66.46807759000801
 20
167.6148914024085
 30
0.0
  0
VERTEX
  5
19A
330
195
100
AcDbEntity
  8
Capa 1
 62
     7
420
 16777215
370
     9
100
AcDbVertex
100
AcDb2dVertex
 10
66.37282742854298
 20
167.8371404334198
 30
0.0
  0
SEQEND
  5
19B
330
195
100
AcDbEntity
  8
Capa 1
 62
     7
420
 16777215
370
     9
  0
POLYLINE
  5
19C
330
1F
100
AcDbEntity
  8
Capa 1
 62
     7
420
 16777215
370
     9
100
AcDb2dPolyline
 66
     1
 10
0.0
 20
0.0
 30
0.0
  0
VERTEX
  5
19D
330
19C
100
AcDbEntity
  8
Capa 1
 62
     7
420
 16777215
370
     9
100
AcDbVertex
100
AcDb2dVertex
 10
66.53157904339179
 20
166.3766433405843
 30
0.0
  0
VERTEX
  5
19E
330
19C
100
AcDbEntity
  8
Capa 1
 62
     7
420
 16777215
370
     9
100
AcDbVertex
100
AcDb2dVertex
 10
66.56332775147305
 20
166.5353868809905
 30
0.0
  0
VERTEX
  5
19F
330
19C
100
AcDbEntity
  8
Capa 1
 62
     7
420
 16777215
370
     9
100
AcDbVertex
100
AcDb2dVertex
 10
66.56332775147305
 20
166.8846388187694
 30
0.0
  0
SEQEND
  5
1A0
330
19C
100
AcDbEntity
  8
Capa 1
 62
     7
420
 16777215
370
     9
  0
POLYLINE
  5
1A1
330
1F
100
AcDbEntity
  8
Capa 1
 62
     7
420
 16777215
370
     9
100
AcDb2dPolyline
 66
     1
 10
0.0
 20
0.0
 30
0.0
  0
VERTEX
  5
1A2
330
1A1
100
AcDbEntity
  8
Capa 1
 62
     7
420
 16777215
370
     9
100
AcDbVertex
100
AcDb2dVertex
 10
65.45207855919512
 20
148.6283888233335
 30
0.0
  0
VERTEX
  5
1A3
330
1A1
100
AcDbEntity
  8
Capa 1
 62
     7
420
 16777215
370
     9
100
AcDbVertex
100
AcDb2dVertex
 10
63.35657904418554
 20
148.6283888233335
 30
0.0
  0
SEQEND
  5
1A4
330
1A1
100
AcDbEntity
  8
Capa 1
 62
     7
420
 16777215
370
     9
  0
POLYLINE
  5
1A5
330
1F
100
AcDbEntity
  8
Capa 1
 62
     7
420
 16777215
370
     9
100
AcDb2dPolyline
 66
     1
 10
0.0
 20
0.0
 30
0.0
  0
VERTEX
  5
1A6
330
1A5
100
AcDbEntity
  8
Capa 1
 62
     7
420
 16777215
370
     9
100
AcDbVertex
100
AcDb2dVertex
 10
67.10307597496075
 20
204.571889455303
 30
0.0
  0
VERTEX
  5
1A7
330
1A5
100
AcDbEntity
  8
Capa 1
 62
     7
420
 16777215
370
     9
100
AcDbVertex
100
AcDb2dVertex
 10
66.97607710541446
 20
204.6036381633843
 30
0.0
  0
VERTEX
  5
1A8
330
1A5
100
AcDbEntity
  8
Capa 1
 62
     7
420
 16777215
370
     9
100
AcDbVertex
100
AcDb2dVertex
 10
66.88082694395071
 20
204.6671355795468
 30
0.0
  0
VERTEX
  5
1A9
330
1A5
100
AcDbEntity
  8
Capa 1
 62
     7
420
 16777215
370
     9
100
AcDbVertex
100
AcDb2dVertex
 10
66.78557678248438
 20
204.7623817037906
 30
0.0
  0
VERTEX
  5
1AA
330
1A5
100
AcDbEntity
  8
Capa 1
 62
     7
420
 16777215
370
     9
100
AcDbVertex
100
AcDb2dVertex
 10
66.75382807440313
 20
204.8893926850007
 30
0.0
  0
SEQEND
  5
1AB
330
1A5
100
AcDbEntity
  8
Capa 1
 62
     7
420
 16777215
370
     9
  0
POLYLINE
  5
1AC
330
1F
100
AcDbEntity
  8
Capa 1
 62
     7
420
 16777215
370
     9
100
AcDb2dPolyline
 66
     1
 10
0.0
 20
0.0
 30
0.0
  0
VERTEX
  5
1AD
330
1AC
100
AcDbEntity
  8
Capa 1
 62
     7
420
 16777215
370
     9
100
AcDbVertex
100
AcDb2dVertex
 10
55.32382888470488
 20
178.9496323561991
 30
0.0
  0
VERTEX
  5
1AE
330
1AC
100
AcDbEntity
  8
Capa 1
 62
     7
420
 16777215
370
     9
100
AcDbVertex
100
AcDb2dVertex
 10
55.32382888470488
 20
204.571889455303
 30
0.0
  0
VERTEX
  5
1AF
330
1AC
100
AcDbEntity
  8
Capa 1
 62
     7
420
 16777215
370
     9
100
AcDbVertex
100
AcDb2dVertex
 10
65.61082613682267
 20
204.571889455303
 30
0.0
  0
SEQEND
  5
1B0
330
1AC
100
AcDbEntity
  8
Capa 1
 62
     7
420
 16777215
370
     9
  0
POLYLINE
  5
1B1
330
1F
100
AcDbEntity
  8
Capa 1
 62
     7
420
 16777215
370
     9
100
AcDb2dPolyline
 66
     1
 10
0.0
 20
0.0
 30
0.0
  0
VERTEX
  5
1B2
330
1B1
100
AcDbEntity
  8
Capa 1
 62
     7
420
 16777215
370
     9
100
AcDbVertex
100
AcDb2dVertex
 10
66.21407581369415
 20
178.9178836481179
 30
0.0
  0
VERTEX
  5
1B3
330
1B1
100
AcDbEntity
  8
Capa 1
 62
     7
420
 16777215
370
     9
100
AcDbVertex
100
AcDb2dVertex
 10
67.10307597496075
 20
204.571889455303
 30
0.0
  0
VERTEX
  5
1B4
330
1B1
100
AcDbEntity
  8
Capa 1
 62
     7
420
 16777215
370
     9
100
AcDbVertex
100
AcDb2dVertex
 10
65.61082613682267
 20
204.571889455303
 30
0.0
  0
SEQEND
  5
1B5
330
1B1
100
AcDbEntity
  8
Capa 1
 62
     7
420
 16777215
370
     9
  0
POLYLINE
  5
1B6
330
1F
100
AcDbEntity
  8
Capa 1
 62
     7
420
 16777215
370
     9
100
AcDb2dPolyline
 66
     1
 10
0.0
 20
0.0
 30
0.0
  0
VERTEX
  5
1B7
330
1B6
100
AcDbEntity
  8
Capa 1
 62
     7
420
 16777215
370
     9
100
AcDbVertex
100
AcDb2dVertex
 10
55.70482953056504
 20
204.8893926850007
 30
0.0
  0
VERTEX
  5
1B8
330
1B6
100
AcDbEntity
  8
Capa 1
 62
     7
420
 16777215
370
     9
100
AcDbVertex
100
AcDb2dVertex
 10
66.75382807440313
 20
204.8893926850007
 30
0.0
  0
SEQEND
  5
1B9
330
1B6
100
AcDbEntity
  8
Capa 1
 62
     7
420
 16777215
370
     9
  0
POLYLINE
  5
1BA
330
1F
100
AcDbEntity
  8
Capa 1
 62
     7
420
 16777215
370
     9
100
AcDb2dPolyline
 66
     1
 10
0.0
 20
0.0
 30
0.0
  0
VERTEX
  5
1BB
330
1BA
100
AcDbEntity
  8
Capa 1
 62
     7
420
 16777215
370
     9
100
AcDbVertex
100
AcDb2dVertex
 10
55.35557961139677
 20
204.571889455303
 30
0.0
  0
VERTEX
  5
1BC
330
1BA
100
AcDbEntity
  8
Capa 1
 62
     7
420
 16777215
370
     9
100
AcDbVertex
100
AcDb2dVertex
 10
55.51432920763496
 20
204.6353868714655
 30
0.0
  0
VERTEX
  5
1BD
330
1BA
100
AcDbEntity
  8
Capa 1
 62
     7
420
 16777215
370
     9
100
AcDbVertex
100
AcDb2dVertex
 10
55.64132807718125
 20
204.7306329957093
 30
0.0
  0
VERTEX
  5
1BE
330
1BA
100
AcDbEntity
  8
Capa 1
 62
     7
420
 16777215
370
     9
100
AcDbVertex
100
AcDb2dVertex
 10
55.70482953056504
 20
204.8893926850007
 30
0.0
  0
SEQEND
  5
1BF
330
1BA
100
AcDbEntity
  8
Capa 1
 62
     7
420
 16777215
370
     9
  0
POLYLINE
  5
1C0
330
1F
100
AcDbEntity
  8
Capa 1
 62
     7
420
 16777215
370
     9
100
AcDb2dPolyline
 66
     1
 10
0.0
 20
0.0
 30
0.0
  0
VERTEX
  5
1C1
330
1C0
100
AcDbEntity
  8
Capa 1
 62
     7
420
 16777215
370
     9
100
AcDbVertex
100
AcDb2dVertex
 10
65.9283293665203
 20
178.6321291265015
 30
0.0
  0
VERTEX
  5
1C2
330
1C0
100
AcDbEntity
  8
Capa 1
 62
     7
420
 16777215
370
     9
100
AcDbVertex
100
AcDb2dVertex
 10
66.02357952798535
 20
178.6638939834679
 30
0.0
  0
VERTEX
  5
1C3
330
1C0
100
AcDbEntity
  8
Capa 1
 62
     7
420
 16777215
370
     9
100
AcDbVertex
100
AcDb2dVertex
 10
66.11882968945038
 20
178.7273913996304
 30
0.0
  0
VERTEX
  5
1C4
330
1C0
100
AcDbEntity
  8
Capa 1
 62
     7
420
 16777215
370
     9
100
AcDbVertex
100
AcDb2dVertex
 10
66.1823271056129
 20
178.8226375238741
 30
0.0
  0
VERTEX
  5
1C5
330
1C0
100
AcDbEntity
  8
Capa 1
 62
     7
420
 16777215
370
     9
100
AcDbVertex
100
AcDb2dVertex
 10
66.21407581369415
 20
178.9178836481179
 30
0.0
  0
SEQEND
  5
1C6
330
1C0
100
AcDbEntity
  8
Capa 1
 62
     7
420
 16777215
370
     9
  0
POLYLINE
  5
1C7
330
1F
100
AcDbEntity
  8
Capa 1
 62
     7
420
 16777215
370
     9
100
AcDb2dPolyline
 66
     1
 10
0.0
 20
0.0
 30
0.0
  0
VERTEX
  5
1C8
330
1C7
100
AcDbEntity
  8
Capa 1
 62
     7
420
 16777215
370
     9
100
AcDbVertex
100
AcDb2dVertex
 10
55.64132807718125
 20
178.6321291265015
 30
0.0
  0
VERTEX
  5
1C9
330
1C7
100
AcDbEntity
  8
Capa 1
 62
     7
420
 16777215
370
     9
100
AcDbVertex
100
AcDb2dVertex
 10
65.7060762982877
 20
178.6321291265015
 30
0.0
  0
SEQEND
  5
1CA
330
1C7
100
AcDbEntity
  8
Capa 1
 62
     7
420
 16777215
370
     9
  0
POLYLINE
  5
1CB
330
1F
100
AcDbEntity
  8
Capa 1
 62
     7
420
 16777215
370
     9
100
AcDb2dPolyline
 66
     1
 10
0.0
 20
0.0
 30
0.0
  0
VERTEX
  5
1CC
330
1CB
100
AcDbEntity
  8
Capa 1
 62
     7
420
 16777215
370
     9
100
AcDbVertex
100
AcDb2dVertex
 10
55.32382888470488
 20
178.9496323561991
 30
0.0
  0
VERTEX
  5
1CD
330
1CB
100
AcDbEntity
  8
Capa 1
 62
     7
420
 16777215
370
     9
100
AcDbVertex
100
AcDb2dVertex
 10
55.38732831947803
 20
178.7908888157929
 30
0.0
  0
VERTEX
  5
1CE
330
1CB
100
AcDbEntity
  8
Capa 1
 62
     7
420
 16777215
370
     9
100
AcDbVertex
100
AcDb2dVertex
 10
55.48257848094306
 20
178.6638939834679
 30
0.0
  0
VERTEX
  5
1CF
330
1CB
100
AcDbEntity
  8
Capa 1
 62
     7
420
 16777215
370
     9
100
AcDbVertex
100
AcDb2dVertex
 10
55.64132807718125
 20
178.6321291265015
 30
0.0
  0
SEQEND
  5
1D0
330
1CB
100
AcDbEntity
  8
Capa 1
 62
     7
420
 16777215
370
     9
  0
POLYLINE
  5
1D1
330
1F
100
AcDbEntity
  8
Capa 1
 62
     7
420
 16777215
370
     9
100
AcDb2dPolyline
 66
     1
 10
0.0
 20
0.0
 30
0.0
  0
VERTEX
  5
1D2
330
1D1
100
AcDbEntity
  8
Capa 1
 62
     7
420
 16777215
370
     9
100
AcDbVertex
100
AcDb2dVertex
 10
55.64132807718125
 20
204.9211413930819
 30
0.0
  0
VERTEX
  5
1D3
330
1D1
100
AcDbEntity
  8
Capa 1
 62
     7
420
 16777215
370
     9
100
AcDbVertex
100
AcDb2dVertex
 10
66.81732952778691
 20
204.9211413930819
 30
0.0
  0
VERTEX
  5
1D4
330
1D1
100
AcDbEntity
  8
Capa 1
 62
     7
420
 16777215
370
     9
100
AcDbVertex
100
AcDb2dVertex
 10
66.97607710541446
 20
204.9528901011632
 30
0.0
  0
VERTEX
  5
1D5
330
1D1
100
AcDbEntity
  8
Capa 1
 62
     7
420
 16777215
370
     9
100
AcDbVertex
100
AcDb2dVertex
 10
67.07132726687949
 20
205.0798849334882
 30
0.0
  0
VERTEX
  5
1D6
330
1D1
100
AcDbEntity
  8
Capa 1
 62
     7
420
 16777215
370
     9
100
AcDbVertex
100
AcDb2dVertex
 10
67.10307597496075
 20
205.2386284738945
 30
0.0
  0
SEQEND
  5
1D7
330
1D1
100
AcDbEntity
  8
Capa 1
 62
     7
420
 16777215
370
     9
  0
POLYLINE
  5
1D8
330
1F
100
AcDbEntity
  8
Capa 1
 62
     7
420
 16777215
370
     9
100
AcDb2dPolyline
 66
     1
 10
0.0
 20
0.0
 30
0.0
  0
VERTEX
  5
1D9
330
1D8
100
AcDbEntity
  8
Capa 1
 62
     7
420
 16777215
370
     9
100
AcDbVertex
100
AcDb2dVertex
 10
55.32382888470488
 20
205.2386284738945
 30
0.0
  0
VERTEX
  5
1DA
330
1D8
100
AcDbEntity
  8
Capa 1
 62
     7
420
 16777215
370
     9
100
AcDbVertex
100
AcDb2dVertex
 10
55.38732831947803
 20
205.0798849334882
 30
0.0
  0
VERTEX
  5
1DB
330
1D8
100
AcDbEntity
  8
Capa 1
 62
     7
420
 16777215
370
     9
100
AcDbVertex
100
AcDb2dVertex
 10
55.48257848094306
 20
204.9528901011632
 30
0.0
  0
VERTEX
  5
1DC
330
1D8
100
AcDbEntity
  8
Capa 1
 62
     7
420
 16777215
370
     9
100
AcDbVertex
100
AcDb2dVertex
 10
55.64132807718125
 20
204.9211413930819
 30
0.0
  0
SEQEND
  5
1DD
330
1D8
100
AcDbEntity
  8
Capa 1
 62
     7
420
 16777215
370
     9
  0
POLYLINE
  5
1DE
330
1F
100
AcDbEntity
  8
Capa 1
 62
     7
420
 16777215
370
     9
100
AcDb2dPolyline
 66
     1
 10
0.0
 20
0.0
 30
0.0
  0
VERTEX
  5
1DF
330
1DE
100
AcDbEntity
  8
Capa 1
 62
     7
420
 16777215
370
     9
100
AcDbVertex
100
AcDb2dVertex
 10
67.07132726687949
 20
207.111882995114
 30
0.0
  0
VERTEX
  5
1E0
330
1DE
100
AcDbEntity
  8
Capa 1
 62
     7
420
 16777215
370
     9
100
AcDbVertex
100
AcDb2dVertex
 10
67.10307597496075
 20
205.2386284738945
 30
0.0
  0
SEQEND
  5
1E1
330
1DE
100
AcDbEntity
  8
Capa 1
 62
     7
420
 16777215
370
     9
  0
POLYLINE
  5
1E2
330
1F
100
AcDbEntity
  8
Capa 1
 62
     7
420
 16777215
370
     9
100
AcDb2dPolyline
 66
     1
 10
0.0
 20
0.0
 30
0.0
  0
VERTEX
  5
1E3
330
1E2
100
AcDbEntity
  8
Capa 1
 62
     7
420
 16777215
370
     9
100
AcDbVertex
100
AcDb2dVertex
 10
55.32382888470488
 20
205.2386284738945
 30
0.0
  0
VERTEX
  5
1E4
330
1E2
100
AcDbEntity
  8
Capa 1
 62
     7
420
 16777215
370
     9
100
AcDbVertex
100
AcDb2dVertex
 10
55.32382888470488
 20
207.238877827439
 30
0.0
  0
SEQEND
  5
1E5
330
1E2
100
AcDbEntity
  8
Capa 1
 62
     7
420
 16777215
370
     9
  0
POLYLINE
  5
1E6
330
1F
100
AcDbEntity
  8
Capa 1
 62
     7
420
 16777215
370
     9
100
AcDb2dPolyline
 66
     1
 10
0.0
 20
0.0
 30
0.0
  0
VERTEX
  5
1E7
330
1E6
100
AcDbEntity
  8
Capa 1
 62
     7
420
 16777215
370
     9
100
AcDbVertex
100
AcDb2dVertex
 10
55.64132807718125
 20
207.5563810571367
 30
0.0
  0
VERTEX
  5
1E8
330
1E6
100
AcDbEntity
  8
Capa 1
 62
     7
420
 16777215
370
     9
100
AcDbVertex
100
AcDb2dVertex
 10
55.48257848094306
 20
207.4928836409742
 30
0.0
  0
VERTEX
  5
1E9
330
1E6
100
AcDbEntity
  8
Capa 1
 62
     7
420
 16777215
370
     9
100
AcDbVertex
100
AcDb2dVertex
 10
55.38732831947803
 20
207.3976375167304
 30
0.0
  0
VERTEX
  5
1EA
330
1E6
100
AcDbEntity
  8
Capa 1
 62
     7
420
 16777215
370
     9
100
AcDbVertex
100
AcDb2dVertex
 10
55.32382888470488
 20
207.238877827439
 30
0.0
  0
SEQEND
  5
1EB
330
1E6
100
AcDbEntity
  8
Capa 1
 62
     7
420
 16777215
370
     9
  0
POLYLINE
  5
1EC
330
1F
100
AcDbEntity
  8
Capa 1
 62
     7
420
 16777215
370
     9
100
AcDb2dPolyline
 66
     1
 10
0.0
 20
0.0
 30
0.0
  0
VERTEX
  5
1ED
330
1EC
100
AcDbEntity
  8
Capa 1
 62
     7
420
 16777215
370
     9
100
AcDbVertex
100
AcDb2dVertex
 10
55.64132807718125
 20
207.5563810571367
 30
0.0
  0
VERTEX
  5
1EE
330
1EC
100
AcDbEntity
  8
Capa 1
 62
     7
420
 16777215
370
     9
100
AcDbVertex
100
AcDb2dVertex
 10
66.62682920485683
 20
207.5563810571367
 30
0.0
  0
SEQEND
  5
1EF
330
1EC
100
AcDbEntity
  8
Capa 1
 62
     7
420
 16777215
370
     9
  0
POLYLINE
  5
1F0
330
1F
100
AcDbEntity
  8
Capa 1
 62
     7
420
 16777215
370
     9
100
AcDb2dPolyline
 66
     1
 10
0.0
 20
0.0
 30
0.0
  0
VERTEX
  5
1F1
330
1F0
100
AcDbEntity
  8
Capa 1
 62
     7
420
 16777215
370
     9
100
AcDbVertex
100
AcDb2dVertex
 10
67.07132726687949
 20
207.111882995114
 30
0.0
  0
VERTEX
  5
1F2
330
1F0
100
AcDbEntity
  8
Capa 1
 62
     7
420
 16777215
370
     9
100
AcDbVertex
100
AcDb2dVertex
 10
67.00782581349571
 20
207.3341401005679
 30
0.0
  0
VERTEX
  5
1F3
330
1F0
100
AcDbEntity
  8
Capa 1
 62
     7
420
 16777215
370
     9
100
AcDbVertex
100
AcDb2dVertex
 10
66.84907823586816
 20
207.4928836409742
 30
0.0
  0
VERTEX
  5
1F4
330
1F0
100
AcDbEntity
  8
Capa 1
 62
     7
420
 16777215
370
     9
100
AcDbVertex
100
AcDb2dVertex
 10
66.62682920485683
 20
207.5563810571367
 30
0.0
  0
SEQEND
  5
1F5
330
1F0
100
AcDbEntity
  8
Capa 1
 62
     7
420
 16777215
370
     9
  0
POLYLINE
  5
1F6
330
1F
100
AcDbEntity
  8
Capa 1
 62
     7
420
 16777215
370
     9
100
AcDb2dPolyline
 66
     1
 10
0.0
 20
0.0
 30
0.0
  0
VERTEX
  5
1F7
330
1F6
100
AcDbEntity
  8
Capa 1
 62
     7
420
 16777215
370
     9
100
AcDbVertex
100
AcDb2dVertex
 10
66.81732952778691
 20
177.7431330024562
 30
0.0
  0
VERTEX
  5
1F8
330
1F6
100
AcDbEntity
  8
Capa 1
 62
     7
420
 16777215
370
     9
100
AcDbVertex
100
AcDb2dVertex
 10
66.69032662101934
 20
177.9653901079101
 30
0.0
  0
VERTEX
  5
1F9
330
1F6
100
AcDbEntity
  8
Capa 1
 62
     7
420
 16777215
370
     9
100
AcDbVertex
100
AcDb2dVertex
 10
66.65857791293809
 20
178.1876310644788
 30
0.0
  0
VERTEX
  5
1FA
330
1F6
100
AcDbEntity
  8
Capa 1
 62
     7
420
 16777215
370
     9
100
AcDbVertex
100
AcDb2dVertex
 10
66.69032662101934
 20
178.4098881699327
 30
0.0
  0
VERTEX
  5
1FB
330
1F6
100
AcDbEntity
  8
Capa 1
 62
     7
420
 16777215
370
     9
100
AcDbVertex
100
AcDb2dVertex
 10
66.84907823586816
 20
178.568631710339
 30
0.0
  0
VERTEX
  5
1FC
330
1F6
100
AcDbEntity
  8
Capa 1
 62
     7
420
 16777215
370
     9
100
AcDbVertex
100
AcDb2dVertex
 10
67.07132726687949
 20
178.6321291265015
 30
0.0
  0
SEQEND
  5
1FD
330
1F6
100
AcDbEntity
  8
Capa 1
 62
     7
420
 16777215
370
     9
  0
POLYLINE
  5
1FE
330
1F
100
AcDbEntity
  8
Capa 1
 62
     7
420
 16777215
370
     9
100
AcDb2dPolyline
 66
     1
 10
0.0
 20
0.0
 30
0.0
  0
VERTEX
  5
1FF
330
1FE
100
AcDbEntity
  8
Capa 1
 62
     7
420
 16777215
370
     9
100
AcDbVertex
100
AcDb2dVertex
 10
66.81732952778691
 20
177.7431330024562
 30
0.0
  0
VERTEX
  5
200
330
1FE
100
AcDbEntity
  8
Capa 1
 62
     7
420
 16777215
370
     9
100
AcDbVertex
100
AcDb2dVertex
 10
66.84907823586816
 20
177.6796355862937
 30
0.0
  0
VERTEX
  5
201
330
1FE
100
AcDbEntity
  8
Capa 1
 62
     7
420
 16777215
370
     9
100
AcDbVertex
100
AcDb2dVertex
 10
69.13507807380782
 20
174.1236349412273
 30
0.0
  0
SEQEND
  5
202
330
1FE
100
AcDbEntity
  8
Capa 1
 62
     7
420
 16777215
370
     9
  0
POLYLINE
  5
203
330
1F
100
AcDbEntity
  8
Capa 1
 62
     7
420
 16777215
370
     9
100
AcDb2dPolyline
 66
     1
 10
0.0
 20
0.0
 30
0.0
  0
VERTEX
  5
204
330
203
100
AcDbEntity
  8
Capa 1
 62
     7
420
 16777215
370
     9
100
AcDbVertex
100
AcDb2dVertex
 10
72.43707694256165
 20
169.2023914020116
 30
0.0
  0
VERTEX
  5
205
330
203
100
AcDbEntity
  8
Capa 1
 62
     7
420
 16777215
370
     9
100
AcDbVertex
100
AcDb2dVertex
 10
72.84982629650176
 20
168.6308904332214
 30
0.0
  0
VERTEX
  5
206
330
203
100
AcDbEntity
  8
Capa 1
 62
     7
420
 16777215
370
     9
100
AcDbVertex
100
AcDb2dVertex
 10
73.35782581190821
 20
168.1228868805937
 30
0.0
  0
SEQEND
  5
207
330
203
100
AcDbEntity
  8
Capa 1
 62
     7
420
 16777215
370
     9
  0
POLYLINE
  5
208
330
1F
100
AcDbEntity
  8
Capa 1
 62
     7
420
 16777215
370
     9
100
AcDb2dPolyline
 66
     1
 10
0.0
 20
0.0
 30
0.0
  0
VERTEX
  5
209
330
208
100
AcDbEntity
  8
Capa 1
 62
     7
420
 16777215
370
     9
100
AcDbVertex
100
AcDb2dVertex
 10
69.13507807380782
 20
174.1236349412273
 30
0.0
  0
VERTEX
  5
20A
330
208
100
AcDbEntity
  8
Capa 1
 62
     7
420
 16777215
370
     9
100
AcDbVertex
100
AcDb2dVertex
 10
70.78607952679472
 20
171.6471388175788
 30
0.0
  0
VERTEX
  5
20B
330
208
100
AcDbEntity
  8
Capa 1
 62
     7
420
 16777215
370
     9
100
AcDbVertex
100
AcDb2dVertex
 10
72.43707694256165
 20
169.2023914020116
 30
0.0
  0
SEQEND
  5
20C
330
208
100
AcDbEntity
  8
Capa 1
 62
     7
420
 16777215
370
     9
  0
POLYLINE
  5
20D
330
1F
100
AcDbEntity
  8
Capa 1
 62
     7
420
 16777215
370
     9
100
AcDb2dPolyline
 66
     1
 10
0.0
 20
0.0
 30
0.0
  0
VERTEX
  5
20E
330
20D
100
AcDbEntity
  8
Capa 1
 62
     7
420
 16777215
370
     9
100
AcDbVertex
100
AcDb2dVertex
 10
94.12232871351641
 20
166.7893926945257
 30
0.0
  0
VERTEX
  5
20F
330
20D
100
AcDbEntity
  8
Capa 1
 62
     7
420
 16777215
370
     9
100
AcDbVertex
100
AcDb2dVertex
 10
93.93182839058761
 20
166.7893926945257
 30
0.0
  0
VERTEX
  5
210
330
20D
100
AcDbEntity
  8
Capa 1
 62
     7
420
 16777215
370
     9
100
AcDbVertex
100
AcDb2dVertex
 10
93.70957128513245
 20
166.8211414026069
 30
0.0
  0
VERTEX
  5
211
330
20D
100
AcDbEntity
  8
Capa 1
 62
     7
420
 16777215
370
     9
100
AcDbVertex
100
AcDb2dVertex
 10
93.4238248379586
 20
166.8528901106882
 30
0.0
  0
VERTEX
  5
212
330
20D
100
AcDbEntity
  8
Capa 1
 62
     7
420
 16777215
370
     9
100
AcDbVertex
100
AcDb2dVertex
 10
93.04282419209845
 20
166.8846388187694
 30
0.0
  0
VERTEX
  5
213
330
20D
100
AcDbEntity
  8
Capa 1
 62
     7
420
 16777215
370
     9
100
AcDbVertex
100
AcDb2dVertex
 10
92.59832613007579
 20
166.9163875268507
 30
0.0
  0
VERTEX
  5
214
330
20D
100
AcDbEntity
  8
Capa 1
 62
     7
420
 16777215
370
     9
100
AcDbVertex
100
AcDb2dVertex
 10
92.09032257744808
 20
166.948136234932
 30
0.0
  0
VERTEX
  5
215
330
20D
100
AcDbEntity
  8
Capa 1
 62
     7
420
 16777215
370
     9
100
AcDbVertex
100
AcDb2dVertex
 10
91.48707290057659
 20
167.011641725537
 30
0.0
  0
VERTEX
  5
216
330
20D
100
AcDbEntity
  8
Capa 1
 62
     7
420
 16777215
370
     9
100
AcDbVertex
100
AcDb2dVertex
 10
90.85207451562384
 20
167.0433904336182
 30
0.0
  0
VERTEX
  5
217
330
20D
100
AcDbEntity
  8
Capa 1
 62
     7
420
 16777215
370
     9
100
AcDbVertex
100
AcDb2dVertex
 10
90.18532742258985
 20
167.1068878497808
 30
0.0
  0
VERTEX
  5
218
330
20D
100
AcDbEntity
  8
Capa 1
 62
     7
420
 16777215
370
     9
100
AcDbVertex
100
AcDb2dVertex
 10
89.45507887617207
 20
167.138636557862
 30
0.0
  0
VERTEX
  5
219
330
20D
100
AcDbEntity
  8
Capa 1
 62
     7
420
 16777215
370
     9
100
AcDbVertex
100
AcDb2dVertex
 10
88.72482629253302
 20
167.2021420484671
 30
0.0
  0
VERTEX
  5
21A
330
20D
100
AcDbEntity
  8
Capa 1
 62
     7
420
 16777215
370
     9
100
AcDbVertex
100
AcDb2dVertex
 10
87.96282903803399
 20
167.2338907565483
 30
0.0
  0
VERTEX
  5
21B
330
20D
100
AcDbEntity
  8
Capa 1
 62
     7
420
 16777215
370
     9
100
AcDbVertex
100
AcDb2dVertex
 10
87.61357710025509
 20
167.2656394646296
 30
0.0
  0
VERTEX
  5
21C
330
20D
100
AcDbEntity
  8
Capa 1
 62
     7
420
 16777215
370
     9
100
AcDbVertex
100
AcDb2dVertex
 10
87.23257645439493
 20
167.2973881727108
 30
0.0
  0
SEQEND
  5
21D
330
20D
100
AcDbEntity
  8
Capa 1
 62
     7
420
 16777215
370
     9
  0
POLYLINE
  5
21E
330
1F
100
AcDbEntity
  8
Capa 1
 62
     7
420
 16777215
370
     9
100
AcDb2dPolyline
 66
     1
 10
0.0
 20
0.0
 30
0.0
  0
VERTEX
  5
21F
330
21E
100
AcDbEntity
  8
Capa 1
 62
     7
420
 16777215
370
     9
100
AcDbVertex
100
AcDb2dVertex
 10
73.35782581190821
 20
168.1228868805937
 30
0.0
  0
VERTEX
  5
220
330
21E
100
AcDbEntity
  8
Capa 1
 62
     7
420
 16777215
370
     9
100
AcDbVertex
100
AcDb2dVertex
 10
74.27857871847735
 20
167.2656394646296
 30
0.0
  0
VERTEX
  5
221
330
21E
100
AcDbEntity
  8
Capa 1
 62
     7
420
 16777215
370
     9
100
AcDbVertex
100
AcDb2dVertex
 10
75.23107629590645
 20
166.3766433405843
 30
0.0
  0
SEQEND
  5
222
330
21E
100
AcDbEntity
  8
Capa 1
 62
     7
420
 16777215
370
     9
  0
POLYLINE
  5
223
330
1F
100
AcDbEntity
  8
Capa 1
 62
     7
420
 16777215
370
     9
100
AcDb2dPolyline
 66
     1
 10
0.0
 20
0.0
 30
0.0
  0
VERTEX
  5
224
330
223
100
AcDbEntity
  8
Capa 1
 62
     7
420
 16777215
370
     9
100
AcDbVertex
100
AcDb2dVertex
 10
87.20082774631368
 20
167.2973881727108
 30
0.0
  0
VERTEX
  5
225
330
223
100
AcDbEntity
  8
Capa 1
 62
     7
420
 16777215
370
     9
100
AcDbVertex
100
AcDb2dVertex
 10
76.43757564964943
 20
167.2656394646296
 30
0.0
  0
SEQEND
  5
226
330
223
100
AcDbEntity
  8
Capa 1
 62
     7
420
 16777215
370
     9
  0
POLYLINE
  5
227
330
1F
100
AcDbEntity
  8
Capa 1
 62
     7
420
 16777215
370
     9
100
AcDb2dPolyline
 66
     1
 10
0.0
 20
0.0
 30
0.0
  0
VERTEX
  5
228
330
227
100
AcDbEntity
  8
Capa 1
 62
     7
420
 16777215
370
     9
100
AcDbVertex
100
AcDb2dVertex
 10
66.69032662101934
 20
83.89014885182681
 30
0.0
  0
VERTEX
  5
229
330
227
100
AcDbEntity
  8
Capa 1
 62
     7
420
 16777215
370
     9
100
AcDbVertex
100
AcDb2dVertex
 10
66.88082694395071
 20
83.63614707551295
 30
0.0
  0
VERTEX
  5
22A
330
227
100
AcDbEntity
  8
Capa 1
 62
     7
420
 16777215
370
     9
100
AcDbVertex
100
AcDb2dVertex
 10
67.16657742834454
 20
83.41389804450162
 30
0.0
  0
VERTEX
  5
22B
330
227
100
AcDbEntity
  8
Capa 1
 62
     7
420
 16777215
370
     9
100
AcDbVertex
100
AcDb2dVertex
 10
67.4840766208209
 20
83.28689917495532
 30
0.0
  0
VERTEX
  5
22C
330
227
100
AcDbEntity
  8
Capa 1
 62
     7
420
 16777215
370
     9
100
AcDbVertex
100
AcDb2dVertex
 10
67.80157581329728
 20
83.2551464296528
 30
0.0
  0
SEQEND
  5
22D
330
227
100
AcDbEntity
  8
Capa 1
 62
     7
420
 16777215
370
     9
  0
POLYLINE
  5
22E
330
1F
100
AcDbEntity
  8
Capa 1
 62
     7
420
 16777215
370
     9
100
AcDb2dPolyline
 66
     1
 10
0.0
 20
0.0
 30
0.0
  0
VERTEX
  5
22F
330
22E
100
AcDbEntity
  8
Capa 1
 62
     7
420
 16777215
370
     9
100
AcDbVertex
100
AcDb2dVertex
 10
67.80157581329728
 20
110.2426423856846
 30
0.0
  0
VERTEX
  5
230
330
22E
100
AcDbEntity
  8
Capa 1
 62
     7
420
 16777215
370
     9
100
AcDbVertex
100
AcDb2dVertex
 10
67.4840766208209
 20
110.2108936776034
 30
0.0
  0
VERTEX
  5
231
330
22E
100
AcDbEntity
  8
Capa 1
 62
     7
420
 16777215
370
     9
100
AcDbVertex
100
AcDb2dVertex
 10
67.16657742834454
 20
110.0838907708358
 30
0.0
  0
VERTEX
  5
232
330
22E
100
AcDbEntity
  8
Capa 1
 62
     7
420
 16777215
370
     9
100
AcDbVertex
100
AcDb2dVertex
 10
66.88082694395071
 20
109.8616417398245
 30
0.0
  0
VERTEX
  5
233
330
22E
100
AcDbEntity
  8
Capa 1
 62
     7
420
 16777215
370
     9
100
AcDbVertex
100
AcDb2dVertex
 10
66.69032662101934
 20
109.5758952926507
 30
0.0
  0
SEQEND
  5
234
330
22E
100
AcDbEntity
  8
Capa 1
 62
     7
420
 16777215
370
     9
  0
POLYLINE
  5
235
330
1F
100
AcDbEntity
  8
Capa 1
 62
     7
420
 16777215
370
     9
100
AcDb2dPolyline
 66
     1
 10
0.0
 20
0.0
 30
0.0
  0
VERTEX
  5
236
330
235
100
AcDbEntity
  8
Capa 1
 62
     7
420
 16777215
370
     9
100
AcDbVertex
100
AcDb2dVertex
 10
72.62757726549043
 20
90.74814836564576
 30
0.0
  0
VERTEX
  5
237
330
235
100
AcDbEntity
  8
Capa 1
 62
     7
420
 16777215
370
     9
100
AcDbVertex
100
AcDb2dVertex
 10
72.56407581210665
 20
90.97039739665709
 30
0.0
  0
VERTEX
  5
238
330
235
100
AcDbEntity
  8
Capa 1
 62
     7
420
 16777215
370
     9
100
AcDbVertex
100
AcDb2dVertex
 10
72.43707694256165
 20
91.12914901150592
 30
0.0
  0
VERTEX
  5
239
330
235
100
AcDbEntity
  8
Capa 1
 62
     7
420
 16777215
370
     9
100
AcDbVertex
100
AcDb2dVertex
 10
72.2783293649328
 20
91.2561478810522
 30
0.0
  0
VERTEX
  5
23A
330
235
100
AcDbEntity
  8
Capa 1
 62
     7
420
 16777215
370
     9
100
AcDbVertex
100
AcDb2dVertex
 10
72.0560762967002
 20
91.319649334436
 30
0.0
  0
VERTEX
  5
23B
330
235
100
AcDbEntity
  8
Capa 1
 62
     7
420
 16777215
370
     9
100
AcDbVertex
100
AcDb2dVertex
 10
71.83382726568887
 20
91.2561478810522
 30
0.0
  0
VERTEX
  5
23C
330
235
100
AcDbEntity
  8
Capa 1
 62
     7
420
 16777215
370
     9
100
AcDbVertex
100
AcDb2dVertex
 10
71.64332694276008
 20
91.12914901150592
 30
0.0
  0
VERTEX
  5
23D
330
235
100
AcDbEntity
  8
Capa 1
 62
     7
420
 16777215
370
     9
100
AcDbVertex
100
AcDb2dVertex
 10
71.54807678129376
 20
90.97039739665709
 30
0.0
  0
VERTEX
  5
23E
330
235
100
AcDbEntity
  8
Capa 1
 62
     7
420
 16777215
370
     9
100
AcDbVertex
100
AcDb2dVertex
 10
71.48457936513124
 20
90.74814836564576
 30
0.0
  0
VERTEX
  5
23F
330
235
100
AcDbEntity
  8
Capa 1
 62
     7
420
 16777215
370
     9
100
AcDbVertex
100
AcDb2dVertex
 10
71.54807678129376
 20
90.52589933463443
 30
0.0
  0
VERTEX
  5
240
330
235
100
AcDbEntity
  8
Capa 1
 62
     7
420
 16777215
370
     9
100
AcDbVertex
100
AcDb2dVertex
 10
71.64332694276008
 20
90.33539901170435
 30
0.0
  0
VERTEX
  5
241
330
235
100
AcDbEntity
  8
Capa 1
 62
     7
420
 16777215
370
     9
100
AcDbVertex
100
AcDb2dVertex
 10
71.83382726568887
 20
90.20839610493678
 30
0.0
  0
VERTEX
  5
242
330
235
100
AcDbEntity
  8
Capa 1
 62
     7
420
 16777215
370
     9
100
AcDbVertex
100
AcDb2dVertex
 10
72.0560762967002
 20
90.17664739685553
 30
0.0
  0
VERTEX
  5
243
330
235
100
AcDbEntity
  8
Capa 1
 62
     7
420
 16777215
370
     9
100
AcDbVertex
100
AcDb2dVertex
 10
72.2783293649328
 20
90.20839610493678
 30
0.0
  0
VERTEX
  5
244
330
235
100
AcDbEntity
  8
Capa 1
 62
     7
420
 16777215
370
     9
100
AcDbVertex
100
AcDb2dVertex
 10
72.43707694256165
 20
90.33539901170435
 30
0.0
  0
VERTEX
  5
245
330
235
100
AcDbEntity
  8
Capa 1
 62
     7
420
 16777215
370
     9
100
AcDbVertex
100
AcDb2dVertex
 10
72.56407581210665
 20
90.52589933463443
 30
0.0
  0
VERTEX
  5
246
330
235
100
AcDbEntity
  8
Capa 1
 62
     7
420
 16777215
370
     9
100
AcDbVertex
100
AcDb2dVertex
 10
72.62757726549043
 20
90.74814836564576
 30
0.0
  0
SEQEND
  5
247
330
235
100
AcDbEntity
  8
Capa 1
 62
     7
420
 16777215
370
     9
  0
POLYLINE
  5
248
330
1F
100
AcDbEntity
  8
Capa 1
 62
     7
420
 16777215
370
     9
100
AcDb2dPolyline
 66
     1
 10
0.0
 20
0.0
 30
0.0
  0
VERTEX
  5
249
330
248
100
AcDbEntity
  8
Capa 1
 62
     7
420
 16777215
370
     9
100
AcDbVertex
100
AcDb2dVertex
 10
72.62757726549043
 20
102.749644486913
 30
0.0
  0
VERTEX
  5
24A
330
248
100
AcDbEntity
  8
Capa 1
 62
     7
420
 16777215
370
     9
100
AcDbVertex
100
AcDb2dVertex
 10
72.56407581210665
 20
102.9718935179243
 30
0.0
  0
VERTEX
  5
24B
330
248
100
AcDbEntity
  8
Capa 1
 62
     7
420
 16777215
370
     9
100
AcDbVertex
100
AcDb2dVertex
 10
72.43707694256165
 20
103.1306451327731
 30
0.0
  0
VERTEX
  5
24C
330
248
100
AcDbEntity
  8
Capa 1
 62
     7
420
 16777215
370
     9
100
AcDbVertex
100
AcDb2dVertex
 10
72.2783293649328
 20
103.2576440023194
 30
0.0
  0
VERTEX
  5
24D
330
248
100
AcDbEntity
  8
Capa 1
 62
     7
420
 16777215
370
     9
100
AcDbVertex
100
AcDb2dVertex
 10
72.0560762967002
 20
103.3211454557032
 30
0.0
  0
VERTEX
  5
24E
330
248
100
AcDbEntity
  8
Capa 1
 62
     7
420
 16777215
370
     9
100
AcDbVertex
100
AcDb2dVertex
 10
71.83382726568887
 20
103.2576440023194
 30
0.0
  0
VERTEX
  5
24F
330
248
100
AcDbEntity
  8
Capa 1
 62
     7
420
 16777215
370
     9
100
AcDbVertex
100
AcDb2dVertex
 10
71.64332694276008
 20
103.1306451327731
 30
0.0
  0
VERTEX
  5
250
330
248
100
AcDbEntity
  8
Capa 1
 62
     7
420
 16777215
370
     9
100
AcDbVertex
100
AcDb2dVertex
 10
71.54807678129376
 20
102.9718935179243
 30
0.0
  0
VERTEX
  5
251
330
248
100
AcDbEntity
  8
Capa 1
 62
     7
420
 16777215
370
     9
100
AcDbVertex
100
AcDb2dVertex
 10
71.48457936513124
 20
102.749644486913
 30
0.0
  0
VERTEX
  5
252
330
248
100
AcDbEntity
  8
Capa 1
 62
     7
420
 16777215
370
     9
100
AcDbVertex
100
AcDb2dVertex
 10
71.54807678129376
 20
102.5273954559016
 30
0.0
  0
VERTEX
  5
253
330
248
100
AcDbEntity
  8
Capa 1
 62
     7
420
 16777215
370
     9
100
AcDbVertex
100
AcDb2dVertex
 10
71.64332694276008
 20
102.3368951329715
 30
0.0
  0
VERTEX
  5
254
330
248
100
AcDbEntity
  8
Capa 1
 62
     7
420
 16777215
370
     9
100
AcDbVertex
100
AcDb2dVertex
 10
71.83382726568887
 20
102.209892226204
 30
0.0
  0
VERTEX
  5
255
330
248
100
AcDbEntity
  8
Capa 1
 62
     7
420
 16777215
370
     9
100
AcDbVertex
100
AcDb2dVertex
 10
72.0560762967002
 20
102.1781435181227
 30
0.0
  0
VERTEX
  5
256
330
248
100
AcDbEntity
  8
Capa 1
 62
     7
420
 16777215
370
     9
100
AcDbVertex
100
AcDb2dVertex
 10
72.2783293649328
 20
102.209892226204
 30
0.0
  0
VERTEX
  5
257
330
248
100
AcDbEntity
  8
Capa 1
 62
     7
420
 16777215
370
     9
100
AcDbVertex
100
AcDb2dVertex
 10
72.43707694256165
 20
102.3368951329715
 30
0.0
  0
VERTEX
  5
258
330
248
100
AcDbEntity
  8
Capa 1
 62
     7
420
 16777215
370
     9
100
AcDbVertex
100
AcDb2dVertex
 10
72.56407581210665
 20
102.5273954559016
 30
0.0
  0
VERTEX
  5
259
330
248
100
AcDbEntity
  8
Capa 1
 62
     7
420
 16777215
370
     9
100
AcDbVertex
100
AcDb2dVertex
 10
72.62757726549043
 20
102.749644486913
 30
0.0
  0
SEQEND
  5
25A
330
248
100
AcDbEntity
  8
Capa 1
 62
     7
420
 16777215
370
     9
  0
POLYLINE
  5
25B
330
1F
100
AcDbEntity
  8
Capa 1
 62
     7
420
 16777215
370
     9
100
AcDb2dPolyline
 66
     1
 10
0.0
 20
0.0
 30
0.0
  0
VERTEX
  5
25C
330
25B
100
AcDbEntity
  8
Capa 1
 62
     7
420
 16777215
370
     9
100
AcDbVertex
100
AcDb2dVertex
 10
91.32832128572777
 20
110.2426423856846
 30
0.0
  0
VERTEX
  5
25D
330
25B
100
AcDbEntity
  8
Capa 1
 62
     7
420
 16777215
370
     9
100
AcDbVertex
100
AcDb2dVertex
 10
67.80157581329728
 20
110.2426423856846
 30
0.0
  0
SEQEND
  5
25E
330
25B
100
AcDbEntity
  8
Capa 1
 62
     7
420
 16777215
370
     9
  0
POLYLINE
  5
25F
330
1F
100
AcDbEntity
  8
Capa 1
 62
     7
420
 16777215
370
     9
100
AcDb2dPolyline
 66
     1
 10
0.0
 20
0.0
 30
0.0
  0
VERTEX
  5
260
330
25F
100
AcDbEntity
  8
Capa 1
 62
     7
420
 16777215
370
     9
100
AcDbVertex
100
AcDb2dVertex
 10
91.32832128572777
 20
83.2551464296528
 30
0.0
  0
VERTEX
  5
261
330
25F
100
AcDbEntity
  8
Capa 1
 62
     7
420
 16777215
370
     9
100
AcDbVertex
100
AcDb2dVertex
 10
92.66182354623831
 20
83.31864788303658
 30
0.0
  0
VERTEX
  5
262
330
25F
100
AcDbEntity
  8
Capa 1
 62
     7
420
 16777215
370
     9
100
AcDbVertex
100
AcDb2dVertex
 10
93.96357709866759
 20
83.50914820596665
 30
0.0
  0
VERTEX
  5
263
330
25F
100
AcDbEntity
  8
Capa 1
 62
     7
420
 16777215
370
     9
100
AcDbVertex
100
AcDb2dVertex
 10
95.23357386857306
 20
83.82664739844303
 30
0.0
  0
VERTEX
  5
264
330
25F
100
AcDbEntity
  8
Capa 1
 62
     7
420
 16777215
370
     9
100
AcDbVertex
100
AcDb2dVertex
 10
96.5035787129211
 20
84.27114949768696
 30
0.0
  0
VERTEX
  5
265
330
25F
100
AcDbEntity
  8
Capa 1
 62
     7
420
 16777215
370
     9
100
AcDbVertex
100
AcDb2dVertex
 10
97.67832128414027
 20
84.84264642925592
 30
0.0
  0
VERTEX
  5
266
330
25F
100
AcDbEntity
  8
Capa 1
 62
     7
420
 16777215
370
     9
100
AcDbVertex
100
AcDb2dVertex
 10
98.82132322172073
 20
85.50939755951119
 30
0.0
  0
VERTEX
  5
267
330
25F
100
AcDbEntity
  8
Capa 1
 62
     7
420
 16777215
370
     9
100
AcDbVertex
100
AcDb2dVertex
 10
99.90082774313868
 20
86.30314755931275
 30
0.0
  0
VERTEX
  5
268
330
25F
100
AcDbEntity
  8
Capa 1
 62
     7
420
 16777215
370
     9
100
AcDbVertex
100
AcDb2dVertex
 10
100.8850780658703
 20
87.19214772057936
 30
0.0
  0
VERTEX
  5
269
330
25F
100
AcDbEntity
  8
Capa 1
 62
     7
420
 16777215
370
     9
100
AcDbVertex
100
AcDb2dVertex
 10
101.7740741899156
 20
88.176398043311
 30
0.0
  0
VERTEX
  5
26A
330
25F
100
AcDbEntity
  8
Capa 1
 62
     7
420
 16777215
370
     9
100
AcDbVertex
100
AcDb2dVertex
 10
102.5360754816359
 20
89.25589852750767
 30
0.0
  0
VERTEX
  5
26B
330
25F
100
AcDbEntity
  8
Capa 1
 62
     7
420
 16777215
370
     9
100
AcDbVertex
100
AcDb2dVertex
 10
103.2345712827512
 20
90.3671477197856
 30
0.0
  0
VERTEX
  5
26C
330
25F
100
AcDbEntity
  8
Capa 1
 62
     7
420
 16777215
370
     9
100
AcDbVertex
100
AcDb2dVertex
 10
103.8060722515414
 20
91.57364707352858
 30
0.0
  0
VERTEX
  5
26D
330
25F
100
AcDbEntity
  8
Capa 1
 62
     7
420
 16777215
370
     9
100
AcDbVertex
100
AcDb2dVertex
 10
104.2505783880066
 20
92.81189917257407
 30
0.0
  0
VERTEX
  5
26E
330
25F
100
AcDbEntity
  8
Capa 1
 62
     7
420
 16777215
370
     9
100
AcDbVertex
100
AcDb2dVertex
 10
104.5680735432617
 20
94.11364868778209
 30
0.0
  0
VERTEX
  5
26F
330
25F
100
AcDbEntity
  8
Capa 1
 62
     7
420
 16777215
370
     9
100
AcDbVertex
100
AcDb2dVertex
 10
104.7585738661918
 20
95.41539820299009
 30
0.0
  0
VERTEX
  5
270
330
25F
100
AcDbEntity
  8
Capa 1
 62
     7
420
 16777215
370
     9
100
AcDbVertex
100
AcDb2dVertex
 10
104.8220712823543
 20
96.74889642627936
 30
0.0
  0
VERTEX
  5
271
330
25F
100
AcDbEntity
  8
Capa 1
 62
     7
420
 16777215
370
     9
100
AcDbVertex
100
AcDb2dVertex
 10
104.7585738661918
 20
98.0823986867899
 30
0.0
  0
VERTEX
  5
272
330
25F
100
AcDbEntity
  8
Capa 1
 62
     7
420
 16777215
370
     9
100
AcDbVertex
100
AcDb2dVertex
 10
104.5680735432617
 20
99.3841482019979
 30
0.0
  0
VERTEX
  5
273
330
25F
100
AcDbEntity
  8
Capa 1
 62
     7
420
 16777215
370
     9
100
AcDbVertex
100
AcDb2dVertex
 10
104.2505783880066
 20
100.6541490091247
 30
0.0
  0
VERTEX
  5
274
330
25F
100
AcDbEntity
  8
Capa 1
 62
     7
420
 16777215
370
     9
100
AcDbVertex
100
AcDb2dVertex
 10
103.8060722515414
 20
101.9241417418089
 30
0.0
  0
VERTEX
  5
275
330
25F
100
AcDbEntity
  8
Capa 1
 62
     7
420
 16777215
370
     9
100
AcDbVertex
100
AcDb2dVertex
 10
103.2345712827512
 20
103.0988923874706
 30
0.0
  0
VERTEX
  5
276
330
25F
100
AcDbEntity
  8
Capa 1
 62
     7
420
 16777215
370
     9
100
AcDbVertex
100
AcDb2dVertex
 10
102.5360754816359
 20
104.241894325051
 30
0.0
  0
VERTEX
  5
277
330
25F
100
AcDbEntity
  8
Capa 1
 62
     7
420
 16777215
370
     9
100
AcDbVertex
100
AcDb2dVertex
 10
101.7740741899156
 20
105.3213907720265
 30
0.0
  0
VERTEX
  5
278
330
25F
100
AcDbEntity
  8
Capa 1
 62
     7
420
 16777215
370
     9
100
AcDbVertex
100
AcDb2dVertex
 10
100.8850780658703
 20
106.2738923866768
 30
0.0
  0
VERTEX
  5
279
330
25F
100
AcDbEntity
  8
Capa 1
 62
     7
420
 16777215
370
     9
100
AcDbVertex
100
AcDb2dVertex
 10
99.90082774313868
 20
107.194645293246
 30
0.0
  0
VERTEX
  5
27A
330
25F
100
AcDbEntity
  8
Capa 1
 62
     7
420
 16777215
370
     9
100
AcDbVertex
100
AcDb2dVertex
 10
98.82132322172073
 20
107.9566385105237
 30
0.0
  0
VERTEX
  5
27B
330
25F
100
AcDbEntity
  8
Capa 1
 62
     7
420
 16777215
370
     9
100
AcDbVertex
100
AcDb2dVertex
 10
97.67832128414027
 20
108.6551423860815
 30
0.0
  0
VERTEX
  5
27C
330
25F
100
AcDbEntity
  8
Capa 1
 62
     7
420
 16777215
370
     9
100
AcDbVertex
100
AcDb2dVertex
 10
96.5035787129211
 20
109.2266433548718
 30
0.0
  0
VERTEX
  5
27D
330
25F
100
AcDbEntity
  8
Capa 1
 62
     7
420
 16777215
370
     9
100
AcDbVertex
100
AcDb2dVertex
 10
95.23357386857306
 20
109.6711414168944
 30
0.0
  0
VERTEX
  5
27E
330
25F
100
AcDbEntity
  8
Capa 1
 62
     7
420
 16777215
370
     9
100
AcDbVertex
100
AcDb2dVertex
 10
93.96357709866759
 20
109.9886446465921
 30
0.0
  0
VERTEX
  5
27F
330
25F
100
AcDbEntity
  8
Capa 1
 62
     7
420
 16777215
370
     9
100
AcDbVertex
100
AcDb2dVertex
 10
92.66182354623831
 20
110.1791449695221
 30
0.0
  0
VERTEX
  5
280
330
25F
100
AcDbEntity
  8
Capa 1
 62
     7
420
 16777215
370
     9
100
AcDbVertex
100
AcDb2dVertex
 10
91.32832128572777
 20
110.2426423856846
 30
0.0
  0
SEQEND
  5
281
330
25F
100
AcDbEntity
  8
Capa 1
 62
     7
420
 16777215
370
     9
  0
POLYLINE
  5
282
330
1F
100
AcDbEntity
  8
Capa 1
 62
     7
420
 16777215
370
     9
100
AcDb2dPolyline
 66
     1
 10
0.0
 20
0.0
 30
0.0
  0
VERTEX
  5
283
330
282
100
AcDbEntity
  8
Capa 1
 62
     7
420
 16777215
370
     9
100
AcDbVertex
100
AcDb2dVertex
 10
67.80157581329728
 20
83.2551464296528
 30
0.0
  0
VERTEX
  5
284
330
282
100
AcDbEntity
  8
Capa 1
 62
     7
420
 16777215
370
     9
100
AcDbVertex
100
AcDb2dVertex
 10
91.32832128572777
 20
83.2551464296528
 30
0.0
  0
SEQEND
  5
285
330
282
100
AcDbEntity
  8
Capa 1
 62
     7
420
 16777215
370
     9
  0
POLYLINE
  5
286
330
1F
100
AcDbEntity
  8
Capa 1
 62
     7
420
 16777215
370
     9
100
AcDb2dPolyline
 66
     1
 10
0.0
 20
0.0
 30
0.0
  0
VERTEX
  5
287
330
286
100
AcDbEntity
  8
Capa 1
 62
     7
420
 16777215
370
     9
100
AcDbVertex
100
AcDb2dVertex
 10
99.51982709727852
 20
96.74889642627936
 30
0.0
  0
VERTEX
  5
288
330
286
100
AcDbEntity
  8
Capa 1
 62
     7
420
 16777215
370
     9
100
AcDbVertex
100
AcDb2dVertex
 10
99.48807838919727
 20
97.57439917138345
 30
0.0
  0
VERTEX
  5
289
330
286
100
AcDbEntity
  8
Capa 1
 62
     7
420
 16777215
370
     9
100
AcDbVertex
100
AcDb2dVertex
 10
99.3610754824297
 20
98.43164658734753
 30
0.0
  0
VERTEX
  5
28A
330
286
100
AcDbEntity
  8
Capa 1
 62
     7
420
 16777215
370
     9
100
AcDbVertex
100
AcDb2dVertex
 10
99.13882645141837
 20
99.25714933245162
 30
0.0
  0
VERTEX
  5
28B
330
286
100
AcDbEntity
  8
Capa 1
 62
     7
420
 16777215
370
     9
100
AcDbVertex
100
AcDb2dVertex
 10
98.85307192980198
 20
100.0508993322532
 30
0.0
  0
VERTEX
  5
28C
330
286
100
AcDbEntity
  8
Capa 1
 62
     7
420
 16777215
370
     9
100
AcDbVertex
100
AcDb2dVertex
 10
98.50382806646563
 20
100.8128965867522
 30
0.0
  0
VERTEX
  5
28D
330
286
100
AcDbEntity
  8
Capa 1
 62
     7
420
 16777215
370
     9
100
AcDbVertex
100
AcDb2dVertex
 10
98.05932193000042
 20
101.5113964250887
 30
0.0
  0
VERTEX
  5
28E
330
286
100
AcDbEntity
  8
Capa 1
 62
     7
420
 16777215
370
     9
100
AcDbVertex
100
AcDb2dVertex
 10
97.5830751598965
 20
102.209892226204
 30
0.0
  0
VERTEX
  5
28F
330
286
100
AcDbEntity
  8
Capa 1
 62
     7
420
 16777215
370
     9
100
AcDbVertex
100
AcDb2dVertex
 10
97.01157419110626
 20
102.844894648378
 30
0.0
  0
VERTEX
  5
290
330
286
100
AcDbEntity
  8
Capa 1
 62
     7
420
 16777215
370
     9
100
AcDbVertex
100
AcDb2dVertex
 10
96.37657580615353
 20
103.3846428718657
 30
0.0
  0
VERTEX
  5
291
330
286
100
AcDbEntity
  8
Capa 1
 62
     7
420
 16777215
370
     9
100
AcDbVertex
100
AcDb2dVertex
 10
95.70982871311953
 20
103.8926423872721
 30
0.0
  0
VERTEX
  5
292
330
286
100
AcDbEntity
  8
Capa 1
 62
     7
420
 16777215
370
     9
100
AcDbVertex
100
AcDb2dVertex
 10
94.97957612948048
 20
104.3371404492948
 30
0.0
  0
VERTEX
  5
293
330
286
100
AcDbEntity
  8
Capa 1
 62
     7
420
 16777215
370
     9
100
AcDbVertex
100
AcDb2dVertex
 10
94.21757483776017
 20
104.6863923870737
 30
0.0
  0
VERTEX
  5
294
330
286
100
AcDbEntity
  8
Capa 1
 62
     7
420
 16777215
370
     9
100
AcDbVertex
100
AcDb2dVertex
 10
93.4238248379586
 20
104.9721388342476
 30
0.0
  0
VERTEX
  5
295
330
286
100
AcDbEntity
  8
Capa 1
 62
     7
420
 16777215
370
     9
100
AcDbVertex
100
AcDb2dVertex
 10
92.63007483815704
 20
105.1943878652589
 30
0.0
  0
VERTEX
  5
296
330
286
100
AcDbEntity
  8
Capa 1
 62
     7
420
 16777215
370
     9
100
AcDbVertex
100
AcDb2dVertex
 10
91.77282742219298
 20
105.3213907720265
 30
0.0
  0
VERTEX
  5
297
330
286
100
AcDbEntity
  8
Capa 1
 62
     7
420
 16777215
370
     9
100
AcDbVertex
100
AcDb2dVertex
 10
90.94732871431016
 20
105.3531394801077
 30
0.0
  0
VERTEX
  5
298
330
286
100
AcDbEntity
  8
Capa 1
 62
     7
420
 16777215
370
     9
100
AcDbVertex
100
AcDb2dVertex
 10
80.31107548719348
 20
105.3531394801077
 30
0.0
  0
VERTEX
  5
299
330
286
100
AcDbEntity
  8
Capa 1
 62
     7
420
 16777215
370
     9
100
AcDbVertex
100
AcDb2dVertex
 10
79.73957855562324
 20
105.2896420639452
 30
0.0
  0
VERTEX
  5
29A
330
286
100
AcDbEntity
  8
Capa 1
 62
     7
420
 16777215
370
     9
100
AcDbVertex
100
AcDb2dVertex
 10
79.16807758683301
 20
105.1308904490964
 30
0.0
  0
VERTEX
  5
29B
330
286
100
AcDbEntity
  8
Capa 1
 62
     7
420
 16777215
370
     9
100
AcDbVertex
100
AcDb2dVertex
 10
78.6283293633453
 20
104.8768927100038
 30
0.0
  0
VERTEX
  5
29C
330
286
100
AcDbEntity
  8
Capa 1
 62
     7
420
 16777215
370
     9
100
AcDbVertex
100
AcDb2dVertex
 10
78.18382726410137
 20
104.4958920641436
 30
0.0
  0
VERTEX
  5
29D
330
286
100
AcDbEntity
  8
Capa 1
 62
     7
420
 16777215
370
     9
100
AcDbVertex
100
AcDb2dVertex
 10
77.77107791015996
 20
104.051394002121
 30
0.0
  0
VERTEX
  5
29E
330
286
100
AcDbEntity
  8
Capa 1
 62
     7
420
 16777215
370
     9
100
AcDbVertex
100
AcDb2dVertex
 10
77.48532742576485
 20
103.5433944867145
 30
0.0
  0
VERTEX
  5
29F
330
286
100
AcDbEntity
  8
Capa 1
 62
     7
420
 16777215
370
     9
100
AcDbVertex
100
AcDb2dVertex
 10
77.29482710283477
 20
103.0036422260056
 30
0.0
  0
VERTEX
  5
2A0
330
286
100
AcDbEntity
  8
Capa 1
 62
     7
420
 16777215
370
     9
100
AcDbVertex
100
AcDb2dVertex
 10
77.19957694137102
 20
102.4003925491341
 30
0.0
  0
VERTEX
  5
2A1
330
286
100
AcDbEntity
  8
Capa 1
 62
     7
420
 16777215
370
     9
100
AcDbVertex
100
AcDb2dVertex
 10
77.07257807182344
 20
99.57464852492798
 30
0.0
  0
VERTEX
  5
2A2
330
286
100
AcDbEntity
  8
Capa 1
 62
     7
420
 16777215
370
     9
100
AcDbVertex
100
AcDb2dVertex
 10
77.00907661843965
 20
96.74889642627936
 30
0.0
  0
SEQEND
  5
2A3
330
286
100
AcDbEntity
  8
Capa 1
 62
     7
420
 16777215
370
     9
  0
POLYLINE
  5
2A4
330
1F
100
AcDbEntity
  8
Capa 1
 62
     7
420
 16777215
370
     9
100
AcDb2dPolyline
 66
     1
 10
0.0
 20
0.0
 30
0.0
  0
VERTEX
  5
2A5
330
2A4
100
AcDbEntity
  8
Capa 1
 62
     7
420
 16777215
370
     9
100
AcDbVertex
100
AcDb2dVertex
 10
77.19957694137102
 20
91.09739626620339
 30
0.0
  0
VERTEX
  5
2A6
330
2A4
100
AcDbEntity
  8
Capa 1
 62
     7
420
 16777215
370
     9
100
AcDbVertex
100
AcDb2dVertex
 10
77.07257807182344
 20
93.92314836485201
 30
0.0
  0
VERTEX
  5
2A7
330
2A4
100
AcDbEntity
  8
Capa 1
 62
     7
420
 16777215
370
     9
100
AcDbVertex
100
AcDb2dVertex
 10
77.00907661843965
 20
96.74889642627936
 30
0.0
  0
SEQEND
  5
2A8
330
2A4
100
AcDbEntity
  8
Capa 1
 62
     7
420
 16777215
370
     9
  0
POLYLINE
  5
2A9
330
1F
100
AcDbEntity
  8
Capa 1
 62
     7
420
 16777215
370
     9
100
AcDb2dPolyline
 66
     1
 10
0.0
 20
0.0
 30
0.0
  0
VERTEX
  5
2AA
330
2A9
100
AcDbEntity
  8
Capa 1
 62
     7
420
 16777215
370
     9
100
AcDbVertex
100
AcDb2dVertex
 10
80.31107548719348
 20
88.14464933522974
 30
0.0
  0
VERTEX
  5
2AB
330
2A9
100
AcDbEntity
  8
Capa 1
 62
     7
420
 16777215
370
     9
100
AcDbVertex
100
AcDb2dVertex
 10
79.73957855562324
 20
88.176398043311
 30
0.0
  0
VERTEX
  5
2AC
330
2A9
100
AcDbEntity
  8
Capa 1
 62
     7
420
 16777215
370
     9
100
AcDbVertex
100
AcDb2dVertex
 10
79.16807758683301
 20
88.36689836624107
 30
0.0
  0
VERTEX
  5
2AD
330
2A9
100
AcDbEntity
  8
Capa 1
 62
     7
420
 16777215
370
     9
100
AcDbVertex
100
AcDb2dVertex
 10
78.6283293633453
 20
88.62089610533366
 30
0.0
  0
VERTEX
  5
2AE
330
2A9
100
AcDbEntity
  8
Capa 1
 62
     7
420
 16777215
370
     9
100
AcDbVertex
100
AcDb2dVertex
 10
78.18382726410137
 20
88.97014804311256
 30
0.0
  0
VERTEX
  5
2AF
330
2A9
100
AcDbEntity
  8
Capa 1
 62
     7
420
 16777215
370
     9
100
AcDbVertex
100
AcDb2dVertex
 10
77.77107791015996
 20
89.41464610513522
 30
0.0
  0
VERTEX
  5
2B0
330
2A9
100
AcDbEntity
  8
Capa 1
 62
     7
420
 16777215
370
     9
100
AcDbVertex
100
AcDb2dVertex
 10
77.48532742576485
 20
89.9543983658442
 30
0.0
  0
VERTEX
  5
2B1
330
2A9
100
AcDbEntity
  8
Capa 1
 62
     7
420
 16777215
370
     9
100
AcDbVertex
100
AcDb2dVertex
 10
77.29482710283477
 20
90.4941465893319
 30
0.0
  0
VERTEX
  5
2B2
330
2A9
100
AcDbEntity
  8
Capa 1
 62
     7
420
 16777215
370
     9
100
AcDbVertex
100
AcDb2dVertex
 10
77.19957694137102
 20
91.09739626620339
 30
0.0
  0
SEQEND
  5
2B3
330
2A9
100
AcDbEntity
  8
Capa 1
 62
     7
420
 16777215
370
     9
  0
POLYLINE
  5
2B4
330
1F
100
AcDbEntity
  8
Capa 1
 62
     7
420
 16777215
370
     9
100
AcDb2dPolyline
 66
     1
 10
0.0
 20
0.0
 30
0.0
  0
VERTEX
  5
2B5
330
2B4
100
AcDbEntity
  8
Capa 1
 62
     7
420
 16777215
370
     9
100
AcDbVertex
100
AcDb2dVertex
 10
90.94732871431016
 20
88.14464933522974
 30
0.0
  0
VERTEX
  5
2B6
330
2B4
100
AcDbEntity
  8
Capa 1
 62
     7
420
 16777215
370
     9
100
AcDbVertex
100
AcDb2dVertex
 10
80.31107548719348
 20
88.14464933522974
 30
0.0
  0
SEQEND
  5
2B7
330
2B4
100
AcDbEntity
  8
Capa 1
 62
     7
420
 16777215
370
     9
  0
POLYLINE
  5
2B8
330
1F
100
AcDbEntity
  8
Capa 1
 62
     7
420
 16777215
370
     9
100
AcDb2dPolyline
 66
     1
 10
0.0
 20
0.0
 30
0.0
  0
VERTEX
  5
2B9
330
2B8
100
AcDbEntity
  8
Capa 1
 62
     7
420
 16777215
370
     9
100
AcDbVertex
100
AcDb2dVertex
 10
99.51982709727852
 20
96.74889642627936
 30
0.0
  0
VERTEX
  5
2BA
330
2B8
100
AcDbEntity
  8
Capa 1
 62
     7
420
 16777215
370
     9
100
AcDbVertex
100
AcDb2dVertex
 10
99.48807838919727
 20
95.89164901031529
 30
0.0
  0
VERTEX
  5
2BB
330
2B8
100
AcDbEntity
  8
Capa 1
 62
     7
420
 16777215
370
     9
100
AcDbVertex
100
AcDb2dVertex
 10
99.3610754824297
 20
95.0661462652112
 30
0.0
  0
VERTEX
  5
2BC
330
2B8
100
AcDbEntity
  8
Capa 1
 62
     7
420
 16777215
370
     9
100
AcDbVertex
100
AcDb2dVertex
 10
99.13882645141837
 20
94.24064755732837
 30
0.0
  0
VERTEX
  5
2BD
330
2B8
100
AcDbEntity
  8
Capa 1
 62
     7
420
 16777215
370
     9
100
AcDbVertex
100
AcDb2dVertex
 10
98.85307192980198
 20
93.44689755752681
 30
0.0
  0
VERTEX
  5
2BE
330
2B8
100
AcDbEntity
  8
Capa 1
 62
     7
420
 16777215
370
     9
100
AcDbVertex
100
AcDb2dVertex
 10
98.50382806646563
 20
92.68489626580651
 30
0.0
  0
VERTEX
  5
2BF
330
2B8
100
AcDbEntity
  8
Capa 1
 62
     7
420
 16777215
370
     9
100
AcDbVertex
100
AcDb2dVertex
 10
98.05932193000042
 20
91.95464771938873
 30
0.0
  0
VERTEX
  5
2C0
330
2B8
100
AcDbEntity
  8
Capa 1
 62
     7
420
 16777215
370
     9
100
AcDbVertex
100
AcDb2dVertex
 10
97.5830751598965
 20
91.28789658913347
 30
0.0
  0
VERTEX
  5
2C1
330
2B8
100
AcDbEntity
  8
Capa 1
 62
     7
420
 16777215
370
     9
100
AcDbVertex
100
AcDb2dVertex
 10
97.01157419110626
 20
90.65289820418072
 30
0.0
  0
VERTEX
  5
2C2
330
2B8
100
AcDbEntity
  8
Capa 1
 62
     7
420
 16777215
370
     9
100
AcDbVertex
100
AcDb2dVertex
 10
96.37657580615353
 20
90.08139723539048
 30
0.0
  0
VERTEX
  5
2C3
330
2B8
100
AcDbEntity
  8
Capa 1
 62
     7
420
 16777215
370
     9
100
AcDbVertex
100
AcDb2dVertex
 10
95.70982871311953
 20
89.57339771998404
 30
0.0
  0
VERTEX
  5
2C4
330
2B8
100
AcDbEntity
  8
Capa 1
 62
     7
420
 16777215
370
     9
100
AcDbVertex
100
AcDb2dVertex
 10
94.97957612948048
 20
89.16064836604264
 30
0.0
  0
VERTEX
  5
2C5
330
2B8
100
AcDbEntity
  8
Capa 1
 62
     7
420
 16777215
370
     9
100
AcDbVertex
100
AcDb2dVertex
 10
94.21757483776017
 20
88.77964772018248
 30
0.0
  0
VERTEX
  5
2C6
330
2B8
100
AcDbEntity
  8
Capa 1
 62
     7
420
 16777215
370
     9
100
AcDbVertex
100
AcDb2dVertex
 10
93.4238248379586
 20
88.49389723578736
 30
0.0
  0
VERTEX
  5
2C7
330
2B8
100
AcDbEntity
  8
Capa 1
 62
     7
420
 16777215
370
     9
100
AcDbVertex
100
AcDb2dVertex
 10
92.63007483815704
 20
88.30339691285728
 30
0.0
  0
VERTEX
  5
2C8
330
2B8
100
AcDbEntity
  8
Capa 1
 62
     7
420
 16777215
370
     9
100
AcDbVertex
100
AcDb2dVertex
 10
91.77282742219298
 20
88.176398043311
 30
0.0
  0
VERTEX
  5
2C9
330
2B8
100
AcDbEntity
  8
Capa 1
 62
     7
420
 16777215
370
     9
100
AcDbVertex
100
AcDb2dVertex
 10
90.94732871431016
 20
88.14464933522974
 30
0.0
  0
SEQEND
  5
2CA
330
2B8
100
AcDbEntity
  8
Capa 1
 62
     7
420
 16777215
370
     9
  0
POLYLINE
  5
2CB
330
1F
100
AcDbEntity
  8
Capa 1
 62
     7
420
 16777215
370
     9
100
AcDb2dPolyline
 66
     1
 10
0.0
 20
0.0
 30
0.0
  0
VERTEX
  5
2CC
330
2CB
100
AcDbEntity
  8
Capa 1
 62
     7
420
 16777215
370
     9
100
AcDbVertex
100
AcDb2dVertex
 10
55.32382888470488
 20
83.79489869036178
 30
0.0
  0
VERTEX
  5
2CD
330
2CB
100
AcDbEntity
  8
Capa 1
 62
     7
420
 16777215
370
     9
100
AcDbVertex
100
AcDb2dVertex
 10
55.32382888470488
 20
83.95364626798933
 30
0.0
  0
SEQEND
  5
2CE
330
2CB
100
AcDbEntity
  8
Capa 1
 62
     7
420
 16777215
370
     9
  0
POLYLINE
  5
2CF
330
1F
100
AcDbEntity
  8
Capa 1
 62
     7
420
 16777215
370
     9
100
AcDb2dPolyline
 66
     1
 10
0.0
 20
0.0
 30
0.0
  0
VERTEX
  5
2D0
330
2CF
100
AcDbEntity
  8
Capa 1
 62
     7
420
 16777215
370
     9
100
AcDbVertex
100
AcDb2dVertex
 10
55.32382888470488
 20
109.7028901249757
 30
0.0
  0
VERTEX
  5
2D1
330
2CF
100
AcDbEntity
  8
Capa 1
 62
     7
420
 16777215
370
     9
100
AcDbVertex
100
AcDb2dVertex
 10
55.32382888470488
 20
83.95364626798933
 30
0.0
  0
SEQEND
  5
2D2
330
2CF
100
AcDbEntity
  8
Capa 1
 62
     7
420
 16777215
370
     9
  0
POLYLINE
  5
2D3
330
1F
100
AcDbEntity
  8
Capa 1
 62
     7
420
 16777215
370
     9
100
AcDb2dPolyline
 66
     1
 10
0.0
 20
0.0
 30
0.0
  0
VERTEX
  5
2D4
330
2D3
100
AcDbEntity
  8
Capa 1
 62
     7
420
 16777215
370
     9
100
AcDbVertex
100
AcDb2dVertex
 10
62.30882726807012
 20
96.74889642627936
 30
0.0
  0
VERTEX
  5
2D5
330
2D3
100
AcDbEntity
  8
Capa 1
 62
     7
420
 16777215
370
     9
100
AcDbVertex
100
AcDb2dVertex
 10
62.24532581468634
 20
97.12989707213951
 30
0.0
  0
VERTEX
  5
2D6
330
2D3
100
AcDbEntity
  8
Capa 1
 62
     7
420
 16777215
370
     9
100
AcDbVertex
100
AcDb2dVertex
 10
62.11832694514133
 20
97.47914900991842
 30
0.0
  0
VERTEX
  5
2D7
330
2D3
100
AcDbEntity
  8
Capa 1
 62
     7
420
 16777215
370
     9
100
AcDbVertex
100
AcDb2dVertex
 10
61.86432920604746
 20
97.79664820239478
 30
0.0
  0
VERTEX
  5
2D8
330
2D3
100
AcDbEntity
  8
Capa 1
 62
     7
420
 16777215
370
     9
100
AcDbVertex
100
AcDb2dVertex
 10
61.54682597634982
 20
98.05064594148737
 30
0.0
  0
VERTEX
  5
2D9
330
2D3
100
AcDbEntity
  8
Capa 1
 62
     7
420
 16777215
370
     9
100
AcDbVertex
100
AcDb2dVertex
 10
61.19757807579219
 20
98.17764884825493
 30
0.0
  0
VERTEX
  5
2DA
330
2D3
100
AcDbEntity
  8
Capa 1
 62
     7
420
 16777215
370
     9
100
AcDbVertex
100
AcDb2dVertex
 10
60.81657742993203
 20
98.24114626441745
 30
0.0
  0
VERTEX
  5
2DB
330
2D3
100
AcDbEntity
  8
Capa 1
 62
     7
420
 16777215
370
     9
100
AcDbVertex
100
AcDb2dVertex
 10
60.40382807599062
 20
98.17764884825493
 30
0.0
  0
VERTEX
  5
2DC
330
2D3
100
AcDbEntity
  8
Capa 1
 62
     7
420
 16777215
370
     9
100
AcDbVertex
100
AcDb2dVertex
 10
60.05457613821173
 20
98.05064594148737
 30
0.0
  0
VERTEX
  5
2DD
330
2D3
100
AcDbEntity
  8
Capa 1
 62
     7
420
 16777215
370
     9
100
AcDbVertex
100
AcDb2dVertex
 10
59.73707694573664
 20
97.79664820239478
 30
0.0
  0
VERTEX
  5
2DE
330
2D3
100
AcDbEntity
  8
Capa 1
 62
     7
420
 16777215
370
     9
100
AcDbVertex
100
AcDb2dVertex
 10
59.51482791472402
 20
97.47914900991842
 30
0.0
  0
VERTEX
  5
2DF
330
2D3
100
AcDbEntity
  8
Capa 1
 62
     7
420
 16777215
370
     9
100
AcDbVertex
100
AcDb2dVertex
 10
59.35607629987521
 20
97.12989707213951
 30
0.0
  0
VERTEX
  5
2E0
330
2D3
100
AcDbEntity
  8
Capa 1
 62
     7
420
 16777215
370
     9
100
AcDbVertex
100
AcDb2dVertex
 10
59.29257888371269
 20
96.74889642627936
 30
0.0
  0
VERTEX
  5
2E1
330
2D3
100
AcDbEntity
  8
Capa 1
 62
     7
420
 16777215
370
     9
100
AcDbVertex
100
AcDb2dVertex
 10
59.35607629987521
 20
96.3678957804192
 30
0.0
  0
VERTEX
  5
2E2
330
2D3
100
AcDbEntity
  8
Capa 1
 62
     7
420
 16777215
370
     9
100
AcDbVertex
100
AcDb2dVertex
 10
59.51482791472402
 20
95.98689917178032
 30
0.0
  0
VERTEX
  5
2E3
330
2D3
100
AcDbEntity
  8
Capa 1
 62
     7
420
 16777215
370
     9
100
AcDbVertex
100
AcDb2dVertex
 10
59.73707694573664
 20
95.66939594208269
 30
0.0
  0
VERTEX
  5
2E4
330
2D3
100
AcDbEntity
  8
Capa 1
 62
     7
420
 16777215
370
     9
100
AcDbVertex
100
AcDb2dVertex
 10
60.05457613821173
 20
95.44714691107136
 30
0.0
  0
VERTEX
  5
2E5
330
2D3
100
AcDbEntity
  8
Capa 1
 62
     7
420
 16777215
370
     9
100
AcDbVertex
100
AcDb2dVertex
 10
60.40382807599062
 20
95.2883993334438
 30
0.0
  0
VERTEX
  5
2E6
330
2D3
100
AcDbEntity
  8
Capa 1
 62
     7
420
 16777215
370
     9
100
AcDbVertex
100
AcDb2dVertex
 10
60.81657742993203
 20
95.25664658814128
 30
0.0
  0
VERTEX
  5
2E7
330
2D3
100
AcDbEntity
  8
Capa 1
 62
     7
420
 16777215
370
     9
100
AcDbVertex
100
AcDb2dVertex
 10
61.19757807579219
 20
95.2883993334438
 30
0.0
  0
VERTEX
  5
2E8
330
2D3
100
AcDbEntity
  8
Capa 1
 62
     7
420
 16777215
370
     9
100
AcDbVertex
100
AcDb2dVertex
 10
61.54682597634982
 20
95.44714691107136
 30
0.0
  0
VERTEX
  5
2E9
330
2D3
100
AcDbEntity
  8
Capa 1
 62
     7
420
 16777215
370
     9
100
AcDbVertex
100
AcDb2dVertex
 10
61.86432920604746
 20
95.66939594208269
 30
0.0
  0
VERTEX
  5
2EA
330
2D3
100
AcDbEntity
  8
Capa 1
 62
     7
420
 16777215
370
     9
100
AcDbVertex
100
AcDb2dVertex
 10
62.11832694514133
 20
95.98689917178032
 30
0.0
  0
VERTEX
  5
2EB
330
2D3
100
AcDbEntity
  8
Capa 1
 62
     7
420
 16777215
370
     9
100
AcDbVertex
100
AcDb2dVertex
 10
62.24532581468634
 20
96.3678957804192
 30
0.0
  0
VERTEX
  5
2EC
330
2D3
100
AcDbEntity
  8
Capa 1
 62
     7
420
 16777215
370
     9
100
AcDbVertex
100
AcDb2dVertex
 10
62.30882726807012
 20
96.74889642627936
 30
0.0
  0
SEQEND
  5
2ED
330
2D3
100
AcDbEntity
  8
Capa 1
 62
     7
420
 16777215
370
     9
  0
POLYLINE
  5
2EE
330
1F
100
AcDbEntity
  8
Capa 1
 62
     7
420
 16777215
370
     9
100
AcDb2dPolyline
 66
     1
 10
0.0
 20
0.0
 30
0.0
  0
VERTEX
  5
2EF
330
2EE
100
AcDbEntity
  8
Capa 1
 62
     7
420
 16777215
370
     9
100
AcDbVertex
100
AcDb2dVertex
 10
67.10307597496075
 20
108.528139479314
 30
0.0
  0
VERTEX
  5
2F0
330
2EE
100
AcDbEntity
  8
Capa 1
 62
     7
420
 16777215
370
     9
100
AcDbVertex
100
AcDb2dVertex
 10
67.07132726687949
 20
108.9091401251741
 30
0.0
  0
VERTEX
  5
2F1
330
2EE
100
AcDbEntity
  8
Capa 1
 62
     7
420
 16777215
370
     9
100
AcDbVertex
100
AcDb2dVertex
 10
66.91257565203068
 20
109.2901407710343
 30
0.0
  0
VERTEX
  5
2F2
330
2EE
100
AcDbEntity
  8
Capa 1
 62
     7
420
 16777215
370
     9
100
AcDbVertex
100
AcDb2dVertex
 10
66.69032662101934
 20
109.6076440007319
 30
0.0
  0
VERTEX
  5
2F3
330
2EE
100
AcDbEntity
  8
Capa 1
 62
     7
420
 16777215
370
     9
100
AcDbVertex
100
AcDb2dVertex
 10
66.37282742854298
 20
109.8298930317432
 30
0.0
  0
VERTEX
  5
2F4
330
2EE
100
AcDbEntity
  8
Capa 1
 62
     7
420
 16777215
370
     9
100
AcDbVertex
100
AcDb2dVertex
 10
66.02357952798535
 20
109.9886446465921
 30
0.0
  0
VERTEX
  5
2F5
330
2EE
100
AcDbEntity
  8
Capa 1
 62
     7
420
 16777215
370
     9
100
AcDbVertex
100
AcDb2dVertex
 10
65.61082613682267
 20
110.0203933546733
 30
0.0
  0
SEQEND
  5
2F6
330
2EE
100
AcDbEntity
  8
Capa 1
 62
     7
420
 16777215
370
     9
  0
POLYLINE
  5
2F7
330
1F
100
AcDbEntity
  8
Capa 1
 62
     7
420
 16777215
370
     9
100
AcDb2dPolyline
 66
     1
 10
0.0
 20
0.0
 30
0.0
  0
VERTEX
  5
2F8
330
2F7
100
AcDbEntity
  8
Capa 1
 62
     7
420
 16777215
370
     9
100
AcDbVertex
100
AcDb2dVertex
 10
55.64132807718125
 20
110.0203933546733
 30
0.0
  0
VERTEX
  5
2F9
330
2F7
100
AcDbEntity
  8
Capa 1
 62
     7
420
 16777215
370
     9
100
AcDbVertex
100
AcDb2dVertex
 10
55.48257848094306
 20
109.9886446465921
 30
0.0
  0
VERTEX
  5
2FA
330
2F7
100
AcDbEntity
  8
Capa 1
 62
     7
420
 16777215
370
     9
100
AcDbVertex
100
AcDb2dVertex
 10
55.38732831947803
 20
109.8933904479058
 30
0.0
  0
VERTEX
  5
2FB
330
2F7
100
AcDbEntity
  8
Capa 1
 62
     7
420
 16777215
370
     9
100
AcDbVertex
100
AcDb2dVertex
 10
55.32382888470488
 20
109.7346388330569
 30
0.0
  0
VERTEX
  5
2FC
330
2F7
100
AcDbEntity
  8
Capa 1
 62
     7
420
 16777215
370
     9
100
AcDbVertex
100
AcDb2dVertex
 10
55.32382888470488
 20
109.7028901249757
 30
0.0
  0
SEQEND
  5
2FD
330
2F7
100
AcDbEntity
  8
Capa 1
 62
     7
420
 16777215
370
     9
  0
POLYLINE
  5
2FE
330
1F
100
AcDbEntity
  8
Capa 1
 62
     7
420
 16777215
370
     9
100
AcDb2dPolyline
 66
     1
 10
0.0
 20
0.0
 30
0.0
  0
VERTEX
  5
2FF
330
2FE
100
AcDbEntity
  8
Capa 1
 62
     7
420
 16777215
370
     9
100
AcDbVertex
100
AcDb2dVertex
 10
67.10307597496075
 20
84.93789659072097
 30
0.0
  0
VERTEX
  5
300
330
2FE
100
AcDbEntity
  8
Capa 1
 62
     7
420
 16777215
370
     9
100
AcDbVertex
100
AcDb2dVertex
 10
67.10307597496075
 20
108.528139479314
 30
0.0
  0
SEQEND
  5
301
330
2FE
100
AcDbEntity
  8
Capa 1
 62
     7
420
 16777215
370
     9
  0
POLYLINE
  5
302
330
1F
100
AcDbEntity
  8
Capa 1
 62
     7
420
 16777215
370
     9
100
AcDb2dPolyline
 66
     1
 10
0.0
 20
0.0
 30
0.0
  0
VERTEX
  5
303
330
302
100
AcDbEntity
  8
Capa 1
 62
     7
420
 16777215
370
     9
100
AcDbVertex
100
AcDb2dVertex
 10
65.61082613682267
 20
110.0203933546733
 30
0.0
  0
VERTEX
  5
304
330
302
100
AcDbEntity
  8
Capa 1
 62
     7
420
 16777215
370
     9
100
AcDbVertex
100
AcDb2dVertex
 10
55.64132807718125
 20
110.0203933546733
 30
0.0
  0
SEQEND
  5
305
330
302
100
AcDbEntity
  8
Capa 1
 62
     7
420
 16777215
370
     9
  0
POLYLINE
  5
306
330
1F
100
AcDbEntity
  8
Capa 1
 62
     7
420
 16777215
370
     9
100
AcDb2dPolyline
 66
     1
 10
0.0
 20
0.0
 30
0.0
  0
VERTEX
  5
307
330
306
100
AcDbEntity
  8
Capa 1
 62
     7
420
 16777215
370
     9
100
AcDbVertex
100
AcDb2dVertex
 10
65.61082613682267
 20
83.44564675258287
 30
0.0
  0
VERTEX
  5
308
330
306
100
AcDbEntity
  8
Capa 1
 62
     7
420
 16777215
370
     9
100
AcDbVertex
100
AcDb2dVertex
 10
66.02357952798535
 20
83.50914820596665
 30
0.0
  0
VERTEX
  5
309
330
306
100
AcDbEntity
  8
Capa 1
 62
     7
420
 16777215
370
     9
100
AcDbVertex
100
AcDb2dVertex
 10
66.37282742854298
 20
83.66789982081548
 30
0.0
  0
VERTEX
  5
30A
330
306
100
AcDbEntity
  8
Capa 1
 62
     7
420
 16777215
370
     9
100
AcDbVertex
100
AcDb2dVertex
 10
66.69032662101934
 20
83.89014885182681
 30
0.0
  0
VERTEX
  5
30B
330
306
100
AcDbEntity
  8
Capa 1
 62
     7
420
 16777215
370
     9
100
AcDbVertex
100
AcDb2dVertex
 10
66.91257565203068
 20
84.20764804430318
 30
0.0
  0
VERTEX
  5
30C
330
306
100
AcDbEntity
  8
Capa 1
 62
     7
420
 16777215
370
     9
100
AcDbVertex
100
AcDb2dVertex
 10
67.07132726687949
 20
84.55689998208207
 30
0.0
  0
VERTEX
  5
30D
330
306
100
AcDbEntity
  8
Capa 1
 62
     7
420
 16777215
370
     9
100
AcDbVertex
100
AcDb2dVertex
 10
67.10307597496075
 20
84.93789659072097
 30
0.0
  0
SEQEND
  5
30E
330
306
100
AcDbEntity
  8
Capa 1
 62
     7
420
 16777215
370
     9
  0
POLYLINE
  5
30F
330
1F
100
AcDbEntity
  8
Capa 1
 62
     7
420
 16777215
370
     9
100
AcDb2dPolyline
 66
     1
 10
0.0
 20
0.0
 30
0.0
  0
VERTEX
  5
310
330
30F
100
AcDbEntity
  8
Capa 1
 62
     7
420
 16777215
370
     9
100
AcDbVertex
100
AcDb2dVertex
 10
55.32382888470488
 20
83.76314998228051
 30
0.0
  0
VERTEX
  5
311
330
30F
100
AcDbEntity
  8
Capa 1
 62
     7
420
 16777215
370
     9
100
AcDbVertex
100
AcDb2dVertex
 10
55.38732831947803
 20
83.6043983674317
 30
0.0
  0
VERTEX
  5
312
330
30F
100
AcDbEntity
  8
Capa 1
 62
     7
420
 16777215
370
     9
100
AcDbVertex
100
AcDb2dVertex
 10
55.48257848094306
 20
83.50914820596665
 30
0.0
  0
VERTEX
  5
313
330
30F
100
AcDbEntity
  8
Capa 1
 62
     7
420
 16777215
370
     9
100
AcDbVertex
100
AcDb2dVertex
 10
55.64132807718125
 20
83.44564675258287
 30
0.0
  0
SEQEND
  5
314
330
30F
100
AcDbEntity
  8
Capa 1
 62
     7
420
 16777215
370
     9
  0
POLYLINE
  5
315
330
1F
100
AcDbEntity
  8
Capa 1
 62
     7
420
 16777215
370
     9
100
AcDb2dPolyline
 66
     1
 10
0.0
 20
0.0
 30
0.0
  0
VERTEX
  5
316
330
315
100
AcDbEntity
  8
Capa 1
 62
     7
420
 16777215
370
     9
100
AcDbVertex
100
AcDb2dVertex
 10
55.64132807718125
 20
83.44564675258287
 30
0.0
  0
VERTEX
  5
317
330
315
100
AcDbEntity
  8
Capa 1
 62
     7
420
 16777215
370
     9
100
AcDbVertex
100
AcDb2dVertex
 10
65.61082613682267
 20
83.44564675258287
 30
0.0
  0
SEQEND
  5
318
330
315
100
AcDbEntity
  8
Capa 1
 62
     7
420
 16777215
370
     9
  0
POLYLINE
  5
319
330
1F
100
AcDbEntity
  8
Capa 1
 62
     7
420
 16777215
370
     9
100
AcDb2dPolyline
 66
     1
 10
0.0
 20
0.0
 30
0.0
  0
VERTEX
  5
31A
330
319
100
AcDbEntity
  8
Capa 1
 62
     7
420
 16777215
370
     9
100
AcDbVertex
100
AcDb2dVertex
 10
55.32382888470488
 20
83.76314998228051
 30
0.0
  0
VERTEX
  5
31B
330
319
100
AcDbEntity
  8
Capa 1
 62
     7
420
 16777215
370
     9
100
AcDbVertex
100
AcDb2dVertex
 10
55.32382888470488
 20
83.79489869036178
 30
0.0
  0
SEQEND
  5
31C
330
319
100
AcDbEntity
  8
Capa 1
 62
     7
420
 16777215
370
     9
  0
POLYLINE
  5
31D
330
1F
100
AcDbEntity
  8
Capa 1
 62
     7
420
 16777215
370
     9
100
AcDb2dPolyline
 66
     1
 10
0.0
 20
0.0
 30
0.0
  0
VERTEX
  5
31E
330
31D
100
AcDbEntity
  8
Capa 1
 62
     7
420
 16777215
370
     9
100
AcDbVertex
100
AcDb2dVertex
 10
99.86907096061488
 20
96.74889642627936
 30
0.0
  0
VERTEX
  5
31F
330
31D
100
AcDbEntity
  8
Capa 1
 62
     7
420
 16777215
370
     9
100
AcDbVertex
100
AcDb2dVertex
 10
99.86907096061488
 20
97.28864868698834
 30
0.0
  0
VERTEX
  5
320
330
31D
100
AcDbEntity
  8
Capa 1
 62
     7
420
 16777215
370
     9
100
AcDbVertex
100
AcDb2dVertex
 10
99.80557354445237
 20
97.86014965577857
 30
0.0
  0
VERTEX
  5
321
330
31D
100
AcDbEntity
  8
Capa 1
 62
     7
420
 16777215
370
     9
100
AcDbVertex
100
AcDb2dVertex
 10
99.7103274202086
 20
98.39989787926626
 30
0.0
  0
VERTEX
  5
322
330
31D
100
AcDbEntity
  8
Capa 1
 62
     7
420
 16777215
370
     9
100
AcDbVertex
100
AcDb2dVertex
 10
99.6150732215223
 20
98.9713988480565
 30
0.0
  0
VERTEX
  5
323
330
31D
100
AcDbEntity
  8
Capa 1
 62
     7
420
 16777215
370
     9
100
AcDbVertex
100
AcDb2dVertex
 10
99.45632160667347
 20
99.5111470715442
 30
0.0
  0
VERTEX
  5
324
330
31D
100
AcDbEntity
  8
Capa 1
 62
     7
420
 16777215
370
     9
100
AcDbVertex
100
AcDb2dVertex
 10
99.26582128374339
 20
100.0191465869507
 30
0.0
  0
VERTEX
  5
325
330
31D
100
AcDbEntity
  8
Capa 1
 62
     7
420
 16777215
370
     9
100
AcDbVertex
100
AcDb2dVertex
 10
99.04357225273206
 20
100.5271461023571
 30
0.0
  0
VERTEX
  5
326
330
31D
100
AcDbEntity
  8
Capa 1
 62
     7
420
 16777215
370
     9
100
AcDbVertex
100
AcDb2dVertex
 10
98.78957451363947
 20
101.0351496549848
 30
0.0
  0
VERTEX
  5
327
330
31D
100
AcDbEntity
  8
Capa 1
 62
     7
420
 16777215
370
     9
100
AcDbVertex
100
AcDb2dVertex
 10
98.50382806646563
 20
101.5113964250887
 30
0.0
  0
VERTEX
  5
328
330
31D
100
AcDbEntity
  8
Capa 1
 62
     7
420
 16777215
370
     9
100
AcDbVertex
100
AcDb2dVertex
 10
98.18632483676798
 20
101.9876431951927
 30
0.0
  0
VERTEX
  5
329
330
31D
100
AcDbEntity
  8
Capa 1
 62
     7
420
 16777215
370
     9
100
AcDbVertex
100
AcDb2dVertex
 10
97.86882160707034
 20
102.4321452944366
 30
0.0
  0
VERTEX
  5
32A
330
31D
100
AcDbEntity
  8
Capa 1
 62
     7
420
 16777215
370
     9
100
AcDbVertex
100
AcDb2dVertex
 10
97.48782096121019
 20
102.844894648378
 30
0.0
  0
VERTEX
  5
32B
330
31D
100
AcDbEntity
  8
Capa 1
 62
     7
420
 16777215
370
     9
100
AcDbVertex
100
AcDb2dVertex
 10
97.10682838979258
 20
103.2576440023194
 30
0.0
  0
VERTEX
  5
32C
330
31D
100
AcDbEntity
  8
Capa 1
 62
     7
420
 16777215
370
     9
100
AcDbVertex
100
AcDb2dVertex
 10
96.69407096140863
 20
103.6386446481796
 30
0.0
  0
VERTEX
  5
32D
330
31D
100
AcDbEntity
  8
Capa 1
 62
     7
420
 16777215
370
     9
100
AcDbVertex
100
AcDb2dVertex
 10
96.24957289938597
 20
103.9878925487372
 30
0.0
  0
VERTEX
  5
32E
330
31D
100
AcDbEntity
  8
Capa 1
 62
     7
420
 16777215
370
     9
100
AcDbVertex
100
AcDb2dVertex
 10
95.77332612928204
 20
104.3053917412136
 30
0.0
  0
VERTEX
  5
32F
330
31D
100
AcDbEntity
  8
Capa 1
 62
     7
420
 16777215
370
     9
100
AcDbVertex
100
AcDb2dVertex
 10
95.29707128473558
 20
104.5911381883874
 30
0.0
  0
VERTEX
  5
330
330
31D
100
AcDbEntity
  8
Capa 1
 62
     7
420
 16777215
370
     9
100
AcDbVertex
100
AcDb2dVertex
 10
94.82082451463165
 20
104.8451440019225
 30
0.0
  0
VERTEX
  5
331
330
31D
100
AcDbEntity
  8
Capa 1
 62
     7
420
 16777215
370
     9
100
AcDbVertex
100
AcDb2dVertex
 10
94.31282903644649
 20
105.0673930329339
 30
0.0
  0
VERTEX
  5
332
330
31D
100
AcDbEntity
  8
Capa 1
 62
     7
420
 16777215
370
     9
100
AcDbVertex
100
AcDb2dVertex
 10
93.77307677573751
 20
105.2578933558639
 30
0.0
  0
VERTEX
  5
333
330
31D
100
AcDbEntity
  8
Capa 1
 62
     7
420
 16777215
370
     9
100
AcDbVertex
100
AcDb2dVertex
 10
93.23332451502853
 20
105.448393678794
 30
0.0
  0
VERTEX
  5
334
330
31D
100
AcDbEntity
  8
Capa 1
 62
     7
420
 16777215
370
     9
100
AcDbVertex
100
AcDb2dVertex
 10
92.69357225431956
 20
105.575388511119
 30
0.0
  0
VERTEX
  5
335
330
31D
100
AcDbEntity
  8
Capa 1
 62
     7
420
 16777215
370
     9
100
AcDbVertex
100
AcDb2dVertex
 10
92.15382806805313
 20
105.6706427098053
 30
0.0
  0
VERTEX
  5
336
330
31D
100
AcDbEntity
  8
Capa 1
 62
     7
420
 16777215
370
     9
100
AcDbVertex
100
AcDb2dVertex
 10
91.5823270992629
 20
105.7341401259679
 30
0.0
  0
VERTEX
  5
337
330
31D
100
AcDbEntity
  8
Capa 1
 62
     7
420
 16777215
370
     9
100
AcDbVertex
100
AcDb2dVertex
 10
90.47107790698496
 20
105.7658888340491
 30
0.0
  0
VERTEX
  5
338
330
31D
100
AcDbEntity
  8
Capa 1
 62
     7
420
 16777215
370
     9
100
AcDbVertex
100
AcDb2dVertex
 10
87.10557758484863
 20
105.7658888340491
 30
0.0
  0
VERTEX
  5
339
330
31D
100
AcDbEntity
  8
Capa 1
 62
     7
420
 16777215
370
     9
100
AcDbVertex
100
AcDb2dVertex
 10
82.62882807043438
 20
105.7976456165729
 30
0.0
  0
VERTEX
  5
33A
330
31D
100
AcDbEntity
  8
Capa 1
 62
     7
420
 16777215
370
     9
100
AcDbVertex
100
AcDb2dVertex
 10
80.40632564865724
 20
105.7976456165729
 30
0.0
  0
VERTEX
  5
33B
330
31D
100
AcDbEntity
  8
Capa 1
 62
     7
420
 16777215
370
     9
100
AcDbVertex
100
AcDb2dVertex
 10
79.83482871708829
 20
105.7658888340491
 30
0.0
  0
VERTEX
  5
33C
330
31D
100
AcDbEntity
  8
Capa 1
 62
     7
420
 16777215
370
     9
100
AcDbVertex
100
AcDb2dVertex
 10
79.2950764563793
 20
105.6706427098053
 30
0.0
  0
VERTEX
  5
33D
330
31D
100
AcDbEntity
  8
Capa 1
 62
     7
420
 16777215
370
     9
100
AcDbVertex
100
AcDb2dVertex
 10
78.78707694097415
 20
105.4801423868753
 30
0.0
  0
VERTEX
  5
33E
330
31D
100
AcDbEntity
  8
Capa 1
 62
     7
420
 16777215
370
     9
100
AcDbVertex
100
AcDb2dVertex
 10
78.27907742556641
 20
105.1943878652589
 30
0.0
  0
VERTEX
  5
33F
330
31D
100
AcDbEntity
  8
Capa 1
 62
     7
420
 16777215
370
     9
100
AcDbVertex
100
AcDb2dVertex
 10
77.866328071625
 20
104.8451440019225
 30
0.0
  0
VERTEX
  5
340
330
31D
100
AcDbEntity
  8
Capa 1
 62
     7
420
 16777215
370
     9
100
AcDbVertex
100
AcDb2dVertex
 10
77.48532742576485
 20
104.4323946479811
 30
0.0
  0
VERTEX
  5
341
330
31D
100
AcDbEntity
  8
Capa 1
 62
     7
420
 16777215
370
     9
100
AcDbVertex
100
AcDb2dVertex
 10
77.19957694137102
 20
103.9561438406559
 30
0.0
  0
VERTEX
  5
342
330
31D
100
AcDbEntity
  8
Capa 1
 62
     7
420
 16777215
370
     9
100
AcDbVertex
100
AcDb2dVertex
 10
76.9773279103584
 20
103.4481443252495
 30
0.0
  0
VERTEX
  5
343
330
31D
100
AcDbEntity
  8
Capa 1
 62
     7
420
 16777215
370
     9
100
AcDbVertex
100
AcDb2dVertex
 10
76.81857629550957
 20
102.8766433564593
 30
0.0
  0
VERTEX
  5
344
330
31D
100
AcDbEntity
  8
Capa 1
 62
     7
420
 16777215
370
     9
100
AcDbVertex
100
AcDb2dVertex
 10
76.78682758742832
 20
102.3368951329715
 30
0.0
  0
VERTEX
  5
345
330
31D
100
AcDbEntity
  8
Capa 1
 62
     7
420
 16777215
370
     9
100
AcDbVertex
100
AcDb2dVertex
 10
76.72332613404454
 20
101.2256459406936
 30
0.0
  0
VERTEX
  5
346
330
31D
100
AcDbEntity
  8
Capa 1
 62
     7
420
 16777215
370
     9
100
AcDbVertex
100
AcDb2dVertex
 10
76.62807597257951
 20
98.9713988480565
 30
0.0
  0
VERTEX
  5
347
330
31D
100
AcDbEntity
  8
Capa 1
 62
     7
420
 16777215
370
     9
100
AcDbVertex
100
AcDb2dVertex
 10
76.59632726449824
 20
96.74889642627936
 30
0.0
  0
VERTEX
  5
348
330
31D
100
AcDbEntity
  8
Capa 1
 62
     7
420
 16777215
370
     9
100
AcDbVertex
100
AcDb2dVertex
 10
76.62807597257951
 20
94.49464933364224
 30
0.0
  0
VERTEX
  5
349
330
31D
100
AcDbEntity
  8
Capa 1
 62
     7
420
 16777215
370
     9
100
AcDbVertex
100
AcDb2dVertex
 10
76.72332613404454
 20
92.2721469118651
 30
0.0
  0
VERTEX
  5
34A
330
31D
100
AcDbEntity
  8
Capa 1
 62
     7
420
 16777215
370
     9
100
AcDbVertex
100
AcDb2dVertex
 10
76.78682758742832
 20
91.16089771958717
 30
0.0
  0
VERTEX
  5
34B
330
31D
100
AcDbEntity
  8
Capa 1
 62
     7
420
 16777215
370
     9
100
AcDbVertex
100
AcDb2dVertex
 10
76.81857629550957
 20
90.58939675079694
 30
0.0
  0
VERTEX
  5
34C
330
31D
100
AcDbEntity
  8
Capa 1
 62
     7
420
 16777215
370
     9
100
AcDbVertex
100
AcDb2dVertex
 10
76.9773279103584
 20
90.04964852730923
 30
0.0
  0
VERTEX
  5
34D
330
31D
100
AcDbEntity
  8
Capa 1
 62
     7
420
 16777215
370
     9
100
AcDbVertex
100
AcDb2dVertex
 10
77.19957694137102
 20
89.54164901190279
 30
0.0
  0
VERTEX
  5
34E
330
31D
100
AcDbEntity
  8
Capa 1
 62
     7
420
 16777215
370
     9
100
AcDbVertex
100
AcDb2dVertex
 10
77.48532742576485
 20
89.06539820457759
 30
0.0
  0
VERTEX
  5
34F
330
31D
100
AcDbEntity
  8
Capa 1
 62
     7
420
 16777215
370
     9
100
AcDbVertex
100
AcDb2dVertex
 10
77.866328071625
 20
88.65264885063618
 30
0.0
  0
VERTEX
  5
350
330
31D
100
AcDbEntity
  8
Capa 1
 62
     7
420
 16777215
370
     9
100
AcDbVertex
100
AcDb2dVertex
 10
78.27907742556641
 20
88.30339691285728
 30
0.0
  0
VERTEX
  5
351
330
31D
100
AcDbEntity
  8
Capa 1
 62
     7
420
 16777215
370
     9
100
AcDbVertex
100
AcDb2dVertex
 10
78.78707694097415
 20
88.01764642846217
 30
0.0
  0
VERTEX
  5
352
330
31D
100
AcDbEntity
  8
Capa 1
 62
     7
420
 16777215
370
     9
100
AcDbVertex
100
AcDb2dVertex
 10
79.2950764563793
 20
87.8271461055321
 30
0.0
  0
VERTEX
  5
353
330
31D
100
AcDbEntity
  8
Capa 1
 62
     7
420
 16777215
370
     9
100
AcDbVertex
100
AcDb2dVertex
 10
79.83482871708829
 20
87.7001472359858
 30
0.0
  0
VERTEX
  5
354
330
31D
100
AcDbEntity
  8
Capa 1
 62
     7
420
 16777215
370
     9
100
AcDbVertex
100
AcDb2dVertex
 10
80.40632564865724
 20
87.66839852790454
 30
0.0
  0
VERTEX
  5
355
330
31D
100
AcDbEntity
  8
Capa 1
 62
     7
420
 16777215
370
     9
100
AcDbVertex
100
AcDb2dVertex
 10
82.62882807043438
 20
87.7001472359858
 30
0.0
  0
VERTEX
  5
356
330
31D
100
AcDbEntity
  8
Capa 1
 62
     7
420
 16777215
370
     9
100
AcDbVertex
100
AcDb2dVertex
 10
87.10557758484863
 20
87.7001472359858
 30
0.0
  0
VERTEX
  5
357
330
31D
100
AcDbEntity
  8
Capa 1
 62
     7
420
 16777215
370
     9
100
AcDbVertex
100
AcDb2dVertex
 10
89.35982871470704
 20
87.73189594406706
 30
0.0
  0
VERTEX
  5
358
330
31D
100
AcDbEntity
  8
Capa 1
 62
     7
420
 16777215
370
     9
100
AcDbVertex
100
AcDb2dVertex
 10
90.47107790698496
 20
87.73189594406706
 30
0.0
  0
VERTEX
  5
359
330
31D
100
AcDbEntity
  8
Capa 1
 62
     7
420
 16777215
370
     9
100
AcDbVertex
100
AcDb2dVertex
 10
91.5823270992629
 20
87.76364868936959
 30
0.0
  0
VERTEX
  5
35A
330
31D
100
AcDbEntity
  8
Capa 1
 62
     7
420
 16777215
370
     9
100
AcDbVertex
100
AcDb2dVertex
 10
92.15382806805313
 20
87.8271461055321
 30
0.0
  0
VERTEX
  5
35B
330
31D
100
AcDbEntity
  8
Capa 1
 62
     7
420
 16777215
370
     9
100
AcDbVertex
100
AcDb2dVertex
 10
92.69357225431956
 20
87.92239626699714
 30
0.0
  0
VERTEX
  5
35C
330
31D
100
AcDbEntity
  8
Capa 1
 62
     7
420
 16777215
370
     9
100
AcDbVertex
100
AcDb2dVertex
 10
93.23332451502853
 20
88.0493991737647
 30
0.0
  0
VERTEX
  5
35D
330
31D
100
AcDbEntity
  8
Capa 1
 62
     7
420
 16777215
370
     9
100
AcDbVertex
100
AcDb2dVertex
 10
93.77307677573751
 20
88.20814675139225
 30
0.0
  0
VERTEX
  5
35E
330
31D
100
AcDbEntity
  8
Capa 1
 62
     7
420
 16777215
370
     9
100
AcDbVertex
100
AcDb2dVertex
 10
94.31282903644649
 20
88.39864707432233
 30
0.0
  0
VERTEX
  5
35F
330
31D
100
AcDbEntity
  8
Capa 1
 62
     7
420
 16777215
370
     9
100
AcDbVertex
100
AcDb2dVertex
 10
94.82082451463165
 20
88.65264885063618
 30
0.0
  0
VERTEX
  5
360
330
31D
100
AcDbEntity
  8
Capa 1
 62
     7
420
 16777215
370
     9
100
AcDbVertex
100
AcDb2dVertex
 10
95.29707128473558
 20
88.90664658972878
 30
0.0
  0
VERTEX
  5
361
330
31D
100
AcDbEntity
  8
Capa 1
 62
     7
420
 16777215
370
     9
100
AcDbVertex
100
AcDb2dVertex
 10
95.77332612928204
 20
89.19239707412389
 30
0.0
  0
VERTEX
  5
362
330
31D
100
AcDbEntity
  8
Capa 1
 62
     7
420
 16777215
370
     9
100
AcDbVertex
100
AcDb2dVertex
 10
96.24957289938597
 20
89.50989626660026
 30
0.0
  0
VERTEX
  5
363
330
31D
100
AcDbEntity
  8
Capa 1
 62
     7
420
 16777215
370
     9
100
AcDbVertex
100
AcDb2dVertex
 10
96.69407096140863
 20
89.85914820437915
 30
0.0
  0
VERTEX
  5
364
330
31D
100
AcDbEntity
  8
Capa 1
 62
     7
420
 16777215
370
     9
100
AcDbVertex
100
AcDb2dVertex
 10
97.10682838979258
 20
90.24014885023931
 30
0.0
  0
VERTEX
  5
365
330
31D
100
AcDbEntity
  8
Capa 1
 62
     7
420
 16777215
370
     9
100
AcDbVertex
100
AcDb2dVertex
 10
97.48782096121019
 20
90.62114949609946
 30
0.0
  0
VERTEX
  5
366
330
31D
100
AcDbEntity
  8
Capa 1
 62
     7
420
 16777215
370
     9
100
AcDbVertex
100
AcDb2dVertex
 10
97.86882160707034
 20
91.06564755812212
 30
0.0
  0
VERTEX
  5
367
330
31D
100
AcDbEntity
  8
Capa 1
 62
     7
420
 16777215
370
     9
100
AcDbVertex
100
AcDb2dVertex
 10
98.18632483676798
 20
91.51014965736607
 30
0.0
  0
VERTEX
  5
368
330
31D
100
AcDbEntity
  8
Capa 1
 62
     7
420
 16777215
370
     9
100
AcDbVertex
100
AcDb2dVertex
 10
98.50382806646563
 20
91.95464771938873
 30
0.0
  0
VERTEX
  5
369
330
31D
100
AcDbEntity
  8
Capa 1
 62
     7
420
 16777215
370
     9
100
AcDbVertex
100
AcDb2dVertex
 10
98.78957451363947
 20
92.46264723479517
 30
0.0
  0
VERTEX
  5
36A
330
31D
100
AcDbEntity
  8
Capa 1
 62
     7
420
 16777215
370
     9
100
AcDbVertex
100
AcDb2dVertex
 10
99.04357225273206
 20
92.93889804212037
 30
0.0
  0
VERTEX
  5
36B
330
31D
100
AcDbEntity
  8
Capa 1
 62
     7
420
 16777215
370
     9
100
AcDbVertex
100
AcDb2dVertex
 10
99.26582128374339
 20
93.47864626560808
 30
0.0
  0
VERTEX
  5
36C
330
31D
100
AcDbEntity
  8
Capa 1
 62
     7
420
 16777215
370
     9
100
AcDbVertex
100
AcDb2dVertex
 10
99.45632160667347
 20
93.98664981823579
 30
0.0
  0
VERTEX
  5
36D
330
31D
100
AcDbEntity
  8
Capa 1
 62
     7
420
 16777215
370
     9
100
AcDbVertex
100
AcDb2dVertex
 10
99.6150732215223
 20
94.5263980417235
 30
0.0
  0
VERTEX
  5
36E
330
31D
100
AcDbEntity
  8
Capa 1
 62
     7
420
 16777215
370
     9
100
AcDbVertex
100
AcDb2dVertex
 10
99.7103274202086
 20
95.0661462652112
 30
0.0
  0
VERTEX
  5
36F
330
31D
100
AcDbEntity
  8
Capa 1
 62
     7
420
 16777215
370
     9
100
AcDbVertex
100
AcDb2dVertex
 10
99.80557354445237
 20
95.63764723400142
 30
0.0
  0
VERTEX
  5
370
330
31D
100
AcDbEntity
  8
Capa 1
 62
     7
420
 16777215
370
     9
100
AcDbVertex
100
AcDb2dVertex
 10
99.86907096061488
 20
96.1773994947104
 30
0.0
  0
VERTEX
  5
371
330
31D
100
AcDbEntity
  8
Capa 1
 62
     7
420
 16777215
370
     9
100
AcDbVertex
100
AcDb2dVertex
 10
99.86907096061488
 20
96.74889642627936
 30
0.0
  0
SEQEND
  5
372
330
31D
100
AcDbEntity
  8
Capa 1
 62
     7
420
 16777215
370
     9
  0
POLYLINE
  5
373
330
1F
100
AcDbEntity
  8
Capa 1
 62
     7
420
 16777215
370
     9
100
AcDb2dPolyline
 66
     1
 10
0.0
 20
0.0
 30
0.0
  0
VERTEX
  5
374
330
373
100
AcDbEntity
  8
Capa 1
 62
     7
420
 16777215
370
     9
100
AcDbVertex
100
AcDb2dVertex
 10
155.8019940728524
 20
165.8686397879565
 30
0.0
  0
VERTEX
  5
375
330
373
100
AcDbEntity
  8
Capa 1
 62
     7
420
 16777215
370
     9
100
AcDbVertex
100
AcDb2dVertex
 10
155.8019940728524
 20
166.3448865580605
 30
0.0
  0
SEQEND
  5
376
330
373
100
AcDbEntity
  8
Capa 1
 62
     7
420
 16777215
370
     9
  0
POLYLINE
  5
377
330
1F
100
AcDbEntity
  8
Capa 1
 62
     7
420
 16777215
370
     9
100
AcDb2dPolyline
 66
     1
 10
0.0
 20
0.0
 30
0.0
  0
VERTEX
  5
378
330
377
100
AcDbEntity
  8
Capa 1
 62
     7
420
 16777215
370
     9
100
AcDbVertex
100
AcDb2dVertex
 10
155.8019940728524
 20
162.5983936645065
 30
0.0
  0
VERTEX
  5
379
330
377
100
AcDbEntity
  8
Capa 1
 62
     7
420
 16777215
370
     9
100
AcDbVertex
100
AcDb2dVertex
 10
155.8019940728524
 20
165.3923930178526
 30
0.0
  0
SEQEND
  5
37A
330
377
100
AcDbEntity
  8
Capa 1
 62
     7
420
 16777215
370
     9
  0
POLYLINE
  5
37B
330
1F
100
AcDbEntity
  8
Capa 1
 62
     7
420
 16777215
370
     9
100
AcDb2dPolyline
 66
     1
 10
0.0
 20
0.0
 30
0.0
  0
VERTEX
  5
37C
330
37B
100
AcDbEntity
  8
Capa 1
 62
     7
420
 16777215
370
     9
100
AcDbVertex
100
AcDb2dVertex
 10
155.8019940728524
 20
161.6458920498561
 30
0.0
  0
VERTEX
  5
37D
330
37B
100
AcDbEntity
  8
Capa 1
 62
     7
420
 16777215
370
     9
100
AcDbVertex
100
AcDb2dVertex
 10
155.8019940728524
 20
162.1221388199601
 30
0.0
  0
SEQEND
  5
37E
330
37B
100
AcDbEntity
  8
Capa 1
 62
     7
420
 16777215
370
     9
  0
POLYLINE
  5
37F
330
1F
100
AcDbEntity
  8
Capa 1
 62
     7
420
 16777215
370
     9
100
AcDb2dPolyline
 66
     1
 10
0.0
 20
0.0
 30
0.0
  0
VERTEX
  5
380
330
37F
100
AcDbEntity
  8
Capa 1
 62
     7
420
 16777215
370
     9
100
AcDbVertex
100
AcDb2dVertex
 10
155.8019940728524
 20
158.3756378519636
 30
0.0
  0
VERTEX
  5
381
330
37F
100
AcDbEntity
  8
Capa 1
 62
     7
420
 16777215
370
     9
100
AcDbVertex
100
AcDb2dVertex
 10
155.8019940728524
 20
161.1696372053097
 30
0.0
  0
SEQEND
  5
382
330
37F
100
AcDbEntity
  8
Capa 1
 62
     7
420
 16777215
370
     9
  0
POLYLINE
  5
383
330
1F
100
AcDbEntity
  8
Capa 1
 62
     7
420
 16777215
370
     9
100
AcDb2dPolyline
 66
     1
 10
0.0
 20
0.0
 30
0.0
  0
VERTEX
  5
384
330
383
100
AcDbEntity
  8
Capa 1
 62
     7
420
 16777215
370
     9
100
AcDbVertex
100
AcDb2dVertex
 10
155.8019940728524
 20
157.4231443117557
 30
0.0
  0
VERTEX
  5
385
330
383
100
AcDbEntity
  8
Capa 1
 62
     7
420
 16777215
370
     9
100
AcDbVertex
100
AcDb2dVertex
 10
155.8019940728524
 20
157.8993910818596
 30
0.0
  0
SEQEND
  5
386
330
383
100
AcDbEntity
  8
Capa 1
 62
     7
420
 16777215
370
     9
  0
POLYLINE
  5
387
330
1F
100
AcDbEntity
  8
Capa 1
 62
     7
420
 16777215
370
     9
100
AcDb2dPolyline
 66
     1
 10
0.0
 20
0.0
 30
0.0
  0
VERTEX
  5
388
330
387
100
AcDbEntity
  8
Capa 1
 62
     7
420
 16777215
370
     9
100
AcDbVertex
100
AcDb2dVertex
 10
155.8019940728524
 20
154.1528901138632
 30
0.0
  0
VERTEX
  5
389
330
387
100
AcDbEntity
  8
Capa 1
 62
     7
420
 16777215
370
     9
100
AcDbVertex
100
AcDb2dVertex
 10
155.8019940728524
 20
156.9468894672093
 30
0.0
  0
SEQEND
  5
38A
330
387
100
AcDbEntity
  8
Capa 1
 62
     7
420
 16777215
370
     9
  0
POLYLINE
  5
38B
330
1F
100
AcDbEntity
  8
Capa 1
 62
     7
420
 16777215
370
     9
100
AcDb2dPolyline
 66
     1
 10
0.0
 20
0.0
 30
0.0
  0
VERTEX
  5
38C
330
38B
100
AcDbEntity
  8
Capa 1
 62
     7
420
 16777215
370
     9
100
AcDbVertex
100
AcDb2dVertex
 10
155.8019940728524
 20
153.2003884992128
 30
0.0
  0
VERTEX
  5
38D
330
38B
100
AcDbEntity
  8
Capa 1
 62
     7
420
 16777215
370
     9
100
AcDbVertex
100
AcDb2dVertex
 10
155.8019940728524
 20
153.6766433437593
 30
0.0
  0
SEQEND
  5
38E
330
38B
100
AcDbEntity
  8
Capa 1
 62
     7
420
 16777215
370
     9
  0
POLYLINE
  5
38F
330
1F
100
AcDbEntity
  8
Capa 1
 62
     7
420
 16777215
370
     9
100
AcDb2dPolyline
 66
     1
 10
0.0
 20
0.0
 30
0.0
  0
VERTEX
  5
390
330
38F
100
AcDbEntity
  8
Capa 1
 62
     7
420
 16777215
370
     9
100
AcDbVertex
100
AcDb2dVertex
 10
155.8019940728524
 20
149.9301423757628
 30
0.0
  0
VERTEX
  5
391
330
38F
100
AcDbEntity
  8
Capa 1
 62
     7
420
 16777215
370
     9
100
AcDbVertex
100
AcDb2dVertex
 10
155.8019940728524
 20
152.7558904371901
 30
0.0
  0
SEQEND
  5
392
330
38F
100
AcDbEntity
  8
Capa 1
 62
     7
420
 16777215
370
     9
  0
POLYLINE
  5
393
330
1F
100
AcDbEntity
  8
Capa 1
 62
     7
420
 16777215
370
     9
100
AcDb2dPolyline
 66
     1
 10
0.0
 20
0.0
 30
0.0
  0
VERTEX
  5
394
330
393
100
AcDbEntity
  8
Capa 1
 62
     7
420
 16777215
370
     9
100
AcDbVertex
100
AcDb2dVertex
 10
155.8019940728524
 20
148.9776407611124
 30
0.0
  0
VERTEX
  5
395
330
393
100
AcDbEntity
  8
Capa 1
 62
     7
420
 16777215
370
     9
100
AcDbVertex
100
AcDb2dVertex
 10
155.8019940728524
 20
149.4538875312163
 30
0.0
  0
SEQEND
  5
396
330
393
100
AcDbEntity
  8
Capa 1
 62
     7
420
 16777215
370
     9
  0
POLYLINE
  5
397
330
1F
100
AcDbEntity
  8
Capa 1
 62
     7
420
 16777215
370
     9
100
AcDb2dPolyline
 66
     1
 10
0.0
 20
0.0
 30
0.0
  0
VERTEX
  5
398
330
397
100
AcDbEntity
  8
Capa 1
 62
     7
420
 16777215
370
     9
100
AcDbVertex
100
AcDb2dVertex
 10
155.8019940728524
 20
147.0408888237304
 30
0.0
  0
VERTEX
  5
399
330
397
100
AcDbEntity
  8
Capa 1
 62
     7
420
 16777215
370
     9
100
AcDbVertex
100
AcDb2dVertex
 10
155.8019940728524
 20
148.5331426990897
 30
0.0
  0
SEQEND
  5
39A
330
397
100
AcDbEntity
  8
Capa 1
 62
     7
420
 16777215
370
     9
  0
POLYLINE
  5
39B
330
1F
100
AcDbEntity
  8
Capa 1
 62
     7
420
 16777215
370
     9
100
AcDb2dPolyline
 66
     1
 10
0.0
 20
0.0
 30
0.0
  0
VERTEX
  5
39C
330
39B
100
AcDbEntity
  8
Capa 1
 62
     7
420
 16777215
370
     9
100
AcDbVertex
100
AcDb2dVertex
 10
155.8019940728524
 20
166.7893926945257
 30
0.0
  0
VERTEX
  5
39D
330
39B
100
AcDbEntity
  8
Capa 1
 62
     7
420
 16777215
370
     9
100
AcDbVertex
100
AcDb2dVertex
 10
155.8019940728524
 20
168.2816384954425
 30
0.0
  0
SEQEND
  5
39E
330
39B
100
AcDbEntity
  8
Capa 1
 62
     7
420
 16777215
370
     9
  0
POLYLINE
  5
39F
330
1F
100
AcDbEntity
  8
Capa 1
 62
     7
420
 16777215
370
     9
100
AcDb2dPolyline
 66
     1
 10
0.0
 20
0.0
 30
0.0
  0
VERTEX
  5
3A0
330
39F
100
AcDbEntity
  8
Capa 1
 62
     7
420
 16777215
370
     9
100
AcDbVertex
100
AcDb2dVertex
 10
176.4077292107266
 20
206.1911381629874
 30
0.0
  0
VERTEX
  5
3A1
330
39F
100
AcDbEntity
  8
Capa 1
 62
     7
420
 16777215
370
     9
100
AcDbVertex
100
AcDb2dVertex
 10
176.4077292107266
 20
180.3148913992335
 30
0.0
  0
SEQEND
  5
3A2
330
39F
100
AcDbEntity
  8
Capa 1
 62
     7
420
 16777215
370
     9
  0
POLYLINE
  5
3A3
330
1F
100
AcDbEntity
  8
Capa 1
 62
     7
420
 16777215
370
     9
100
AcDb2dPolyline
 66
     1
 10
0.0
 20
0.0
 30
0.0
  0
VERTEX
  5
3A4
330
3A3
100
AcDbEntity
  8
Capa 1
 62
     7
420
 16777215
370
     9
100
AcDbVertex
100
AcDb2dVertex
 10
176.4077292107266
 20
149.9936397919253
 30
0.0
  0
VERTEX
  5
3A5
330
3A3
100
AcDbEntity
  8
Capa 1
 62
     7
420
 16777215
370
     9
100
AcDbVertex
100
AcDb2dVertex
 10
176.4077292107266
 20
176.5683823567945
 30
0.0
  0
SEQEND
  5
3A6
330
3A3
100
AcDbEntity
  8
Capa 1
 62
     7
420
 16777215
370
     9
  0
POLYLINE
  5
3A7
330
1F
100
AcDbEntity
  8
Capa 1
 62
     7
420
 16777215
370
     9
100
AcDb2dPolyline
 66
     1
 10
0.0
 20
0.0
 30
0.0
  0
VERTEX
  5
3A8
330
3A7
100
AcDbEntity
  8
Capa 1
 62
     7
420
 16777215
370
     9
100
AcDbVertex
100
AcDb2dVertex
 10
156.9449879359903
 20
207.5563810571367
 30
0.0
  0
VERTEX
  5
3A9
330
3A7
100
AcDbEntity
  8
Capa 1
 62
     7
420
 16777215
370
     9
100
AcDbVertex
100
AcDb2dVertex
 10
177.169730502447
 20
207.5563810571367
 30
0.0
  0
SEQEND
  5
3AA
330
3A7
100
AcDbEntity
  8
Capa 1
 62
     7
420
 16777215
370
     9
  0
POLYLINE
  5
3AB
330
1F
100
AcDbEntity
  8
Capa 1
 62
     7
420
 16777215
370
     9
100
AcDb2dPolyline
 66
     1
 10
0.0
 20
0.0
 30
0.0
  0
VERTEX
  5
3AC
330
3AB
100
AcDbEntity
  8
Capa 1
 62
     7
420
 16777215
370
     9
100
AcDbVertex
100
AcDb2dVertex
 10
165.1682424556223
 20
148.6283888233335
 30
0.0
  0
VERTEX
  5
3AD
330
3AB
100
AcDbEntity
  8
Capa 1
 62
     7
420
 16777215
370
     9
100
AcDbVertex
100
AcDb2dVertex
 10
177.169730502447
 20
148.6283888233335
 30
0.0
  0
SEQEND
  5
3AE
330
3AB
100
AcDbEntity
  8
Capa 1
 62
     7
420
 16777215
370
     9
  0
POLYLINE
  5
3AF
330
1F
100
AcDbEntity
  8
Capa 1
370
     0
100
AcDb2dPolyline
 66
     1
 10
0.0
 20
0.0
 30
0.0
  0
VERTEX
  5
3B0
330
3AF
100
AcDbEntity
  8
Capa 1
370
     0
100
AcDbVertex
100
AcDb2dVertex
 10
176.1854882541578
 20
149.9936397919253
 30
0.0
  0
VERTEX
  5
3B1
330
3AF
100
AcDbEntity
  8
Capa 1
370
     0
100
AcDbVertex
100
AcDb2dVertex
 10
176.6299863161805
 20
149.9936397919253
 30
0.0
  0
VERTEX
  5
3B2
330
3AF
100
AcDbEntity
  8
Capa 1
370
     0
100
AcDbVertex
100
AcDb2dVertex
 10
176.4077292107266
 20
148.6283888233335
 30
0.0
  0
SEQEND
  5
3B4
330
3AF
100
AcDbEntity
  8
Capa 1
370
     0
  0
HATCH
  5
3B3
330
1F
100
AcDbEntity
  8
Capa 1
 62
     7
420
 16777215
100
AcDbHatch
 10
0.0
 20
0.0
 30
0.0
210
0.0
220
0.0
230
1.0
  2
SOLID
 70
     1
 71
     0
 91
        1
 92
        1
 93
        3
 72
     1
 10
176.1854882541578
 20
149.9936397919253
 11
176.6299863161805
 21
149.9936397919253
 72
     1
 10
176.6299863161805
 20
149.9936397919253
 11
176.4077292107266
 21
148.6283888233335
 72
     1
 10
176.4077292107266
 20
148.6283888233335
 11
176.1854882541579
 21
149.9936397919253
 97
        0
 75
     0
 76
     1
 98
        0
  0
POLYLINE
  5
3B5
330
1F
100
AcDbEntity
  8
Capa 1
370
     0
100
AcDb2dPolyline
 66
     1
 10
0.0
 20
0.0
 30
0.0
  0
VERTEX
  5
3B6
330
3B5
100
AcDbEntity
  8
Capa 1
370
     0
100
AcDbVertex
100
AcDb2dVertex
 10
176.1854882541578
 20
206.1911381629874
 30
0.0
  0
VERTEX
  5
3B7
330
3B5
100
AcDbEntity
  8
Capa 1
370
     0
100
AcDbVertex
100
AcDb2dVertex
 10
176.6299863161805
 20
206.1911381629874
 30
0.0
  0
VERTEX
  5
3B8
330
3B5
100
AcDbEntity
  8
Capa 1
370
     0
100
AcDbVertex
100
AcDb2dVertex
 10
176.4077292107266
 20
207.5563810571367
 30
0.0
  0
SEQEND
  5
3BA
330
3B5
100
AcDbEntity
  8
Capa 1
370
     0
  0
HATCH
  5
3B9
330
1F
100
AcDbEntity
  8
Capa 1
 62
     7
420
 16777215
100
AcDbHatch
 10
0.0
 20
0.0
 30
0.0
210
0.0
220
0.0
230
1.0
  2
SOLID
 70
     1
 71
     0
 91
        1
 92
        1
 93
        3
 72
     1
 10
176.1854882541578
 20
206.1911381629874
 11
176.6299863161805
 21
206.1911381629874
 72
     1
 10
176.6299863161805
 20
206.1911381629874
 11
176.4077292107266
 21
207.5563810571367
 72
     1
 10
176.4077292107266
 20
207.5563810571367
 11
176.1854882541579
 21
206.1911381629874
 97
        0
 75
     0
 76
     1
 98
        0
  0
POLYLINE
  5
3BB
330
1F
100
AcDbEntity
  8
Capa 1
 62
     7
420
 16777215
370
     9
100
AcDb2dPolyline
 66
     1
 10
0.0
 20
0.0
 30
0.0
  0
VERTEX
  5
3BC
330
3BB
100
AcDbEntity
  8
Capa 1
 62
     7
420
 16777215
370
     9
100
AcDbVertex
100
AcDb2dVertex
 10
145.4514872929082
 20
163.6461414034007
 30
0.0
  0
VERTEX
  5
3BD
330
3BB
100
AcDbEntity
  8
Capa 1
 62
     7
420
 16777215
370
     9
100
AcDbVertex
100
AcDb2dVertex
 10
145.9277421374547
 20
163.6461414034007
 30
0.0
  0
SEQEND
  5
3BE
330
3BB
100
AcDbEntity
  8
Capa 1
 62
     7
420
 16777215
370
     9
  0
POLYLINE
  5
3BF
330
1F
100
AcDbEntity
  8
Capa 1
 62
     7
420
 16777215
370
     9
100
AcDb2dPolyline
 66
     1
 10
0.0
 20
0.0
 30
0.0
  0
VERTEX
  5
3C0
330
3BF
100
AcDbEntity
  8
Capa 1
 62
     7
420
 16777215
370
     9
100
AcDbVertex
100
AcDb2dVertex
 10
143.3559918151199
 20
163.6461414034007
 30
0.0
  0
VERTEX
  5
3C1
330
3BF
100
AcDbEntity
  8
Capa 1
 62
     7
420
 16777215
370
     9
100
AcDbVertex
100
AcDb2dVertex
 10
144.9752405228043
 20
163.6461414034007
 30
0.0
  0
SEQEND
  5
3C2
330
3BF
100
AcDbEntity
  8
Capa 1
 62
     7
420
 16777215
370
     9
  0
POLYLINE
  5
3C3
330
1F
100
AcDbEntity
  8
Capa 1
 62
     7
420
 16777215
370
     9
100
AcDb2dPolyline
 66
     1
 10
0.0
 20
0.0
 30
0.0
  0
VERTEX
  5
3C4
330
3C3
100
AcDbEntity
  8
Capa 1
 62
     7
420
 16777215
370
     9
100
AcDbVertex
100
AcDb2dVertex
 10
146.4039889075586
 20
163.6461414034007
 30
0.0
  0
VERTEX
  5
3C5
330
3C3
100
AcDbEntity
  8
Capa 1
 62
     7
420
 16777215
370
     9
100
AcDbVertex
100
AcDb2dVertex
 10
148.023237615243
 20
163.6461414034007
 30
0.0
  0
SEQEND
  5
3C6
330
3C3
100
AcDbEntity
  8
Capa 1
 62
     7
420
 16777215
370
     9
  0
POLYLINE
  5
3C7
330
1F
100
AcDbEntity
  8
Capa 1
 62
     7
420
 16777215
370
     9
100
AcDb2dPolyline
 66
     1
 10
0.0
 20
0.0
 30
0.0
  0
VERTEX
  5
3C8
330
3C7
100
AcDbEntity
  8
Capa 1
 62
     7
420
 16777215
370
     9
100
AcDbVertex
100
AcDb2dVertex
 10
146.8167382615
 20
164.8526407571436
 30
0.0
  0
VERTEX
  5
3C9
330
3C7
100
AcDbEntity
  8
Capa 1
 62
     7
420
 16777215
370
     9
100
AcDbVertex
100
AcDb2dVertex
 10
146.8167382615
 20
162.4396420496577
 30
0.0
  0
SEQEND
  5
3CA
330
3C7
100
AcDbEntity
  8
Capa 1
 62
     7
420
 16777215
370
     9
  0
POLYLINE
  5
3CB
330
1F
100
AcDbEntity
  8
Capa 1
 62
     7
420
 16777215
370
     9
100
AcDb2dPolyline
 66
     1
 10
0.0
 20
0.0
 30
0.0
  0
VERTEX
  5
3CC
330
3CB
100
AcDbEntity
  8
Capa 1
 62
     7
420
 16777215
370
     9
100
AcDbVertex
100
AcDb2dVertex
 10
147.3882392302903
 20
163.6461414034007
 30
0.0
  0
VERTEX
  5
3CD
330
3CB
100
AcDbEntity
  8
Capa 1
 62
     7
420
 16777215
370
     9
100
AcDbVertex
100
AcDb2dVertex
 10
147.3247418141277
 20
163.8366417263308
 30
0.0
  0
VERTEX
  5
3CE
330
3CB
100
AcDbEntity
  8
Capa 1
 62
     7
420
 16777215
370
     9
100
AcDbVertex
100
AcDb2dVertex
 10
147.1977389073602
 20
164.0271420492608
 30
0.0
  0
VERTEX
  5
3CF
330
3CB
100
AcDbEntity
  8
Capa 1
 62
     7
420
 16777215
370
     9
100
AcDbVertex
100
AcDb2dVertex
 10
147.1977389073602
 20
164.0588907573421
 30
0.0
  0
SEQEND
  5
3D0
330
3CB
100
AcDbEntity
  8
Capa 1
 62
     7
420
 16777215
370
     9
  0
POLYLINE
  5
3D1
330
1F
100
AcDbEntity
  8
Capa 1
 62
     7
420
 16777215
370
     9
100
AcDb2dPolyline
 66
     1
 10
0.0
 20
0.0
 30
0.0
  0
VERTEX
  5
3D2
330
3D1
100
AcDbEntity
  8
Capa 1
 62
     7
420
 16777215
370
     9
100
AcDbVertex
100
AcDb2dVertex
 10
146.9754898763489
 20
164.1541368815859
 30
0.0
  0
VERTEX
  5
3D3
330
3D1
100
AcDbEntity
  8
Capa 1
 62
     7
420
 16777215
370
     9
100
AcDbVertex
100
AcDb2dVertex
 10
146.8167382615
 20
164.1858936641096
 30
0.0
  0
VERTEX
  5
3D4
330
3D1
100
AcDbEntity
  8
Capa 1
 62
     7
420
 16777215
370
     9
100
AcDbVertex
100
AcDb2dVertex
 10
146.5944892304887
 20
164.1541368815859
 30
0.0
  0
VERTEX
  5
3D5
330
3D1
100
AcDbEntity
  8
Capa 1
 62
     7
420
 16777215
370
     9
100
AcDbVertex
100
AcDb2dVertex
 10
146.5309918143262
 20
164.1223881735046
 30
0.0
  0
SEQEND
  5
3D6
330
3D1
100
AcDbEntity
  8
Capa 1
 62
     7
420
 16777215
370
     9
  0
POLYLINE
  5
3D7
330
1F
100
AcDbEntity
  8
Capa 1
 62
     7
420
 16777215
370
     9
100
AcDb2dPolyline
 66
     1
 10
0.0
 20
0.0
 30
0.0
  0
VERTEX
  5
3D8
330
3D7
100
AcDbEntity
  8
Capa 1
 62
     7
420
 16777215
370
     9
100
AcDbVertex
100
AcDb2dVertex
 10
146.3722401994774
 20
163.9636365586558
 30
0.0
  0
VERTEX
  5
3D9
330
3D7
100
AcDbEntity
  8
Capa 1
 62
     7
420
 16777215
370
     9
100
AcDbVertex
100
AcDb2dVertex
 10
146.2769940752336
 20
163.8366417263308
 30
0.0
  0
VERTEX
  5
3DA
330
3D7
100
AcDbEntity
  8
Capa 1
 62
     7
420
 16777215
370
     9
100
AcDbVertex
100
AcDb2dVertex
 10
146.2452372927098
 20
163.6461414034007
 30
0.0
  0
VERTEX
  5
3DB
330
3D7
100
AcDbEntity
  8
Capa 1
 62
     7
420
 16777215
370
     9
100
AcDbVertex
100
AcDb2dVertex
 10
146.2769940752336
 20
163.5191384966331
 30
0.0
  0
SEQEND
  5
3DC
330
3D7
100
AcDbEntity
  8
Capa 1
 62
     7
420
 16777215
370
     9
  0
POLYLINE
  5
3DD
330
1F
100
AcDbEntity
  8
Capa 1
 62
     7
420
 16777215
370
     9
100
AcDb2dPolyline
 66
     1
 10
0.0
 20
0.0
 30
0.0
  0
VERTEX
  5
3DE
330
3DD
100
AcDbEntity
  8
Capa 1
 62
     7
420
 16777215
370
     9
100
AcDbVertex
100
AcDb2dVertex
 10
146.3722401994774
 20
163.2968894656218
 30
0.0
  0
VERTEX
  5
3DF
330
3DD
100
AcDbEntity
  8
Capa 1
 62
     7
420
 16777215
370
     9
100
AcDbVertex
100
AcDb2dVertex
 10
146.4039889075586
 20
163.2333920494593
 30
0.0
  0
VERTEX
  5
3E0
330
3DD
100
AcDbEntity
  8
Capa 1
 62
     7
420
 16777215
370
     9
100
AcDbVertex
100
AcDb2dVertex
 10
146.5944892304887
 20
163.1063891426917
 30
0.0
  0
VERTEX
  5
3E1
330
3DD
100
AcDbEntity
  8
Capa 1
 62
     7
420
 16777215
370
     9
100
AcDbVertex
100
AcDb2dVertex
 10
146.7532408453375
 20
163.0746404346104
 30
0.0
  0
SEQEND
  5
3E2
330
3DD
100
AcDbEntity
  8
Capa 1
 62
     7
420
 16777215
370
     9
  0
POLYLINE
  5
3E3
330
1F
100
AcDbEntity
  8
Capa 1
 62
     7
420
 16777215
370
     9
100
AcDb2dPolyline
 66
     1
 10
0.0
 20
0.0
 30
0.0
  0
VERTEX
  5
3E4
330
3E3
100
AcDbEntity
  8
Capa 1
 62
     7
420
 16777215
370
     9
100
AcDbVertex
100
AcDb2dVertex
 10
146.9754898763489
 20
163.1063891426917
 30
0.0
  0
VERTEX
  5
3E5
330
3E3
100
AcDbEntity
  8
Capa 1
 62
     7
420
 16777215
370
     9
100
AcDbVertex
100
AcDb2dVertex
 10
147.0389872925114
 20
163.1063891426917
 30
0.0
  0
VERTEX
  5
3E6
330
3E3
100
AcDbEntity
  8
Capa 1
 62
     7
420
 16777215
370
     9
100
AcDbVertex
100
AcDb2dVertex
 10
147.1977389073602
 20
163.2333920494593
 30
0.0
  0
VERTEX
  5
3E7
330
3E3
100
AcDbEntity
  8
Capa 1
 62
     7
420
 16777215
370
     9
100
AcDbVertex
100
AcDb2dVertex
 10
147.3247418141277
 20
163.4238923723893
 30
0.0
  0
SEQEND
  5
3E8
330
3E3
100
AcDbEntity
  8
Capa 1
 62
     7
420
 16777215
370
     9
  0
POLYLINE
  5
3E9
330
1F
100
AcDbEntity
  8
Capa 1
 62
     7
420
 16777215
370
     9
100
AcDb2dPolyline
 66
     1
 10
0.0
 20
0.0
 30
0.0
  0
VERTEX
  5
3EA
330
3E9
100
AcDbEntity
  8
Capa 1
 62
     7
420
 16777215
370
     9
100
AcDbVertex
100
AcDb2dVertex
 10
147.3882392302903
 20
163.6461414034007
 30
0.0
  0
VERTEX
  5
3EB
330
3E9
100
AcDbEntity
  8
Capa 1
 62
     7
420
 16777215
370
     9
100
AcDbVertex
100
AcDb2dVertex
 10
147.4199879383715
 20
163.6461414034007
 30
0.0
  0
SEQEND
  5
3EC
330
3E9
100
AcDbEntity
  8
Capa 1
 62
     7
420
 16777215
370
     9
  0
POLYLINE
  5
3ED
330
1F
100
AcDbEntity
  8
Capa 1
 62
     7
420
 16777215
370
     9
100
AcDb2dPolyline
 66
     1
 10
0.0
 20
0.0
 30
0.0
  0
VERTEX
  5
3EE
330
3ED
100
AcDbEntity
  8
Capa 1
 62
     7
420
 16777215
370
     9
100
AcDbVertex
100
AcDb2dVertex
 10
146.8167382615
 20
158.121640112871
 30
0.0
  0
VERTEX
  5
3EF
330
3ED
100
AcDbEntity
  8
Capa 1
 62
     7
420
 16777215
370
     9
100
AcDbVertex
100
AcDb2dVertex
 10
148.023237615243
 20
158.121640112871
 30
0.0
  0
SEQEND
  5
3F0
330
3ED
100
AcDbEntity
  8
Capa 1
 62
     7
420
 16777215
370
     9
  0
POLYLINE
  5
3F1
330
1F
100
AcDbEntity
  8
Capa 1
 62
     7
420
 16777215
370
     9
100
AcDb2dPolyline
 66
     1
 10
0.0
 20
0.0
 30
0.0
  0
VERTEX
  5
3F2
330
3F1
100
AcDbEntity
  8
Capa 1
 62
     7
420
 16777215
370
     9
100
AcDbVertex
100
AcDb2dVertex
 10
155.8019940728524
 20
158.121640112871
 30
0.0
  0
VERTEX
  5
3F3
330
3F1
100
AcDbEntity
  8
Capa 1
 62
     7
420
 16777215
370
     9
100
AcDbVertex
100
AcDb2dVertex
 10
153.9287395516328
 20
158.121640112871
 30
0.0
  0
SEQEND
  5
3F4
330
3F1
100
AcDbEntity
  8
Capa 1
 62
     7
420
 16777215
370
     9
  0
POLYLINE
  5
3F5
330
1F
100
AcDbEntity
  8
Capa 1
 62
     7
420
 16777215
370
     9
100
AcDb2dPolyline
 66
     1
 10
0.0
 20
0.0
 30
0.0
  0
VERTEX
  5
3F6
330
3F5
100
AcDbEntity
  8
Capa 1
 62
     7
420
 16777215
370
     9
100
AcDbVertex
100
AcDb2dVertex
 10
145.4514872929082
 20
158.121640112871
 30
0.0
  0
VERTEX
  5
3F7
330
3F5
100
AcDbEntity
  8
Capa 1
 62
     7
420
 16777215
370
     9
100
AcDbVertex
100
AcDb2dVertex
 10
144.1179931068403
 20
158.121640112871
 30
0.0
  0
SEQEND
  5
3F8
330
3F5
100
AcDbEntity
  8
Capa 1
 62
     7
420
 16777215
370
     9
  0
POLYLINE
  5
3F9
330
1F
100
AcDbEntity
  8
Capa 1
 62
     7
420
 16777215
370
     9
100
AcDb2dPolyline
 66
     1
 10
0.0
 20
0.0
 30
0.0
  0
VERTEX
  5
3FA
330
3F9
100
AcDbEntity
  8
Capa 1
 62
     7
420
 16777215
370
     9
100
AcDbVertex
100
AcDb2dVertex
 10
157.1672369670016
 20
158.121640112871
 30
0.0
  0
VERTEX
  5
3FB
330
3F9
100
AcDbEntity
  8
Capa 1
 62
     7
420
 16777215
370
     9
100
AcDbVertex
100
AcDb2dVertex
 10
158.5007392275121
 20
158.121640112871
 30
0.0
  0
SEQEND
  5
3FC
330
3F9
100
AcDbEntity
  8
Capa 1
 62
     7
420
 16777215
370
     9
  0
POLYLINE
  5
3FD
330
1F
100
AcDbEntity
  8
Capa 1
 62
     7
420
 16777215
370
     9
100
AcDb2dPolyline
 66
     1
 10
0.0
 20
0.0
 30
0.0
  0
VERTEX
  5
3FE
330
3FD
100
AcDbEntity
  8
Capa 1
 62
     7
420
 16777215
370
     9
100
AcDbVertex
100
AcDb2dVertex
 10
146.8167382615
 20
161.9633872051112
 30
0.0
  0
VERTEX
  5
3FF
330
3FD
100
AcDbEntity
  8
Capa 1
 62
     7
420
 16777215
370
     9
100
AcDbVertex
100
AcDb2dVertex
 10
146.8167382615
 20
157.3913875292319
 30
0.0
  0
SEQEND
  5
400
330
3FD
100
AcDbEntity
  8
Capa 1
 62
     7
420
 16777215
370
     9
  0
POLYLINE
  5
401
330
1F
100
AcDbEntity
  8
Capa 1
 62
     7
420
 16777215
370
     9
100
AcDb2dPolyline
 66
     1
 10
0.0
 20
0.0
 30
0.0
  0
VERTEX
  5
402
330
401
100
AcDbEntity
  8
Capa 1
 62
     7
420
 16777215
370
     9
100
AcDbVertex
100
AcDb2dVertex
 10
155.8019940728524
 20
159.4868910814628
 30
0.0
  0
VERTEX
  5
403
330
401
100
AcDbEntity
  8
Capa 1
 62
     7
420
 16777215
370
     9
100
AcDbVertex
100
AcDb2dVertex
 10
155.8019940728524
 20
157.3913875292319
 30
0.0
  0
SEQEND
  5
404
330
401
100
AcDbEntity
  8
Capa 1
 62
     7
420
 16777215
370
     9
  0
POLYLINE
  5
405
330
1F
100
AcDbEntity
  8
Capa 1
370
     0
100
AcDb2dPolyline
 66
     1
 10
0.0
 20
0.0
 30
0.0
  0
VERTEX
  5
406
330
405
100
AcDbEntity
  8
Capa 1
370
     0
100
AcDbVertex
100
AcDb2dVertex
 10
157.1672369670016
 20
158.3438891438823
 30
0.0
  0
VERTEX
  5
407
330
405
100
AcDbEntity
  8
Capa 1
370
     0
100
AcDbVertex
100
AcDb2dVertex
 10
157.1672369670016
 20
157.8993910818596
 30
0.0
  0
VERTEX
  5
408
330
405
100
AcDbEntity
  8
Capa 1
370
     0
100
AcDbVertex
100
AcDb2dVertex
 10
155.8019940728524
 20
158.121640112871
 30
0.0
  0
SEQEND
  5
40A
330
405
100
AcDbEntity
  8
Capa 1
370
     0
  0
HATCH
  5
409
330
1F
100
AcDbEntity
  8
Capa 1
 62
     7
420
 16777215
100
AcDbHatch
 10
0.0
 20
0.0
 30
0.0
210
0.0
220
0.0
230
1.0
  2
SOLID
 70
     1
 71
     0
 91
        1
 92
        1
 93
        3
 72
     1
 10
157.1672369670016
 20
158.3438891438823
 11
157.1672369670016
 21
157.8993910818597
 72
     1
 10
157.1672369670016
 20
157.8993910818596
 11
155.8019940728524
 21
158.121640112871
 72
     1
 10
155.8019940728524
 20
158.121640112871
 11
157.1672369670016
 21
158.3438891438823
 97
        0
 75
     0
 76
     1
 98
        0
  0
POLYLINE
  5
40B
330
1F
100
AcDbEntity
  8
Capa 1
370
     0
100
AcDb2dPolyline
 66
     1
 10
0.0
 20
0.0
 30
0.0
  0
VERTEX
  5
40C
330
40B
100
AcDbEntity
  8
Capa 1
370
     0
100
AcDbVertex
100
AcDb2dVertex
 10
145.4514872929082
 20
158.3438891438823
 30
0.0
  0
VERTEX
  5
40D
330
40B
100
AcDbEntity
  8
Capa 1
370
     0
100
AcDbVertex
100
AcDb2dVertex
 10
145.4514872929082
 20
157.8993910818596
 30
0.0
  0
VERTEX
  5
40E
330
40B
100
AcDbEntity
  8
Capa 1
370
     0
100
AcDbVertex
100
AcDb2dVertex
 10
146.8167382615
 20
158.121640112871
 30
0.0
  0
SEQEND
  5
410
330
40B
100
AcDbEntity
  8
Capa 1
370
     0
  0
HATCH
  5
40F
330
1F
100
AcDbEntity
  8
Capa 1
 62
     7
420
 16777215
100
AcDbHatch
 10
0.0
 20
0.0
 30
0.0
210
0.0
220
0.0
230
1.0
  2
SOLID
 70
     1
 71
     0
 91
        1
 92
        1
 93
        3
 72
     1
 10
145.4514872929082
 20
158.3438891438823
 11
145.4514872929082
 21
157.8993910818597
 72
     1
 10
145.4514872929082
 20
157.8993910818596
 11
146.8167382615
 21
158.121640112871
 72
     1
 10
146.8167382615
 20
158.121640112871
 11
145.4514872929082
 21
158.3438891438823
 97
        0
 75
     0
 76
     1
 98
        0
  0
POLYLINE
  5
411
330
1F
100
AcDbEntity
  8
Capa 1
 62
     7
420
 16777215
370
     9
100
AcDb2dPolyline
 66
     1
 10
0.0
 20
0.0
 30
0.0
  0
VERTEX
  5
412
330
411
100
AcDbEntity
  8
Capa 1
 62
     7
420
 16777215
370
     9
100
AcDbVertex
100
AcDb2dVertex
 10
140.9112443995527
 20
162.2808904348089
 30
0.0
  0
VERTEX
  5
413
330
411
100
AcDbEntity
  8
Capa 1
 62
     7
420
 16777215
370
     9
100
AcDbVertex
100
AcDb2dVertex
 10
140.9112443995527
 20
158.0263939886272
 30
0.0
  0
SEQEND
  5
414
330
411
100
AcDbEntity
  8
Capa 1
 62
     7
420
 16777215
370
     9
  0
POLYLINE
  5
415
330
1F
100
AcDbEntity
  8
Capa 1
 62
     7
420
 16777215
370
     9
100
AcDb2dPolyline
 66
     1
 10
0.0
 20
0.0
 30
0.0
  0
VERTEX
  5
416
330
415
100
AcDbEntity
  8
Capa 1
 62
     7
420
 16777215
370
     9
100
AcDbVertex
100
AcDb2dVertex
 10
140.9112443995527
 20
149.9936397919253
 30
0.0
  0
VERTEX
  5
417
330
415
100
AcDbEntity
  8
Capa 1
 62
     7
420
 16777215
370
     9
100
AcDbVertex
100
AcDb2dVertex
 10
140.9112443995527
 20
154.2481443125495
 30
0.0
  0
SEQEND
  5
418
330
415
100
AcDbEntity
  8
Capa 1
 62
     7
420
 16777215
370
     9
  0
POLYLINE
  5
419
330
1F
100
AcDbEntity
  8
Capa 1
 62
     7
420
 16777215
370
     9
100
AcDb2dPolyline
 66
     1
 10
0.0
 20
0.0
 30
0.0
  0
VERTEX
  5
41A
330
419
100
AcDbEntity
  8
Capa 1
 62
     7
420
 16777215
370
     9
100
AcDbVertex
100
AcDb2dVertex
 10
142.2447385856207
 20
163.6461414034007
 30
0.0
  0
VERTEX
  5
41B
330
419
100
AcDbEntity
  8
Capa 1
 62
     7
420
 16777215
370
     9
100
AcDbVertex
100
AcDb2dVertex
 10
140.1492431078324
 20
163.6461414034007
 30
0.0
  0
SEQEND
  5
41C
330
419
100
AcDbEntity
  8
Capa 1
 62
     7
420
 16777215
370
     9
  0
POLYLINE
  5
41D
330
1F
100
AcDbEntity
  8
Capa 1
 62
     7
420
 16777215
370
     9
100
AcDb2dPolyline
 66
     1
 10
0.0
 20
0.0
 30
0.0
  0
VERTEX
  5
41E
330
41D
100
AcDbEntity
  8
Capa 1
 62
     7
420
 16777215
370
     9
100
AcDbVertex
100
AcDb2dVertex
 10
146.4357376156399
 20
148.6283888233335
 30
0.0
  0
VERTEX
  5
41F
330
41D
100
AcDbEntity
  8
Capa 1
 62
     7
420
 16777215
370
     9
100
AcDbVertex
100
AcDb2dVertex
 10
140.1492431078324
 20
148.6283888233335
 30
0.0
  0
SEQEND
  5
420
330
41D
100
AcDbEntity
  8
Capa 1
 62
     7
420
 16777215
370
     9
  0
POLYLINE
  5
421
330
1F
100
AcDbEntity
  8
Capa 1
370
     0
100
AcDb2dPolyline
 66
     1
 10
0.0
 20
0.0
 30
0.0
  0
VERTEX
  5
422
330
421
100
AcDbEntity
  8
Capa 1
370
     0
100
AcDbVertex
100
AcDb2dVertex
 10
140.6889872940989
 20
149.9936397919253
 30
0.0
  0
VERTEX
  5
423
330
421
100
AcDbEntity
  8
Capa 1
370
     0
100
AcDbVertex
100
AcDb2dVertex
 10
141.1334934305641
 20
149.9936397919253
 30
0.0
  0
VERTEX
  5
424
330
421
100
AcDbEntity
  8
Capa 1
370
     0
100
AcDbVertex
100
AcDb2dVertex
 10
140.9112443995527
 20
148.6283888233335
 30
0.0
  0
SEQEND
  5
426
330
421
100
AcDbEntity
  8
Capa 1
370
     0
  0
HATCH
  5
425
330
1F
100
AcDbEntity
  8
Capa 1
 62
     7
420
 16777215
100
AcDbHatch
 10
0.0
 20
0.0
 30
0.0
210
0.0
220
0.0
230
1.0
  2
SOLID
 70
     1
 71
     0
 91
        1
 92
        1
 93
        3
 72
     1
 10
140.6889872940989
 20
149.9936397919253
 11
141.1334934305641
 21
149.9936397919253
 72
     1
 10
141.1334934305641
 20
149.9936397919253
 11
140.9112443995527
 21
148.6283888233335
 72
     1
 10
140.9112443995527
 20
148.6283888233335
 11
140.6889872940989
 21
149.9936397919253
 97
        0
 75
     0
 76
     1
 98
        0
  0
POLYLINE
  5
427
330
1F
100
AcDbEntity
  8
Capa 1
370
     0
100
AcDb2dPolyline
 66
     1
 10
0.0
 20
0.0
 30
0.0
  0
VERTEX
  5
428
330
427
100
AcDbEntity
  8
Capa 1
370
     0
100
AcDbVertex
100
AcDb2dVertex
 10
140.6889872940989
 20
162.2808904348089
 30
0.0
  0
VERTEX
  5
429
330
427
100
AcDbEntity
  8
Capa 1
370
     0
100
AcDbVertex
100
AcDb2dVertex
 10
141.1334934305641
 20
162.2808904348089
 30
0.0
  0
VERTEX
  5
42A
330
427
100
AcDbEntity
  8
Capa 1
370
     0
100
AcDbVertex
100
AcDb2dVertex
 10
140.9112443995527
 20
163.6461414034007
 30
0.0
  0
SEQEND
  5
42C
330
427
100
AcDbEntity
  8
Capa 1
370
     0
  0
HATCH
  5
42B
330
1F
100
AcDbEntity
  8
Capa 1
 62
     7
420
 16777215
100
AcDbHatch
 10
0.0
 20
0.0
 30
0.0
210
0.0
220
0.0
230
1.0
  2
SOLID
 70
     1
 71
     0
 91
        1
 92
        1
 93
        3
 72
     1
 10
140.6889872940989
 20
162.2808904348089
 11
141.1334934305641
 21
162.2808904348089
 72
     1
 10
141.1334934305641
 20
162.2808904348089
 11
140.9112443995527
 21
163.6461414034007
 72
     1
 10
140.9112443995527
 20
163.6461414034007
 11
140.6889872940989
 21
162.2808904348089
 97
        0
 75
     0
 76
     1
 98
        0
  0
POLYLINE
  5
42D
330
1F
100
AcDbEntity
  8
Capa 1
 62
     7
420
 16777215
370
     9
100
AcDb2dPolyline
 66
     1
 10
0.0
 20
0.0
 30
0.0
  0
VERTEX
  5
42E
330
42D
100
AcDbEntity
  8
Capa 1
 62
     7
420
 16777215
370
     9
100
AcDbVertex
100
AcDb2dVertex
 10
162.7234869656126
 20
143.4531394705827
 30
0.0
  0
VERTEX
  5
42F
330
42D
100
AcDbEntity
  8
Capa 1
 62
     7
420
 16777215
370
     9
100
AcDbVertex
100
AcDb2dVertex
 10
158.849991165291
 20
143.4531394705827
 30
0.0
  0
SEQEND
  5
430
330
42D
100
AcDbEntity
  8
Capa 1
 62
     7
420
 16777215
370
     9
  0
POLYLINE
  5
431
330
1F
100
AcDbEntity
  8
Capa 1
 62
     7
420
 16777215
370
     9
100
AcDb2dPolyline
 66
     1
 10
0.0
 20
0.0
 30
0.0
  0
VERTEX
  5
432
330
431
100
AcDbEntity
  8
Capa 1
 62
     7
420
 16777215
370
     9
100
AcDbVertex
100
AcDb2dVertex
 10
148.9122418137309
 20
143.4531394705827
 30
0.0
  0
VERTEX
  5
433
330
431
100
AcDbEntity
  8
Capa 1
 62
     7
420
 16777215
370
     9
100
AcDbVertex
100
AcDb2dVertex
 10
152.7539889059711
 20
143.4531394705827
 30
0.0
  0
SEQEND
  5
434
330
431
100
AcDbEntity
  8
Capa 1
 62
     7
420
 16777215
370
     9
  0
POLYLINE
  5
435
330
1F
100
AcDbEntity
  8
Capa 1
 62
     7
420
 16777215
370
     9
100
AcDb2dPolyline
 66
     1
 10
0.0
 20
0.0
 30
0.0
  0
VERTEX
  5
436
330
435
100
AcDbEntity
  8
Capa 1
 62
     7
420
 16777215
370
     9
100
AcDbVertex
100
AcDb2dVertex
 10
164.0569892261231
 20
147.5171436682768
 30
0.0
  0
VERTEX
  5
437
330
435
100
AcDbEntity
  8
Capa 1
 62
     7
420
 16777215
370
     9
100
AcDbVertex
100
AcDb2dVertex
 10
164.0569892261231
 20
142.6911381788624
 30
0.0
  0
SEQEND
  5
438
330
435
100
AcDbEntity
  8
Capa 1
 62
     7
420
 16777215
370
     9
  0
POLYLINE
  5
439
330
1F
100
AcDbEntity
  8
Capa 1
 62
     7
420
 16777215
370
     9
100
AcDb2dPolyline
 66
     1
 10
0.0
 20
0.0
 30
0.0
  0
VERTEX
  5
43A
330
439
100
AcDbEntity
  8
Capa 1
 62
     7
420
 16777215
370
     9
100
AcDbVertex
100
AcDb2dVertex
 10
147.5469908451391
 20
147.5171436682768
 30
0.0
  0
VERTEX
  5
43B
330
439
100
AcDbEntity
  8
Capa 1
 62
     7
420
 16777215
370
     9
100
AcDbVertex
100
AcDb2dVertex
 10
147.5469908451391
 20
142.6911381788624
 30
0.0
  0
SEQEND
  5
43C
330
439
100
AcDbEntity
  8
Capa 1
 62
     7
420
 16777215
370
     9
  0
POLYLINE
  5
43D
330
1F
100
AcDbEntity
  8
Capa 1
370
     0
100
AcDb2dPolyline
 66
     1
 10
0.0
 20
0.0
 30
0.0
  0
VERTEX
  5
43E
330
43D
100
AcDbEntity
  8
Capa 1
370
     0
100
AcDbVertex
100
AcDb2dVertex
 10
148.9122418137309
 20
143.6753885015941
 30
0.0
  0
VERTEX
  5
43F
330
43D
100
AcDbEntity
  8
Capa 1
370
     0
100
AcDbVertex
100
AcDb2dVertex
 10
148.9122418137309
 20
143.2308904395714
 30
0.0
  0
VERTEX
  5
440
330
43D
100
AcDbEntity
  8
Capa 1
370
     0
100
AcDbVertex
100
AcDb2dVertex
 10
147.5469908451391
 20
143.4531394705827
 30
0.0
  0
SEQEND
  5
442
330
43D
100
AcDbEntity
  8
Capa 1
370
     0
  0
HATCH
  5
441
330
1F
100
AcDbEntity
  8
Capa 1
 62
     7
420
 16777215
100
AcDbHatch
 10
0.0
 20
0.0
 30
0.0
210
0.0
220
0.0
230
1.0
  2
SOLID
 70
     1
 71
     0
 91
        1
 92
        1
 93
        3
 72
     1
 10
148.9122418137309
 20
143.6753885015941
 11
148.9122418137309
 21
143.2308904395714
 72
     1
 10
148.9122418137309
 20
143.2308904395714
 11
147.5469908451391
 21
143.4531394705827
 72
     1
 10
147.5469908451391
 20
143.4531394705827
 11
148.9122418137309
 21
143.675388501594
 97
        0
 75
     0
 76
     1
 98
        0
  0
POLYLINE
  5
443
330
1F
100
AcDbEntity
  8
Capa 1
370
     0
100
AcDb2dPolyline
 66
     1
 10
0.0
 20
0.0
 30
0.0
  0
VERTEX
  5
444
330
443
100
AcDbEntity
  8
Capa 1
370
     0
100
AcDbVertex
100
AcDb2dVertex
 10
162.7234869656126
 20
143.6753885015941
 30
0.0
  0
VERTEX
  5
445
330
443
100
AcDbEntity
  8
Capa 1
370
     0
100
AcDbVertex
100
AcDb2dVertex
 10
162.7234869656126
 20
143.2308904395714
 30
0.0
  0
VERTEX
  5
446
330
443
100
AcDbEntity
  8
Capa 1
370
     0
100
AcDbVertex
100
AcDb2dVertex
 10
164.0569892261231
 20
143.4531394705827
 30
0.0
  0
SEQEND
  5
448
330
443
100
AcDbEntity
  8
Capa 1
370
     0
  0
HATCH
  5
447
330
1F
100
AcDbEntity
  8
Capa 1
 62
     7
420
 16777215
100
AcDbHatch
 10
0.0
 20
0.0
 30
0.0
210
0.0
220
0.0
230
1.0
  2
SOLID
 70
     1
 71
     0
 91
        1
 92
        1
 93
        3
 72
     1
 10
162.7234869656126
 20
143.6753885015941
 11
162.7234869656126
 21
143.2308904395714
 72
     1
 10
162.7234869656126
 20
143.2308904395714
 11
164.0569892261231
 21
143.4531394705827
 72
     1
 10
164.0569892261231
 20
143.4531394705827
 11
162.7234869656126
 21
143.675388501594
 97
        0
 75
     0
 76
     1
 98
        0
  0
POLYLINE
  5
449
330
1F
100
AcDbEntity
  8
Capa 1
 62
     7
420
 16777215
370
     9
100
AcDb2dPolyline
 66
     1
 10
0.0
 20
0.0
 30
0.0
  0
VERTEX
  5
44A
330
449
100
AcDbEntity
  8
Capa 1
 62
     7
420
 16777215
370
     9
100
AcDbVertex
100
AcDb2dVertex
 10
69.54782742774923
 20
136.2141433481249
 30
0.0
  0
VERTEX
  5
44B
330
449
100
AcDbEntity
  8
Capa 1
 62
     7
420
 16777215
370
     9
100
AcDbVertex
100
AcDb2dVertex
 10
65.64257888212519
 20
136.2141433481249
 30
0.0
  0
SEQEND
  5
44C
330
449
100
AcDbEntity
  8
Capa 1
 62
     7
420
 16777215
370
     9
  0
POLYLINE
  5
44D
330
1F
100
AcDbEntity
  8
Capa 1
 62
     7
420
 16777215
370
     9
100
AcDb2dPolyline
 66
     1
 10
0.0
 20
0.0
 30
0.0
  0
VERTEX
  5
44E
330
44D
100
AcDbEntity
  8
Capa 1
 62
     7
420
 16777215
370
     9
100
AcDbVertex
100
AcDb2dVertex
 10
56.68907985329795
 20
136.2141433481249
 30
0.0
  0
VERTEX
  5
44F
330
44D
100
AcDbEntity
  8
Capa 1
 62
     7
420
 16777215
370
     9
100
AcDbVertex
100
AcDb2dVertex
 10
59.51482791472402
 20
136.2141433481249
 30
0.0
  0
SEQEND
  5
450
330
44D
100
AcDbEntity
  8
Capa 1
 62
     7
420
 16777215
370
     9
  0
POLYLINE
  5
451
330
1F
100
AcDbEntity
  8
Capa 1
 62
     7
420
 16777215
370
     9
100
AcDb2dPolyline
 66
     1
 10
0.0
 20
0.0
 30
0.0
  0
VERTEX
  5
452
330
451
100
AcDbEntity
  8
Capa 1
 62
     7
420
 16777215
370
     9
100
AcDbVertex
100
AcDb2dVertex
 10
70.8813256510385
 20
139.5796436702612
 30
0.0
  0
VERTEX
  5
453
330
451
100
AcDbEntity
  8
Capa 1
 62
     7
420
 16777215
370
     9
100
AcDbVertex
100
AcDb2dVertex
 10
70.8813256510385
 20
135.4838907644858
 30
0.0
  0
SEQEND
  5
454
330
451
100
AcDbEntity
  8
Capa 1
 62
     7
420
 16777215
370
     9
  0
POLYLINE
  5
455
330
1F
100
AcDbEntity
  8
Capa 1
 62
     7
420
 16777215
370
     9
100
AcDb2dPolyline
 66
     1
 10
0.0
 20
0.0
 30
0.0
  0
VERTEX
  5
456
330
455
100
AcDbEntity
  8
Capa 1
 62
     7
420
 16777215
370
     9
100
AcDbVertex
100
AcDb2dVertex
 10
55.32382888470488
 20
204.0956426851991
 30
0.0
  0
VERTEX
  5
457
330
455
100
AcDbEntity
  8
Capa 1
 62
     7
420
 16777215
370
     9
100
AcDbVertex
100
AcDb2dVertex
 10
55.32382888470488
 20
135.4838907644858
 30
0.0
  0
SEQEND
  5
458
330
455
100
AcDbEntity
  8
Capa 1
 62
     7
420
 16777215
370
     9
  0
POLYLINE
  5
459
330
1F
100
AcDbEntity
  8
Capa 1
370
     0
100
AcDb2dPolyline
 66
     1
 10
0.0
 20
0.0
 30
0.0
  0
VERTEX
  5
45A
330
459
100
AcDbEntity
  8
Capa 1
370
     0
100
AcDbVertex
100
AcDb2dVertex
 10
56.68907985329795
 20
136.4363923791362
 30
0.0
  0
VERTEX
  5
45B
330
459
100
AcDbEntity
  8
Capa 1
370
     0
100
AcDbVertex
100
AcDb2dVertex
 10
56.68907985329795
 20
135.9918943171135
 30
0.0
  0
VERTEX
  5
45C
330
459
100
AcDbEntity
  8
Capa 1
370
     0
100
AcDbVertex
100
AcDb2dVertex
 10
55.32382888470488
 20
136.2141433481249
 30
0.0
  0
SEQEND
  5
45E
330
459
100
AcDbEntity
  8
Capa 1
370
     0
  0
HATCH
  5
45D
330
1F
100
AcDbEntity
  8
Capa 1
 62
     7
420
 16777215
100
AcDbHatch
 10
0.0
 20
0.0
 30
0.0
210
0.0
220
0.0
230
1.0
  2
SOLID
 70
     1
 71
     0
 91
        1
 92
        1
 93
        3
 72
     1
 10
56.68907985329795
 20
136.4363923791362
 11
56.68907985329795
 21
135.9918943171135
 72
     1
 10
56.68907985329795
 20
135.9918943171135
 11
55.32382888470488
 21
136.2141433481249
 72
     1
 10
55.32382888470488
 20
136.2141433481249
 11
56.68907985329795
 21
136.4363923791362
 97
        0
 75
     0
 76
     1
 98
        0
  0
POLYLINE
  5
45F
330
1F
100
AcDbEntity
  8
Capa 1
370
     0
100
AcDb2dPolyline
 66
     1
 10
0.0
 20
0.0
 30
0.0
  0
VERTEX
  5
460
330
45F
100
AcDbEntity
  8
Capa 1
370
     0
100
AcDbVertex
100
AcDb2dVertex
 10
69.54782742774923
 20
136.4363923791362
 30
0.0
  0
VERTEX
  5
461
330
45F
100
AcDbEntity
  8
Capa 1
370
     0
100
AcDbVertex
100
AcDb2dVertex
 10
69.54782742774923
 20
135.9918943171135
 30
0.0
  0
VERTEX
  5
462
330
45F
100
AcDbEntity
  8
Capa 1
370
     0
100
AcDbVertex
100
AcDb2dVertex
 10
70.8813256510385
 20
136.2141433481249
 30
0.0
  0
SEQEND
  5
464
330
45F
100
AcDbEntity
  8
Capa 1
370
     0
  0
HATCH
  5
463
330
1F
100
AcDbEntity
  8
Capa 1
 62
     7
420
 16777215
100
AcDbHatch
 10
0.0
 20
0.0
 30
0.0
210
0.0
220
0.0
230
1.0
  2
SOLID
 70
     1
 71
     0
 91
        1
 92
        1
 93
        3
 72
     1
 10
69.54782742774923
 20
136.4363923791362
 11
69.54782742774923
 21
135.9918943171135
 72
     1
 10
69.54782742774923
 20
135.9918943171135
 11
70.8813256510385
 21
136.2141433481249
 72
     1
 10
70.8813256510385
 20
136.2141433481249
 11
69.54782742774923
 21
136.4363923791362
 97
        0
 75
     0
 76
     1
 98
        0
  0
POLYLINE
  5
465
330
1F
100
AcDbEntity
  8
Capa 1
 62
     7
420
 16777215
370
     9
100
AcDb2dPolyline
 66
     1
 10
0.0
 20
0.0
 30
0.0
  0
VERTEX
  5
466
330
465
100
AcDbEntity
  8
Capa 1
 62
     7
420
 16777215
370
     9
100
AcDbVertex
100
AcDb2dVertex
 10
67.00782581349571
 20
150.9778901146569
 30
0.0
  0
VERTEX
  5
467
330
465
100
AcDbEntity
  8
Capa 1
 62
     7
420
 16777215
370
     9
100
AcDbVertex
100
AcDb2dVertex
 10
66.94432839733449
 20
151.835137530621
 30
0.0
  0
SEQEND
  5
468
330
465
100
AcDbEntity
  8
Capa 1
 62
     7
420
 16777215
370
     9
  0
POLYLINE
  5
469
330
1F
100
AcDbEntity
  8
Capa 1
 62
     7
420
 16777215
370
     9
100
AcDb2dPolyline
 66
     1
 10
0.0
 20
0.0
 30
0.0
  0
VERTEX
  5
46A
330
469
100
AcDbEntity
  8
Capa 1
 62
     7
420
 16777215
370
     9
100
AcDbVertex
100
AcDb2dVertex
 10
67.07132726687949
 20
149.771390760914
 30
0.0
  0
VERTEX
  5
46B
330
469
100
AcDbEntity
  8
Capa 1
 62
     7
420
 16777215
370
     9
100
AcDbVertex
100
AcDb2dVertex
 10
67.03957855879824
 20
150.5651407607155
 30
0.0
  0
SEQEND
  5
46C
330
469
100
AcDbEntity
  8
Capa 1
 62
     7
420
 16777215
370
     9
  0
POLYLINE
  5
46D
330
1F
100
AcDbEntity
  8
Capa 1
 62
     7
420
 16777215
370
     9
100
AcDb2dPolyline
 66
     1
 10
0.0
 20
0.0
 30
0.0
  0
VERTEX
  5
46E
330
46D
100
AcDbEntity
  8
Capa 1
 62
     7
420
 16777215
370
     9
100
AcDbVertex
100
AcDb2dVertex
 10
66.94432839733449
 20
152.2478868845624
 30
0.0
  0
VERTEX
  5
46F
330
46D
100
AcDbEntity
  8
Capa 1
 62
     7
420
 16777215
370
     9
100
AcDbVertex
100
AcDb2dVertex
 10
66.88082694395071
 20
153.041636884364
 30
0.0
  0
SEQEND
  5
470
330
46D
100
AcDbEntity
  8
Capa 1
 62
     7
420
 16777215
370
     9
  0
POLYLINE
  5
471
330
1F
100
AcDbEntity
  8
Capa 1
 62
     7
420
 16777215
370
     9
100
AcDb2dPolyline
 66
     1
 10
0.0
 20
0.0
 30
0.0
  0
VERTEX
  5
472
330
471
100
AcDbEntity
  8
Capa 1
 62
     7
420
 16777215
370
     9
100
AcDbVertex
100
AcDb2dVertex
 10
74.78657823388379
 20
150.9778901146569
 30
0.0
  0
VERTEX
  5
473
330
471
100
AcDbEntity
  8
Capa 1
 62
     7
420
 16777215
370
     9
100
AcDbVertex
100
AcDb2dVertex
 10
74.81832694196633
 20
151.835137530621
 30
0.0
  0
SEQEND
  5
474
330
471
100
AcDbEntity
  8
Capa 1
 62
     7
420
 16777215
370
     9
  0
POLYLINE
  5
475
330
1F
100
AcDbEntity
  8
Capa 1
 62
     7
420
 16777215
370
     9
100
AcDb2dPolyline
 66
     1
 10
0.0
 20
0.0
 30
0.0
  0
VERTEX
  5
476
330
475
100
AcDbEntity
  8
Capa 1
 62
     7
420
 16777215
370
     9
100
AcDbVertex
100
AcDb2dVertex
 10
74.72307678050001
 20
149.771390760914
 30
0.0
  0
VERTEX
  5
477
330
475
100
AcDbEntity
  8
Capa 1
 62
     7
420
 16777215
370
     9
100
AcDbVertex
100
AcDb2dVertex
 10
74.75482548858126
 20
150.5651407607155
 30
0.0
  0
SEQEND
  5
478
330
475
100
AcDbEntity
  8
Capa 1
 62
     7
420
 16777215
370
     9
  0
POLYLINE
  5
479
330
1F
100
AcDbEntity
  8
Capa 1
 62
     7
420
 16777215
370
     9
100
AcDb2dPolyline
 66
     1
 10
0.0
 20
0.0
 30
0.0
  0
VERTEX
  5
47A
330
479
100
AcDbEntity
  8
Capa 1
 62
     7
420
 16777215
370
     9
100
AcDbVertex
100
AcDb2dVertex
 10
74.8500756500463
 20
152.2478868845624
 30
0.0
  0
VERTEX
  5
47B
330
479
100
AcDbEntity
  8
Capa 1
 62
     7
420
 16777215
370
     9
100
AcDbVertex
100
AcDb2dVertex
 10
74.88182839535011
 20
153.041636884364
 30
0.0
  0
SEQEND
  5
47C
330
479
100
AcDbEntity
  8
Capa 1
 62
     7
420
 16777215
370
     9
  0
POLYLINE
  5
47D
330
1F
100
AcDbEntity
  8
Capa 1
 62
     7
420
 16777215
370
     9
100
AcDb2dPolyline
 66
     1
 10
0.0
 20
0.0
 30
0.0
  0
VERTEX
  5
47E
330
47D
100
AcDbEntity
  8
Capa 1
 62
     7
420
 16777215
370
     9
100
AcDbVertex
100
AcDb2dVertex
 10
70.8813256510385
 20
155.1053917285136
 30
0.0
  0
VERTEX
  5
47F
330
47D
100
AcDbEntity
  8
Capa 1
 62
     7
420
 16777215
370
     9
100
AcDbVertex
100
AcDb2dVertex
 10
70.8813256510385
 20
155.1688891446761
 30
0.0
  0
SEQEND
  5
480
330
47D
100
AcDbEntity
  8
Capa 1
 62
     7
420
 16777215
370
     9
  0
POLYLINE
  5
481
330
1F
100
AcDbEntity
  8
Capa 1
 62
     7
420
 16777215
370
     9
100
AcDb2dPolyline
 66
     1
 10
0.0
 20
0.0
 30
0.0
  0
VERTEX
  5
482
330
481
100
AcDbEntity
  8
Capa 1
 62
     7
420
 16777215
370
     9
100
AcDbVertex
100
AcDb2dVertex
 10
70.8813256510385
 20
154.7878884988159
 30
0.0
  0
VERTEX
  5
483
330
481
100
AcDbEntity
  8
Capa 1
 62
     7
420
 16777215
370
     9
100
AcDbVertex
100
AcDb2dVertex
 10
70.8813256510385
 20
155.0736430204323
 30
0.0
  0
SEQEND
  5
484
330
481
100
AcDbEntity
  8
Capa 1
 62
     7
420
 16777215
370
     9
  0
POLYLINE
  5
485
330
1F
100
AcDbEntity
  8
Capa 1
 62
     7
420
 16777215
370
     9
100
AcDb2dPolyline
 66
     1
 10
0.0
 20
0.0
 30
0.0
  0
VERTEX
  5
486
330
485
100
AcDbEntity
  8
Capa 1
 62
     7
420
 16777215
370
     9
100
AcDbVertex
100
AcDb2dVertex
 10
70.8813256510385
 20
154.6926423745722
 30
0.0
  0
VERTEX
  5
487
330
485
100
AcDbEntity
  8
Capa 1
 62
     7
420
 16777215
370
     9
100
AcDbVertex
100
AcDb2dVertex
 10
70.8813256510385
 20
154.7243910826534
 30
0.0
  0
SEQEND
  5
488
330
485
100
AcDbEntity
  8
Capa 1
 62
     7
420
 16777215
370
     9
  0
POLYLINE
  5
489
330
1F
100
AcDbEntity
  8
Capa 1
 62
     7
420
 16777215
370
     9
100
AcDb2dPolyline
 66
     1
 10
0.0
 20
0.0
 30
0.0
  0
VERTEX
  5
48A
330
489
100
AcDbEntity
  8
Capa 1
 62
     7
420
 16777215
370
     9
100
AcDbVertex
100
AcDb2dVertex
 10
70.8813256510385
 20
154.3433904367932
 30
0.0
  0
VERTEX
  5
48B
330
489
100
AcDbEntity
  8
Capa 1
 62
     7
420
 16777215
370
     9
100
AcDbVertex
100
AcDb2dVertex
 10
70.8813256510385
 20
154.6291368839671
 30
0.0
  0
SEQEND
  5
48C
330
489
100
AcDbEntity
  8
Capa 1
 62
     7
420
 16777215
370
     9
  0
POLYLINE
  5
48D
330
1F
100
AcDbEntity
  8
Capa 1
 62
     7
420
 16777215
370
     9
100
AcDb2dPolyline
 66
     1
 10
0.0
 20
0.0
 30
0.0
  0
VERTEX
  5
48E
330
48D
100
AcDbEntity
  8
Capa 1
 62
     7
420
 16777215
370
     9
100
AcDbVertex
100
AcDb2dVertex
 10
70.8813256510385
 20
154.2481443125495
 30
0.0
  0
VERTEX
  5
48F
330
48D
100
AcDbEntity
  8
Capa 1
 62
     7
420
 16777215
370
     9
100
AcDbVertex
100
AcDb2dVertex
 10
70.8813256510385
 20
154.311641728712
 30
0.0
  0
SEQEND
  5
490
330
48D
100
AcDbEntity
  8
Capa 1
 62
     7
420
 16777215
370
     9
  0
POLYLINE
  5
491
330
1F
100
AcDbEntity
  8
Capa 1
 62
     7
420
 16777215
370
     9
100
AcDb2dPolyline
 66
     1
 10
0.0
 20
0.0
 30
0.0
  0
VERTEX
  5
492
330
491
100
AcDbEntity
  8
Capa 1
 62
     7
420
 16777215
370
     9
100
AcDbVertex
100
AcDb2dVertex
 10
70.8813256510385
 20
153.9306410828518
 30
0.0
  0
VERTEX
  5
493
330
491
100
AcDbEntity
  8
Capa 1
 62
     7
420
 16777215
370
     9
100
AcDbVertex
100
AcDb2dVertex
 10
70.8813256510385
 20
154.2163875300257
 30
0.0
  0
SEQEND
  5
494
330
491
100
AcDbEntity
  8
Capa 1
 62
     7
420
 16777215
370
     9
  0
POLYLINE
  5
495
330
1F
100
AcDbEntity
  8
Capa 1
 62
     7
420
 16777215
370
     9
100
AcDb2dPolyline
 66
     1
 10
0.0
 20
0.0
 30
0.0
  0
VERTEX
  5
496
330
495
100
AcDbEntity
  8
Capa 1
 62
     7
420
 16777215
370
     9
100
AcDbVertex
100
AcDb2dVertex
 10
70.8813256510385
 20
153.8353868841655
 30
0.0
  0
VERTEX
  5
497
330
495
100
AcDbEntity
  8
Capa 1
 62
     7
420
 16777215
370
     9
100
AcDbVertex
100
AcDb2dVertex
 10
70.8813256510385
 20
153.8988923747706
 30
0.0
  0
SEQEND
  5
498
330
495
100
AcDbEntity
  8
Capa 1
 62
     7
420
 16777215
370
     9
  0
POLYLINE
  5
499
330
1F
100
AcDbEntity
  8
Capa 1
 62
     7
420
 16777215
370
     9
100
AcDb2dPolyline
 66
     1
 10
0.0
 20
0.0
 30
0.0
  0
VERTEX
  5
49A
330
499
100
AcDbEntity
  8
Capa 1
 62
     7
420
 16777215
370
     9
100
AcDbVertex
100
AcDb2dVertex
 10
70.8813256510385
 20
153.5178917289104
 30
0.0
  0
VERTEX
  5
49B
330
499
100
AcDbEntity
  8
Capa 1
 62
     7
420
 16777215
370
     9
100
AcDbVertex
100
AcDb2dVertex
 10
70.8813256510385
 20
153.8036381760843
 30
0.0
  0
SEQEND
  5
49C
330
499
100
AcDbEntity
  8
Capa 1
 62
     7
420
 16777215
370
     9
  0
POLYLINE
  5
49D
330
1F
100
AcDbEntity
  8
Capa 1
 62
     7
420
 16777215
370
     9
100
AcDb2dPolyline
 66
     1
 10
0.0
 20
0.0
 30
0.0
  0
VERTEX
  5
49E
330
49D
100
AcDbEntity
  8
Capa 1
 62
     7
420
 16777215
370
     9
100
AcDbVertex
100
AcDb2dVertex
 10
70.8813256510385
 20
153.4226375302241
 30
0.0
  0
VERTEX
  5
49F
330
49D
100
AcDbEntity
  8
Capa 1
 62
     7
420
 16777215
370
     9
100
AcDbVertex
100
AcDb2dVertex
 10
70.8813256510385
 20
153.4543943127479
 30
0.0
  0
SEQEND
  5
4A0
330
49D
100
AcDbEntity
  8
Capa 1
 62
     7
420
 16777215
370
     9
  0
POLYLINE
  5
4A1
330
1F
100
AcDbEntity
  8
Capa 1
 62
     7
420
 16777215
370
     9
100
AcDb2dPolyline
 66
     1
 10
0.0
 20
0.0
 30
0.0
  0
VERTEX
  5
4A2
330
4A1
100
AcDbEntity
  8
Capa 1
 62
     7
420
 16777215
370
     9
100
AcDbVertex
100
AcDb2dVertex
 10
70.8813256510385
 20
153.105142374969
 30
0.0
  0
VERTEX
  5
4A3
330
4A1
100
AcDbEntity
  8
Capa 1
 62
     7
420
 16777215
370
     9
100
AcDbVertex
100
AcDb2dVertex
 10
70.8813256510385
 20
153.3591401140616
 30
0.0
  0
SEQEND
  5
4A4
330
4A1
100
AcDbEntity
  8
Capa 1
 62
     7
420
 16777215
370
     9
  0
POLYLINE
  5
4A5
330
1F
100
AcDbEntity
  8
Capa 1
 62
     7
420
 16777215
370
     9
100
AcDb2dPolyline
 66
     1
 10
0.0
 20
0.0
 30
0.0
  0
VERTEX
  5
4A6
330
4A5
100
AcDbEntity
  8
Capa 1
 62
     7
420
 16777215
370
     9
100
AcDbVertex
100
AcDb2dVertex
 10
70.8813256510385
 20
153.0098881762827
 30
0.0
  0
VERTEX
  5
4A7
330
4A5
100
AcDbEntity
  8
Capa 1
 62
     7
420
 16777215
370
     9
100
AcDbVertex
100
AcDb2dVertex
 10
70.8813256510385
 20
153.041636884364
 30
0.0
  0
SEQEND
  5
4A8
330
4A5
100
AcDbEntity
  8
Capa 1
 62
     7
420
 16777215
370
     9
  0
POLYLINE
  5
4A9
330
1F
100
AcDbEntity
  8
Capa 1
 62
     7
420
 16777215
370
     9
100
AcDb2dPolyline
 66
     1
 10
0.0
 20
0.0
 30
0.0
  0
VERTEX
  5
4AA
330
4A9
100
AcDbEntity
  8
Capa 1
 62
     7
420
 16777215
370
     9
100
AcDbVertex
100
AcDb2dVertex
 10
70.8813256510385
 20
152.6606443129464
 30
0.0
  0
VERTEX
  5
4AB
330
4A9
100
AcDbEntity
  8
Capa 1
 62
     7
420
 16777215
370
     9
100
AcDbVertex
100
AcDb2dVertex
 10
70.8813256510385
 20
152.9463907601202
 30
0.0
  0
SEQEND
  5
4AC
330
4A9
100
AcDbEntity
  8
Capa 1
 62
     7
420
 16777215
370
     9
  0
POLYLINE
  5
4AD
330
1F
100
AcDbEntity
  8
Capa 1
 62
     7
420
 16777215
370
     9
100
AcDb2dPolyline
 66
     1
 10
0.0
 20
0.0
 30
0.0
  0
VERTEX
  5
4AE
330
4AD
100
AcDbEntity
  8
Capa 1
 62
     7
420
 16777215
370
     9
100
AcDbVertex
100
AcDb2dVertex
 10
70.8813256510385
 20
152.5653901142601
 30
0.0
  0
VERTEX
  5
4AF
330
4AD
100
AcDbEntity
  8
Capa 1
 62
     7
420
 16777215
370
     9
100
AcDbVertex
100
AcDb2dVertex
 10
70.8813256510385
 20
152.6288875304226
 30
0.0
  0
SEQEND
  5
4B0
330
4AD
100
AcDbEntity
  8
Capa 1
 62
     7
420
 16777215
370
     9
  0
POLYLINE
  5
4B1
330
1F
100
AcDbEntity
  8
Capa 1
 62
     7
420
 16777215
370
     9
100
AcDb2dPolyline
 66
     1
 10
0.0
 20
0.0
 30
0.0
  0
VERTEX
  5
4B2
330
4B1
100
AcDbEntity
  8
Capa 1
 62
     7
420
 16777215
370
     9
100
AcDbVertex
100
AcDb2dVertex
 10
70.8813256510385
 20
152.2478868845624
 30
0.0
  0
VERTEX
  5
4B3
330
4B1
100
AcDbEntity
  8
Capa 1
 62
     7
420
 16777215
370
     9
100
AcDbVertex
100
AcDb2dVertex
 10
70.8813256510385
 20
152.5336414061788
 30
0.0
  0
SEQEND
  5
4B4
330
4B1
100
AcDbEntity
  8
Capa 1
 62
     7
420
 16777215
370
     9
  0
POLYLINE
  5
4B5
330
1F
100
AcDbEntity
  8
Capa 1
 62
     7
420
 16777215
370
     9
100
AcDb2dPolyline
 66
     1
 10
0.0
 20
0.0
 30
0.0
  0
VERTEX
  5
4B6
330
4B5
100
AcDbEntity
  8
Capa 1
 62
     7
420
 16777215
370
     9
100
AcDbVertex
100
AcDb2dVertex
 10
70.8813256510385
 20
152.1526407603186
 30
0.0
  0
VERTEX
  5
4B7
330
4B5
100
AcDbEntity
  8
Capa 1
 62
     7
420
 16777215
370
     9
100
AcDbVertex
100
AcDb2dVertex
 10
70.8813256510385
 20
152.2161381764812
 30
0.0
  0
SEQEND
  5
4B8
330
4B5
100
AcDbEntity
  8
Capa 1
 62
     7
420
 16777215
370
     9
  0
POLYLINE
  5
4B9
330
1F
100
AcDbEntity
  8
Capa 1
 62
     7
420
 16777215
370
     9
100
AcDb2dPolyline
 66
     1
 10
0.0
 20
0.0
 30
0.0
  0
VERTEX
  5
4BA
330
4B9
100
AcDbEntity
  8
Capa 1
 62
     7
420
 16777215
370
     9
100
AcDbVertex
100
AcDb2dVertex
 10
70.8813256510385
 20
151.835137530621
 30
0.0
  0
VERTEX
  5
4BB
330
4B9
100
AcDbEntity
  8
Capa 1
 62
     7
420
 16777215
370
     9
100
AcDbVertex
100
AcDb2dVertex
 10
70.8813256510385
 20
152.1208920522374
 30
0.0
  0
SEQEND
  5
4BC
330
4B9
100
AcDbEntity
  8
Capa 1
 62
     7
420
 16777215
370
     9
  0
POLYLINE
  5
4BD
330
1F
100
AcDbEntity
  8
Capa 1
 62
     7
420
 16777215
370
     9
100
AcDb2dPolyline
 66
     1
 10
0.0
 20
0.0
 30
0.0
  0
VERTEX
  5
4BE
330
4BD
100
AcDbEntity
  8
Capa 1
 62
     7
420
 16777215
370
     9
100
AcDbVertex
100
AcDb2dVertex
 10
70.8813256510385
 20
151.7398914063772
 30
0.0
  0
VERTEX
  5
4BF
330
4BD
100
AcDbEntity
  8
Capa 1
 62
     7
420
 16777215
370
     9
100
AcDbVertex
100
AcDb2dVertex
 10
70.8813256510385
 20
151.7716401144585
 30
0.0
  0
SEQEND
  5
4C0
330
4BD
100
AcDbEntity
  8
Capa 1
 62
     7
420
 16777215
370
     9
  0
POLYLINE
  5
4C1
330
1F
100
AcDbEntity
  8
Capa 1
 62
     7
420
 16777215
370
     9
100
AcDb2dPolyline
 66
     1
 10
0.0
 20
0.0
 30
0.0
  0
VERTEX
  5
4C2
330
4C1
100
AcDbEntity
  8
Capa 1
 62
     7
420
 16777215
370
     9
100
AcDbVertex
100
AcDb2dVertex
 10
70.8813256510385
 20
151.3906394685984
 30
0.0
  0
VERTEX
  5
4C3
330
4C1
100
AcDbEntity
  8
Capa 1
 62
     7
420
 16777215
370
     9
100
AcDbVertex
100
AcDb2dVertex
 10
70.8813256510385
 20
151.6763939902147
 30
0.0
  0
SEQEND
  5
4C4
330
4C1
100
AcDbEntity
  8
Capa 1
 62
     7
420
 16777215
370
     9
  0
POLYLINE
  5
4C5
330
1F
100
AcDbEntity
  8
Capa 1
 62
     7
420
 16777215
370
     9
100
AcDb2dPolyline
 66
     1
 10
0.0
 20
0.0
 30
0.0
  0
VERTEX
  5
4C6
330
4C5
100
AcDbEntity
  8
Capa 1
 62
     7
420
 16777215
370
     9
100
AcDbVertex
100
AcDb2dVertex
 10
70.8813256510385
 20
151.2953933443546
 30
0.0
  0
VERTEX
  5
4C7
330
4C5
100
AcDbEntity
  8
Capa 1
 62
     7
420
 16777215
370
     9
100
AcDbVertex
100
AcDb2dVertex
 10
70.8813256510385
 20
151.3588907605171
 30
0.0
  0
SEQEND
  5
4C8
330
4C5
100
AcDbEntity
  8
Capa 1
 62
     7
420
 16777215
370
     9
  0
POLYLINE
  5
4C9
330
1F
100
AcDbEntity
  8
Capa 1
 62
     7
420
 16777215
370
     9
100
AcDb2dPolyline
 66
     1
 10
0.0
 20
0.0
 30
0.0
  0
VERTEX
  5
4CA
330
4C9
100
AcDbEntity
  8
Capa 1
 62
     7
420
 16777215
370
     9
100
AcDbVertex
100
AcDb2dVertex
 10
70.8813256510385
 20
150.9778901146569
 30
0.0
  0
VERTEX
  5
4CB
330
4C9
100
AcDbEntity
  8
Capa 1
 62
     7
420
 16777215
370
     9
100
AcDbVertex
100
AcDb2dVertex
 10
70.8813256510385
 20
151.2636446362733
 30
0.0
  0
SEQEND
  5
4CC
330
4C9
100
AcDbEntity
  8
Capa 1
 62
     7
420
 16777215
370
     9
  0
POLYLINE
  5
4CD
330
1F
100
AcDbEntity
  8
Capa 1
 62
     7
420
 16777215
370
     9
100
AcDb2dPolyline
 66
     1
 10
0.0
 20
0.0
 30
0.0
  0
VERTEX
  5
4CE
330
4CD
100
AcDbEntity
  8
Capa 1
 62
     7
420
 16777215
370
     9
100
AcDbVertex
100
AcDb2dVertex
 10
70.8813256510385
 20
150.8826439904132
 30
0.0
  0
VERTEX
  5
4CF
330
4CD
100
AcDbEntity
  8
Capa 1
 62
     7
420
 16777215
370
     9
100
AcDbVertex
100
AcDb2dVertex
 10
70.8813256510385
 20
150.9461414065757
 30
0.0
  0
SEQEND
  5
4D0
330
4CD
100
AcDbEntity
  8
Capa 1
 62
     7
420
 16777215
370
     9
  0
POLYLINE
  5
4D1
330
1F
100
AcDbEntity
  8
Capa 1
 62
     7
420
 16777215
370
     9
100
AcDb2dPolyline
 66
     1
 10
0.0
 20
0.0
 30
0.0
  0
VERTEX
  5
4D2
330
4D1
100
AcDbEntity
  8
Capa 1
 62
     7
420
 16777215
370
     9
100
AcDbVertex
100
AcDb2dVertex
 10
70.8813256510385
 20
150.5651407607155
 30
0.0
  0
VERTEX
  5
4D3
330
4D1
100
AcDbEntity
  8
Capa 1
 62
     7
420
 16777215
370
     9
100
AcDbVertex
100
AcDb2dVertex
 10
70.8813256510385
 20
150.8508872078894
 30
0.0
  0
SEQEND
  5
4D4
330
4D1
100
AcDbEntity
  8
Capa 1
 62
     7
420
 16777215
370
     9
  0
POLYLINE
  5
4D5
330
1F
100
AcDbEntity
  8
Capa 1
 62
     7
420
 16777215
370
     9
100
AcDb2dPolyline
 66
     1
 10
0.0
 20
0.0
 30
0.0
  0
VERTEX
  5
4D6
330
4D5
100
AcDbEntity
  8
Capa 1
 62
     7
420
 16777215
370
     9
100
AcDbVertex
100
AcDb2dVertex
 10
70.8813256510385
 20
150.4698946364718
 30
0.0
  0
VERTEX
  5
4D7
330
4D5
100
AcDbEntity
  8
Capa 1
 62
     7
420
 16777215
370
     9
100
AcDbVertex
100
AcDb2dVertex
 10
70.8813256510385
 20
150.501643344553
 30
0.0
  0
SEQEND
  5
4D8
330
4D5
100
AcDbEntity
  8
Capa 1
 62
     7
420
 16777215
370
     9
  0
POLYLINE
  5
4D9
330
1F
100
AcDbEntity
  8
Capa 1
 62
     7
420
 16777215
370
     9
100
AcDb2dPolyline
 66
     1
 10
0.0
 20
0.0
 30
0.0
  0
VERTEX
  5
4DA
330
4D9
100
AcDbEntity
  8
Capa 1
 62
     7
420
 16777215
370
     9
100
AcDbVertex
100
AcDb2dVertex
 10
70.8813256510385
 20
150.1523914067741
 30
0.0
  0
VERTEX
  5
4DB
330
4D9
100
AcDbEntity
  8
Capa 1
 62
     7
420
 16777215
370
     9
100
AcDbVertex
100
AcDb2dVertex
 10
70.8813256510385
 20
150.4063891458667
 30
0.0
  0
SEQEND
  5
4DC
330
4D9
100
AcDbEntity
  8
Capa 1
 62
     7
420
 16777215
370
     9
  0
POLYLINE
  5
4DD
330
1F
100
AcDbEntity
  8
Capa 1
 62
     7
420
 16777215
370
     9
100
AcDb2dPolyline
 66
     1
 10
0.0
 20
0.0
 30
0.0
  0
VERTEX
  5
4DE
330
4DD
100
AcDbEntity
  8
Capa 1
 62
     7
420
 16777215
370
     9
100
AcDbVertex
100
AcDb2dVertex
 10
70.8813256510385
 20
150.0571372080878
 30
0.0
  0
VERTEX
  5
4DF
330
4DD
100
AcDbEntity
  8
Capa 1
 62
     7
420
 16777215
370
     9
100
AcDbVertex
100
AcDb2dVertex
 10
70.8813256510385
 20
150.0888939906116
 30
0.0
  0
SEQEND
  5
4E0
330
4DD
100
AcDbEntity
  8
Capa 1
 62
     7
420
 16777215
370
     9
  0
POLYLINE
  5
4E1
330
1F
100
AcDbEntity
  8
Capa 1
 62
     7
420
 16777215
370
     9
100
AcDb2dPolyline
 66
     1
 10
0.0
 20
0.0
 30
0.0
  0
VERTEX
  5
4E2
330
4E1
100
AcDbEntity
  8
Capa 1
 62
     7
420
 16777215
370
     9
100
AcDbVertex
100
AcDb2dVertex
 10
70.8813256510385
 20
149.7078933447515
 30
0.0
  0
VERTEX
  5
4E3
330
4E1
100
AcDbEntity
  8
Capa 1
 62
     7
420
 16777215
370
     9
100
AcDbVertex
100
AcDb2dVertex
 10
70.8813256510385
 20
149.9936397919253
 30
0.0
  0
SEQEND
  5
4E4
330
4E1
100
AcDbEntity
  8
Capa 1
 62
     7
420
 16777215
370
     9
  0
POLYLINE
  5
4E5
330
1F
100
AcDbEntity
  8
Capa 1
 62
     7
420
 16777215
370
     9
100
AcDb2dPolyline
 66
     1
 10
0.0
 20
0.0
 30
0.0
  0
VERTEX
  5
4E6
330
4E5
100
AcDbEntity
  8
Capa 1
 62
     7
420
 16777215
370
     9
100
AcDbVertex
100
AcDb2dVertex
 10
70.8813256510385
 20
149.6126391460651
 30
0.0
  0
VERTEX
  5
4E7
330
4E5
100
AcDbEntity
  8
Capa 1
 62
     7
420
 16777215
370
     9
100
AcDbVertex
100
AcDb2dVertex
 10
70.8813256510385
 20
149.6761446366702
 30
0.0
  0
SEQEND
  5
4E8
330
4E5
100
AcDbEntity
  8
Capa 1
 62
     7
420
 16777215
370
     9
  0
POLYLINE
  5
4E9
330
1F
100
AcDbEntity
  8
Capa 1
 62
     7
420
 16777215
370
     9
100
AcDb2dPolyline
 66
     1
 10
0.0
 20
0.0
 30
0.0
  0
VERTEX
  5
4EA
330
4E9
100
AcDbEntity
  8
Capa 1
 62
     7
420
 16777215
370
     9
100
AcDbVertex
100
AcDb2dVertex
 10
70.8813256510385
 20
149.29514399081
 30
0.0
  0
VERTEX
  5
4EB
330
4E9
100
AcDbEntity
  8
Capa 1
 62
     7
420
 16777215
370
     9
100
AcDbVertex
100
AcDb2dVertex
 10
70.8813256510385
 20
149.5808904379839
 30
0.0
  0
SEQEND
  5
4EC
330
4E9
100
AcDbEntity
  8
Capa 1
 62
     7
420
 16777215
370
     9
  0
POLYLINE
  5
4ED
330
1F
100
AcDbEntity
  8
Capa 1
 62
     7
420
 16777215
370
     9
100
AcDb2dPolyline
 66
     1
 10
0.0
 20
0.0
 30
0.0
  0
VERTEX
  5
4EE
330
4ED
100
AcDbEntity
  8
Capa 1
 62
     7
420
 16777215
370
     9
100
AcDbVertex
100
AcDb2dVertex
 10
70.8813256510385
 20
149.1998897921237
 30
0.0
  0
VERTEX
  5
4EF
330
4ED
100
AcDbEntity
  8
Capa 1
 62
     7
420
 16777215
370
     9
100
AcDbVertex
100
AcDb2dVertex
 10
70.8813256510385
 20
149.2633872082862
 30
0.0
  0
SEQEND
  5
4F0
330
4ED
100
AcDbEntity
  8
Capa 1
 62
     7
420
 16777215
370
     9
  0
POLYLINE
  5
4F1
330
1F
100
AcDbEntity
  8
Capa 1
 62
     7
420
 16777215
370
     9
100
AcDb2dPolyline
 66
     1
 10
0.0
 20
0.0
 30
0.0
  0
VERTEX
  5
4F2
330
4F1
100
AcDbEntity
  8
Capa 1
 62
     7
420
 16777215
370
     9
100
AcDbVertex
100
AcDb2dVertex
 10
70.8813256510385
 20
148.8823946368686
 30
0.0
  0
VERTEX
  5
4F3
330
4F1
100
AcDbEntity
  8
Capa 1
 62
     7
420
 16777215
370
     9
100
AcDbVertex
100
AcDb2dVertex
 10
70.8813256510385
 20
149.1681410840425
 30
0.0
  0
SEQEND
  5
4F4
330
4F1
100
AcDbEntity
  8
Capa 1
 62
     7
420
 16777215
370
     9
  0
POLYLINE
  5
4F5
330
1F
100
AcDbEntity
  8
Capa 1
 62
     7
420
 16777215
370
     9
100
AcDb2dPolyline
 66
     1
 10
0.0
 20
0.0
 30
0.0
  0
VERTEX
  5
4F6
330
4F5
100
AcDbEntity
  8
Capa 1
 62
     7
420
 16777215
370
     9
100
AcDbVertex
100
AcDb2dVertex
 10
70.8813256510385
 20
148.7871404381823
 30
0.0
  0
VERTEX
  5
4F7
330
4F5
100
AcDbEntity
  8
Capa 1
 62
     7
420
 16777215
370
     9
100
AcDbVertex
100
AcDb2dVertex
 10
70.8813256510385
 20
148.8188891462636
 30
0.0
  0
SEQEND
  5
4F8
330
4F5
100
AcDbEntity
  8
Capa 1
 62
     7
420
 16777215
370
     9
  0
POLYLINE
  5
4F9
330
1F
100
AcDbEntity
  8
Capa 1
 62
     7
420
 16777215
370
     9
100
AcDb2dPolyline
 66
     1
 10
0.0
 20
0.0
 30
0.0
  0
VERTEX
  5
4FA
330
4F9
100
AcDbEntity
  8
Capa 1
 62
     7
420
 16777215
370
     9
100
AcDbVertex
100
AcDb2dVertex
 10
70.8813256510385
 20
148.4378885004034
 30
0.0
  0
VERTEX
  5
4FB
330
4F9
100
AcDbEntity
  8
Capa 1
 62
     7
420
 16777215
370
     9
100
AcDbVertex
100
AcDb2dVertex
 10
70.8813256510385
 20
148.7236430220198
 30
0.0
  0
SEQEND
  5
4FC
330
4F9
100
AcDbEntity
  8
Capa 1
 62
     7
420
 16777215
370
     9
  0
POLYLINE
  5
4FD
330
1F
100
AcDbEntity
  8
Capa 1
 62
     7
420
 16777215
370
     9
100
AcDb2dPolyline
 66
     1
 10
0.0
 20
0.0
 30
0.0
  0
VERTEX
  5
4FE
330
4FD
100
AcDbEntity
  8
Capa 1
 62
     7
420
 16777215
370
     9
100
AcDbVertex
100
AcDb2dVertex
 10
70.8813256510385
 20
148.3426423761597
 30
0.0
  0
VERTEX
  5
4FF
330
4FD
100
AcDbEntity
  8
Capa 1
 62
     7
420
 16777215
370
     9
100
AcDbVertex
100
AcDb2dVertex
 10
70.8813256510385
 20
148.4061397923222
 30
0.0
  0
SEQEND
  5
500
330
4FD
100
AcDbEntity
  8
Capa 1
 62
     7
420
 16777215
370
     9
  0
POLYLINE
  5
501
330
1F
100
AcDbEntity
  8
Capa 1
 62
     7
420
 16777215
370
     9
100
AcDb2dPolyline
 66
     1
 10
0.0
 20
0.0
 30
0.0
  0
VERTEX
  5
502
330
501
100
AcDbEntity
  8
Capa 1
 62
     7
420
 16777215
370
     9
100
AcDbVertex
100
AcDb2dVertex
 10
70.8813256510385
 20
148.025139146462
 30
0.0
  0
VERTEX
  5
503
330
501
100
AcDbEntity
  8
Capa 1
 62
     7
420
 16777215
370
     9
100
AcDbVertex
100
AcDb2dVertex
 10
70.8813256510385
 20
148.3108936680784
 30
0.0
  0
SEQEND
  5
504
330
501
100
AcDbEntity
  8
Capa 1
 62
     7
420
 16777215
370
     9
  0
POLYLINE
  5
505
330
1F
100
AcDbEntity
  8
Capa 1
 62
     7
420
 16777215
370
     9
100
AcDb2dPolyline
 66
     1
 10
0.0
 20
0.0
 30
0.0
  0
VERTEX
  5
506
330
505
100
AcDbEntity
  8
Capa 1
 62
     7
420
 16777215
370
     9
100
AcDbVertex
100
AcDb2dVertex
 10
70.8813256510385
 20
147.9298930222182
 30
0.0
  0
VERTEX
  5
507
330
505
100
AcDbEntity
  8
Capa 1
 62
     7
420
 16777215
370
     9
100
AcDbVertex
100
AcDb2dVertex
 10
70.8813256510385
 20
147.9933904383807
 30
0.0
  0
SEQEND
  5
508
330
505
100
AcDbEntity
  8
Capa 1
 62
     7
420
 16777215
370
     9
  0
POLYLINE
  5
509
330
1F
100
AcDbEntity
  8
Capa 1
 62
     7
420
 16777215
370
     9
100
AcDb2dPolyline
 66
     1
 10
0.0
 20
0.0
 30
0.0
  0
VERTEX
  5
50A
330
509
100
AcDbEntity
  8
Capa 1
 62
     7
420
 16777215
370
     9
100
AcDbVertex
100
AcDb2dVertex
 10
70.8813256510385
 20
147.6123897925206
 30
0.0
  0
VERTEX
  5
50B
330
509
100
AcDbEntity
  8
Capa 1
 62
     7
420
 16777215
370
     9
100
AcDbVertex
100
AcDb2dVertex
 10
70.8813256510385
 20
147.898144314137
 30
0.0
  0
SEQEND
  5
50C
330
509
100
AcDbEntity
  8
Capa 1
 62
     7
420
 16777215
370
     9
  0
POLYLINE
  5
50D
330
1F
100
AcDbEntity
  8
Capa 1
 62
     7
420
 16777215
370
     9
100
AcDb2dPolyline
 66
     1
 10
0.0
 20
0.0
 30
0.0
  0
VERTEX
  5
50E
330
50D
100
AcDbEntity
  8
Capa 1
 62
     7
420
 16777215
370
     9
100
AcDbVertex
100
AcDb2dVertex
 10
70.8813256510385
 20
147.5171436682768
 30
0.0
  0
VERTEX
  5
50F
330
50D
100
AcDbEntity
  8
Capa 1
 62
     7
420
 16777215
370
     9
100
AcDbVertex
100
AcDb2dVertex
 10
70.8813256510385
 20
147.5488923763581
 30
0.0
  0
SEQEND
  5
510
330
50D
100
AcDbEntity
  8
Capa 1
 62
     7
420
 16777215
370
     9
  0
POLYLINE
  5
511
330
1F
100
AcDbEntity
  8
Capa 1
 62
     7
420
 16777215
370
     9
100
AcDb2dPolyline
 66
     1
 10
0.0
 20
0.0
 30
0.0
  0
VERTEX
  5
512
330
511
100
AcDbEntity
  8
Capa 1
 62
     7
420
 16777215
370
     9
100
AcDbVertex
100
AcDb2dVertex
 10
70.8813256510385
 20
147.1996404385792
 30
0.0
  0
VERTEX
  5
513
330
511
100
AcDbEntity
  8
Capa 1
 62
     7
420
 16777215
370
     9
100
AcDbVertex
100
AcDb2dVertex
 10
70.8813256510385
 20
147.4536381776718
 30
0.0
  0
SEQEND
  5
514
330
511
100
AcDbEntity
  8
Capa 1
 62
     7
420
 16777215
370
     9
  0
POLYLINE
  5
515
330
1F
100
AcDbEntity
  8
Capa 1
 62
     7
420
 16777215
370
     9
100
AcDb2dPolyline
 66
     1
 10
0.0
 20
0.0
 30
0.0
  0
VERTEX
  5
516
330
515
100
AcDbEntity
  8
Capa 1
 62
     7
420
 16777215
370
     9
100
AcDbVertex
100
AcDb2dVertex
 10
70.8813256510385
 20
147.1043943143354
 30
0.0
  0
VERTEX
  5
517
330
515
100
AcDbEntity
  8
Capa 1
 62
     7
420
 16777215
370
     9
100
AcDbVertex
100
AcDb2dVertex
 10
70.8813256510385
 20
147.1361430224167
 30
0.0
  0
SEQEND
  5
518
330
515
100
AcDbEntity
  8
Capa 1
 62
     7
420
 16777215
370
     9
  0
POLYLINE
  5
519
330
1F
100
AcDbEntity
  8
Capa 1
 62
     7
420
 16777215
370
     9
100
AcDb2dPolyline
 66
     1
 10
0.0
 20
0.0
 30
0.0
  0
VERTEX
  5
51A
330
519
100
AcDbEntity
  8
Capa 1
 62
     7
420
 16777215
370
     9
100
AcDbVertex
100
AcDb2dVertex
 10
70.8813256510385
 20
146.7868910846378
 30
0.0
  0
VERTEX
  5
51B
330
519
100
AcDbEntity
  8
Capa 1
 62
     7
420
 16777215
370
     9
100
AcDbVertex
100
AcDb2dVertex
 10
70.8813256510385
 20
147.0408888237304
 30
0.0
  0
SEQEND
  5
51C
330
519
100
AcDbEntity
  8
Capa 1
 62
     7
420
 16777215
370
     9
  0
POLYLINE
  5
51D
330
1F
100
AcDbEntity
  8
Capa 1
 62
     7
420
 16777215
370
     9
100
AcDb2dPolyline
 66
     1
 10
0.0
 20
0.0
 30
0.0
  0
VERTEX
  5
51E
330
51D
100
AcDbEntity
  8
Capa 1
 62
     7
420
 16777215
370
     9
100
AcDbVertex
100
AcDb2dVertex
 10
70.8813256510385
 20
155.2006378527573
 30
0.0
  0
VERTEX
  5
51F
330
51D
100
AcDbEntity
  8
Capa 1
 62
     7
420
 16777215
370
     9
100
AcDbVertex
100
AcDb2dVertex
 10
70.8813256510385
 20
155.4546436662925
 30
0.0
  0
SEQEND
  5
520
330
51D
100
AcDbEntity
  8
Capa 1
 62
     7
420
 16777215
370
     9
  0
POLYLINE
  5
521
330
1F
100
AcDbEntity
  8
Capa 1
 62
     7
420
 16777215
370
     9
100
AcDb2dPolyline
 66
     1
 10
0.0
 20
0.0
 30
0.0
  0
VERTEX
  5
522
330
521
100
AcDbEntity
  8
Capa 1
 62
     7
420
 16777215
370
     9
100
AcDbVertex
100
AcDb2dVertex
 10
72.97682920326933
 20
149.771390760914
 30
0.0
  0
VERTEX
  5
523
330
521
100
AcDbEntity
  8
Capa 1
 62
     7
420
 16777215
370
     9
100
AcDbVertex
100
AcDb2dVertex
 10
73.80232791115215
 20
149.771390760914
 30
0.0
  0
SEQEND
  5
524
330
521
100
AcDbEntity
  8
Capa 1
 62
     7
420
 16777215
370
     9
  0
POLYLINE
  5
525
330
1F
100
AcDbEntity
  8
Capa 1
 62
     7
420
 16777215
370
     9
100
AcDb2dPolyline
 66
     1
 10
0.0
 20
0.0
 30
0.0
  0
VERTEX
  5
526
330
525
100
AcDbEntity
  8
Capa 1
 62
     7
420
 16777215
370
     9
100
AcDbVertex
100
AcDb2dVertex
 10
71.73857710422384
 20
149.771390760914
 30
0.0
  0
VERTEX
  5
527
330
525
100
AcDbEntity
  8
Capa 1
 62
     7
420
 16777215
370
     9
100
AcDbVertex
100
AcDb2dVertex
 10
72.56407581210665
 20
149.771390760914
 30
0.0
  0
SEQEND
  5
528
330
525
100
AcDbEntity
  8
Capa 1
 62
     7
420
 16777215
370
     9
  0
POLYLINE
  5
529
330
1F
100
AcDbEntity
  8
Capa 1
 62
     7
420
 16777215
370
     9
100
AcDb2dPolyline
 66
     1
 10
0.0
 20
0.0
 30
0.0
  0
VERTEX
  5
52A
330
529
100
AcDbEntity
  8
Capa 1
 62
     7
420
 16777215
370
     9
100
AcDbVertex
100
AcDb2dVertex
 10
70.46857629709707
 20
149.771390760914
 30
0.0
  0
VERTEX
  5
52B
330
529
100
AcDbEntity
  8
Capa 1
 62
     7
420
 16777215
370
     9
100
AcDbVertex
100
AcDb2dVertex
 10
71.29407904220118
 20
149.771390760914
 30
0.0
  0
SEQEND
  5
52C
330
529
100
AcDbEntity
  8
Capa 1
 62
     7
420
 16777215
370
     9
  0
POLYLINE
  5
52D
330
1F
100
AcDbEntity
  8
Capa 1
 62
     7
420
 16777215
370
     9
100
AcDb2dPolyline
 66
     1
 10
0.0
 20
0.0
 30
0.0
  0
VERTEX
  5
52E
330
52D
100
AcDbEntity
  8
Capa 1
 62
     7
420
 16777215
370
     9
100
AcDbVertex
100
AcDb2dVertex
 10
69.23032823527285
 20
149.771390760914
 30
0.0
  0
VERTEX
  5
52F
330
52D
100
AcDbEntity
  8
Capa 1
 62
     7
420
 16777215
370
     9
100
AcDbVertex
100
AcDb2dVertex
 10
70.05582694315696
 20
149.771390760914
 30
0.0
  0
SEQEND
  5
530
330
52D
100
AcDbEntity
  8
Capa 1
 62
     7
420
 16777215
370
     9
  0
POLYLINE
  5
531
330
1F
100
AcDbEntity
  8
Capa 1
 62
     7
420
 16777215
370
     9
100
AcDb2dPolyline
 66
     1
 10
0.0
 20
0.0
 30
0.0
  0
VERTEX
  5
532
330
531
100
AcDbEntity
  8
Capa 1
 62
     7
420
 16777215
370
     9
100
AcDbVertex
100
AcDb2dVertex
 10
67.9603274281461
 20
149.771390760914
 30
0.0
  0
VERTEX
  5
533
330
531
100
AcDbEntity
  8
Capa 1
 62
     7
420
 16777215
370
     9
100
AcDbVertex
100
AcDb2dVertex
 10
68.81757888133144
 20
149.771390760914
 30
0.0
  0
SEQEND
  5
534
330
531
100
AcDbEntity
  8
Capa 1
 62
     7
420
 16777215
370
     9
  0
POLYLINE
  5
535
330
1F
100
AcDbEntity
  8
Capa 1
 62
     7
420
 16777215
370
     9
100
AcDb2dPolyline
 66
     1
 10
0.0
 20
0.0
 30
0.0
  0
VERTEX
  5
536
330
535
100
AcDbEntity
  8
Capa 1
 62
     7
420
 16777215
370
     9
100
AcDbVertex
100
AcDb2dVertex
 10
67.07132726687949
 20
149.771390760914
 30
0.0
  0
VERTEX
  5
537
330
535
100
AcDbEntity
  8
Capa 1
 62
     7
420
 16777215
370
     9
100
AcDbVertex
100
AcDb2dVertex
 10
67.5475780742047
 20
149.771390760914
 30
0.0
  0
SEQEND
  5
538
330
535
100
AcDbEntity
  8
Capa 1
 62
     7
420
 16777215
370
     9
  0
POLYLINE
  5
539
330
1F
100
AcDbEntity
  8
Capa 1
 62
     7
420
 16777215
370
     9
100
AcDb2dPolyline
 66
     1
 10
0.0
 20
0.0
 30
0.0
  0
VERTEX
  5
53A
330
539
100
AcDbEntity
  8
Capa 1
 62
     7
420
 16777215
370
     9
100
AcDbVertex
100
AcDb2dVertex
 10
74.21507726509356
 20
149.771390760914
 30
0.0
  0
VERTEX
  5
53B
330
539
100
AcDbEntity
  8
Capa 1
 62
     7
420
 16777215
370
     9
100
AcDbVertex
100
AcDb2dVertex
 10
74.72307678050001
 20
149.771390760914
 30
0.0
  0
SEQEND
  5
53C
330
539
100
AcDbEntity
  8
Capa 1
 62
     7
420
 16777215
370
     9
  0
POLYLINE
  5
53D
330
1F
100
AcDbEntity
  8
Capa 1
 62
     7
420
 16777215
370
     9
100
AcDb2dPolyline
 66
     1
 10
0.0
 20
0.0
 30
0.0
  0
VERTEX
  5
53E
330
53D
100
AcDbEntity
  8
Capa 1
 62
     7
420
 16777215
370
     9
100
AcDbVertex
100
AcDb2dVertex
 10
67.07132726687949
 20
143.9928917312917
 30
0.0
  0
VERTEX
  5
53F
330
53D
100
AcDbEntity
  8
Capa 1
 62
     7
420
 16777215
370
     9
100
AcDbVertex
100
AcDb2dVertex
 10
67.16657742834454
 20
143.9928917312917
 30
0.0
  0
SEQEND
  5
540
330
53D
100
AcDbEntity
  8
Capa 1
 62
     7
420
 16777215
370
     9
  0
POLYLINE
  5
541
330
1F
100
AcDbEntity
  8
Capa 1
 62
     7
420
 16777215
370
     9
100
AcDb2dPolyline
 66
     1
 10
0.0
 20
0.0
 30
0.0
  0
VERTEX
  5
542
330
541
100
AcDbEntity
  8
Capa 1
 62
     7
420
 16777215
370
     9
100
AcDbVertex
100
AcDb2dVertex
 10
74.72307678050001
 20
143.9928917312917
 30
0.0
  0
VERTEX
  5
543
330
541
100
AcDbEntity
  8
Capa 1
 62
     7
420
 16777215
370
     9
100
AcDbVertex
100
AcDb2dVertex
 10
74.62782661903496
 20
143.9928917312917
 30
0.0
  0
SEQEND
  5
544
330
541
100
AcDbEntity
  8
Capa 1
 62
     7
420
 16777215
370
     9
  0
POLYLINE
  5
545
330
1F
100
AcDbEntity
  8
Capa 1
 62
     7
420
 16777215
370
     9
100
AcDb2dPolyline
 66
     1
 10
0.0
 20
0.0
 30
0.0
  0
VERTEX
  5
546
330
545
100
AcDbEntity
  8
Capa 1
 62
     7
420
 16777215
370
     9
100
AcDbVertex
100
AcDb2dVertex
 10
65.7060762982877
 20
143.9928917312917
 30
0.0
  0
VERTEX
  5
547
330
545
100
AcDbEntity
  8
Capa 1
 62
     7
420
 16777215
370
     9
100
AcDbVertex
100
AcDb2dVertex
 10
64.37257807499844
 20
143.9928917312917
 30
0.0
  0
SEQEND
  5
548
330
545
100
AcDbEntity
  8
Capa 1
 62
     7
420
 16777215
370
     9
  0
POLYLINE
  5
549
330
1F
100
AcDbEntity
  8
Capa 1
 62
     7
420
 16777215
370
     9
100
AcDb2dPolyline
 66
     1
 10
0.0
 20
0.0
 30
0.0
  0
VERTEX
  5
54A
330
549
100
AcDbEntity
  8
Capa 1
 62
     7
420
 16777215
370
     9
100
AcDbVertex
100
AcDb2dVertex
 10
76.05657904101055
 20
143.9928917312917
 30
0.0
  0
VERTEX
  5
54B
330
549
100
AcDbEntity
  8
Capa 1
 62
     7
420
 16777215
370
     9
100
AcDbVertex
100
AcDb2dVertex
 10
77.42182597238107
 20
143.9928917312917
 30
0.0
  0
SEQEND
  5
54C
330
549
100
AcDbEntity
  8
Capa 1
 62
     7
420
 16777215
370
     9
  0
POLYLINE
  5
54D
330
1F
100
AcDbEntity
  8
Capa 1
 62
     7
420
 16777215
370
     9
100
AcDb2dPolyline
 66
     1
 10
0.0
 20
0.0
 30
0.0
  0
VERTEX
  5
54E
330
54D
100
AcDbEntity
  8
Capa 1
 62
     7
420
 16777215
370
     9
100
AcDbVertex
100
AcDb2dVertex
 10
67.07132726687949
 20
148.6283888233335
 30
0.0
  0
VERTEX
  5
54F
330
54D
100
AcDbEntity
  8
Capa 1
 62
     7
420
 16777215
370
     9
100
AcDbVertex
100
AcDb2dVertex
 10
67.07132726687949
 20
143.2308904395714
 30
0.0
  0
SEQEND
  5
550
330
54D
100
AcDbEntity
  8
Capa 1
 62
     7
420
 16777215
370
     9
  0
POLYLINE
  5
551
330
1F
100
AcDbEntity
  8
Capa 1
 62
     7
420
 16777215
370
     9
100
AcDb2dPolyline
 66
     1
 10
0.0
 20
0.0
 30
0.0
  0
VERTEX
  5
552
330
551
100
AcDbEntity
  8
Capa 1
 62
     7
420
 16777215
370
     9
100
AcDbVertex
100
AcDb2dVertex
 10
74.72307678050001
 20
148.6283888233335
 30
0.0
  0
VERTEX
  5
553
330
551
100
AcDbEntity
  8
Capa 1
 62
     7
420
 16777215
370
     9
100
AcDbVertex
100
AcDb2dVertex
 10
74.72307678050001
 20
143.2308904395714
 30
0.0
  0
SEQEND
  5
554
330
551
100
AcDbEntity
  8
Capa 1
 62
     7
420
 16777215
370
     9
  0
POLYLINE
  5
555
330
1F
100
AcDbEntity
  8
Capa 1
370
     0
100
AcDb2dPolyline
 66
     1
 10
0.0
 20
0.0
 30
0.0
  0
VERTEX
  5
556
330
555
100
AcDbEntity
  8
Capa 1
370
     0
100
AcDbVertex
100
AcDb2dVertex
 10
76.05657904101055
 20
144.215140762303
 30
0.0
  0
VERTEX
  5
557
330
555
100
AcDbEntity
  8
Capa 1
370
     0
100
AcDbVertex
100
AcDb2dVertex
 10
76.05657904101055
 20
143.7706427002803
 30
0.0
  0
VERTEX
  5
558
330
555
100
AcDbEntity
  8
Capa 1
370
     0
100
AcDbVertex
100
AcDb2dVertex
 10
74.72307678050001
 20
143.9928917312917
 30
0.0
  0
SEQEND
  5
55A
330
555
100
AcDbEntity
  8
Capa 1
370
     0
  0
HATCH
  5
559
330
1F
100
AcDbEntity
  8
Capa 1
 62
     7
420
 16777215
100
AcDbHatch
 10
0.0
 20
0.0
 30
0.0
210
0.0
220
0.0
230
1.0
  2
SOLID
 70
     1
 71
     0
 91
        1
 92
        1
 93
        3
 72
     1
 10
76.05657904101055
 20
144.215140762303
 11
76.05657904101055
 21
143.7706427002803
 72
     1
 10
76.05657904101055
 20
143.7706427002803
 11
74.72307678050001
 21
143.9928917312917
 72
     1
 10
74.72307678050001
 20
143.9928917312917
 11
76.05657904101055
 21
144.215140762303
 97
        0
 75
     0
 76
     1
 98
        0
  0
POLYLINE
  5
55B
330
1F
100
AcDbEntity
  8
Capa 1
370
     0
100
AcDb2dPolyline
 66
     1
 10
0.0
 20
0.0
 30
0.0
  0
VERTEX
  5
55C
330
55B
100
AcDbEntity
  8
Capa 1
370
     0
100
AcDbVertex
100
AcDb2dVertex
 10
65.7060762982877
 20
144.215140762303
 30
0.0
  0
VERTEX
  5
55D
330
55B
100
AcDbEntity
  8
Capa 1
370
     0
100
AcDbVertex
100
AcDb2dVertex
 10
65.7060762982877
 20
143.7706427002803
 30
0.0
  0
VERTEX
  5
55E
330
55B
100
AcDbEntity
  8
Capa 1
370
     0
100
AcDbVertex
100
AcDb2dVertex
 10
67.07132726687949
 20
143.9928917312917
 30
0.0
  0
SEQEND
  5
560
330
55B
100
AcDbEntity
  8
Capa 1
370
     0
  0
HATCH
  5
55F
330
1F
100
AcDbEntity
  8
Capa 1
 62
     7
420
 16777215
100
AcDbHatch
 10
0.0
 20
0.0
 30
0.0
210
0.0
220
0.0
230
1.0
  2
SOLID
 70
     1
 71
     0
 91
        1
 92
        1
 93
        3
 72
     1
 10
65.7060762982877
 20
144.215140762303
 11
65.7060762982877
 21
143.7706427002803
 72
     1
 10
65.7060762982877
 20
143.7706427002803
 11
67.07132726687949
 21
143.9928917312917
 72
     1
 10
67.07132726687949
 20
143.9928917312917
 11
65.7060762982877
 21
144.215140762303
 97
        0
 75
     0
 76
     1
 98
        0
  0
POLYLINE
  5
561
330
1F
100
AcDbEntity
  8
Capa 1
 62
     7
420
 16777215
370
     9
100
AcDb2dPolyline
 66
     1
 10
0.0
 20
0.0
 30
0.0
  0
VERTEX
  5
562
330
561
100
AcDbEntity
  8
Capa 1
 62
     7
420
 16777215
370
     9
100
AcDbVertex
100
AcDb2dVertex
 10
94.85257322271292
 20
140.0241417322839
 30
0.0
  0
VERTEX
  5
563
330
561
100
AcDbEntity
  8
Capa 1
 62
     7
420
 16777215
370
     9
100
AcDbVertex
100
AcDb2dVertex
 10
82.81932839336574
 20
140.0241417322839
 30
0.0
  0
SEQEND
  5
564
330
561
100
AcDbEntity
  8
Capa 1
 62
     7
420
 16777215
370
     9
  0
POLYLINE
  5
565
330
1F
100
AcDbEntity
  8
Capa 1
 62
     7
420
 16777215
370
     9
100
AcDb2dPolyline
 66
     1
 10
0.0
 20
0.0
 30
0.0
  0
VERTEX
  5
566
330
565
100
AcDbEntity
  8
Capa 1
 62
     7
420
 16777215
370
     9
100
AcDbVertex
100
AcDb2dVertex
 10
64.6900772674748
 20
140.0241417322839
 30
0.0
  0
VERTEX
  5
567
330
565
100
AcDbEntity
  8
Capa 1
 62
     7
420
 16777215
370
     9
100
AcDbVertex
100
AcDb2dVertex
 10
76.72332613404454
 20
140.0241417322839
 30
0.0
  0
SEQEND
  5
568
330
565
100
AcDbEntity
  8
Capa 1
 62
     7
420
 16777215
370
     9
  0
POLYLINE
  5
569
330
1F
100
AcDbEntity
  8
Capa 1
 62
     7
420
 16777215
370
     9
100
AcDb2dPolyline
 66
     1
 10
0.0
 20
0.0
 30
0.0
  0
VERTEX
  5
56A
330
569
100
AcDbEntity
  8
Capa 1
 62
     7
420
 16777215
370
     9
100
AcDbVertex
100
AcDb2dVertex
 10
96.18607548322345
 20
147.5171436682768
 30
0.0
  0
VERTEX
  5
56B
330
569
100
AcDbEntity
  8
Capa 1
 62
     7
420
 16777215
370
     9
100
AcDbVertex
100
AcDb2dVertex
 10
96.18607548322345
 20
139.2621404405636
 30
0.0
  0
SEQEND
  5
56C
330
569
100
AcDbEntity
  8
Capa 1
 62
     7
420
 16777215
370
     9
  0
POLYLINE
  5
56D
330
1F
100
AcDbEntity
  8
Capa 1
 62
     7
420
 16777215
370
     9
100
AcDb2dPolyline
 66
     1
 10
0.0
 20
0.0
 30
0.0
  0
VERTEX
  5
56E
330
56D
100
AcDbEntity
  8
Capa 1
 62
     7
420
 16777215
370
     9
100
AcDbVertex
100
AcDb2dVertex
 10
63.35657904418554
 20
147.5171436682768
 30
0.0
  0
VERTEX
  5
56F
330
56D
100
AcDbEntity
  8
Capa 1
 62
     7
420
 16777215
370
     9
100
AcDbVertex
100
AcDb2dVertex
 10
63.35657904418554
 20
139.2621404405636
 30
0.0
  0
SEQEND
  5
570
330
56D
100
AcDbEntity
  8
Capa 1
 62
     7
420
 16777215
370
     9
  0
POLYLINE
  5
571
330
1F
100
AcDbEntity
  8
Capa 1
370
     0
100
AcDb2dPolyline
 66
     1
 10
0.0
 20
0.0
 30
0.0
  0
VERTEX
  5
572
330
571
100
AcDbEntity
  8
Capa 1
370
     0
100
AcDbVertex
100
AcDb2dVertex
 10
64.6900772674748
 20
140.2463907632952
 30
0.0
  0
VERTEX
  5
573
330
571
100
AcDbEntity
  8
Capa 1
370
     0
100
AcDbVertex
100
AcDb2dVertex
 10
64.6900772674748
 20
139.8018927012725
 30
0.0
  0
VERTEX
  5
574
330
571
100
AcDbEntity
  8
Capa 1
370
     0
100
AcDbVertex
100
AcDb2dVertex
 10
63.35657904418554
 20
140.0241417322839
 30
0.0
  0
SEQEND
  5
576
330
571
100
AcDbEntity
  8
Capa 1
370
     0
  0
HATCH
  5
575
330
1F
100
AcDbEntity
  8
Capa 1
 62
     7
420
 16777215
100
AcDbHatch
 10
0.0
 20
0.0
 30
0.0
210
0.0
220
0.0
230
1.0
  2
SOLID
 70
     1
 71
     0
 91
        1
 92
        1
 93
        3
 72
     1
 10
64.6900772674748
 20
140.2463907632952
 11
64.6900772674748
 21
139.8018927012725
 72
     1
 10
64.6900772674748
 20
139.8018927012725
 11
63.35657904418554
 21
140.0241417322839
 72
     1
 10
63.35657904418554
 20
140.0241417322839
 11
64.6900772674748
 21
140.2463907632952
 97
        0
 75
     0
 76
     1
 98
        0
  0
POLYLINE
  5
577
330
1F
100
AcDbEntity
  8
Capa 1
370
     0
100
AcDb2dPolyline
 66
     1
 10
0.0
 20
0.0
 30
0.0
  0
VERTEX
  5
578
330
577
100
AcDbEntity
  8
Capa 1
370
     0
100
AcDbVertex
100
AcDb2dVertex
 10
94.85257322271292
 20
140.2463907632952
 30
0.0
  0
VERTEX
  5
579
330
577
100
AcDbEntity
  8
Capa 1
370
     0
100
AcDbVertex
100
AcDb2dVertex
 10
94.85257322271292
 20
139.8018927012725
 30
0.0
  0
VERTEX
  5
57A
330
577
100
AcDbEntity
  8
Capa 1
370
     0
100
AcDbVertex
100
AcDb2dVertex
 10
96.18607548322345
 20
140.0241417322839
 30
0.0
  0
SEQEND
  5
57C
330
577
100
AcDbEntity
  8
Capa 1
370
     0
  0
HATCH
  5
57B
330
1F
100
AcDbEntity
  8
Capa 1
 62
     7
420
 16777215
100
AcDbHatch
 10
0.0
 20
0.0
 30
0.0
210
0.0
220
0.0
230
1.0
  2
SOLID
 70
     1
 71
     0
 91
        1
 92
        1
 93
        3
 72
     1
 10
94.85257322271292
 20
140.2463907632952
 11
94.85257322271292
 21
139.8018927012725
 72
     1
 10
94.85257322271292
 20
139.8018927012725
 11
96.18607548322346
 21
140.0241417322839
 72
     1
 10
96.18607548322345
 20
140.0241417322839
 11
94.8525732227129
 21
140.2463907632952
 97
        0
 75
     0
 76
     1
 98
        0
  0
POLYLINE
  5
57D
330
1F
100
AcDbEntity
  8
Capa 1
 62
     7
420
 16777215
370
     9
100
AcDb2dPolyline
 66
     1
 10
0.0
 20
0.0
 30
0.0
  0
VERTEX
  5
57E
330
57D
100
AcDbEntity
  8
Capa 1
 62
     7
420
 16777215
370
     9
100
AcDbVertex
100
AcDb2dVertex
 10
110.8545761255117
 20
177.2986349404335
 30
0.0
  0
VERTEX
  5
57F
330
57D
100
AcDbEntity
  8
Capa 1
 62
     7
420
 16777215
370
     9
100
AcDbVertex
100
AcDb2dVertex
 10
110.8545761255117
 20
165.8368910798753
 30
0.0
  0
SEQEND
  5
580
330
57D
100
AcDbEntity
  8
Capa 1
 62
     7
420
 16777215
370
     9
  0
POLYLINE
  5
581
330
1F
100
AcDbEntity
  8
Capa 1
 62
     7
420
 16777215
370
     9
100
AcDb2dPolyline
 66
     1
 10
0.0
 20
0.0
 30
0.0
  0
VERTEX
  5
582
330
581
100
AcDbEntity
  8
Capa 1
 62
     7
420
 16777215
370
     9
100
AcDbVertex
100
AcDb2dVertex
 10
110.8545761255117
 20
149.9936397919253
 30
0.0
  0
VERTEX
  5
583
330
581
100
AcDbEntity
  8
Capa 1
 62
     7
420
 16777215
370
     9
100
AcDbVertex
100
AcDb2dVertex
 10
110.8545761255117
 20
162.0903901118788
 30
0.0
  0
SEQEND
  5
584
330
581
100
AcDbEntity
  8
Capa 1
 62
     7
420
 16777215
370
     9
  0
POLYLINE
  5
585
330
1F
100
AcDbEntity
  8
Capa 1
 62
     7
420
 16777215
370
     9
100
AcDb2dPolyline
 66
     1
 10
0.0
 20
0.0
 30
0.0
  0
VERTEX
  5
586
330
585
100
AcDbEntity
  8
Capa 1
 62
     7
420
 16777215
370
     9
100
AcDbVertex
100
AcDb2dVertex
 10
105.4888264498309
 20
178.6321291265015
 30
0.0
  0
VERTEX
  5
587
330
585
100
AcDbEntity
  8
Capa 1
 62
     7
420
 16777215
370
     9
100
AcDbVertex
100
AcDb2dVertex
 10
111.616577417232
 20
178.6321291265015
 30
0.0
  0
SEQEND
  5
588
330
585
100
AcDbEntity
  8
Capa 1
 62
     7
420
 16777215
370
     9
  0
POLYLINE
  5
589
330
1F
100
AcDbEntity
  8
Capa 1
 62
     7
420
 16777215
370
     9
100
AcDb2dPolyline
 66
     1
 10
0.0
 20
0.0
 30
0.0
  0
VERTEX
  5
58A
330
589
100
AcDbEntity
  8
Capa 1
 62
     7
420
 16777215
370
     9
100
AcDbVertex
100
AcDb2dVertex
 10
97.32907742080391
 20
148.6283888233335
 30
0.0
  0
VERTEX
  5
58B
330
589
100
AcDbEntity
  8
Capa 1
 62
     7
420
 16777215
370
     9
100
AcDbVertex
100
AcDb2dVertex
 10
111.616577417232
 20
148.6283888233335
 30
0.0
  0
SEQEND
  5
58C
330
589
100
AcDbEntity
  8
Capa 1
 62
     7
420
 16777215
370
     9
  0
POLYLINE
  5
58D
330
1F
100
AcDbEntity
  8
Capa 1
 62
     7
420
 16777215
370
     9
100
AcDb2dPolyline
 66
     1
 10
0.0
 20
0.0
 30
0.0
  0
VERTEX
  5
58E
330
58D
100
AcDbEntity
  8
Capa 1
 62
     7
420
 16777215
370
     9
100
AcDbVertex
100
AcDb2dVertex
 10
70.8813256510385
 20
140.7226375333991
 30
0.0
  0
VERTEX
  5
58F
330
58D
100
AcDbEntity
  8
Capa 1
 62
     7
420
 16777215
370
     9
100
AcDbVertex
100
AcDb2dVertex
 10
70.8813256510385
 20
142.6593894707812
 30
0.0
  0
SEQEND
  5
590
330
58D
100
AcDbEntity
  8
Capa 1
 62
     7
420
 16777215
370
     9
  0
POLYLINE
  5
591
330
1F
100
AcDbEntity
  8
Capa 1
370
     0
100
AcDb2dPolyline
 66
     1
 10
0.0
 20
0.0
 30
0.0
  0
VERTEX
  5
592
330
591
100
AcDbEntity
  8
Capa 1
370
     0
100
AcDbVertex
100
AcDb2dVertex
 10
110.6323270945004
 20
149.9936397919253
 30
0.0
  0
VERTEX
  5
593
330
591
100
AcDbEntity
  8
Capa 1
370
     0
100
AcDbVertex
100
AcDb2dVertex
 10
111.0768251565231
 20
149.9936397919253
 30
0.0
  0
VERTEX
  5
594
330
591
100
AcDbEntity
  8
Capa 1
370
     0
100
AcDbVertex
100
AcDb2dVertex
 10
110.8545761255117
 20
148.6283888233335
 30
0.0
  0
SEQEND
  5
596
330
591
100
AcDbEntity
  8
Capa 1
370
     0
  0
HATCH
  5
595
330
1F
100
AcDbEntity
  8
Capa 1
 62
     7
420
 16777215
100
AcDbHatch
 10
0.0
 20
0.0
 30
0.0
210
0.0
220
0.0
230
1.0
  2
SOLID
 70
     1
 71
     0
 91
        1
 92
        1
 93
        3
 72
     1
 10
110.6323270945004
 20
149.9936397919253
 11
111.0768251565231
 21
149.9936397919253
 72
     1
 10
111.0768251565231
 20
149.9936397919253
 11
110.8545761255117
 21
148.6283888233335
 72
     1
 10
110.8545761255117
 20
148.6283888233335
 11
110.6323270945004
 21
149.9936397919253
 97
        0
 75
     0
 76
     1
 98
        0
  0
POLYLINE
  5
597
330
1F
100
AcDbEntity
  8
Capa 1
370
     0
100
AcDb2dPolyline
 66
     1
 10
0.0
 20
0.0
 30
0.0
  0
VERTEX
  5
598
330
597
100
AcDbEntity
  8
Capa 1
370
     0
100
AcDbVertex
100
AcDb2dVertex
 10
110.6323270945004
 20
177.2986349404335
 30
0.0
  0
VERTEX
  5
599
330
597
100
AcDbEntity
  8
Capa 1
370
     0
100
AcDbVertex
100
AcDb2dVertex
 10
111.0768251565231
 20
177.2986349404335
 30
0.0
  0
VERTEX
  5
59A
330
597
100
AcDbEntity
  8
Capa 1
370
     0
100
AcDbVertex
100
AcDb2dVertex
 10
110.8545761255117
 20
178.6321291265015
 30
0.0
  0
SEQEND
  5
59C
330
597
100
AcDbEntity
  8
Capa 1
370
     0
  0
HATCH
  5
59B
330
1F
100
AcDbEntity
  8
Capa 1
 62
     7
420
 16777215
100
AcDbHatch
 10
0.0
 20
0.0
 30
0.0
210
0.0
220
0.0
230
1.0
  2
SOLID
 70
     1
 71
     0
 91
        1
 92
        1
 93
        3
 72
     1
 10
110.6323270945004
 20
177.2986349404335
 11
111.0768251565231
 21
177.2986349404335
 72
     1
 10
111.0768251565231
 20
177.2986349404335
 11
110.8545761255117
 21
178.6321291265015
 72
     1
 10
110.8545761255117
 20
178.6321291265015
 11
110.6323270945004
 21
177.2986349404335
 97
        0
 75
     0
 76
     1
 98
        0
  0
POLYLINE
  5
59D
330
1F
100
AcDbEntity
  8
Capa 1
 62
     7
420
 16777215
370
     9
100
AcDb2dPolyline
 66
     1
 10
0.0
 20
0.0
 30
0.0
  0
VERTEX
  5
59E
330
59D
100
AcDbEntity
  8
Capa 1
 62
     7
420
 16777215
370
     9
100
AcDbVertex
100
AcDb2dVertex
 10
61.35632969064101
 20
90.74814836564576
 30
0.0
  0
VERTEX
  5
59F
330
59D
100
AcDbEntity
  8
Capa 1
 62
     7
420
 16777215
370
     9
100
AcDbVertex
100
AcDb2dVertex
 10
61.32457694533976
 20
90.97039739665709
 30
0.0
  0
VERTEX
  5
5A0
330
59D
100
AcDbEntity
  8
Capa 1
 62
     7
420
 16777215
370
     9
100
AcDbVertex
100
AcDb2dVertex
 10
61.19757807579219
 20
91.12914901150592
 30
0.0
  0
VERTEX
  5
5A1
330
59D
100
AcDbEntity
  8
Capa 1
 62
     7
420
 16777215
370
     9
100
AcDbVertex
100
AcDb2dVertex
 10
61.16582936771093
 20
91.16089771958717
 30
0.0
  0
SEQEND
  5
5A2
330
59D
100
AcDbEntity
  8
Capa 1
 62
     7
420
 16777215
370
     9
  0
POLYLINE
  5
5A3
330
1F
100
AcDbEntity
  8
Capa 1
 62
     7
420
 16777215
370
     9
100
AcDb2dPolyline
 66
     1
 10
0.0
 20
0.0
 30
0.0
  0
VERTEX
  5
5A4
330
5A3
100
AcDbEntity
  8
Capa 1
 62
     7
420
 16777215
370
     9
100
AcDbVertex
100
AcDb2dVertex
 10
60.97532904478086
 20
91.2561478810522
 30
0.0
  0
VERTEX
  5
5A5
330
5A3
100
AcDbEntity
  8
Capa 1
 62
     7
420
 16777215
370
     9
100
AcDbVertex
100
AcDb2dVertex
 10
60.81657742993203
 20
91.319649334436
 30
0.0
  0
VERTEX
  5
5A6
330
5A3
100
AcDbEntity
  8
Capa 1
 62
     7
420
 16777215
370
     9
100
AcDbVertex
100
AcDb2dVertex
 10
60.59432839892199
 20
91.2561478810522
 30
0.0
  0
VERTEX
  5
5A7
330
5A3
100
AcDbEntity
  8
Capa 1
 62
     7
420
 16777215
370
     9
100
AcDbVertex
100
AcDb2dVertex
 10
60.5308269455382
 20
91.22439917297095
 30
0.0
  0
SEQEND
  5
5A8
330
5A3
100
AcDbEntity
  8
Capa 1
 62
     7
420
 16777215
370
     9
  0
POLYLINE
  5
5A9
330
1F
100
AcDbEntity
  8
Capa 1
 62
     7
420
 16777215
370
     9
100
AcDb2dPolyline
 66
     1
 10
0.0
 20
0.0
 30
0.0
  0
VERTEX
  5
5AA
330
5A9
100
AcDbEntity
  8
Capa 1
 62
     7
420
 16777215
370
     9
100
AcDbVertex
100
AcDb2dVertex
 10
60.37207936790937
 20
91.06564755812212
 30
0.0
  0
VERTEX
  5
5AB
330
5A9
100
AcDbEntity
  8
Capa 1
 62
     7
420
 16777215
370
     9
100
AcDbVertex
100
AcDb2dVertex
 10
60.27682920644433
 20
90.97039739665709
 30
0.0
  0
VERTEX
  5
5AC
330
5A9
100
AcDbEntity
  8
Capa 1
 62
     7
420
 16777215
370
     9
100
AcDbVertex
100
AcDb2dVertex
 10
60.24507646114181
 20
90.74814836564576
 30
0.0
  0
VERTEX
  5
5AD
330
5A9
100
AcDbEntity
  8
Capa 1
 62
     7
420
 16777215
370
     9
100
AcDbVertex
100
AcDb2dVertex
 10
60.27682920644433
 20
90.62114949609946
 30
0.0
  0
SEQEND
  5
5AE
330
5A9
100
AcDbEntity
  8
Capa 1
 62
     7
420
 16777215
370
     9
  0
POLYLINE
  5
5AF
330
1F
100
AcDbEntity
  8
Capa 1
 62
     7
420
 16777215
370
     9
100
AcDb2dPolyline
 66
     1
 10
0.0
 20
0.0
 30
0.0
  0
VERTEX
  5
5B0
330
5AF
100
AcDbEntity
  8
Capa 1
 62
     7
420
 16777215
370
     9
100
AcDbVertex
100
AcDb2dVertex
 10
60.37207936790937
 20
90.43064917316939
 30
0.0
  0
VERTEX
  5
5B1
330
5AF
100
AcDbEntity
  8
Capa 1
 62
     7
420
 16777215
370
     9
100
AcDbVertex
100
AcDb2dVertex
 10
60.40382807599062
 20
90.33539901170435
 30
0.0
  0
VERTEX
  5
5B2
330
5AF
100
AcDbEntity
  8
Capa 1
 62
     7
420
 16777215
370
     9
100
AcDbVertex
100
AcDb2dVertex
 10
60.59432839892199
 20
90.20839610493678
 30
0.0
  0
VERTEX
  5
5B3
330
5AF
100
AcDbEntity
  8
Capa 1
 62
     7
420
 16777215
370
     9
100
AcDbVertex
100
AcDb2dVertex
 10
60.75307597654825
 20
90.17664739685553
 30
0.0
  0
SEQEND
  5
5B4
330
5AF
100
AcDbEntity
  8
Capa 1
 62
     7
420
 16777215
370
     9
  0
POLYLINE
  5
5B5
330
1F
100
AcDbEntity
  8
Capa 1
 62
     7
420
 16777215
370
     9
100
AcDb2dPolyline
 66
     1
 10
0.0
 20
0.0
 30
0.0
  0
VERTEX
  5
5B6
330
5B5
100
AcDbEntity
  8
Capa 1
 62
     7
420
 16777215
370
     9
100
AcDbVertex
100
AcDb2dVertex
 10
60.97532904478086
 20
90.20839610493678
 30
0.0
  0
VERTEX
  5
5B7
330
5B5
100
AcDbEntity
  8
Capa 1
 62
     7
420
 16777215
370
     9
100
AcDbVertex
100
AcDb2dVertex
 10
61.00707775286211
 20
90.20839610493678
 30
0.0
  0
VERTEX
  5
5B8
330
5B5
100
AcDbEntity
  8
Capa 1
 62
     7
420
 16777215
370
     9
100
AcDbVertex
100
AcDb2dVertex
 10
61.19757807579219
 20
90.33539901170435
 30
0.0
  0
VERTEX
  5
5B9
330
5B5
100
AcDbEntity
  8
Capa 1
 62
     7
420
 16777215
370
     9
100
AcDbVertex
100
AcDb2dVertex
 10
61.32457694533976
 20
90.52589933463443
 30
0.0
  0
SEQEND
  5
5BA
330
5B5
100
AcDbEntity
  8
Capa 1
 62
     7
420
 16777215
370
     9
  0
POLYLINE
  5
5BB
330
1F
100
AcDbEntity
  8
Capa 1
 62
     7
420
 16777215
370
     9
100
AcDb2dPolyline
 66
     1
 10
0.0
 20
0.0
 30
0.0
  0
VERTEX
  5
5BC
330
5BB
100
AcDbEntity
  8
Capa 1
 62
     7
420
 16777215
370
     9
100
AcDbVertex
100
AcDb2dVertex
 10
61.35632969064101
 20
90.74814836564576
 30
0.0
  0
VERTEX
  5
5BD
330
5BB
100
AcDbEntity
  8
Capa 1
 62
     7
420
 16777215
370
     9
100
AcDbVertex
100
AcDb2dVertex
 10
61.38807839872355
 20
90.74814836564576
 30
0.0
  0
SEQEND
  5
5BE
330
5BB
100
AcDbEntity
  8
Capa 1
 62
     7
420
 16777215
370
     9
  0
POLYLINE
  5
5BF
330
1F
100
AcDbEntity
  8
Capa 1
 62
     7
420
 16777215
370
     9
100
AcDb2dPolyline
 66
     1
 10
0.0
 20
0.0
 30
0.0
  0
VERTEX
  5
5C0
330
5BF
100
AcDbEntity
  8
Capa 1
 62
     7
420
 16777215
370
     9
100
AcDbVertex
100
AcDb2dVertex
 10
61.35632969064101
 20
102.749644486913
 30
0.0
  0
VERTEX
  5
5C1
330
5BF
100
AcDbEntity
  8
Capa 1
 62
     7
420
 16777215
370
     9
100
AcDbVertex
100
AcDb2dVertex
 10
61.32457694533976
 20
102.9718935179243
 30
0.0
  0
VERTEX
  5
5C2
330
5BF
100
AcDbEntity
  8
Capa 1
 62
     7
420
 16777215
370
     9
100
AcDbVertex
100
AcDb2dVertex
 10
61.19757807579219
 20
103.1306451327731
 30
0.0
  0
VERTEX
  5
5C3
330
5BF
100
AcDbEntity
  8
Capa 1
 62
     7
420
 16777215
370
     9
100
AcDbVertex
100
AcDb2dVertex
 10
61.16582936771093
 20
103.1623938408544
 30
0.0
  0
SEQEND
  5
5C4
330
5BF
100
AcDbEntity
  8
Capa 1
 62
     7
420
 16777215
370
     9
  0
POLYLINE
  5
5C5
330
1F
100
AcDbEntity
  8
Capa 1
 62
     7
420
 16777215
370
     9
100
AcDb2dPolyline
 66
     1
 10
0.0
 20
0.0
 30
0.0
  0
VERTEX
  5
5C6
330
5C5
100
AcDbEntity
  8
Capa 1
 62
     7
420
 16777215
370
     9
100
AcDbVertex
100
AcDb2dVertex
 10
60.97532904478086
 20
103.2576440023194
 30
0.0
  0
VERTEX
  5
5C7
330
5C5
100
AcDbEntity
  8
Capa 1
 62
     7
420
 16777215
370
     9
100
AcDbVertex
100
AcDb2dVertex
 10
60.81657742993203
 20
103.3211454557032
 30
0.0
  0
VERTEX
  5
5C8
330
5C5
100
AcDbEntity
  8
Capa 1
 62
     7
420
 16777215
370
     9
100
AcDbVertex
100
AcDb2dVertex
 10
60.59432839892199
 20
103.2576440023194
 30
0.0
  0
VERTEX
  5
5C9
330
5C5
100
AcDbEntity
  8
Capa 1
 62
     7
420
 16777215
370
     9
100
AcDbVertex
100
AcDb2dVertex
 10
60.5308269455382
 20
103.2258952942382
 30
0.0
  0
SEQEND
  5
5CA
330
5C5
100
AcDbEntity
  8
Capa 1
 62
     7
420
 16777215
370
     9
  0
POLYLINE
  5
5CB
330
1F
100
AcDbEntity
  8
Capa 1
 62
     7
420
 16777215
370
     9
100
AcDb2dPolyline
 66
     1
 10
0.0
 20
0.0
 30
0.0
  0
VERTEX
  5
5CC
330
5CB
100
AcDbEntity
  8
Capa 1
 62
     7
420
 16777215
370
     9
100
AcDbVertex
100
AcDb2dVertex
 10
60.37207936790937
 20
103.0671436793893
 30
0.0
  0
VERTEX
  5
5CD
330
5CB
100
AcDbEntity
  8
Capa 1
 62
     7
420
 16777215
370
     9
100
AcDbVertex
100
AcDb2dVertex
 10
60.27682920644433
 20
102.9718935179243
 30
0.0
  0
VERTEX
  5
5CE
330
5CB
100
AcDbEntity
  8
Capa 1
 62
     7
420
 16777215
370
     9
100
AcDbVertex
100
AcDb2dVertex
 10
60.24507646114181
 20
102.749644486913
 30
0.0
  0
VERTEX
  5
5CF
330
5CB
100
AcDbEntity
  8
Capa 1
 62
     7
420
 16777215
370
     9
100
AcDbVertex
100
AcDb2dVertex
 10
60.27682920644433
 20
102.6226456173667
 30
0.0
  0
SEQEND
  5
5D0
330
5CB
100
AcDbEntity
  8
Capa 1
 62
     7
420
 16777215
370
     9
  0
POLYLINE
  5
5D1
330
1F
100
AcDbEntity
  8
Capa 1
 62
     7
420
 16777215
370
     9
100
AcDb2dPolyline
 66
     1
 10
0.0
 20
0.0
 30
0.0
  0
VERTEX
  5
5D2
330
5D1
100
AcDbEntity
  8
Capa 1
 62
     7
420
 16777215
370
     9
100
AcDbVertex
100
AcDb2dVertex
 10
60.37207936790937
 20
102.4321452944366
 30
0.0
  0
VERTEX
  5
5D3
330
5D1
100
AcDbEntity
  8
Capa 1
 62
     7
420
 16777215
370
     9
100
AcDbVertex
100
AcDb2dVertex
 10
60.40382807599062
 20
102.3368951329715
 30
0.0
  0
VERTEX
  5
5D4
330
5D1
100
AcDbEntity
  8
Capa 1
 62
     7
420
 16777215
370
     9
100
AcDbVertex
100
AcDb2dVertex
 10
60.59432839892199
 20
102.209892226204
 30
0.0
  0
VERTEX
  5
5D5
330
5D1
100
AcDbEntity
  8
Capa 1
 62
     7
420
 16777215
370
     9
100
AcDbVertex
100
AcDb2dVertex
 10
60.75307597654825
 20
102.1781435181227
 30
0.0
  0
SEQEND
  5
5D6
330
5D1
100
AcDbEntity
  8
Capa 1
 62
     7
420
 16777215
370
     9
  0
POLYLINE
  5
5D7
330
1F
100
AcDbEntity
  8
Capa 1
 62
     7
420
 16777215
370
     9
100
AcDb2dPolyline
 66
     1
 10
0.0
 20
0.0
 30
0.0
  0
VERTEX
  5
5D8
330
5D7
100
AcDbEntity
  8
Capa 1
 62
     7
420
 16777215
370
     9
100
AcDbVertex
100
AcDb2dVertex
 10
60.97532904478086
 20
102.209892226204
 30
0.0
  0
VERTEX
  5
5D9
330
5D7
100
AcDbEntity
  8
Capa 1
 62
     7
420
 16777215
370
     9
100
AcDbVertex
100
AcDb2dVertex
 10
61.00707775286211
 20
102.209892226204
 30
0.0
  0
VERTEX
  5
5DA
330
5D7
100
AcDbEntity
  8
Capa 1
 62
     7
420
 16777215
370
     9
100
AcDbVertex
100
AcDb2dVertex
 10
61.19757807579219
 20
102.3368951329715
 30
0.0
  0
VERTEX
  5
5DB
330
5D7
100
AcDbEntity
  8
Capa 1
 62
     7
420
 16777215
370
     9
100
AcDbVertex
100
AcDb2dVertex
 10
61.32457694533976
 20
102.5273954559016
 30
0.0
  0
SEQEND
  5
5DC
330
5D7
100
AcDbEntity
  8
Capa 1
 62
     7
420
 16777215
370
     9
  0
POLYLINE
  5
5DD
330
1F
100
AcDbEntity
  8
Capa 1
 62
     7
420
 16777215
370
     9
100
AcDb2dPolyline
 66
     1
 10
0.0
 20
0.0
 30
0.0
  0
VERTEX
  5
5DE
330
5DD
100
AcDbEntity
  8
Capa 1
 62
     7
420
 16777215
370
     9
100
AcDbVertex
100
AcDb2dVertex
 10
61.35632969064101
 20
102.749644486913
 30
0.0
  0
VERTEX
  5
5DF
330
5DD
100
AcDbEntity
  8
Capa 1
 62
     7
420
 16777215
370
     9
100
AcDbVertex
100
AcDb2dVertex
 10
61.38807839872355
 20
102.749644486913
 30
0.0
  0
SEQEND
  5
5E0
330
5DD
100
AcDbEntity
  8
Capa 1
 62
     7
420
 16777215
370
     9
  0
POLYLINE
  5
5E1
330
1F
100
AcDbEntity
  8
Capa 1
 62
     7
420
 16777215
370
     9
100
AcDb2dPolyline
 66
     1
 10
0.0
 20
0.0
 30
0.0
  0
VERTEX
  5
5E2
330
5E1
100
AcDbEntity
  8
Capa 1
 62
     7
420
 16777215
370
     9
100
AcDbVertex
100
AcDb2dVertex
 10
60.81657742993203
 20
102.940144809843
 30
0.0
  0
VERTEX
  5
5E3
330
5E1
100
AcDbEntity
  8
Capa 1
 62
     7
420
 16777215
370
     9
100
AcDbVertex
100
AcDb2dVertex
 10
60.81657742993203
 20
102.749644486913
 30
0.0
  0
VERTEX
  5
5E4
330
5E1
100
AcDbEntity
  8
Capa 1
 62
     7
420
 16777215
370
     9
100
AcDbVertex
100
AcDb2dVertex
 10
60.62607710700195
 20
102.749644486913
 30
0.0
  0
SEQEND
  5
5E5
330
5E1
100
AcDbEntity
  8
Capa 1
 62
     7
420
 16777215
370
     9
  0
POLYLINE
  5
5E6
330
1F
100
AcDbEntity
  8
Capa 1
 62
     7
420
 16777215
370
     9
100
AcDb2dPolyline
 66
     1
 10
0.0
 20
0.0
 30
0.0
  0
VERTEX
  5
5E7
330
5E6
100
AcDbEntity
  8
Capa 1
 62
     7
420
 16777215
370
     9
100
AcDbVertex
100
AcDb2dVertex
 10
60.81657742993203
 20
102.5591441639829
 30
0.0
  0
VERTEX
  5
5E8
330
5E6
100
AcDbEntity
  8
Capa 1
 62
     7
420
 16777215
370
     9
100
AcDbVertex
100
AcDb2dVertex
 10
60.81657742993203
 20
102.749644486913
 30
0.0
  0
VERTEX
  5
5E9
330
5E6
100
AcDbEntity
  8
Capa 1
 62
     7
420
 16777215
370
     9
100
AcDbVertex
100
AcDb2dVertex
 10
61.00707775286211
 20
102.749644486913
 30
0.0
  0
SEQEND
  5
5EA
330
5E6
100
AcDbEntity
  8
Capa 1
 62
     7
420
 16777215
370
     9
  0
POLYLINE
  5
5EB
330
1F
100
AcDbEntity
  8
Capa 1
 62
     7
420
 16777215
370
     9
100
AcDb2dPolyline
 66
     1
 10
0.0
 20
0.0
 30
0.0
  0
VERTEX
  5
5EC
330
5EB
100
AcDbEntity
  8
Capa 1
 62
     7
420
 16777215
370
     9
100
AcDbVertex
100
AcDb2dVertex
 10
61.19757807579219
 20
102.749644486913
 30
0.0
  0
VERTEX
  5
5ED
330
5EB
100
AcDbEntity
  8
Capa 1
 62
     7
420
 16777215
370
     9
100
AcDbVertex
100
AcDb2dVertex
 10
61.54682597634982
 20
102.749644486913
 30
0.0
  0
SEQEND
  5
5EE
330
5EB
100
AcDbEntity
  8
Capa 1
 62
     7
420
 16777215
370
     9
  0
POLYLINE
  5
5EF
330
1F
100
AcDbEntity
  8
Capa 1
 62
     7
420
 16777215
370
     9
100
AcDb2dPolyline
 66
     1
 10
0.0
 20
0.0
 30
0.0
  0
VERTEX
  5
5F0
330
5EF
100
AcDbEntity
  8
Capa 1
 62
     7
420
 16777215
370
     9
100
AcDbVertex
100
AcDb2dVertex
 10
60.81657742993203
 20
102.3686438410528
 30
0.0
  0
VERTEX
  5
5F1
330
5EF
100
AcDbEntity
  8
Capa 1
 62
     7
420
 16777215
370
     9
100
AcDbVertex
100
AcDb2dVertex
 10
60.81657742993203
 20
101.9876431951927
 30
0.0
  0
SEQEND
  5
5F2
330
5EF
100
AcDbEntity
  8
Capa 1
 62
     7
420
 16777215
370
     9
  0
POLYLINE
  5
5F3
330
1F
100
AcDbEntity
  8
Capa 1
 62
     7
420
 16777215
370
     9
100
AcDb2dPolyline
 66
     1
 10
0.0
 20
0.0
 30
0.0
  0
VERTEX
  5
5F4
330
5F3
100
AcDbEntity
  8
Capa 1
 62
     7
420
 16777215
370
     9
100
AcDbVertex
100
AcDb2dVertex
 10
60.43557678407188
 20
102.749644486913
 30
0.0
  0
VERTEX
  5
5F5
330
5F3
100
AcDbEntity
  8
Capa 1
 62
     7
420
 16777215
370
     9
100
AcDbVertex
100
AcDb2dVertex
 10
60.05457613821173
 20
102.749644486913
 30
0.0
  0
SEQEND
  5
5F6
330
5F3
100
AcDbEntity
  8
Capa 1
 62
     7
420
 16777215
370
     9
  0
POLYLINE
  5
5F7
330
1F
100
AcDbEntity
  8
Capa 1
 62
     7
420
 16777215
370
     9
100
AcDb2dPolyline
 66
     1
 10
0.0
 20
0.0
 30
0.0
  0
VERTEX
  5
5F8
330
5F7
100
AcDbEntity
  8
Capa 1
 62
     7
420
 16777215
370
     9
100
AcDbVertex
100
AcDb2dVertex
 10
60.81657742993203
 20
103.1306451327731
 30
0.0
  0
VERTEX
  5
5F9
330
5F7
100
AcDbEntity
  8
Capa 1
 62
     7
420
 16777215
370
     9
100
AcDbVertex
100
AcDb2dVertex
 10
60.81657742993203
 20
103.4798930333307
 30
0.0
  0
SEQEND
  5
5FA
330
5F7
100
AcDbEntity
  8
Capa 1
 62
     7
420
 16777215
370
     9
  0
POLYLINE
  5
5FB
330
1F
100
AcDbEntity
  8
Capa 1
 62
     7
420
 16777215
370
     9
100
AcDb2dPolyline
 66
     1
 10
0.0
 20
0.0
 30
0.0
  0
VERTEX
  5
5FC
330
5FB
100
AcDbEntity
  8
Capa 1
 62
     7
420
 16777215
370
     9
100
AcDbVertex
100
AcDb2dVertex
 10
60.81657742993203
 20
90.93864868857584
 30
0.0
  0
VERTEX
  5
5FD
330
5FB
100
AcDbEntity
  8
Capa 1
 62
     7
420
 16777215
370
     9
100
AcDbVertex
100
AcDb2dVertex
 10
60.81657742993203
 20
90.74814836564576
 30
0.0
  0
VERTEX
  5
5FE
330
5FB
100
AcDbEntity
  8
Capa 1
 62
     7
420
 16777215
370
     9
100
AcDbVertex
100
AcDb2dVertex
 10
60.62607710700195
 20
90.74814836564576
 30
0.0
  0
SEQEND
  5
5FF
330
5FB
100
AcDbEntity
  8
Capa 1
 62
     7
420
 16777215
370
     9
  0
POLYLINE
  5
600
330
1F
100
AcDbEntity
  8
Capa 1
 62
     7
420
 16777215
370
     9
100
AcDb2dPolyline
 66
     1
 10
0.0
 20
0.0
 30
0.0
  0
VERTEX
  5
601
330
600
100
AcDbEntity
  8
Capa 1
 62
     7
420
 16777215
370
     9
100
AcDbVertex
100
AcDb2dVertex
 10
60.81657742993203
 20
90.55764804271568
 30
0.0
  0
VERTEX
  5
602
330
600
100
AcDbEntity
  8
Capa 1
 62
     7
420
 16777215
370
     9
100
AcDbVertex
100
AcDb2dVertex
 10
60.81657742993203
 20
90.74814836564576
 30
0.0
  0
VERTEX
  5
603
330
600
100
AcDbEntity
  8
Capa 1
 62
     7
420
 16777215
370
     9
100
AcDbVertex
100
AcDb2dVertex
 10
61.00707775286211
 20
90.74814836564576
 30
0.0
  0
SEQEND
  5
604
330
600
100
AcDbEntity
  8
Capa 1
 62
     7
420
 16777215
370
     9
  0
POLYLINE
  5
605
330
1F
100
AcDbEntity
  8
Capa 1
 62
     7
420
 16777215
370
     9
100
AcDb2dPolyline
 66
     1
 10
0.0
 20
0.0
 30
0.0
  0
VERTEX
  5
606
330
605
100
AcDbEntity
  8
Capa 1
 62
     7
420
 16777215
370
     9
100
AcDbVertex
100
AcDb2dVertex
 10
60.56257969083945
 20
96.74889642627936
 30
0.0
  0
VERTEX
  5
607
330
605
100
AcDbEntity
  8
Capa 1
 62
     7
420
 16777215
370
     9
100
AcDbVertex
100
AcDb2dVertex
 10
61.03882646094337
 20
96.74889642627936
 30
0.0
  0
SEQEND
  5
608
330
605
100
AcDbEntity
  8
Capa 1
 62
     7
420
 16777215
370
     9
  0
POLYLINE
  5
609
330
1F
100
AcDbEntity
  8
Capa 1
 62
     7
420
 16777215
370
     9
100
AcDb2dPolyline
 66
     1
 10
0.0
 20
0.0
 30
0.0
  0
VERTEX
  5
60A
330
609
100
AcDbEntity
  8
Capa 1
 62
     7
420
 16777215
370
     9
100
AcDbVertex
100
AcDb2dVertex
 10
58.4670761386086
 20
96.74889642627936
 30
0.0
  0
VERTEX
  5
60B
330
609
100
AcDbEntity
  8
Capa 1
 62
     7
420
 16777215
370
     9
100
AcDbVertex
100
AcDb2dVertex
 10
60.11807759159551
 20
96.74889642627936
 30
0.0
  0
SEQEND
  5
60C
330
609
100
AcDbEntity
  8
Capa 1
 62
     7
420
 16777215
370
     9
  0
POLYLINE
  5
60D
330
1F
100
AcDbEntity
  8
Capa 1
 62
     7
420
 16777215
370
     9
100
AcDb2dPolyline
 66
     1
 10
0.0
 20
0.0
 30
0.0
  0
VERTEX
  5
60E
330
60D
100
AcDbEntity
  8
Capa 1
 62
     7
420
 16777215
370
     9
100
AcDbVertex
100
AcDb2dVertex
 10
61.19757807579219
 20
90.74814836564576
 30
0.0
  0
VERTEX
  5
60F
330
60D
100
AcDbEntity
  8
Capa 1
 62
     7
420
 16777215
370
     9
100
AcDbVertex
100
AcDb2dVertex
 10
61.54682597634982
 20
90.74814836564576
 30
0.0
  0
SEQEND
  5
610
330
60D
100
AcDbEntity
  8
Capa 1
 62
     7
420
 16777215
370
     9
  0
POLYLINE
  5
611
330
1F
100
AcDbEntity
  8
Capa 1
 62
     7
420
 16777215
370
     9
100
AcDb2dPolyline
 66
     1
 10
0.0
 20
0.0
 30
0.0
  0
VERTEX
  5
612
330
611
100
AcDbEntity
  8
Capa 1
 62
     7
420
 16777215
370
     9
100
AcDbVertex
100
AcDb2dVertex
 10
60.81657742993203
 20
90.3671477197856
 30
0.0
  0
VERTEX
  5
613
330
611
100
AcDbEntity
  8
Capa 1
 62
     7
420
 16777215
370
     9
100
AcDbVertex
100
AcDb2dVertex
 10
60.81657742993203
 20
89.98614707392545
 30
0.0
  0
SEQEND
  5
614
330
611
100
AcDbEntity
  8
Capa 1
 62
     7
420
 16777215
370
     9
  0
POLYLINE
  5
615
330
1F
100
AcDbEntity
  8
Capa 1
 62
     7
420
 16777215
370
     9
100
AcDb2dPolyline
 66
     1
 10
0.0
 20
0.0
 30
0.0
  0
VERTEX
  5
616
330
615
100
AcDbEntity
  8
Capa 1
 62
     7
420
 16777215
370
     9
100
AcDbVertex
100
AcDb2dVertex
 10
60.43557678407188
 20
90.74814836564576
 30
0.0
  0
VERTEX
  5
617
330
615
100
AcDbEntity
  8
Capa 1
 62
     7
420
 16777215
370
     9
100
AcDbVertex
100
AcDb2dVertex
 10
60.05457613821173
 20
90.74814836564576
 30
0.0
  0
SEQEND
  5
618
330
615
100
AcDbEntity
  8
Capa 1
 62
     7
420
 16777215
370
     9
  0
POLYLINE
  5
619
330
1F
100
AcDbEntity
  8
Capa 1
 62
     7
420
 16777215
370
     9
100
AcDb2dPolyline
 66
     1
 10
0.0
 20
0.0
 30
0.0
  0
VERTEX
  5
61A
330
619
100
AcDbEntity
  8
Capa 1
 62
     7
420
 16777215
370
     9
100
AcDbVertex
100
AcDb2dVertex
 10
60.81657742993203
 20
91.12914901150592
 30
0.0
  0
VERTEX
  5
61B
330
619
100
AcDbEntity
  8
Capa 1
 62
     7
420
 16777215
370
     9
100
AcDbVertex
100
AcDb2dVertex
 10
60.81657742993203
 20
91.47839691206353
 30
0.0
  0
SEQEND
  5
61C
330
619
100
AcDbEntity
  8
Capa 1
 62
     7
420
 16777215
370
     9
  0
POLYLINE
  5
61D
330
1F
100
AcDbEntity
  8
Capa 1
 62
     7
420
 16777215
370
     9
100
AcDb2dPolyline
 66
     1
 10
0.0
 20
0.0
 30
0.0
  0
VERTEX
  5
61E
330
61D
100
AcDbEntity
  8
Capa 1
 62
     7
420
 16777215
370
     9
100
AcDbVertex
100
AcDb2dVertex
 10
61.51507726826856
 20
96.74889642627936
 30
0.0
  0
VERTEX
  5
61F
330
61D
100
AcDbEntity
  8
Capa 1
 62
     7
420
 16777215
370
     9
100
AcDbVertex
100
AcDb2dVertex
 10
63.16607872125547
 20
96.74889642627936
 30
0.0
  0
SEQEND
  5
620
330
61D
100
AcDbEntity
  8
Capa 1
 62
     7
420
 16777215
370
     9
  0
POLYLINE
  5
621
330
1F
100
AcDbEntity
  8
Capa 1
 62
     7
420
 16777215
370
     9
100
AcDb2dPolyline
 66
     1
 10
0.0
 20
0.0
 30
0.0
  0
VERTEX
  5
622
330
621
100
AcDbEntity
  8
Capa 1
 62
     7
420
 16777215
370
     9
100
AcDbVertex
100
AcDb2dVertex
 10
60.81657742993203
 20
97.03464691067448
 30
0.0
  0
VERTEX
  5
623
330
621
100
AcDbEntity
  8
Capa 1
 62
     7
420
 16777215
370
     9
100
AcDbVertex
100
AcDb2dVertex
 10
60.81657742993203
 20
96.59014884865181
 30
0.0
  0
SEQEND
  5
624
330
621
100
AcDbEntity
  8
Capa 1
 62
     7
420
 16777215
370
     9
  0
POLYLINE
  5
625
330
1F
100
AcDbEntity
  8
Capa 1
 62
     7
420
 16777215
370
     9
100
AcDb2dPolyline
 66
     1
 10
0.0
 20
0.0
 30
0.0
  0
VERTEX
  5
626
330
625
100
AcDbEntity
  8
Capa 1
 62
     7
420
 16777215
370
     9
100
AcDbVertex
100
AcDb2dVertex
 10
60.81657742993203
 20
99.5111470715442
 30
0.0
  0
VERTEX
  5
627
330
625
100
AcDbEntity
  8
Capa 1
 62
     7
420
 16777215
370
     9
100
AcDbVertex
100
AcDb2dVertex
 10
60.81657742993203
 20
97.51089771799967
 30
0.0
  0
SEQEND
  5
628
330
625
100
AcDbEntity
  8
Capa 1
 62
     7
420
 16777215
370
     9
  0
POLYLINE
  5
629
330
1F
100
AcDbEntity
  8
Capa 1
 62
     7
420
 16777215
370
     9
100
AcDb2dPolyline
 66
     1
 10
0.0
 20
0.0
 30
0.0
  0
VERTEX
  5
62A
330
629
100
AcDbEntity
  8
Capa 1
 62
     7
420
 16777215
370
     9
100
AcDbVertex
100
AcDb2dVertex
 10
60.81657742993203
 20
96.11389804132662
 30
0.0
  0
VERTEX
  5
62B
330
629
100
AcDbEntity
  8
Capa 1
 62
     7
420
 16777215
370
     9
100
AcDbVertex
100
AcDb2dVertex
 10
60.81657742993203
 20
94.11364868778209
 30
0.0
  0
SEQEND
  5
62C
330
629
100
AcDbEntity
  8
Capa 1
 62
     7
420
 16777215
370
     9
  0
POLYLINE
  5
62D
330
1F
100
AcDbEntity
  8
Capa 1
 62
     7
420
 16777215
370
     9
100
AcDb2dPolyline
 66
     1
 10
0.0
 20
0.0
 30
0.0
  0
VERTEX
  5
62E
330
62D
100
AcDbEntity
  8
Capa 1
 62
     7
420
 16777215
370
     9
100
AcDbVertex
100
AcDb2dVertex
 10
52.65670122843502
 20
92.08164658893503
 30
0.0
  0
VERTEX
  5
62F
330
62D
100
AcDbEntity
  8
Capa 1
 62
     7
420
 16777215
370
     9
100
AcDbVertex
100
AcDb2dVertex
 10
52.65670122843502
 20
94.87564594228112
 30
0.0
  0
SEQEND
  5
630
330
62D
100
AcDbEntity
  8
Capa 1
 62
     7
420
 16777215
370
     9
  0
POLYLINE
  5
631
330
1F
100
AcDbEntity
  8
Capa 1
 62
     7
420
 16777215
370
     9
100
AcDb2dPolyline
 66
     1
 10
0.0
 20
0.0
 30
0.0
  0
VERTEX
  5
632
330
631
100
AcDbEntity
  8
Capa 1
 62
     7
420
 16777215
370
     9
100
AcDbVertex
100
AcDb2dVertex
 10
52.65670122843502
 20
101.3843975555424
 30
0.0
  0
VERTEX
  5
633
330
631
100
AcDbEntity
  8
Capa 1
 62
     7
420
 16777215
370
     9
100
AcDbVertex
100
AcDb2dVertex
 10
52.65670122843502
 20
98.6221469102776
 30
0.0
  0
SEQEND
  5
634
330
631
100
AcDbEntity
  8
Capa 1
 62
     7
420
 16777215
370
     9
  0
POLYLINE
  5
635
330
1F
100
AcDbEntity
  8
Capa 1
 62
     7
420
 16777215
370
     9
100
AcDb2dPolyline
 66
     1
 10
0.0
 20
0.0
 30
0.0
  0
VERTEX
  5
636
330
635
100
AcDbEntity
  8
Capa 1
 62
     7
420
 16777215
370
     9
100
AcDbVertex
100
AcDb2dVertex
 10
59.67357952957285
 20
90.74814836564576
 30
0.0
  0
VERTEX
  5
637
330
635
100
AcDbEntity
  8
Capa 1
 62
     7
420
 16777215
370
     9
100
AcDbVertex
100
AcDb2dVertex
 10
51.9264506634066
 20
90.74814836564576
 30
0.0
  0
SEQEND
  5
638
330
635
100
AcDbEntity
  8
Capa 1
 62
     7
420
 16777215
370
     9
  0
POLYLINE
  5
639
330
1F
100
AcDbEntity
  8
Capa 1
 62
     7
420
 16777215
370
     9
100
AcDb2dPolyline
 66
     1
 10
0.0
 20
0.0
 30
0.0
  0
VERTEX
  5
63A
330
639
100
AcDbEntity
  8
Capa 1
 62
     7
420
 16777215
370
     9
100
AcDbVertex
100
AcDb2dVertex
 10
59.67357952957285
 20
102.749644486913
 30
0.0
  0
VERTEX
  5
63B
330
639
100
AcDbEntity
  8
Capa 1
 62
     7
420
 16777215
370
     9
100
AcDbVertex
100
AcDb2dVertex
 10
51.9264506634066
 20
102.749644486913
 30
0.0
  0
SEQEND
  5
63C
330
639
100
AcDbEntity
  8
Capa 1
 62
     7
420
 16777215
370
     9
  0
POLYLINE
  5
63D
330
1F
100
AcDbEntity
  8
Capa 1
370
     0
100
AcDb2dPolyline
 66
     1
 10
0.0
 20
0.0
 30
0.0
  0
VERTEX
  5
63E
330
63D
100
AcDbEntity
  8
Capa 1
370
     0
100
AcDbVertex
100
AcDb2dVertex
 10
52.43445017881304
 20
101.3843975555424
 30
0.0
  0
VERTEX
  5
63F
330
63D
100
AcDbEntity
  8
Capa 1
370
     0
100
AcDbVertex
100
AcDb2dVertex
 10
52.91070098613824
 20
101.3843975555424
 30
0.0
  0
VERTEX
  5
640
330
63D
100
AcDbEntity
  8
Capa 1
370
     0
100
AcDbVertex
100
AcDb2dVertex
 10
52.65670122843502
 20
102.749644486913
 30
0.0
  0
SEQEND
  5
642
330
63D
100
AcDbEntity
  8
Capa 1
370
     0
  0
HATCH
  5
641
330
1F
100
AcDbEntity
  8
Capa 1
 62
     7
420
 16777215
100
AcDbHatch
 10
0.0
 20
0.0
 30
0.0
210
0.0
220
0.0
230
1.0
  2
SOLID
 70
     1
 71
     0
 91
        1
 92
        1
 93
        3
 72
     1
 10
52.43445017881304
 20
101.3843975555424
 11
52.91070098613824
 21
101.3843975555424
 72
     1
 10
52.91070098613824
 20
101.3843975555424
 11
52.65670122843501
 21
102.749644486913
 72
     1
 10
52.65670122843502
 20
102.749644486913
 11
52.43445017881305
 21
101.3843975555424
 97
        0
 75
     0
 76
     1
 98
        0
  0
POLYLINE
  5
643
330
1F
100
AcDbEntity
  8
Capa 1
370
     0
100
AcDb2dPolyline
 66
     1
 10
0.0
 20
0.0
 30
0.0
  0
VERTEX
  5
644
330
643
100
AcDbEntity
  8
Capa 1
370
     0
100
AcDbVertex
100
AcDb2dVertex
 10
52.43445017881304
 20
92.08164658893503
 30
0.0
  0
VERTEX
  5
645
330
643
100
AcDbEntity
  8
Capa 1
370
     0
100
AcDbVertex
100
AcDb2dVertex
 10
52.91070098613824
 20
92.08164658893503
 30
0.0
  0
VERTEX
  5
646
330
643
100
AcDbEntity
  8
Capa 1
370
     0
100
AcDbVertex
100
AcDb2dVertex
 10
52.65670122843502
 20
90.74814836564576
 30
0.0
  0
SEQEND
  5
648
330
643
100
AcDbEntity
  8
Capa 1
370
     0
  0
HATCH
  5
647
330
1F
100
AcDbEntity
  8
Capa 1
 62
     7
420
 16777215
100
AcDbHatch
 10
0.0
 20
0.0
 30
0.0
210
0.0
220
0.0
230
1.0
  2
SOLID
 70
     1
 71
     0
 91
        1
 92
        1
 93
        3
 72
     1
 10
52.43445017881304
 20
92.08164658893503
 11
52.91070098613824
 21
92.08164658893503
 72
     1
 10
52.91070098613824
 20
92.08164658893503
 11
52.65670122843501
 21
90.74814836564576
 72
     1
 10
52.65670122843502
 20
90.74814836564576
 11
52.43445017881305
 21
92.08164658893503
 97
        0
 75
     0
 76
     1
 98
        0
  0
POLYLINE
  5
649
330
1F
100
AcDbEntity
  8
Capa 1
 62
     7
420
 16777215
370
     9
100
AcDb2dPolyline
 66
     1
 10
0.0
 20
0.0
 30
0.0
  0
VERTEX
  5
64A
330
649
100
AcDbEntity
  8
Capa 1
 62
     7
420
 16777215
370
     9
100
AcDbVertex
100
AcDb2dVertex
 10
58.18132969143476
 20
88.62089610533366
 30
0.0
  0
VERTEX
  5
64B
330
649
100
AcDbEntity
  8
Capa 1
 62
     7
420
 16777215
370
     9
100
AcDbVertex
100
AcDb2dVertex
 10
58.18132969143476
 20
88.36689836624107
 30
0.0
  0
SEQEND
  5
64C
330
649
100
AcDbEntity
  8
Capa 1
 62
     7
420
 16777215
370
     9
  0
POLYLINE
  5
64D
330
1F
100
AcDbEntity
  8
Capa 1
 62
     7
420
 16777215
370
     9
100
AcDb2dPolyline
 66
     1
 10
0.0
 20
0.0
 30
0.0
  0
VERTEX
  5
64E
330
64D
100
AcDbEntity
  8
Capa 1
 62
     7
420
 16777215
370
     9
100
AcDbVertex
100
AcDb2dVertex
 10
58.18132969143476
 20
90.43064917316939
 30
0.0
  0
VERTEX
  5
64F
330
64D
100
AcDbEntity
  8
Capa 1
 62
     7
420
 16777215
370
     9
100
AcDbVertex
100
AcDb2dVertex
 10
58.18132969143476
 20
88.84314917356626
 30
0.0
  0
SEQEND
  5
650
330
64D
100
AcDbEntity
  8
Capa 1
 62
     7
420
 16777215
370
     9
  0
POLYLINE
  5
651
330
1F
100
AcDbEntity
  8
Capa 1
 62
     7
420
 16777215
370
     9
100
AcDb2dPolyline
 66
     1
 10
0.0
 20
0.0
 30
0.0
  0
VERTEX
  5
652
330
651
100
AcDbEntity
  8
Capa 1
 62
     7
420
 16777215
370
     9
100
AcDbVertex
100
AcDb2dVertex
 10
58.18132969143476
 20
88.14464933522974
 30
0.0
  0
VERTEX
  5
653
330
651
100
AcDbEntity
  8
Capa 1
 62
     7
420
 16777215
370
     9
100
AcDbVertex
100
AcDb2dVertex
 10
58.18132969143476
 20
86.55714933562662
 30
0.0
  0
SEQEND
  5
654
330
651
100
AcDbEntity
  8
Capa 1
 62
     7
420
 16777215
370
     9
  0
POLYLINE
  5
655
330
1F
100
AcDbEntity
  8
Capa 1
 62
     7
420
 16777215
370
     9
100
AcDb2dPolyline
 66
     1
 10
0.0
 20
0.0
 30
0.0
  0
VERTEX
  5
656
330
655
100
AcDbEntity
  8
Capa 1
 62
     7
420
 16777215
370
     9
100
AcDbVertex
100
AcDb2dVertex
 10
58.30832856098105
 20
88.49389723578736
 30
0.0
  0
VERTEX
  5
657
330
655
100
AcDbEntity
  8
Capa 1
 62
     7
420
 16777215
370
     9
100
AcDbVertex
100
AcDb2dVertex
 10
58.0543267846672
 20
88.49389723578736
 30
0.0
  0
SEQEND
  5
658
330
655
100
AcDbEntity
  8
Capa 1
 62
     7
420
 16777215
370
     9
  0
POLYLINE
  5
659
330
1F
100
AcDbEntity
  8
Capa 1
 62
     7
420
 16777215
370
     9
100
AcDb2dPolyline
 66
     1
 10
0.0
 20
0.0
 30
0.0
  0
VERTEX
  5
65A
330
659
100
AcDbEntity
  8
Capa 1
 62
     7
420
 16777215
370
     9
100
AcDbVertex
100
AcDb2dVertex
 10
60.11807759159551
 20
88.49389723578736
 30
0.0
  0
VERTEX
  5
65B
330
659
100
AcDbEntity
  8
Capa 1
 62
     7
420
 16777215
370
     9
100
AcDbVertex
100
AcDb2dVertex
 10
58.53057759199238
 20
88.49389723578736
 30
0.0
  0
SEQEND
  5
65C
330
659
100
AcDbEntity
  8
Capa 1
 62
     7
420
 16777215
370
     9
  0
POLYLINE
  5
65D
330
1F
100
AcDbEntity
  8
Capa 1
 62
     7
420
 16777215
370
     9
100
AcDb2dPolyline
 66
     1
 10
0.0
 20
0.0
 30
0.0
  0
VERTEX
  5
65E
330
65D
100
AcDbEntity
  8
Capa 1
 62
     7
420
 16777215
370
     9
100
AcDbVertex
100
AcDb2dVertex
 10
57.83207775365586
 20
88.49389723578736
 30
0.0
  0
VERTEX
  5
65F
330
65D
100
AcDbEntity
  8
Capa 1
 62
     7
420
 16777215
370
     9
100
AcDbVertex
100
AcDb2dVertex
 10
56.24457977266337
 20
88.49389723578736
 30
0.0
  0
SEQEND
  5
660
330
65D
100
AcDbEntity
  8
Capa 1
 62
     7
420
 16777215
370
     9
  0
POLYLINE
  5
661
330
1F
100
AcDbEntity
  8
Capa 1
 62
     7
420
 16777215
370
     9
100
AcDb2dPolyline
 66
     1
 10
0.0
 20
0.0
 30
0.0
  0
VERTEX
  5
662
330
661
100
AcDbEntity
  8
Capa 1
 62
     7
420
 16777215
370
     9
100
AcDbVertex
100
AcDb2dVertex
 10
58.87982952977129
 20
88.49389723578736
 30
0.0
  0
VERTEX
  5
663
330
661
100
AcDbEntity
  8
Capa 1
 62
     7
420
 16777215
370
     9
100
AcDbVertex
100
AcDb2dVertex
 10
58.84807678446876
 20
88.77964772018248
 30
0.0
  0
VERTEX
  5
664
330
661
100
AcDbEntity
  8
Capa 1
 62
     7
420
 16777215
370
     9
100
AcDbVertex
100
AcDb2dVertex
 10
58.78457936830625
 20
88.84314917356626
 30
0.0
  0
SEQEND
  5
665
330
661
100
AcDbEntity
  8
Capa 1
 62
     7
420
 16777215
370
     9
  0
POLYLINE
  5
666
330
1F
100
AcDbEntity
  8
Capa 1
 62
     7
420
 16777215
370
     9
100
AcDb2dPolyline
 66
     1
 10
0.0
 20
0.0
 30
0.0
  0
VERTEX
  5
667
330
666
100
AcDbEntity
  8
Capa 1
 62
     7
420
 16777215
370
     9
100
AcDbVertex
100
AcDb2dVertex
 10
58.68932920684121
 20
89.00189675119381
 30
0.0
  0
VERTEX
  5
668
330
666
100
AcDbEntity
  8
Capa 1
 62
     7
420
 16777215
370
     9
100
AcDbVertex
100
AcDb2dVertex
 10
58.4670761386086
 20
89.16064836604264
 30
0.0
  0
VERTEX
  5
669
330
666
100
AcDbEntity
  8
Capa 1
 62
     7
420
 16777215
370
     9
100
AcDbVertex
100
AcDb2dVertex
 10
58.37182597714357
 20
89.16064836604264
 30
0.0
  0
SEQEND
  5
66A
330
666
100
AcDbEntity
  8
Capa 1
 62
     7
420
 16777215
370
     9
  0
POLYLINE
  5
66B
330
1F
100
AcDbEntity
  8
Capa 1
 62
     7
420
 16777215
370
     9
100
AcDb2dPolyline
 66
     1
 10
0.0
 20
0.0
 30
0.0
  0
VERTEX
  5
66C
330
66B
100
AcDbEntity
  8
Capa 1
 62
     7
420
 16777215
370
     9
100
AcDbVertex
100
AcDb2dVertex
 10
58.18132969143476
 20
89.19239707412389
 30
0.0
  0
VERTEX
  5
66D
330
66B
100
AcDbEntity
  8
Capa 1
 62
     7
420
 16777215
370
     9
100
AcDbVertex
100
AcDb2dVertex
 10
57.89557920703965
 20
89.16064836604264
 30
0.0
  0
VERTEX
  5
66E
330
66B
100
AcDbEntity
  8
Capa 1
 62
     7
420
 16777215
370
     9
100
AcDbVertex
100
AcDb2dVertex
 10
57.83207775365586
 20
89.09714691265884
 30
0.0
  0
SEQEND
  5
66F
330
66B
100
AcDbEntity
  8
Capa 1
 62
     7
420
 16777215
370
     9
  0
POLYLINE
  5
670
330
1F
100
AcDbEntity
  8
Capa 1
 62
     7
420
 16777215
370
     9
100
AcDb2dPolyline
 66
     1
 10
0.0
 20
0.0
 30
0.0
  0
VERTEX
  5
671
330
670
100
AcDbEntity
  8
Capa 1
 62
     7
420
 16777215
370
     9
100
AcDbVertex
100
AcDb2dVertex
 10
57.67332613880704
 20
89.00189675119381
 30
0.0
  0
VERTEX
  5
672
330
670
100
AcDbEntity
  8
Capa 1
 62
     7
420
 16777215
370
     9
100
AcDbVertex
100
AcDb2dVertex
 10
57.51457856117949
 20
88.77964772018248
 30
0.0
  0
VERTEX
  5
673
330
670
100
AcDbEntity
  8
Capa 1
 62
     7
420
 16777215
370
     9
100
AcDbVertex
100
AcDb2dVertex
 10
57.51457856117949
 20
88.68439755871744
 30
0.0
  0
SEQEND
  5
674
330
670
100
AcDbEntity
  8
Capa 1
 62
     7
420
 16777215
370
     9
  0
POLYLINE
  5
675
330
1F
100
AcDbEntity
  8
Capa 1
 62
     7
420
 16777215
370
     9
100
AcDb2dPolyline
 66
     1
 10
0.0
 20
0.0
 30
0.0
  0
VERTEX
  5
676
330
675
100
AcDbEntity
  8
Capa 1
 62
     7
420
 16777215
370
     9
100
AcDbVertex
100
AcDb2dVertex
 10
57.48282985309952
 20
88.49389723578736
 30
0.0
  0
VERTEX
  5
677
330
675
100
AcDbEntity
  8
Capa 1
 62
     7
420
 16777215
370
     9
100
AcDbVertex
100
AcDb2dVertex
 10
57.51457856117949
 20
88.20814675139225
 30
0.0
  0
VERTEX
  5
678
330
675
100
AcDbEntity
  8
Capa 1
 62
     7
420
 16777215
370
     9
100
AcDbVertex
100
AcDb2dVertex
 10
57.578075977342
 20
88.14464933522974
 30
0.0
  0
SEQEND
  5
679
330
675
100
AcDbEntity
  8
Capa 1
 62
     7
420
 16777215
370
     9
  0
POLYLINE
  5
67A
330
1F
100
AcDbEntity
  8
Capa 1
 62
     7
420
 16777215
370
     9
100
AcDb2dPolyline
 66
     1
 10
0.0
 20
0.0
 30
0.0
  0
VERTEX
  5
67B
330
67A
100
AcDbEntity
  8
Capa 1
 62
     7
420
 16777215
370
     9
100
AcDbVertex
100
AcDb2dVertex
 10
57.67332613880704
 20
87.98589772038092
 30
0.0
  0
VERTEX
  5
67C
330
67A
100
AcDbEntity
  8
Capa 1
 62
     7
420
 16777215
370
     9
100
AcDbVertex
100
AcDb2dVertex
 10
57.89557920703965
 20
87.8271461055321
 30
0.0
  0
VERTEX
  5
67D
330
67A
100
AcDbEntity
  8
Capa 1
 62
     7
420
 16777215
370
     9
100
AcDbVertex
100
AcDb2dVertex
 10
57.99082936850468
 20
87.8271461055321
 30
0.0
  0
SEQEND
  5
67E
330
67A
100
AcDbEntity
  8
Capa 1
 62
     7
420
 16777215
370
     9
  0
POLYLINE
  5
67F
330
1F
100
AcDbEntity
  8
Capa 1
 62
     7
420
 16777215
370
     9
100
AcDb2dPolyline
 66
     1
 10
0.0
 20
0.0
 30
0.0
  0
VERTEX
  5
680
330
67F
100
AcDbEntity
  8
Capa 1
 62
     7
420
 16777215
370
     9
100
AcDbVertex
100
AcDb2dVertex
 10
58.18132969143476
 20
87.79539739745084
 30
0.0
  0
VERTEX
  5
681
330
67F
100
AcDbEntity
  8
Capa 1
 62
     7
420
 16777215
370
     9
100
AcDbVertex
100
AcDb2dVertex
 10
58.4670761386086
 20
87.8271461055321
 30
0.0
  0
VERTEX
  5
682
330
67F
100
AcDbEntity
  8
Capa 1
 62
     7
420
 16777215
370
     9
100
AcDbVertex
100
AcDb2dVertex
 10
58.53057759199238
 20
87.89064755891587
 30
0.0
  0
SEQEND
  5
683
330
67F
100
AcDbEntity
  8
Capa 1
 62
     7
420
 16777215
370
     9
  0
POLYLINE
  5
684
330
1F
100
AcDbEntity
  8
Capa 1
 62
     7
420
 16777215
370
     9
100
AcDb2dPolyline
 66
     1
 10
0.0
 20
0.0
 30
0.0
  0
VERTEX
  5
685
330
684
100
AcDbEntity
  8
Capa 1
 62
     7
420
 16777215
370
     9
100
AcDbVertex
100
AcDb2dVertex
 10
58.68932920684121
 20
87.98589772038092
 30
0.0
  0
VERTEX
  5
686
330
684
100
AcDbEntity
  8
Capa 1
 62
     7
420
 16777215
370
     9
100
AcDbVertex
100
AcDb2dVertex
 10
58.84807678446876
 20
88.20814675139225
 30
0.0
  0
VERTEX
  5
687
330
684
100
AcDbEntity
  8
Capa 1
 62
     7
420
 16777215
370
     9
100
AcDbVertex
100
AcDb2dVertex
 10
58.84807678446876
 20
88.30339691285728
 30
0.0
  0
SEQEND
  5
688
330
684
100
AcDbEntity
  8
Capa 1
 62
     7
420
 16777215
370
     9
  0
POLYLINE
  5
689
330
1F
100
AcDbEntity
  8
Capa 1
 62
     7
420
 16777215
370
     9
100
AcDb2dPolyline
 66
     1
 10
0.0
 20
0.0
 30
0.0
  0
VERTEX
  5
68A
330
689
100
AcDbEntity
  8
Capa 1
 62
     7
420
 16777215
370
     9
100
AcDbVertex
100
AcDb2dVertex
 10
58.87982952977129
 20
88.49389723578736
 30
0.0
  0
VERTEX
  5
68B
330
689
100
AcDbEntity
  8
Capa 1
 62
     7
420
 16777215
370
     9
100
AcDbVertex
100
AcDb2dVertex
 10
58.91157823785254
 20
88.49389723578736
 30
0.0
  0
SEQEND
  5
68C
330
689
100
AcDbEntity
  8
Capa 1
 62
     7
420
 16777215
370
     9
  0
POLYLINE
  5
68D
330
1F
100
AcDbEntity
  8
Capa 1
 62
     7
420
 16777215
370
     9
100
AcDb2dPolyline
 66
     1
 10
0.0
 20
0.0
 30
0.0
  0
VERTEX
  5
68E
330
68D
100
AcDbEntity
  8
Capa 1
 62
     7
420
 16777215
370
     9
100
AcDbVertex
100
AcDb2dVertex
 10
48.17995171402075
 20
95.38364949490884
 30
0.0
  0
VERTEX
  5
68F
330
68D
100
AcDbEntity
  8
Capa 1
 62
     7
420
 16777215
370
     9
100
AcDbVertex
100
AcDb2dVertex
 10
48.17995171402075
 20
94.49464933364224
 30
0.0
  0
SEQEND
  5
690
330
68D
100
AcDbEntity
  8
Capa 1
 62
     7
420
 16777215
370
     9
  0
POLYLINE
  5
691
330
1F
100
AcDbEntity
  8
Capa 1
 62
     7
420
 16777215
370
     9
100
AcDb2dPolyline
 66
     1
 10
0.0
 20
0.0
 30
0.0
  0
VERTEX
  5
692
330
691
100
AcDbEntity
  8
Capa 1
 62
     7
420
 16777215
370
     9
100
AcDbVertex
100
AcDb2dVertex
 10
48.17995171402075
 20
89.85914820437915
 30
0.0
  0
VERTEX
  5
693
330
691
100
AcDbEntity
  8
Capa 1
 62
     7
420
 16777215
370
     9
100
AcDbVertex
100
AcDb2dVertex
 10
48.17995171402075
 20
90.74814836564576
 30
0.0
  0
SEQEND
  5
694
330
691
100
AcDbEntity
  8
Capa 1
 62
     7
420
 16777215
370
     9
  0
POLYLINE
  5
695
330
1F
100
AcDbEntity
  8
Capa 1
 62
     7
420
 16777215
370
     9
100
AcDb2dPolyline
 66
     1
 10
0.0
 20
0.0
 30
0.0
  0
VERTEX
  5
696
330
695
100
AcDbEntity
  8
Capa 1
 62
     7
420
 16777215
370
     9
100
AcDbVertex
100
AcDb2dVertex
 10
50.21195179425718
 20
96.74889642627936
 30
0.0
  0
VERTEX
  5
697
330
695
100
AcDbEntity
  8
Capa 1
 62
     7
420
 16777215
370
     9
100
AcDbVertex
100
AcDb2dVertex
 10
47.44970114899234
 20
96.74889642627936
 30
0.0
  0
SEQEND
  5
698
330
695
100
AcDbEntity
  8
Capa 1
 62
     7
420
 16777215
370
     9
  0
POLYLINE
  5
699
330
1F
100
AcDbEntity
  8
Capa 1
 62
     7
420
 16777215
370
     9
100
AcDb2dPolyline
 66
     1
 10
0.0
 20
0.0
 30
0.0
  0
VERTEX
  5
69A
330
699
100
AcDbEntity
  8
Capa 1
 62
     7
420
 16777215
370
     9
100
AcDbVertex
100
AcDb2dVertex
 10
55.10157985369483
 20
88.49389723578736
 30
0.0
  0
VERTEX
  5
69B
330
699
100
AcDbEntity
  8
Capa 1
 62
     7
420
 16777215
370
     9
100
AcDbVertex
100
AcDb2dVertex
 10
47.44970114899234
 20
88.49389723578736
 30
0.0
  0
SEQEND
  5
69C
330
699
100
AcDbEntity
  8
Capa 1
 62
     7
420
 16777215
370
     9
  0
POLYLINE
  5
69D
330
1F
100
AcDbEntity
  8
Capa 1
370
     0
100
AcDb2dPolyline
 66
     1
 10
0.0
 20
0.0
 30
0.0
  0
VERTEX
  5
69E
330
69D
100
AcDbEntity
  8
Capa 1
370
     0
100
AcDbVertex
100
AcDb2dVertex
 10
47.95770066439879
 20
89.85914820437915
 30
0.0
  0
VERTEX
  5
69F
330
69D
100
AcDbEntity
  8
Capa 1
370
     0
100
AcDbVertex
100
AcDb2dVertex
 10
48.40220074503209
 20
89.85914820437915
 30
0.0
  0
VERTEX
  5
6A0
330
69D
100
AcDbEntity
  8
Capa 1
370
     0
100
AcDbVertex
100
AcDb2dVertex
 10
48.17995171402075
 20
88.49389723578736
 30
0.0
  0
SEQEND
  5
6A2
330
69D
100
AcDbEntity
  8
Capa 1
370
     0
  0
HATCH
  5
6A1
330
1F
100
AcDbEntity
  8
Capa 1
 62
     7
420
 16777215
100
AcDbHatch
 10
0.0
 20
0.0
 30
0.0
210
0.0
220
0.0
230
1.0
  2
SOLID
 70
     1
 71
     0
 91
        1
 92
        1
 93
        3
 72
     1
 10
47.95770066439879
 20
89.85914820437915
 11
48.40220074503208
 21
89.85914820437915
 72
     1
 10
48.40220074503209
 20
89.85914820437915
 11
48.17995171402076
 21
88.49389723578736
 72
     1
 10
48.17995171402075
 20
88.49389723578736
 11
47.95770066439879
 21
89.85914820437915
 97
        0
 75
     0
 76
     1
 98
        0
  0
POLYLINE
  5
6A3
330
1F
100
AcDbEntity
  8
Capa 1
370
     0
100
AcDb2dPolyline
 66
     1
 10
0.0
 20
0.0
 30
0.0
  0
VERTEX
  5
6A4
330
6A3
100
AcDbEntity
  8
Capa 1
370
     0
100
AcDbVertex
100
AcDb2dVertex
 10
47.95770066439879
 20
95.38364949490884
 30
0.0
  0
VERTEX
  5
6A5
330
6A3
100
AcDbEntity
  8
Capa 1
370
     0
100
AcDbVertex
100
AcDb2dVertex
 10
48.40220074503209
 20
95.38364949490884
 30
0.0
  0
VERTEX
  5
6A6
330
6A3
100
AcDbEntity
  8
Capa 1
370
     0
100
AcDbVertex
100
AcDb2dVertex
 10
48.17995171402075
 20
96.74889642627936
 30
0.0
  0
SEQEND
  5
6A8
330
6A3
100
AcDbEntity
  8
Capa 1
370
     0
  0
HATCH
  5
6A7
330
1F
100
AcDbEntity
  8
Capa 1
 62
     7
420
 16777215
100
AcDbHatch
 10
0.0
 20
0.0
 30
0.0
210
0.0
220
0.0
230
1.0
  2
SOLID
 70
     1
 71
     0
 91
        1
 92
        1
 93
        3
 72
     1
 10
47.95770066439879
 20
95.38364949490884
 11
48.40220074503208
 21
95.38364949490884
 72
     1
 10
48.40220074503209
 20
95.38364949490884
 11
48.17995171402076
 21
96.74889642627936
 72
     1
 10
48.17995171402075
 20
96.74889642627936
 11
47.95770066439879
 21
95.38364949490884
 97
        0
 75
     0
 76
     1
 98
        0
  0
POLYLINE
  5
6A9
330
1F
100
AcDbEntity
  8
Capa 1
 62
     7
420
 16777215
370
     9
100
AcDb2dPolyline
 66
     1
 10
0.0
 20
0.0
 30
0.0
  0
VERTEX
  5
6AA
330
6A9
100
AcDbEntity
  8
Capa 1
 62
     7
420
 16777215
370
     9
100
AcDbVertex
100
AcDb2dVertex
 10
72.0560762967002
 20
102.940144809843
 30
0.0
  0
VERTEX
  5
6AB
330
6A9
100
AcDbEntity
  8
Capa 1
 62
     7
420
 16777215
370
     9
100
AcDbVertex
100
AcDb2dVertex
 10
72.0560762967002
 20
102.749644486913
 30
0.0
  0
VERTEX
  5
6AC
330
6A9
100
AcDbEntity
  8
Capa 1
 62
     7
420
 16777215
370
     9
100
AcDbVertex
100
AcDb2dVertex
 10
71.86557597377012
 20
102.749644486913
 30
0.0
  0
SEQEND
  5
6AD
330
6A9
100
AcDbEntity
  8
Capa 1
 62
     7
420
 16777215
370
     9
  0
POLYLINE
  5
6AE
330
1F
100
AcDbEntity
  8
Capa 1
 62
     7
420
 16777215
370
     9
100
AcDb2dPolyline
 66
     1
 10
0.0
 20
0.0
 30
0.0
  0
VERTEX
  5
6AF
330
6AE
100
AcDbEntity
  8
Capa 1
 62
     7
420
 16777215
370
     9
100
AcDbVertex
100
AcDb2dVertex
 10
72.0560762967002
 20
102.5591441639829
 30
0.0
  0
VERTEX
  5
6B0
330
6AE
100
AcDbEntity
  8
Capa 1
 62
     7
420
 16777215
370
     9
100
AcDbVertex
100
AcDb2dVertex
 10
72.0560762967002
 20
102.749644486913
 30
0.0
  0
VERTEX
  5
6B1
330
6AE
100
AcDbEntity
  8
Capa 1
 62
     7
420
 16777215
370
     9
100
AcDbVertex
100
AcDb2dVertex
 10
72.24657661963028
 20
102.749644486913
 30
0.0
  0
SEQEND
  5
6B2
330
6AE
100
AcDbEntity
  8
Capa 1
 62
     7
420
 16777215
370
     9
  0
POLYLINE
  5
6B3
330
1F
100
AcDbEntity
  8
Capa 1
 62
     7
420
 16777215
370
     9
100
AcDb2dPolyline
 66
     1
 10
0.0
 20
0.0
 30
0.0
  0
VERTEX
  5
6B4
330
6B3
100
AcDbEntity
  8
Capa 1
 62
     7
420
 16777215
370
     9
100
AcDbVertex
100
AcDb2dVertex
 10
72.43707694256165
 20
102.749644486913
 30
0.0
  0
VERTEX
  5
6B5
330
6B3
100
AcDbEntity
  8
Capa 1
 62
     7
420
 16777215
370
     9
100
AcDbVertex
100
AcDb2dVertex
 10
72.81807758842051
 20
102.749644486913
 30
0.0
  0
SEQEND
  5
6B6
330
6B3
100
AcDbEntity
  8
Capa 1
 62
     7
420
 16777215
370
     9
  0
POLYLINE
  5
6B7
330
1F
100
AcDbEntity
  8
Capa 1
 62
     7
420
 16777215
370
     9
100
AcDb2dPolyline
 66
     1
 10
0.0
 20
0.0
 30
0.0
  0
VERTEX
  5
6B8
330
6B7
100
AcDbEntity
  8
Capa 1
 62
     7
420
 16777215
370
     9
100
AcDbVertex
100
AcDb2dVertex
 10
72.0560762967002
 20
102.3686438410528
 30
0.0
  0
VERTEX
  5
6B9
330
6B7
100
AcDbEntity
  8
Capa 1
 62
     7
420
 16777215
370
     9
100
AcDbVertex
100
AcDb2dVertex
 10
72.0560762967002
 20
101.9876431951927
 30
0.0
  0
SEQEND
  5
6BA
330
6B7
100
AcDbEntity
  8
Capa 1
 62
     7
420
 16777215
370
     9
  0
POLYLINE
  5
6BB
330
1F
100
AcDbEntity
  8
Capa 1
 62
     7
420
 16777215
370
     9
100
AcDb2dPolyline
 66
     1
 10
0.0
 20
0.0
 30
0.0
  0
VERTEX
  5
6BC
330
6BB
100
AcDbEntity
  8
Capa 1
 62
     7
420
 16777215
370
     9
100
AcDbVertex
100
AcDb2dVertex
 10
71.67507565084006
 20
102.749644486913
 30
0.0
  0
VERTEX
  5
6BD
330
6BB
100
AcDbEntity
  8
Capa 1
 62
     7
420
 16777215
370
     9
100
AcDbVertex
100
AcDb2dVertex
 10
71.29407904220118
 20
102.749644486913
 30
0.0
  0
SEQEND
  5
6BE
330
6BB
100
AcDbEntity
  8
Capa 1
 62
     7
420
 16777215
370
     9
  0
POLYLINE
  5
6BF
330
1F
100
AcDbEntity
  8
Capa 1
 62
     7
420
 16777215
370
     9
100
AcDb2dPolyline
 66
     1
 10
0.0
 20
0.0
 30
0.0
  0
VERTEX
  5
6C0
330
6BF
100
AcDbEntity
  8
Capa 1
 62
     7
420
 16777215
370
     9
100
AcDbVertex
100
AcDb2dVertex
 10
72.0560762967002
 20
103.1306451327731
 30
0.0
  0
VERTEX
  5
6C1
330
6BF
100
AcDbEntity
  8
Capa 1
 62
     7
420
 16777215
370
     9
100
AcDbVertex
100
AcDb2dVertex
 10
72.0560762967002
 20
103.4798930333307
 30
0.0
  0
SEQEND
  5
6C2
330
6BF
100
AcDbEntity
  8
Capa 1
 62
     7
420
 16777215
370
     9
  0
POLYLINE
  5
6C3
330
1F
100
AcDbEntity
  8
Capa 1
 62
     7
420
 16777215
370
     9
100
AcDb2dPolyline
 66
     1
 10
0.0
 20
0.0
 30
0.0
  0
VERTEX
  5
6C4
330
6C3
100
AcDbEntity
  8
Capa 1
 62
     7
420
 16777215
370
     9
100
AcDbVertex
100
AcDb2dVertex
 10
71.86557597377012
 20
90.74814836564576
 30
0.0
  0
VERTEX
  5
6C5
330
6C3
100
AcDbEntity
  8
Capa 1
 62
     7
420
 16777215
370
     9
100
AcDbVertex
100
AcDb2dVertex
 10
72.0560762967002
 20
90.74814836564576
 30
0.0
  0
VERTEX
  5
6C6
330
6C3
100
AcDbEntity
  8
Capa 1
 62
     7
420
 16777215
370
     9
100
AcDbVertex
100
AcDb2dVertex
 10
72.0560762967002
 20
90.55764804271568
 30
0.0
  0
SEQEND
  5
6C7
330
6C3
100
AcDbEntity
  8
Capa 1
 62
     7
420
 16777215
370
     9
  0
POLYLINE
  5
6C8
330
1F
100
AcDbEntity
  8
Capa 1
 62
     7
420
 16777215
370
     9
100
AcDb2dPolyline
 66
     1
 10
0.0
 20
0.0
 30
0.0
  0
VERTEX
  5
6C9
330
6C8
100
AcDbEntity
  8
Capa 1
 62
     7
420
 16777215
370
     9
100
AcDbVertex
100
AcDb2dVertex
 10
72.24657661963028
 20
90.74814836564576
 30
0.0
  0
VERTEX
  5
6CA
330
6C8
100
AcDbEntity
  8
Capa 1
 62
     7
420
 16777215
370
     9
100
AcDbVertex
100
AcDb2dVertex
 10
72.0560762967002
 20
90.74814836564576
 30
0.0
  0
VERTEX
  5
6CB
330
6C8
100
AcDbEntity
  8
Capa 1
 62
     7
420
 16777215
370
     9
100
AcDbVertex
100
AcDb2dVertex
 10
72.0560762967002
 20
90.93864868857584
 30
0.0
  0
SEQEND
  5
6CC
330
6C8
100
AcDbEntity
  8
Capa 1
 62
     7
420
 16777215
370
     9
  0
POLYLINE
  5
6CD
330
1F
100
AcDbEntity
  8
Capa 1
 62
     7
420
 16777215
370
     9
100
AcDb2dPolyline
 66
     1
 10
0.0
 20
0.0
 30
0.0
  0
VERTEX
  5
6CE
330
6CD
100
AcDbEntity
  8
Capa 1
 62
     7
420
 16777215
370
     9
100
AcDbVertex
100
AcDb2dVertex
 10
69.89707936552811
 20
92.08164658893503
 30
0.0
  0
VERTEX
  5
6CF
330
6CD
100
AcDbEntity
  8
Capa 1
 62
     7
420
 16777215
370
     9
100
AcDbVertex
100
AcDb2dVertex
 10
69.89707936552811
 20
94.87564594228112
 30
0.0
  0
SEQEND
  5
6D0
330
6CD
100
AcDbEntity
  8
Capa 1
 62
     7
420
 16777215
370
     9
  0
POLYLINE
  5
6D1
330
1F
100
AcDbEntity
  8
Capa 1
 62
     7
420
 16777215
370
     9
100
AcDb2dPolyline
 66
     1
 10
0.0
 20
0.0
 30
0.0
  0
VERTEX
  5
6D2
330
6D1
100
AcDbEntity
  8
Capa 1
 62
     7
420
 16777215
370
     9
100
AcDbVertex
100
AcDb2dVertex
 10
69.89707936552811
 20
101.3843975555424
 30
0.0
  0
VERTEX
  5
6D3
330
6D1
100
AcDbEntity
  8
Capa 1
 62
     7
420
 16777215
370
     9
100
AcDbVertex
100
AcDb2dVertex
 10
69.89707936552811
 20
98.6221469102776
 30
0.0
  0
SEQEND
  5
6D4
330
6D1
100
AcDbEntity
  8
Capa 1
 62
     7
420
 16777215
370
     9
  0
POLYLINE
  5
6D5
330
1F
100
AcDbEntity
  8
Capa 1
 62
     7
420
 16777215
370
     9
100
AcDb2dPolyline
 66
     1
 10
0.0
 20
0.0
 30
0.0
  0
VERTEX
  5
6D6
330
6D5
100
AcDbEntity
  8
Capa 1
 62
     7
420
 16777215
370
     9
100
AcDbVertex
100
AcDb2dVertex
 10
70.94482710442227
 20
90.74814836564576
 30
0.0
  0
VERTEX
  5
6D7
330
6D5
100
AcDbEntity
  8
Capa 1
 62
     7
420
 16777215
370
     9
100
AcDbVertex
100
AcDb2dVertex
 10
69.13507807380782
 20
90.74814836564576
 30
0.0
  0
SEQEND
  5
6D8
330
6D5
100
AcDbEntity
  8
Capa 1
 62
     7
420
 16777215
370
     9
  0
POLYLINE
  5
6D9
330
1F
100
AcDbEntity
  8
Capa 1
 62
     7
420
 16777215
370
     9
100
AcDb2dPolyline
 66
     1
 10
0.0
 20
0.0
 30
0.0
  0
VERTEX
  5
6DA
330
6D9
100
AcDbEntity
  8
Capa 1
 62
     7
420
 16777215
370
     9
100
AcDbVertex
100
AcDb2dVertex
 10
70.94482710442227
 20
102.749644486913
 30
0.0
  0
VERTEX
  5
6DB
330
6D9
100
AcDbEntity
  8
Capa 1
 62
     7
420
 16777215
370
     9
100
AcDbVertex
100
AcDb2dVertex
 10
69.13507807380782
 20
102.749644486913
 30
0.0
  0
SEQEND
  5
6DC
330
6D9
100
AcDbEntity
  8
Capa 1
 62
     7
420
 16777215
370
     9
  0
POLYLINE
  5
6DD
330
1F
100
AcDbEntity
  8
Capa 1
 62
     7
420
 16777215
370
     9
100
AcDb2dPolyline
 66
     1
 10
0.0
 20
0.0
 30
0.0
  0
VERTEX
  5
6DE
330
6DD
100
AcDbEntity
  8
Capa 1
 62
     7
420
 16777215
370
     9
100
AcDbVertex
100
AcDb2dVertex
 10
72.0560762967002
 20
91.12914901150592
 30
0.0
  0
VERTEX
  5
6DF
330
6DD
100
AcDbEntity
  8
Capa 1
 62
     7
420
 16777215
370
     9
100
AcDbVertex
100
AcDb2dVertex
 10
72.0560762967002
 20
91.47839691206353
 30
0.0
  0
SEQEND
  5
6E0
330
6DD
100
AcDbEntity
  8
Capa 1
 62
     7
420
 16777215
370
     9
  0
POLYLINE
  5
6E1
330
1F
100
AcDbEntity
  8
Capa 1
 62
     7
420
 16777215
370
     9
100
AcDb2dPolyline
 66
     1
 10
0.0
 20
0.0
 30
0.0
  0
VERTEX
  5
6E2
330
6E1
100
AcDbEntity
  8
Capa 1
 62
     7
420
 16777215
370
     9
100
AcDbVertex
100
AcDb2dVertex
 10
72.43707694256165
 20
90.74814836564576
 30
0.0
  0
VERTEX
  5
6E3
330
6E1
100
AcDbEntity
  8
Capa 1
 62
     7
420
 16777215
370
     9
100
AcDbVertex
100
AcDb2dVertex
 10
72.81807758842051
 20
90.74814836564576
 30
0.0
  0
SEQEND
  5
6E4
330
6E1
100
AcDbEntity
  8
Capa 1
 62
     7
420
 16777215
370
     9
  0
POLYLINE
  5
6E5
330
1F
100
AcDbEntity
  8
Capa 1
 62
     7
420
 16777215
370
     9
100
AcDb2dPolyline
 66
     1
 10
0.0
 20
0.0
 30
0.0
  0
VERTEX
  5
6E6
330
6E5
100
AcDbEntity
  8
Capa 1
 62
     7
420
 16777215
370
     9
100
AcDbVertex
100
AcDb2dVertex
 10
72.0560762967002
 20
90.3671477197856
 30
0.0
  0
VERTEX
  5
6E7
330
6E5
100
AcDbEntity
  8
Capa 1
 62
     7
420
 16777215
370
     9
100
AcDbVertex
100
AcDb2dVertex
 10
72.0560762967002
 20
89.98614707392545
 30
0.0
  0
SEQEND
  5
6E8
330
6E5
100
AcDbEntity
  8
Capa 1
 62
     7
420
 16777215
370
     9
  0
POLYLINE
  5
6E9
330
1F
100
AcDbEntity
  8
Capa 1
 62
     7
420
 16777215
370
     9
100
AcDb2dPolyline
 66
     1
 10
0.0
 20
0.0
 30
0.0
  0
VERTEX
  5
6EA
330
6E9
100
AcDbEntity
  8
Capa 1
 62
     7
420
 16777215
370
     9
100
AcDbVertex
100
AcDb2dVertex
 10
71.67507565084006
 20
90.74814836564576
 30
0.0
  0
VERTEX
  5
6EB
330
6E9
100
AcDbEntity
  8
Capa 1
 62
     7
420
 16777215
370
     9
100
AcDbVertex
100
AcDb2dVertex
 10
71.29407904220118
 20
90.74814836564576
 30
0.0
  0
SEQEND
  5
6EC
330
6E9
100
AcDbEntity
  8
Capa 1
 62
     7
420
 16777215
370
     9
  0
POLYLINE
  5
6ED
330
1F
100
AcDbEntity
  8
Capa 1
370
     0
100
AcDb2dPolyline
 66
     1
 10
0.0
 20
0.0
 30
0.0
  0
VERTEX
  5
6EE
330
6ED
100
AcDbEntity
  8
Capa 1
370
     0
100
AcDbVertex
100
AcDb2dVertex
 10
69.67482629729551
 20
101.3843975555424
 30
0.0
  0
VERTEX
  5
6EF
330
6ED
100
AcDbEntity
  8
Capa 1
370
     0
100
AcDbVertex
100
AcDb2dVertex
 10
70.11932839654074
 20
101.3843975555424
 30
0.0
  0
VERTEX
  5
6F0
330
6ED
100
AcDbEntity
  8
Capa 1
370
     0
100
AcDbVertex
100
AcDb2dVertex
 10
69.89707936552811
 20
102.749644486913
 30
0.0
  0
SEQEND
  5
6F2
330
6ED
100
AcDbEntity
  8
Capa 1
370
     0
  0
HATCH
  5
6F1
330
1F
100
AcDbEntity
  8
Capa 1
 62
     7
420
 16777215
100
AcDbHatch
 10
0.0
 20
0.0
 30
0.0
210
0.0
220
0.0
230
1.0
  2
SOLID
 70
     1
 71
     0
 91
        1
 92
        1
 93
        3
 72
     1
 10
69.67482629729551
 20
101.3843975555424
 11
70.11932839654072
 21
101.3843975555424
 72
     1
 10
70.11932839654074
 20
101.3843975555424
 11
69.89707936552813
 21
102.749644486913
 72
     1
 10
69.89707936552811
 20
102.749644486913
 11
69.67482629729551
 21
101.3843975555424
 97
        0
 75
     0
 76
     1
 98
        0
  0
POLYLINE
  5
6F3
330
1F
100
AcDbEntity
  8
Capa 1
370
     0
100
AcDb2dPolyline
 66
     1
 10
0.0
 20
0.0
 30
0.0
  0
VERTEX
  5
6F4
330
6F3
100
AcDbEntity
  8
Capa 1
370
     0
100
AcDbVertex
100
AcDb2dVertex
 10
69.67482629729551
 20
92.08164658893503
 30
0.0
  0
VERTEX
  5
6F5
330
6F3
100
AcDbEntity
  8
Capa 1
370
     0
100
AcDbVertex
100
AcDb2dVertex
 10
70.11932839654074
 20
92.08164658893503
 30
0.0
  0
VERTEX
  5
6F6
330
6F3
100
AcDbEntity
  8
Capa 1
370
     0
100
AcDbVertex
100
AcDb2dVertex
 10
69.89707936552811
 20
90.74814836564576
 30
0.0
  0
SEQEND
  5
6F8
330
6F3
100
AcDbEntity
  8
Capa 1
370
     0
  0
HATCH
  5
6F7
330
1F
100
AcDbEntity
  8
Capa 1
 62
     7
420
 16777215
100
AcDbHatch
 10
0.0
 20
0.0
 30
0.0
210
0.0
220
0.0
230
1.0
  2
SOLID
 70
     1
 71
     0
 91
        1
 92
        1
 93
        3
 72
     1
 10
69.67482629729551
 20
92.08164658893503
 11
70.11932839654072
 21
92.08164658893503
 72
     1
 10
70.11932839654074
 20
92.08164658893503
 11
69.89707936552813
 21
90.74814836564576
 72
     1
 10
69.89707936552811
 20
90.74814836564576
 11
69.67482629729551
 21
92.08164658893503
 97
        0
 75
     0
 76
     1
 98
        0
  0
POLYLINE
  5
6F9
330
1F
100
AcDbEntity
  8
Capa 1
 62
     7
420
 16777215
370
     9
100
AcDb2dPolyline
 66
     1
 10
0.0
 20
0.0
 30
0.0
  0
VERTEX
  5
6FA
330
6F9
100
AcDbEntity
  8
Capa 1
 62
     7
420
 16777215
370
     9
100
AcDbVertex
100
AcDb2dVertex
 10
43.60795203814146
 20
107.4168943242573
 30
0.0
  0
VERTEX
  5
6FB
330
6F9
100
AcDbEntity
  8
Capa 1
 62
     7
420
 16777215
370
     9
100
AcDbVertex
100
AcDb2dVertex
 10
43.60795203814146
 20
86.08089852830142
 30
0.0
  0
SEQEND
  5
6FC
330
6F9
100
AcDbEntity
  8
Capa 1
 62
     7
420
 16777215
370
     9
  0
POLYLINE
  5
6FD
330
1F
100
AcDbEntity
  8
Capa 1
 62
     7
420
 16777215
370
     9
100
AcDb2dPolyline
 66
     1
 10
0.0
 20
0.0
 30
0.0
  0
VERTEX
  5
6FE
330
6FD
100
AcDbEntity
  8
Capa 1
 62
     7
420
 16777215
370
     9
100
AcDbVertex
100
AcDb2dVertex
 10
55.64132807718125
 20
83.44564675258287
 30
0.0
  0
VERTEX
  5
6FF
330
6FD
100
AcDbEntity
  8
Capa 1
 62
     7
420
 16777215
370
     9
100
AcDbVertex
100
AcDb2dVertex
 10
42.49670082725289
 20
83.44564675258287
 30
0.0
  0
SEQEND
  5
700
330
6FD
100
AcDbEntity
  8
Capa 1
 62
     7
420
 16777215
370
     9
  0
POLYLINE
  5
701
330
1F
100
AcDbEntity
  8
Capa 1
 62
     7
420
 16777215
370
     9
100
AcDb2dPolyline
 66
     1
 10
0.0
 20
0.0
 30
0.0
  0
VERTEX
  5
702
330
701
100
AcDbEntity
  8
Capa 1
 62
     7
420
 16777215
370
     9
100
AcDbVertex
100
AcDb2dVertex
 10
55.64132807718125
 20
110.0203933546733
 30
0.0
  0
VERTEX
  5
703
330
701
100
AcDbEntity
  8
Capa 1
 62
     7
420
 16777215
370
     9
100
AcDbVertex
100
AcDb2dVertex
 10
42.49670082725289
 20
110.0203933546733
 30
0.0
  0
SEQEND
  5
704
330
701
100
AcDbEntity
  8
Capa 1
 62
     7
420
 16777215
370
     9
  0
POLYLINE
  5
705
330
1F
100
AcDbEntity
  8
Capa 1
370
     0
100
AcDb2dPolyline
 66
     1
 10
0.0
 20
0.0
 30
0.0
  0
VERTEX
  5
706
330
705
100
AcDbEntity
  8
Capa 1
370
     0
100
AcDbVertex
100
AcDb2dVertex
 10
43.16345195750816
 20
107.4168943242573
 30
0.0
  0
VERTEX
  5
707
330
705
100
AcDbEntity
  8
Capa 1
370
     0
100
AcDbVertex
100
AcDb2dVertex
 10
44.05245211877476
 20
107.4168943242573
 30
0.0
  0
VERTEX
  5
708
330
705
100
AcDbEntity
  8
Capa 1
370
     0
100
AcDbVertex
100
AcDb2dVertex
 10
43.60795203814146
 20
110.0203933546733
 30
0.0
  0
SEQEND
  5
70A
330
705
100
AcDbEntity
  8
Capa 1
370
     0
  0
HATCH
  5
709
330
1F
100
AcDbEntity
  8
Capa 1
 62
     7
420
 16777215
100
AcDbHatch
 10
0.0
 20
0.0
 30
0.0
210
0.0
220
0.0
230
1.0
  2
SOLID
 70
     1
 71
     0
 91
        1
 92
        1
 93
        3
 72
     1
 10
43.16345195750816
 20
107.4168943242573
 11
44.05245211877476
 21
107.4168943242573
 72
     1
 10
44.05245211877476
 20
107.4168943242573
 11
43.60795203814146
 21
110.0203933546733
 72
     1
 10
43.60795203814146
 20
110.0203933546733
 11
43.16345195750816
 21
107.4168943242573
 97
        0
 75
     0
 76
     1
 98
        0
  0
POLYLINE
  5
70B
330
1F
100
AcDbEntity
  8
Capa 1
370
     0
100
AcDb2dPolyline
 66
     1
 10
0.0
 20
0.0
 30
0.0
  0
VERTEX
  5
70C
330
70B
100
AcDbEntity
  8
Capa 1
370
     0
100
AcDbVertex
100
AcDb2dVertex
 10
43.16345195750816
 20
86.08089852830142
 30
0.0
  0
VERTEX
  5
70D
330
70B
100
AcDbEntity
  8
Capa 1
370
     0
100
AcDbVertex
100
AcDb2dVertex
 10
44.05245211877476
 20
86.08089852830142
 30
0.0
  0
VERTEX
  5
70E
330
70B
100
AcDbEntity
  8
Capa 1
370
     0
100
AcDbVertex
100
AcDb2dVertex
 10
43.60795203814146
 20
83.44564675258287
 30
0.0
  0
SEQEND
  5
710
330
70B
100
AcDbEntity
  8
Capa 1
370
     0
  0
HATCH
  5
70F
330
1F
100
AcDbEntity
  8
Capa 1
 62
     7
420
 16777215
100
AcDbHatch
 10
0.0
 20
0.0
 30
0.0
210
0.0
220
0.0
230
1.0
  2
SOLID
 70
     1
 71
     0
 91
        1
 92
        1
 93
        3
 72
     1
 10
43.16345195750816
 20
86.08089852830142
 11
44.05245211877476
 21
86.08089852830142
 72
     1
 10
44.05245211877476
 20
86.08089852830142
 11
43.60795203814146
 21
83.44564675258287
 72
     1
 10
43.60795203814146
 20
83.44564675258287
 11
43.16345195750816
 21
86.08089852830142
 97
        0
 75
     0
 76
     1
 98
        0
  0
POLYLINE
  5
711
330
1F
100
AcDbEntity
  8
Capa 1
 62
     7
420
 16777215
370
     9
100
AcDb2dPolyline
 66
     1
 10
0.0
 20
0.0
 30
0.0
  0
VERTEX
  5
712
330
711
100
AcDbEntity
  8
Capa 1
 62
     7
420
 16777215
370
     9
100
AcDbVertex
100
AcDb2dVertex
 10
64.49957694454602
 20
116.0211414153069
 30
0.0
  0
VERTEX
  5
713
330
711
100
AcDbEntity
  8
Capa 1
 62
     7
420
 16777215
370
     9
100
AcDbVertex
100
AcDb2dVertex
 10
57.95907662320216
 20
116.0211414153069
 30
0.0
  0
SEQEND
  5
714
330
711
100
AcDbEntity
  8
Capa 1
 62
     7
420
 16777215
370
     9
  0
POLYLINE
  5
715
330
1F
100
AcDbEntity
  8
Capa 1
 62
     7
420
 16777215
370
     9
100
AcDb2dPolyline
 66
     1
 10
0.0
 20
0.0
 30
0.0
  0
VERTEX
  5
716
330
715
100
AcDbEntity
  8
Capa 1
 62
     7
420
 16777215
370
     9
100
AcDbVertex
100
AcDb2dVertex
 10
55.32382888470488
 20
109.5441385101269
 30
0.0
  0
VERTEX
  5
717
330
715
100
AcDbEntity
  8
Capa 1
 62
     7
420
 16777215
370
     9
100
AcDbVertex
100
AcDb2dVertex
 10
55.32382888470488
 20
117.1323946448061
 30
0.0
  0
SEQEND
  5
718
330
715
100
AcDbEntity
  8
Capa 1
 62
     7
420
 16777215
370
     9
  0
POLYLINE
  5
719
330
1F
100
AcDbEntity
  8
Capa 1
 62
     7
420
 16777215
370
     9
100
AcDb2dPolyline
 66
     1
 10
0.0
 20
0.0
 30
0.0
  0
VERTEX
  5
71A
330
719
100
AcDbEntity
  8
Capa 1
 62
     7
420
 16777215
370
     9
100
AcDbVertex
100
AcDb2dVertex
 10
67.10307597496075
 20
108.528139479314
 30
0.0
  0
VERTEX
  5
71B
330
719
100
AcDbEntity
  8
Capa 1
 62
     7
420
 16777215
370
     9
100
AcDbVertex
100
AcDb2dVertex
 10
67.10307597496075
 20
117.1323946448061
 30
0.0
  0
SEQEND
  5
71C
330
719
100
AcDbEntity
  8
Capa 1
 62
     7
420
 16777215
370
     9
  0
POLYLINE
  5
71D
330
1F
100
AcDbEntity
  8
Capa 1
370
     0
100
AcDb2dPolyline
 66
     1
 10
0.0
 20
0.0
 30
0.0
  0
VERTEX
  5
71E
330
71D
100
AcDbEntity
  8
Capa 1
370
     0
100
AcDbVertex
100
AcDb2dVertex
 10
64.49957694454602
 20
116.4656394773296
 30
0.0
  0
VERTEX
  5
71F
330
71D
100
AcDbEntity
  8
Capa 1
370
     0
100
AcDbVertex
100
AcDb2dVertex
 10
64.49957694454602
 20
115.5766433532843
 30
0.0
  0
VERTEX
  5
720
330
71D
100
AcDbEntity
  8
Capa 1
370
     0
100
AcDbVertex
100
AcDb2dVertex
 10
67.10307597496075
 20
116.0211414153069
 30
0.0
  0
SEQEND
  5
722
330
71D
100
AcDbEntity
  8
Capa 1
370
     0
  0
HATCH
  5
721
330
1F
100
AcDbEntity
  8
Capa 1
 62
     7
420
 16777215
100
AcDbHatch
 10
0.0
 20
0.0
 30
0.0
210
0.0
220
0.0
230
1.0
  2
SOLID
 70
     1
 71
     0
 91
        1
 92
        1
 93
        3
 72
     1
 10
64.49957694454602
 20
116.4656394773296
 11
64.49957694454602
 21
115.5766433532843
 72
     1
 10
64.49957694454602
 20
115.5766433532843
 11
67.10307597496076
 21
116.0211414153069
 72
     1
 10
67.10307597496075
 20
116.0211414153069
 11
64.499576944546
 21
116.4656394773296
 97
        0
 75
     0
 76
     1
 98
        0
  0
POLYLINE
  5
723
330
1F
100
AcDbEntity
  8
Capa 1
370
     0
100
AcDb2dPolyline
 66
     1
 10
0.0
 20
0.0
 30
0.0
  0
VERTEX
  5
724
330
723
100
AcDbEntity
  8
Capa 1
370
     0
100
AcDbVertex
100
AcDb2dVertex
 10
57.95907662320216
 20
116.4656394773296
 30
0.0
  0
VERTEX
  5
725
330
723
100
AcDbEntity
  8
Capa 1
370
     0
100
AcDbVertex
100
AcDb2dVertex
 10
57.95907662320216
 20
115.5766433532843
 30
0.0
  0
VERTEX
  5
726
330
723
100
AcDbEntity
  8
Capa 1
370
     0
100
AcDbVertex
100
AcDb2dVertex
 10
55.32382888470488
 20
116.0211414153069
 30
0.0
  0
SEQEND
  5
728
330
723
100
AcDbEntity
  8
Capa 1
370
     0
  0
HATCH
  5
727
330
1F
100
AcDbEntity
  8
Capa 1
 62
     7
420
 16777215
100
AcDbHatch
 10
0.0
 20
0.0
 30
0.0
210
0.0
220
0.0
230
1.0
  2
SOLID
 70
     1
 71
     0
 91
        1
 92
        1
 93
        3
 72
     1
 10
57.95907662320216
 20
116.4656394773296
 11
57.95907662320216
 21
115.5766433532843
 72
     1
 10
57.95907662320216
 20
115.5766433532843
 11
55.32382888470488
 21
116.0211414153069
 72
     1
 10
55.32382888470488
 20
116.0211414153069
 11
57.95907662320216
 21
116.4656394773296
 97
        0
 75
     0
 76
     1
 98
        0
  0
POLYLINE
  5
729
330
1F
100
AcDbEntity
  8
Capa 1
 62
     7
420
 16777215
370
     9
100
AcDb2dPolyline
 66
     1
 10
0.0
 20
0.0
 30
0.0
  0
VERTEX
  5
72A
330
729
100
AcDbEntity
  8
Capa 1
 62
     7
420
 16777215
370
     9
100
AcDbVertex
100
AcDb2dVertex
 10
74.69132807241876
 20
115.9258952910632
 30
0.0
  0
VERTEX
  5
72B
330
729
100
AcDbEntity
  8
Capa 1
 62
     7
420
 16777215
370
     9
100
AcDbVertex
100
AcDb2dVertex
 10
102.1868235438571
 20
115.9258952910632
 30
0.0
  0
SEQEND
  5
72C
330
729
100
AcDbEntity
  8
Capa 1
 62
     7
420
 16777215
370
     9
  0
POLYLINE
  5
72D
330
1F
100
AcDbEntity
  8
Capa 1
 62
     7
420
 16777215
370
     9
100
AcDb2dPolyline
 66
     1
 10
0.0
 20
0.0
 30
0.0
  0
VERTEX
  5
72E
330
72D
100
AcDbEntity
  8
Capa 1
 62
     7
420
 16777215
370
     9
100
AcDbVertex
100
AcDb2dVertex
 10
104.8220712823543
 20
96.74889642627936
 30
0.0
  0
VERTEX
  5
72F
330
72D
100
AcDbEntity
  8
Capa 1
 62
     7
420
 16777215
370
     9
100
AcDbVertex
100
AcDb2dVertex
 10
104.8220712823543
 20
117.0371404461198
 30
0.0
  0
SEQEND
  5
730
330
72D
100
AcDbEntity
  8
Capa 1
 62
     7
420
 16777215
370
     9
  0
POLYLINE
  5
731
330
1F
100
AcDbEntity
  8
Capa 1
 62
     7
420
 16777215
370
     9
100
AcDb2dPolyline
 66
     1
 10
0.0
 20
0.0
 30
0.0
  0
VERTEX
  5
732
330
731
100
AcDbEntity
  8
Capa 1
 62
     7
420
 16777215
370
     9
100
AcDbVertex
100
AcDb2dVertex
 10
72.0560762967002
 20
102.749644486913
 30
0.0
  0
VERTEX
  5
733
330
731
100
AcDbEntity
  8
Capa 1
 62
     7
420
 16777215
370
     9
100
AcDbVertex
100
AcDb2dVertex
 10
72.0560762967002
 20
117.0371404461198
 30
0.0
  0
SEQEND
  5
734
330
731
100
AcDbEntity
  8
Capa 1
 62
     7
420
 16777215
370
     9
  0
POLYLINE
  5
735
330
1F
100
AcDbEntity
  8
Capa 1
370
     0
100
AcDb2dPolyline
 66
     1
 10
0.0
 20
0.0
 30
0.0
  0
VERTEX
  5
736
330
735
100
AcDbEntity
  8
Capa 1
370
     0
100
AcDbVertex
100
AcDb2dVertex
 10
74.69132807241876
 20
116.3703933530858
 30
0.0
  0
VERTEX
  5
737
330
735
100
AcDbEntity
  8
Capa 1
370
     0
100
AcDbVertex
100
AcDb2dVertex
 10
74.69132807241876
 20
115.4813891545979
 30
0.0
  0
VERTEX
  5
738
330
735
100
AcDbEntity
  8
Capa 1
370
     0
100
AcDbVertex
100
AcDb2dVertex
 10
72.0560762967002
 20
115.9258952910632
 30
0.0
  0
SEQEND
  5
73A
330
735
100
AcDbEntity
  8
Capa 1
370
     0
  0
HATCH
  5
739
330
1F
100
AcDbEntity
  8
Capa 1
 62
     7
420
 16777215
100
AcDbHatch
 10
0.0
 20
0.0
 30
0.0
210
0.0
220
0.0
230
1.0
  2
SOLID
 70
     1
 71
     0
 91
        1
 92
        1
 93
        3
 72
     1
 10
74.69132807241876
 20
116.3703933530858
 11
74.69132807241876
 21
115.4813891545979
 72
     1
 10
74.69132807241876
 20
115.4813891545979
 11
72.05607629670021
 21
115.9258952910632
 72
     1
 10
72.0560762967002
 20
115.9258952910632
 11
74.69132807241874
 21
116.3703933530858
 97
        0
 75
     0
 76
     1
 98
        0
  0
POLYLINE
  5
73B
330
1F
100
AcDbEntity
  8
Capa 1
370
     0
100
AcDb2dPolyline
 66
     1
 10
0.0
 20
0.0
 30
0.0
  0
VERTEX
  5
73C
330
73B
100
AcDbEntity
  8
Capa 1
370
     0
100
AcDbVertex
100
AcDb2dVertex
 10
102.1868235438571
 20
116.3703933530858
 30
0.0
  0
VERTEX
  5
73D
330
73B
100
AcDbEntity
  8
Capa 1
370
     0
100
AcDbVertex
100
AcDb2dVertex
 10
102.1868235438571
 20
115.4813891545979
 30
0.0
  0
VERTEX
  5
73E
330
73B
100
AcDbEntity
  8
Capa 1
370
     0
100
AcDbVertex
100
AcDb2dVertex
 10
104.8220712823543
 20
115.9258952910632
 30
0.0
  0
SEQEND
  5
740
330
73B
100
AcDbEntity
  8
Capa 1
370
     0
  0
HATCH
  5
73F
330
1F
100
AcDbEntity
  8
Capa 1
 62
     7
420
 16777215
100
AcDbHatch
 10
0.0
 20
0.0
 30
0.0
210
0.0
220
0.0
230
1.0
  2
SOLID
 70
     1
 71
     0
 91
        1
 92
        1
 93
        3
 72
     1
 10
102.1868235438571
 20
116.3703933530858
 11
102.1868235438571
 21
115.4813891545979
 72
     1
 10
102.1868235438571
 20
115.4813891545979
 11
104.8220712823543
 21
115.9258952910632
 72
     1
 10
104.8220712823543
 20
115.9258952910632
 11
102.1868235438571
 21
116.3703933530858
 97
        0
 75
     0
 76
     1
 98
        0
  0
POLYLINE
  5
741
330
1F
100
AcDbEntity
  8
Capa 1
 62
     7
420
 16777215
370
     9
100
AcDb2dPolyline
 66
     1
 10
0.0
 20
0.0
 30
0.0
  0
VERTEX
  5
742
330
741
100
AcDbEntity
  8
Capa 1
 62
     7
420
 16777215
370
     9
100
AcDbVertex
100
AcDb2dVertex
 10
113.7755783856254
 20
107.6073946471874
 30
0.0
  0
VERTEX
  5
743
330
741
100
AcDbEntity
  8
Capa 1
 62
     7
420
 16777215
370
     9
100
AcDbVertex
100
AcDb2dVertex
 10
113.7755783856254
 20
85.85864949729009
 30
0.0
  0
SEQEND
  5
744
330
741
100
AcDbEntity
  8
Capa 1
 62
     7
420
 16777215
370
     9
  0
POLYLINE
  5
745
330
1F
100
AcDbEntity
  8
Capa 1
 62
     7
420
 16777215
370
     9
100
AcDb2dPolyline
 66
     1
 10
0.0
 20
0.0
 30
0.0
  0
VERTEX
  5
746
330
745
100
AcDbEntity
  8
Capa 1
 62
     7
420
 16777215
370
     9
100
AcDbVertex
100
AcDb2dVertex
 10
91.32832128572777
 20
83.2551464296528
 30
0.0
  0
VERTEX
  5
747
330
745
100
AcDbEntity
  8
Capa 1
 62
     7
420
 16777215
370
     9
100
AcDbVertex
100
AcDb2dVertex
 10
114.8868235406821
 20
83.2551464296528
 30
0.0
  0
SEQEND
  5
748
330
745
100
AcDbEntity
  8
Capa 1
 62
     7
420
 16777215
370
     9
  0
POLYLINE
  5
749
330
1F
100
AcDbEntity
  8
Capa 1
 62
     7
420
 16777215
370
     9
100
AcDb2dPolyline
 66
     1
 10
0.0
 20
0.0
 30
0.0
  0
VERTEX
  5
74A
330
749
100
AcDbEntity
  8
Capa 1
 62
     7
420
 16777215
370
     9
100
AcDbVertex
100
AcDb2dVertex
 10
91.32832128572777
 20
110.2426423856846
 30
0.0
  0
VERTEX
  5
74B
330
749
100
AcDbEntity
  8
Capa 1
 62
     7
420
 16777215
370
     9
100
AcDbVertex
100
AcDb2dVertex
 10
114.8868235406821
 20
110.2426423856846
 30
0.0
  0
SEQEND
  5
74C
330
749
100
AcDbEntity
  8
Capa 1
 62
     7
420
 16777215
370
     9
  0
POLYLINE
  5
74D
330
1F
100
AcDbEntity
  8
Capa 1
370
     0
100
AcDb2dPolyline
 66
     1
 10
0.0
 20
0.0
 30
0.0
  0
VERTEX
  5
74E
330
74D
100
AcDbEntity
  8
Capa 1
370
     0
100
AcDbVertex
100
AcDb2dVertex
 10
113.3310722491602
 20
107.6073946471874
 30
0.0
  0
VERTEX
  5
74F
330
74D
100
AcDbEntity
  8
Capa 1
370
     0
100
AcDbVertex
100
AcDb2dVertex
 10
114.1883277395668
 20
107.6073946471874
 30
0.0
  0
VERTEX
  5
750
330
74D
100
AcDbEntity
  8
Capa 1
370
     0
100
AcDbVertex
100
AcDb2dVertex
 10
113.7755783856254
 20
110.2426423856846
 30
0.0
  0
SEQEND
  5
752
330
74D
100
AcDbEntity
  8
Capa 1
370
     0
  0
HATCH
  5
751
330
1F
100
AcDbEntity
  8
Capa 1
 62
     7
420
 16777215
100
AcDbHatch
 10
0.0
 20
0.0
 30
0.0
210
0.0
220
0.0
230
1.0
  2
SOLID
 70
     1
 71
     0
 91
        1
 92
        1
 93
        3
 72
     1
 10
113.3310722491602
 20
107.6073946471874
 11
114.1883277395668
 21
107.6073946471874
 72
     1
 10
114.1883277395668
 20
107.6073946471874
 11
113.7755783856254
 21
110.2426423856846
 72
     1
 10
113.7755783856254
 20
110.2426423856846
 11
113.3310722491602
 21
107.6073946471874
 97
        0
 75
     0
 76
     1
 98
        0
  0
POLYLINE
  5
753
330
1F
100
AcDbEntity
  8
Capa 1
370
     0
100
AcDb2dPolyline
 66
     1
 10
0.0
 20
0.0
 30
0.0
  0
VERTEX
  5
754
330
753
100
AcDbEntity
  8
Capa 1
370
     0
100
AcDbVertex
100
AcDb2dVertex
 10
113.3310722491602
 20
85.85864949729009
 30
0.0
  0
VERTEX
  5
755
330
753
100
AcDbEntity
  8
Capa 1
370
     0
100
AcDbVertex
100
AcDb2dVertex
 10
114.1883277395668
 20
85.85864949729009
 30
0.0
  0
VERTEX
  5
756
330
753
100
AcDbEntity
  8
Capa 1
370
     0
100
AcDbVertex
100
AcDb2dVertex
 10
113.7755783856254
 20
83.2551464296528
 30
0.0
  0
SEQEND
  5
758
330
753
100
AcDbEntity
  8
Capa 1
370
     0
  0
HATCH
  5
757
330
1F
100
AcDbEntity
  8
Capa 1
 62
     7
420
 16777215
100
AcDbHatch
 10
0.0
 20
0.0
 30
0.0
210
0.0
220
0.0
230
1.0
  2
SOLID
 70
     1
 71
     0
 91
        1
 92
        1
 93
        3
 72
     1
 10
113.3310722491602
 20
85.85864949729009
 11
114.1883277395668
 21
85.85864949729009
 72
     1
 10
114.1883277395668
 20
85.85864949729009
 11
113.7755783856254
 21
83.2551464296528
 72
     1
 10
113.7755783856254
 20
83.2551464296528
 11
113.3310722491602
 21
85.85864949729009
 97
        0
 75
     0
 76
     1
 98
        0
  0
POLYLINE
  5
759
330
1F
100
AcDbEntity
  8
Capa 1
 62
     7
420
 16777215
370
     9
100
AcDb2dPolyline
 66
     1
 10
0.0
 20
0.0
 30
0.0
  0
VERTEX
  5
75A
330
759
100
AcDbEntity
  8
Capa 1
 62
     7
420
 16777215
370
     9
100
AcDbVertex
100
AcDb2dVertex
 10
57.95907662320216
 20
74.20639723935923
 30
0.0
  0
VERTEX
  5
75B
330
759
100
AcDbEntity
  8
Capa 1
 62
     7
420
 16777215
370
     9
100
AcDbVertex
100
AcDb2dVertex
 10
102.1868235438571
 20
74.20639723935923
 30
0.0
  0
SEQEND
  5
75C
330
759
100
AcDbEntity
  8
Capa 1
 62
     7
420
 16777215
370
     9
  0
POLYLINE
  5
75D
330
1F
100
AcDbEntity
  8
Capa 1
 62
     7
420
 16777215
370
     9
100
AcDb2dPolyline
 66
     1
 10
0.0
 20
0.0
 30
0.0
  0
VERTEX
  5
75E
330
75D
100
AcDbEntity
  8
Capa 1
 62
     7
420
 16777215
370
     9
100
AcDbVertex
100
AcDb2dVertex
 10
104.8220712823543
 20
96.74889642627936
 30
0.0
  0
VERTEX
  5
75F
330
75D
100
AcDbEntity
  8
Capa 1
 62
     7
420
 16777215
370
     9
100
AcDbVertex
100
AcDb2dVertex
 10
104.8220712823543
 20
73.06339933900004
 30
0.0
  0
SEQEND
  5
760
330
75D
100
AcDbEntity
  8
Capa 1
 62
     7
420
 16777215
370
     9
  0
POLYLINE
  5
761
330
1F
100
AcDbEntity
  8
Capa 1
 62
     7
420
 16777215
370
     9
100
AcDb2dPolyline
 66
     1
 10
0.0
 20
0.0
 30
0.0
  0
VERTEX
  5
762
330
761
100
AcDbEntity
  8
Capa 1
 62
     7
420
 16777215
370
     9
100
AcDbVertex
100
AcDb2dVertex
 10
55.32382888470488
 20
83.76314998228051
 30
0.0
  0
VERTEX
  5
763
330
761
100
AcDbEntity
  8
Capa 1
 62
     7
420
 16777215
370
     9
100
AcDbVertex
100
AcDb2dVertex
 10
55.32382888470488
 20
73.06339933900004
 30
0.0
  0
SEQEND
  5
764
330
761
100
AcDbEntity
  8
Capa 1
 62
     7
420
 16777215
370
     9
  0
POLYLINE
  5
765
330
1F
100
AcDbEntity
  8
Capa 1
370
     0
100
AcDb2dPolyline
 66
     1
 10
0.0
 20
0.0
 30
0.0
  0
VERTEX
  5
766
330
765
100
AcDbEntity
  8
Capa 1
370
     0
100
AcDbVertex
100
AcDb2dVertex
 10
57.95907662320216
 20
74.61914659330064
 30
0.0
  0
VERTEX
  5
767
330
765
100
AcDbEntity
  8
Capa 1
370
     0
100
AcDbVertex
100
AcDb2dVertex
 10
57.95907662320216
 20
73.76189917733657
 30
0.0
  0
VERTEX
  5
768
330
765
100
AcDbEntity
  8
Capa 1
370
     0
100
AcDbVertex
100
AcDb2dVertex
 10
55.32382888470488
 20
74.20639723935923
 30
0.0
  0
SEQEND
  5
76A
330
765
100
AcDbEntity
  8
Capa 1
370
     0
  0
HATCH
  5
769
330
1F
100
AcDbEntity
  8
Capa 1
 62
     7
420
 16777215
100
AcDbHatch
 10
0.0
 20
0.0
 30
0.0
210
0.0
220
0.0
230
1.0
  2
SOLID
 70
     1
 71
     0
 91
        1
 92
        1
 93
        3
 72
     1
 10
57.95907662320216
 20
74.61914659330064
 11
57.95907662320216
 21
73.76189917733657
 72
     1
 10
57.95907662320216
 20
73.76189917733657
 11
55.32382888470488
 21
74.20639723935923
 72
     1
 10
55.32382888470488
 20
74.20639723935923
 11
57.95907662320216
 21
74.61914659330064
 97
        0
 75
     0
 76
     1
 98
        0
  0
POLYLINE
  5
76B
330
1F
100
AcDbEntity
  8
Capa 1
370
     0
100
AcDb2dPolyline
 66
     1
 10
0.0
 20
0.0
 30
0.0
  0
VERTEX
  5
76C
330
76B
100
AcDbEntity
  8
Capa 1
370
     0
100
AcDbVertex
100
AcDb2dVertex
 10
102.1868235438571
 20
74.61914659330064
 30
0.0
  0
VERTEX
  5
76D
330
76B
100
AcDbEntity
  8
Capa 1
370
     0
100
AcDbVertex
100
AcDb2dVertex
 10
102.1868235438571
 20
73.76189917733657
 30
0.0
  0
VERTEX
  5
76E
330
76B
100
AcDbEntity
  8
Capa 1
370
     0
100
AcDbVertex
100
AcDb2dVertex
 10
104.8220712823543
 20
74.20639723935923
 30
0.0
  0
SEQEND
  5
770
330
76B
100
AcDbEntity
  8
Capa 1
370
     0
  0
HATCH
  5
76F
330
1F
100
AcDbEntity
  8
Capa 1
 62
     7
420
 16777215
100
AcDbHatch
 10
0.0
 20
0.0
 30
0.0
210
0.0
220
0.0
230
1.0
  2
SOLID
 70
     1
 71
     0
 91
        1
 92
        1
 93
        3
 72
     1
 10
102.1868235438571
 20
74.61914659330064
 11
102.1868235438571
 21
73.76189917733657
 72
     1
 10
102.1868235438571
 20
73.76189917733657
 11
104.8220712823543
 21
74.20639723935923
 72
     1
 10
104.8220712823543
 20
74.20639723935923
 11
102.1868235438571
 21
74.61914659330064
 97
        0
 75
     0
 76
     1
 98
        0
  0
POLYLINE
  5
771
330
1F
100
AcDbEntity
  8
Capa 1
 62
     7
420
 16777215
370
     9
100
AcDb2dPolyline
 66
     1
 10
0.0
 20
0.0
 30
0.0
  0
VERTEX
  5
772
330
771
100
AcDbEntity
  8
Capa 1
 62
     7
420
 16777215
370
     9
100
AcDbVertex
100
AcDb2dVertex
 10
52.72020066320816
 20
78.39739626937839
 30
0.0
  0
VERTEX
  5
773
330
771
100
AcDbEntity
  8
Capa 1
 62
     7
420
 16777215
370
     9
100
AcDbVertex
100
AcDb2dVertex
 10
45.8939518760811
 20
78.39739626937839
 30
0.0
  0
SEQEND
  5
774
330
771
100
AcDbEntity
  8
Capa 1
 62
     7
420
 16777215
370
     9
  0
POLYLINE
  5
775
330
1F
100
AcDbEntity
  8
Capa 1
 62
     7
420
 16777215
370
     9
100
AcDb2dPolyline
 66
     1
 10
0.0
 20
0.0
 30
0.0
  0
VERTEX
  5
776
330
775
100
AcDbEntity
  8
Capa 1
 62
     7
420
 16777215
370
     9
100
AcDbVertex
100
AcDb2dVertex
 10
60.81657742993203
 20
78.39739626937839
 30
0.0
  0
VERTEX
  5
777
330
775
100
AcDbEntity
  8
Capa 1
 62
     7
420
 16777215
370
     9
100
AcDbVertex
100
AcDb2dVertex
 10
63.42007646034806
 20
78.39739626937839
 30
0.0
  0
SEQEND
  5
778
330
775
100
AcDbEntity
  8
Capa 1
 62
     7
420
 16777215
370
     9
  0
POLYLINE
  5
779
330
1F
100
AcDbEntity
  8
Capa 1
 62
     7
420
 16777215
370
     9
100
AcDb2dPolyline
 66
     1
 10
0.0
 20
0.0
 30
0.0
  0
VERTEX
  5
77A
330
779
100
AcDbEntity
  8
Capa 1
 62
     7
420
 16777215
370
     9
100
AcDbVertex
100
AcDb2dVertex
 10
55.32382888470488
 20
83.76314998228051
 30
0.0
  0
VERTEX
  5
77B
330
779
100
AcDbEntity
  8
Capa 1
 62
     7
420
 16777215
370
     9
100
AcDbVertex
100
AcDb2dVertex
 10
55.32382888470488
 20
77.28614707710045
 30
0.0
  0
SEQEND
  5
77C
330
779
100
AcDbEntity
  8
Capa 1
 62
     7
420
 16777215
370
     9
  0
POLYLINE
  5
77D
330
1F
100
AcDbEntity
  8
Capa 1
 62
     7
420
 16777215
370
     9
100
AcDb2dPolyline
 66
     1
 10
0.0
 20
0.0
 30
0.0
  0
VERTEX
  5
77E
330
77D
100
AcDbEntity
  8
Capa 1
 62
     7
420
 16777215
370
     9
100
AcDbVertex
100
AcDb2dVertex
 10
58.18132969143476
 20
87.79539739745084
 30
0.0
  0
VERTEX
  5
77F
330
77D
100
AcDbEntity
  8
Capa 1
 62
     7
420
 16777215
370
     9
100
AcDbVertex
100
AcDb2dVertex
 10
58.18132969143476
 20
77.28614707710045
 30
0.0
  0
SEQEND
  5
780
330
77D
100
AcDbEntity
  8
Capa 1
 62
     7
420
 16777215
370
     9
  0
POLYLINE
  5
781
330
1F
100
AcDbEntity
  8
Capa 1
370
     0
100
AcDb2dPolyline
 66
     1
 10
0.0
 20
0.0
 30
0.0
  0
VERTEX
  5
782
330
781
100
AcDbEntity
  8
Capa 1
370
     0
100
AcDbVertex
100
AcDb2dVertex
 10
60.81657742993203
 20
78.84189836862232
 30
0.0
  0
VERTEX
  5
783
330
781
100
AcDbEntity
  8
Capa 1
370
     0
100
AcDbVertex
100
AcDb2dVertex
 10
60.81657742993203
 20
77.98464691543697
 30
0.0
  0
VERTEX
  5
784
330
781
100
AcDbEntity
  8
Capa 1
370
     0
100
AcDbVertex
100
AcDb2dVertex
 10
58.18132969143476
 20
78.39739626937839
 30
0.0
  0
SEQEND
  5
786
330
781
100
AcDbEntity
  8
Capa 1
370
     0
  0
HATCH
  5
785
330
1F
100
AcDbEntity
  8
Capa 1
 62
     7
420
 16777215
100
AcDbHatch
 10
0.0
 20
0.0
 30
0.0
210
0.0
220
0.0
230
1.0
  2
SOLID
 70
     1
 71
     0
 91
        1
 92
        1
 93
        3
 72
     1
 10
60.81657742993203
 20
78.84189836862232
 11
60.81657742993203
 21
77.98464691543698
 72
     1
 10
60.81657742993203
 20
77.98464691543697
 11
58.18132969143475
 21
78.39739626937838
 72
     1
 10
58.18132969143476
 20
78.39739626937839
 11
60.81657742993204
 21
78.84189836862232
 97
        0
 75
     0
 76
     1
 98
        0
  0
POLYLINE
  5
787
330
1F
100
AcDbEntity
  8
Capa 1
370
     0
100
AcDb2dPolyline
 66
     1
 10
0.0
 20
0.0
 30
0.0
  0
VERTEX
  5
788
330
787
100
AcDbEntity
  8
Capa 1
370
     0
100
AcDbVertex
100
AcDb2dVertex
 10
52.72020066320816
 20
78.84189836862232
 30
0.0
  0
VERTEX
  5
789
330
787
100
AcDbEntity
  8
Capa 1
370
     0
100
AcDbVertex
100
AcDb2dVertex
 10
52.72020066320816
 20
77.98464691543697
 30
0.0
  0
VERTEX
  5
78A
330
787
100
AcDbEntity
  8
Capa 1
370
     0
100
AcDbVertex
100
AcDb2dVertex
 10
55.32382888470488
 20
78.39739626937839
 30
0.0
  0
SEQEND
  5
78C
330
787
100
AcDbEntity
  8
Capa 1
370
     0
  0
HATCH
  5
78B
330
1F
100
AcDbEntity
  8
Capa 1
 62
     7
420
 16777215
100
AcDbHatch
 10
0.0
 20
0.0
 30
0.0
210
0.0
220
0.0
230
1.0
  2
SOLID
 70
     1
 71
     0
 91
        1
 92
        1
 93
        3
 72
     1
 10
52.72020066320816
 20
78.84189836862232
 11
52.72020066320816
 21
77.98464691543698
 72
     1
 10
52.72020066320816
 20
77.98464691543697
 11
55.32382888470488
 21
78.39739626937838
 72
     1
 10
55.32382888470488
 20
78.39739626937839
 11
52.72020066320816
 21
78.84189836862232
 97
        0
 75
     0
 76
     1
 98
        0
  0
POLYLINE
  5
78D
330
1F
100
AcDbEntity
  8
Capa 1
 62
     7
420
 16777215
370
     9
100
AcDb2dPolyline
 66
     1
 10
0.0
 20
0.0
 30
0.0
  0
VERTEX
  5
78E
330
78D
100
AcDbEntity
  8
Capa 1
 62
     7
420
 16777215
370
     9
100
AcDbVertex
100
AcDb2dVertex
 10
83.54957693978352
 20
93.47864626560808
 30
0.0
  0
VERTEX
  5
78F
330
78D
100
AcDbEntity
  8
Capa 1
 62
     7
420
 16777215
370
     9
100
AcDbVertex
100
AcDb2dVertex
 10
86.5340766160584
 20
93.47864626560808
 30
0.0
  0
SEQEND
  5
790
330
78D
100
AcDbEntity
  8
Capa 1
 62
     7
420
 16777215
370
     9
  0
POLYLINE
  5
791
330
1F
100
AcDbEntity
  8
Capa 1
 62
     7
420
 16777215
370
     9
100
AcDb2dPolyline
 66
     1
 10
0.0
 20
0.0
 30
0.0
  0
VERTEX
  5
792
330
791
100
AcDbEntity
  8
Capa 1
 62
     7
420
 16777215
370
     9
100
AcDbVertex
100
AcDb2dVertex
 10
83.54957693978352
 20
100.0191465869507
 30
0.0
  0
VERTEX
  5
793
330
791
100
AcDbEntity
  8
Capa 1
 62
     7
420
 16777215
370
     9
100
AcDbVertex
100
AcDb2dVertex
 10
86.5340766160584
 20
100.0191465869507
 30
0.0
  0
SEQEND
  5
794
330
791
100
AcDbEntity
  8
Capa 1
 62
     7
420
 16777215
370
     9
  0
POLYLINE
  5
795
330
1F
100
AcDbEntity
  8
Capa 1
 62
     7
420
 16777215
370
     9
100
AcDb2dPolyline
 66
     1
 10
0.0
 20
0.0
 30
0.0
  0
VERTEX
  5
796
330
795
100
AcDbEntity
  8
Capa 1
 62
     7
420
 16777215
370
     9
100
AcDbVertex
100
AcDb2dVertex
 10
86.50232790797715
 20
100.0191465869507
 30
0.0
  0
VERTEX
  5
797
330
795
100
AcDbEntity
  8
Capa 1
 62
     7
420
 16777215
370
     9
100
AcDbVertex
100
AcDb2dVertex
 10
87.1373262929299
 20
99.92389642548561
 30
0.0
  0
VERTEX
  5
798
330
795
100
AcDbEntity
  8
Capa 1
 62
     7
420
 16777215
370
     9
100
AcDbVertex
100
AcDb2dVertex
 10
87.74057596980138
 20
99.73339610255553
 30
0.0
  0
VERTEX
  5
799
330
795
100
AcDbEntity
  8
Capa 1
 62
     7
420
 16777215
370
     9
100
AcDbVertex
100
AcDb2dVertex
 10
88.3120769385929
 20
99.4476496553817
 30
0.0
  0
VERTEX
  5
79A
330
795
100
AcDbEntity
  8
Capa 1
 62
     7
420
 16777215
370
     9
100
AcDbVertex
100
AcDb2dVertex
 10
88.7883277459168
 20
99.03489626421901
 30
0.0
  0
VERTEX
  5
79B
330
795
100
AcDbEntity
  8
Capa 1
 62
     7
420
 16777215
370
     9
100
AcDbVertex
100
AcDb2dVertex
 10
89.20107709985821
 20
98.55864949411509
 30
0.0
  0
VERTEX
  5
79C
330
795
100
AcDbEntity
  8
Capa 1
 62
     7
420
 16777215
370
     9
100
AcDbVertex
100
AcDb2dVertex
 10
89.48682758425332
 20
97.98714852532486
 30
0.0
  0
VERTEX
  5
79D
330
795
100
AcDbEntity
  8
Capa 1
 62
     7
420
 16777215
370
     9
100
AcDbVertex
100
AcDb2dVertex
 10
89.6773279071834
 20
97.38389884845337
 30
0.0
  0
VERTEX
  5
79E
330
795
100
AcDbEntity
  8
Capa 1
 62
     7
420
 16777215
370
     9
100
AcDbVertex
100
AcDb2dVertex
 10
89.74082532334592
 20
96.74889642627936
 30
0.0
  0
SEQEND
  5
79F
330
795
100
AcDbEntity
  8
Capa 1
 62
     7
420
 16777215
370
     9
  0
POLYLINE
  5
7A0
330
1F
100
AcDbEntity
  8
Capa 1
 62
     7
420
 16777215
370
     9
100
AcDb2dPolyline
 66
     1
 10
0.0
 20
0.0
 30
0.0
  0
VERTEX
  5
7A1
330
7A0
100
AcDbEntity
  8
Capa 1
 62
     7
420
 16777215
370
     9
100
AcDbVertex
100
AcDb2dVertex
 10
86.50232790797715
 20
93.47864626560808
 30
0.0
  0
VERTEX
  5
7A2
330
7A0
100
AcDbEntity
  8
Capa 1
 62
     7
420
 16777215
370
     9
100
AcDbVertex
100
AcDb2dVertex
 10
87.1373262929299
 20
93.54214771899186
 30
0.0
  0
VERTEX
  5
7A3
330
7A0
100
AcDbEntity
  8
Capa 1
 62
     7
420
 16777215
370
     9
100
AcDbVertex
100
AcDb2dVertex
 10
87.74057596980138
 20
93.73264804192193
 30
0.0
  0
VERTEX
  5
7A4
330
7A0
100
AcDbEntity
  8
Capa 1
 62
     7
420
 16777215
370
     9
100
AcDbVertex
100
AcDb2dVertex
 10
88.3120769385929
 20
94.0501472343983
 30
0.0
  0
VERTEX
  5
7A5
330
7A0
100
AcDbEntity
  8
Capa 1
 62
     7
420
 16777215
370
     9
100
AcDbVertex
100
AcDb2dVertex
 10
88.7883277459168
 20
94.46289658833972
 30
0.0
  0
VERTEX
  5
7A6
330
7A0
100
AcDbEntity
  8
Capa 1
 62
     7
420
 16777215
370
     9
100
AcDbVertex
100
AcDb2dVertex
 10
89.20107709985821
 20
94.9391473956649
 30
0.0
  0
VERTEX
  5
7A7
330
7A0
100
AcDbEntity
  8
Capa 1
 62
     7
420
 16777215
370
     9
100
AcDbVertex
100
AcDb2dVertex
 10
89.48682758425332
 20
95.51064836445514
 30
0.0
  0
VERTEX
  5
7A8
330
7A0
100
AcDbEntity
  8
Capa 1
 62
     7
420
 16777215
370
     9
100
AcDbVertex
100
AcDb2dVertex
 10
89.6773279071834
 20
96.11389804132662
 30
0.0
  0
VERTEX
  5
7A9
330
7A0
100
AcDbEntity
  8
Capa 1
 62
     7
420
 16777215
370
     9
100
AcDbVertex
100
AcDb2dVertex
 10
89.74082532334592
 20
96.74889642627936
 30
0.0
  0
SEQEND
  5
7AA
330
7A0
100
AcDbEntity
  8
Capa 1
 62
     7
420
 16777215
370
     9
  0
POLYLINE
  5
7AB
330
1F
100
AcDbEntity
  8
Capa 1
 62
     7
420
 16777215
370
     9
100
AcDb2dPolyline
 66
     1
 10
0.0
 20
0.0
 30
0.0
  0
VERTEX
  5
7AC
330
7AB
100
AcDbEntity
  8
Capa 1
 62
     7
420
 16777215
370
     9
100
AcDbVertex
100
AcDb2dVertex
 10
83.54957693978352
 20
100.0191465869507
 30
0.0
  0
VERTEX
  5
7AD
330
7AB
100
AcDbEntity
  8
Capa 1
 62
     7
420
 16777215
370
     9
100
AcDbVertex
100
AcDb2dVertex
 10
83.07332613245704
 20
99.3841482019979
 30
0.0
  0
VERTEX
  5
7AE
330
7AB
100
AcDbEntity
  8
Capa 1
 62
     7
420
 16777215
370
     9
100
AcDbVertex
100
AcDb2dVertex
 10
82.72407823189941
 20
98.68564836366139
 30
0.0
  0
VERTEX
  5
7AF
330
7AB
100
AcDbEntity
  8
Capa 1
 62
     7
420
 16777215
370
     9
100
AcDbVertex
100
AcDb2dVertex
 10
82.47007645558556
 20
97.92364707194108
 30
0.0
  0
VERTEX
  5
7B0
330
7AB
100
AcDbEntity
  8
Capa 1
 62
     7
420
 16777215
370
     9
100
AcDbVertex
100
AcDb2dVertex
 10
82.34307758603926
 20
97.12989707213951
 30
0.0
  0
VERTEX
  5
7B1
330
7AB
100
AcDbEntity
  8
Capa 1
 62
     7
420
 16777215
370
     9
100
AcDbVertex
100
AcDb2dVertex
 10
82.34307758603926
 20
96.33614707233795
 30
0.0
  0
VERTEX
  5
7B2
330
7AB
100
AcDbEntity
  8
Capa 1
 62
     7
420
 16777215
370
     9
100
AcDbVertex
100
AcDb2dVertex
 10
82.47007645558556
 20
95.57414578061764
 30
0.0
  0
VERTEX
  5
7B3
330
7AB
100
AcDbEntity
  8
Capa 1
 62
     7
420
 16777215
370
     9
100
AcDbVertex
100
AcDb2dVertex
 10
82.72407823189941
 20
94.8121485261186
 30
0.0
  0
VERTEX
  5
7B4
330
7AB
100
AcDbEntity
  8
Capa 1
 62
     7
420
 16777215
370
     9
100
AcDbVertex
100
AcDb2dVertex
 10
83.07332613245704
 20
94.11364868778209
 30
0.0
  0
VERTEX
  5
7B5
330
7AB
100
AcDbEntity
  8
Capa 1
 62
     7
420
 16777215
370
     9
100
AcDbVertex
100
AcDb2dVertex
 10
83.54957693978352
 20
93.47864626560808
 30
0.0
  0
SEQEND
  5
7B6
330
7AB
100
AcDbEntity
  8
Capa 1
 62
     7
420
 16777215
370
     9
  0
POLYLINE
  5
7B7
330
1F
100
AcDbEntity
  8
Capa 1
 62
     7
420
 16777215
370
     9
100
AcDb2dPolyline
 66
     1
 10
0.0
 20
0.0
 30
0.0
  0
VERTEX
  5
7B8
330
7B7
100
AcDbEntity
  8
Capa 1
 62
     7
420
 16777215
370
     9
100
AcDbVertex
100
AcDb2dVertex
 10
57.4510771077957
 20
175.1396420464827
 30
0.0
  0
VERTEX
  5
7B9
330
7B7
100
AcDbEntity
  8
Capa 1
 62
     7
420
 16777215
370
     9
100
AcDbVertex
100
AcDb2dVertex
 10
58.24482710759727
 20
175.0761284814351
 30
0.0
  0
SEQEND
  5
7BA
330
7B7
100
AcDbEntity
  8
Capa 1
 62
     7
420
 16777215
370
     9
  0
POLYLINE
  5
7BB
330
1F
100
AcDbEntity
  8
Capa 1
 62
     7
420
 16777215
370
     9
100
AcDb2dPolyline
 66
     1
 10
0.0
 20
0.0
 30
0.0
  0
VERTEX
  5
7BC
330
7BB
100
AcDbEntity
  8
Capa 1
 62
     7
420
 16777215
370
     9
100
AcDbVertex
100
AcDb2dVertex
 10
56.08582815781455
 20
176.5683823567945
 30
0.0
  0
VERTEX
  5
7BD
330
7BB
100
AcDbEntity
  8
Capa 1
 62
     7
420
 16777215
370
     9
100
AcDbVertex
100
AcDb2dVertex
 10
56.18107831927959
 20
176.1238842947718
 30
0.0
  0
VERTEX
  5
7BE
330
7BB
100
AcDbEntity
  8
Capa 1
 62
     7
420
 16777215
370
     9
100
AcDbVertex
100
AcDb2dVertex
 10
56.37157864220966
 20
175.7428836489117
 30
0.0
  0
VERTEX
  5
7BF
330
7BB
100
AcDbEntity
  8
Capa 1
 62
     7
420
 16777215
370
     9
100
AcDbVertex
100
AcDb2dVertex
 10
56.65732912660478
 20
175.4571291272952
 30
0.0
  0
VERTEX
  5
7C0
330
7BB
100
AcDbEntity
  8
Capa 1
 62
     7
420
 16777215
370
     9
100
AcDbVertex
100
AcDb2dVertex
 10
57.0383277538543
 20
175.2348881707265
 30
0.0
  0
VERTEX
  5
7C1
330
7BB
100
AcDbEntity
  8
Capa 1
 62
     7
420
 16777215
370
     9
100
AcDbVertex
100
AcDb2dVertex
 10
57.4510771077957
 20
175.1396420464827
 30
0.0
  0
SEQEND
  5
7C2
330
7BB
100
AcDbEntity
  8
Capa 1
 62
     7
420
 16777215
370
     9
  0
POLYLINE
  5
7C3
330
1F
100
AcDbEntity
  8
Capa 1
 62
     7
420
 16777215
370
     9
100
AcDb2dPolyline
 66
     1
 10
0.0
 20
0.0
 30
0.0
  0
VERTEX
  5
7C4
330
7C3
100
AcDbEntity
  8
Capa 1
 62
     7
420
 16777215
370
     9
100
AcDbVertex
100
AcDb2dVertex
 10
63.70582694474445
 20
154.2798930206307
 30
0.0
  0
VERTEX
  5
7C5
330
7C3
100
AcDbEntity
  8
Capa 1
 62
     7
420
 16777215
370
     9
100
AcDbVertex
100
AcDb2dVertex
 10
63.35657904418554
 20
148.6283888233335
 30
0.0
  0
SEQEND
  5
7C6
330
7C3
100
AcDbEntity
  8
Capa 1
 62
     7
420
 16777215
370
     9
  0
POLYLINE
  5
7C7
330
1F
100
AcDbEntity
  8
Capa 1
 62
     7
420
 16777215
370
     9
100
AcDb2dPolyline
 66
     1
 10
0.0
 20
0.0
 30
0.0
  0
VERTEX
  5
7C8
330
7C7
100
AcDbEntity
  8
Capa 1
 62
     7
420
 16777215
370
     9
100
AcDbVertex
100
AcDb2dVertex
 10
64.4043267830797
 20
154.6291368839671
 30
0.0
  0
VERTEX
  5
7C9
330
7C7
100
AcDbEntity
  8
Capa 1
 62
     7
420
 16777215
370
     9
100
AcDbVertex
100
AcDb2dVertex
 10
64.6900772674748
 20
154.6608936664909
 30
0.0
  0
VERTEX
  5
7CA
330
7C7
100
AcDbEntity
  8
Capa 1
 62
     7
420
 16777215
370
     9
100
AcDbVertex
100
AcDb2dVertex
 10
64.97582775186993
 20
154.7243910826534
 30
0.0
  0
VERTEX
  5
7CB
330
7C7
100
AcDbEntity
  8
Capa 1
 62
     7
420
 16777215
370
     9
100
AcDbVertex
100
AcDb2dVertex
 10
65.22982952818379
 20
154.8831426975022
 30
0.0
  0
VERTEX
  5
7CC
330
7C7
100
AcDbEntity
  8
Capa 1
 62
     7
420
 16777215
370
     9
100
AcDbVertex
100
AcDb2dVertex
 10
65.45207855919512
 20
155.041894312351
 30
0.0
  0
VERTEX
  5
7CD
330
7C7
100
AcDbEntity
  8
Capa 1
 62
     7
420
 16777215
370
     9
100
AcDbVertex
100
AcDb2dVertex
 10
65.61082613682267
 20
155.2641433433624
 30
0.0
  0
VERTEX
  5
7CE
330
7C7
100
AcDbEntity
  8
Capa 1
 62
     7
420
 16777215
370
     9
100
AcDbVertex
100
AcDb2dVertex
 10
65.76957775167149
 20
155.4863923743737
 30
0.0
  0
VERTEX
  5
7CF
330
7C7
100
AcDbEntity
  8
Capa 1
 62
     7
420
 16777215
370
     9
100
AcDbVertex
100
AcDb2dVertex
 10
65.86482791313652
 20
155.7721388215476
 30
0.0
  0
VERTEX
  5
7D0
330
7C7
100
AcDbEntity
  8
Capa 1
 62
     7
420
 16777215
370
     9
100
AcDbVertex
100
AcDb2dVertex
 10
65.89657662121778
 20
156.057893343164
 30
0.0
  0
SEQEND
  5
7D1
330
7C7
100
AcDbEntity
  8
Capa 1
 62
     7
420
 16777215
370
     9
  0
POLYLINE
  5
7D2
330
1F
100
AcDbEntity
  8
Capa 1
 62
     7
420
 16777215
370
     9
100
AcDb2dPolyline
 66
     1
 10
0.0
 20
0.0
 30
0.0
  0
VERTEX
  5
7D3
330
7D2
100
AcDbEntity
  8
Capa 1
 62
     7
420
 16777215
370
     9
100
AcDbVertex
100
AcDb2dVertex
 10
64.08682759060332
 20
154.6291368839671
 30
0.0
  0
VERTEX
  5
7D4
330
7D2
100
AcDbEntity
  8
Capa 1
 62
     7
420
 16777215
370
     9
100
AcDbVertex
100
AcDb2dVertex
 10
64.49957694454602
 20
154.6291368839671
 30
0.0
  0
SEQEND
  5
7D5
330
7D2
100
AcDbEntity
  8
Capa 1
 62
     7
420
 16777215
370
     9
  0
POLYLINE
  5
7D6
330
1F
100
AcDbEntity
  8
Capa 1
 62
     7
420
 16777215
370
     9
100
AcDb2dPolyline
 66
     1
 10
0.0
 20
0.0
 30
0.0
  0
VERTEX
  5
7D7
330
7D6
100
AcDbEntity
  8
Capa 1
 62
     7
420
 16777215
370
     9
100
AcDbVertex
100
AcDb2dVertex
 10
64.08682759060332
 20
154.6291368839671
 30
0.0
  0
VERTEX
  5
7D8
330
7D6
100
AcDbEntity
  8
Capa 1
 62
     7
420
 16777215
370
     9
100
AcDbVertex
100
AcDb2dVertex
 10
63.89632726767324
 20
154.5973881758858
 30
0.0
  0
VERTEX
  5
7D9
330
7D6
100
AcDbEntity
  8
Capa 1
 62
     7
420
 16777215
370
     9
100
AcDbVertex
100
AcDb2dVertex
 10
63.76932839812824
 20
154.4703933435608
 30
0.0
  0
VERTEX
  5
7DA
330
7D6
100
AcDbEntity
  8
Capa 1
 62
     7
420
 16777215
370
     9
100
AcDbVertex
100
AcDb2dVertex
 10
63.70582694474445
 20
154.2798930206307
 30
0.0
  0
SEQEND
  5
7DB
330
7D6
100
AcDbEntity
  8
Capa 1
 62
     7
420
 16777215
370
     9
  0
POLYLINE
  5
7DC
330
1F
100
AcDbEntity
  8
Capa 1
 62
     7
420
 16777215
370
     9
100
AcDb2dPolyline
 66
     1
 10
0.0
 20
0.0
 30
0.0
  0
VERTEX
  5
7DD
330
7DC
100
AcDbEntity
  8
Capa 1
 62
     7
420
 16777215
370
     9
100
AcDbVertex
100
AcDb2dVertex
 10
59.38782904517773
 20
174.4093894628436
 30
0.0
  0
VERTEX
  5
7DE
330
7DC
100
AcDbEntity
  8
Capa 1
 62
     7
420
 16777215
370
     9
100
AcDbVertex
100
AcDb2dVertex
 10
59.16557597694513
 20
174.6633791274937
 30
0.0
  0
VERTEX
  5
7DF
330
7DC
100
AcDbEntity
  8
Capa 1
 62
     7
420
 16777215
370
     9
100
AcDbVertex
100
AcDb2dVertex
 10
58.87982952977129
 20
174.8538875248663
 30
0.0
  0
VERTEX
  5
7E0
330
7DC
100
AcDbEntity
  8
Capa 1
 62
     7
420
 16777215
370
     9
100
AcDbVertex
100
AcDb2dVertex
 10
58.56232630007364
 20
175.0126310652726
 30
0.0
  0
VERTEX
  5
7E1
330
7DC
100
AcDbEntity
  8
Capa 1
 62
     7
420
 16777215
370
     9
100
AcDbVertex
100
AcDb2dVertex
 10
58.24482710759727
 20
175.0761284814351
 30
0.0
  0
SEQEND
  5
7E2
330
7DC
100
AcDbEntity
  8
Capa 1
 62
     7
420
 16777215
370
     9
  0
POLYLINE
  5
7E3
330
1F
100
AcDbEntity
  8
Capa 1
 62
     7
420
 16777215
370
     9
100
AcDb2dPolyline
 66
     1
 10
0.0
 20
0.0
 30
0.0
  0
VERTEX
  5
7E4
330
7E3
100
AcDbEntity
  8
Capa 1
 62
     7
420
 16777215
370
     9
100
AcDbVertex
100
AcDb2dVertex
 10
66.21407581369415
 20
164.6303917261323
 30
0.0
  0
VERTEX
  5
7E5
330
7E3
100
AcDbEntity
  8
Capa 1
 62
     7
420
 16777215
370
     9
100
AcDbVertex
100
AcDb2dVertex
 10
59.38782904517773
 20
174.4093894628436
 30
0.0
  0
SEQEND
  5
7E6
330
7E3
100
AcDbEntity
  8
Capa 1
 62
     7
420
 16777215
370
     9
  0
POLYLINE
  5
7E7
330
1F
100
AcDbEntity
  8
Capa 1
 62
     7
420
 16777215
370
     9
100
AcDb2dPolyline
 66
     1
 10
0.0
 20
0.0
 30
0.0
  0
VERTEX
  5
7E8
330
7E7
100
AcDbEntity
  8
Capa 1
 62
     7
420
 16777215
370
     9
100
AcDbVertex
100
AcDb2dVertex
 10
66.40457613662423
 20
163.9953933411796
 30
0.0
  0
VERTEX
  5
7E9
330
7E7
100
AcDbEntity
  8
Capa 1
 62
     7
420
 16777215
370
     9
100
AcDbVertex
100
AcDb2dVertex
 10
66.40457613662423
 20
164.1541368815859
 30
0.0
  0
VERTEX
  5
7EA
330
7E7
100
AcDbEntity
  8
Capa 1
 62
     7
420
 16777215
370
     9
100
AcDbVertex
100
AcDb2dVertex
 10
66.37282742854298
 20
164.3128884964347
 30
0.0
  0
VERTEX
  5
7EB
330
7E7
100
AcDbEntity
  8
Capa 1
 62
     7
420
 16777215
370
     9
100
AcDbVertex
100
AcDb2dVertex
 10
66.30932597515918
 20
164.4716401112835
 30
0.0
  0
VERTEX
  5
7EC
330
7E7
100
AcDbEntity
  8
Capa 1
 62
     7
420
 16777215
370
     9
100
AcDbVertex
100
AcDb2dVertex
 10
66.21407581369415
 20
164.6303917261323
 30
0.0
  0
SEQEND
  5
7ED
330
7E7
100
AcDbEntity
  8
Capa 1
 62
     7
420
 16777215
370
     9
  0
POLYLINE
  5
7EE
330
1F
100
AcDbEntity
  8
Capa 1
 62
     7
420
 16777215
370
     9
100
AcDb2dPolyline
 66
     1
 10
0.0
 20
0.0
 30
0.0
  0
VERTEX
  5
7EF
330
7EE
100
AcDbEntity
  8
Capa 1
 62
     7
420
 16777215
370
     9
100
AcDbVertex
100
AcDb2dVertex
 10
57.4510771077957
 20
175.1396420464827
 30
0.0
  0
VERTEX
  5
7F0
330
7EE
100
AcDbEntity
  8
Capa 1
 62
     7
420
 16777215
370
     9
100
AcDbVertex
100
AcDb2dVertex
 10
58.24482710759727
 20
175.0761284814351
 30
0.0
  0
SEQEND
  5
7F1
330
7EE
100
AcDbEntity
  8
Capa 1
 62
     7
420
 16777215
370
     9
  0
POLYLINE
  5
7F2
330
1F
100
AcDbEntity
  8
Capa 1
 62
     7
420
 16777215
370
     9
100
AcDb2dPolyline
 66
     1
 10
0.0
 20
0.0
 30
0.0
  0
VERTEX
  5
7F3
330
7F2
100
AcDbEntity
  8
Capa 1
 62
     7
420
 16777215
370
     9
100
AcDbVertex
100
AcDb2dVertex
 10
56.08582815781455
 20
176.5683823567945
 30
0.0
  0
VERTEX
  5
7F4
330
7F2
100
AcDbEntity
  8
Capa 1
 62
     7
420
 16777215
370
     9
100
AcDbVertex
100
AcDb2dVertex
 10
56.18107831927959
 20
176.1238842947718
 30
0.0
  0
VERTEX
  5
7F5
330
7F2
100
AcDbEntity
  8
Capa 1
 62
     7
420
 16777215
370
     9
100
AcDbVertex
100
AcDb2dVertex
 10
56.37157864220966
 20
175.7428836489117
 30
0.0
  0
VERTEX
  5
7F6
330
7F2
100
AcDbEntity
  8
Capa 1
 62
     7
420
 16777215
370
     9
100
AcDbVertex
100
AcDb2dVertex
 10
56.65732912660478
 20
175.4571291272952
 30
0.0
  0
VERTEX
  5
7F7
330
7F2
100
AcDbEntity
  8
Capa 1
 62
     7
420
 16777215
370
     9
100
AcDbVertex
100
AcDb2dVertex
 10
57.0383277538543
 20
175.2348881707265
 30
0.0
  0
VERTEX
  5
7F8
330
7F2
100
AcDbEntity
  8
Capa 1
 62
     7
420
 16777215
370
     9
100
AcDbVertex
100
AcDb2dVertex
 10
57.4510771077957
 20
175.1396420464827
 30
0.0
  0
SEQEND
  5
7F9
330
7F2
100
AcDbEntity
  8
Capa 1
 62
     7
420
 16777215
370
     9
  0
POLYLINE
  5
7FA
330
1F
100
AcDbEntity
  8
Capa 1
 62
     7
420
 16777215
370
     9
100
AcDb2dPolyline
 66
     1
 10
0.0
 20
0.0
 30
0.0
  0
VERTEX
  5
7FB
330
7FA
100
AcDbEntity
  8
Capa 1
 62
     7
420
 16777215
370
     9
100
AcDbVertex
100
AcDb2dVertex
 10
59.38782904517773
 20
174.4093894628436
 30
0.0
  0
VERTEX
  5
7FC
330
7FA
100
AcDbEntity
  8
Capa 1
 62
     7
420
 16777215
370
     9
100
AcDbVertex
100
AcDb2dVertex
 10
59.16557597694513
 20
174.6633791274937
 30
0.0
  0
VERTEX
  5
7FD
330
7FA
100
AcDbEntity
  8
Capa 1
 62
     7
420
 16777215
370
     9
100
AcDbVertex
100
AcDb2dVertex
 10
58.87982952977129
 20
174.8538875248663
 30
0.0
  0
VERTEX
  5
7FE
330
7FA
100
AcDbEntity
  8
Capa 1
 62
     7
420
 16777215
370
     9
100
AcDbVertex
100
AcDb2dVertex
 10
58.56232630007364
 20
175.0126310652726
 30
0.0
  0
VERTEX
  5
7FF
330
7FA
100
AcDbEntity
  8
Capa 1
 62
     7
420
 16777215
370
     9
100
AcDbVertex
100
AcDb2dVertex
 10
58.24482710759727
 20
175.0761284814351
 30
0.0
  0
SEQEND
  5
800
330
7FA
100
AcDbEntity
  8
Capa 1
 62
     7
420
 16777215
370
     9
  0
POLYLINE
  5
801
330
1F
100
AcDbEntity
  8
Capa 1
 62
     7
420
 16777215
370
     9
100
AcDb2dPolyline
 66
     1
 10
0.0
 20
0.0
 30
0.0
  0
VERTEX
  5
802
330
801
100
AcDbEntity
  8
Capa 1
 62
     7
420
 16777215
370
     9
100
AcDbVertex
100
AcDb2dVertex
 10
59.48307920664277
 20
174.9808823571913
 30
0.0
  0
VERTEX
  5
803
330
801
100
AcDbEntity
  8
Capa 1
 62
     7
420
 16777215
370
     9
100
AcDbVertex
100
AcDb2dVertex
 10
60.02282743013047
 20
174.9491336491101
 30
0.0
  0
VERTEX
  5
804
330
801
100
AcDbEntity
  8
Capa 1
 62
     7
420
 16777215
370
     9
100
AcDbVertex
100
AcDb2dVertex
 10
62.11832694514133
 20
174.7586414006225
 30
0.0
  0
VERTEX
  5
805
330
801
100
AcDbEntity
  8
Capa 1
 62
     7
420
 16777215
370
     9
100
AcDbVertex
100
AcDb2dVertex
 10
62.56282904438398
 20
174.7268926925413
 30
0.0
  0
SEQEND
  5
806
330
801
100
AcDbEntity
  8
Capa 1
 62
     7
420
 16777215
370
     9
  0
POLYLINE
  5
807
330
1F
100
AcDbEntity
  8
Capa 1
 62
     7
420
 16777215
370
     9
100
AcDb2dPolyline
 66
     1
 10
0.0
 20
0.0
 30
0.0
  0
VERTEX
  5
808
330
807
100
AcDbEntity
  8
Capa 1
 62
     7
420
 16777215
370
     9
100
AcDbVertex
100
AcDb2dVertex
 10
58.24482710759727
 20
175.0761284814351
 30
0.0
  0
VERTEX
  5
809
330
807
100
AcDbEntity
  8
Capa 1
 62
     7
420
 16777215
370
     9
100
AcDbVertex
100
AcDb2dVertex
 10
58.84807678446876
 20
175.0443797733539
 30
0.0
  0
VERTEX
  5
80A
330
807
100
AcDbEntity
  8
Capa 1
 62
     7
420
 16777215
370
     9
100
AcDbVertex
100
AcDb2dVertex
 10
59.48307920664277
 20
174.9808823571913
 30
0.0
  0
SEQEND
  5
80B
330
807
100
AcDbEntity
  8
Capa 1
 62
     7
420
 16777215
370
     9
  0
MTEXT
  5
80C
330
1F
100
AcDbEntity
  8
Capa 1
 62
     7
420
 16777215
100
AcDbMText
 10
111.7272026630404
 20
161.8051106366321
 30
0.0
 40
2.49766666604225
 41
0.0
 46
0.0
 71
     7
 72
     1
  1
\fArial|b1|i0|c0|p34;\W1;400
 73
     1
 44
1.0
  0
MTEXT
  5
80D
330
1F
100
AcDbEntity
  8
Capa 1
 62
     7
420
 16777215
100
AcDbMText
 10
76.81667207280972
 20
137.0142035247742
 30
0.0
 40
2.49766666604225
 41
0.0
 46
0.0
 71
     7
 72
     1
  1
\fArial|b1|i0|c0|p34;\W1;438
 73
     1
 44
1.0
  0
MTEXT
  5
80E
330
1F
100
AcDbEntity
  8
Capa 1
 62
     7
420
 16777215
100
AcDbMText
 10
59.32432759179395
 20
132.7370909014632
 30
0.0
 40
2.49766666604225
 41
0.0
 46
0.0
 71
     7
 72
     1
  1
\fArial|b1|i0|c0|p34;\W1;210
 73
     1
 44
1.0
  0
MTEXT
  5
80F
330
1F
100
AcDbEntity
  8
Capa 1
 62
     7
420
 16777215
100
AcDbMText
 10
66.03672606618667
 20
140.9269835066808
 30
0.0
 40
2.49766666604225
 41
0.0
 46
0.0
 71
     7
 72
     1
  1
\fArial|b1|i0|c0|p34;\W1;Ø102
 73
     1
 44
1.0
  0
MTEXT
  5
810
330
1F
100
AcDbEntity
  8
Capa 1
 62
     7
420
 16777215
100
AcDbMText
 10
151.282410986485
 20
139.8364257462909
 30
0.0
 40
2.49766666604225
 41
0.0
 46
0.0
 71
     7
 72
     1
  1
\fArial|b1|i0|c0|p34;\W1;220
 73
     1
 44
1.0
  0
MTEXT
  5
811
330
1F
100
AcDbEntity
  8
Capa 1
 62
     7
420
 16777215
100
AcDbMText
 10
177.4041584842948
 20
176.2400607198289
 30
0.0
 40
2.49766666604225
 41
0.0
 46
0.0
 71
     7
 72
     1
  1
\fArial|b1|i0|c0|p34;\W1;795
 73
     1
 44
1.0
  0
MTEXT
  5
812
330
1F
100
AcDbEntity
  8
Capa 1
 62
     7
420
 16777215
100
AcDbMText
 10
134.5096191069976
 20
154.4545149522989
 30
0.0
 40
2.49766666604225
 41
0.0
 46
0.0
 71
     7
 72
     1
  1
\fArial|b1|i0|c0|p34;\W1;200
 73
     1
 44
1.0
  0
MTEXT
  5
813
330
1F
100
AcDbEntity
  8
Capa 1
 62
     7
420
 16777215
100
AcDbMText
 10
148.2772541947015
 20
157.6606607678765
 30
0.0
 40
2.49766666604225
 41
0.0
 46
0.0
 71
     7
 72
     1
  1
\fArial|b1|i0|c0|p34;\W1;120
 73
     1
 44
1.0
  0
MTEXT
  5
814
330
1F
100
AcDbEntity
  8
Capa 1
 62
     7
420
 16777215
100
AcDbMText
 10
117.645982683758
 20
91.70086260728313
 30
0.0
 40
2.49766666604225
 41
0.0
 46
0.0
 71
     7
 72
     1
  1
\fArial|b1|i0|c0|p34;\W1;360
 11
6.123233995736766E-17
 21
1.0
 31
0.0
 73
     1
 44
1.0
  0
MTEXT
  5
815
330
1F
100
AcDbEntity
  8
Capa 1
 62
     7
420
 16777215
100
AcDbMText
 10
83.32721352083486
 20
117.5025607345133
 30
0.0
 40
2.49766666604225
 41
0.0
 46
0.0
 71
     7
 72
     1
  1
\fArial|b1|i0|c0|p34;\W1;437
 73
     1
 44
1.0
  0
MTEXT
  5
816
330
1F
100
AcDbEntity
  8
Capa 1
 62
     7
420
 16777215
100
AcDbMText
 10
56.1171603592346
 20
117.6610351268347
 30
0.0
 40
2.49766666604225
 41
0.0
 46
0.0
 71
     7
 72
     1
  1
\fArial|b1|i0|c0|p34;\W1;157
 73
     1
 44
1.0
  0
MTEXT
  5
817
330
1F
100
AcDbEntity
  8
Capa 1
 62
     7
420
 16777215
100
AcDbMText
 10
77.42182597238107
 20
70.64724823457107
 30
0.0
 40
2.49766666604225
 41
0.0
 46
0.0
 71
     7
 72
     1
  1
\fArial|b1|i0|c0|p34;\W1;660
 73
     1
 44
1.0
  0
MTEXT
  5
818
330
1F
100
AcDbEntity
  8
Capa 1
 62
     7
420
 16777215
100
AcDbMText
 10
47.95770066439879
 20
74.61914659330064
 30
0.0
 40
2.49766666604225
 41
0.0
 46
0.0
 71
     7
 72
     1
  1
\fArial|b1|i0|c0|p34;\W1;38
 73
     1
 44
1.0
  0
MTEXT
  5
819
330
1F
100
AcDbEntity
  8
Capa 1
 62
     7
420
 16777215
100
AcDbMText
 10
42.76121418201803
 20
93.92294919526927
 30
0.0
 40
2.49766666604225
 41
0.0
 46
0.0
 71
     7
 72
     1
  1
\fArial|b1|i0|c0|p34;\W1;355
 11
6.123233995736766E-17
 21
1.0
 31
0.0
 73
     1
 44
1.0
  0
MTEXT
  5
81A
330
1F
100
AcDbEntity
  8
Capa 1
 62
     7
420
 16777215
100
AcDbMText
 10
47.97846678488038
 20
89.54216577622557
 30
0.0
 40
2.49766666604225
 41
0.0
 46
0.0
 71
     7
 72
     1
  1
\fArial|b1|i0|c0|p34;\W1;110
 11
6.123233995736766E-17
 21
1.0
 31
0.0
 73
     1
 44
1.0
  0
MTEXT
  5
81B
330
1F
100
AcDbEntity
  8
Capa 1
 62
     7
420
 16777215
100
AcDbMText
 10
53.49337563766832
 20
92.37816837968325
 30
0.0
 40
2.49766666604225
 41
0.0
 46
0.0
 71
     7
 72
     1
  1
\fArial|b1|i0|c0|p34;\W1;160
 11
6.123233995736766E-17
 21
1.0
 31
0.0
 73
     1
 44
1.0
  0
MTEXT
  5
81C
330
1F
100
AcDbEntity
  8
Capa 1
 62
     7
420
 16777215
100
AcDbMText
 10
70.46805011259133
 20
92.37816837968325
 30
0.0
 40
2.49766666604225
 41
0.0
 46
0.0
 71
     7
 72
     1
  1
\fArial|b1|i0|c0|p34;\W1;160
 11
6.123233995736766E-17
 21
1.0
 31
0.0
 73
     1
 44
1.0
  0
ENDSEC
  0
SECTION
  2
OBJECTS
  0
DICTIONARY
  5
C
330
0
100
AcDbDictionary
281
     1
  3
ACAD_GROUP
350
D
  3
ACAD_LAYOUT
350
1A
  3
ACAD_MATERIAL
350
3B
  3
ACAD_MLEADERSTYLE
350
81E
  3
ACAD_MLINESTYLE
350
17
  3
ACAD_PLOTSETTINGS
350
19
  3
ACAD_PLOTSTYLENAME
350
E
  3
ACAD_TABLESTYLE
350
81D
  3
ACAD_VISUALSTYLE
350
2A
  0
SUN
  5
3F
330
29
100
AcDbSun
 90
        1
290
     0
 63
     7
421
 16777215
 40
1.0
291
     1
 91
  2455826
 92
 54000000
292
     0
 70
     2
 71
   256
280
     1
  0
DICTIONARY
  5
D
102
{ACAD_REACTORS
330
C
102
}
330
C
100
AcDbDictionary
281
     1
  0
DICTIONARY
  5
1A
102
{ACAD_REACTORS
330
C
102
}
330
C
100
AcDbDictionary
281
     1
  3
Layout1
350
1E
  3
Layout2
350
26
  3
Model
350
22
  0
DICTIONARY
  5
3B
102
{ACAD_REACTORS
330
C
102
}
330
C
100
AcDbDictionary
281
     1
  3
ByBlock
350
3D
  3
ByLayer
350
3C
  3
Global
350
3E
  0
DICTIONARY
  5
81E
102
{ACAD_REACTORS
330
C
102
}
330
C
100
AcDbDictionary
281
     1
  0
DICTIONARY
  5
17
102
{ACAD_REACTORS
330
C
102
}
330
C
100
AcDbDictionary
281
     1
  3
Standard
350
18
  0
DICTIONARY
  5
19
102
{ACAD_REACTORS
330
C
102
}
330
C
100
AcDbDictionary
281
     1
  0
ACDBDICTIONARYWDFLT
  5
E
102
{ACAD_REACTORS
330
C
102
}
330
C
100
AcDbDictionary
281
     1
  3
Normal
350
F
100
AcDbDictionaryWithDefault
340
F
  0
DICTIONARY
  5
81D
102
{ACAD_REACTORS
330
C
102
}
330
C
100
AcDbDictionary
281
     1
  0
DICTIONARY
  5
2A
102
{ACAD_REACTORS
330
C
102
}
330
C
100
AcDbDictionary
281
     1
  3
2dWireframe
350
2F
  3
3D Hidden
350
31
  3
3dWireframe
350
30
  3
Basic
350
32
  3
Brighten
350
36
  3
ColorChange
350
3A
  3
Conceptual
350
34
  3
Dim
350
35
  3
Facepattern
350
39
  3
Flat
350
2B
  3
FlatWithEdges
350
2C
  3
Gouraud
350
2D
  3
GouraudWithEdges
350
2E
  3
Linepattern
350
38
  3
Realistic
350
33
  3
Thicken
350
37
  0
LAYOUT
  5
1E
102
{ACAD_REACTORS
330
1A
102
}
330
1A
100
AcDbPlotSettings
  1

  2
none_device
  4

  6

 40
0.0
 41
0.0
 42
0.0
 43
0.0
 44
0.0
 45
0.0
 46
0.0
 47
0.0
 48
0.0
 49
0.0
140
0.0
141
0.0
142
1.0
143
1.0
 70
   688
 72
     0
 73
     0
 74
     5
  7

 75
    16
 76
     0
 77
     2
 78
   300
147
1.0
148
0.0
149
0.0
100
AcDbLayout
  1
Layout1
 70
     1
 71
     1
 10
0.0
 20
0.0
 11
12.0
 21
9.0
 12
0.0
 22
0.0
 32
0.0
 14
1.000000000000000E+20
 24
1.000000000000000E+20
 34
1.000000000000000E+20
 15
-1.000000000000000E+20
 25
-1.000000000000000E+20
 35
-1.000000000000000E+20
146
0.0
 13
0.0
 23
0.0
 33
0.0
 16
1.0
 26
0.0
 36
0.0
 17
0.0
 27
1.0
 37
0.0
 76
     0
330
1B
  0
LAYOUT
  5
26
102
{ACAD_REACTORS
330
1A
102
}
330
1A
100
AcDbPlotSettings
  1

  2
none_device
  4

  6

 40
0.0
 41
0.0
 42
0.0
 43
0.0
 44
0.0
 45
0.0
 46
0.0
 47
0.0
 48
0.0
 49
0.0
140
0.0
141
0.0
142
1.0
143
1.0
 70
   688
 72
     0
 73
     0
 74
     5
  7

 75
    16
 76
     0
 77
     2
 78
   300
147
1.0
148
0.0
149
0.0
100
AcDbLayout
  1
Layout2
 70
     1
 71
     2
 10
0.0
 20
0.0
 11
0.0
 21
0.0
 12
0.0
 22
0.0
 32
0.0
 14
0.0
 24
0.0
 34
0.0
 15
0.0
 25
0.0
 35
0.0
146
0.0
 13
0.0
 23
0.0
 33
0.0
 16
1.0
 26
0.0
 36
0.0
 17
0.0
 27
1.0
 37
0.0
 76
     0
330
23
  0
LAYOUT
  5
22
102
{ACAD_REACTORS
330
1A
102
}
330
1A
100
AcDbPlotSettings
  1

  2
none_device
  4

  6

 40
0.0
 41
0.0
 42
0.0
 43
0.0
 44
0.0
 45
0.0
 46
0.0
 47
0.0
 48
0.0
 49
0.0
140
0.0
141
0.0
142
1.0
143
1.0
 70
  1712
 72
     0
 73
     0
 74
     0
  7

 75
     0
 76
     0
 77
     2
 78
   300
147
1.0
148
0.0
149
0.0
100
AcDbLayout
  1
Model
 70
     1
 71
     0
 10
0.0
 20
0.0
 11
12.0
 21
9.0
 12
0.0
 22
0.0
 32
0.0
 14
1.000000000000000E+20
 24
1.000000000000000E+20
 34
1.000000000000000E+20
 15
-1.000000000000000E+20
 25
-1.000000000000000E+20
 35
-1.000000000000000E+20
146
0.0
 13
0.0
 23
0.0
 33
0.0
 16
1.0
 26
0.0
 36
0.0
 17
0.0
 27
1.0
 37
0.0
 76
     0
330
1F
331
29
  0
MATERIAL
  5
3D
102
{ACAD_REACTORS
330
3B
102
}
330
3B
100
AcDbMaterial
  1
ByBlock
 72
     1
 94
      127
  0
MATERIAL
  5
3C
102
{ACAD_REACTORS
330
3B
102
}
330
3B
100
AcDbMaterial
  1
ByLayer
 72
     1
 94
      127
  0
MATERIAL
  5
3E
102
{ACAD_REACTORS
330
3B
102
}
330
3B
100
AcDbMaterial
  1
Global
 72
     1
 94
      127
  0
MLINESTYLE
  5
18
102
{ACAD_REACTORS
330
17
102
}
330
17
100
AcDbMlineStyle
  2
Standard
 70
     0
  3

 62
   256
 51
90.0
 52
90.0
 71
     2
 49
0.5
 62
   256
  6
BYLAYER
 49
-0.5
 62
   256
  6
BYLAYER
  0
ACDBPLACEHOLDER
  5
F
102
{ACAD_REACTORS
330
E
102
}
330
E
  0
VISUALSTYLE
  5
2F
102
{ACAD_REACTORS
330
2A
102
}
330
2A
100
AcDbVisualStyle
  2
2dWireframe
 70
     4
177
     2
291
     0
 71
     0
176
     1
 72
     2
176
     1
 73
     0
176
     1
 90
        0
176
     1
 40
-0.6
176
     1
 41
-30.0
176
     1
 62
     5
 63
     7
421
 16777215
176
     1
 74
     1
176
     1
 91
        4
176
     1
 64
     7
176
     1
 65
   257
176
     1
 75
     1
176
     1
175
     1
176
     1
 42
1.0
176
     1
 92
        0
176
     1
 66
   257
176
     1
 43
1.0
176
     1
 76
     1
176
     1
 77
     6
176
     1
 78
     2
176
     1
 67
     7
176
     1
 79
     5
176
     1
170
     0
176
     1
171
     0
176
     1
290
     0
176
     1
 93
        1
176
     1
 44
0.0
176
     1
173
     0
176
     1
  0
VISUALSTYLE
  5
31
102
{ACAD_REACTORS
330
2A
102
}
330
2A
100
AcDbVisualStyle
  2
3D Hidden
 70
     6
177
     2
291
     0
 71
     1
176
     1
 72
     2
176
     1
 73
     2
176
     1
 90
        0
176
     1
 40
-0.6
176
     1
 41
-30.0
176
     1
 62
     5
 63
     7
421
 16777215
176
     1
 74
     2
176
     1
 91
        2
176
     1
 64
     7
176
     1
 65
   257
176
     1
 75
     2
176
     1
175
     1
176
     1
 42
40.0
176
     1
 92
        0
176
     1
 66
   257
176
     1
 43
1.0
176
     1
 76
     1
176
     1
 77
     6
176
     1
 78
     2
176
     1
 67
     7
176
     1
 79
     3
176
     1
170
     0
176
     1
171
     0
176
     1
290
     0
176
     1
 93
        1
176
     1
 44
0.0
176
     1
173
     0
176
     1
  0
VISUALSTYLE
  5
30
102
{ACAD_REACTORS
330
2A
102
}
330
2A
100
AcDbVisualStyle
  2
3dWireframe
 70
     5
177
     2
291
     0
 71
     0
176
     1
 72
     2
176
     1
 73
     0
176
     1
 90
        0
176
     1
 40
-0.6
176
     1
 41
-30.0
176
     1
 62
     5
 63
     7
421
 16777215
176
     1
 74
     1
176
     1
 91
        4
176
     1
 64
     7
176
     1
 65
   257
176
     1
 75
     1
176
     1
175
     1
176
     1
 42
1.0
176
     1
 92
        0
176
     1
 66
   257
176
     1
 43
1.0
176
     1
 76
     1
176
     1
 77
     6
176
     1
 78
     2
176
     1
 67
     7
176
     1
 79
     5
176
     1
170
     0
176
     1
171
     0
176
     1
290
     0
176
     1
 93
        1
176
     1
 44
0.0
176
     1
173
     0
176
     1
  0
VISUALSTYLE
  5
32
102
{ACAD_REACTORS
330
2A
102
}
330
2A
100
AcDbVisualStyle
  2
Basic
 70
     7
177
     2
291
     1
 71
     1
176
     1
 72
     0
176
     1
 73
     1
176
     1
 90
        0
176
     1
 40
-0.6
176
     1
 41
-30.0
176
     1
 62
     5
 63
     7
421
 16777215
176
     1
 74
     0
176
     1
 91
        4
176
     1
 64
     7
176
     1
 65
   257
176
     1
 75
     1
176
     1
175
     1
176
     1
 42
1.0
176
     1
 92
        8
176
     1
 66
     7
176
     1
 43
1.0
176
     1
 76
     1
176
     1
 77
     6
176
     1
 78
     2
176
     1
 67
     7
176
     1
 79
     5
176
     1
170
     0
176
     1
171
     0
176
     1
290
     0
176
     1
 93
        1
176
     1
 44
0.0
176
     1
173
     0
176
     1
  0
VISUALSTYLE
  5
36
102
{ACAD_REACTORS
330
2A
102
}
330
2A
100
AcDbVisualStyle
  2
Brighten
 70
    12
177
     2
291
     1
 71
     2
176
     1
 72
     2
176
     1
 73
     0
176
     1
 90
        0
176
     1
 40
-0.6
176
     1
 41
-30.0
176
     1
 62
     5
 63
     7
421
 16777215
176
     1
 74
     1
176
     1
 91
        4
176
     1
 64
     7
176
     1
 65
   257
176
     1
 75
     1
176
     1
175
     1
176
     1
 42
1.0
176
     1
 92
        8
176
     1
 66
     7
176
     1
 43
1.0
176
     1
 76
     1
176
     1
 77
     6
176
     1
 78
     2
176
     1
 67
     7
176
     1
 79
     5
176
     1
170
     0
176
     1
171
     0
176
     1
290
     0
176
     1
 93
        1
176
     1
 44
50.0
176
     1
173
     0
176
     1
  0
VISUALSTYLE
  5
3A
102
{ACAD_REACTORS
330
2A
102
}
330
2A
100
AcDbVisualStyle
  2
ColorChange
 70
    16
177
     2
291
     1
 71
     2
176
     1
 72
     2
176
     1
 73
     3
176
     1
 90
        0
176
     1
 40
-0.6
176
     1
 41
-30.0
176
     1
 62
     5
 63
     8
421
  8421504
176
     1
 74
     1
176
     1
 91
        4
176
     1
 64
     7
176
     1
 65
   257
176
     1
 75
     1
176
     1
175
     1
176
     1
 42
1.0
176
     1
 92
        8
176
     1
 66
     8
424
  8421504
176
     1
 43
1.0
176
     1
 76
     1
176
     1
 77
     6
176
     1
 78
     2
176
     1
 67
     7
176
     1
 79
     5
176
     1
170
     0
176
     1
171
     0
176
     1
290
     0
176
     1
 93
        1
176
     1
 44
0.0
176
     1
173
     0
176
     1
  0
VISUALSTYLE
  5
34
102
{ACAD_REACTORS
330
2A
102
}
330
2A
100
AcDbVisualStyle
  2
Conceptual
 70
     9
177
     2
291
     0
 71
     3
176
     1
 72
     2
176
     1
 73
     0
176
     1
 90
        0
176
     1
 40
-0.6
176
     1
 41
-30.0
176
     1
 62
     5
 63
     7
421
 16777215
176
     1
 74
     2
176
     1
 91
        2
176
     1
 64
     7
176
     1
 65
   257
176
     1
 75
     1
176
     1
175
     1
176
     1
 42
40.0
176
     1
 92
        8
176
     1
 66
     7
176
     1
 43
1.0
176
     1
 76
     1
176
     1
 77
     6
176
     1
 78
     2
176
     1
 67
     7
176
     1
 79
     3
176
     1
170
     0
176
     1
171
     0
176
     1
290
     0
176
     1
 93
        1
176
     1
 44
0.0
176
     1
173
     0
176
     1
  0
VISUALSTYLE
  5
35
102
{ACAD_REACTORS
330
2A
102
}
330
2A
100
AcDbVisualStyle
  2
Dim
 70
    11
177
     2
291
     1
 71
     2
176
     1
 72
     2
176
     1
 73
     0
176
     1
 90
        0
176
     1
 40
-0.6
176
     1
 41
-30.0
176
     1
 62
     5
 63
     7
421
 16777215
176
     1
 74
     1
176
     1
 91
        4
176
     1
 64
     7
176
     1
 65
   257
176
     1
 75
     1
176
     1
175
     1
176
     1
 42
1.0
176
     1
 92
        8
176
     1
 66
     7
176
     1
 43
1.0
176
     1
 76
     1
176
     1
 77
     6
176
     1
 78
     2
176
     1
 67
     7
176
     1
 79
     5
176
     1
170
     0
176
     1
171
     0
176
     1
290
     0
176
     1
 93
        1
176
     1
 44
-50.0
176
     1
173
     0
176
     1
  0
VISUALSTYLE
  5
39
102
{ACAD_REACTORS
330
2A
102
}
330
2A
100
AcDbVisualStyle
  2
Facepattern
 70
    15
177
     2
291
     1
 71
     2
176
     1
 72
     2
176
     1
 73
     0
176
     1
 90
        0
176
     1
 40
-0.6
176
     1
 41
-30.0
176
     1
 62
     5
 63
     7
421
 16777215
176
     1
 74
     1
176
     1
 91
        4
176
     1
 64
     7
176
     1
 65
   257
176
     1
 75
     1
176
     1
175
     1
176
     1
 42
1.0
176
     1
 92
        8
176
     1
 66
     7
176
     1
 43
1.0
176
     1
 76
     1
176
     1
 77
     6
176
     1
 78
     2
176
     1
 67
     7
176
     1
 79
     5
176
     1
170
     0
176
     1
171
     0
176
     1
290
     0
176
     1
 93
        1
176
     1
 44
0.0
176
     1
173
     0
176
     1
  0
VISUALSTYLE
  5
2B
102
{ACAD_REACTORS
330
2A
102
}
330
2A
100
AcDbVisualStyle
  2
Flat
 70
     0
177
     2
291
     1
 71
     2
176
     1
 72
     1
176
     1
 73
     1
176
     1
 90
        2
176
     1
 40
-0.6
176
     1
 41
30.0
176
     1
 62
     5
 63
     7
421
 16777215
176
     1
 74
     0
176
     1
 91
        4
176
     1
 64
     7
176
     1
 65
   257
176
     1
 75
     1
176
     1
175
     1
176
     1
 42
1.0
176
     1
 92
        8
176
     1
 66
     7
176
     1
 43
1.0
176
     1
 76
     1
176
     1
 77
     6
176
     1
 78
     2
176
     1
 67
     7
176
     1
 79
     5
176
     1
170
     0
176
     1
171
     0
176
     1
290
     0
176
     1
 93
       13
176
     1
 44
0.0
176
     1
173
     0
176
     1
  0
VISUALSTYLE
  5
2C
102
{ACAD_REACTORS
330
2A
102
}
330
2A
100
AcDbVisualStyle
  2
FlatWithEdges
 70
     1
177
     2
291
     1
 71
     2
176
     1
 72
     1
176
     1
 73
     1
176
     1
 90
        2
176
     1
 40
-0.6
176
     1
 41
30.0
176
     1
 62
     5
 63
     7
421
 16777215
176
     1
 74
     1
176
     1
 91
        4
176
     1
 64
     7
176
     1
 65
   257
176
     1
 75
     1
176
     1
175
     1
176
     1
 42
1.0
176
     1
 92
        0
176
     1
 66
   257
176
     1
 43
1.0
176
     1
 76
     1
176
     1
 77
     6
176
     1
 78
     2
176
     1
 67
     7
176
     1
 79
     5
176
     1
170
     0
176
     1
171
     0
176
     1
290
     0
176
     1
 93
       13
176
     1
 44
0.0
176
     1
173
     0
176
     1
  0
VISUALSTYLE
  5
2D
102
{ACAD_REACTORS
330
2A
102
}
330
2A
100
AcDbVisualStyle
  2
Gouraud
 70
     2
177
     2
291
     1
 71
     2
176
     1
 72
     2
176
     1
 73
     1
176
     1
 90
        2
176
     1
 40
-0.6
176
     1
 41
30.0
176
     1
 62
     5
 63
     7
421
 16777215
176
     1
 74
     0
176
     1
 91
        4
176
     1
 64
     7
176
     1
 65
   257
176
     1
 75
     1
176
     1
175
     1
176
     1
 42
1.0
176
     1
 92
        0
176
     1
 66
     7
176
     1
 43
1.0
176
     1
 76
     1
176
     1
 77
     6
176
     1
 78
     2
176
     1
 67
     7
176
     1
 79
     5
176
     1
170
     0
176
     1
171
     0
176
     1
290
     0
176
     1
 93
       13
176
     1
 44
0.0
176
     1
173
     0
176
     1
  0
VISUALSTYLE
  5
2E
102
{ACAD_REACTORS
330
2A
102
}
330
2A
100
AcDbVisualStyle
  2
GouraudWithEdges
 70
     3
177
     2
291
     1
 71
     2
176
     1
 72
     2
176
     1
 73
     1
176
     1
 90
        2
176
     1
 40
-0.6
176
     1
 41
30.0
176
     1
 62
     5
 63
     7
421
 16777215
176
     1
 74
     1
176
     1
 91
        4
176
     1
 64
     7
176
     1
 65
   257
176
     1
 75
     1
176
     1
175
     1
176
     1
 42
1.0
176
     1
 92
        0
176
     1
 66
   257
176
     1
 43
1.0
176
     1
 76
     1
176
     1
 77
     6
176
     1
 78
     2
176
     1
 67
     7
176
     1
 79
     5
176
     1
170
     0
176
     1
171
     0
176
     1
290
     0
176
     1
 93
       13
176
     1
 44
0.0
176
     1
173
     0
176
     1
  0
VISUALSTYLE
  5
38
102
{ACAD_REACTORS
330
2A
102
}
330
2A
100
AcDbVisualStyle
  2
Linepattern
 70
    14
177
     2
291
     1
 71
     2
176
     1
 72
     2
176
     1
 73
     0
176
     1
 90
        0
176
     1
 40
-0.6
176
     1
 41
-30.0
176
     1
 62
     5
 63
     7
421
 16777215
176
     1
 74
     1
176
     1
 91
        4
176
     1
 64
     7
176
     1
 65
   257
176
     1
 75
     7
176
     1
175
     7
176
     1
 42
1.0
176
     1
 92
        8
176
     1
 66
     7
176
     1
 43
1.0
176
     1
 76
     1
176
     1
 77
     6
176
     1
 78
     2
176
     1
 67
     7
176
     1
 79
     5
176
     1
170
     0
176
     1
171
     0
176
     1
290
     0
176
     1
 93
        1
176
     1
 44
0.0
176
     1
173
     0
176
     1
  0
VISUALSTYLE
  5
33
102
{ACAD_REACTORS
330
2A
102
}
330
2A
100
AcDbVisualStyle
  2
Realistic
 70
     8
177
     2
291
     0
 71
     2
176
     1
 72
     2
176
     1
 73
     0
176
     1
 90
        0
176
     1
 40
-0.6
176
     1
 41
-30.0
176
     1
 62
     5
 63
     7
421
 16777215
176
     1
 74
     1
176
     1
 91
        0
176
     1
 64
     7
176
     1
 65
   257
176
     1
 75
     1
176
     1
175
     1
176
     1
 42
1.0
176
     1
 92
        8
176
     1
 66
     8
424
  7895160
176
     1
 43
1.0
176
     1
 76
     1
176
     1
 77
     6
176
     1
 78
     2
176
     1
 67
     7
176
     1
 79
     5
176
     1
170
     0
176
     1
171
     0
176
     1
290
     0
176
     1
 93
       13
176
     1
 44
0.0
176
     1
173
     0
176
     1
  0
VISUALSTYLE
  5
37
102
{ACAD_REACTORS
330
2A
102
}
330
2A
100
AcDbVisualStyle
  2
Thicken
 70
    13
177
     2
291
     1
 71
     2
176
     1
 72
     2
176
     1
 73
     0
176
     1
 90
        0
176
     1
 40
-0.6
176
     1
 41
-30.0
176
     1
 62
     5
 63
     7
421
 16777215
176
     1
 74
     1
176
     1
 91
        4
176
     1
 64
     7
176
     1
 65
   257
176
     1
 75
     1
176
     1
175
     1
176
     1
 42
1.0
176
     1
 92
       12
176
     1
 66
     7
176
     1
 43
1.0
176
     1
 76
     1
176
     1
 77
     6
176
     1
 78
     2
176
     1
 67
     7
176
     1
 79
     5
176
     1
170
     0
176
     1
171
     0
176
     1
290
     0
176
     1
 93
        1
176
     1
 44
0.0
176
     1
173
     0
176
     1
  0
ENDSEC
  0
EOF
