  0
SECTION
  2
HEADER
  9
$ACADVER
  1
AC1024
  9
$ACADMAINTVER
 70
     6
  9
$DWGCODEPAGE
  3
ANSI_1252
  9
$INSBASE
 10
0.0
 20
0.0
 30
0.0
  9
$EXTMIN
 10
1.000000000000000E+20
 20
1.000000000000000E+20
 30
1.000000000000000E+20
  9
$EXTMAX
 10
-1.000000000000000E+20
 20
-1.000000000000000E+20
 30
-1.000000000000000E+20
  9
$LIMMIN
 10
0.0
 20
0.0
  9
$LIMMAX
 10
12.0
 20
9.0
  9
$ORTHOMODE
 70
     0
  9
$REGENMODE
 70
     1
  9
$FILLMODE
 70
     1
  9
$QTEXTMODE
 70
     0
  9
$MIRRTEXT
 70
     1
  9
$LTSCALE
 40
1.0
  9
$ATTMODE
 70
     1
  9
$TEXTSIZE
 40
0.2
  9
$TRACEWID
 40
0.05
  9
$TEXTSTYLE
  7
Standard
  9
$CLAYER
  8
0
  9
$CELTYPE
  6
ByLayer
  9
$CECOLOR
 62
   256
  9
$CELTSCALE
 40
1.0
  9
$DISPSILH
 70
     0
  9
$DIMSCALE
 40
1.0
  9
$DIMASZ
 40
0.18
  9
$DIMEXO
 40
0.0625
  9
$DIMDLI
 40
0.38
  9
$DIMRND
 40
0.0
  9
$DIMDLE
 40
0.0
  9
$DIMEXE
 40
0.18
  9
$DIMTP
 40
0.0
  9
$DIMTM
 40
0.0
  9
$DIMTXT
 40
0.18
  9
$DIMCEN
 40
0.09
  9
$DIMTSZ
 40
0.0
  9
$DIMTOL
 70
     0
  9
$DIMLIM
 70
     0
  9
$DIMTIH
 70
     1
  9
$DIMTOH
 70
     1
  9
$DIMSE1
 70
     0
  9
$DIMSE2
 70
     0
  9
$DIMTAD
 70
     0
  9
$DIMZIN
 70
     0
  9
$DIMBLK
  1

  9
$DIMASO
 70
     1
  9
$DIMSHO
 70
     1
  9
$DIMPOST
  1

  9
$DIMAPOST
  1

  9
$DIMALT
 70
     0
  9
$DIMALTD
 70
     2
  9
$DIMALTF
 40
25.4
  9
$DIMLFAC
 40
1.0
  9
$DIMTOFL
 70
     0
  9
$DIMTVP
 40
0.0
  9
$DIMTIX
 70
     0
  9
$DIMSOXD
 70
     0
  9
$DIMSAH
 70
     0
  9
$DIMBLK1
  1

  9
$DIMBLK2
  1

  9
$DIMSTYLE
  2
Standard
  9
$DIMCLRD
 70
     0
  9
$DIMCLRE
 70
     0
  9
$DIMCLRT
 70
     0
  9
$DIMTFAC
 40
1.0
  9
$DIMGAP
 40
0.09
  9
$DIMJUST
 70
     0
  9
$DIMSD1
 70
     0
  9
$DIMSD2
 70
     0
  9
$DIMTOLJ
 70
     1
  9
$DIMTZIN
 70
     0
  9
$DIMALTZ
 70
     0
  9
$DIMALTTZ
 70
     0
  9
$DIMUPT
 70
     0
  9
$DIMDEC
 70
     4
  9
$DIMTDEC
 70
     4
  9
$DIMALTU
 70
     2
  9
$DIMALTTD
 70
     2
  9
$DIMTXSTY
  7
Standard
  9
$DIMAUNIT
 70
     0
  9
$DIMADEC
 70
     0
  9
$DIMALTRND
 40
0.0
  9
$DIMAZIN
 70
     0
  9
$DIMDSEP
 70
    46
  9
$DIMATFIT
 70
     3
  9
$DIMFRAC
 70
     0
  9
$DIMLDRBLK
  1

  9
$DIMLUNIT
 70
     2
  9
$DIMLWD
 70
    -2
  9
$DIMLWE
 70
    -2
  9
$DIMTMOVE
 70
     0
  9
$DIMFXL
 40
1.0
  9
$DIMFXLON
 70
     0
  9
$DIMJOGANG
 40
0.7853981633974483
  9
$DIMTFILL
 70
     0
  9
$DIMTFILLCLR
 70
     0
  9
$DIMARCSYM
 70
     0
  9
$DIMLTYPE
  6

  9
$DIMLTEX1
  6

  9
$DIMLTEX2
  6

  9
$DIMTXTDIRECTION
 70
     0
  9
$LUNITS
 70
     2
  9
$LUPREC
 70
     4
  9
$SKETCHINC
 40
0.1
  9
$FILLETRAD
 40
0.5
  9
$AUNITS
 70
     0
  9
$AUPREC
 70
     0
  9
$MENU
  1
.
  9
$ELEVATION
 40
0.0
  9
$PELEVATION
 40
0.0
  9
$THICKNESS
 40
0.0
  9
$LIMCHECK
 70
     0
  9
$CHAMFERA
 40
0.5
  9
$CHAMFERB
 40
0.5
  9
$CHAMFERC
 40
1.0
  9
$CHAMFERD
 40
0.0
  9
$SKPOLY
 70
     0
  9
$TDCREATE
 40
2458892.561371597
  9
$TDUCREATE
 40
2458892.51970493
  9
$TDUPDATE
 40
2458892.561373264
  9
$TDUUPDATE
 40
2458892.519706597
  9
$TDINDWG
 40
0.0000000116
  9
$TDUSRTIMER
 40
0.0000000116
  9
$USRTIMER
 70
     1
  9
$ANGBASE
 50
0.0
  9
$ANGDIR
 70
     0
  9
$PDMODE
 70
     0
  9
$PDSIZE
 40
0.0
  9
$PLINEWID
 40
0.0
  9
$SPLFRAME
 70
     0
  9
$SPLINETYPE
 70
     6
  9
$SPLINESEGS
 70
     8
  9
$HANDSEED
  5
70B
  9
$SURFTAB1
 70
     6
  9
$SURFTAB2
 70
     6
  9
$SURFTYPE
 70
     6
  9
$SURFU
 70
     6
  9
$SURFV
 70
     6
  9
$UCSBASE
  2

  9
$UCSNAME
  2

  9
$UCSORG
 10
0.0
 20
0.0
 30
0.0
  9
$UCSXDIR
 10
1.0
 20
0.0
 30
0.0
  9
$UCSYDIR
 10
0.0
 20
1.0
 30
0.0
  9
$UCSORTHOREF
  2

  9
$UCSORTHOVIEW
 70
     0
  9
$UCSORGTOP
 10
0.0
 20
0.0
 30
0.0
  9
$UCSORGBOTTOM
 10
0.0
 20
0.0
 30
0.0
  9
$UCSORGLEFT
 10
0.0
 20
0.0
 30
0.0
  9
$UCSORGRIGHT
 10
0.0
 20
0.0
 30
0.0
  9
$UCSORGFRONT
 10
0.0
 20
0.0
 30
0.0
  9
$UCSORGBACK
 10
0.0
 20
0.0
 30
0.0
  9
$PUCSBASE
  2

  9
$PUCSNAME
  2

  9
$PUCSORG
 10
0.0
 20
0.0
 30
0.0
  9
$PUCSXDIR
 10
1.0
 20
0.0
 30
0.0
  9
$PUCSYDIR
 10
0.0
 20
1.0
 30
0.0
  9
$PUCSORTHOREF
  2

  9
$PUCSORTHOVIEW
 70
     0
  9
$PUCSORGTOP
 10
0.0
 20
0.0
 30
0.0
  9
$PUCSORGBOTTOM
 10
0.0
 20
0.0
 30
0.0
  9
$PUCSORGLEFT
 10
0.0
 20
0.0
 30
0.0
  9
$PUCSORGRIGHT
 10
0.0
 20
0.0
 30
0.0
  9
$PUCSORGFRONT
 10
0.0
 20
0.0
 30
0.0
  9
$PUCSORGBACK
 10
0.0
 20
0.0
 30
0.0
  9
$USERI1
 70
     0
  9
$USERI2
 70
     0
  9
$USERI3
 70
     0
  9
$USERI4
 70
     0
  9
$USERI5
 70
     0
  9
$USERR1
 40
0.0
  9
$USERR2
 40
0.0
  9
$USERR3
 40
0.0
  9
$USERR4
 40
0.0
  9
$USERR5
 40
0.0
  9
$WORLDVIEW
 70
     1
  9
$SHADEDGE
 70
     3
  9
$SHADEDIF
 70
    70
  9
$TILEMODE
 70
     1
  9
$MAXACTVP
 70
    64
  9
$PINSBASE
 10
0.0
 20
0.0
 30
0.0
  9
$PLIMCHECK
 70
     0
  9
$PEXTMIN
 10
1.000000000000000E+20
 20
1.000000000000000E+20
 30
1.000000000000000E+20
  9
$PEXTMAX
 10
-1.000000000000000E+20
 20
-1.000000000000000E+20
 30
-1.000000000000000E+20
  9
$PLIMMIN
 10
0.0
 20
0.0
  9
$PLIMMAX
 10
12.0
 20
9.0
  9
$UNITMODE
 70
     0
  9
$VISRETAIN
 70
     1
  9
$PLINEGEN
 70
     0
  9
$PSLTSCALE
 70
     1
  9
$TREEDEPTH
 70
  3020
  9
$CMLSTYLE
  2
Standard
  9
$CMLJUST
 70
     0
  9
$CMLSCALE
 40
1.0
  9
$PROXYGRAPHICS
 70
     1
  9
$MEASUREMENT
 70
     0
  9
$CELWEIGHT
370
    -1
  9
$ENDCAPS
280
     0
  9
$JOINSTYLE
280
     0
  9
$LWDISPLAY
290
     1
  9
$INSUNITS
 70
     4
  9
$HYPERLINKBASE
  1

  9
$STYLESHEET
  1

  9
$XEDIT
290
     1
  9
$CEPSNTYPE
380
     0
  9
$PSTYLEMODE
290
     1
  9
$FINGERPRINTGUID
  2
{98850E6C-71D1-4CE8-AAD9-578BB86683F0}
  9
$VERSIONGUID
  2
{FAEB1C32-E019-11D5-929B-00C0DF256EC4}
  9
$EXTNAMES
290
     1
  9
$PSVPSCALE
 40
0.0
  9
$OLESTARTUP
290
     0
  9
$SORTENTS
280
   127
  9
$INDEXCTL
280
     0
  9
$HIDETEXT
280
     1
  9
$XCLIPFRAME
280
     2
  9
$HALOGAP
280
     0
  9
$OBSCOLOR
 70
   257
  9
$OBSLTYPE
280
     0
  9
$INTERSECTIONDISPLAY
280
     0
  9
$INTERSECTIONCOLOR
 70
   257
  9
$DIMASSOC
280
     2
  9
$PROJECTNAME
  1

  9
$CAMERADISPLAY
290
     0
  9
$LENSLENGTH
 40
50.0
  9
$CAMERAHEIGHT
 40
0.0
  9
$STEPSPERSEC
 40
2.0
  9
$STEPSIZE
 40
6.0
  9
$3DDWFPREC
 40
2.0
  9
$PSOLWIDTH
 40
0.25
  9
$PSOLHEIGHT
 40
4.0
  9
$LOFTANG1
 40
1.570796326794897
  9
$LOFTANG2
 40
1.570796326794897
  9
$LOFTMAG1
 40
0.0
  9
$LOFTMAG2
 40
0.0
  9
$LOFTPARAM
 70
     7
  9
$LOFTNORMALS
280
     1
  9
$LATITUDE
 40
37.795
  9
$LONGITUDE
 40
-122.394
  9
$NORTHDIRECTION
 40
0.0
  9
$TIMEZONE
 70
 -8000
  9
$LIGHTGLYPHDISPLAY
280
     1
  9
$TILEMODELIGHTSYNCH
280
     1
  9
$CMATERIAL
347
3C
  9
$SOLIDHIST
280
     1
  9
$SHOWHIST
280
     1
  9
$DWFFRAME
280
     2
  9
$DGNFRAME
280
     2
  9
$REALWORLDSCALE
290
     1
  9
$INTERFERECOLOR
 62
   256
  9
$CSHADOW
280
     0
  9
$SHADOWPLANELOCATION
 40
0.0
  0
ENDSEC
  0
SECTION
  2
CLASSES
  0
CLASS
  1
ACDBDICTIONARYWDFLT
  2
AcDbDictionaryWithDefault
  3
ObjectDBX Classes
 90
        0
 91
        4
280
     0
281
     0
  0
CLASS
  1
VISUALSTYLE
  2
AcDbVisualStyle
  3
ObjectDBX Classes
 90
     4095
 91
        4
280
     0
281
     0
  0
CLASS
  1
MATERIAL
  2
AcDbMaterial
  3
ObjectDBX Classes
 90
     1153
 91
        4
280
     0
281
     0
  0
CLASS
  1
SUN
  2
AcDbSun
  3
SCENEOE
 90
     1024
 91
        4
280
     0
281
     0
  0
ENDSEC
  0
SECTION
  2
TABLES
  0
TABLE
  2
VPORT
  5
8
330
0
100
AcDbSymbolTable
 70
     1
  0
VPORT
  5
29
330
8
100
AcDbSymbolTableRecord
100
AcDbViewportTableRecord
  2
*Active
 70
     0
 10
0.0
 20
0.0
 11
1.0
 21
1.0
 12
0.0
 22
0.0
 13
0.0
 23
0.0
 14
0.5
 24
0.5
 15
0.5
 25
0.5
 16
0.0
 26
0.0
 36
1.0
 17
104.951388862651
 27
148.5194444073146
 37
0.0
 40
297.0388888146292
 41
0.7066508313539193
 42
50.0
 43
0.0
 44
0.0
 50
0.0
 51
0.0
 71
     0
 72
   100
 73
     1
 74
     3
 75
     0
 76
     0
 77
     0
 78
     0
281
     0
 65
     1
110
0.0
120
0.0
130
0.0
111
1.0
121
0.0
131
0.0
112
0.0
122
1.0
132
0.0
 79
     0
146
0.0
 60
     3
 61
     5
292
     1
282
     1
141
0.0
142
0.0
 63
   250
361
3F
  0
ENDTAB
  0
TABLE
  2
LTYPE
  5
5
330
0
100
AcDbSymbolTable
 70
     1
  0
LTYPE
  5
14
330
5
100
AcDbSymbolTableRecord
100
AcDbLinetypeTableRecord
  2
ByBlock
 70
     0
  3

 72
    65
 73
     0
 40
0.0
  0
LTYPE
  5
15
330
5
100
AcDbSymbolTableRecord
100
AcDbLinetypeTableRecord
  2
ByLayer
 70
     0
  3

 72
    65
 73
     0
 40
0.0
  0
LTYPE
  5
16
330
5
100
AcDbSymbolTableRecord
100
AcDbLinetypeTableRecord
  2
Continuous
 70
     0
  3
Solid line
 72
    65
 73
     0
 40
0.0
  0
ENDTAB
  0
TABLE
  2
LAYER
  5
2
330
0
100
AcDbSymbolTable
 70
     2
  0
LAYER
  5
10
330
2
100
AcDbSymbolTableRecord
100
AcDbLayerTableRecord
  2
0
 70
     0
 62
     7
  6
Continuous
370
    -3
390
F
347
3E
  0
LAYER
  5
40
330
2
100
AcDbSymbolTableRecord
100
AcDbLayerTableRecord
  2
Capa 1
 70
     0
 62
     7
  6
Continuous
370
    -3
390
F
347
3E
  0
ENDTAB
  0
TABLE
  2
STYLE
  5
3
330
0
100
AcDbSymbolTable
 70
     1
  0
STYLE
  5
11
330
3
100
AcDbSymbolTableRecord
100
AcDbTextStyleTableRecord
  2
Standard
 70
     0
 40
0.0
 41
1.0
 50
0.0
 71
     0
 42
0.2
  3
txt
  4

  0
ENDTAB
  0
TABLE
  2
VIEW
  5
6
330
0
100
AcDbSymbolTable
 70
     0
  0
ENDTAB
  0
TABLE
  2
UCS
  5
7
330
0
100
AcDbSymbolTable
 70
     0
  0
ENDTAB
  0
TABLE
  2
APPID
  5
9
330
0
100
AcDbSymbolTable
 70
     1
  0
APPID
  5
12
330
9
100
AcDbSymbolTableRecord
100
AcDbRegAppTableRecord
  2
ACAD
 70
     0
  0
ENDTAB
  0
TABLE
  2
DIMSTYLE
  5
A
330
0
100
AcDbSymbolTable
 70
     1
100
AcDbDimStyleTable
  0
DIMSTYLE
105
27
330
A
100
AcDbSymbolTableRecord
100
AcDbDimStyleTableRecord
  2
Standard
 70
     0
178
     0
340
11
  0
ENDTAB
  0
TABLE
  2
BLOCK_RECORD
  5
1
330
0
100
AcDbSymbolTable
 70
     1
  0
BLOCK_RECORD
  5
1F
330
1
100
AcDbSymbolTableRecord
100
AcDbBlockTableRecord
  2
*Model_Space
340
22
 70
     0
280
     1
281
     0
  0
BLOCK_RECORD
  5
1B
330
1
100
AcDbSymbolTableRecord
100
AcDbBlockTableRecord
  2
*Paper_Space
340
1E
 70
     0
280
     1
281
     0
  0
BLOCK_RECORD
  5
23
330
1
100
AcDbSymbolTableRecord
100
AcDbBlockTableRecord
  2
*Paper_Space0
340
26
 70
     0
280
     1
281
     0
  0
ENDTAB
  0
ENDSEC
  0
SECTION
  2
BLOCKS
  0
BLOCK
  5
20
330
1F
100
AcDbEntity
  8
0
100
AcDbBlockBegin
  2
*Model_Space
 70
     0
 10
0.0
 20
0.0
 30
0.0
  3
*Model_Space
  1

  0
ENDBLK
  5
21
330
1F
100
AcDbEntity
  8
0
100
AcDbBlockEnd
  0
BLOCK
  5
1C
330
1B
100
AcDbEntity
 67
     1
  8
0
100
AcDbBlockBegin
  2
*Paper_Space
 70
     0
 10
0.0
 20
0.0
 30
0.0
  3
*Paper_Space
  1

  0
ENDBLK
  5
1D
330
1B
100
AcDbEntity
 67
     1
  8
0
100
AcDbBlockEnd
  0
BLOCK
  5
24
330
23
100
AcDbEntity
  8
0
100
AcDbBlockBegin
  2
*Paper_Space0
 70
     0
 10
0.0
 20
0.0
 30
0.0
  3
*Paper_Space0
  1

  0
ENDBLK
  5
25
330
23
100
AcDbEntity
  8
0
100
AcDbBlockEnd
  0
ENDSEC
  0
SECTION
  2
ENTITIES
  0
POLYLINE
  5
41
330
1F
100
AcDbEntity
  8
Capa 1
 62
     7
420
 16777215
370
     9
100
AcDb2dPolyline
 66
     1
 10
0.0
 20
0.0
 30
0.0
  0
VERTEX
  5
42
330
41
100
AcDbEntity
  8
Capa 1
 62
     7
420
 16777215
370
     9
100
AcDbVertex
100
AcDb2dVertex
 10
142.9221547087356
 20
164.6053604495946
 30
0.0
  0
VERTEX
  5
43
330
41
100
AcDbEntity
  8
Capa 1
 62
     7
420
 16777215
370
     9
100
AcDbVertex
100
AcDb2dVertex
 10
143.1073622345784
 20
164.2349453979091
 30
0.0
  0
VERTEX
  5
44
330
41
100
AcDbEntity
  8
Capa 1
 62
     7
420
 16777215
370
     9
100
AcDbVertex
100
AcDb2dVertex
 10
143.2396552469524
 20
163.8645236175214
 30
0.0
  0
VERTEX
  5
45
330
41
100
AcDbEntity
  8
Capa 1
 62
     7
420
 16777215
370
     9
100
AcDbVertex
100
AcDb2dVertex
 10
143.3190337458577
 20
163.4676513091015
 30
0.0
  0
VERTEX
  5
46
330
41
100
AcDbEntity
  8
Capa 1
 62
     7
420
 16777215
370
     9
100
AcDbVertex
100
AcDb2dVertex
 10
143.3190337458577
 20
163.0707790006815
 30
0.0
  0
SEQEND
  5
47
330
41
100
AcDbEntity
  8
Capa 1
 62
     7
420
 16777215
370
     9
  0
POLYLINE
  5
48
330
1F
100
AcDbEntity
  8
Capa 1
 62
     7
420
 16777215
370
     9
100
AcDb2dPolyline
 66
     1
 10
0.0
 20
0.0
 30
0.0
  0
VERTEX
  5
49
330
48
100
AcDbEntity
  8
Capa 1
 62
     7
420
 16777215
370
     9
100
AcDbVertex
100
AcDb2dVertex
 10
159.4586130379348
 20
195.1647367876952
 30
0.0
  0
VERTEX
  5
4A
330
48
100
AcDbEntity
  8
Capa 1
 62
     7
420
 16777215
370
     9
100
AcDbVertex
100
AcDb2dVertex
 10
160.3846573958508
 20
195.1647367876952
 30
0.0
  0
SEQEND
  5
4B
330
48
100
AcDbEntity
  8
Capa 1
 62
     7
420
 16777215
370
     9
  0
POLYLINE
  5
4C
330
1F
100
AcDbEntity
  8
Capa 1
 62
     7
420
 16777215
370
     9
100
AcDb2dPolyline
 66
     1
 10
0.0
 20
0.0
 30
0.0
  0
VERTEX
  5
4D
330
4C
100
AcDbEntity
  8
Capa 1
 62
     7
420
 16777215
370
     9
100
AcDbVertex
100
AcDb2dVertex
 10
160.6756939486311
 20
194.9001507629472
 30
0.0
  0
VERTEX
  5
4E
330
4C
100
AcDbEntity
  8
Capa 1
 62
     7
420
 16777215
370
     9
100
AcDbVertex
100
AcDb2dVertex
 10
160.4904864227884
 20
194.9795225331503
 30
0.0
  0
VERTEX
  5
4F
330
4C
100
AcDbEntity
  8
Capa 1
 62
     7
420
 16777215
370
     9
100
AcDbVertex
100
AcDb2dVertex
 10
160.3846573958508
 20
195.1647367876952
 30
0.0
  0
SEQEND
  5
50
330
4C
100
AcDbEntity
  8
Capa 1
 62
     7
420
 16777215
370
     9
  0
POLYLINE
  5
51
330
1F
100
AcDbEntity
  8
Capa 1
 62
     7
420
 16777215
370
     9
100
AcDb2dPolyline
 66
     1
 10
0.0
 20
0.0
 30
0.0
  0
VERTEX
  5
52
330
51
100
AcDbEntity
  8
Capa 1
 62
     7
420
 16777215
370
     9
100
AcDbVertex
100
AcDb2dVertex
 10
138.5565324013079
 20
194.9001507629472
 30
0.0
  0
VERTEX
  5
53
330
51
100
AcDbEntity
  8
Capa 1
 62
     7
420
 16777215
370
     9
100
AcDbVertex
100
AcDb2dVertex
 10
138.768197183885
 20
194.9795225331503
 30
0.0
  0
VERTEX
  5
54
330
51
100
AcDbEntity
  8
Capa 1
 62
     7
420
 16777215
370
     9
100
AcDbVertex
100
AcDb2dVertex
 10
138.8740329395247
 20
195.1647367876952
 30
0.0
  0
VERTEX
  5
55
330
51
100
AcDbEntity
  8
Capa 1
 62
     7
420
 16777215
370
     9
100
AcDbVertex
100
AcDb2dVertex
 10
139.8000705687385
 20
195.1647367876952
 30
0.0
  0
SEQEND
  5
56
330
51
100
AcDbEntity
  8
Capa 1
 62
     7
420
 16777215
370
     9
  0
POLYLINE
  5
57
330
1F
100
AcDbEntity
  8
Capa 1
 62
     7
420
 16777215
370
     9
100
AcDb2dPolyline
 66
     1
 10
0.0
 20
0.0
 30
0.0
  0
VERTEX
  5
58
330
57
100
AcDbEntity
  8
Capa 1
 62
     7
420
 16777215
370
     9
100
AcDbVertex
100
AcDb2dVertex
 10
159.93486384526
 20
173.5218125902929
 30
0.0
  0
VERTEX
  5
59
330
57
100
AcDbEntity
  8
Capa 1
 62
     7
420
 16777215
370
     9
100
AcDbVertex
100
AcDb2dVertex
 10
160.6756939486311
 20
194.9001507629472
 30
0.0
  0
VERTEX
  5
5A
330
57
100
AcDbEntity
  8
Capa 1
 62
     7
420
 16777215
370
     9
100
AcDbVertex
100
AcDb2dVertex
 10
139.8000705687385
 20
194.9001507629472
 30
0.0
  0
SEQEND
  5
5B
330
57
100
AcDbEntity
  8
Capa 1
 62
     7
420
 16777215
370
     9
  0
POLYLINE
  5
5C
330
1F
100
AcDbEntity
  8
Capa 1
 62
     7
420
 16777215
370
     9
100
AcDb2dPolyline
 66
     1
 10
0.0
 20
0.0
 30
0.0
  0
VERTEX
  5
5D
330
5C
100
AcDbEntity
  8
Capa 1
 62
     7
420
 16777215
370
     9
100
AcDbVertex
100
AcDb2dVertex
 10
139.297362504679
 20
173.5218125902929
 30
0.0
  0
VERTEX
  5
5E
330
5C
100
AcDbEntity
  8
Capa 1
 62
     7
420
 16777215
370
     9
100
AcDbVertex
100
AcDb2dVertex
 10
138.5565324013079
 20
194.9001507629472
 30
0.0
  0
VERTEX
  5
5F
330
5C
100
AcDbEntity
  8
Capa 1
 62
     7
420
 16777215
370
     9
100
AcDbVertex
100
AcDb2dVertex
 10
139.8000705687385
 20
194.9001507629472
 30
0.0
  0
SEQEND
  5
60
330
5C
100
AcDbEntity
  8
Capa 1
 62
     7
420
 16777215
370
     9
  0
POLYLINE
  5
61
330
1F
100
AcDbEntity
  8
Capa 1
 62
     7
420
 16777215
370
     9
100
AcDb2dPolyline
 66
     1
 10
0.0
 20
0.0
 30
0.0
  0
VERTEX
  5
62
330
61
100
AcDbEntity
  8
Capa 1
 62
     7
420
 16777215
370
     9
100
AcDbVertex
100
AcDb2dVertex
 10
139.8000705687385
 20
195.1647367876952
 30
0.0
  0
VERTEX
  5
63
330
61
100
AcDbEntity
  8
Capa 1
 62
     7
420
 16777215
370
     9
100
AcDbVertex
100
AcDb2dVertex
 10
159.4586130379348
 20
195.1647367876952
 30
0.0
  0
SEQEND
  5
64
330
61
100
AcDbEntity
  8
Capa 1
 62
     7
420
 16777215
370
     9
  0
POLYLINE
  5
65
330
1F
100
AcDbEntity
  8
Capa 1
 62
     7
420
 16777215
370
     9
100
AcDb2dPolyline
 66
     1
 10
0.0
 20
0.0
 30
0.0
  0
VERTEX
  5
66
330
65
100
AcDbEntity
  8
Capa 1
 62
     7
420
 16777215
370
     9
100
AcDbVertex
100
AcDb2dVertex
 10
159.6967350772464
 20
173.2836838222792
 30
0.0
  0
VERTEX
  5
67
330
65
100
AcDbEntity
  8
Capa 1
 62
     7
420
 16777215
370
     9
100
AcDbVertex
100
AcDb2dVertex
 10
159.8554853463548
 20
173.3630690498866
 30
0.0
  0
VERTEX
  5
68
330
65
100
AcDbEntity
  8
Capa 1
 62
     7
420
 16777215
370
     9
100
AcDbVertex
100
AcDb2dVertex
 10
159.93486384526
 20
173.5218125902929
 30
0.0
  0
SEQEND
  5
69
330
65
100
AcDbEntity
  8
Capa 1
 62
     7
420
 16777215
370
     9
  0
POLYLINE
  5
6A
330
1F
100
AcDbEntity
  8
Capa 1
 62
     7
420
 16777215
370
     9
100
AcDb2dPolyline
 66
     1
 10
0.0
 20
0.0
 30
0.0
  0
VERTEX
  5
6B
330
6A
100
AcDbEntity
  8
Capa 1
 62
     7
420
 16777215
370
     9
100
AcDbVertex
100
AcDb2dVertex
 10
139.561948529427
 20
173.2836838222792
 30
0.0
  0
VERTEX
  5
6C
330
6A
100
AcDbEntity
  8
Capa 1
 62
     7
420
 16777215
370
     9
100
AcDbVertex
100
AcDb2dVertex
 10
139.3767410035842
 20
173.3630690498866
 30
0.0
  0
VERTEX
  5
6D
330
6A
100
AcDbEntity
  8
Capa 1
 62
     7
420
 16777215
370
     9
100
AcDbVertex
100
AcDb2dVertex
 10
139.297362504679
 20
173.5218125902929
 30
0.0
  0
SEQEND
  5
6E
330
6A
100
AcDbEntity
  8
Capa 1
 62
     7
420
 16777215
370
     9
  0
POLYLINE
  5
6F
330
1F
100
AcDbEntity
  8
Capa 1
 62
     7
420
 16777215
370
     9
100
AcDb2dPolyline
 66
     1
 10
0.0
 20
0.0
 30
0.0
  0
VERTEX
  5
70
330
6F
100
AcDbEntity
  8
Capa 1
 62
     7
420
 16777215
370
     9
100
AcDbVertex
100
AcDb2dVertex
 10
139.8000705687385
 20
195.1911940444296
 30
0.0
  0
VERTEX
  5
71
330
6F
100
AcDbEntity
  8
Capa 1
 62
     7
420
 16777215
370
     9
100
AcDbVertex
100
AcDb2dVertex
 10
138.7946544406194
 20
195.1911940444296
 30
0.0
  0
SEQEND
  5
72
330
6F
100
AcDbEntity
  8
Capa 1
 62
     7
420
 16777215
370
     9
  0
POLYLINE
  5
73
330
1F
100
AcDbEntity
  8
Capa 1
 62
     7
420
 16777215
370
     9
100
AcDb2dPolyline
 66
     1
 10
0.0
 20
0.0
 30
0.0
  0
VERTEX
  5
74
330
73
100
AcDbEntity
  8
Capa 1
 62
     7
420
 16777215
370
     9
100
AcDbVertex
100
AcDb2dVertex
 10
138.5565324013079
 20
195.4557666117734
 30
0.0
  0
VERTEX
  5
75
330
73
100
AcDbEntity
  8
Capa 1
 62
     7
420
 16777215
370
     9
100
AcDbVertex
100
AcDb2dVertex
 10
138.5829896580422
 20
195.3234803281015
 30
0.0
  0
VERTEX
  5
76
330
73
100
AcDbEntity
  8
Capa 1
 62
     7
420
 16777215
370
     9
100
AcDbVertex
100
AcDb2dVertex
 10
138.6888254136819
 20
195.217651301164
 30
0.0
  0
VERTEX
  5
77
330
73
100
AcDbEntity
  8
Capa 1
 62
     7
420
 16777215
370
     9
100
AcDbVertex
100
AcDb2dVertex
 10
138.7946544406194
 20
195.1911940444296
 30
0.0
  0
SEQEND
  5
78
330
73
100
AcDbEntity
  8
Capa 1
 62
     7
420
 16777215
370
     9
  0
POLYLINE
  5
79
330
1F
100
AcDbEntity
  8
Capa 1
 62
     7
420
 16777215
370
     9
100
AcDb2dPolyline
 66
     1
 10
0.0
 20
0.0
 30
0.0
  0
VERTEX
  5
7A
330
79
100
AcDbEntity
  8
Capa 1
 62
     7
420
 16777215
370
     9
100
AcDbVertex
100
AcDb2dVertex
 10
139.8000705687385
 20
195.1911940444296
 30
0.0
  0
VERTEX
  5
7B
330
79
100
AcDbEntity
  8
Capa 1
 62
     7
420
 16777215
370
     9
100
AcDbVertex
100
AcDb2dVertex
 10
160.4375719093196
 20
195.1911940444296
 30
0.0
  0
VERTEX
  5
7C
330
79
100
AcDbEntity
  8
Capa 1
 62
     7
420
 16777215
370
     9
100
AcDbVertex
100
AcDb2dVertex
 10
160.5698649216936
 20
195.217651301164
 30
0.0
  0
VERTEX
  5
7D
330
79
100
AcDbEntity
  8
Capa 1
 62
     7
420
 16777215
370
     9
100
AcDbVertex
100
AcDb2dVertex
 10
160.6492366918968
 20
195.3234803281015
 30
0.0
  0
VERTEX
  5
7E
330
79
100
AcDbEntity
  8
Capa 1
 62
     7
420
 16777215
370
     9
100
AcDbVertex
100
AcDb2dVertex
 10
160.7021579340676
 20
195.4557666117734
 30
0.0
  0
SEQEND
  5
7F
330
79
100
AcDbEntity
  8
Capa 1
 62
     7
420
 16777215
370
     9
  0
POLYLINE
  5
80
330
1F
100
AcDbEntity
  8
Capa 1
 62
     7
420
 16777215
370
     9
100
AcDb2dPolyline
 66
     1
 10
0.0
 20
0.0
 30
0.0
  0
VERTEX
  5
81
330
80
100
AcDbEntity
  8
Capa 1
 62
     7
420
 16777215
370
     9
100
AcDbVertex
100
AcDb2dVertex
 10
159.4586130379348
 20
197.3872270978085
 30
0.0
  0
VERTEX
  5
82
330
80
100
AcDbEntity
  8
Capa 1
 62
     7
420
 16777215
370
     9
100
AcDbVertex
100
AcDb2dVertex
 10
160.2788216402112
 20
197.3872270978085
 30
0.0
  0
SEQEND
  5
83
330
80
100
AcDbEntity
  8
Capa 1
 62
     7
420
 16777215
370
     9
  0
POLYLINE
  5
84
330
1F
100
AcDbEntity
  8
Capa 1
 62
     7
420
 16777215
370
     9
100
AcDb2dPolyline
 66
     1
 10
0.0
 20
0.0
 30
0.0
  0
VERTEX
  5
85
330
84
100
AcDbEntity
  8
Capa 1
 62
     7
420
 16777215
370
     9
100
AcDbVertex
100
AcDb2dVertex
 10
160.7021579340676
 20
195.4557666117734
 30
0.0
  0
VERTEX
  5
86
330
84
100
AcDbEntity
  8
Capa 1
 62
     7
420
 16777215
370
     9
100
AcDbVertex
100
AcDb2dVertex
 10
160.6756939486311
 20
197.016812046123
 30
0.0
  0
SEQEND
  5
87
330
84
100
AcDbEntity
  8
Capa 1
 62
     7
420
 16777215
370
     9
  0
POLYLINE
  5
88
330
1F
100
AcDbEntity
  8
Capa 1
 62
     7
420
 16777215
370
     9
100
AcDb2dPolyline
 66
     1
 10
0.0
 20
0.0
 30
0.0
  0
VERTEX
  5
89
330
88
100
AcDbEntity
  8
Capa 1
 62
     7
420
 16777215
370
     9
100
AcDbVertex
100
AcDb2dVertex
 10
138.5565324013079
 20
195.4557666117734
 30
0.0
  0
VERTEX
  5
8A
330
88
100
AcDbEntity
  8
Capa 1
 62
     7
420
 16777215
370
     9
100
AcDbVertex
100
AcDb2dVertex
 10
138.5829896580422
 20
197.016812046123
 30
0.0
  0
SEQEND
  5
8B
330
88
100
AcDbEntity
  8
Capa 1
 62
     7
420
 16777215
370
     9
  0
POLYLINE
  5
8C
330
1F
100
AcDbEntity
  8
Capa 1
 62
     7
420
 16777215
370
     9
100
AcDb2dPolyline
 66
     1
 10
0.0
 20
0.0
 30
0.0
  0
VERTEX
  5
8D
330
8C
100
AcDbEntity
  8
Capa 1
 62
     7
420
 16777215
370
     9
100
AcDbVertex
100
AcDb2dVertex
 10
160.6756939486311
 20
197.016812046123
 30
0.0
  0
VERTEX
  5
8E
330
8C
100
AcDbEntity
  8
Capa 1
 62
     7
420
 16777215
370
     9
100
AcDbVertex
100
AcDb2dVertex
 10
160.6227794351624
 20
197.2020263006679
 30
0.0
  0
VERTEX
  5
8F
330
8C
100
AcDbEntity
  8
Capa 1
 62
     7
420
 16777215
370
     9
100
AcDbVertex
100
AcDb2dVertex
 10
160.464029166054
 20
197.3343125843398
 30
0.0
  0
VERTEX
  5
90
330
8C
100
AcDbEntity
  8
Capa 1
 62
     7
420
 16777215
370
     9
100
AcDbVertex
100
AcDb2dVertex
 10
160.2788216402112
 20
197.3872270978085
 30
0.0
  0
SEQEND
  5
91
330
8C
100
AcDbEntity
  8
Capa 1
 62
     7
420
 16777215
370
     9
  0
POLYLINE
  5
92
330
1F
100
AcDbEntity
  8
Capa 1
 62
     7
420
 16777215
370
     9
100
AcDb2dPolyline
 66
     1
 10
0.0
 20
0.0
 30
0.0
  0
VERTEX
  5
93
330
92
100
AcDbEntity
  8
Capa 1
 62
     7
420
 16777215
370
     9
100
AcDbVertex
100
AcDb2dVertex
 10
139.8000705687385
 20
197.3872270978085
 30
0.0
  0
VERTEX
  5
94
330
92
100
AcDbEntity
  8
Capa 1
 62
     7
420
 16777215
370
     9
100
AcDbVertex
100
AcDb2dVertex
 10
138.9534047097278
 20
197.3872270978085
 30
0.0
  0
VERTEX
  5
95
330
92
100
AcDbEntity
  8
Capa 1
 62
     7
420
 16777215
370
     9
100
AcDbVertex
100
AcDb2dVertex
 10
138.768197183885
 20
197.3343125843398
 30
0.0
  0
VERTEX
  5
96
330
92
100
AcDbEntity
  8
Capa 1
 62
     7
420
 16777215
370
     9
100
AcDbVertex
100
AcDb2dVertex
 10
138.635904171511
 20
197.2020263006679
 30
0.0
  0
VERTEX
  5
97
330
92
100
AcDbEntity
  8
Capa 1
 62
     7
420
 16777215
370
     9
100
AcDbVertex
100
AcDb2dVertex
 10
138.5829896580422
 20
197.016812046123
 30
0.0
  0
SEQEND
  5
98
330
92
100
AcDbEntity
  8
Capa 1
 62
     7
420
 16777215
370
     9
  0
POLYLINE
  5
99
330
1F
100
AcDbEntity
  8
Capa 1
 62
     7
420
 16777215
370
     9
100
AcDb2dPolyline
 66
     1
 10
0.0
 20
0.0
 30
0.0
  0
VERTEX
  5
9A
330
99
100
AcDbEntity
  8
Capa 1
 62
     7
420
 16777215
370
     9
100
AcDbVertex
100
AcDb2dVertex
 10
139.8000705687385
 20
197.3872270978085
 30
0.0
  0
VERTEX
  5
9B
330
99
100
AcDbEntity
  8
Capa 1
 62
     7
420
 16777215
370
     9
100
AcDbVertex
100
AcDb2dVertex
 10
159.4586130379348
 20
197.3872270978085
 30
0.0
  0
SEQEND
  5
9C
330
99
100
AcDbEntity
  8
Capa 1
 62
     7
420
 16777215
370
     9
  0
POLYLINE
  5
9D
330
1F
100
AcDbEntity
  8
Capa 1
 62
     7
420
 16777215
370
     9
100
AcDb2dPolyline
 66
     1
 10
0.0
 20
0.0
 30
0.0
  0
VERTEX
  5
9E
330
9D
100
AcDbEntity
  8
Capa 1
 62
     7
420
 16777215
370
     9
100
AcDbVertex
100
AcDb2dVertex
 10
143.3190337458577
 20
163.0707790006815
 30
0.0
  0
VERTEX
  5
9F
330
9D
100
AcDbEntity
  8
Capa 1
 62
     7
420
 16777215
370
     9
100
AcDbVertex
100
AcDb2dVertex
 10
143.345491002592
 20
163.0707790006815
 30
0.0
  0
SEQEND
  5
A0
330
9D
100
AcDbEntity
  8
Capa 1
 62
     7
420
 16777215
370
     9
  0
POLYLINE
  5
A1
330
1F
100
AcDbEntity
  8
Capa 1
 62
     7
420
 16777215
370
     9
100
AcDb2dPolyline
 66
     1
 10
0.0
 20
0.0
 30
0.0
  0
VERTEX
  5
A2
330
A1
100
AcDbEntity
  8
Capa 1
 62
     7
420
 16777215
370
     9
100
AcDbVertex
100
AcDb2dVertex
 10
149.6161165393206
 20
162.6474427068251
 30
0.0
  0
VERTEX
  5
A3
330
A1
100
AcDbEntity
  8
Capa 1
 62
     7
420
 16777215
370
     9
100
AcDbVertex
100
AcDb2dVertex
 10
149.6161165393206
 20
163.044315015245
 30
0.0
  0
SEQEND
  5
A4
330
A1
100
AcDbEntity
  8
Capa 1
 62
     7
420
 16777215
370
     9
  0
POLYLINE
  5
A5
330
1F
100
AcDbEntity
  8
Capa 1
 62
     7
420
 16777215
370
     9
100
AcDb2dPolyline
 66
     1
 10
0.0
 20
0.0
 30
0.0
  0
VERTEX
  5
A6
330
A5
100
AcDbEntity
  8
Capa 1
 62
     7
420
 16777215
370
     9
100
AcDbVertex
100
AcDb2dVertex
 10
149.6161165393206
 20
159.9222376039501
 30
0.0
  0
VERTEX
  5
A7
330
A5
100
AcDbEntity
  8
Capa 1
 62
     7
420
 16777215
370
     9
100
AcDbVertex
100
AcDb2dVertex
 10
149.6161165393206
 20
162.2505703984052
 30
0.0
  0
SEQEND
  5
A8
330
A5
100
AcDbEntity
  8
Capa 1
 62
     7
420
 16777215
370
     9
  0
POLYLINE
  5
A9
330
1F
100
AcDbEntity
  8
Capa 1
 62
     7
420
 16777215
370
     9
100
AcDb2dPolyline
 66
     1
 10
0.0
 20
0.0
 30
0.0
  0
VERTEX
  5
AA
330
A9
100
AcDbEntity
  8
Capa 1
 62
     7
420
 16777215
370
     9
100
AcDbVertex
100
AcDb2dVertex
 10
149.6161165393206
 20
159.1284862584081
 30
0.0
  0
VERTEX
  5
AB
330
A9
100
AcDbEntity
  8
Capa 1
 62
     7
420
 16777215
370
     9
100
AcDbVertex
100
AcDb2dVertex
 10
149.6161165393206
 20
159.525358566828
 30
0.0
  0
SEQEND
  5
AC
330
A9
100
AcDbEntity
  8
Capa 1
 62
     7
420
 16777215
370
     9
  0
POLYLINE
  5
AD
330
1F
100
AcDbEntity
  8
Capa 1
 62
     7
420
 16777215
370
     9
100
AcDb2dPolyline
 66
     1
 10
0.0
 20
0.0
 30
0.0
  0
VERTEX
  5
AE
330
AD
100
AcDbEntity
  8
Capa 1
 62
     7
420
 16777215
370
     9
100
AcDbVertex
100
AcDb2dVertex
 10
149.6161165393206
 20
156.403274426831
 30
0.0
  0
VERTEX
  5
AF
330
AD
100
AcDbEntity
  8
Capa 1
 62
     7
420
 16777215
370
     9
100
AcDbVertex
100
AcDb2dVertex
 10
149.6161165393206
 20
158.7316072212861
 30
0.0
  0
SEQEND
  5
B0
330
AD
100
AcDbEntity
  8
Capa 1
 62
     7
420
 16777215
370
     9
  0
POLYLINE
  5
B1
330
1F
100
AcDbEntity
  8
Capa 1
 62
     7
420
 16777215
370
     9
100
AcDb2dPolyline
 66
     1
 10
0.0
 20
0.0
 30
0.0
  0
VERTEX
  5
B2
330
B1
100
AcDbEntity
  8
Capa 1
 62
     7
420
 16777215
370
     9
100
AcDbVertex
100
AcDb2dVertex
 10
149.6161165393206
 20
155.6095298099911
 30
0.0
  0
VERTEX
  5
B3
330
B1
100
AcDbEntity
  8
Capa 1
 62
     7
420
 16777215
370
     9
100
AcDbVertex
100
AcDb2dVertex
 10
149.6161165393206
 20
156.006402118411
 30
0.0
  0
SEQEND
  5
B4
330
B1
100
AcDbEntity
  8
Capa 1
 62
     7
420
 16777215
370
     9
  0
POLYLINE
  5
B5
330
1F
100
AcDbEntity
  8
Capa 1
 62
     7
420
 16777215
370
     9
100
AcDb2dPolyline
 66
     1
 10
0.0
 20
0.0
 30
0.0
  0
VERTEX
  5
B6
330
B5
100
AcDbEntity
  8
Capa 1
 62
     7
420
 16777215
370
     9
100
AcDbVertex
100
AcDb2dVertex
 10
149.6161165393206
 20
152.884317978414
 30
0.0
  0
VERTEX
  5
B7
330
B5
100
AcDbEntity
  8
Capa 1
 62
     7
420
 16777215
370
     9
100
AcDbVertex
100
AcDb2dVertex
 10
149.6161165393206
 20
155.2126507728691
 30
0.0
  0
SEQEND
  5
B8
330
B5
100
AcDbEntity
  8
Capa 1
 62
     7
420
 16777215
370
     9
  0
POLYLINE
  5
B9
330
1F
100
AcDbEntity
  8
Capa 1
 62
     7
420
 16777215
370
     9
100
AcDb2dPolyline
 66
     1
 10
0.0
 20
0.0
 30
0.0
  0
VERTEX
  5
BA
330
B9
100
AcDbEntity
  8
Capa 1
 62
     7
420
 16777215
370
     9
100
AcDbVertex
100
AcDb2dVertex
 10
149.6161165393206
 20
152.090566632872
 30
0.0
  0
VERTEX
  5
BB
330
B9
100
AcDbEntity
  8
Capa 1
 62
     7
420
 16777215
370
     9
100
AcDbVertex
100
AcDb2dVertex
 10
149.6161165393206
 20
152.487445669994
 30
0.0
  0
SEQEND
  5
BC
330
B9
100
AcDbEntity
  8
Capa 1
 62
     7
420
 16777215
370
     9
  0
POLYLINE
  5
BD
330
1F
100
AcDbEntity
  8
Capa 1
 62
     7
420
 16777215
370
     9
100
AcDb2dPolyline
 66
     1
 10
0.0
 20
0.0
 30
0.0
  0
VERTEX
  5
BE
330
BD
100
AcDbEntity
  8
Capa 1
 62
     7
420
 16777215
370
     9
100
AcDbVertex
100
AcDb2dVertex
 10
149.6161165393206
 20
149.365361529997
 30
0.0
  0
VERTEX
  5
BF
330
BD
100
AcDbEntity
  8
Capa 1
 62
     7
420
 16777215
370
     9
100
AcDbVertex
100
AcDb2dVertex
 10
149.6161165393206
 20
151.7201515811864
 30
0.0
  0
SEQEND
  5
C0
330
BD
100
AcDbEntity
  8
Capa 1
 62
     7
420
 16777215
370
     9
  0
POLYLINE
  5
C1
330
1F
100
AcDbEntity
  8
Capa 1
 62
     7
420
 16777215
370
     9
100
AcDb2dPolyline
 66
     1
 10
0.0
 20
0.0
 30
0.0
  0
VERTEX
  5
C2
330
C1
100
AcDbEntity
  8
Capa 1
 62
     7
420
 16777215
370
     9
100
AcDbVertex
100
AcDb2dVertex
 10
149.6161165393206
 20
148.571610184455
 30
0.0
  0
VERTEX
  5
C3
330
C1
100
AcDbEntity
  8
Capa 1
 62
     7
420
 16777215
370
     9
100
AcDbVertex
100
AcDb2dVertex
 10
149.6161165393206
 20
148.9684824928749
 30
0.0
  0
SEQEND
  5
C4
330
C1
100
AcDbEntity
  8
Capa 1
 62
     7
420
 16777215
370
     9
  0
POLYLINE
  5
C5
330
1F
100
AcDbEntity
  8
Capa 1
 62
     7
420
 16777215
370
     9
100
AcDb2dPolyline
 66
     1
 10
0.0
 20
0.0
 30
0.0
  0
VERTEX
  5
C6
330
C5
100
AcDbEntity
  8
Capa 1
 62
     7
420
 16777215
370
     9
100
AcDbVertex
100
AcDb2dVertex
 10
149.6161165393206
 20
146.9576502366366
 30
0.0
  0
VERTEX
  5
C7
330
C5
100
AcDbEntity
  8
Capa 1
 62
     7
420
 16777215
370
     9
100
AcDbVertex
100
AcDb2dVertex
 10
149.6161165393206
 20
148.2011951327694
 30
0.0
  0
SEQEND
  5
C8
330
C5
100
AcDbEntity
  8
Capa 1
 62
     7
420
 16777215
370
     9
  0
POLYLINE
  5
C9
330
1F
100
AcDbEntity
  8
Capa 1
 62
     7
420
 16777215
370
     9
100
AcDb2dPolyline
 66
     1
 10
0.0
 20
0.0
 30
0.0
  0
VERTEX
  5
CA
330
C9
100
AcDbEntity
  8
Capa 1
 62
     7
420
 16777215
370
     9
100
AcDbVertex
100
AcDb2dVertex
 10
149.6161165393206
 20
163.4147367956327
 30
0.0
  0
VERTEX
  5
CB
330
C9
100
AcDbEntity
  8
Capa 1
 62
     7
420
 16777215
370
     9
100
AcDbVertex
100
AcDb2dVertex
 10
149.6161165393206
 20
164.6582749630634
 30
0.0
  0
SEQEND
  5
CC
330
C9
100
AcDbEntity
  8
Capa 1
 62
     7
420
 16777215
370
     9
  0
POLYLINE
  5
CD
330
1F
100
AcDbEntity
  8
Capa 1
 62
     7
420
 16777215
370
     9
100
AcDb2dPolyline
 66
     1
 10
0.0
 20
0.0
 30
0.0
  0
VERTEX
  5
CE
330
CD
100
AcDbEntity
  8
Capa 1
 62
     7
420
 16777215
370
     9
100
AcDbVertex
100
AcDb2dVertex
 10
166.7875624875491
 20
196.2495246860175
 30
0.0
  0
VERTEX
  5
CF
330
CD
100
AcDbEntity
  8
Capa 1
 62
     7
420
 16777215
370
     9
100
AcDbVertex
100
AcDb2dVertex
 10
166.7875624875491
 20
174.6859857162226
 30
0.0
  0
SEQEND
  5
D0
330
CD
100
AcDbEntity
  8
Capa 1
 62
     7
420
 16777215
370
     9
  0
POLYLINE
  5
D1
330
1F
100
AcDbEntity
  8
Capa 1
 62
     7
420
 16777215
370
     9
100
AcDb2dPolyline
 66
     1
 10
0.0
 20
0.0
 30
0.0
  0
VERTEX
  5
D2
330
D1
100
AcDbEntity
  8
Capa 1
 62
     7
420
 16777215
370
     9
100
AcDbVertex
100
AcDb2dVertex
 10
166.7875624875491
 20
149.4182760434657
 30
0.0
  0
VERTEX
  5
D3
330
D1
100
AcDbEntity
  8
Capa 1
 62
     7
420
 16777215
370
     9
100
AcDbVertex
100
AcDb2dVertex
 10
166.7875624875491
 20
171.5638948475234
 30
0.0
  0
SEQEND
  5
D4
330
D1
100
AcDbEntity
  8
Capa 1
 62
     7
420
 16777215
370
     9
  0
POLYLINE
  5
D5
330
1F
100
AcDbEntity
  8
Capa 1
 62
     7
420
 16777215
370
     9
100
AcDb2dPolyline
 66
     1
 10
0.0
 20
0.0
 30
0.0
  0
VERTEX
  5
D6
330
D5
100
AcDbEntity
  8
Capa 1
 62
     7
420
 16777215
370
     9
100
AcDbVertex
100
AcDb2dVertex
 10
150.5686114252688
 20
197.3872270978085
 30
0.0
  0
VERTEX
  5
D7
330
D5
100
AcDbEntity
  8
Capa 1
 62
     7
420
 16777215
370
     9
100
AcDbVertex
100
AcDb2dVertex
 10
167.4225635639827
 20
197.3872270978085
 30
0.0
  0
SEQEND
  5
D8
330
D5
100
AcDbEntity
  8
Capa 1
 62
     7
420
 16777215
370
     9
  0
POLYLINE
  5
D9
330
1F
100
AcDbEntity
  8
Capa 1
 62
     7
420
 16777215
370
     9
100
AcDb2dPolyline
 66
     1
 10
0.0
 20
0.0
 30
0.0
  0
VERTEX
  5
DA
330
D9
100
AcDbEntity
  8
Capa 1
 62
     7
420
 16777215
370
     9
100
AcDbVertex
100
AcDb2dVertex
 10
157.4213235249622
 20
148.2805669029726
 30
0.0
  0
VERTEX
  5
DB
330
D9
100
AcDbEntity
  8
Capa 1
 62
     7
420
 16777215
370
     9
100
AcDbVertex
100
AcDb2dVertex
 10
167.4225635639827
 20
148.2805669029726
 30
0.0
  0
SEQEND
  5
DC
330
D9
100
AcDbEntity
  8
Capa 1
 62
     7
420
 16777215
370
     9
  0
POLYLINE
  5
DD
330
1F
100
AcDbEntity
  8
Capa 1
370
     0
100
AcDb2dPolyline
 66
     1
 10
0.0
 20
0.0
 30
0.0
  0
VERTEX
  5
DE
330
DD
100
AcDbEntity
  8
Capa 1
370
     0
100
AcDbVertex
100
AcDb2dVertex
 10
166.6023616904085
 20
149.4182760434657
 30
0.0
  0
VERTEX
  5
DF
330
DD
100
AcDbEntity
  8
Capa 1
370
     0
100
AcDbVertex
100
AcDb2dVertex
 10
166.972776742094
 20
149.4182760434657
 30
0.0
  0
VERTEX
  5
E0
330
DD
100
AcDbEntity
  8
Capa 1
370
     0
100
AcDbVertex
100
AcDb2dVertex
 10
166.7875624875491
 20
148.2805669029726
 30
0.0
  0
SEQEND
  5
E2
330
DD
100
AcDbEntity
  8
Capa 1
370
     0
  0
HATCH
  5
E1
330
1F
100
AcDbEntity
  8
Capa 1
 62
     7
420
 16777215
100
AcDbHatch
 10
0.0
 20
0.0
 30
0.0
210
0.0
220
0.0
230
1.0
  2
SOLID
 70
     1
 71
     0
 91
        1
 92
        1
 93
        3
 72
     1
 10
166.6023616904085
 20
149.4182760434657
 11
166.972776742094
 21
149.4182760434657
 72
     1
 10
166.972776742094
 20
149.4182760434657
 11
166.7875624875491
 21
148.2805669029726
 72
     1
 10
166.7875624875491
 20
148.2805669029726
 11
166.6023616904085
 21
149.4182760434657
 97
        0
 75
     0
 76
     1
 98
        0
  0
POLYLINE
  5
E3
330
1F
100
AcDbEntity
  8
Capa 1
370
     0
100
AcDb2dPolyline
 66
     1
 10
0.0
 20
0.0
 30
0.0
  0
VERTEX
  5
E4
330
E3
100
AcDbEntity
  8
Capa 1
370
     0
100
AcDbVertex
100
AcDb2dVertex
 10
166.6023616904085
 20
196.2495246860175
 30
0.0
  0
VERTEX
  5
E5
330
E3
100
AcDbEntity
  8
Capa 1
370
     0
100
AcDbVertex
100
AcDb2dVertex
 10
166.972776742094
 20
196.2495246860175
 30
0.0
  0
VERTEX
  5
E6
330
E3
100
AcDbEntity
  8
Capa 1
370
     0
100
AcDbVertex
100
AcDb2dVertex
 10
166.7875624875491
 20
197.3872270978085
 30
0.0
  0
SEQEND
  5
E8
330
E3
100
AcDbEntity
  8
Capa 1
370
     0
  0
HATCH
  5
E7
330
1F
100
AcDbEntity
  8
Capa 1
 62
     7
420
 16777215
100
AcDbHatch
 10
0.0
 20
0.0
 30
0.0
210
0.0
220
0.0
230
1.0
  2
SOLID
 70
     1
 71
     0
 91
        1
 92
        1
 93
        3
 72
     1
 10
166.6023616904085
 20
196.2495246860175
 11
166.972776742094
 21
196.2495246860175
 72
     1
 10
166.972776742094
 20
196.2495246860175
 11
166.7875624875491
 21
197.3872270978086
 72
     1
 10
166.7875624875491
 20
197.3872270978085
 11
166.6023616904085
 21
196.2495246860175
 97
        0
 75
     0
 76
     1
 98
        0
  0
POLYLINE
  5
E9
330
1F
100
AcDbEntity
  8
Capa 1
 62
     7
420
 16777215
370
     9
100
AcDb2dPolyline
 66
     1
 10
0.0
 20
0.0
 30
0.0
  0
VERTEX
  5
EA
330
E9
100
AcDbEntity
  8
Capa 1
 62
     7
420
 16777215
370
     9
100
AcDbVertex
100
AcDb2dVertex
 10
140.9906942227005
 20
160.7953607196952
 30
0.0
  0
VERTEX
  5
EB
330
E9
100
AcDbEntity
  8
Capa 1
 62
     7
420
 16777215
370
     9
100
AcDbVertex
100
AcDb2dVertex
 10
141.3875732598225
 20
160.7953607196952
 30
0.0
  0
SEQEND
  5
EC
330
E9
100
AcDbEntity
  8
Capa 1
 62
     7
420
 16777215
370
     9
  0
POLYLINE
  5
ED
330
1F
100
AcDbEntity
  8
Capa 1
 62
     7
420
 16777215
370
     9
100
AcDb2dPolyline
 66
     1
 10
0.0
 20
0.0
 30
0.0
  0
VERTEX
  5
EE
330
ED
100
AcDbEntity
  8
Capa 1
 62
     7
420
 16777215
370
     9
100
AcDbVertex
100
AcDb2dVertex
 10
139.2444479912102
 20
160.7953607196952
 30
0.0
  0
VERTEX
  5
EF
330
ED
100
AcDbEntity
  8
Capa 1
 62
     7
420
 16777215
370
     9
100
AcDbVertex
100
AcDb2dVertex
 10
140.5938219142805
 20
160.7953607196952
 30
0.0
  0
SEQEND
  5
F0
330
ED
100
AcDbEntity
  8
Capa 1
 62
     7
420
 16777215
370
     9
  0
POLYLINE
  5
F1
330
1F
100
AcDbEntity
  8
Capa 1
 62
     7
420
 16777215
370
     9
100
AcDb2dPolyline
 66
     1
 10
0.0
 20
0.0
 30
0.0
  0
VERTEX
  5
F2
330
F1
100
AcDbEntity
  8
Capa 1
 62
     7
420
 16777215
370
     9
100
AcDbVertex
100
AcDb2dVertex
 10
141.7844455682425
 20
160.7953607196952
 30
0.0
  0
VERTEX
  5
F3
330
F1
100
AcDbEntity
  8
Capa 1
 62
     7
420
 16777215
370
     9
100
AcDbVertex
100
AcDb2dVertex
 10
143.1338194913128
 20
160.7953607196952
 30
0.0
  0
SEQEND
  5
F4
330
F1
100
AcDbEntity
  8
Capa 1
 62
     7
420
 16777215
370
     9
  0
POLYLINE
  5
F5
330
1F
100
AcDbEntity
  8
Capa 1
 62
     7
420
 16777215
370
     9
100
AcDb2dPolyline
 66
     1
 10
0.0
 20
0.0
 30
0.0
  0
VERTEX
  5
F6
330
F5
100
AcDbEntity
  8
Capa 1
 62
     7
420
 16777215
370
     9
100
AcDbVertex
100
AcDb2dVertex
 10
142.1284033631936
 20
161.8007768478144
 30
0.0
  0
VERTEX
  5
F7
330
F5
100
AcDbEntity
  8
Capa 1
 62
     7
420
 16777215
370
     9
100
AcDbVertex
100
AcDb2dVertex
 10
142.1284033631936
 20
159.7899445915761
 30
0.0
  0
SEQEND
  5
F8
330
F5
100
AcDbEntity
  8
Capa 1
 62
     7
420
 16777215
370
     9
  0
POLYLINE
  5
F9
330
1F
100
AcDbEntity
  8
Capa 1
 62
     7
420
 16777215
370
     9
100
AcDb2dPolyline
 66
     1
 10
0.0
 20
0.0
 30
0.0
  0
VERTEX
  5
FA
330
F9
100
AcDbEntity
  8
Capa 1
 62
     7
420
 16777215
370
     9
100
AcDbVertex
100
AcDb2dVertex
 10
142.6046541705188
 20
160.7953607196952
 30
0.0
  0
VERTEX
  5
FB
330
F9
100
AcDbEntity
  8
Capa 1
 62
     7
420
 16777215
370
     9
100
AcDbVertex
100
AcDb2dVertex
 10
142.5517396570501
 20
160.9541109888036
 30
0.0
  0
VERTEX
  5
FC
330
F9
100
AcDbEntity
  8
Capa 1
 62
     7
420
 16777215
370
     9
100
AcDbVertex
100
AcDb2dVertex
 10
142.4459039014104
 20
161.112861257912
 30
0.0
  0
VERTEX
  5
FD
330
F9
100
AcDbEntity
  8
Capa 1
 62
     7
420
 16777215
370
     9
100
AcDbVertex
100
AcDb2dVertex
 10
142.4459039014104
 20
161.1393185146464
 30
0.0
  0
SEQEND
  5
FE
330
F9
100
AcDbEntity
  8
Capa 1
 62
     7
420
 16777215
370
     9
  0
POLYLINE
  5
FF
330
1F
100
AcDbEntity
  8
Capa 1
 62
     7
420
 16777215
370
     9
100
AcDb2dPolyline
 66
     1
 10
0.0
 20
0.0
 30
0.0
  0
VERTEX
  5
100
330
FF
100
AcDbEntity
  8
Capa 1
 62
     7
420
 16777215
370
     9
100
AcDbVertex
100
AcDb2dVertex
 10
142.2606963755676
 20
161.2186902848495
 30
0.0
  0
VERTEX
  5
101
330
FF
100
AcDbEntity
  8
Capa 1
 62
     7
420
 16777215
370
     9
100
AcDbVertex
100
AcDb2dVertex
 10
142.1284033631936
 20
161.245154270286
 30
0.0
  0
VERTEX
  5
102
330
FF
100
AcDbEntity
  8
Capa 1
 62
     7
420
 16777215
370
     9
100
AcDbVertex
100
AcDb2dVertex
 10
141.9431958373509
 20
161.2186902848495
 30
0.0
  0
VERTEX
  5
103
330
FF
100
AcDbEntity
  8
Capa 1
 62
     7
420
 16777215
370
     9
100
AcDbVertex
100
AcDb2dVertex
 10
141.8902813238821
 20
161.1922330281151
 30
0.0
  0
SEQEND
  5
104
330
FF
100
AcDbEntity
  8
Capa 1
 62
     7
420
 16777215
370
     9
  0
POLYLINE
  5
105
330
1F
100
AcDbEntity
  8
Capa 1
 62
     7
420
 16777215
370
     9
100
AcDb2dPolyline
 66
     1
 10
0.0
 20
0.0
 30
0.0
  0
VERTEX
  5
106
330
105
100
AcDbEntity
  8
Capa 1
 62
     7
420
 16777215
370
     9
100
AcDbVertex
100
AcDb2dVertex
 10
141.7579883115081
 20
161.0599400157411
 30
0.0
  0
VERTEX
  5
107
330
105
100
AcDbEntity
  8
Capa 1
 62
     7
420
 16777215
370
     9
100
AcDbVertex
100
AcDb2dVertex
 10
141.6786165413049
 20
160.9541109888036
 30
0.0
  0
VERTEX
  5
108
330
105
100
AcDbEntity
  8
Capa 1
 62
     7
420
 16777215
370
     9
100
AcDbVertex
100
AcDb2dVertex
 10
141.6521525558684
 20
160.7953607196952
 30
0.0
  0
VERTEX
  5
109
330
105
100
AcDbEntity
  8
Capa 1
 62
     7
420
 16777215
370
     9
100
AcDbVertex
100
AcDb2dVertex
 10
141.6786165413049
 20
160.6895249640556
 30
0.0
  0
SEQEND
  5
10A
330
105
100
AcDbEntity
  8
Capa 1
 62
     7
420
 16777215
370
     9
  0
POLYLINE
  5
10B
330
1F
100
AcDbEntity
  8
Capa 1
 62
     7
420
 16777215
370
     9
100
AcDb2dPolyline
 66
     1
 10
0.0
 20
0.0
 30
0.0
  0
VERTEX
  5
10C
330
10B
100
AcDbEntity
  8
Capa 1
 62
     7
420
 16777215
370
     9
100
AcDbVertex
100
AcDb2dVertex
 10
141.7579883115081
 20
160.5043174382128
 30
0.0
  0
VERTEX
  5
10D
330
10B
100
AcDbEntity
  8
Capa 1
 62
     7
420
 16777215
370
     9
100
AcDbVertex
100
AcDb2dVertex
 10
141.7844455682425
 20
160.4514029247441
 30
0.0
  0
VERTEX
  5
10E
330
10B
100
AcDbEntity
  8
Capa 1
 62
     7
420
 16777215
370
     9
100
AcDbVertex
100
AcDb2dVertex
 10
141.9431958373509
 20
160.3455671691044
 30
0.0
  0
VERTEX
  5
10F
330
10B
100
AcDbEntity
  8
Capa 1
 62
     7
420
 16777215
370
     9
100
AcDbVertex
100
AcDb2dVertex
 10
142.0754888497249
 20
160.31910991237
 30
0.0
  0
SEQEND
  5
110
330
10B
100
AcDbEntity
  8
Capa 1
 62
     7
420
 16777215
370
     9
  0
POLYLINE
  5
111
330
1F
100
AcDbEntity
  8
Capa 1
 62
     7
420
 16777215
370
     9
100
AcDb2dPolyline
 66
     1
 10
0.0
 20
0.0
 30
0.0
  0
VERTEX
  5
112
330
111
100
AcDbEntity
  8
Capa 1
 62
     7
420
 16777215
370
     9
100
AcDbVertex
100
AcDb2dVertex
 10
142.2606963755676
 20
160.3455671691044
 30
0.0
  0
VERTEX
  5
113
330
111
100
AcDbEntity
  8
Capa 1
 62
     7
420
 16777215
370
     9
100
AcDbVertex
100
AcDb2dVertex
 10
142.3136108890364
 20
160.3455671691044
 30
0.0
  0
VERTEX
  5
114
330
111
100
AcDbEntity
  8
Capa 1
 62
     7
420
 16777215
370
     9
100
AcDbVertex
100
AcDb2dVertex
 10
142.4459039014104
 20
160.4514029247441
 30
0.0
  0
VERTEX
  5
115
330
111
100
AcDbEntity
  8
Capa 1
 62
     7
420
 16777215
370
     9
100
AcDbVertex
100
AcDb2dVertex
 10
142.5517396570501
 20
160.6101531938525
 30
0.0
  0
SEQEND
  5
116
330
111
100
AcDbEntity
  8
Capa 1
 62
     7
420
 16777215
370
     9
  0
POLYLINE
  5
117
330
1F
100
AcDbEntity
  8
Capa 1
 62
     7
420
 16777215
370
     9
100
AcDb2dPolyline
 66
     1
 10
0.0
 20
0.0
 30
0.0
  0
VERTEX
  5
118
330
117
100
AcDbEntity
  8
Capa 1
 62
     7
420
 16777215
370
     9
100
AcDbVertex
100
AcDb2dVertex
 10
142.6046541705188
 20
160.7953607196952
 30
0.0
  0
VERTEX
  5
119
330
117
100
AcDbEntity
  8
Capa 1
 62
     7
420
 16777215
370
     9
100
AcDbVertex
100
AcDb2dVertex
 10
142.6311114272532
 20
160.7953607196952
 30
0.0
  0
SEQEND
  5
11A
330
117
100
AcDbEntity
  8
Capa 1
 62
     7
420
 16777215
370
     9
  0
POLYLINE
  5
11B
330
1F
100
AcDbEntity
  8
Capa 1
 62
     7
420
 16777215
370
     9
100
AcDb2dPolyline
 66
     1
 10
0.0
 20
0.0
 30
0.0
  0
VERTEX
  5
11C
330
11B
100
AcDbEntity
  8
Capa 1
 62
     7
420
 16777215
370
     9
100
AcDbVertex
100
AcDb2dVertex
 10
142.1284033631936
 20
156.1916096442538
 30
0.0
  0
VERTEX
  5
11D
330
11B
100
AcDbEntity
  8
Capa 1
 62
     7
420
 16777215
370
     9
100
AcDbVertex
100
AcDb2dVertex
 10
143.1338194913128
 20
156.1916096442538
 30
0.0
  0
SEQEND
  5
11E
330
11B
100
AcDbEntity
  8
Capa 1
 62
     7
420
 16777215
370
     9
  0
POLYLINE
  5
11F
330
1F
100
AcDbEntity
  8
Capa 1
 62
     7
420
 16777215
370
     9
100
AcDb2dPolyline
 66
     1
 10
0.0
 20
0.0
 30
0.0
  0
VERTEX
  5
120
330
11F
100
AcDbEntity
  8
Capa 1
 62
     7
420
 16777215
370
     9
100
AcDbVertex
100
AcDb2dVertex
 10
149.6161165393206
 20
156.1916096442538
 30
0.0
  0
VERTEX
  5
121
330
11F
100
AcDbEntity
  8
Capa 1
 62
     7
420
 16777215
370
     9
100
AcDbVertex
100
AcDb2dVertex
 10
148.055071104971
 20
156.1916096442538
 30
0.0
  0
SEQEND
  5
122
330
11F
100
AcDbEntity
  8
Capa 1
 62
     7
420
 16777215
370
     9
  0
POLYLINE
  5
123
330
1F
100
AcDbEntity
  8
Capa 1
 62
     7
420
 16777215
370
     9
100
AcDb2dPolyline
 66
     1
 10
0.0
 20
0.0
 30
0.0
  0
VERTEX
  5
124
330
123
100
AcDbEntity
  8
Capa 1
 62
     7
420
 16777215
370
     9
100
AcDbVertex
100
AcDb2dVertex
 10
140.9906942227005
 20
156.1916096442538
 30
0.0
  0
VERTEX
  5
125
330
123
100
AcDbEntity
  8
Capa 1
 62
     7
420
 16777215
370
     9
100
AcDbVertex
100
AcDb2dVertex
 10
139.8794490676438
 20
156.1916096442538
 30
0.0
  0
SEQEND
  5
126
330
123
100
AcDbEntity
  8
Capa 1
 62
     7
420
 16777215
370
     9
  0
POLYLINE
  5
127
330
1F
100
AcDbEntity
  8
Capa 1
 62
     7
420
 16777215
370
     9
100
AcDb2dPolyline
 66
     1
 10
0.0
 20
0.0
 30
0.0
  0
VERTEX
  5
128
330
127
100
AcDbEntity
  8
Capa 1
 62
     7
420
 16777215
370
     9
100
AcDbVertex
100
AcDb2dVertex
 10
150.7538189511116
 20
156.1916096442538
 30
0.0
  0
VERTEX
  5
129
330
127
100
AcDbEntity
  8
Capa 1
 62
     7
420
 16777215
370
     9
100
AcDbVertex
100
AcDb2dVertex
 10
151.8650708348704
 20
156.1916096442538
 30
0.0
  0
SEQEND
  5
12A
330
127
100
AcDbEntity
  8
Capa 1
 62
     7
420
 16777215
370
     9
  0
POLYLINE
  5
12B
330
1F
100
AcDbEntity
  8
Capa 1
 62
     7
420
 16777215
370
     9
100
AcDb2dPolyline
 66
     1
 10
0.0
 20
0.0
 30
0.0
  0
VERTEX
  5
12C
330
12B
100
AcDbEntity
  8
Capa 1
 62
     7
420
 16777215
370
     9
100
AcDbVertex
100
AcDb2dVertex
 10
142.1284033631936
 20
159.393065554454
 30
0.0
  0
VERTEX
  5
12D
330
12B
100
AcDbEntity
  8
Capa 1
 62
     7
420
 16777215
370
     9
100
AcDbVertex
100
AcDb2dVertex
 10
142.1284033631936
 20
155.5830658245546
 30
0.0
  0
SEQEND
  5
12E
330
12B
100
AcDbEntity
  8
Capa 1
 62
     7
420
 16777215
370
     9
  0
POLYLINE
  5
12F
330
1F
100
AcDbEntity
  8
Capa 1
 62
     7
420
 16777215
370
     9
100
AcDb2dPolyline
 66
     1
 10
0.0
 20
0.0
 30
0.0
  0
VERTEX
  5
130
330
12F
100
AcDbEntity
  8
Capa 1
 62
     7
420
 16777215
370
     9
100
AcDbVertex
100
AcDb2dVertex
 10
149.6161165393206
 20
157.329318784747
 30
0.0
  0
VERTEX
  5
131
330
12F
100
AcDbEntity
  8
Capa 1
 62
     7
420
 16777215
370
     9
100
AcDbVertex
100
AcDb2dVertex
 10
149.6161165393206
 20
155.5830658245546
 30
0.0
  0
SEQEND
  5
132
330
12F
100
AcDbEntity
  8
Capa 1
 62
     7
420
 16777215
370
     9
  0
POLYLINE
  5
133
330
1F
100
AcDbEntity
  8
Capa 1
370
     0
100
AcDb2dPolyline
 66
     1
 10
0.0
 20
0.0
 30
0.0
  0
VERTEX
  5
134
330
133
100
AcDbEntity
  8
Capa 1
370
     0
100
AcDbVertex
100
AcDb2dVertex
 10
150.7538189511116
 20
156.3768171700966
 30
0.0
  0
VERTEX
  5
135
330
133
100
AcDbEntity
  8
Capa 1
370
     0
100
AcDbVertex
100
AcDb2dVertex
 10
150.7538189511116
 20
156.006402118411
 30
0.0
  0
VERTEX
  5
136
330
133
100
AcDbEntity
  8
Capa 1
370
     0
100
AcDbVertex
100
AcDb2dVertex
 10
149.6161165393206
 20
156.1916096442538
 30
0.0
  0
SEQEND
  5
138
330
133
100
AcDbEntity
  8
Capa 1
370
     0
  0
HATCH
  5
137
330
1F
100
AcDbEntity
  8
Capa 1
 62
     7
420
 16777215
100
AcDbHatch
 10
0.0
 20
0.0
 30
0.0
210
0.0
220
0.0
230
1.0
  2
SOLID
 70
     1
 71
     0
 91
        1
 92
        1
 93
        3
 72
     1
 10
150.7538189511116
 20
156.3768171700966
 11
150.7538189511116
 21
156.006402118411
 72
     1
 10
150.7538189511116
 20
156.006402118411
 11
149.6161165393206
 21
156.1916096442538
 72
     1
 10
149.6161165393206
 20
156.1916096442538
 11
150.7538189511116
 21
156.3768171700966
 97
        0
 75
     0
 76
     1
 98
        0
  0
POLYLINE
  5
139
330
1F
100
AcDbEntity
  8
Capa 1
370
     0
100
AcDb2dPolyline
 66
     1
 10
0.0
 20
0.0
 30
0.0
  0
VERTEX
  5
13A
330
139
100
AcDbEntity
  8
Capa 1
370
     0
100
AcDbVertex
100
AcDb2dVertex
 10
140.9906942227005
 20
156.3768171700966
 30
0.0
  0
VERTEX
  5
13B
330
139
100
AcDbEntity
  8
Capa 1
370
     0
100
AcDbVertex
100
AcDb2dVertex
 10
140.9906942227005
 20
156.006402118411
 30
0.0
  0
VERTEX
  5
13C
330
139
100
AcDbEntity
  8
Capa 1
370
     0
100
AcDbVertex
100
AcDb2dVertex
 10
142.1284033631936
 20
156.1916096442538
 30
0.0
  0
SEQEND
  5
13E
330
139
100
AcDbEntity
  8
Capa 1
370
     0
  0
HATCH
  5
13D
330
1F
100
AcDbEntity
  8
Capa 1
 62
     7
420
 16777215
100
AcDbHatch
 10
0.0
 20
0.0
 30
0.0
210
0.0
220
0.0
230
1.0
  2
SOLID
 70
     1
 71
     0
 91
        1
 92
        1
 93
        3
 72
     1
 10
140.9906942227005
 20
156.3768171700966
 11
140.9906942227005
 21
156.006402118411
 72
     1
 10
140.9906942227005
 20
156.006402118411
 11
142.1284033631936
 21
156.1916096442538
 72
     1
 10
142.1284033631936
 20
156.1916096442538
 11
140.9906942227005
 21
156.3768171700966
 97
        0
 75
     0
 76
     1
 98
        0
  0
POLYLINE
  5
13F
330
1F
100
AcDbEntity
  8
Capa 1
 62
     7
420
 16777215
370
     9
100
AcDb2dPolyline
 66
     1
 10
0.0
 20
0.0
 30
0.0
  0
VERTEX
  5
140
330
13F
100
AcDbEntity
  8
Capa 1
 62
     7
420
 16777215
370
     9
100
AcDbVertex
100
AcDb2dVertex
 10
137.2071584782375
 20
159.6576515792021
 30
0.0
  0
VERTEX
  5
141
330
13F
100
AcDbEntity
  8
Capa 1
 62
     7
420
 16777215
370
     9
100
AcDbVertex
100
AcDb2dVertex
 10
137.2071584782375
 20
156.1122378740507
 30
0.0
  0
SEQEND
  5
142
330
13F
100
AcDbEntity
  8
Capa 1
 62
     7
420
 16777215
370
     9
  0
POLYLINE
  5
143
330
1F
100
AcDbEntity
  8
Capa 1
 62
     7
420
 16777215
370
     9
100
AcDb2dPolyline
 66
     1
 10
0.0
 20
0.0
 30
0.0
  0
VERTEX
  5
144
330
143
100
AcDbEntity
  8
Capa 1
 62
     7
420
 16777215
370
     9
100
AcDbVertex
100
AcDb2dVertex
 10
137.2071584782375
 20
149.4182760434657
 30
0.0
  0
VERTEX
  5
145
330
143
100
AcDbEntity
  8
Capa 1
 62
     7
420
 16777215
370
     9
100
AcDbVertex
100
AcDb2dVertex
 10
137.2071584782375
 20
152.9636964773192
 30
0.0
  0
SEQEND
  5
146
330
143
100
AcDbEntity
  8
Capa 1
 62
     7
420
 16777215
370
     9
  0
POLYLINE
  5
147
330
1F
100
AcDbEntity
  8
Capa 1
 62
     7
420
 16777215
370
     9
100
AcDb2dPolyline
 66
     1
 10
0.0
 20
0.0
 30
0.0
  0
VERTEX
  5
148
330
147
100
AcDbEntity
  8
Capa 1
 62
     7
420
 16777215
370
     9
100
AcDbVertex
100
AcDb2dVertex
 10
138.3184036332942
 20
160.7953607196952
 30
0.0
  0
VERTEX
  5
149
330
147
100
AcDbEntity
  8
Capa 1
 62
     7
420
 16777215
370
     9
100
AcDbVertex
100
AcDb2dVertex
 10
136.572157401804
 20
160.7953607196952
 30
0.0
  0
SEQEND
  5
14A
330
147
100
AcDbEntity
  8
Capa 1
 62
     7
420
 16777215
370
     9
  0
POLYLINE
  5
14B
330
1F
100
AcDbEntity
  8
Capa 1
 62
     7
420
 16777215
370
     9
100
AcDb2dPolyline
 66
     1
 10
0.0
 20
0.0
 30
0.0
  0
VERTEX
  5
14C
330
14B
100
AcDbEntity
  8
Capa 1
 62
     7
420
 16777215
370
     9
100
AcDbVertex
100
AcDb2dVertex
 10
141.8109028249768
 20
148.2805669029726
 30
0.0
  0
VERTEX
  5
14D
330
14B
100
AcDbEntity
  8
Capa 1
 62
     7
420
 16777215
370
     9
100
AcDbVertex
100
AcDb2dVertex
 10
136.572157401804
 20
148.2805669029726
 30
0.0
  0
SEQEND
  5
14E
330
14B
100
AcDbEntity
  8
Capa 1
 62
     7
420
 16777215
370
     9
  0
POLYLINE
  5
14F
330
1F
100
AcDbEntity
  8
Capa 1
370
     0
100
AcDb2dPolyline
 66
     1
 10
0.0
 20
0.0
 30
0.0
  0
VERTEX
  5
150
330
14F
100
AcDbEntity
  8
Capa 1
370
     0
100
AcDbVertex
100
AcDb2dVertex
 10
137.0219442236927
 20
149.4182760434657
 30
0.0
  0
VERTEX
  5
151
330
14F
100
AcDbEntity
  8
Capa 1
370
     0
100
AcDbVertex
100
AcDb2dVertex
 10
137.3923660040803
 20
149.4182760434657
 30
0.0
  0
VERTEX
  5
152
330
14F
100
AcDbEntity
  8
Capa 1
370
     0
100
AcDbVertex
100
AcDb2dVertex
 10
137.2071584782375
 20
148.2805669029726
 30
0.0
  0
SEQEND
  5
154
330
14F
100
AcDbEntity
  8
Capa 1
370
     0
  0
HATCH
  5
153
330
1F
100
AcDbEntity
  8
Capa 1
 62
     7
420
 16777215
100
AcDbHatch
 10
0.0
 20
0.0
 30
0.0
210
0.0
220
0.0
230
1.0
  2
SOLID
 70
     1
 71
     0
 91
        1
 92
        1
 93
        3
 72
     1
 10
137.0219442236927
 20
149.4182760434657
 11
137.3923660040803
 21
149.4182760434657
 72
     1
 10
137.3923660040803
 20
149.4182760434657
 11
137.2071584782375
 21
148.2805669029726
 72
     1
 10
137.2071584782375
 20
148.2805669029726
 11
137.0219442236927
 21
149.4182760434657
 97
        0
 75
     0
 76
     1
 98
        0
  0
POLYLINE
  5
155
330
1F
100
AcDbEntity
  8
Capa 1
370
     0
100
AcDb2dPolyline
 66
     1
 10
0.0
 20
0.0
 30
0.0
  0
VERTEX
  5
156
330
155
100
AcDbEntity
  8
Capa 1
370
     0
100
AcDbVertex
100
AcDb2dVertex
 10
137.0219442236927
 20
159.6576515792021
 30
0.0
  0
VERTEX
  5
157
330
155
100
AcDbEntity
  8
Capa 1
370
     0
100
AcDbVertex
100
AcDb2dVertex
 10
137.3923660040803
 20
159.6576515792021
 30
0.0
  0
VERTEX
  5
158
330
155
100
AcDbEntity
  8
Capa 1
370
     0
100
AcDbVertex
100
AcDb2dVertex
 10
137.2071584782375
 20
160.7953607196952
 30
0.0
  0
SEQEND
  5
15A
330
155
100
AcDbEntity
  8
Capa 1
370
     0
  0
HATCH
  5
159
330
1F
100
AcDbEntity
  8
Capa 1
 62
     7
420
 16777215
100
AcDbHatch
 10
0.0
 20
0.0
 30
0.0
210
0.0
220
0.0
230
1.0
  2
SOLID
 70
     1
 71
     0
 91
        1
 92
        1
 93
        3
 72
     1
 10
137.0219442236927
 20
159.6576515792021
 11
137.3923660040803
 21
159.6576515792021
 72
     1
 10
137.3923660040803
 20
159.6576515792021
 11
137.2071584782375
 21
160.7953607196952
 72
     1
 10
137.2071584782375
 20
160.7953607196952
 11
137.0219442236927
 21
159.6576515792021
 97
        0
 75
     0
 76
     1
 98
        0
  0
POLYLINE
  5
15B
330
1F
100
AcDbEntity
  8
Capa 1
 62
     7
420
 16777215
370
     9
100
AcDb2dPolyline
 66
     1
 10
0.0
 20
0.0
 30
0.0
  0
VERTEX
  5
15C
330
15B
100
AcDbEntity
  8
Capa 1
 62
     7
420
 16777215
370
     9
100
AcDbVertex
100
AcDb2dVertex
 10
155.3840272832874
 20
143.9678591090136
 30
0.0
  0
VERTEX
  5
15D
330
15B
100
AcDbEntity
  8
Capa 1
 62
     7
420
 16777215
370
     9
100
AcDbVertex
100
AcDb2dVertex
 10
152.1561141163528
 20
143.9678591090136
 30
0.0
  0
SEQEND
  5
15E
330
15B
100
AcDbEntity
  8
Capa 1
 62
     7
420
 16777215
370
     9
  0
POLYLINE
  5
15F
330
1F
100
AcDbEntity
  8
Capa 1
 62
     7
420
 16777215
370
     9
100
AcDb2dPolyline
 66
     1
 10
0.0
 20
0.0
 30
0.0
  0
VERTEX
  5
160
330
15F
100
AcDbEntity
  8
Capa 1
 62
     7
420
 16777215
370
     9
100
AcDbVertex
100
AcDb2dVertex
 10
143.874656323386
 20
143.9678591090136
 30
0.0
  0
VERTEX
  5
161
330
15F
100
AcDbEntity
  8
Capa 1
 62
     7
420
 16777215
370
     9
100
AcDbVertex
100
AcDb2dVertex
 10
147.0761122335862
 20
143.9678591090136
 30
0.0
  0
SEQEND
  5
162
330
15F
100
AcDbEntity
  8
Capa 1
 62
     7
420
 16777215
370
     9
  0
POLYLINE
  5
163
330
1F
100
AcDbEntity
  8
Capa 1
 62
     7
420
 16777215
370
     9
100
AcDb2dPolyline
 66
     1
 10
0.0
 20
0.0
 30
0.0
  0
VERTEX
  5
164
330
163
100
AcDbEntity
  8
Capa 1
 62
     7
420
 16777215
370
     9
100
AcDbVertex
100
AcDb2dVertex
 10
156.4952791670462
 20
147.3545292737587
 30
0.0
  0
VERTEX
  5
165
330
163
100
AcDbEntity
  8
Capa 1
 62
     7
420
 16777215
370
     9
100
AcDbVertex
100
AcDb2dVertex
 10
156.4952791670462
 20
143.33285803258
 30
0.0
  0
SEQEND
  5
166
330
163
100
AcDbEntity
  8
Capa 1
 62
     7
420
 16777215
370
     9
  0
POLYLINE
  5
167
330
1F
100
AcDbEntity
  8
Capa 1
 62
     7
420
 16777215
370
     9
100
AcDb2dPolyline
 66
     1
 10
0.0
 20
0.0
 30
0.0
  0
VERTEX
  5
168
330
167
100
AcDbEntity
  8
Capa 1
 62
     7
420
 16777215
370
     9
100
AcDbVertex
100
AcDb2dVertex
 10
142.7369471828928
 20
147.3545292737587
 30
0.0
  0
VERTEX
  5
169
330
167
100
AcDbEntity
  8
Capa 1
 62
     7
420
 16777215
370
     9
100
AcDbVertex
100
AcDb2dVertex
 10
142.7369471828928
 20
143.33285803258
 30
0.0
  0
SEQEND
  5
16A
330
167
100
AcDbEntity
  8
Capa 1
 62
     7
420
 16777215
370
     9
  0
POLYLINE
  5
16B
330
1F
100
AcDbEntity
  8
Capa 1
370
     0
100
AcDb2dPolyline
 66
     1
 10
0.0
 20
0.0
 30
0.0
  0
VERTEX
  5
16C
330
16B
100
AcDbEntity
  8
Capa 1
370
     0
100
AcDbVertex
100
AcDb2dVertex
 10
143.874656323386
 20
144.1530666348564
 30
0.0
  0
VERTEX
  5
16D
330
16B
100
AcDbEntity
  8
Capa 1
370
     0
100
AcDbVertex
100
AcDb2dVertex
 10
143.874656323386
 20
143.7826515831708
 30
0.0
  0
VERTEX
  5
16E
330
16B
100
AcDbEntity
  8
Capa 1
370
     0
100
AcDbVertex
100
AcDb2dVertex
 10
142.7369471828928
 20
143.9678591090136
 30
0.0
  0
SEQEND
  5
170
330
16B
100
AcDbEntity
  8
Capa 1
370
     0
  0
HATCH
  5
16F
330
1F
100
AcDbEntity
  8
Capa 1
 62
     7
420
 16777215
100
AcDbHatch
 10
0.0
 20
0.0
 30
0.0
210
0.0
220
0.0
230
1.0
  2
SOLID
 70
     1
 71
     0
 91
        1
 92
        1
 93
        3
 72
     1
 10
143.874656323386
 20
144.1530666348564
 11
143.874656323386
 21
143.7826515831708
 72
     1
 10
143.874656323386
 20
143.7826515831708
 11
142.7369471828928
 21
143.9678591090136
 72
     1
 10
142.7369471828928
 20
143.9678591090136
 11
143.874656323386
 21
144.1530666348563
 97
        0
 75
     0
 76
     1
 98
        0
  0
POLYLINE
  5
171
330
1F
100
AcDbEntity
  8
Capa 1
370
     0
100
AcDb2dPolyline
 66
     1
 10
0.0
 20
0.0
 30
0.0
  0
VERTEX
  5
172
330
171
100
AcDbEntity
  8
Capa 1
370
     0
100
AcDbVertex
100
AcDb2dVertex
 10
155.3840272832874
 20
144.1530666348564
 30
0.0
  0
VERTEX
  5
173
330
171
100
AcDbEntity
  8
Capa 1
370
     0
100
AcDbVertex
100
AcDb2dVertex
 10
155.3840272832874
 20
143.7826515831708
 30
0.0
  0
VERTEX
  5
174
330
171
100
AcDbEntity
  8
Capa 1
370
     0
100
AcDbVertex
100
AcDb2dVertex
 10
156.4952791670462
 20
143.9678591090136
 30
0.0
  0
SEQEND
  5
176
330
171
100
AcDbEntity
  8
Capa 1
370
     0
  0
HATCH
  5
175
330
1F
100
AcDbEntity
  8
Capa 1
 62
     7
420
 16777215
100
AcDbHatch
 10
0.0
 20
0.0
 30
0.0
210
0.0
220
0.0
230
1.0
  2
SOLID
 70
     1
 71
     0
 91
        1
 92
        1
 93
        3
 72
     1
 10
155.3840272832874
 20
144.1530666348564
 11
155.3840272832874
 21
143.7826515831708
 72
     1
 10
155.3840272832874
 20
143.7826515831708
 11
156.4952791670462
 21
143.9678591090136
 72
     1
 10
156.4952791670462
 20
143.9678591090136
 11
155.3840272832874
 21
144.1530666348563
 97
        0
 75
     0
 76
     1
 98
        0
  0
POLYLINE
  5
177
330
1F
100
AcDbEntity
  8
Capa 1
 62
     7
420
 16777215
370
     9
100
AcDb2dPolyline
 66
     1
 10
0.0
 20
0.0
 30
0.0
  0
VERTEX
  5
178
330
177
100
AcDbEntity
  8
Capa 1
 62
     7
420
 16777215
370
     9
100
AcDbVertex
100
AcDb2dVertex
 10
61.89781694719153
 20
95.86661504229676
 30
0.0
  0
VERTEX
  5
179
330
177
100
AcDbEntity
  8
Capa 1
 62
     7
420
 16777215
370
     9
100
AcDbVertex
100
AcDb2dVertex
 10
61.89781694719153
 20
98.19494783675184
 30
0.0
  0
SEQEND
  5
17A
330
177
100
AcDbEntity
  8
Capa 1
 62
     7
420
 16777215
370
     9
  0
POLYLINE
  5
17B
330
1F
100
AcDbEntity
  8
Capa 1
 62
     7
420
 16777215
370
     9
100
AcDb2dPolyline
 66
     1
 10
0.0
 20
0.0
 30
0.0
  0
VERTEX
  5
17C
330
17B
100
AcDbEntity
  8
Capa 1
 62
     7
420
 16777215
370
     9
100
AcDbVertex
100
AcDb2dVertex
 10
61.89781694719153
 20
103.6189075144696
 30
0.0
  0
VERTEX
  5
17D
330
17B
100
AcDbEntity
  8
Capa 1
 62
     7
420
 16777215
370
     9
100
AcDbVertex
100
AcDb2dVertex
 10
61.89781694719153
 20
101.3170319767489
 30
0.0
  0
SEQEND
  5
17E
330
17B
100
AcDbEntity
  8
Capa 1
 62
     7
420
 16777215
370
     9
  0
POLYLINE
  5
17F
330
1F
100
AcDbEntity
  8
Capa 1
 62
     7
420
 16777215
370
     9
100
AcDb2dPolyline
 66
     1
 10
0.0
 20
0.0
 30
0.0
  0
VERTEX
  5
180
330
17F
100
AcDbEntity
  8
Capa 1
 62
     7
420
 16777215
370
     9
100
AcDbVertex
100
AcDb2dVertex
 10
67.74521553147305
 20
94.75536652288903
 30
0.0
  0
VERTEX
  5
181
330
17F
100
AcDbEntity
  8
Capa 1
 62
     7
420
 16777215
370
     9
100
AcDbVertex
100
AcDb2dVertex
 10
61.28927480966785
 20
94.75536652288903
 30
0.0
  0
SEQEND
  5
182
330
17F
100
AcDbEntity
  8
Capa 1
 62
     7
420
 16777215
370
     9
  0
POLYLINE
  5
183
330
1F
100
AcDbEntity
  8
Capa 1
 62
     7
420
 16777215
370
     9
100
AcDb2dPolyline
 66
     1
 10
0.0
 20
0.0
 30
0.0
  0
VERTEX
  5
184
330
183
100
AcDbEntity
  8
Capa 1
 62
     7
420
 16777215
370
     9
100
AcDbVertex
100
AcDb2dVertex
 10
67.74521553147305
 20
104.7566132906117
 30
0.0
  0
VERTEX
  5
185
330
183
100
AcDbEntity
  8
Capa 1
 62
     7
420
 16777215
370
     9
100
AcDbVertex
100
AcDb2dVertex
 10
61.28927480966785
 20
104.7566132906117
 30
0.0
  0
SEQEND
  5
186
330
183
100
AcDbEntity
  8
Capa 1
 62
     7
420
 16777215
370
     9
  0
POLYLINE
  5
187
330
1F
100
AcDbEntity
  8
Capa 1
370
     0
100
AcDb2dPolyline
 66
     1
 10
0.0
 20
0.0
 30
0.0
  0
VERTEX
  5
188
330
187
100
AcDbEntity
  8
Capa 1
370
     0
100
AcDbVertex
100
AcDb2dVertex
 10
61.71260773917322
 20
103.6189075144696
 30
0.0
  0
VERTEX
  5
189
330
187
100
AcDbEntity
  8
Capa 1
370
     0
100
AcDbVertex
100
AcDb2dVertex
 10
62.10948341194422
 20
103.6189075144696
 30
0.0
  0
VERTEX
  5
18A
330
187
100
AcDbEntity
  8
Capa 1
370
     0
100
AcDbVertex
100
AcDb2dVertex
 10
61.89781694719153
 20
104.7566132906117
 30
0.0
  0
SEQEND
  5
18C
330
187
100
AcDbEntity
  8
Capa 1
370
     0
  0
HATCH
  5
18B
330
1F
100
AcDbEntity
  8
Capa 1
 62
     7
420
 16777215
100
AcDbHatch
 10
0.0
 20
0.0
 30
0.0
210
0.0
220
0.0
230
1.0
  2
SOLID
 70
     1
 71
     0
 91
        1
 92
        1
 93
        3
 72
     1
 10
61.71260773917322
 20
103.6189075144696
 11
62.10948341194422
 21
103.6189075144696
 72
     1
 10
62.10948341194422
 20
103.6189075144696
 11
61.89781694719153
 21
104.7566132906117
 72
     1
 10
61.89781694719153
 20
104.7566132906117
 11
61.71260773917322
 21
103.6189075144696
 97
        0
 75
     0
 76
     1
 98
        0
  0
POLYLINE
  5
18D
330
1F
100
AcDbEntity
  8
Capa 1
370
     0
100
AcDb2dPolyline
 66
     1
 10
0.0
 20
0.0
 30
0.0
  0
VERTEX
  5
18E
330
18D
100
AcDbEntity
  8
Capa 1
370
     0
100
AcDbVertex
100
AcDb2dVertex
 10
61.71260773917322
 20
95.86661504229676
 30
0.0
  0
VERTEX
  5
18F
330
18D
100
AcDbEntity
  8
Capa 1
370
     0
100
AcDbVertex
100
AcDb2dVertex
 10
62.10948341194422
 20
95.86661504229676
 30
0.0
  0
VERTEX
  5
190
330
18D
100
AcDbEntity
  8
Capa 1
370
     0
100
AcDbVertex
100
AcDb2dVertex
 10
61.89781694719153
 20
94.75536652288903
 30
0.0
  0
SEQEND
  5
192
330
18D
100
AcDbEntity
  8
Capa 1
370
     0
  0
HATCH
  5
191
330
1F
100
AcDbEntity
  8
Capa 1
 62
     7
420
 16777215
100
AcDbHatch
 10
0.0
 20
0.0
 30
0.0
210
0.0
220
0.0
230
1.0
  2
SOLID
 70
     1
 71
     0
 91
        1
 92
        1
 93
        3
 72
     1
 10
61.71260773917322
 20
95.86661504229676
 11
62.10948341194422
 21
95.86661504229676
 72
     1
 10
62.10948341194422
 20
95.86661504229676
 11
61.89781694719153
 21
94.75536652288903
 72
     1
 10
61.89781694719153
 20
94.75536652288903
 11
61.71260773917322
 21
95.86661504229676
 97
        0
 75
     0
 76
     1
 98
        0
  0
POLYLINE
  5
193
330
1F
100
AcDbEntity
  8
Capa 1
 62
     7
420
 16777215
370
     9
100
AcDb2dPolyline
 66
     1
 10
0.0
 20
0.0
 30
0.0
  0
VERTEX
  5
194
330
193
100
AcDbEntity
  8
Capa 1
 62
     7
420
 16777215
370
     9
100
AcDbVertex
100
AcDb2dVertex
 10
54.3571926219469
 20
108.6459881550653
 30
0.0
  0
VERTEX
  5
195
330
193
100
AcDbEntity
  8
Capa 1
 62
     7
420
 16777215
370
     9
100
AcDbVertex
100
AcDb2dVertex
 10
54.3571926219469
 20
90.86599165843542
 30
0.0
  0
SEQEND
  5
196
330
193
100
AcDbEntity
  8
Capa 1
 62
     7
420
 16777215
370
     9
  0
POLYLINE
  5
197
330
1F
100
AcDbEntity
  8
Capa 1
 62
     7
420
 16777215
370
     9
100
AcDb2dPolyline
 66
     1
 10
0.0
 20
0.0
 30
0.0
  0
VERTEX
  5
198
330
197
100
AcDbEntity
  8
Capa 1
 62
     7
420
 16777215
370
     9
100
AcDbVertex
100
AcDb2dVertex
 10
64.38500598781339
 20
88.6699485120033
 30
0.0
  0
VERTEX
  5
199
330
197
100
AcDbEntity
  8
Capa 1
 62
     7
420
 16777215
370
     9
100
AcDbVertex
100
AcDb2dVertex
 10
53.43114994620642
 20
88.6699485120033
 30
0.0
  0
SEQEND
  5
19A
330
197
100
AcDbEntity
  8
Capa 1
 62
     7
420
 16777215
370
     9
  0
POLYLINE
  5
19B
330
1F
100
AcDbEntity
  8
Capa 1
 62
     7
420
 16777215
370
     9
100
AcDb2dPolyline
 66
     1
 10
0.0
 20
0.0
 30
0.0
  0
VERTEX
  5
19C
330
19B
100
AcDbEntity
  8
Capa 1
 62
     7
420
 16777215
370
     9
100
AcDbVertex
100
AcDb2dVertex
 10
64.38500598781339
 20
110.815570680412
 30
0.0
  0
VERTEX
  5
19D
330
19B
100
AcDbEntity
  8
Capa 1
 62
     7
420
 16777215
370
     9
100
AcDbVertex
100
AcDb2dVertex
 10
53.43114994620642
 20
110.815570680412
 30
0.0
  0
SEQEND
  5
19E
330
19B
100
AcDbEntity
  8
Capa 1
 62
     7
420
 16777215
370
     9
  0
POLYLINE
  5
19F
330
1F
100
AcDbEntity
  8
Capa 1
370
     0
100
AcDb2dPolyline
 66
     1
 10
0.0
 20
0.0
 30
0.0
  0
VERTEX
  5
1A0
330
19F
100
AcDbEntity
  8
Capa 1
370
     0
100
AcDbVertex
100
AcDb2dVertex
 10
53.98677588808582
 20
108.6459881550653
 30
0.0
  0
VERTEX
  5
1A1
330
19F
100
AcDbEntity
  8
Capa 1
370
     0
100
AcDbVertex
100
AcDb2dVertex
 10
54.72760935580799
 20
108.6459881550653
 30
0.0
  0
VERTEX
  5
1A2
330
19F
100
AcDbEntity
  8
Capa 1
370
     0
100
AcDbVertex
100
AcDb2dVertex
 10
54.3571926219469
 20
110.815570680412
 30
0.0
  0
SEQEND
  5
1A4
330
19F
100
AcDbEntity
  8
Capa 1
370
     0
  0
HATCH
  5
1A3
330
1F
100
AcDbEntity
  8
Capa 1
 62
     7
420
 16777215
100
AcDbHatch
 10
0.0
 20
0.0
 30
0.0
210
0.0
220
0.0
230
1.0
  2
SOLID
 70
     1
 71
     0
 91
        1
 92
        1
 93
        3
 72
     1
 10
53.98677588808582
 20
108.6459881550653
 11
54.72760935580799
 21
108.6459881550653
 72
     1
 10
54.72760935580799
 20
108.6459881550653
 11
54.3571926219469
 21
110.815570680412
 72
     1
 10
54.3571926219469
 20
110.815570680412
 11
53.98677588808582
 21
108.6459881550653
 97
        0
 75
     0
 76
     1
 98
        0
  0
POLYLINE
  5
1A5
330
1F
100
AcDbEntity
  8
Capa 1
370
     0
100
AcDb2dPolyline
 66
     1
 10
0.0
 20
0.0
 30
0.0
  0
VERTEX
  5
1A6
330
1A5
100
AcDbEntity
  8
Capa 1
370
     0
100
AcDbVertex
100
AcDb2dVertex
 10
53.98677588808582
 20
90.86599165843542
 30
0.0
  0
VERTEX
  5
1A7
330
1A5
100
AcDbEntity
  8
Capa 1
370
     0
100
AcDbVertex
100
AcDb2dVertex
 10
54.72760935580799
 20
90.86599165843542
 30
0.0
  0
VERTEX
  5
1A8
330
1A5
100
AcDbEntity
  8
Capa 1
370
     0
100
AcDbVertex
100
AcDb2dVertex
 10
54.3571926219469
 20
88.6699485120033
 30
0.0
  0
SEQEND
  5
1AA
330
1A5
100
AcDbEntity
  8
Capa 1
370
     0
  0
HATCH
  5
1A9
330
1F
100
AcDbEntity
  8
Capa 1
 62
     7
420
 16777215
100
AcDbHatch
 10
0.0
 20
0.0
 30
0.0
210
0.0
220
0.0
230
1.0
  2
SOLID
 70
     1
 71
     0
 91
        1
 92
        1
 93
        3
 72
     1
 10
53.98677588808582
 20
90.86599165843542
 11
54.72760935580799
 21
90.86599165843542
 72
     1
 10
54.72760935580799
 20
90.86599165843542
 11
54.3571926219469
 21
88.6699485120033
 72
     1
 10
54.3571926219469
 20
88.6699485120033
 11
53.98677588808582
 21
90.86599165843542
 97
        0
 75
     0
 76
     1
 98
        0
  0
POLYLINE
  5
1AB
330
1F
100
AcDbEntity
  8
Capa 1
 62
     7
420
 16777215
370
     9
100
AcDb2dPolyline
 66
     1
 10
0.0
 20
0.0
 30
0.0
  0
VERTEX
  5
1AC
330
1AB
100
AcDbEntity
  8
Capa 1
 62
     7
420
 16777215
370
     9
100
AcDbVertex
100
AcDb2dVertex
 10
71.7668800439509
 20
115.8161940642733
 30
0.0
  0
VERTEX
  5
1AD
330
1AB
100
AcDbEntity
  8
Capa 1
 62
     7
420
 16777215
370
     9
100
AcDbVertex
100
AcDb2dVertex
 10
66.31646310949748
 20
115.8161940642733
 30
0.0
  0
SEQEND
  5
1AE
330
1AB
100
AcDbEntity
  8
Capa 1
 62
     7
420
 16777215
370
     9
  0
POLYLINE
  5
1AF
330
1F
100
AcDbEntity
  8
Capa 1
 62
     7
420
 16777215
370
     9
100
AcDb2dPolyline
 66
     1
 10
0.0
 20
0.0
 30
0.0
  0
VERTEX
  5
1B0
330
1AF
100
AcDbEntity
  8
Capa 1
 62
     7
420
 16777215
370
     9
100
AcDbVertex
100
AcDb2dVertex
 10
64.12042332741642
 20
110.41869164329
 30
0.0
  0
VERTEX
  5
1B1
330
1AF
100
AcDbEntity
  8
Capa 1
 62
     7
420
 16777215
370
     9
100
AcDbVertex
100
AcDb2dVertex
 10
64.12042332741642
 20
116.7422384221893
 30
0.0
  0
SEQEND
  5
1B2
330
1AF
100
AcDbEntity
  8
Capa 1
 62
     7
420
 16777215
370
     9
  0
POLYLINE
  5
1B3
330
1F
100
AcDbEntity
  8
Capa 1
 62
     7
420
 16777215
370
     9
100
AcDb2dPolyline
 66
     1
 10
0.0
 20
0.0
 30
0.0
  0
VERTEX
  5
1B4
330
1B3
100
AcDbEntity
  8
Capa 1
 62
     7
420
 16777215
370
     9
100
AcDbVertex
100
AcDb2dVertex
 10
73.93646256929631
 20
109.5720257842792
 30
0.0
  0
VERTEX
  5
1B5
330
1B3
100
AcDbEntity
  8
Capa 1
 62
     7
420
 16777215
370
     9
100
AcDbVertex
100
AcDb2dVertex
 10
73.93646256929631
 20
116.7422384221893
 30
0.0
  0
SEQEND
  5
1B6
330
1B3
100
AcDbEntity
  8
Capa 1
 62
     7
420
 16777215
370
     9
  0
POLYLINE
  5
1B7
330
1F
100
AcDbEntity
  8
Capa 1
370
     0
100
AcDb2dPolyline
 66
     1
 10
0.0
 20
0.0
 30
0.0
  0
VERTEX
  5
1B8
330
1B7
100
AcDbEntity
  8
Capa 1
370
     0
100
AcDbVertex
100
AcDb2dVertex
 10
71.7668800439509
 20
116.1866091159589
 30
0.0
  0
VERTEX
  5
1B9
330
1B7
100
AcDbEntity
  8
Capa 1
370
     0
100
AcDbVertex
100
AcDb2dVertex
 10
71.7668800439509
 20
115.4457790125878
 30
0.0
  0
VERTEX
  5
1BA
330
1B7
100
AcDbEntity
  8
Capa 1
370
     0
100
AcDbVertex
100
AcDb2dVertex
 10
73.93646256929631
 20
115.8161940642733
 30
0.0
  0
SEQEND
  5
1BC
330
1B7
100
AcDbEntity
  8
Capa 1
370
     0
  0
HATCH
  5
1BB
330
1F
100
AcDbEntity
  8
Capa 1
 62
     7
420
 16777215
100
AcDbHatch
 10
0.0
 20
0.0
 30
0.0
210
0.0
220
0.0
230
1.0
  2
SOLID
 70
     1
 71
     0
 91
        1
 92
        1
 93
        3
 72
     1
 10
71.7668800439509
 20
116.1866091159589
 11
71.7668800439509
 21
115.4457790125878
 72
     1
 10
71.7668800439509
 20
115.4457790125878
 11
73.93646256929631
 21
115.8161940642733
 72
     1
 10
73.93646256929631
 20
115.8161940642733
 11
71.7668800439509
 21
116.1866091159589
 97
        0
 75
     0
 76
     1
 98
        0
  0
POLYLINE
  5
1BD
330
1F
100
AcDbEntity
  8
Capa 1
370
     0
100
AcDb2dPolyline
 66
     1
 10
0.0
 20
0.0
 30
0.0
  0
VERTEX
  5
1BE
330
1BD
100
AcDbEntity
  8
Capa 1
370
     0
100
AcDbVertex
100
AcDb2dVertex
 10
66.31646310949748
 20
116.1866091159589
 30
0.0
  0
VERTEX
  5
1BF
330
1BD
100
AcDbEntity
  8
Capa 1
370
     0
100
AcDbVertex
100
AcDb2dVertex
 10
66.31646310949748
 20
115.4457790125878
 30
0.0
  0
VERTEX
  5
1C0
330
1BD
100
AcDbEntity
  8
Capa 1
370
     0
100
AcDbVertex
100
AcDb2dVertex
 10
64.12042332741642
 20
115.8161940642733
 30
0.0
  0
SEQEND
  5
1C2
330
1BD
100
AcDbEntity
  8
Capa 1
370
     0
  0
HATCH
  5
1C1
330
1F
100
AcDbEntity
  8
Capa 1
 62
     7
420
 16777215
100
AcDbHatch
 10
0.0
 20
0.0
 30
0.0
210
0.0
220
0.0
230
1.0
  2
SOLID
 70
     1
 71
     0
 91
        1
 92
        1
 93
        3
 72
     1
 10
66.31646310949748
 20
116.1866091159589
 11
66.31646310949748
 21
115.4457790125878
 72
     1
 10
66.31646310949748
 20
115.4457790125878
 11
64.12042332741642
 21
115.8161940642733
 72
     1
 10
64.12042332741642
 20
115.8161940642733
 11
66.31646310949748
 21
116.1866091159589
 97
        0
 75
     0
 76
     1
 98
        0
  0
POLYLINE
  5
1C3
330
1F
100
AcDbEntity
  8
Capa 1
 62
     7
420
 16777215
370
     9
100
AcDb2dPolyline
 66
     1
 10
0.0
 20
0.0
 30
0.0
  0
VERTEX
  5
1C4
330
1C3
100
AcDbEntity
  8
Capa 1
 62
     7
420
 16777215
370
     9
100
AcDbVertex
100
AcDb2dVertex
 10
80.26000598384465
 20
115.7368222940702
 30
0.0
  0
VERTEX
  5
1C5
330
1C3
100
AcDbEntity
  8
Capa 1
 62
     7
420
 16777215
370
     9
100
AcDbVertex
100
AcDb2dVertex
 10
103.1729188767099
 20
115.7368222940702
 30
0.0
  0
SEQEND
  5
1C6
330
1C3
100
AcDbEntity
  8
Capa 1
 62
     7
420
 16777215
370
     9
  0
POLYLINE
  5
1C7
330
1F
100
AcDbEntity
  8
Capa 1
 62
     7
420
 16777215
370
     9
100
AcDb2dPolyline
 66
     1
 10
0.0
 20
0.0
 30
0.0
  0
VERTEX
  5
1C8
330
1C7
100
AcDbEntity
  8
Capa 1
 62
     7
420
 16777215
370
     9
100
AcDbVertex
100
AcDb2dVertex
 10
105.368958658791
 20
99.75598990675037
 30
0.0
  0
VERTEX
  5
1C9
330
1C7
100
AcDbEntity
  8
Capa 1
 62
     7
420
 16777215
370
     9
100
AcDbVertex
100
AcDb2dVertex
 10
105.368958658791
 20
116.6628599232841
 30
0.0
  0
SEQEND
  5
1CA
330
1C7
100
AcDbEntity
  8
Capa 1
 62
     7
420
 16777215
370
     9
  0
POLYLINE
  5
1CB
330
1F
100
AcDbEntity
  8
Capa 1
 62
     7
420
 16777215
370
     9
100
AcDb2dPolyline
 66
     1
 10
0.0
 20
0.0
 30
0.0
  0
VERTEX
  5
1CC
330
1CB
100
AcDbEntity
  8
Capa 1
 62
     7
420
 16777215
370
     9
100
AcDbVertex
100
AcDb2dVertex
 10
78.06396283741252
 20
104.7566132906117
 30
0.0
  0
VERTEX
  5
1CD
330
1CB
100
AcDbEntity
  8
Capa 1
 62
     7
420
 16777215
370
     9
100
AcDbVertex
100
AcDb2dVertex
 10
78.06396283741252
 20
116.6628599232841
 30
0.0
  0
SEQEND
  5
1CE
330
1CB
100
AcDbEntity
  8
Capa 1
 62
     7
420
 16777215
370
     9
  0
POLYLINE
  5
1CF
330
1F
100
AcDbEntity
  8
Capa 1
370
     0
100
AcDb2dPolyline
 66
     1
 10
0.0
 20
0.0
 30
0.0
  0
VERTEX
  5
1D0
330
1CF
100
AcDbEntity
  8
Capa 1
370
     0
100
AcDbVertex
100
AcDb2dVertex
 10
80.26000598384465
 20
116.1072373457558
 30
0.0
  0
VERTEX
  5
1D1
330
1CF
100
AcDbEntity
  8
Capa 1
370
     0
100
AcDbVertex
100
AcDb2dVertex
 10
80.26000598384465
 20
115.3664005136825
 30
0.0
  0
VERTEX
  5
1D2
330
1CF
100
AcDbEntity
  8
Capa 1
370
     0
100
AcDbVertex
100
AcDb2dVertex
 10
78.06396283741252
 20
115.7368222940702
 30
0.0
  0
SEQEND
  5
1D4
330
1CF
100
AcDbEntity
  8
Capa 1
370
     0
  0
HATCH
  5
1D3
330
1F
100
AcDbEntity
  8
Capa 1
 62
     7
420
 16777215
100
AcDbHatch
 10
0.0
 20
0.0
 30
0.0
210
0.0
220
0.0
230
1.0
  2
SOLID
 70
     1
 71
     0
 91
        1
 92
        1
 93
        3
 72
     1
 10
80.26000598384465
 20
116.1072373457558
 11
80.26000598384465
 21
115.3664005136825
 72
     1
 10
80.26000598384465
 20
115.3664005136825
 11
78.06396283741253
 21
115.7368222940702
 72
     1
 10
78.06396283741252
 20
115.7368222940702
 11
80.26000598384464
 21
116.1072373457558
 97
        0
 75
     0
 76
     1
 98
        0
  0
POLYLINE
  5
1D5
330
1F
100
AcDbEntity
  8
Capa 1
370
     0
100
AcDb2dPolyline
 66
     1
 10
0.0
 20
0.0
 30
0.0
  0
VERTEX
  5
1D6
330
1D5
100
AcDbEntity
  8
Capa 1
370
     0
100
AcDbVertex
100
AcDb2dVertex
 10
103.1729188767099
 20
116.1072373457558
 30
0.0
  0
VERTEX
  5
1D7
330
1D5
100
AcDbEntity
  8
Capa 1
370
     0
100
AcDbVertex
100
AcDb2dVertex
 10
103.1729188767099
 20
115.3664005136825
 30
0.0
  0
VERTEX
  5
1D8
330
1D5
100
AcDbEntity
  8
Capa 1
370
     0
100
AcDbVertex
100
AcDb2dVertex
 10
105.368958658791
 20
115.7368222940702
 30
0.0
  0
SEQEND
  5
1DA
330
1D5
100
AcDbEntity
  8
Capa 1
370
     0
  0
HATCH
  5
1D9
330
1F
100
AcDbEntity
  8
Capa 1
 62
     7
420
 16777215
100
AcDbHatch
 10
0.0
 20
0.0
 30
0.0
210
0.0
220
0.0
230
1.0
  2
SOLID
 70
     1
 71
     0
 91
        1
 92
        1
 93
        3
 72
     1
 10
103.1729188767099
 20
116.1072373457558
 11
103.1729188767099
 21
115.3664005136825
 72
     1
 10
103.1729188767099
 20
115.3664005136825
 11
105.368958658791
 21
115.7368222940702
 72
     1
 10
105.368958658791
 20
115.7368222940702
 11
103.1729188767099
 21
116.1072373457558
 97
        0
 75
     0
 76
     1
 98
        0
  0
POLYLINE
  5
1DB
330
1F
100
AcDbEntity
  8
Capa 1
 62
     7
420
 16777215
370
     9
100
AcDb2dPolyline
 66
     1
 10
0.0
 20
0.0
 30
0.0
  0
VERTEX
  5
1DC
330
1DB
100
AcDbEntity
  8
Capa 1
 62
     7
420
 16777215
370
     9
100
AcDbVertex
100
AcDb2dVertex
 10
112.8302145781835
 20
108.8047384241737
 30
0.0
  0
VERTEX
  5
1DD
330
1DB
100
AcDbEntity
  8
Capa 1
 62
     7
420
 16777215
370
     9
100
AcDbVertex
100
AcDb2dVertex
 10
112.8302145781835
 20
90.68078413259265
 30
0.0
  0
SEQEND
  5
1DE
330
1DB
100
AcDbEntity
  8
Capa 1
 62
     7
420
 16777215
370
     9
  0
POLYLINE
  5
1DF
330
1F
100
AcDbEntity
  8
Capa 1
 62
     7
420
 16777215
370
     9
100
AcDb2dPolyline
 66
     1
 10
0.0
 20
0.0
 30
0.0
  0
VERTEX
  5
1E0
330
1DF
100
AcDbEntity
  8
Capa 1
 62
     7
420
 16777215
370
     9
100
AcDbVertex
100
AcDb2dVertex
 10
94.12416699493549
 20
88.5111982428949
 30
0.0
  0
VERTEX
  5
1E1
330
1DF
100
AcDbEntity
  8
Capa 1
 62
     7
420
 16777215
370
     9
100
AcDbVertex
100
AcDb2dVertex
 10
113.7562522073974
 20
88.5111982428949
 30
0.0
  0
SEQEND
  5
1E2
330
1DF
100
AcDbEntity
  8
Capa 1
 62
     7
420
 16777215
370
     9
  0
POLYLINE
  5
1E3
330
1F
100
AcDbEntity
  8
Capa 1
 62
     7
420
 16777215
370
     9
100
AcDb2dPolyline
 66
     1
 10
0.0
 20
0.0
 30
0.0
  0
VERTEX
  5
1E4
330
1E3
100
AcDbEntity
  8
Capa 1
 62
     7
420
 16777215
370
     9
100
AcDbVertex
100
AcDb2dVertex
 10
94.12416699493549
 20
111.0007782062548
 30
0.0
  0
VERTEX
  5
1E5
330
1E3
100
AcDbEntity
  8
Capa 1
 62
     7
420
 16777215
370
     9
100
AcDbVertex
100
AcDb2dVertex
 10
113.7562522073974
 20
111.0007782062548
 30
0.0
  0
SEQEND
  5
1E6
330
1E3
100
AcDbEntity
  8
Capa 1
 62
     7
420
 16777215
370
     9
  0
POLYLINE
  5
1E7
330
1F
100
AcDbEntity
  8
Capa 1
370
     0
100
AcDb2dPolyline
 66
     1
 10
0.0
 20
0.0
 30
0.0
  0
VERTEX
  5
1E8
330
1E7
100
AcDbEntity
  8
Capa 1
370
     0
100
AcDbVertex
100
AcDb2dVertex
 10
112.4597927977958
 20
108.8047384241737
 30
0.0
  0
VERTEX
  5
1E9
330
1E7
100
AcDbEntity
  8
Capa 1
370
     0
100
AcDbVertex
100
AcDb2dVertex
 10
113.1741723731347
 20
108.8047384241737
 30
0.0
  0
VERTEX
  5
1EA
330
1E7
100
AcDbEntity
  8
Capa 1
370
     0
100
AcDbVertex
100
AcDb2dVertex
 10
112.8302145781835
 20
111.0007782062548
 30
0.0
  0
SEQEND
  5
1EC
330
1E7
100
AcDbEntity
  8
Capa 1
370
     0
  0
HATCH
  5
1EB
330
1F
100
AcDbEntity
  8
Capa 1
 62
     7
420
 16777215
100
AcDbHatch
 10
0.0
 20
0.0
 30
0.0
210
0.0
220
0.0
230
1.0
  2
SOLID
 70
     1
 71
     0
 91
        1
 92
        1
 93
        3
 72
     1
 10
112.4597927977958
 20
108.8047384241737
 11
113.1741723731347
 21
108.8047384241737
 72
     1
 10
113.1741723731347
 20
108.8047384241737
 11
112.8302145781835
 21
111.0007782062548
 72
     1
 10
112.8302145781835
 20
111.0007782062548
 11
112.4597927977958
 21
108.8047384241737
 97
        0
 75
     0
 76
     1
 98
        0
  0
POLYLINE
  5
1ED
330
1F
100
AcDbEntity
  8
Capa 1
370
     0
100
AcDb2dPolyline
 66
     1
 10
0.0
 20
0.0
 30
0.0
  0
VERTEX
  5
1EE
330
1ED
100
AcDbEntity
  8
Capa 1
370
     0
100
AcDbVertex
100
AcDb2dVertex
 10
112.4597927977958
 20
90.68078413259265
 30
0.0
  0
VERTEX
  5
1EF
330
1ED
100
AcDbEntity
  8
Capa 1
370
     0
100
AcDbVertex
100
AcDb2dVertex
 10
113.1741723731347
 20
90.68078413259265
 30
0.0
  0
VERTEX
  5
1F0
330
1ED
100
AcDbEntity
  8
Capa 1
370
     0
100
AcDbVertex
100
AcDb2dVertex
 10
112.8302145781835
 20
88.5111982428949
 30
0.0
  0
SEQEND
  5
1F2
330
1ED
100
AcDbEntity
  8
Capa 1
370
     0
  0
HATCH
  5
1F1
330
1F
100
AcDbEntity
  8
Capa 1
 62
     7
420
 16777215
100
AcDbHatch
 10
0.0
 20
0.0
 30
0.0
210
0.0
220
0.0
230
1.0
  2
SOLID
 70
     1
 71
     0
 91
        1
 92
        1
 93
        3
 72
     1
 10
112.4597927977958
 20
90.68078413259265
 11
113.1741723731347
 21
90.68078413259265
 72
     1
 10
113.1741723731347
 20
90.68078413259265
 11
112.8302145781835
 21
88.5111982428949
 72
     1
 10
112.8302145781835
 20
88.5111982428949
 11
112.4597927977958
 21
90.68078413259265
 97
        0
 75
     0
 76
     1
 98
        0
  0
POLYLINE
  5
1F3
330
1F
100
AcDbEntity
  8
Capa 1
 62
     7
420
 16777215
370
     9
100
AcDb2dPolyline
 66
     1
 10
0.0
 20
0.0
 30
0.0
  0
VERTEX
  5
1F4
330
1F3
100
AcDbEntity
  8
Capa 1
 62
     7
420
 16777215
370
     9
100
AcDbVertex
100
AcDb2dVertex
 10
66.31646310949748
 20
80.97057391765027
 30
0.0
  0
VERTEX
  5
1F5
330
1F3
100
AcDbEntity
  8
Capa 1
 62
     7
420
 16777215
370
     9
100
AcDbVertex
100
AcDb2dVertex
 10
103.1729188767099
 20
80.97057391765027
 30
0.0
  0
SEQEND
  5
1F6
330
1F3
100
AcDbEntity
  8
Capa 1
 62
     7
420
 16777215
370
     9
  0
POLYLINE
  5
1F7
330
1F
100
AcDbEntity
  8
Capa 1
 62
     7
420
 16777215
370
     9
100
AcDb2dPolyline
 66
     1
 10
0.0
 20
0.0
 30
0.0
  0
VERTEX
  5
1F8
330
1F7
100
AcDbEntity
  8
Capa 1
 62
     7
420
 16777215
370
     9
100
AcDbVertex
100
AcDb2dVertex
 10
105.368958658791
 20
99.75598990675037
 30
0.0
  0
VERTEX
  5
1F9
330
1F7
100
AcDbEntity
  8
Capa 1
 62
     7
420
 16777215
370
     9
100
AcDbVertex
100
AcDb2dVertex
 10
105.368958658791
 20
80.01807566735096
 30
0.0
  0
SEQEND
  5
1FA
330
1F7
100
AcDbEntity
  8
Capa 1
 62
     7
420
 16777215
370
     9
  0
POLYLINE
  5
1FB
330
1F
100
AcDbEntity
  8
Capa 1
 62
     7
420
 16777215
370
     9
100
AcDb2dPolyline
 66
     1
 10
0.0
 20
0.0
 30
0.0
  0
VERTEX
  5
1FC
330
1FB
100
AcDbEntity
  8
Capa 1
 62
     7
420
 16777215
370
     9
100
AcDbVertex
100
AcDb2dVertex
 10
64.12042332741642
 20
88.93453453675134
 30
0.0
  0
VERTEX
  5
1FD
330
1FB
100
AcDbEntity
  8
Capa 1
 62
     7
420
 16777215
370
     9
100
AcDbVertex
100
AcDb2dVertex
 10
64.12042332741642
 20
80.01807566735096
 30
0.0
  0
SEQEND
  5
1FE
330
1FB
100
AcDbEntity
  8
Capa 1
 62
     7
420
 16777215
370
     9
  0
POLYLINE
  5
1FF
330
1F
100
AcDbEntity
  8
Capa 1
370
     0
100
AcDb2dPolyline
 66
     1
 10
0.0
 20
0.0
 30
0.0
  0
VERTEX
  5
200
330
1FF
100
AcDbEntity
  8
Capa 1
370
     0
100
AcDbVertex
100
AcDb2dVertex
 10
66.31646310949748
 20
81.31453171260145
 30
0.0
  0
VERTEX
  5
201
330
1FF
100
AcDbEntity
  8
Capa 1
370
     0
100
AcDbVertex
100
AcDb2dVertex
 10
66.31646310949748
 20
80.60015886596472
 30
0.0
  0
VERTEX
  5
202
330
1FF
100
AcDbEntity
  8
Capa 1
370
     0
100
AcDbVertex
100
AcDb2dVertex
 10
64.12042332741642
 20
80.97057391765027
 30
0.0
  0
SEQEND
  5
204
330
1FF
100
AcDbEntity
  8
Capa 1
370
     0
  0
HATCH
  5
203
330
1F
100
AcDbEntity
  8
Capa 1
 62
     7
420
 16777215
100
AcDbHatch
 10
0.0
 20
0.0
 30
0.0
210
0.0
220
0.0
230
1.0
  2
SOLID
 70
     1
 71
     0
 91
        1
 92
        1
 93
        3
 72
     1
 10
66.31646310949748
 20
81.31453171260145
 11
66.31646310949748
 21
80.60015886596472
 72
     1
 10
66.31646310949748
 20
80.60015886596472
 11
64.12042332741642
 21
80.97057391765027
 72
     1
 10
64.12042332741642
 20
80.97057391765027
 11
66.31646310949748
 21
81.31453171260145
 97
        0
 75
     0
 76
     1
 98
        0
  0
POLYLINE
  5
205
330
1F
100
AcDbEntity
  8
Capa 1
370
     0
100
AcDb2dPolyline
 66
     1
 10
0.0
 20
0.0
 30
0.0
  0
VERTEX
  5
206
330
205
100
AcDbEntity
  8
Capa 1
370
     0
100
AcDbVertex
100
AcDb2dVertex
 10
103.1729188767099
 20
81.31453171260145
 30
0.0
  0
VERTEX
  5
207
330
205
100
AcDbEntity
  8
Capa 1
370
     0
100
AcDbVertex
100
AcDb2dVertex
 10
103.1729188767099
 20
80.60015886596472
 30
0.0
  0
VERTEX
  5
208
330
205
100
AcDbEntity
  8
Capa 1
370
     0
100
AcDbVertex
100
AcDb2dVertex
 10
105.368958658791
 20
80.97057391765027
 30
0.0
  0
SEQEND
  5
20A
330
205
100
AcDbEntity
  8
Capa 1
370
     0
  0
HATCH
  5
209
330
1F
100
AcDbEntity
  8
Capa 1
 62
     7
420
 16777215
100
AcDbHatch
 10
0.0
 20
0.0
 30
0.0
210
0.0
220
0.0
230
1.0
  2
SOLID
 70
     1
 71
     0
 91
        1
 92
        1
 93
        3
 72
     1
 10
103.1729188767099
 20
81.31453171260145
 11
103.1729188767099
 21
80.60015886596472
 72
     1
 10
103.1729188767099
 20
80.60015886596472
 11
105.368958658791
 21
80.97057391765027
 72
     1
 10
105.368958658791
 20
80.97057391765027
 11
103.1729188767099
 21
81.31453171260145
 97
        0
 75
     0
 76
     1
 98
        0
  0
POLYLINE
  5
20B
330
1F
100
AcDbEntity
  8
Capa 1
 62
     7
420
 16777215
370
     9
100
AcDb2dPolyline
 66
     1
 10
0.0
 20
0.0
 30
0.0
  0
VERTEX
  5
20C
330
20B
100
AcDbEntity
  8
Capa 1
 62
     7
420
 16777215
370
     9
100
AcDbVertex
100
AcDb2dVertex
 10
61.95073314283582
 20
84.4630731093329
 30
0.0
  0
VERTEX
  5
20D
330
20B
100
AcDbEntity
  8
Capa 1
 62
     7
420
 16777215
370
     9
100
AcDbVertex
100
AcDb2dVertex
 10
56.26219248689661
 20
84.4630731093329
 30
0.0
  0
SEQEND
  5
20E
330
20B
100
AcDbEntity
  8
Capa 1
 62
     7
420
 16777215
370
     9
  0
POLYLINE
  5
20F
330
1F
100
AcDbEntity
  8
Capa 1
 62
     7
420
 16777215
370
     9
100
AcDb2dPolyline
 66
     1
 10
0.0
 20
0.0
 30
0.0
  0
VERTEX
  5
210
330
20F
100
AcDbEntity
  8
Capa 1
 62
     7
420
 16777215
370
     9
100
AcDbVertex
100
AcDb2dVertex
 10
68.69771378177238
 20
84.4630731093329
 30
0.0
  0
VERTEX
  5
211
330
20F
100
AcDbEntity
  8
Capa 1
 62
     7
420
 16777215
370
     9
100
AcDbVertex
100
AcDb2dVertex
 10
70.86729630711906
 20
84.4630731093329
 30
0.0
  0
SEQEND
  5
212
330
20F
100
AcDbEntity
  8
Capa 1
 62
     7
420
 16777215
370
     9
  0
POLYLINE
  5
213
330
1F
100
AcDbEntity
  8
Capa 1
 62
     7
420
 16777215
370
     9
100
AcDb2dPolyline
 66
     1
 10
0.0
 20
0.0
 30
0.0
  0
VERTEX
  5
214
330
213
100
AcDbEntity
  8
Capa 1
 62
     7
420
 16777215
370
     9
100
AcDbVertex
100
AcDb2dVertex
 10
64.12042332741642
 20
88.93453453675134
 30
0.0
  0
VERTEX
  5
215
330
213
100
AcDbEntity
  8
Capa 1
 62
     7
420
 16777215
370
     9
100
AcDbVertex
100
AcDb2dVertex
 10
64.12042332741642
 20
83.53703211576796
 30
0.0
  0
SEQEND
  5
216
330
213
100
AcDbEntity
  8
Capa 1
 62
     7
420
 16777215
370
     9
  0
POLYLINE
  5
217
330
1F
100
AcDbEntity
  8
Capa 1
 62
     7
420
 16777215
370
     9
100
AcDb2dPolyline
 66
     1
 10
0.0
 20
0.0
 30
0.0
  0
VERTEX
  5
218
330
217
100
AcDbEntity
  8
Capa 1
 62
     7
420
 16777215
370
     9
100
AcDbVertex
100
AcDb2dVertex
 10
66.50167399969132
 20
92.29474071605995
 30
0.0
  0
VERTEX
  5
219
330
217
100
AcDbEntity
  8
Capa 1
 62
     7
420
 16777215
370
     9
100
AcDbVertex
100
AcDb2dVertex
 10
66.50167399969132
 20
83.53703211576796
 30
0.0
  0
SEQEND
  5
21A
330
217
100
AcDbEntity
  8
Capa 1
 62
     7
420
 16777215
370
     9
  0
POLYLINE
  5
21B
330
1F
100
AcDbEntity
  8
Capa 1
370
     0
100
AcDb2dPolyline
 66
     1
 10
0.0
 20
0.0
 30
0.0
  0
VERTEX
  5
21C
330
21B
100
AcDbEntity
  8
Capa 1
370
     0
100
AcDbVertex
100
AcDb2dVertex
 10
68.69771378177238
 20
84.83349152536951
 30
0.0
  0
VERTEX
  5
21D
330
21B
100
AcDbEntity
  8
Capa 1
370
     0
100
AcDbVertex
100
AcDb2dVertex
 10
68.69771378177238
 20
84.11911531438172
 30
0.0
  0
VERTEX
  5
21E
330
21B
100
AcDbEntity
  8
Capa 1
370
     0
100
AcDbVertex
100
AcDb2dVertex
 10
66.50167399969132
 20
84.4630731093329
 30
0.0
  0
SEQEND
  5
220
330
21B
100
AcDbEntity
  8
Capa 1
370
     0
  0
HATCH
  5
21F
330
1F
100
AcDbEntity
  8
Capa 1
 62
     7
420
 16777215
100
AcDbHatch
 10
0.0
 20
0.0
 30
0.0
210
0.0
220
0.0
230
1.0
  2
SOLID
 70
     1
 71
     0
 91
        1
 92
        1
 93
        3
 72
     1
 10
68.69771378177238
 20
84.83349152536951
 11
68.69771378177238
 21
84.11911531438172
 72
     1
 10
68.69771378177238
 20
84.11911531438172
 11
66.50167399969132
 21
84.4630731093329
 72
     1
 10
66.50167399969132
 20
84.4630731093329
 11
68.69771378177238
 21
84.83349152536951
 97
        0
 75
     0
 76
     1
 98
        0
  0
POLYLINE
  5
221
330
1F
100
AcDbEntity
  8
Capa 1
370
     0
100
AcDb2dPolyline
 66
     1
 10
0.0
 20
0.0
 30
0.0
  0
VERTEX
  5
222
330
221
100
AcDbEntity
  8
Capa 1
370
     0
100
AcDbVertex
100
AcDb2dVertex
 10
61.95073314283582
 20
84.83349152536951
 30
0.0
  0
VERTEX
  5
223
330
221
100
AcDbEntity
  8
Capa 1
370
     0
100
AcDbVertex
100
AcDb2dVertex
 10
61.95073314283582
 20
84.11911531438172
 30
0.0
  0
VERTEX
  5
224
330
221
100
AcDbEntity
  8
Capa 1
370
     0
100
AcDbVertex
100
AcDb2dVertex
 10
64.12042332741642
 20
84.4630731093329
 30
0.0
  0
SEQEND
  5
226
330
221
100
AcDbEntity
  8
Capa 1
370
     0
  0
HATCH
  5
225
330
1F
100
AcDbEntity
  8
Capa 1
 62
     7
420
 16777215
100
AcDbHatch
 10
0.0
 20
0.0
 30
0.0
210
0.0
220
0.0
230
1.0
  2
SOLID
 70
     1
 71
     0
 91
        1
 92
        1
 93
        3
 72
     1
 10
61.95073314283582
 20
84.83349152536951
 11
61.95073314283582
 21
84.11911531438172
 72
     1
 10
61.95073314283582
 20
84.11911531438172
 11
64.12042332741642
 21
84.4630731093329
 72
     1
 10
64.12042332741642
 20
84.4630731093329
 11
61.95073314283582
 21
84.83349152536951
 97
        0
 75
     0
 76
     1
 98
        0
  0
POLYLINE
  5
227
330
1F
100
AcDbEntity
  8
Capa 1
 62
     7
420
 16777215
370
     9
100
AcDb2dPolyline
 66
     1
 10
0.0
 20
0.0
 30
0.0
  0
VERTEX
  5
228
330
227
100
AcDbEntity
  8
Capa 1
 62
     7
420
 16777215
370
     9
100
AcDbVertex
100
AcDb2dVertex
 10
143.3190337458577
 20
163.0707790006815
 30
0.0
  0
VERTEX
  5
229
330
227
100
AcDbEntity
  8
Capa 1
 62
     7
420
 16777215
370
     9
100
AcDbVertex
100
AcDb2dVertex
 10
143.080904977844
 20
159.3666082977196
 30
0.0
  0
VERTEX
  5
22A
330
227
100
AcDbEntity
  8
Capa 1
 62
     7
420
 16777215
370
     9
100
AcDbVertex
100
AcDb2dVertex
 10
142.9221547087356
 20
155.6889015801943
 30
0.0
  0
VERTEX
  5
22B
330
227
100
AcDbEntity
  8
Capa 1
 62
     7
420
 16777215
370
     9
100
AcDbVertex
100
AcDb2dVertex
 10
142.816318953096
 20
151.9847376059345
 30
0.0
  0
VERTEX
  5
22C
330
227
100
AcDbEntity
  8
Capa 1
 62
     7
420
 16777215
370
     9
100
AcDbVertex
100
AcDb2dVertex
 10
142.7369471828928
 20
148.2805669029726
 30
0.0
  0
SEQEND
  5
22D
330
227
100
AcDbEntity
  8
Capa 1
 62
     7
420
 16777215
370
     9
  0
POLYLINE
  5
22E
330
1F
100
AcDbEntity
  8
Capa 1
 62
     7
420
 16777215
370
     9
100
AcDb2dPolyline
 66
     1
 10
0.0
 20
0.0
 30
0.0
  0
VERTEX
  5
22F
330
22E
100
AcDbEntity
  8
Capa 1
 62
     7
420
 16777215
370
     9
100
AcDbVertex
100
AcDb2dVertex
 10
156.4952791670462
 20
148.2805669029726
 30
0.0
  0
VERTEX
  5
230
330
22E
100
AcDbEntity
  8
Capa 1
 62
     7
420
 16777215
370
     9
100
AcDbVertex
100
AcDb2dVertex
 10
156.4688219103118
 20
150.3972349148505
 30
0.0
  0
VERTEX
  5
231
330
22E
100
AcDbEntity
  8
Capa 1
 62
     7
420
 16777215
370
     9
100
AcDbVertex
100
AcDb2dVertex
 10
156.415907396843
 20
152.4609816845575
 30
0.0
  0
VERTEX
  5
232
330
22E
100
AcDbEntity
  8
Capa 1
 62
     7
420
 16777215
370
     9
100
AcDbVertex
100
AcDb2dVertex
 10
156.3629861546721
 20
154.3659849138583
 30
0.0
  0
VERTEX
  5
233
330
22E
100
AcDbEntity
  8
Capa 1
 62
     7
420
 16777215
370
     9
100
AcDbVertex
100
AcDb2dVertex
 10
156.3100716412034
 20
156.1916096442538
 30
0.0
  0
VERTEX
  5
234
330
22E
100
AcDbEntity
  8
Capa 1
 62
     7
420
 16777215
370
     9
100
AcDbVertex
100
AcDb2dVertex
 10
156.1248641153606
 20
159.6841088359364
 30
0.0
  0
VERTEX
  5
235
330
22E
100
AcDbEntity
  8
Capa 1
 62
     7
420
 16777215
370
     9
100
AcDbVertex
100
AcDb2dVertex
 10
155.9396565895178
 20
163.0707790006815
 30
0.0
  0
SEQEND
  5
236
330
22E
100
AcDbEntity
  8
Capa 1
 62
     7
420
 16777215
370
     9
  0
POLYLINE
  5
237
330
1F
100
AcDbEntity
  8
Capa 1
 62
     7
420
 16777215
370
     9
100
AcDb2dPolyline
 66
     1
 10
0.0
 20
0.0
 30
0.0
  0
VERTEX
  5
238
330
237
100
AcDbEntity
  8
Capa 1
 62
     7
420
 16777215
370
     9
100
AcDbVertex
100
AcDb2dVertex
 10
139.8529918109094
 20
173.2836838222792
 30
0.0
  0
VERTEX
  5
239
330
237
100
AcDbEntity
  8
Capa 1
 62
     7
420
 16777215
370
     9
100
AcDbVertex
100
AcDb2dVertex
 10
139.8794490676438
 20
173.2836838222792
 30
0.0
  0
SEQEND
  5
23A
330
237
100
AcDbEntity
  8
Capa 1
 62
     7
420
 16777215
370
     9
  0
POLYLINE
  5
23B
330
1F
100
AcDbEntity
  8
Capa 1
 62
     7
420
 16777215
370
     9
100
AcDb2dPolyline
 66
     1
 10
0.0
 20
0.0
 30
0.0
  0
VERTEX
  5
23C
330
23B
100
AcDbEntity
  8
Capa 1
 62
     7
420
 16777215
370
     9
100
AcDbVertex
100
AcDb2dVertex
 10
138.7417399271506
 20
173.2836838222792
 30
0.0
  0
VERTEX
  5
23D
330
23B
100
AcDbEntity
  8
Capa 1
 62
     7
420
 16777215
370
     9
100
AcDbVertex
100
AcDb2dVertex
 10
138.5565324013079
 20
173.2307693088105
 30
0.0
  0
VERTEX
  5
23E
330
23B
100
AcDbEntity
  8
Capa 1
 62
     7
420
 16777215
370
     9
100
AcDbVertex
100
AcDb2dVertex
 10
138.4242393889338
 20
173.0984830251386
 30
0.0
  0
VERTEX
  5
23F
330
23B
100
AcDbEntity
  8
Capa 1
 62
     7
420
 16777215
370
     9
100
AcDbVertex
100
AcDb2dVertex
 10
138.3713248754651
 20
172.9132687705937
 30
0.0
  0
SEQEND
  5
240
330
23B
100
AcDbEntity
  8
Capa 1
 62
     7
420
 16777215
370
     9
  0
POLYLINE
  5
241
330
1F
100
AcDbEntity
  8
Capa 1
 62
     7
420
 16777215
370
     9
100
AcDb2dPolyline
 66
     1
 10
0.0
 20
0.0
 30
0.0
  0
VERTEX
  5
242
330
241
100
AcDbEntity
  8
Capa 1
 62
     7
420
 16777215
370
     9
100
AcDbVertex
100
AcDb2dVertex
 10
138.7417399271506
 20
173.2836838222792
 30
0.0
  0
VERTEX
  5
243
330
241
100
AcDbEntity
  8
Capa 1
 62
     7
420
 16777215
370
     9
100
AcDbVertex
100
AcDb2dVertex
 10
160.4904864227884
 20
173.2836838222792
 30
0.0
  0
SEQEND
  5
244
330
241
100
AcDbEntity
  8
Capa 1
 62
     7
420
 16777215
370
     9
  0
POLYLINE
  5
245
330
1F
100
AcDbEntity
  8
Capa 1
 62
     7
420
 16777215
370
     9
100
AcDb2dPolyline
 66
     1
 10
0.0
 20
0.0
 30
0.0
  0
VERTEX
  5
246
330
245
100
AcDbEntity
  8
Capa 1
 62
     7
420
 16777215
370
     9
100
AcDbVertex
100
AcDb2dVertex
 10
160.860908203176
 20
172.9132687705937
 30
0.0
  0
VERTEX
  5
247
330
245
100
AcDbEntity
  8
Capa 1
 62
     7
420
 16777215
370
     9
100
AcDbVertex
100
AcDb2dVertex
 10
160.8079869610052
 20
173.0984830251386
 30
0.0
  0
VERTEX
  5
248
330
245
100
AcDbEntity
  8
Capa 1
 62
     7
420
 16777215
370
     9
100
AcDbVertex
100
AcDb2dVertex
 10
160.6756939486311
 20
173.2307693088105
 30
0.0
  0
VERTEX
  5
249
330
245
100
AcDbEntity
  8
Capa 1
 62
     7
420
 16777215
370
     9
100
AcDbVertex
100
AcDb2dVertex
 10
160.4904864227884
 20
173.2836838222792
 30
0.0
  0
SEQEND
  5
24A
330
245
100
AcDbEntity
  8
Capa 1
 62
     7
420
 16777215
370
     9
  0
POLYLINE
  5
24B
330
1F
100
AcDbEntity
  8
Capa 1
 62
     7
420
 16777215
370
     9
100
AcDb2dPolyline
 66
     1
 10
0.0
 20
0.0
 30
0.0
  0
VERTEX
  5
24C
330
24B
100
AcDbEntity
  8
Capa 1
 62
     7
420
 16777215
370
     9
100
AcDbVertex
100
AcDb2dVertex
 10
142.9221547087356
 20
164.6053604495946
 30
0.0
  0
VERTEX
  5
24D
330
24B
100
AcDbEntity
  8
Capa 1
 62
     7
420
 16777215
370
     9
100
AcDbVertex
100
AcDb2dVertex
 10
142.94861196547
 20
164.6053604495946
 30
0.0
  0
SEQEND
  5
24E
330
24B
100
AcDbEntity
  8
Capa 1
 62
     7
420
 16777215
370
     9
  0
POLYLINE
  5
24F
330
1F
100
AcDbEntity
  8
Capa 1
 62
     7
420
 16777215
370
     9
100
AcDb2dPolyline
 66
     1
 10
0.0
 20
0.0
 30
0.0
  0
VERTEX
  5
250
330
24F
100
AcDbEntity
  8
Capa 1
 62
     7
420
 16777215
370
     9
100
AcDbVertex
100
AcDb2dVertex
 10
138.4506966456682
 20
172.6751534599843
 30
0.0
  0
VERTEX
  5
251
330
24F
100
AcDbEntity
  8
Capa 1
 62
     7
420
 16777215
370
     9
100
AcDbVertex
100
AcDb2dVertex
 10
139.429655517053
 20
170.611393232873
 30
0.0
  0
VERTEX
  5
252
330
24F
100
AcDbEntity
  8
Capa 1
 62
     7
420
 16777215
370
     9
100
AcDbVertex
100
AcDb2dVertex
 10
140.5144501440774
 20
168.5741037199003
 30
0.0
  0
VERTEX
  5
253
330
24F
100
AcDbEntity
  8
Capa 1
 62
     7
420
 16777215
370
     9
100
AcDbVertex
100
AcDb2dVertex
 10
141.6786165413049
 20
166.5897354490986
 30
0.0
  0
VERTEX
  5
254
330
24F
100
AcDbEntity
  8
Capa 1
 62
     7
420
 16777215
370
     9
100
AcDbVertex
100
AcDb2dVertex
 10
142.9221547087356
 20
164.6053604495946
 30
0.0
  0
SEQEND
  5
255
330
24F
100
AcDbEntity
  8
Capa 1
 62
     7
420
 16777215
370
     9
  0
POLYLINE
  5
256
330
1F
100
AcDbEntity
  8
Capa 1
 62
     7
420
 16777215
370
     9
100
AcDb2dPolyline
 66
     1
 10
0.0
 20
0.0
 30
0.0
  0
VERTEX
  5
257
330
256
100
AcDbEntity
  8
Capa 1
 62
     7
420
 16777215
370
     9
100
AcDbVertex
100
AcDb2dVertex
 10
138.4242393889338
 20
172.7016107167186
 30
0.0
  0
VERTEX
  5
258
330
256
100
AcDbEntity
  8
Capa 1
 62
     7
420
 16777215
370
     9
100
AcDbVertex
100
AcDb2dVertex
 10
138.4506966456682
 20
172.6751534599843
 30
0.0
  0
SEQEND
  5
259
330
256
100
AcDbEntity
  8
Capa 1
 62
     7
420
 16777215
370
     9
  0
POLYLINE
  5
25A
330
1F
100
AcDbEntity
  8
Capa 1
 62
     7
420
 16777215
370
     9
100
AcDb2dPolyline
 66
     1
 10
0.0
 20
0.0
 30
0.0
  0
VERTEX
  5
25B
330
25A
100
AcDbEntity
  8
Capa 1
 62
     7
420
 16777215
370
     9
100
AcDbVertex
100
AcDb2dVertex
 10
138.3713248754651
 20
172.9132687705937
 30
0.0
  0
VERTEX
  5
25C
330
25A
100
AcDbEntity
  8
Capa 1
 62
     7
420
 16777215
370
     9
100
AcDbVertex
100
AcDb2dVertex
 10
138.4242393889338
 20
172.7016107167186
 30
0.0
  0
SEQEND
  5
25D
330
25A
100
AcDbEntity
  8
Capa 1
 62
     7
420
 16777215
370
     9
  0
POLYLINE
  5
25E
330
1F
100
AcDbEntity
  8
Capa 1
 62
     7
420
 16777215
370
     9
100
AcDb2dPolyline
 66
     1
 10
0.0
 20
0.0
 30
0.0
  0
VERTEX
  5
25F
330
25E
100
AcDbEntity
  8
Capa 1
 62
     7
420
 16777215
370
     9
100
AcDbVertex
100
AcDb2dVertex
 10
160.860908203176
 20
172.9132687705937
 30
0.0
  0
VERTEX
  5
260
330
25E
100
AcDbEntity
  8
Capa 1
 62
     7
420
 16777215
370
     9
100
AcDbVertex
100
AcDb2dVertex
 10
160.8079869610052
 20
172.7016107167186
 30
0.0
  0
SEQEND
  5
261
330
25E
100
AcDbEntity
  8
Capa 1
 62
     7
420
 16777215
370
     9
  0
POLYLINE
  5
262
330
1F
100
AcDbEntity
  8
Capa 1
 62
     7
420
 16777215
370
     9
100
AcDb2dPolyline
 66
     1
 10
0.0
 20
0.0
 30
0.0
  0
VERTEX
  5
263
330
262
100
AcDbEntity
  8
Capa 1
 62
     7
420
 16777215
370
     9
100
AcDbVertex
100
AcDb2dVertex
 10
156.3365288979378
 20
164.6053604495946
 30
0.0
  0
VERTEX
  5
264
330
262
100
AcDbEntity
  8
Capa 1
 62
     7
420
 16777215
370
     9
100
AcDbVertex
100
AcDb2dVertex
 10
157.5800737940706
 20
166.5897354490986
 30
0.0
  0
VERTEX
  5
265
330
262
100
AcDbEntity
  8
Capa 1
 62
     7
420
 16777215
370
     9
100
AcDbVertex
100
AcDb2dVertex
 10
158.7177829345637
 20
168.5741037199003
 30
0.0
  0
VERTEX
  5
266
330
262
100
AcDbEntity
  8
Capa 1
 62
     7
420
 16777215
370
     9
100
AcDbVertex
100
AcDb2dVertex
 10
159.802570832886
 20
170.611393232873
 30
0.0
  0
VERTEX
  5
267
330
262
100
AcDbEntity
  8
Capa 1
 62
     7
420
 16777215
370
     9
100
AcDbVertex
100
AcDb2dVertex
 10
160.8079869610052
 20
172.6751534599843
 30
0.0
  0
SEQEND
  5
268
330
262
100
AcDbEntity
  8
Capa 1
 62
     7
420
 16777215
370
     9
  0
POLYLINE
  5
269
330
1F
100
AcDbEntity
  8
Capa 1
 62
     7
420
 16777215
370
     9
100
AcDb2dPolyline
 66
     1
 10
0.0
 20
0.0
 30
0.0
  0
VERTEX
  5
26A
330
269
100
AcDbEntity
  8
Capa 1
 62
     7
420
 16777215
370
     9
100
AcDbVertex
100
AcDb2dVertex
 10
142.7369471828928
 20
148.2805669029726
 30
0.0
  0
VERTEX
  5
26B
330
269
100
AcDbEntity
  8
Capa 1
 62
     7
420
 16777215
370
     9
100
AcDbVertex
100
AcDb2dVertex
 10
156.4952791670462
 20
148.2805669029726
 30
0.0
  0
SEQEND
  5
26C
330
269
100
AcDbEntity
  8
Capa 1
 62
     7
420
 16777215
370
     9
  0
POLYLINE
  5
26D
330
1F
100
AcDbEntity
  8
Capa 1
 62
     7
420
 16777215
370
     9
100
AcDb2dPolyline
 66
     1
 10
0.0
 20
0.0
 30
0.0
  0
VERTEX
  5
26E
330
26D
100
AcDbEntity
  8
Capa 1
 62
     7
420
 16777215
370
     9
100
AcDbVertex
100
AcDb2dVertex
 10
155.9396565895178
 20
163.0707790006815
 30
0.0
  0
VERTEX
  5
26F
330
26D
100
AcDbEntity
  8
Capa 1
 62
     7
420
 16777215
370
     9
100
AcDbVertex
100
AcDb2dVertex
 10
155.9396565895178
 20
163.4676513091015
 30
0.0
  0
VERTEX
  5
270
330
26D
100
AcDbEntity
  8
Capa 1
 62
     7
420
 16777215
370
     9
100
AcDbVertex
100
AcDb2dVertex
 10
155.9925711029866
 20
163.8645236175214
 30
0.0
  0
VERTEX
  5
271
330
26D
100
AcDbEntity
  8
Capa 1
 62
     7
420
 16777215
370
     9
100
AcDbVertex
100
AcDb2dVertex
 10
156.1248641153606
 20
164.2349453979091
 30
0.0
  0
VERTEX
  5
272
330
26D
100
AcDbEntity
  8
Capa 1
 62
     7
420
 16777215
370
     9
100
AcDbVertex
100
AcDb2dVertex
 10
156.3365288979378
 20
164.6053604495946
 30
0.0
  0
VERTEX
  5
273
330
26D
100
AcDbEntity
  8
Capa 1
 62
     7
420
 16777215
370
     9
100
AcDbVertex
100
AcDb2dVertex
 10
156.3100716412034
 20
164.6053604495946
 30
0.0
  0
SEQEND
  5
274
330
26D
100
AcDbEntity
  8
Capa 1
 62
     7
420
 16777215
370
     9
  0
POLYLINE
  5
275
330
1F
100
AcDbEntity
  8
Capa 1
 62
     7
420
 16777215
370
     9
100
AcDb2dPolyline
 66
     1
 10
0.0
 20
0.0
 30
0.0
  0
VERTEX
  5
276
330
275
100
AcDbEntity
  8
Capa 1
 62
     7
420
 16777215
370
     9
100
AcDbVertex
100
AcDb2dVertex
 10
156.3365288979378
 20
164.6053604495946
 30
0.0
  0
VERTEX
  5
277
330
275
100
AcDbEntity
  8
Capa 1
 62
     7
420
 16777215
370
     9
100
AcDbVertex
100
AcDb2dVertex
 10
156.3629861546721
 20
164.6053604495946
 30
0.0
  0
SEQEND
  5
278
330
275
100
AcDbEntity
  8
Capa 1
 62
     7
420
 16777215
370
     9
  0
POLYLINE
  5
279
330
1F
100
AcDbEntity
  8
Capa 1
 62
     7
420
 16777215
370
     9
100
AcDb2dPolyline
 66
     1
 10
0.0
 20
0.0
 30
0.0
  0
VERTEX
  5
27A
330
279
100
AcDbEntity
  8
Capa 1
 62
     7
420
 16777215
370
     9
100
AcDbVertex
100
AcDb2dVertex
 10
142.9221547087356
 20
164.6053604495946
 30
0.0
  0
VERTEX
  5
27B
330
279
100
AcDbEntity
  8
Capa 1
 62
     7
420
 16777215
370
     9
100
AcDbVertex
100
AcDb2dVertex
 10
142.94861196547
 20
164.6053604495946
 30
0.0
  0
SEQEND
  5
27C
330
279
100
AcDbEntity
  8
Capa 1
 62
     7
420
 16777215
370
     9
  0
POLYLINE
  5
27D
330
1F
100
AcDbEntity
  8
Capa 1
 62
     7
420
 16777215
370
     9
100
AcDb2dPolyline
 66
     1
 10
0.0
 20
0.0
 30
0.0
  0
VERTEX
  5
27E
330
27D
100
AcDbEntity
  8
Capa 1
 62
     7
420
 16777215
370
     9
100
AcDbVertex
100
AcDb2dVertex
 10
143.3190337458577
 20
163.0707790006815
 30
0.0
  0
VERTEX
  5
27F
330
27D
100
AcDbEntity
  8
Capa 1
 62
     7
420
 16777215
370
     9
100
AcDbVertex
100
AcDb2dVertex
 10
143.2925697604212
 20
163.5999443214755
 30
0.0
  0
VERTEX
  5
280
330
27D
100
AcDbEntity
  8
Capa 1
 62
     7
420
 16777215
370
     9
100
AcDbVertex
100
AcDb2dVertex
 10
143.1602834767493
 20
164.1291096422694
 30
0.0
  0
VERTEX
  5
281
330
27D
100
AcDbEntity
  8
Capa 1
 62
     7
420
 16777215
370
     9
100
AcDbVertex
100
AcDb2dVertex
 10
142.9221547087356
 20
164.6053604495946
 30
0.0
  0
SEQEND
  5
282
330
27D
100
AcDbEntity
  8
Capa 1
 62
     7
420
 16777215
370
     9
  0
POLYLINE
  5
283
330
1F
100
AcDbEntity
  8
Capa 1
 62
     7
420
 16777215
370
     9
100
AcDb2dPolyline
 66
     1
 10
0.0
 20
0.0
 30
0.0
  0
VERTEX
  5
284
330
283
100
AcDbEntity
  8
Capa 1
 62
     7
420
 16777215
370
     9
100
AcDbVertex
100
AcDb2dVertex
 10
156.3365288979378
 20
164.6053604495946
 30
0.0
  0
VERTEX
  5
285
330
283
100
AcDbEntity
  8
Capa 1
 62
     7
420
 16777215
370
     9
100
AcDbVertex
100
AcDb2dVertex
 10
156.0719496018918
 20
164.1291096422694
 30
0.0
  0
VERTEX
  5
286
330
283
100
AcDbEntity
  8
Capa 1
 62
     7
420
 16777215
370
     9
100
AcDbVertex
100
AcDb2dVertex
 10
155.9396565895178
 20
163.5999443214755
 30
0.0
  0
VERTEX
  5
287
330
283
100
AcDbEntity
  8
Capa 1
 62
     7
420
 16777215
370
     9
100
AcDbVertex
100
AcDb2dVertex
 10
155.9131993327834
 20
163.0707790006815
 30
0.0
  0
SEQEND
  5
288
330
283
100
AcDbEntity
  8
Capa 1
 62
     7
420
 16777215
370
     9
  0
POLYLINE
  5
289
330
1F
100
AcDbEntity
  8
Capa 1
 62
     7
420
 16777215
370
     9
100
AcDb2dPolyline
 66
     1
 10
0.0
 20
0.0
 30
0.0
  0
VERTEX
  5
28A
330
289
100
AcDbEntity
  8
Capa 1
 62
     7
420
 16777215
370
     9
100
AcDbVertex
100
AcDb2dVertex
 10
155.3046555130842
 20
163.2295292697899
 30
0.0
  0
VERTEX
  5
28B
330
289
100
AcDbEntity
  8
Capa 1
 62
     7
420
 16777215
370
     9
100
AcDbVertex
100
AcDb2dVertex
 10
155.2781982563499
 20
163.2295292697899
 30
0.0
  0
VERTEX
  5
28C
330
289
100
AcDbEntity
  8
Capa 1
 62
     7
420
 16777215
370
     9
100
AcDbVertex
100
AcDb2dVertex
 10
155.1988197574446
 20
163.1766080276191
 30
0.0
  0
VERTEX
  5
28D
330
289
100
AcDbEntity
  8
Capa 1
 62
     7
420
 16777215
370
     9
100
AcDbVertex
100
AcDb2dVertex
 10
155.0665334737727
 20
163.1236935141503
 30
0.0
  0
VERTEX
  5
28E
330
289
100
AcDbEntity
  8
Capa 1
 62
     7
420
 16777215
370
     9
100
AcDbVertex
100
AcDb2dVertex
 10
154.8548619624934
 20
163.0972362574159
 30
0.0
  0
VERTEX
  5
28F
330
289
100
AcDbEntity
  8
Capa 1
 62
     7
420
 16777215
370
     9
100
AcDbVertex
100
AcDb2dVertex
 10
154.3521538984339
 20
163.044315015245
 30
0.0
  0
VERTEX
  5
290
330
289
100
AcDbEntity
  8
Capa 1
 62
     7
420
 16777215
370
     9
100
AcDbVertex
100
AcDb2dVertex
 10
153.6377810517971
 20
162.9649432450419
 30
0.0
  0
VERTEX
  5
291
330
289
100
AcDbEntity
  8
Capa 1
 62
     7
420
 16777215
370
     9
100
AcDbVertex
100
AcDb2dVertex
 10
152.7911151927864
 20
162.9120287315731
 30
0.0
  0
VERTEX
  5
292
330
289
100
AcDbEntity
  8
Capa 1
 62
     7
420
 16777215
370
     9
100
AcDbVertex
100
AcDb2dVertex
 10
151.8121563214016
 20
162.8591074894023
 30
0.0
  0
VERTEX
  5
293
330
289
100
AcDbEntity
  8
Capa 1
 62
     7
420
 16777215
370
     9
100
AcDbVertex
100
AcDb2dVertex
 10
149.6161165393206
 20
162.8326502326679
 30
0.0
  0
VERTEX
  5
294
330
289
100
AcDbEntity
  8
Capa 1
 62
     7
420
 16777215
370
     9
100
AcDbVertex
100
AcDb2dVertex
 10
147.4465272852718
 20
162.8591074894023
 30
0.0
  0
VERTEX
  5
295
330
289
100
AcDbEntity
  8
Capa 1
 62
     7
420
 16777215
370
     9
100
AcDbVertex
100
AcDb2dVertex
 10
146.4675751425891
 20
162.9120287315731
 30
0.0
  0
VERTEX
  5
296
330
289
100
AcDbEntity
  8
Capa 1
 62
     7
420
 16777215
370
     9
100
AcDbVertex
100
AcDb2dVertex
 10
145.5944452981419
 20
162.9649432450419
 30
0.0
  0
VERTEX
  5
297
330
289
100
AcDbEntity
  8
Capa 1
 62
     7
420
 16777215
370
     9
100
AcDbVertex
100
AcDb2dVertex
 10
144.9065297082395
 20
163.044315015245
 30
0.0
  0
VERTEX
  5
298
330
289
100
AcDbEntity
  8
Capa 1
 62
     7
420
 16777215
370
     9
100
AcDbVertex
100
AcDb2dVertex
 10
144.3773643874456
 20
163.0972362574159
 30
0.0
  0
VERTEX
  5
299
330
289
100
AcDbEntity
  8
Capa 1
 62
     7
420
 16777215
370
     9
100
AcDbVertex
100
AcDb2dVertex
 10
144.0598638492288
 20
163.1766080276191
 30
0.0
  0
VERTEX
  5
29A
330
289
100
AcDbEntity
  8
Capa 1
 62
     7
420
 16777215
370
     9
100
AcDbVertex
100
AcDb2dVertex
 10
143.9804920790256
 20
163.2030652843534
 30
0.0
  0
VERTEX
  5
29B
330
289
100
AcDbEntity
  8
Capa 1
 62
     7
420
 16777215
370
     9
100
AcDbVertex
100
AcDb2dVertex
 10
143.9540280935891
 20
163.2295292697899
 30
0.0
  0
SEQEND
  5
29C
330
289
100
AcDbEntity
  8
Capa 1
 62
     7
420
 16777215
370
     9
  0
POLYLINE
  5
29D
330
1F
100
AcDbEntity
  8
Capa 1
 62
     7
420
 16777215
370
     9
100
AcDb2dPolyline
 66
     1
 10
0.0
 20
0.0
 30
0.0
  0
VERTEX
  5
29E
330
29D
100
AcDbEntity
  8
Capa 1
 62
     7
420
 16777215
370
     9
100
AcDbVertex
100
AcDb2dVertex
 10
155.9396565895178
 20
163.0707790006815
 30
0.0
  0
VERTEX
  5
29F
330
29D
100
AcDbEntity
  8
Capa 1
 62
     7
420
 16777215
370
     9
100
AcDbVertex
100
AcDb2dVertex
 10
155.9131993327834
 20
163.0707790006815
 30
0.0
  0
SEQEND
  5
2A0
330
29D
100
AcDbEntity
  8
Capa 1
 62
     7
420
 16777215
370
     9
  0
POLYLINE
  5
2A1
330
1F
100
AcDbEntity
  8
Capa 1
 62
     7
420
 16777215
370
     9
100
AcDb2dPolyline
 66
     1
 10
0.0
 20
0.0
 30
0.0
  0
VERTEX
  5
2A2
330
2A1
100
AcDbEntity
  8
Capa 1
 62
     7
420
 16777215
370
     9
100
AcDbVertex
100
AcDb2dVertex
 10
72.69292103751457
 20
195.1647367876952
 30
0.0
  0
VERTEX
  5
2A3
330
2A1
100
AcDbEntity
  8
Capa 1
 62
     7
420
 16777215
370
     9
100
AcDbVertex
100
AcDb2dVertex
 10
73.64542265216495
 20
195.1647367876952
 30
0.0
  0
SEQEND
  5
2A4
330
2A1
100
AcDbEntity
  8
Capa 1
 62
     7
420
 16777215
370
     9
  0
POLYLINE
  5
2A5
330
1F
100
AcDbEntity
  8
Capa 1
 62
     7
420
 16777215
370
     9
100
AcDb2dPolyline
 66
     1
 10
0.0
 20
0.0
 30
0.0
  0
VERTEX
  5
2A6
330
2A5
100
AcDbEntity
  8
Capa 1
 62
     7
420
 16777215
370
     9
100
AcDbVertex
100
AcDb2dVertex
 10
73.93646256929631
 20
194.9001507629472
 30
0.0
  0
VERTEX
  5
2A7
330
2A5
100
AcDbEntity
  8
Capa 1
 62
     7
420
 16777215
370
     9
100
AcDbVertex
100
AcDb2dVertex
 10
73.75125504345482
 20
194.9795225331503
 30
0.0
  0
VERTEX
  5
2A8
330
2A5
100
AcDbEntity
  8
Capa 1
 62
     7
420
 16777215
370
     9
100
AcDbVertex
100
AcDb2dVertex
 10
73.64542265216495
 20
195.1647367876952
 30
0.0
  0
SEQEND
  5
2A9
330
2A5
100
AcDbEntity
  8
Capa 1
 62
     7
420
 16777215
370
     9
  0
POLYLINE
  5
2AA
330
1F
100
AcDbEntity
  8
Capa 1
 62
     7
420
 16777215
370
     9
100
AcDb2dPolyline
 66
     1
 10
0.0
 20
0.0
 30
0.0
  0
VERTEX
  5
2AB
330
2AA
100
AcDbEntity
  8
Capa 1
 62
     7
420
 16777215
370
     9
100
AcDbVertex
100
AcDb2dVertex
 10
72.69292103751457
 20
194.9001507629472
 30
0.0
  0
VERTEX
  5
2AC
330
2AA
100
AcDbEntity
  8
Capa 1
 62
     7
420
 16777215
370
     9
100
AcDbVertex
100
AcDb2dVertex
 10
64.38500598781339
 20
194.9001507629472
 30
0.0
  0
SEQEND
  5
2AD
330
2AA
100
AcDbEntity
  8
Capa 1
 62
     7
420
 16777215
370
     9
  0
POLYLINE
  5
2AE
330
1F
100
AcDbEntity
  8
Capa 1
 62
     7
420
 16777215
370
     9
100
AcDb2dPolyline
 66
     1
 10
0.0
 20
0.0
 30
0.0
  0
VERTEX
  5
2AF
330
2AE
100
AcDbEntity
  8
Capa 1
 62
     7
420
 16777215
370
     9
100
AcDbVertex
100
AcDb2dVertex
 10
64.12042332741642
 20
173.5482698470273
 30
0.0
  0
VERTEX
  5
2B0
330
2AE
100
AcDbEntity
  8
Capa 1
 62
     7
420
 16777215
370
     9
100
AcDbVertex
100
AcDb2dVertex
 10
64.12042332741642
 20
194.9001507629472
 30
0.0
  0
VERTEX
  5
2B1
330
2AE
100
AcDbEntity
  8
Capa 1
 62
     7
420
 16777215
370
     9
100
AcDbVertex
100
AcDb2dVertex
 10
64.38500598781339
 20
194.9001507629472
 30
0.0
  0
SEQEND
  5
2B2
330
2AE
100
AcDbEntity
  8
Capa 1
 62
     7
420
 16777215
370
     9
  0
POLYLINE
  5
2B3
330
1F
100
AcDbEntity
  8
Capa 1
 62
     7
420
 16777215
370
     9
100
AcDb2dPolyline
 66
     1
 10
0.0
 20
0.0
 30
0.0
  0
VERTEX
  5
2B4
330
2B3
100
AcDbEntity
  8
Capa 1
 62
     7
420
 16777215
370
     9
100
AcDbVertex
100
AcDb2dVertex
 10
73.19562910157414
 20
173.5218125902929
 30
0.0
  0
VERTEX
  5
2B5
330
2B3
100
AcDbEntity
  8
Capa 1
 62
     7
420
 16777215
370
     9
100
AcDbVertex
100
AcDb2dVertex
 10
73.93646256929631
 20
194.9001507629472
 30
0.0
  0
VERTEX
  5
2B6
330
2B3
100
AcDbEntity
  8
Capa 1
 62
     7
420
 16777215
370
     9
100
AcDbVertex
100
AcDb2dVertex
 10
72.69292103751457
 20
194.9001507629472
 30
0.0
  0
SEQEND
  5
2B7
330
2B3
100
AcDbEntity
  8
Capa 1
 62
     7
420
 16777215
370
     9
  0
POLYLINE
  5
2B8
330
1F
100
AcDbEntity
  8
Capa 1
 62
     7
420
 16777215
370
     9
100
AcDb2dPolyline
 66
     1
 10
0.0
 20
0.0
 30
0.0
  0
VERTEX
  5
2B9
330
2B8
100
AcDbEntity
  8
Capa 1
 62
     7
420
 16777215
370
     9
100
AcDbVertex
100
AcDb2dVertex
 10
72.69292103751457
 20
195.1647367876952
 30
0.0
  0
VERTEX
  5
2BA
330
2B8
100
AcDbEntity
  8
Capa 1
 62
     7
420
 16777215
370
     9
100
AcDbVertex
100
AcDb2dVertex
 10
64.43792386563321
 20
195.1647367876952
 30
0.0
  0
SEQEND
  5
2BB
330
2B8
100
AcDbEntity
  8
Capa 1
 62
     7
420
 16777215
370
     9
  0
POLYLINE
  5
2BC
330
1F
100
AcDbEntity
  8
Capa 1
 62
     7
420
 16777215
370
     9
100
AcDb2dPolyline
 66
     1
 10
0.0
 20
0.0
 30
0.0
  0
VERTEX
  5
2BD
330
2BC
100
AcDbEntity
  8
Capa 1
 62
     7
420
 16777215
370
     9
100
AcDbVertex
100
AcDb2dVertex
 10
64.14688226632633
 20
194.9001507629472
 30
0.0
  0
VERTEX
  5
2BE
330
2BC
100
AcDbEntity
  8
Capa 1
 62
     7
420
 16777215
370
     9
100
AcDbVertex
100
AcDb2dVertex
 10
64.27917359652481
 20
194.9530652764159
 30
0.0
  0
VERTEX
  5
2BF
330
2BC
100
AcDbEntity
  8
Capa 1
 62
     7
420
 16777215
370
     9
100
AcDbVertex
100
AcDb2dVertex
 10
64.38500598781339
 20
195.0324370466191
 30
0.0
  0
VERTEX
  5
2C0
330
2BC
100
AcDbEntity
  8
Capa 1
 62
     7
420
 16777215
370
     9
100
AcDbVertex
100
AcDb2dVertex
 10
64.43792386563321
 20
195.1647367876952
 30
0.0
  0
SEQEND
  5
2C1
330
2BC
100
AcDbEntity
  8
Capa 1
 62
     7
420
 16777215
370
     9
  0
POLYLINE
  5
2C2
330
1F
100
AcDbEntity
  8
Capa 1
 62
     7
420
 16777215
370
     9
100
AcDb2dPolyline
 66
     1
 10
0.0
 20
0.0
 30
0.0
  0
VERTEX
  5
2C3
330
2C2
100
AcDbEntity
  8
Capa 1
 62
     7
420
 16777215
370
     9
100
AcDbVertex
100
AcDb2dVertex
 10
72.95750706226261
 20
173.2836838222792
 30
0.0
  0
VERTEX
  5
2C4
330
2C2
100
AcDbEntity
  8
Capa 1
 62
     7
420
 16777215
370
     9
100
AcDbVertex
100
AcDb2dVertex
 10
73.116257331371
 20
173.3630690498866
 30
0.0
  0
VERTEX
  5
2C5
330
2C2
100
AcDbEntity
  8
Capa 1
 62
     7
420
 16777215
370
     9
100
AcDbVertex
100
AcDb2dVertex
 10
73.19562910157414
 20
173.5218125902929
 30
0.0
  0
SEQEND
  5
2C6
330
2C2
100
AcDbEntity
  8
Capa 1
 62
     7
420
 16777215
370
     9
  0
POLYLINE
  5
2C7
330
1F
100
AcDbEntity
  8
Capa 1
 62
     7
420
 16777215
370
     9
100
AcDb2dPolyline
 66
     1
 10
0.0
 20
0.0
 30
0.0
  0
VERTEX
  5
2C8
330
2C7
100
AcDbEntity
  8
Capa 1
 62
     7
420
 16777215
370
     9
100
AcDbVertex
100
AcDb2dVertex
 10
72.69292103751457
 20
173.2836838222792
 30
0.0
  0
VERTEX
  5
2C9
330
2C7
100
AcDbEntity
  8
Capa 1
 62
     7
420
 16777215
370
     9
100
AcDbVertex
100
AcDb2dVertex
 10
72.95750706226261
 20
173.2836838222792
 30
0.0
  0
SEQEND
  5
2CA
330
2C7
100
AcDbEntity
  8
Capa 1
 62
     7
420
 16777215
370
     9
  0
POLYLINE
  5
2CB
330
1F
100
AcDbEntity
  8
Capa 1
 62
     7
420
 16777215
370
     9
100
AcDb2dPolyline
 66
     1
 10
0.0
 20
0.0
 30
0.0
  0
VERTEX
  5
2CC
330
2CB
100
AcDbEntity
  8
Capa 1
 62
     7
420
 16777215
370
     9
100
AcDbVertex
100
AcDb2dVertex
 10
64.12042332741642
 20
173.5482698470273
 30
0.0
  0
VERTEX
  5
2CD
330
2CB
100
AcDbEntity
  8
Capa 1
 62
     7
420
 16777215
370
     9
100
AcDbVertex
100
AcDb2dVertex
 10
64.1733395230607
 20
173.4159835633554
 30
0.0
  0
VERTEX
  5
2CE
330
2CB
100
AcDbEntity
  8
Capa 1
 62
     7
420
 16777215
370
     9
100
AcDbVertex
100
AcDb2dVertex
 10
64.2527146576149
 20
173.3101545364179
 30
0.0
  0
VERTEX
  5
2CF
330
2CB
100
AcDbEntity
  8
Capa 1
 62
     7
420
 16777215
370
     9
100
AcDbVertex
100
AcDb2dVertex
 10
64.38500598781339
 20
173.2836838222792
 30
0.0
  0
SEQEND
  5
2D0
330
2CB
100
AcDbEntity
  8
Capa 1
 62
     7
420
 16777215
370
     9
  0
POLYLINE
  5
2D1
330
1F
100
AcDbEntity
  8
Capa 1
 62
     7
420
 16777215
370
     9
100
AcDb2dPolyline
 66
     1
 10
0.0
 20
0.0
 30
0.0
  0
VERTEX
  5
2D2
330
2D1
100
AcDbEntity
  8
Capa 1
 62
     7
420
 16777215
370
     9
100
AcDbVertex
100
AcDb2dVertex
 10
64.38500598781339
 20
195.1911940444296
 30
0.0
  0
VERTEX
  5
2D3
330
2D1
100
AcDbEntity
  8
Capa 1
 62
     7
420
 16777215
370
     9
100
AcDbVertex
100
AcDb2dVertex
 10
73.69834052998478
 20
195.1911940444296
 30
0.0
  0
VERTEX
  5
2D4
330
2D1
100
AcDbEntity
  8
Capa 1
 62
     7
420
 16777215
370
     9
100
AcDbVertex
100
AcDb2dVertex
 10
73.83063017800774
 20
195.217651301164
 30
0.0
  0
VERTEX
  5
2D5
330
2D1
100
AcDbEntity
  8
Capa 1
 62
     7
420
 16777215
370
     9
100
AcDbVertex
100
AcDb2dVertex
 10
73.91000531256194
 20
195.3234803281015
 30
0.0
  0
VERTEX
  5
2D6
330
2D1
100
AcDbEntity
  8
Capa 1
 62
     7
420
 16777215
370
     9
100
AcDbVertex
100
AcDb2dVertex
 10
73.93646256929631
 20
195.4557666117734
 30
0.0
  0
SEQEND
  5
2D7
330
2D1
100
AcDbEntity
  8
Capa 1
 62
     7
420
 16777215
370
     9
  0
POLYLINE
  5
2D8
330
1F
100
AcDbEntity
  8
Capa 1
 62
     7
420
 16777215
370
     9
100
AcDb2dPolyline
 66
     1
 10
0.0
 20
0.0
 30
0.0
  0
VERTEX
  5
2D9
330
2D8
100
AcDbEntity
  8
Capa 1
 62
     7
420
 16777215
370
     9
100
AcDbVertex
100
AcDb2dVertex
 10
64.12042332741642
 20
195.4557666117734
 30
0.0
  0
VERTEX
  5
2DA
330
2D8
100
AcDbEntity
  8
Capa 1
 62
     7
420
 16777215
370
     9
100
AcDbVertex
100
AcDb2dVertex
 10
64.1733395230607
 20
195.3234803281015
 30
0.0
  0
VERTEX
  5
2DB
330
2D8
100
AcDbEntity
  8
Capa 1
 62
     7
420
 16777215
370
     9
100
AcDbVertex
100
AcDb2dVertex
 10
64.2527146576149
 20
195.217651301164
 30
0.0
  0
VERTEX
  5
2DC
330
2D8
100
AcDbEntity
  8
Capa 1
 62
     7
420
 16777215
370
     9
100
AcDbVertex
100
AcDb2dVertex
 10
64.38500598781339
 20
195.1911940444296
 30
0.0
  0
SEQEND
  5
2DD
330
2D8
100
AcDbEntity
  8
Capa 1
 62
     7
420
 16777215
370
     9
  0
POLYLINE
  5
2DE
330
1F
100
AcDbEntity
  8
Capa 1
 62
     7
420
 16777215
370
     9
100
AcDb2dPolyline
 66
     1
 10
0.0
 20
0.0
 30
0.0
  0
VERTEX
  5
2DF
330
2DE
100
AcDbEntity
  8
Capa 1
 62
     7
420
 16777215
370
     9
100
AcDbVertex
100
AcDb2dVertex
 10
64.12042332741642
 20
197.016812046123
 30
0.0
  0
VERTEX
  5
2E0
330
2DE
100
AcDbEntity
  8
Capa 1
 62
     7
420
 16777215
370
     9
100
AcDbVertex
100
AcDb2dVertex
 10
64.12042332741642
 20
197.1226410730605
 30
0.0
  0
SEQEND
  5
2E1
330
2DE
100
AcDbEntity
  8
Capa 1
 62
     7
420
 16777215
370
     9
  0
POLYLINE
  5
2E2
330
1F
100
AcDbEntity
  8
Capa 1
 62
     7
420
 16777215
370
     9
100
AcDb2dPolyline
 66
     1
 10
0.0
 20
0.0
 30
0.0
  0
VERTEX
  5
2E3
330
2E2
100
AcDbEntity
  8
Capa 1
 62
     7
420
 16777215
370
     9
100
AcDbVertex
100
AcDb2dVertex
 10
64.38500598781339
 20
197.3872270978085
 30
0.0
  0
VERTEX
  5
2E4
330
2E2
100
AcDbEntity
  8
Capa 1
 62
     7
420
 16777215
370
     9
100
AcDbVertex
100
AcDb2dVertex
 10
72.69292103751457
 20
197.3872270978085
 30
0.0
  0
SEQEND
  5
2E5
330
2E2
100
AcDbEntity
  8
Capa 1
 62
     7
420
 16777215
370
     9
  0
POLYLINE
  5
2E6
330
1F
100
AcDbEntity
  8
Capa 1
 62
     7
420
 16777215
370
     9
100
AcDb2dPolyline
 66
     1
 10
0.0
 20
0.0
 30
0.0
  0
VERTEX
  5
2E7
330
2E6
100
AcDbEntity
  8
Capa 1
 62
     7
420
 16777215
370
     9
100
AcDbVertex
100
AcDb2dVertex
 10
64.12042332741642
 20
195.4557666117734
 30
0.0
  0
VERTEX
  5
2E8
330
2E6
100
AcDbEntity
  8
Capa 1
 62
     7
420
 16777215
370
     9
100
AcDbVertex
100
AcDb2dVertex
 10
64.12042332741642
 20
197.016812046123
 30
0.0
  0
SEQEND
  5
2E9
330
2E6
100
AcDbEntity
  8
Capa 1
 62
     7
420
 16777215
370
     9
  0
POLYLINE
  5
2EA
330
1F
100
AcDbEntity
  8
Capa 1
 62
     7
420
 16777215
370
     9
100
AcDb2dPolyline
 66
     1
 10
0.0
 20
0.0
 30
0.0
  0
VERTEX
  5
2EB
330
2EA
100
AcDbEntity
  8
Capa 1
 62
     7
420
 16777215
370
     9
100
AcDbVertex
100
AcDb2dVertex
 10
73.91000531256194
 20
197.016812046123
 30
0.0
  0
VERTEX
  5
2EC
330
2EA
100
AcDbEntity
  8
Capa 1
 62
     7
420
 16777215
370
     9
100
AcDbVertex
100
AcDb2dVertex
 10
73.93646256929631
 20
195.4557666117734
 30
0.0
  0
SEQEND
  5
2ED
330
2EA
100
AcDbEntity
  8
Capa 1
 62
     7
420
 16777215
370
     9
  0
POLYLINE
  5
2EE
330
1F
100
AcDbEntity
  8
Capa 1
 62
     7
420
 16777215
370
     9
100
AcDb2dPolyline
 66
     1
 10
0.0
 20
0.0
 30
0.0
  0
VERTEX
  5
2EF
330
2EE
100
AcDbEntity
  8
Capa 1
 62
     7
420
 16777215
370
     9
100
AcDbVertex
100
AcDb2dVertex
 10
64.38500598781339
 20
197.3872270978085
 30
0.0
  0
VERTEX
  5
2F0
330
2EE
100
AcDbEntity
  8
Capa 1
 62
     7
420
 16777215
370
     9
100
AcDbVertex
100
AcDb2dVertex
 10
64.2527146576149
 20
197.3343125843398
 30
0.0
  0
VERTEX
  5
2F1
330
2EE
100
AcDbEntity
  8
Capa 1
 62
     7
420
 16777215
370
     9
100
AcDbVertex
100
AcDb2dVertex
 10
64.1733395230607
 20
197.2549408141366
 30
0.0
  0
VERTEX
  5
2F2
330
2EE
100
AcDbEntity
  8
Capa 1
 62
     7
420
 16777215
370
     9
100
AcDbVertex
100
AcDb2dVertex
 10
64.12042332741642
 20
197.1226410730605
 30
0.0
  0
SEQEND
  5
2F3
330
2EE
100
AcDbEntity
  8
Capa 1
 62
     7
420
 16777215
370
     9
  0
POLYLINE
  5
2F4
330
1F
100
AcDbEntity
  8
Capa 1
 62
     7
420
 16777215
370
     9
100
AcDb2dPolyline
 66
     1
 10
0.0
 20
0.0
 30
0.0
  0
VERTEX
  5
2F5
330
2F4
100
AcDbEntity
  8
Capa 1
 62
     7
420
 16777215
370
     9
100
AcDbVertex
100
AcDb2dVertex
 10
72.69292103751457
 20
197.3872270978085
 30
0.0
  0
VERTEX
  5
2F6
330
2F4
100
AcDbEntity
  8
Capa 1
 62
     7
420
 16777215
370
     9
100
AcDbVertex
100
AcDb2dVertex
 10
73.53959026087638
 20
197.3872270978085
 30
0.0
  0
SEQEND
  5
2F7
330
2F4
100
AcDbEntity
  8
Capa 1
 62
     7
420
 16777215
370
     9
  0
POLYLINE
  5
2F8
330
1F
100
AcDbEntity
  8
Capa 1
 62
     7
420
 16777215
370
     9
100
AcDb2dPolyline
 66
     1
 10
0.0
 20
0.0
 30
0.0
  0
VERTEX
  5
2F9
330
2F8
100
AcDbEntity
  8
Capa 1
 62
     7
420
 16777215
370
     9
100
AcDbVertex
100
AcDb2dVertex
 10
73.91000531256194
 20
197.016812046123
 30
0.0
  0
VERTEX
  5
2FA
330
2F8
100
AcDbEntity
  8
Capa 1
 62
     7
420
 16777215
370
     9
100
AcDbVertex
100
AcDb2dVertex
 10
73.85708743474211
 20
197.2020263006679
 30
0.0
  0
VERTEX
  5
2FB
330
2F8
100
AcDbEntity
  8
Capa 1
 62
     7
420
 16777215
370
     9
100
AcDbVertex
100
AcDb2dVertex
 10
73.72479778671915
 20
197.3343125843398
 30
0.0
  0
VERTEX
  5
2FC
330
2F8
100
AcDbEntity
  8
Capa 1
 62
     7
420
 16777215
370
     9
100
AcDbVertex
100
AcDb2dVertex
 10
73.53959026087638
 20
197.3872270978085
 30
0.0
  0
SEQEND
  5
2FD
330
2F8
100
AcDbEntity
  8
Capa 1
 62
     7
420
 16777215
370
     9
  0
POLYLINE
  5
2FE
330
1F
100
AcDbEntity
  8
Capa 1
 62
     7
420
 16777215
370
     9
100
AcDb2dPolyline
 66
     1
 10
0.0
 20
0.0
 30
0.0
  0
VERTEX
  5
2FF
330
2FE
100
AcDbEntity
  8
Capa 1
 62
     7
420
 16777215
370
     9
100
AcDbVertex
100
AcDb2dVertex
 10
72.77229617206876
 20
173.2836838222792
 30
0.0
  0
VERTEX
  5
300
330
2FE
100
AcDbEntity
  8
Capa 1
 62
     7
420
 16777215
370
     9
100
AcDbVertex
100
AcDb2dVertex
 10
73.91000531256194
 20
173.2836838222792
 30
0.0
  0
SEQEND
  5
301
330
2FE
100
AcDbEntity
  8
Capa 1
 62
     7
420
 16777215
370
     9
  0
POLYLINE
  5
302
330
1F
100
AcDbEntity
  8
Capa 1
 62
     7
420
 16777215
370
     9
100
AcDb2dPolyline
 66
     1
 10
0.0
 20
0.0
 30
0.0
  0
VERTEX
  5
303
330
302
100
AcDbEntity
  8
Capa 1
 62
     7
420
 16777215
370
     9
100
AcDbVertex
100
AcDb2dVertex
 10
105.368958658791
 20
172.9132687705937
 30
0.0
  0
VERTEX
  5
304
330
302
100
AcDbEntity
  8
Capa 1
 62
     7
420
 16777215
370
     9
100
AcDbVertex
100
AcDb2dVertex
 10
105.3160441453222
 20
173.0984830251386
 30
0.0
  0
VERTEX
  5
305
330
302
100
AcDbEntity
  8
Capa 1
 62
     7
420
 16777215
370
     9
100
AcDbVertex
100
AcDb2dVertex
 10
105.1837511329482
 20
173.2307693088105
 30
0.0
  0
VERTEX
  5
306
330
302
100
AcDbEntity
  8
Capa 1
 62
     7
420
 16777215
370
     9
100
AcDbVertex
100
AcDb2dVertex
 10
104.9985436071054
 20
173.2836838222792
 30
0.0
  0
SEQEND
  5
307
330
302
100
AcDbEntity
  8
Capa 1
 62
     7
420
 16777215
370
     9
  0
POLYLINE
  5
308
330
1F
100
AcDbEntity
  8
Capa 1
 62
     7
420
 16777215
370
     9
100
AcDb2dPolyline
 66
     1
 10
0.0
 20
0.0
 30
0.0
  0
VERTEX
  5
309
330
308
100
AcDbEntity
  8
Capa 1
 62
     7
420
 16777215
370
     9
100
AcDbVertex
100
AcDb2dVertex
 10
97.88125221136615
 20
164.764110718703
 30
0.0
  0
VERTEX
  5
30A
330
308
100
AcDbEntity
  8
Capa 1
 62
     7
420
 16777215
370
     9
100
AcDbVertex
100
AcDb2dVertex
 10
99.91854172433881
 20
166.6691072193017
 30
0.0
  0
VERTEX
  5
30B
330
308
100
AcDbEntity
  8
Capa 1
 62
     7
420
 16777215
370
     9
100
AcDbVertex
100
AcDb2dVertex
 10
101.850002210374
 20
168.6534754901035
 30
0.0
  0
VERTEX
  5
30C
330
308
100
AcDbEntity
  8
Capa 1
 62
     7
420
 16777215
370
     9
100
AcDbVertex
100
AcDb2dVertex
 10
103.7020841975039
 20
170.7172357172147
 30
0.0
  0
VERTEX
  5
30D
330
308
100
AcDbEntity
  8
Capa 1
 62
     7
420
 16777215
370
     9
100
AcDbVertex
100
AcDb2dVertex
 10
104.5752140419511
 20
171.802023615537
 30
0.0
  0
VERTEX
  5
30E
330
308
100
AcDbEntity
  8
Capa 1
 62
     7
420
 16777215
370
     9
100
AcDbVertex
100
AcDb2dVertex
 10
105.0250008638398
 20
172.3311956650331
 30
0.0
  0
VERTEX
  5
30F
330
308
100
AcDbEntity
  8
Capa 1
 62
     7
420
 16777215
370
     9
100
AcDbVertex
100
AcDb2dVertex
 10
105.2366723751191
 20
172.5957682323769
 30
0.0
  0
VERTEX
  5
310
330
308
100
AcDbEntity
  8
Capa 1
 62
     7
420
 16777215
370
     9
100
AcDbVertex
100
AcDb2dVertex
 10
105.3425014020566
 20
172.7545252301874
 30
0.0
  0
VERTEX
  5
311
330
308
100
AcDbEntity
  8
Capa 1
 62
     7
420
 16777215
370
     9
100
AcDbVertex
100
AcDb2dVertex
 10
105.368958658791
 20
172.9132687705937
 30
0.0
  0
SEQEND
  5
312
330
308
100
AcDbEntity
  8
Capa 1
 62
     7
420
 16777215
370
     9
  0
POLYLINE
  5
313
330
1F
100
AcDbEntity
  8
Capa 1
 62
     7
420
 16777215
370
     9
100
AcDb2dPolyline
 66
     1
 10
0.0
 20
0.0
 30
0.0
  0
VERTEX
  5
314
330
313
100
AcDbEntity
  8
Capa 1
 62
     7
420
 16777215
370
     9
100
AcDbVertex
100
AcDb2dVertex
 10
97.08750086582415
 20
162.6209854500907
 30
0.0
  0
VERTEX
  5
315
330
313
100
AcDbEntity
  8
Capa 1
 62
     7
420
 16777215
370
     9
100
AcDbVertex
100
AcDb2dVertex
 10
97.08750086582415
 20
163.2030652843534
 30
0.0
  0
VERTEX
  5
316
330
313
100
AcDbEntity
  8
Capa 1
 62
     7
420
 16777215
370
     9
100
AcDbVertex
100
AcDb2dVertex
 10
97.21979387819817
 20
163.7851518473183
 30
0.0
  0
VERTEX
  5
317
330
313
100
AcDbEntity
  8
Capa 1
 62
     7
420
 16777215
370
     9
100
AcDbVertex
100
AcDb2dVertex
 10
97.51083715968059
 20
164.3143171681122
 30
0.0
  0
VERTEX
  5
318
330
313
100
AcDbEntity
  8
Capa 1
 62
     7
420
 16777215
370
     9
100
AcDbVertex
100
AcDb2dVertex
 10
97.90770946810052
 20
164.764110718703
 30
0.0
  0
SEQEND
  5
319
330
313
100
AcDbEntity
  8
Capa 1
 62
     7
420
 16777215
370
     9
  0
POLYLINE
  5
31A
330
1F
100
AcDbEntity
  8
Capa 1
 62
     7
420
 16777215
370
     9
100
AcDb2dPolyline
 66
     1
 10
0.0
 20
0.0
 30
0.0
  0
VERTEX
  5
31B
330
31A
100
AcDbEntity
  8
Capa 1
 62
     7
420
 16777215
370
     9
100
AcDbVertex
100
AcDb2dVertex
 10
98.17229549284856
 20
148.2805669029726
 30
0.0
  0
VERTEX
  5
31C
330
31A
100
AcDbEntity
  8
Capa 1
 62
     7
420
 16777215
370
     9
100
AcDbVertex
100
AcDb2dVertex
 10
98.01354522374017
 20
151.8789018502948
 30
0.0
  0
VERTEX
  5
31D
330
31A
100
AcDbEntity
  8
Capa 1
 62
     7
420
 16777215
370
     9
100
AcDbVertex
100
AcDb2dVertex
 10
97.77542318442863
 20
155.4507795408827
 30
0.0
  0
VERTEX
  5
31E
330
31A
100
AcDbEntity
  8
Capa 1
 62
     7
420
 16777215
370
     9
100
AcDbVertex
100
AcDb2dVertex
 10
97.45792264621183
 20
159.0491077595028
 30
0.0
  0
VERTEX
  5
31F
330
31A
100
AcDbEntity
  8
Capa 1
 62
     7
420
 16777215
370
     9
100
AcDbVertex
100
AcDb2dVertex
 10
97.08750086582415
 20
162.6209854500907
 30
0.0
  0
SEQEND
  5
320
330
31A
100
AcDbEntity
  8
Capa 1
 62
     7
420
 16777215
370
     9
  0
POLYLINE
  5
321
330
1F
100
AcDbEntity
  8
Capa 1
 62
     7
420
 16777215
370
     9
100
AcDb2dPolyline
 66
     1
 10
0.0
 20
0.0
 30
0.0
  0
VERTEX
  5
322
330
321
100
AcDbEntity
  8
Capa 1
 62
     7
420
 16777215
370
     9
100
AcDbVertex
100
AcDb2dVertex
 10
65.07292325989127
 20
171.1934797958378
 30
0.0
  0
VERTEX
  5
323
330
321
100
AcDbEntity
  8
Capa 1
 62
     7
420
 16777215
370
     9
100
AcDbVertex
100
AcDb2dVertex
 10
65.20521459009105
 20
170.7172357172147
 30
0.0
  0
VERTEX
  5
324
330
321
100
AcDbEntity
  8
Capa 1
 62
     7
420
 16777215
370
     9
100
AcDbVertex
100
AcDb2dVertex
 10
65.49625450722111
 20
170.3203499513906
 30
0.0
  0
VERTEX
  5
325
330
321
100
AcDbEntity
  8
Capa 1
 62
     7
420
 16777215
370
     9
100
AcDbVertex
100
AcDb2dVertex
 10
65.91959080107883
 20
170.0293201273124
 30
0.0
  0
VERTEX
  5
326
330
321
100
AcDbEntity
  8
Capa 1
 62
     7
420
 16777215
370
     9
100
AcDbVertex
100
AcDb2dVertex
 10
66.39583824405167
 20
169.9234776429707
 30
0.0
  0
SEQEND
  5
327
330
321
100
AcDbEntity
  8
Capa 1
 62
     7
420
 16777215
370
     9
  0
POLYLINE
  5
328
330
1F
100
AcDbEntity
  8
Capa 1
 62
     7
420
 16777215
370
     9
100
AcDb2dPolyline
 66
     1
 10
0.0
 20
0.0
 30
0.0
  0
VERTEX
  5
329
330
328
100
AcDbEntity
  8
Capa 1
 62
     7
420
 16777215
370
     9
100
AcDbVertex
100
AcDb2dVertex
 10
65.04646432098136
 20
171.4845230773202
 30
0.0
  0
VERTEX
  5
32A
330
328
100
AcDbEntity
  8
Capa 1
 62
     7
420
 16777215
370
     9
100
AcDbVertex
100
AcDb2dVertex
 10
65.07292325989127
 20
171.1934797958378
 30
0.0
  0
SEQEND
  5
32B
330
328
100
AcDbEntity
  8
Capa 1
 62
     7
420
 16777215
370
     9
  0
POLYLINE
  5
32C
330
1F
100
AcDbEntity
  8
Capa 1
 62
     7
420
 16777215
370
     9
100
AcDb2dPolyline
 66
     1
 10
0.0
 20
0.0
 30
0.0
  0
VERTEX
  5
32D
330
32C
100
AcDbEntity
  8
Capa 1
 62
     7
420
 16777215
370
     9
100
AcDbVertex
100
AcDb2dVertex
 10
74.28042372859855
 20
155.9534876049423
 30
0.0
  0
VERTEX
  5
32E
330
32C
100
AcDbEntity
  8
Capa 1
 62
     7
420
 16777215
370
     9
100
AcDbVertex
100
AcDb2dVertex
 10
74.2539631075131
 20
156.1386951307851
 30
0.0
  0
VERTEX
  5
32F
330
32C
100
AcDbEntity
  8
Capa 1
 62
     7
420
 16777215
370
     9
100
AcDbVertex
100
AcDb2dVertex
 10
74.14813071622453
 20
156.2445241577226
 30
0.0
  0
VERTEX
  5
330
330
32C
100
AcDbEntity
  8
Capa 1
 62
     7
420
 16777215
370
     9
100
AcDbVertex
100
AcDb2dVertex
 10
73.98938044711613
 20
156.2974453998935
 30
0.0
  0
SEQEND
  5
331
330
32C
100
AcDbEntity
  8
Capa 1
 62
     7
420
 16777215
370
     9
  0
POLYLINE
  5
332
330
1F
100
AcDbEntity
  8
Capa 1
 62
     7
420
 16777215
370
     9
100
AcDb2dPolyline
 66
     1
 10
0.0
 20
0.0
 30
0.0
  0
VERTEX
  5
333
330
332
100
AcDbEntity
  8
Capa 1
 62
     7
420
 16777215
370
     9
100
AcDbVertex
100
AcDb2dVertex
 10
67.21604684632804
 20
169.8441058727675
 30
0.0
  0
VERTEX
  5
334
330
332
100
AcDbEntity
  8
Capa 1
 62
     7
420
 16777215
370
     9
100
AcDbVertex
100
AcDb2dVertex
 10
67.29542198088224
 20
169.8176486160331
 30
0.0
  0
SEQEND
  5
335
330
332
100
AcDbEntity
  8
Capa 1
 62
     7
420
 16777215
370
     9
  0
POLYLINE
  5
336
330
1F
100
AcDbEntity
  8
Capa 1
 62
     7
420
 16777215
370
     9
100
AcDb2dPolyline
 66
     1
 10
0.0
 20
0.0
 30
0.0
  0
VERTEX
  5
337
330
336
100
AcDbEntity
  8
Capa 1
 62
     7
420
 16777215
370
     9
100
AcDbVertex
100
AcDb2dVertex
 10
66.39583824405167
 20
169.9234776429707
 30
0.0
  0
VERTEX
  5
338
330
336
100
AcDbEntity
  8
Capa 1
 62
     7
420
 16777215
370
     9
100
AcDbVertex
100
AcDb2dVertex
 10
67.18958958959495
 20
169.8441058727675
 30
0.0
  0
SEQEND
  5
339
330
336
100
AcDbEntity
  8
Capa 1
 62
     7
420
 16777215
370
     9
  0
POLYLINE
  5
33A
330
1F
100
AcDbEntity
  8
Capa 1
 62
     7
420
 16777215
370
     9
100
AcDb2dPolyline
 66
     1
 10
0.0
 20
0.0
 30
0.0
  0
VERTEX
  5
33B
330
33A
100
AcDbEntity
  8
Capa 1
 62
     7
420
 16777215
370
     9
100
AcDbVertex
100
AcDb2dVertex
 10
70.99958931949308
 20
156.3503599133622
 30
0.0
  0
VERTEX
  5
33C
330
33A
100
AcDbEntity
  8
Capa 1
 62
     7
420
 16777215
370
     9
100
AcDbVertex
100
AcDb2dVertex
 10
73.98938044711613
 20
156.2974453998935
 30
0.0
  0
SEQEND
  5
33D
330
33A
100
AcDbEntity
  8
Capa 1
 62
     7
420
 16777215
370
     9
  0
POLYLINE
  5
33E
330
1F
100
AcDbEntity
  8
Capa 1
 62
     7
420
 16777215
370
     9
100
AcDb2dPolyline
 66
     1
 10
0.0
 20
0.0
 30
0.0
  0
VERTEX
  5
33F
330
33E
100
AcDbEntity
  8
Capa 1
 62
     7
420
 16777215
370
     9
100
AcDbVertex
100
AcDb2dVertex
 10
74.41271337662279
 20
162.7797357191991
 30
0.0
  0
VERTEX
  5
340
330
33E
100
AcDbEntity
  8
Capa 1
 62
     7
420
 16777215
370
     9
100
AcDbVertex
100
AcDb2dVertex
 10
70.99958931949308
 20
162.7268212057304
 30
0.0
  0
SEQEND
  5
341
330
33E
100
AcDbEntity
  8
Capa 1
 62
     7
420
 16777215
370
     9
  0
POLYLINE
  5
342
330
1F
100
AcDbEntity
  8
Capa 1
 62
     7
420
 16777215
370
     9
100
AcDb2dPolyline
 66
     1
 10
0.0
 20
0.0
 30
0.0
  0
VERTEX
  5
343
330
342
100
AcDbEntity
  8
Capa 1
 62
     7
420
 16777215
370
     9
100
AcDbVertex
100
AcDb2dVertex
 10
74.70375665810391
 20
163.0707790006815
 30
0.0
  0
VERTEX
  5
344
330
342
100
AcDbEntity
  8
Capa 1
 62
     7
420
 16777215
370
     9
100
AcDbVertex
100
AcDb2dVertex
 10
74.62438152354972
 20
162.8855714748388
 30
0.0
  0
VERTEX
  5
345
330
342
100
AcDbEntity
  8
Capa 1
 62
     7
420
 16777215
370
     9
100
AcDbVertex
100
AcDb2dVertex
 10
74.41271337662279
 20
162.7797357191991
 30
0.0
  0
SEQEND
  5
346
330
342
100
AcDbEntity
  8
Capa 1
 62
     7
420
 16777215
370
     9
  0
POLYLINE
  5
347
330
1F
100
AcDbEntity
  8
Capa 1
 62
     7
420
 16777215
370
     9
100
AcDb2dPolyline
 66
     1
 10
0.0
 20
0.0
 30
0.0
  0
VERTEX
  5
348
330
347
100
AcDbEntity
  8
Capa 1
 62
     7
420
 16777215
370
     9
100
AcDbVertex
100
AcDb2dVertex
 10
71.50229738355266
 20
167.9126453867324
 30
0.0
  0
VERTEX
  5
349
330
347
100
AcDbEntity
  8
Capa 1
 62
     7
420
 16777215
370
     9
100
AcDbVertex
100
AcDb2dVertex
 10
72.03146270434661
 20
167.5951515772177
 30
0.0
  0
VERTEX
  5
34A
330
347
100
AcDbEntity
  8
Capa 1
 62
     7
420
 16777215
370
     9
100
AcDbVertex
100
AcDb2dVertex
 10
72.42833837711888
 20
167.1453580266269
 30
0.0
  0
SEQEND
  5
34B
330
347
100
AcDbEntity
  8
Capa 1
 62
     7
420
 16777215
370
     9
  0
POLYLINE
  5
34C
330
1F
100
AcDbEntity
  8
Capa 1
 62
     7
420
 16777215
370
     9
100
AcDb2dPolyline
 66
     1
 10
0.0
 20
0.0
 30
0.0
  0
VERTEX
  5
34D
330
34C
100
AcDbEntity
  8
Capa 1
 62
     7
420
 16777215
370
     9
100
AcDbVertex
100
AcDb2dVertex
 10
74.28042372859855
 20
164.5789031928603
 30
0.0
  0
VERTEX
  5
34E
330
34C
100
AcDbEntity
  8
Capa 1
 62
     7
420
 16777215
370
     9
100
AcDbVertex
100
AcDb2dVertex
 10
74.4920885111757
 20
164.2349453979091
 30
0.0
  0
VERTEX
  5
34F
330
34C
100
AcDbEntity
  8
Capa 1
 62
     7
420
 16777215
370
     9
100
AcDbVertex
100
AcDb2dVertex
 10
74.62438152354972
 20
163.8645236175214
 30
0.0
  0
VERTEX
  5
350
330
34C
100
AcDbEntity
  8
Capa 1
 62
     7
420
 16777215
370
     9
100
AcDbVertex
100
AcDb2dVertex
 10
74.70375665810391
 20
163.4941085658359
 30
0.0
  0
VERTEX
  5
351
330
34C
100
AcDbEntity
  8
Capa 1
 62
     7
420
 16777215
370
     9
100
AcDbVertex
100
AcDb2dVertex
 10
74.7302139148383
 20
163.0972362574159
 30
0.0
  0
SEQEND
  5
352
330
34C
100
AcDbEntity
  8
Capa 1
 62
     7
420
 16777215
370
     9
  0
POLYLINE
  5
353
330
1F
100
AcDbEntity
  8
Capa 1
 62
     7
420
 16777215
370
     9
100
AcDb2dPolyline
 66
     1
 10
0.0
 20
0.0
 30
0.0
  0
VERTEX
  5
354
330
353
100
AcDbEntity
  8
Capa 1
 62
     7
420
 16777215
370
     9
100
AcDbVertex
100
AcDb2dVertex
 10
64.12042332741642
 20
172.9132687705937
 30
0.0
  0
VERTEX
  5
355
330
353
100
AcDbEntity
  8
Capa 1
 62
     7
420
 16777215
370
     9
100
AcDbVertex
100
AcDb2dVertex
 10
64.12042332741642
 20
173.0984830251386
 30
0.0
  0
SEQEND
  5
356
330
353
100
AcDbEntity
  8
Capa 1
 62
     7
420
 16777215
370
     9
  0
POLYLINE
  5
357
330
1F
100
AcDbEntity
  8
Capa 1
 62
     7
420
 16777215
370
     9
100
AcDb2dPolyline
 66
     1
 10
0.0
 20
0.0
 30
0.0
  0
VERTEX
  5
358
330
357
100
AcDbEntity
  8
Capa 1
 62
     7
420
 16777215
370
     9
100
AcDbVertex
100
AcDb2dVertex
 10
64.30563253543473
 20
173.2836838222792
 30
0.0
  0
VERTEX
  5
359
330
357
100
AcDbEntity
  8
Capa 1
 62
     7
420
 16777215
370
     9
100
AcDbVertex
100
AcDb2dVertex
 10
64.38500598781339
 20
173.2836838222792
 30
0.0
  0
SEQEND
  5
35A
330
357
100
AcDbEntity
  8
Capa 1
 62
     7
420
 16777215
370
     9
  0
POLYLINE
  5
35B
330
1F
100
AcDbEntity
  8
Capa 1
 62
     7
420
 16777215
370
     9
100
AcDb2dPolyline
 66
     1
 10
0.0
 20
0.0
 30
0.0
  0
VERTEX
  5
35C
330
35B
100
AcDbEntity
  8
Capa 1
 62
     7
420
 16777215
370
     9
100
AcDbVertex
100
AcDb2dVertex
 10
73.91000531256194
 20
173.2836838222792
 30
0.0
  0
VERTEX
  5
35D
330
35B
100
AcDbEntity
  8
Capa 1
 62
     7
420
 16777215
370
     9
100
AcDbVertex
100
AcDb2dVertex
 10
74.51854576791008
 20
173.2836838222792
 30
0.0
  0
SEQEND
  5
35E
330
35B
100
AcDbEntity
  8
Capa 1
 62
     7
420
 16777215
370
     9
  0
POLYLINE
  5
35F
330
1F
100
AcDbEntity
  8
Capa 1
 62
     7
420
 16777215
370
     9
100
AcDb2dPolyline
 66
     1
 10
0.0
 20
0.0
 30
0.0
  0
VERTEX
  5
360
330
35F
100
AcDbEntity
  8
Capa 1
 62
     7
420
 16777215
370
     9
100
AcDbVertex
100
AcDb2dVertex
 10
64.38500598781339
 20
173.2836838222792
 30
0.0
  0
VERTEX
  5
361
330
35F
100
AcDbEntity
  8
Capa 1
 62
     7
420
 16777215
370
     9
100
AcDbVertex
100
AcDb2dVertex
 10
72.69292103751457
 20
173.2836838222792
 30
0.0
  0
SEQEND
  5
362
330
35F
100
AcDbEntity
  8
Capa 1
 62
     7
420
 16777215
370
     9
  0
POLYLINE
  5
363
330
1F
100
AcDbEntity
  8
Capa 1
 62
     7
420
 16777215
370
     9
100
AcDb2dPolyline
 66
     1
 10
0.0
 20
0.0
 30
0.0
  0
VERTEX
  5
364
330
363
100
AcDbEntity
  8
Capa 1
 62
     7
420
 16777215
370
     9
100
AcDbVertex
100
AcDb2dVertex
 10
67.29542198088224
 20
169.8176486160331
 30
0.0
  0
VERTEX
  5
365
330
363
100
AcDbEntity
  8
Capa 1
 62
     7
420
 16777215
370
     9
100
AcDbVertex
100
AcDb2dVertex
 10
71.52875464028703
 20
167.9126453867324
 30
0.0
  0
SEQEND
  5
366
330
363
100
AcDbEntity
  8
Capa 1
 62
     7
420
 16777215
370
     9
  0
POLYLINE
  5
367
330
1F
100
AcDbEntity
  8
Capa 1
 62
     7
420
 16777215
370
     9
100
AcDb2dPolyline
 66
     1
 10
0.0
 20
0.0
 30
0.0
  0
VERTEX
  5
368
330
367
100
AcDbEntity
  8
Capa 1
 62
     7
420
 16777215
370
     9
100
AcDbVertex
100
AcDb2dVertex
 10
64.30563253543473
 20
173.2836838222792
 30
0.0
  0
VERTEX
  5
369
330
367
100
AcDbEntity
  8
Capa 1
 62
     7
420
 16777215
370
     9
100
AcDbVertex
100
AcDb2dVertex
 10
64.1733395230607
 20
173.2307693088105
 30
0.0
  0
VERTEX
  5
36A
330
367
100
AcDbEntity
  8
Capa 1
 62
     7
420
 16777215
370
     9
100
AcDbVertex
100
AcDb2dVertex
 10
64.12042332741642
 20
173.0984830251386
 30
0.0
  0
SEQEND
  5
36B
330
367
100
AcDbEntity
  8
Capa 1
 62
     7
420
 16777215
370
     9
  0
POLYLINE
  5
36C
330
1F
100
AcDbEntity
  8
Capa 1
 62
     7
420
 16777215
370
     9
100
AcDb2dPolyline
 66
     1
 10
0.0
 20
0.0
 30
0.0
  0
VERTEX
  5
36D
330
36C
100
AcDbEntity
  8
Capa 1
 62
     7
420
 16777215
370
     9
100
AcDbVertex
100
AcDb2dVertex
 10
64.12042332741642
 20
172.9132687705937
 30
0.0
  0
VERTEX
  5
36E
330
36C
100
AcDbEntity
  8
Capa 1
 62
     7
420
 16777215
370
     9
100
AcDbVertex
100
AcDb2dVertex
 10
64.12042332741642
 20
171.9607671559433
 30
0.0
  0
SEQEND
  5
36F
330
36C
100
AcDbEntity
  8
Capa 1
 62
     7
420
 16777215
370
     9
  0
POLYLINE
  5
370
330
1F
100
AcDbEntity
  8
Capa 1
 62
     7
420
 16777215
370
     9
100
AcDb2dPolyline
 66
     1
 10
0.0
 20
0.0
 30
0.0
  0
VERTEX
  5
371
330
370
100
AcDbEntity
  8
Capa 1
 62
     7
420
 16777215
370
     9
100
AcDbVertex
100
AcDb2dVertex
 10
64.35854873107901
 20
171.6697373318651
 30
0.0
  0
VERTEX
  5
372
330
370
100
AcDbEntity
  8
Capa 1
 62
     7
420
 16777215
370
     9
100
AcDbVertex
100
AcDb2dVertex
 10
64.19979846197062
 20
171.7755663588026
 30
0.0
  0
VERTEX
  5
373
330
370
100
AcDbEntity
  8
Capa 1
 62
     7
420
 16777215
370
     9
100
AcDbVertex
100
AcDb2dVertex
 10
64.12042332741642
 20
171.9607671559433
 30
0.0
  0
SEQEND
  5
374
330
370
100
AcDbEntity
  8
Capa 1
 62
     7
420
 16777215
370
     9
  0
POLYLINE
  5
375
330
1F
100
AcDbEntity
  8
Capa 1
 62
     7
420
 16777215
370
     9
100
AcDb2dPolyline
 66
     1
 10
0.0
 20
0.0
 30
0.0
  0
VERTEX
  5
376
330
375
100
AcDbEntity
  8
Capa 1
 62
     7
420
 16777215
370
     9
100
AcDbVertex
100
AcDb2dVertex
 10
69.83542292226683
 20
170.1880636677187
 30
0.0
  0
VERTEX
  5
377
330
375
100
AcDbEntity
  8
Capa 1
 62
     7
420
 16777215
370
     9
100
AcDbVertex
100
AcDb2dVertex
 10
64.35854873107901
 20
171.6697373318651
 30
0.0
  0
SEQEND
  5
378
330
375
100
AcDbEntity
  8
Capa 1
 62
     7
420
 16777215
370
     9
  0
POLYLINE
  5
379
330
1F
100
AcDbEntity
  8
Capa 1
 62
     7
420
 16777215
370
     9
100
AcDb2dPolyline
 66
     1
 10
0.0
 20
0.0
 30
0.0
  0
VERTEX
  5
37A
330
379
100
AcDbEntity
  8
Capa 1
 62
     7
420
 16777215
370
     9
100
AcDbVertex
100
AcDb2dVertex
 10
70.70854603801067
 20
169.5795198480195
 30
0.0
  0
VERTEX
  5
37B
330
379
100
AcDbEntity
  8
Capa 1
 62
     7
420
 16777215
370
     9
100
AcDbVertex
100
AcDb2dVertex
 10
70.33813098632511
 20
169.949934899705
 30
0.0
  0
VERTEX
  5
37C
330
379
100
AcDbEntity
  8
Capa 1
 62
     7
420
 16777215
370
     9
100
AcDbVertex
100
AcDb2dVertex
 10
69.83542292226683
 20
170.1880636677187
 30
0.0
  0
SEQEND
  5
37D
330
379
100
AcDbEntity
  8
Capa 1
 62
     7
420
 16777215
370
     9
  0
POLYLINE
  5
37E
330
1F
100
AcDbEntity
  8
Capa 1
 62
     7
420
 16777215
370
     9
100
AcDb2dPolyline
 66
     1
 10
0.0
 20
0.0
 30
0.0
  0
VERTEX
  5
37F
330
37E
100
AcDbEntity
  8
Capa 1
 62
     7
420
 16777215
370
     9
100
AcDbVertex
100
AcDb2dVertex
 10
73.83063017800774
 20
165.2139042692938
 30
0.0
  0
VERTEX
  5
380
330
37E
100
AcDbEntity
  8
Capa 1
 62
     7
420
 16777215
370
     9
100
AcDbVertex
100
AcDb2dVertex
 10
72.79875679315421
 20
166.6426499625673
 30
0.0
  0
VERTEX
  5
381
330
37E
100
AcDbEntity
  8
Capa 1
 62
     7
420
 16777215
370
     9
100
AcDbVertex
100
AcDb2dVertex
 10
71.7668800439509
 20
168.0978596412773
 30
0.0
  0
VERTEX
  5
382
330
37E
100
AcDbEntity
  8
Capa 1
 62
     7
420
 16777215
370
     9
100
AcDbVertex
100
AcDb2dVertex
 10
70.70854603801067
 20
169.5795198480195
 30
0.0
  0
SEQEND
  5
383
330
37E
100
AcDbEntity
  8
Capa 1
 62
     7
420
 16777215
370
     9
  0
POLYLINE
  5
384
330
1F
100
AcDbEntity
  8
Capa 1
 62
     7
420
 16777215
370
     9
100
AcDb2dPolyline
 66
     1
 10
0.0
 20
0.0
 30
0.0
  0
VERTEX
  5
385
330
384
100
AcDbEntity
  8
Capa 1
 62
     7
420
 16777215
370
     9
100
AcDbVertex
100
AcDb2dVertex
 10
74.7302139148383
 20
163.0707790006815
 30
0.0
  0
VERTEX
  5
386
330
384
100
AcDbEntity
  8
Capa 1
 62
     7
420
 16777215
370
     9
100
AcDbVertex
100
AcDb2dVertex
 10
73.80417292127464
 20
148.2805669029726
 30
0.0
  0
VERTEX
  5
387
330
384
100
AcDbEntity
  8
Capa 1
 62
     7
420
 16777215
370
     9
100
AcDbVertex
100
AcDb2dVertex
 10
98.17229549284856
 20
148.2805669029726
 30
0.0
  0
SEQEND
  5
388
330
384
100
AcDbEntity
  8
Capa 1
 62
     7
420
 16777215
370
     9
  0
POLYLINE
  5
389
330
1F
100
AcDbEntity
  8
Capa 1
 62
     7
420
 16777215
370
     9
100
AcDb2dPolyline
 66
     1
 10
0.0
 20
0.0
 30
0.0
  0
VERTEX
  5
38A
330
389
100
AcDbEntity
  8
Capa 1
 62
     7
420
 16777215
370
     9
100
AcDbVertex
100
AcDb2dVertex
 10
74.43917063335589
 20
164.367231681581
 30
0.0
  0
VERTEX
  5
38B
330
389
100
AcDbEntity
  8
Capa 1
 62
     7
420
 16777215
370
     9
100
AcDbVertex
100
AcDb2dVertex
 10
74.22750585077873
 20
164.6582749630634
 30
0.0
  0
VERTEX
  5
38C
330
389
100
AcDbEntity
  8
Capa 1
 62
     7
420
 16777215
370
     9
100
AcDbVertex
100
AcDb2dVertex
 10
74.04229832493594
 20
164.9493182445458
 30
0.0
  0
VERTEX
  5
38D
330
389
100
AcDbEntity
  8
Capa 1
 62
     7
420
 16777215
370
     9
100
AcDbVertex
100
AcDb2dVertex
 10
73.83063017800774
 20
165.2139042692938
 30
0.0
  0
SEQEND
  5
38E
330
389
100
AcDbEntity
  8
Capa 1
 62
     7
420
 16777215
370
     9
  0
POLYLINE
  5
38F
330
1F
100
AcDbEntity
  8
Capa 1
 62
     7
420
 16777215
370
     9
100
AcDb2dPolyline
 66
     1
 10
0.0
 20
0.0
 30
0.0
  0
VERTEX
  5
390
330
38F
100
AcDbEntity
  8
Capa 1
 62
     7
420
 16777215
370
     9
100
AcDbVertex
100
AcDb2dVertex
 10
74.7302139148383
 20
163.3618155534618
 30
0.0
  0
VERTEX
  5
391
330
38F
100
AcDbEntity
  8
Capa 1
 62
     7
420
 16777215
370
     9
100
AcDbVertex
100
AcDb2dVertex
 10
74.67729603701848
 20
163.8909876029579
 30
0.0
  0
VERTEX
  5
392
330
38F
100
AcDbEntity
  8
Capa 1
 62
     7
420
 16777215
370
     9
100
AcDbVertex
100
AcDb2dVertex
 10
74.43917063335589
 20
164.367231681581
 30
0.0
  0
SEQEND
  5
393
330
38F
100
AcDbEntity
  8
Capa 1
 62
     7
420
 16777215
370
     9
  0
POLYLINE
  5
394
330
1F
100
AcDbEntity
  8
Capa 1
 62
     7
420
 16777215
370
     9
100
AcDb2dPolyline
 66
     1
 10
0.0
 20
0.0
 30
0.0
  0
VERTEX
  5
395
330
394
100
AcDbEntity
  8
Capa 1
 62
     7
420
 16777215
370
     9
100
AcDbVertex
100
AcDb2dVertex
 10
74.7302139148383
 20
163.0707790006815
 30
0.0
  0
VERTEX
  5
396
330
394
100
AcDbEntity
  8
Capa 1
 62
     7
420
 16777215
370
     9
100
AcDbVertex
100
AcDb2dVertex
 10
74.7302139148383
 20
163.3618155534618
 30
0.0
  0
SEQEND
  5
397
330
394
100
AcDbEntity
  8
Capa 1
 62
     7
420
 16777215
370
     9
  0
POLYLINE
  5
398
330
1F
100
AcDbEntity
  8
Capa 1
 62
     7
420
 16777215
370
     9
100
AcDb2dPolyline
 66
     1
 10
0.0
 20
0.0
 30
0.0
  0
VERTEX
  5
399
330
398
100
AcDbEntity
  8
Capa 1
 62
     7
420
 16777215
370
     9
100
AcDbVertex
100
AcDb2dVertex
 10
70.99958931949308
 20
162.7268212057304
 30
0.0
  0
VERTEX
  5
39A
330
398
100
AcDbEntity
  8
Capa 1
 62
     7
420
 16777215
370
     9
100
AcDbVertex
100
AcDb2dVertex
 10
70.99958931949308
 20
156.3503599133622
 30
0.0
  0
SEQEND
  5
39B
330
398
100
AcDbEntity
  8
Capa 1
 62
     7
420
 16777215
370
     9
  0
POLYLINE
  5
39C
330
1F
100
AcDbEntity
  8
Capa 1
 62
     7
420
 16777215
370
     9
100
AcDb2dPolyline
 66
     1
 10
0.0
 20
0.0
 30
0.0
  0
VERTEX
  5
39D
330
39C
100
AcDbEntity
  8
Capa 1
 62
     7
420
 16777215
370
     9
100
AcDbVertex
100
AcDb2dVertex
 10
67.18958958959495
 20
169.8441058727675
 30
0.0
  0
VERTEX
  5
39E
330
39C
100
AcDbEntity
  8
Capa 1
 62
     7
420
 16777215
370
     9
100
AcDbVertex
100
AcDb2dVertex
 10
67.34833985870206
 20
169.8441058727675
 30
0.0
  0
VERTEX
  5
39F
330
39C
100
AcDbEntity
  8
Capa 1
 62
     7
420
 16777215
370
     9
100
AcDbVertex
100
AcDb2dVertex
 10
67.66584039691885
 20
169.8176486160331
 30
0.0
  0
VERTEX
  5
3A0
330
39C
100
AcDbEntity
  8
Capa 1
 62
     7
420
 16777215
370
     9
100
AcDbVertex
100
AcDb2dVertex
 10
68.32729873008682
 20
169.7647341025644
 30
0.0
  0
VERTEX
  5
3A1
330
39C
100
AcDbEntity
  8
Capa 1
 62
     7
420
 16777215
370
     9
100
AcDbVertex
100
AcDb2dVertex
 10
68.96229644216936
 20
169.7118195890956
 30
0.0
  0
VERTEX
  5
3A2
330
39C
100
AcDbEntity
  8
Capa 1
 62
     7
420
 16777215
370
     9
100
AcDbVertex
100
AcDb2dVertex
 10
70.70854603801067
 20
169.5795198480195
 30
0.0
  0
SEQEND
  5
3A3
330
39C
100
AcDbEntity
  8
Capa 1
 62
     7
420
 16777215
370
     9
  0
POLYLINE
  5
3A4
330
1F
100
AcDbEntity
  8
Capa 1
 62
     7
420
 16777215
370
     9
100
AcDb2dPolyline
 66
     1
 10
0.0
 20
0.0
 30
0.0
  0
VERTEX
  5
3A5
330
3A4
100
AcDbEntity
  8
Capa 1
 62
     7
420
 16777215
370
     9
100
AcDbVertex
100
AcDb2dVertex
 10
72.77229617206876
 20
173.2836838222792
 30
0.0
  0
VERTEX
  5
3A6
330
3A4
100
AcDbEntity
  8
Capa 1
 62
     7
420
 16777215
370
     9
100
AcDbVertex
100
AcDb2dVertex
 10
104.9985436071054
 20
173.2836838222792
 30
0.0
  0
SEQEND
  5
3A7
330
3A4
100
AcDbEntity
  8
Capa 1
 62
     7
420
 16777215
370
     9
  0
POLYLINE
  5
3A8
330
1F
100
AcDbEntity
  8
Capa 1
 62
     7
420
 16777215
370
     9
100
AcDb2dPolyline
 66
     1
 10
0.0
 20
0.0
 30
0.0
  0
VERTEX
  5
3A9
330
3A8
100
AcDbEntity
  8
Capa 1
 62
     7
420
 16777215
370
     9
100
AcDbVertex
100
AcDb2dVertex
 10
96.45250651809269
 20
163.4147367956327
 30
0.0
  0
VERTEX
  5
3AA
330
3A8
100
AcDbEntity
  8
Capa 1
 62
     7
420
 16777215
370
     9
100
AcDbVertex
100
AcDb2dVertex
 10
96.29375624898557
 20
163.4147367956327
 30
0.0
  0
VERTEX
  5
3AB
330
3A8
100
AcDbEntity
  8
Capa 1
 62
     7
420
 16777215
370
     9
100
AcDbVertex
100
AcDb2dVertex
 10
96.10854199443939
 20
163.4411940523671
 30
0.0
  0
VERTEX
  5
3AC
330
3A8
100
AcDbEntity
  8
Capa 1
 62
     7
420
 16777215
370
     9
100
AcDbVertex
100
AcDb2dVertex
 10
95.87041995512786
 20
163.4676513091015
 30
0.0
  0
VERTEX
  5
3AD
330
3A8
100
AcDbEntity
  8
Capa 1
 62
     7
420
 16777215
370
     9
100
AcDbVertex
100
AcDb2dVertex
 10
95.55291941691107
 20
163.4941085658359
 30
0.0
  0
VERTEX
  5
3AE
330
3A8
100
AcDbEntity
  8
Capa 1
 62
     7
420
 16777215
370
     9
100
AcDbVertex
100
AcDb2dVertex
 10
95.18250436522551
 20
163.5205658225702
 30
0.0
  0
VERTEX
  5
3AF
330
3A8
100
AcDbEntity
  8
Capa 1
 62
     7
420
 16777215
370
     9
100
AcDbVertex
100
AcDb2dVertex
 10
94.75916807136907
 20
163.5470230793046
 30
0.0
  0
VERTEX
  5
3B0
330
3A8
100
AcDbEntity
  8
Capa 1
 62
     7
420
 16777215
370
     9
100
AcDbVertex
100
AcDb2dVertex
 10
94.2564600073095
 20
163.5999443214755
 30
0.0
  0
VERTEX
  5
3B1
330
3A8
100
AcDbEntity
  8
Capa 1
 62
     7
420
 16777215
370
     9
100
AcDbVertex
100
AcDb2dVertex
 10
93.72729468651555
 20
163.6264015782099
 30
0.0
  0
VERTEX
  5
3B2
330
3A8
100
AcDbEntity
  8
Capa 1
 62
     7
420
 16777215
370
     9
100
AcDbVertex
100
AcDb2dVertex
 10
93.17167210898722
 20
163.6793160916786
 30
0.0
  0
VERTEX
  5
3B3
330
3A8
100
AcDbEntity
  8
Capa 1
 62
     7
420
 16777215
370
     9
100
AcDbVertex
100
AcDb2dVertex
 10
92.56313165363908
 20
163.705773348413
 30
0.0
  0
VERTEX
  5
3B4
330
3A8
100
AcDbEntity
  8
Capa 1
 62
     7
420
 16777215
370
     9
100
AcDbVertex
100
AcDb2dVertex
 10
91.95458783393987
 20
163.7586945905839
 30
0.0
  0
VERTEX
  5
3B5
330
3A8
100
AcDbEntity
  8
Capa 1
 62
     7
420
 16777215
370
     9
100
AcDbVertex
100
AcDb2dVertex
 10
91.31959012185733
 20
163.7851518473183
 30
0.0
  0
VERTEX
  5
3B6
330
3A8
100
AcDbEntity
  8
Capa 1
 62
     7
420
 16777215
370
     9
100
AcDbVertex
100
AcDb2dVertex
 10
91.02854684037491
 20
163.8116091040526
 30
0.0
  0
VERTEX
  5
3B7
330
3A8
100
AcDbEntity
  8
Capa 1
 62
     7
420
 16777215
370
     9
100
AcDbVertex
100
AcDb2dVertex
 10
90.71104630215812
 20
163.838066360787
 30
0.0
  0
SEQEND
  5
3B8
330
3A8
100
AcDbEntity
  8
Capa 1
 62
     7
420
 16777215
370
     9
  0
POLYLINE
  5
3B9
330
1F
100
AcDbEntity
  8
Capa 1
 62
     7
420
 16777215
370
     9
100
AcDb2dPolyline
 66
     1
 10
0.0
 20
0.0
 30
0.0
  0
VERTEX
  5
3BA
330
3B9
100
AcDbEntity
  8
Capa 1
 62
     7
420
 16777215
370
     9
100
AcDbVertex
100
AcDb2dVertex
 10
90.68458904542375
 20
163.838066360787
 30
0.0
  0
VERTEX
  5
3BB
330
3B9
100
AcDbEntity
  8
Capa 1
 62
     7
420
 16777215
370
     9
100
AcDbVertex
100
AcDb2dVertex
 10
81.71521229820354
 20
163.8116091040526
 30
0.0
  0
SEQEND
  5
3BC
330
3B9
100
AcDbEntity
  8
Capa 1
 62
     7
420
 16777215
370
     9
  0
POLYLINE
  5
3BD
330
1F
100
AcDbEntity
  8
Capa 1
 62
     7
420
 16777215
370
     9
100
AcDb2dPolyline
 66
     1
 10
0.0
 20
0.0
 30
0.0
  0
VERTEX
  5
3BE
330
3BD
100
AcDbEntity
  8
Capa 1
 62
     7
420
 16777215
370
     9
100
AcDbVertex
100
AcDb2dVertex
 10
73.69834052998478
 20
172.5428537189081
 30
0.0
  0
VERTEX
  5
3BF
330
3BD
100
AcDbEntity
  8
Capa 1
 62
     7
420
 16777215
370
     9
100
AcDbVertex
100
AcDb2dVertex
 10
73.59250477434513
 20
172.7280679734531
 30
0.0
  0
VERTEX
  5
3C0
330
3BD
100
AcDbEntity
  8
Capa 1
 62
     7
420
 16777215
370
     9
100
AcDbVertex
100
AcDb2dVertex
 10
73.56604751761076
 20
172.9132687705937
 30
0.0
  0
VERTEX
  5
3C1
330
3BD
100
AcDbEntity
  8
Capa 1
 62
     7
420
 16777215
370
     9
100
AcDbVertex
100
AcDb2dVertex
 10
73.59250477434513
 20
173.0984830251386
 30
0.0
  0
VERTEX
  5
3C2
330
3BD
100
AcDbEntity
  8
Capa 1
 62
     7
420
 16777215
370
     9
100
AcDbVertex
100
AcDb2dVertex
 10
73.72479778671915
 20
173.2307693088105
 30
0.0
  0
VERTEX
  5
3C3
330
3BD
100
AcDbEntity
  8
Capa 1
 62
     7
420
 16777215
370
     9
100
AcDbVertex
100
AcDb2dVertex
 10
73.91000531256194
 20
173.2836838222792
 30
0.0
  0
SEQEND
  5
3C4
330
3BD
100
AcDbEntity
  8
Capa 1
 62
     7
420
 16777215
370
     9
  0
POLYLINE
  5
3C5
330
1F
100
AcDbEntity
  8
Capa 1
 62
     7
420
 16777215
370
     9
100
AcDb2dPolyline
 66
     1
 10
0.0
 20
0.0
 30
0.0
  0
VERTEX
  5
3C6
330
3C5
100
AcDbEntity
  8
Capa 1
 62
     7
420
 16777215
370
     9
100
AcDbVertex
100
AcDb2dVertex
 10
73.69834052998478
 20
172.5428537189081
 30
0.0
  0
VERTEX
  5
3C7
330
3C5
100
AcDbEntity
  8
Capa 1
 62
     7
420
 16777215
370
     9
100
AcDbVertex
100
AcDb2dVertex
 10
73.72479778671915
 20
172.4899392054394
 30
0.0
  0
VERTEX
  5
3C8
330
3C5
100
AcDbEntity
  8
Capa 1
 62
     7
420
 16777215
370
     9
100
AcDbVertex
100
AcDb2dVertex
 10
75.62979765166887
 20
169.5266053345507
 30
0.0
  0
SEQEND
  5
3C9
330
3C5
100
AcDbEntity
  8
Capa 1
 62
     7
420
 16777215
370
     9
  0
POLYLINE
  5
3CA
330
1F
100
AcDbEntity
  8
Capa 1
 62
     7
420
 16777215
370
     9
100
AcDb2dPolyline
 66
     1
 10
0.0
 20
0.0
 30
0.0
  0
VERTEX
  5
3CB
330
3CA
100
AcDbEntity
  8
Capa 1
 62
     7
420
 16777215
370
     9
100
AcDbVertex
100
AcDb2dVertex
 10
78.3814633756306
 20
165.425569051871
 30
0.0
  0
VERTEX
  5
3CC
330
3CA
100
AcDbEntity
  8
Capa 1
 62
     7
420
 16777215
370
     9
100
AcDbVertex
100
AcDb2dVertex
 10
78.72542117058049
 20
164.9493182445458
 30
0.0
  0
VERTEX
  5
3CD
330
3CA
100
AcDbEntity
  8
Capa 1
 62
     7
420
 16777215
370
     9
100
AcDbVertex
100
AcDb2dVertex
 10
79.14875410008587
 20
164.5259819506894
 30
0.0
  0
SEQEND
  5
3CE
330
3CA
100
AcDbEntity
  8
Capa 1
 62
     7
420
 16777215
370
     9
  0
POLYLINE
  5
3CF
330
1F
100
AcDbEntity
  8
Capa 1
 62
     7
420
 16777215
370
     9
100
AcDb2dPolyline
 66
     1
 10
0.0
 20
0.0
 30
0.0
  0
VERTEX
  5
3D0
330
3CF
100
AcDbEntity
  8
Capa 1
 62
     7
420
 16777215
370
     9
100
AcDbVertex
100
AcDb2dVertex
 10
79.14875410008587
 20
164.5259819506894
 30
0.0
  0
VERTEX
  5
3D1
330
3CF
100
AcDbEntity
  8
Capa 1
 62
     7
420
 16777215
370
     9
100
AcDbVertex
100
AcDb2dVertex
 10
80.7097961700844
 20
163.0707790006815
 30
0.0
  0
SEQEND
  5
3D2
330
3CF
100
AcDbEntity
  8
Capa 1
 62
     7
420
 16777215
370
     9
  0
POLYLINE
  5
3D3
330
1F
100
AcDbEntity
  8
Capa 1
 62
     7
420
 16777215
370
     9
100
AcDb2dPolyline
 66
     1
 10
0.0
 20
0.0
 30
0.0
  0
VERTEX
  5
3D4
330
3D3
100
AcDbEntity
  8
Capa 1
 62
     7
420
 16777215
370
     9
100
AcDbVertex
100
AcDb2dVertex
 10
75.62979765166887
 20
169.5266053345507
 30
0.0
  0
VERTEX
  5
3D5
330
3D3
100
AcDbEntity
  8
Capa 1
 62
     7
420
 16777215
370
     9
100
AcDbVertex
100
AcDb2dVertex
 10
78.3814633756306
 20
165.425569051871
 30
0.0
  0
SEQEND
  5
3D6
330
3D3
100
AcDbEntity
  8
Capa 1
 62
     7
420
 16777215
370
     9
  0
POLYLINE
  5
3D7
330
1F
100
AcDbEntity
  8
Capa 1
 62
     7
420
 16777215
370
     9
100
AcDb2dPolyline
 66
     1
 10
0.0
 20
0.0
 30
0.0
  0
VERTEX
  5
3D8
330
3D7
100
AcDbEntity
  8
Capa 1
 62
     7
420
 16777215
370
     9
100
AcDbVertex
100
AcDb2dVertex
 10
111.1897973736308
 20
149.4182760434657
 30
0.0
  0
VERTEX
  5
3D9
330
3D7
100
AcDbEntity
  8
Capa 1
 62
     7
420
 16777215
370
     9
100
AcDbVertex
100
AcDb2dVertex
 10
111.1897973736308
 20
159.2343152853456
 30
0.0
  0
SEQEND
  5
3DA
330
3D7
100
AcDbEntity
  8
Capa 1
 62
     7
420
 16777215
370
     9
  0
POLYLINE
  5
3DB
330
1F
100
AcDbEntity
  8
Capa 1
 62
     7
420
 16777215
370
     9
100
AcDb2dPolyline
 66
     1
 10
0.0
 20
0.0
 30
0.0
  0
VERTEX
  5
3DC
330
3DB
100
AcDbEntity
  8
Capa 1
 62
     7
420
 16777215
370
     9
100
AcDbVertex
100
AcDb2dVertex
 10
111.1897973736308
 20
172.1724386672226
 30
0.0
  0
VERTEX
  5
3DD
330
3DB
100
AcDbEntity
  8
Capa 1
 62
     7
420
 16777215
370
     9
100
AcDbVertex
100
AcDb2dVertex
 10
111.1897973736308
 20
162.3563994253427
 30
0.0
  0
SEQEND
  5
3DE
330
3DB
100
AcDbEntity
  8
Capa 1
 62
     7
420
 16777215
370
     9
  0
POLYLINE
  5
3DF
330
1F
100
AcDbEntity
  8
Capa 1
 62
     7
420
 16777215
370
     9
100
AcDb2dPolyline
 66
     1
 10
0.0
 20
0.0
 30
0.0
  0
VERTEX
  5
3E0
330
3DF
100
AcDbEntity
  8
Capa 1
 62
     7
420
 16777215
370
     9
100
AcDbVertex
100
AcDb2dVertex
 10
99.12479710749895
 20
148.2805669029726
 30
0.0
  0
VERTEX
  5
3E1
330
3DF
100
AcDbEntity
  8
Capa 1
 62
     7
420
 16777215
370
     9
100
AcDbVertex
100
AcDb2dVertex
 10
111.8247917213622
 20
148.2805669029726
 30
0.0
  0
SEQEND
  5
3E2
330
3DF
100
AcDbEntity
  8
Capa 1
 62
     7
420
 16777215
370
     9
  0
POLYLINE
  5
3E3
330
1F
100
AcDbEntity
  8
Capa 1
 62
     7
420
 16777215
370
     9
100
AcDb2dPolyline
 66
     1
 10
0.0
 20
0.0
 30
0.0
  0
VERTEX
  5
3E4
330
3E3
100
AcDbEntity
  8
Capa 1
 62
     7
420
 16777215
370
     9
100
AcDbVertex
100
AcDb2dVertex
 10
105.9245879650214
 20
173.2836838222792
 30
0.0
  0
VERTEX
  5
3E5
330
3E3
100
AcDbEntity
  8
Capa 1
 62
     7
420
 16777215
370
     9
100
AcDbVertex
100
AcDb2dVertex
 10
111.8247917213622
 20
173.2836838222792
 30
0.0
  0
SEQEND
  5
3E6
330
3E3
100
AcDbEntity
  8
Capa 1
 62
     7
420
 16777215
370
     9
  0
POLYLINE
  5
3E7
330
1F
100
AcDbEntity
  8
Capa 1
370
     0
100
AcDb2dPolyline
 66
     1
 10
0.0
 20
0.0
 30
0.0
  0
VERTEX
  5
3E8
330
3E7
100
AcDbEntity
  8
Capa 1
370
     0
100
AcDbVertex
100
AcDb2dVertex
 10
111.0045831190859
 20
172.1724386672226
 30
0.0
  0
VERTEX
  5
3E9
330
3E7
100
AcDbEntity
  8
Capa 1
370
     0
100
AcDbVertex
100
AcDb2dVertex
 10
111.3750048994736
 20
172.1724386672226
 30
0.0
  0
VERTEX
  5
3EA
330
3E7
100
AcDbEntity
  8
Capa 1
370
     0
100
AcDbVertex
100
AcDb2dVertex
 10
111.1897973736308
 20
173.2836838222792
 30
0.0
  0
SEQEND
  5
3EC
330
3E7
100
AcDbEntity
  8
Capa 1
370
     0
  0
HATCH
  5
3EB
330
1F
100
AcDbEntity
  8
Capa 1
 62
     7
420
 16777215
100
AcDbHatch
 10
0.0
 20
0.0
 30
0.0
210
0.0
220
0.0
230
1.0
  2
SOLID
 70
     1
 71
     0
 91
        1
 92
        1
 93
        3
 72
     1
 10
111.0045831190859
 20
172.1724386672226
 11
111.3750048994736
 21
172.1724386672226
 72
     1
 10
111.3750048994736
 20
172.1724386672226
 11
111.1897973736308
 21
173.2836838222792
 72
     1
 10
111.1897973736308
 20
173.2836838222792
 11
111.0045831190859
 21
172.1724386672226
 97
        0
 75
     0
 76
     1
 98
        0
  0
POLYLINE
  5
3ED
330
1F
100
AcDbEntity
  8
Capa 1
370
     0
100
AcDb2dPolyline
 66
     1
 10
0.0
 20
0.0
 30
0.0
  0
VERTEX
  5
3EE
330
3ED
100
AcDbEntity
  8
Capa 1
370
     0
100
AcDbVertex
100
AcDb2dVertex
 10
111.0045831190859
 20
149.4182760434657
 30
0.0
  0
VERTEX
  5
3EF
330
3ED
100
AcDbEntity
  8
Capa 1
370
     0
100
AcDbVertex
100
AcDb2dVertex
 10
111.3750048994736
 20
149.4182760434657
 30
0.0
  0
VERTEX
  5
3F0
330
3ED
100
AcDbEntity
  8
Capa 1
370
     0
100
AcDbVertex
100
AcDb2dVertex
 10
111.1897973736308
 20
148.2805669029726
 30
0.0
  0
SEQEND
  5
3F2
330
3ED
100
AcDbEntity
  8
Capa 1
370
     0
  0
HATCH
  5
3F1
330
1F
100
AcDbEntity
  8
Capa 1
 62
     7
420
 16777215
100
AcDbHatch
 10
0.0
 20
0.0
 30
0.0
210
0.0
220
0.0
230
1.0
  2
SOLID
 70
     1
 71
     0
 91
        1
 92
        1
 93
        3
 72
     1
 10
111.0045831190859
 20
149.4182760434657
 11
111.3750048994736
 21
149.4182760434657
 72
     1
 10
111.3750048994736
 20
149.4182760434657
 11
111.1897973736308
 21
148.2805669029726
 72
     1
 10
111.1897973736308
 20
148.2805669029726
 11
111.0045831190859
 21
149.4182760434657
 97
        0
 75
     0
 76
     1
 98
        0
  0
POLYLINE
  5
3F3
330
1F
100
AcDbEntity
  8
Capa 1
 62
     7
420
 16777215
370
     9
100
AcDb2dPolyline
 66
     1
 10
0.0
 20
0.0
 30
0.0
  0
VERTEX
  5
3F4
330
3F3
100
AcDbEntity
  8
Capa 1
 62
     7
420
 16777215
370
     9
100
AcDbVertex
100
AcDb2dVertex
 10
76.00021270335442
 20
142.8301499685204
 30
0.0
  0
VERTEX
  5
3F5
330
3F3
100
AcDbEntity
  8
Capa 1
 62
     7
420
 16777215
370
     9
100
AcDbVertex
100
AcDb2dVertex
 10
96.00271296750188
 20
142.8301499685204
 30
0.0
  0
SEQEND
  5
3F6
330
3F3
100
AcDbEntity
  8
Capa 1
 62
     7
420
 16777215
370
     9
  0
POLYLINE
  5
3F7
330
1F
100
AcDbEntity
  8
Capa 1
 62
     7
420
 16777215
370
     9
100
AcDb2dPolyline
 66
     1
 10
0.0
 20
0.0
 30
0.0
  0
VERTEX
  5
3F8
330
3F7
100
AcDbEntity
  8
Capa 1
 62
     7
420
 16777215
370
     9
100
AcDbVertex
100
AcDb2dVertex
 10
98.17229549284856
 20
148.2805669029726
 30
0.0
  0
VERTEX
  5
3F9
330
3F7
100
AcDbEntity
  8
Capa 1
 62
     7
420
 16777215
370
     9
100
AcDbVertex
100
AcDb2dVertex
 10
98.17229549284856
 20
141.9041123393066
 30
0.0
  0
SEQEND
  5
3FA
330
3F7
100
AcDbEntity
  8
Capa 1
 62
     7
420
 16777215
370
     9
  0
POLYLINE
  5
3FB
330
1F
100
AcDbEntity
  8
Capa 1
 62
     7
420
 16777215
370
     9
100
AcDb2dPolyline
 66
     1
 10
0.0
 20
0.0
 30
0.0
  0
VERTEX
  5
3FC
330
3FB
100
AcDbEntity
  8
Capa 1
 62
     7
420
 16777215
370
     9
100
AcDbVertex
100
AcDb2dVertex
 10
73.80417292127464
 20
148.2805669029726
 30
0.0
  0
VERTEX
  5
3FD
330
3FB
100
AcDbEntity
  8
Capa 1
 62
     7
420
 16777215
370
     9
100
AcDbVertex
100
AcDb2dVertex
 10
73.80417292127464
 20
141.9041123393066
 30
0.0
  0
SEQEND
  5
3FE
330
3FB
100
AcDbEntity
  8
Capa 1
 62
     7
420
 16777215
370
     9
  0
POLYLINE
  5
3FF
330
1F
100
AcDbEntity
  8
Capa 1
370
     0
100
AcDb2dPolyline
 66
     1
 10
0.0
 20
0.0
 30
0.0
  0
VERTEX
  5
400
330
3FF
100
AcDbEntity
  8
Capa 1
370
     0
100
AcDbVertex
100
AcDb2dVertex
 10
76.00021270335442
 20
143.2005717489081
 30
0.0
  0
VERTEX
  5
401
330
3FF
100
AcDbEntity
  8
Capa 1
370
     0
100
AcDbVertex
100
AcDb2dVertex
 10
76.00021270335442
 20
142.4597349168349
 30
0.0
  0
VERTEX
  5
402
330
3FF
100
AcDbEntity
  8
Capa 1
370
     0
100
AcDbVertex
100
AcDb2dVertex
 10
73.80417292127464
 20
142.8301499685204
 30
0.0
  0
SEQEND
  5
404
330
3FF
100
AcDbEntity
  8
Capa 1
370
     0
  0
HATCH
  5
403
330
1F
100
AcDbEntity
  8
Capa 1
 62
     7
420
 16777215
100
AcDbHatch
 10
0.0
 20
0.0
 30
0.0
210
0.0
220
0.0
230
1.0
  2
SOLID
 70
     1
 71
     0
 91
        1
 92
        1
 93
        3
 72
     1
 10
76.00021270335442
 20
143.2005717489081
 11
76.00021270335442
 21
142.4597349168349
 72
     1
 10
76.00021270335442
 20
142.4597349168349
 11
73.80417292127464
 21
142.8301499685204
 72
     1
 10
73.80417292127464
 20
142.8301499685204
 11
76.00021270335442
 21
143.2005717489081
 97
        0
 75
     0
 76
     1
 98
        0
  0
POLYLINE
  5
405
330
1F
100
AcDbEntity
  8
Capa 1
370
     0
100
AcDb2dPolyline
 66
     1
 10
0.0
 20
0.0
 30
0.0
  0
VERTEX
  5
406
330
405
100
AcDbEntity
  8
Capa 1
370
     0
100
AcDbVertex
100
AcDb2dVertex
 10
96.00271296750188
 20
143.2005717489081
 30
0.0
  0
VERTEX
  5
407
330
405
100
AcDbEntity
  8
Capa 1
370
     0
100
AcDbVertex
100
AcDb2dVertex
 10
96.00271296750188
 20
142.4597349168349
 30
0.0
  0
VERTEX
  5
408
330
405
100
AcDbEntity
  8
Capa 1
370
     0
100
AcDbVertex
100
AcDb2dVertex
 10
98.17229549284856
 20
142.8301499685204
 30
0.0
  0
SEQEND
  5
40A
330
405
100
AcDbEntity
  8
Capa 1
370
     0
  0
HATCH
  5
409
330
1F
100
AcDbEntity
  8
Capa 1
 62
     7
420
 16777215
100
AcDbHatch
 10
0.0
 20
0.0
 30
0.0
210
0.0
220
0.0
230
1.0
  2
SOLID
 70
     1
 71
     0
 91
        1
 92
        1
 93
        3
 72
     1
 10
96.00271296750188
 20
143.2005717489081
 11
96.00271296750188
 21
142.4597349168349
 72
     1
 10
96.00271296750188
 20
142.4597349168349
 11
98.17229549284856
 21
142.8301499685204
 72
     1
 10
98.17229549284856
 20
142.8301499685204
 11
96.00271296750188
 21
143.2005717489081
 97
        0
 75
     0
 76
     1
 98
        0
  0
POLYLINE
  5
40B
330
1F
100
AcDbEntity
  8
Capa 1
 62
     7
420
 16777215
370
     9
100
AcDb2dPolyline
 66
     1
 10
0.0
 20
0.0
 30
0.0
  0
VERTEX
  5
40C
330
40B
100
AcDbEntity
  8
Capa 1
 62
     7
420
 16777215
370
     9
100
AcDbVertex
100
AcDb2dVertex
 10
70.99958931949308
 20
165.3726545384022
 30
0.0
  0
VERTEX
  5
40D
330
40B
100
AcDbEntity
  8
Capa 1
 62
     7
420
 16777215
370
     9
100
AcDbVertex
100
AcDb2dVertex
 10
70.02063044810832
 20
165.3726545384022
 30
0.0
  0
SEQEND
  5
40E
330
40B
100
AcDbEntity
  8
Capa 1
 62
     7
420
 16777215
370
     9
  0
POLYLINE
  5
40F
330
1F
100
AcDbEntity
  8
Capa 1
 62
     7
420
 16777215
370
     9
100
AcDb2dPolyline
 66
     1
 10
0.0
 20
0.0
 30
0.0
  0
VERTEX
  5
410
330
40F
100
AcDbEntity
  8
Capa 1
 62
     7
420
 16777215
370
     9
100
AcDbVertex
100
AcDb2dVertex
 10
64.12042332741642
 20
165.3726545384022
 30
0.0
  0
VERTEX
  5
411
330
40F
100
AcDbEntity
  8
Capa 1
 62
     7
420
 16777215
370
     9
100
AcDbVertex
100
AcDb2dVertex
 10
65.09938219880118
 20
165.3726545384022
 30
0.0
  0
SEQEND
  5
412
330
40F
100
AcDbEntity
  8
Capa 1
 62
     7
420
 16777215
370
     9
  0
POLYLINE
  5
413
330
1F
100
AcDbEntity
  8
Capa 1
 62
     7
420
 16777215
370
     9
100
AcDb2dPolyline
 66
     1
 10
0.0
 20
0.0
 30
0.0
  0
VERTEX
  5
414
330
413
100
AcDbEntity
  8
Capa 1
 62
     7
420
 16777215
370
     9
100
AcDbVertex
100
AcDb2dVertex
 10
72.13729845998624
 20
165.3726545384022
 30
0.0
  0
VERTEX
  5
415
330
413
100
AcDbEntity
  8
Capa 1
 62
     7
420
 16777215
370
     9
100
AcDbVertex
100
AcDb2dVertex
 10
73.24854697939396
 20
165.3726545384022
 30
0.0
  0
SEQEND
  5
416
330
413
100
AcDbEntity
  8
Capa 1
 62
     7
420
 16777215
370
     9
  0
POLYLINE
  5
417
330
1F
100
AcDbEntity
  8
Capa 1
 62
     7
420
 16777215
370
     9
100
AcDb2dPolyline
 66
     1
 10
0.0
 20
0.0
 30
0.0
  0
VERTEX
  5
418
330
417
100
AcDbEntity
  8
Capa 1
 62
     7
420
 16777215
370
     9
100
AcDbVertex
100
AcDb2dVertex
 10
63.00906714877478
 20
165.3726545384022
 30
0.0
  0
VERTEX
  5
419
330
417
100
AcDbEntity
  8
Capa 1
 62
     7
420
 16777215
370
     9
100
AcDbVertex
100
AcDb2dVertex
 10
61.87135800828162
 20
165.3726545384022
 30
0.0
  0
SEQEND
  5
41A
330
417
100
AcDbEntity
  8
Capa 1
 62
     7
420
 16777215
370
     9
  0
POLYLINE
  5
41B
330
1F
100
AcDbEntity
  8
Capa 1
 62
     7
420
 16777215
370
     9
100
AcDb2dPolyline
 66
     1
 10
0.0
 20
0.0
 30
0.0
  0
VERTEX
  5
41C
330
41B
100
AcDbEntity
  8
Capa 1
 62
     7
420
 16777215
370
     9
100
AcDbVertex
100
AcDb2dVertex
 10
70.99958931949308
 20
163.6528588349443
 30
0.0
  0
VERTEX
  5
41D
330
41B
100
AcDbEntity
  8
Capa 1
 62
     7
420
 16777215
370
     9
100
AcDbVertex
100
AcDb2dVertex
 10
70.99958931949308
 20
166.0076488861337
 30
0.0
  0
SEQEND
  5
41E
330
41B
100
AcDbEntity
  8
Capa 1
 62
     7
420
 16777215
370
     9
  0
POLYLINE
  5
41F
330
1F
100
AcDbEntity
  8
Capa 1
 62
     7
420
 16777215
370
     9
100
AcDb2dPolyline
 66
     1
 10
0.0
 20
0.0
 30
0.0
  0
VERTEX
  5
420
330
41F
100
AcDbEntity
  8
Capa 1
 62
     7
420
 16777215
370
     9
100
AcDbVertex
100
AcDb2dVertex
 10
64.12042332741642
 20
172.5957682323769
 30
0.0
  0
VERTEX
  5
421
330
41F
100
AcDbEntity
  8
Capa 1
 62
     7
420
 16777215
370
     9
100
AcDbVertex
100
AcDb2dVertex
 10
64.12042332741642
 20
164.7376534619686
 30
0.0
  0
SEQEND
  5
422
330
41F
100
AcDbEntity
  8
Capa 1
 62
     7
420
 16777215
370
     9
  0
POLYLINE
  5
423
330
1F
100
AcDbEntity
  8
Capa 1
370
     0
100
AcDb2dPolyline
 66
     1
 10
0.0
 20
0.0
 30
0.0
  0
VERTEX
  5
424
330
423
100
AcDbEntity
  8
Capa 1
370
     0
100
AcDbVertex
100
AcDb2dVertex
 10
63.00906714877478
 20
165.557862064245
 30
0.0
  0
VERTEX
  5
425
330
423
100
AcDbEntity
  8
Capa 1
370
     0
100
AcDbVertex
100
AcDb2dVertex
 10
63.00906714877478
 20
165.1874402838573
 30
0.0
  0
VERTEX
  5
426
330
423
100
AcDbEntity
  8
Capa 1
370
     0
100
AcDbVertex
100
AcDb2dVertex
 10
64.12042332741642
 20
165.3726545384022
 30
0.0
  0
SEQEND
  5
428
330
423
100
AcDbEntity
  8
Capa 1
370
     0
  0
HATCH
  5
427
330
1F
100
AcDbEntity
  8
Capa 1
 62
     7
420
 16777215
100
AcDbHatch
 10
0.0
 20
0.0
 30
0.0
210
0.0
220
0.0
230
1.0
  2
SOLID
 70
     1
 71
     0
 91
        1
 92
        1
 93
        3
 72
     1
 10
63.00906714877478
 20
165.557862064245
 11
63.00906714877478
 21
165.1874402838573
 72
     1
 10
63.00906714877478
 20
165.1874402838573
 11
64.12042332741642
 21
165.3726545384022
 72
     1
 10
64.12042332741642
 20
165.3726545384022
 11
63.00906714877478
 21
165.557862064245
 97
        0
 75
     0
 76
     1
 98
        0
  0
POLYLINE
  5
429
330
1F
100
AcDbEntity
  8
Capa 1
370
     0
100
AcDb2dPolyline
 66
     1
 10
0.0
 20
0.0
 30
0.0
  0
VERTEX
  5
42A
330
429
100
AcDbEntity
  8
Capa 1
370
     0
100
AcDbVertex
100
AcDb2dVertex
 10
72.13729845998624
 20
165.557862064245
 30
0.0
  0
VERTEX
  5
42B
330
429
100
AcDbEntity
  8
Capa 1
370
     0
100
AcDbVertex
100
AcDb2dVertex
 10
72.13729845998624
 20
165.1874402838573
 30
0.0
  0
VERTEX
  5
42C
330
429
100
AcDbEntity
  8
Capa 1
370
     0
100
AcDbVertex
100
AcDb2dVertex
 10
70.99958931949308
 20
165.3726545384022
 30
0.0
  0
SEQEND
  5
42E
330
429
100
AcDbEntity
  8
Capa 1
370
     0
  0
HATCH
  5
42D
330
1F
100
AcDbEntity
  8
Capa 1
 62
     7
420
 16777215
100
AcDbHatch
 10
0.0
 20
0.0
 30
0.0
210
0.0
220
0.0
230
1.0
  2
SOLID
 70
     1
 71
     0
 91
        1
 92
        1
 93
        3
 72
     1
 10
72.13729845998624
 20
165.557862064245
 11
72.13729845998624
 21
165.1874402838573
 72
     1
 10
72.13729845998624
 20
165.1874402838573
 11
70.99958931949308
 21
165.3726545384022
 72
     1
 10
70.99958931949308
 20
165.3726545384022
 11
72.13729845998624
 21
165.557862064245
 97
        0
 75
     0
 76
     1
 98
        0
  0
POLYLINE
  5
42F
330
1F
100
AcDbEntity
  8
Capa 1
 62
     7
420
 16777215
370
     9
100
AcDb2dPolyline
 66
     1
 10
0.0
 20
0.0
 30
0.0
  0
VERTEX
  5
430
330
42F
100
AcDbEntity
  8
Capa 1
 62
     7
420
 16777215
370
     9
100
AcDbVertex
100
AcDb2dVertex
 10
73.88354805582755
 20
159.4724440533593
 30
0.0
  0
VERTEX
  5
431
330
42F
100
AcDbEntity
  8
Capa 1
 62
     7
420
 16777215
370
     9
100
AcDbVertex
100
AcDb2dVertex
 10
74.12167345949015
 20
159.4724440533593
 30
0.0
  0
SEQEND
  5
432
330
42F
100
AcDbEntity
  8
Capa 1
 62
     7
420
 16777215
370
     9
  0
POLYLINE
  5
433
330
1F
100
AcDbEntity
  8
Capa 1
 62
     7
420
 16777215
370
     9
100
AcDb2dPolyline
 66
     1
 10
0.0
 20
0.0
 30
0.0
  0
VERTEX
  5
434
330
433
100
AcDbEntity
  8
Capa 1
 62
     7
420
 16777215
370
     9
100
AcDbVertex
100
AcDb2dVertex
 10
72.4812562549387
 20
159.4724440533593
 30
0.0
  0
VERTEX
  5
435
330
433
100
AcDbEntity
  8
Capa 1
 62
     7
420
 16777215
370
     9
100
AcDbVertex
100
AcDb2dVertex
 10
73.64542265216495
 20
159.4724440533593
 30
0.0
  0
SEQEND
  5
436
330
433
100
AcDbEntity
  8
Capa 1
 62
     7
420
 16777215
370
     9
  0
POLYLINE
  5
437
330
1F
100
AcDbEntity
  8
Capa 1
 62
     7
420
 16777215
370
     9
100
AcDb2dPolyline
 66
     1
 10
0.0
 20
0.0
 30
0.0
  0
VERTEX
  5
438
330
437
100
AcDbEntity
  8
Capa 1
 62
     7
420
 16777215
370
     9
100
AcDbVertex
100
AcDb2dVertex
 10
72.00500544761222
 20
159.4724440533593
 30
0.0
  0
VERTEX
  5
439
330
437
100
AcDbEntity
  8
Capa 1
 62
     7
420
 16777215
370
     9
100
AcDbVertex
100
AcDb2dVertex
 10
72.24313085127481
 20
159.4724440533593
 30
0.0
  0
SEQEND
  5
43A
330
437
100
AcDbEntity
  8
Capa 1
 62
     7
420
 16777215
370
     9
  0
POLYLINE
  5
43B
330
1F
100
AcDbEntity
  8
Capa 1
 62
     7
420
 16777215
370
     9
100
AcDb2dPolyline
 66
     1
 10
0.0
 20
0.0
 30
0.0
  0
VERTEX
  5
43C
330
43B
100
AcDbEntity
  8
Capa 1
 62
     7
420
 16777215
370
     9
100
AcDbVertex
100
AcDb2dVertex
 10
70.47042399869913
 20
159.4724440533593
 30
0.0
  0
VERTEX
  5
43D
330
43B
100
AcDbEntity
  8
Capa 1
 62
     7
420
 16777215
370
     9
100
AcDbVertex
100
AcDb2dVertex
 10
71.7668800439509
 20
159.4724440533593
 30
0.0
  0
SEQEND
  5
43E
330
43B
100
AcDbEntity
  8
Capa 1
 62
     7
420
 16777215
370
     9
  0
POLYLINE
  5
43F
330
1F
100
AcDbEntity
  8
Capa 1
 62
     7
420
 16777215
370
     9
100
AcDb2dPolyline
 66
     1
 10
0.0
 20
0.0
 30
0.0
  0
VERTEX
  5
440
330
43F
100
AcDbEntity
  8
Capa 1
 62
     7
420
 16777215
370
     9
100
AcDbVertex
100
AcDb2dVertex
 10
74.35979886315275
 20
159.4724440533593
 30
0.0
  0
VERTEX
  5
441
330
43F
100
AcDbEntity
  8
Capa 1
 62
     7
420
 16777215
370
     9
100
AcDbVertex
100
AcDb2dVertex
 10
75.65625490840324
 20
159.4724440533593
 30
0.0
  0
SEQEND
  5
442
330
43F
100
AcDbEntity
  8
Capa 1
 62
     7
420
 16777215
370
     9
  0
POLYLINE
  5
443
330
1F
100
AcDbEntity
  8
Capa 1
 62
     7
420
 16777215
370
     9
100
AcDb2dPolyline
 66
     1
 10
0.0
 20
0.0
 30
0.0
  0
VERTEX
  5
444
330
443
100
AcDbEntity
  8
Capa 1
 62
     7
420
 16777215
370
     9
100
AcDbVertex
100
AcDb2dVertex
 10
67.98333757078458
 20
157.461611797121
 30
0.0
  0
VERTEX
  5
445
330
443
100
AcDbEntity
  8
Capa 1
 62
     7
420
 16777215
370
     9
100
AcDbVertex
100
AcDb2dVertex
 10
67.98333757078458
 20
157.9113986190097
 30
0.0
  0
SEQEND
  5
446
330
443
100
AcDbEntity
  8
Capa 1
 62
     7
420
 16777215
370
     9
  0
POLYLINE
  5
447
330
1F
100
AcDbEntity
  8
Capa 1
 62
     7
420
 16777215
370
     9
100
AcDb2dPolyline
 66
     1
 10
0.0
 20
0.0
 30
0.0
  0
VERTEX
  5
448
330
447
100
AcDbEntity
  8
Capa 1
 62
     7
420
 16777215
370
     9
100
AcDbVertex
100
AcDb2dVertex
 10
67.98333757078458
 20
161.5891120652372
 30
0.0
  0
VERTEX
  5
449
330
447
100
AcDbEntity
  8
Capa 1
 62
     7
420
 16777215
370
     9
100
AcDbVertex
100
AcDb2dVertex
 10
67.98333757078458
 20
161.0334827590067
 30
0.0
  0
SEQEND
  5
44A
330
447
100
AcDbEntity
  8
Capa 1
 62
     7
420
 16777215
370
     9
  0
POLYLINE
  5
44B
330
1F
100
AcDbEntity
  8
Capa 1
 62
     7
420
 16777215
370
     9
100
AcDb2dPolyline
 66
     1
 10
0.0
 20
0.0
 30
0.0
  0
VERTEX
  5
44C
330
44B
100
AcDbEntity
  8
Capa 1
 62
     7
420
 16777215
370
     9
100
AcDbVertex
100
AcDb2dVertex
 10
70.07354832592813
 20
156.3503599133622
 30
0.0
  0
VERTEX
  5
44D
330
44B
100
AcDbEntity
  8
Capa 1
 62
     7
420
 16777215
370
     9
100
AcDbVertex
100
AcDb2dVertex
 10
67.37479711543644
 20
156.3503599133622
 30
0.0
  0
SEQEND
  5
44E
330
44B
100
AcDbEntity
  8
Capa 1
 62
     7
420
 16777215
370
     9
  0
POLYLINE
  5
44F
330
1F
100
AcDbEntity
  8
Capa 1
 62
     7
420
 16777215
370
     9
100
AcDb2dPolyline
 66
     1
 10
0.0
 20
0.0
 30
0.0
  0
VERTEX
  5
450
330
44F
100
AcDbEntity
  8
Capa 1
 62
     7
420
 16777215
370
     9
100
AcDbVertex
100
AcDb2dVertex
 10
70.07354832592813
 20
162.7268212057304
 30
0.0
  0
VERTEX
  5
451
330
44F
100
AcDbEntity
  8
Capa 1
 62
     7
420
 16777215
370
     9
100
AcDbVertex
100
AcDb2dVertex
 10
67.37479711543644
 20
162.7268212057304
 30
0.0
  0
SEQEND
  5
452
330
44F
100
AcDbEntity
  8
Capa 1
 62
     7
420
 16777215
370
     9
  0
POLYLINE
  5
453
330
1F
100
AcDbEntity
  8
Capa 1
370
     0
100
AcDb2dPolyline
 66
     1
 10
0.0
 20
0.0
 30
0.0
  0
VERTEX
  5
454
330
453
100
AcDbEntity
  8
Capa 1
370
     0
100
AcDbVertex
100
AcDb2dVertex
 10
67.7981300449431
 20
161.5891120652372
 30
0.0
  0
VERTEX
  5
455
330
453
100
AcDbEntity
  8
Capa 1
370
     0
100
AcDbVertex
100
AcDb2dVertex
 10
68.1950057177128
 20
161.5891120652372
 30
0.0
  0
VERTEX
  5
456
330
453
100
AcDbEntity
  8
Capa 1
370
     0
100
AcDbVertex
100
AcDb2dVertex
 10
67.98333757078458
 20
162.7268212057304
 30
0.0
  0
SEQEND
  5
458
330
453
100
AcDbEntity
  8
Capa 1
370
     0
  0
HATCH
  5
457
330
1F
100
AcDbEntity
  8
Capa 1
 62
     7
420
 16777215
100
AcDbHatch
 10
0.0
 20
0.0
 30
0.0
210
0.0
220
0.0
230
1.0
  2
SOLID
 70
     1
 71
     0
 91
        1
 92
        1
 93
        3
 72
     1
 10
67.7981300449431
 20
161.5891120652372
 11
68.1950057177128
 21
161.5891120652372
 72
     1
 10
68.1950057177128
 20
161.5891120652372
 11
67.98333757078458
 21
162.7268212057304
 72
     1
 10
67.98333757078458
 20
162.7268212057304
 11
67.7981300449431
 21
161.5891120652372
 97
        0
 75
     0
 76
     1
 98
        0
  0
POLYLINE
  5
459
330
1F
100
AcDbEntity
  8
Capa 1
370
     0
100
AcDb2dPolyline
 66
     1
 10
0.0
 20
0.0
 30
0.0
  0
VERTEX
  5
45A
330
459
100
AcDbEntity
  8
Capa 1
370
     0
100
AcDbVertex
100
AcDb2dVertex
 10
67.7981300449431
 20
157.461611797121
 30
0.0
  0
VERTEX
  5
45B
330
459
100
AcDbEntity
  8
Capa 1
370
     0
100
AcDbVertex
100
AcDb2dVertex
 10
68.1950057177128
 20
157.461611797121
 30
0.0
  0
VERTEX
  5
45C
330
459
100
AcDbEntity
  8
Capa 1
370
     0
100
AcDbVertex
100
AcDb2dVertex
 10
67.98333757078458
 20
156.3503599133622
 30
0.0
  0
SEQEND
  5
45E
330
459
100
AcDbEntity
  8
Capa 1
370
     0
  0
HATCH
  5
45D
330
1F
100
AcDbEntity
  8
Capa 1
 62
     7
420
 16777215
100
AcDbHatch
 10
0.0
 20
0.0
 30
0.0
210
0.0
220
0.0
230
1.0
  2
SOLID
 70
     1
 71
     0
 91
        1
 92
        1
 93
        3
 72
     1
 10
67.7981300449431
 20
157.461611797121
 11
68.1950057177128
 21
157.461611797121
 72
     1
 10
68.1950057177128
 20
157.461611797121
 11
67.98333757078458
 21
156.3503599133622
 72
     1
 10
67.98333757078458
 20
156.3503599133622
 11
67.7981300449431
 21
157.461611797121
 97
        0
 75
     0
 76
     1
 98
        0
  0
POLYLINE
  5
45F
330
1F
100
AcDbEntity
  8
Capa 1
 62
     7
420
 16777215
370
     9
100
AcDb2dPolyline
 66
     1
 10
0.0
 20
0.0
 30
0.0
  0
VERTEX
  5
460
330
45F
100
AcDbEntity
  8
Capa 1
 62
     7
420
 16777215
370
     9
100
AcDbVertex
100
AcDb2dVertex
 10
62.50635908471521
 20
149.4182760434657
 30
0.0
  0
VERTEX
  5
461
330
45F
100
AcDbEntity
  8
Capa 1
 62
     7
420
 16777215
370
     9
100
AcDbVertex
100
AcDb2dVertex
 10
62.50635908471521
 20
152.3022381441513
 30
0.0
  0
SEQEND
  5
462
330
45F
100
AcDbEntity
  8
Capa 1
 62
     7
420
 16777215
370
     9
  0
POLYLINE
  5
463
330
1F
100
AcDbEntity
  8
Capa 1
 62
     7
420
 16777215
370
     9
100
AcDb2dPolyline
 66
     1
 10
0.0
 20
0.0
 30
0.0
  0
VERTEX
  5
464
330
463
100
AcDbEntity
  8
Capa 1
 62
     7
420
 16777215
370
     9
100
AcDbVertex
100
AcDb2dVertex
 10
62.50635908471521
 20
158.3347349128661
 30
0.0
  0
VERTEX
  5
465
330
463
100
AcDbEntity
  8
Capa 1
 62
     7
420
 16777215
370
     9
100
AcDbVertex
100
AcDb2dVertex
 10
62.50635908471521
 20
155.4243155554462
 30
0.0
  0
SEQEND
  5
466
330
463
100
AcDbEntity
  8
Capa 1
 62
     7
420
 16777215
370
     9
  0
POLYLINE
  5
467
330
1F
100
AcDbEntity
  8
Capa 1
 62
     7
420
 16777215
370
     9
100
AcDb2dPolyline
 66
     1
 10
0.0
 20
0.0
 30
0.0
  0
VERTEX
  5
468
330
467
100
AcDbEntity
  8
Capa 1
 62
     7
420
 16777215
370
     9
100
AcDbVertex
100
AcDb2dVertex
 10
72.87813192770841
 20
148.2805669029726
 30
0.0
  0
VERTEX
  5
469
330
467
100
AcDbEntity
  8
Capa 1
 62
     7
420
 16777215
370
     9
100
AcDbVertex
100
AcDb2dVertex
 10
61.87135800828162
 20
148.2805669029726
 30
0.0
  0
SEQEND
  5
46A
330
467
100
AcDbEntity
  8
Capa 1
 62
     7
420
 16777215
370
     9
  0
POLYLINE
  5
46B
330
1F
100
AcDbEntity
  8
Capa 1
 62
     7
420
 16777215
370
     9
100
AcDb2dPolyline
 66
     1
 10
0.0
 20
0.0
 30
0.0
  0
VERTEX
  5
46C
330
46B
100
AcDbEntity
  8
Capa 1
 62
     7
420
 16777215
370
     9
100
AcDbVertex
100
AcDb2dVertex
 10
64.4908400612775
 20
159.4724440533593
 30
0.0
  0
VERTEX
  5
46D
330
46B
100
AcDbEntity
  8
Capa 1
 62
     7
420
 16777215
370
     9
100
AcDbVertex
100
AcDb2dVertex
 10
61.87135800828162
 20
159.4724440533593
 30
0.0
  0
SEQEND
  5
46E
330
46B
100
AcDbEntity
  8
Capa 1
 62
     7
420
 16777215
370
     9
  0
POLYLINE
  5
46F
330
1F
100
AcDbEntity
  8
Capa 1
370
     0
100
AcDb2dPolyline
 66
     1
 10
0.0
 20
0.0
 30
0.0
  0
VERTEX
  5
470
330
46F
100
AcDbEntity
  8
Capa 1
370
     0
100
AcDbVertex
100
AcDb2dVertex
 10
62.3211498766969
 20
158.3347349128661
 30
0.0
  0
VERTEX
  5
471
330
46F
100
AcDbEntity
  8
Capa 1
370
     0
100
AcDbVertex
100
AcDb2dVertex
 10
62.69156661055798
 20
158.3347349128661
 30
0.0
  0
VERTEX
  5
472
330
46F
100
AcDbEntity
  8
Capa 1
370
     0
100
AcDbVertex
100
AcDb2dVertex
 10
62.50635908471521
 20
159.4724440533593
 30
0.0
  0
SEQEND
  5
474
330
46F
100
AcDbEntity
  8
Capa 1
370
     0
  0
HATCH
  5
473
330
1F
100
AcDbEntity
  8
Capa 1
 62
     7
420
 16777215
100
AcDbHatch
 10
0.0
 20
0.0
 30
0.0
210
0.0
220
0.0
230
1.0
  2
SOLID
 70
     1
 71
     0
 91
        1
 92
        1
 93
        3
 72
     1
 10
62.3211498766969
 20
158.3347349128661
 11
62.69156661055798
 21
158.3347349128661
 72
     1
 10
62.69156661055798
 20
158.3347349128661
 11
62.50635908471521
 21
159.4724440533593
 72
     1
 10
62.50635908471521
 20
159.4724440533593
 11
62.3211498766969
 21
158.3347349128661
 97
        0
 75
     0
 76
     1
 98
        0
  0
POLYLINE
  5
475
330
1F
100
AcDbEntity
  8
Capa 1
370
     0
100
AcDb2dPolyline
 66
     1
 10
0.0
 20
0.0
 30
0.0
  0
VERTEX
  5
476
330
475
100
AcDbEntity
  8
Capa 1
370
     0
100
AcDbVertex
100
AcDb2dVertex
 10
62.3211498766969
 20
149.4182760434657
 30
0.0
  0
VERTEX
  5
477
330
475
100
AcDbEntity
  8
Capa 1
370
     0
100
AcDbVertex
100
AcDb2dVertex
 10
62.69156661055798
 20
149.4182760434657
 30
0.0
  0
VERTEX
  5
478
330
475
100
AcDbEntity
  8
Capa 1
370
     0
100
AcDbVertex
100
AcDb2dVertex
 10
62.50635908471521
 20
148.2805669029726
 30
0.0
  0
SEQEND
  5
47A
330
475
100
AcDbEntity
  8
Capa 1
370
     0
  0
HATCH
  5
479
330
1F
100
AcDbEntity
  8
Capa 1
 62
     7
420
 16777215
100
AcDbHatch
 10
0.0
 20
0.0
 30
0.0
210
0.0
220
0.0
230
1.0
  2
SOLID
 70
     1
 71
     0
 91
        1
 92
        1
 93
        3
 72
     1
 10
62.3211498766969
 20
149.4182760434657
 11
62.69156661055798
 21
149.4182760434657
 72
     1
 10
62.69156661055798
 20
149.4182760434657
 11
62.50635908471521
 21
148.2805669029726
 72
     1
 10
62.50635908471521
 20
148.2805669029726
 11
62.3211498766969
 21
149.4182760434657
 97
        0
 75
     0
 76
     1
 98
        0
  0
POLYLINE
  5
47B
330
1F
100
AcDbEntity
  8
Capa 1
 62
     7
420
 16777215
370
     9
100
AcDb2dPolyline
 66
     1
 10
0.0
 20
0.0
 30
0.0
  0
VERTEX
  5
47C
330
47B
100
AcDbEntity
  8
Capa 1
 62
     7
420
 16777215
370
     9
100
AcDbVertex
100
AcDb2dVertex
 10
73.59250477434513
 20
89.04036692803992
 30
0.0
  0
VERTEX
  5
47D
330
47B
100
AcDbEntity
  8
Capa 1
 62
     7
420
 16777215
370
     9
100
AcDbVertex
100
AcDb2dVertex
 10
73.75125504345482
 20
88.8286987811117
 30
0.0
  0
VERTEX
  5
47E
330
47B
100
AcDbEntity
  8
Capa 1
 62
     7
420
 16777215
370
     9
100
AcDbVertex
100
AcDb2dVertex
 10
73.98938044711613
 20
88.64349125526893
 30
0.0
  0
VERTEX
  5
47F
330
47B
100
AcDbEntity
  8
Capa 1
 62
     7
420
 16777215
370
     9
100
AcDbVertex
100
AcDb2dVertex
 10
74.2539631075131
 20
88.53765886398034
 30
0.0
  0
VERTEX
  5
480
330
47B
100
AcDbEntity
  8
Capa 1
 62
     7
420
 16777215
370
     9
100
AcDbVertex
100
AcDb2dVertex
 10
74.51854576791008
 20
88.5111982428949
 30
0.0
  0
SEQEND
  5
481
330
47B
100
AcDbEntity
  8
Capa 1
 62
     7
420
 16777215
370
     9
  0
POLYLINE
  5
482
330
1F
100
AcDbEntity
  8
Capa 1
 62
     7
420
 16777215
370
     9
100
AcDb2dPolyline
 66
     1
 10
0.0
 20
0.0
 30
0.0
  0
VERTEX
  5
483
330
482
100
AcDbEntity
  8
Capa 1
 62
     7
420
 16777215
370
     9
100
AcDbVertex
100
AcDb2dVertex
 10
74.51854576791008
 20
111.0007782062548
 30
0.0
  0
VERTEX
  5
484
330
482
100
AcDbEntity
  8
Capa 1
 62
     7
420
 16777215
370
     9
100
AcDbVertex
100
AcDb2dVertex
 10
74.2539631075131
 20
110.9743209495204
 30
0.0
  0
VERTEX
  5
485
330
482
100
AcDbEntity
  8
Capa 1
 62
     7
420
 16777215
370
     9
100
AcDbVertex
100
AcDb2dVertex
 10
73.98938044711613
 20
110.8684851938808
 30
0.0
  0
VERTEX
  5
486
330
482
100
AcDbEntity
  8
Capa 1
 62
     7
420
 16777215
370
     9
100
AcDbVertex
100
AcDb2dVertex
 10
73.75125504345482
 20
110.683277668038
 30
0.0
  0
VERTEX
  5
487
330
482
100
AcDbEntity
  8
Capa 1
 62
     7
420
 16777215
370
     9
100
AcDbVertex
100
AcDb2dVertex
 10
73.59250477434513
 20
110.4451556287265
 30
0.0
  0
SEQEND
  5
488
330
482
100
AcDbEntity
  8
Capa 1
 62
     7
420
 16777215
370
     9
  0
POLYLINE
  5
489
330
1F
100
AcDbEntity
  8
Capa 1
 62
     7
420
 16777215
370
     9
100
AcDb2dPolyline
 66
     1
 10
0.0
 20
0.0
 30
0.0
  0
VERTEX
  5
48A
330
489
100
AcDbEntity
  8
Capa 1
 62
     7
420
 16777215
370
     9
100
AcDbVertex
100
AcDb2dVertex
 10
78.54021364473772
 20
94.75536652288903
 30
0.0
  0
VERTEX
  5
48B
330
489
100
AcDbEntity
  8
Capa 1
 62
     7
420
 16777215
370
     9
100
AcDbVertex
100
AcDb2dVertex
 10
78.4872957669179
 20
94.94057404873182
 30
0.0
  0
VERTEX
  5
48C
330
489
100
AcDbEntity
  8
Capa 1
 62
     7
420
 16777215
370
     9
100
AcDbVertex
100
AcDb2dVertex
 10
78.3814633756306
 20
95.07286706110584
 30
0.0
  0
VERTEX
  5
48D
330
489
100
AcDbEntity
  8
Capa 1
 62
     7
420
 16777215
370
     9
100
AcDbVertex
100
AcDb2dVertex
 10
78.24917372760636
 20
95.17869945239441
 30
0.0
  0
VERTEX
  5
48E
330
489
100
AcDbEntity
  8
Capa 1
 62
     7
420
 16777215
370
     9
100
AcDbVertex
100
AcDb2dVertex
 10
78.06396283741252
 20
95.23161733021423
 30
0.0
  0
VERTEX
  5
48F
330
489
100
AcDbEntity
  8
Capa 1
 62
     7
420
 16777215
370
     9
100
AcDbVertex
100
AcDb2dVertex
 10
77.87875531156975
 20
95.17869945239441
 30
0.0
  0
VERTEX
  5
490
330
489
100
AcDbEntity
  8
Capa 1
 62
     7
420
 16777215
370
     9
100
AcDbVertex
100
AcDb2dVertex
 10
77.72000504246263
 20
95.07286706110584
 30
0.0
  0
VERTEX
  5
491
330
489
100
AcDbEntity
  8
Capa 1
 62
     7
420
 16777215
370
     9
100
AcDbVertex
100
AcDb2dVertex
 10
77.64062990790715
 20
94.94057404873182
 30
0.0
  0
VERTEX
  5
492
330
489
100
AcDbEntity
  8
Capa 1
 62
     7
420
 16777215
370
     9
100
AcDbVertex
100
AcDb2dVertex
 10
77.58771539443839
 20
94.75536652288903
 30
0.0
  0
VERTEX
  5
493
330
489
100
AcDbEntity
  8
Capa 1
 62
     7
420
 16777215
370
     9
100
AcDbVertex
100
AcDb2dVertex
 10
77.64062990790715
 20
94.57015899704626
 30
0.0
  0
VERTEX
  5
494
330
489
100
AcDbEntity
  8
Capa 1
 62
     7
420
 16777215
370
     9
100
AcDbVertex
100
AcDb2dVertex
 10
77.72000504246263
 20
94.41140872793787
 30
0.0
  0
VERTEX
  5
495
330
489
100
AcDbEntity
  8
Capa 1
 62
     7
420
 16777215
370
     9
100
AcDbVertex
100
AcDb2dVertex
 10
77.87875531156975
 20
94.30557297229822
 30
0.0
  0
VERTEX
  5
496
330
489
100
AcDbEntity
  8
Capa 1
 62
     7
420
 16777215
370
     9
100
AcDbVertex
100
AcDb2dVertex
 10
78.06396283741252
 20
94.27911571556385
 30
0.0
  0
VERTEX
  5
497
330
489
100
AcDbEntity
  8
Capa 1
 62
     7
420
 16777215
370
     9
100
AcDbVertex
100
AcDb2dVertex
 10
78.24917372760636
 20
94.30557297229822
 30
0.0
  0
VERTEX
  5
498
330
489
100
AcDbEntity
  8
Capa 1
 62
     7
420
 16777215
370
     9
100
AcDbVertex
100
AcDb2dVertex
 10
78.3814633756306
 20
94.41140872793787
 30
0.0
  0
VERTEX
  5
499
330
489
100
AcDbEntity
  8
Capa 1
 62
     7
420
 16777215
370
     9
100
AcDbVertex
100
AcDb2dVertex
 10
78.4872957669179
 20
94.57015899704626
 30
0.0
  0
VERTEX
  5
49A
330
489
100
AcDbEntity
  8
Capa 1
 62
     7
420
 16777215
370
     9
100
AcDbVertex
100
AcDb2dVertex
 10
78.54021364473772
 20
94.75536652288903
 30
0.0
  0
SEQEND
  5
49B
330
489
100
AcDbEntity
  8
Capa 1
 62
     7
420
 16777215
370
     9
  0
POLYLINE
  5
49C
330
1F
100
AcDbEntity
  8
Capa 1
 62
     7
420
 16777215
370
     9
100
AcDb2dPolyline
 66
     1
 10
0.0
 20
0.0
 30
0.0
  0
VERTEX
  5
49D
330
49C
100
AcDbEntity
  8
Capa 1
 62
     7
420
 16777215
370
     9
100
AcDbVertex
100
AcDb2dVertex
 10
78.54021364473772
 20
104.7566132906117
 30
0.0
  0
VERTEX
  5
49E
330
49C
100
AcDbEntity
  8
Capa 1
 62
     7
420
 16777215
370
     9
100
AcDbVertex
100
AcDb2dVertex
 10
78.4872957669179
 20
104.9418208164545
 30
0.0
  0
VERTEX
  5
49F
330
49C
100
AcDbEntity
  8
Capa 1
 62
     7
420
 16777215
370
     9
100
AcDbVertex
100
AcDb2dVertex
 10
78.3814633756306
 20
105.0741138288285
 30
0.0
  0
VERTEX
  5
4A0
330
49C
100
AcDbEntity
  8
Capa 1
 62
     7
420
 16777215
370
     9
100
AcDbVertex
100
AcDb2dVertex
 10
78.24917372760636
 20
105.1799462201171
 30
0.0
  0
VERTEX
  5
4A1
330
49C
100
AcDbEntity
  8
Capa 1
 62
     7
420
 16777215
370
     9
100
AcDbVertex
100
AcDb2dVertex
 10
78.06396283741252
 20
105.2328640979369
 30
0.0
  0
VERTEX
  5
4A2
330
49C
100
AcDbEntity
  8
Capa 1
 62
     7
420
 16777215
370
     9
100
AcDbVertex
100
AcDb2dVertex
 10
77.87875531156975
 20
105.1799462201171
 30
0.0
  0
VERTEX
  5
4A3
330
49C
100
AcDbEntity
  8
Capa 1
 62
     7
420
 16777215
370
     9
100
AcDbVertex
100
AcDb2dVertex
 10
77.72000504246263
 20
105.0741138288285
 30
0.0
  0
VERTEX
  5
4A4
330
49C
100
AcDbEntity
  8
Capa 1
 62
     7
420
 16777215
370
     9
100
AcDbVertex
100
AcDb2dVertex
 10
77.64062990790715
 20
104.9418208164545
 30
0.0
  0
VERTEX
  5
4A5
330
49C
100
AcDbEntity
  8
Capa 1
 62
     7
420
 16777215
370
     9
100
AcDbVertex
100
AcDb2dVertex
 10
77.58771539443839
 20
104.7566132906117
 30
0.0
  0
VERTEX
  5
4A6
330
49C
100
AcDbEntity
  8
Capa 1
 62
     7
420
 16777215
370
     9
100
AcDbVertex
100
AcDb2dVertex
 10
77.64062990790715
 20
104.5714057647689
 30
0.0
  0
VERTEX
  5
4A7
330
49C
100
AcDbEntity
  8
Capa 1
 62
     7
420
 16777215
370
     9
100
AcDbVertex
100
AcDb2dVertex
 10
77.72000504246263
 20
104.4126554956605
 30
0.0
  0
VERTEX
  5
4A8
330
49C
100
AcDbEntity
  8
Capa 1
 62
     7
420
 16777215
370
     9
100
AcDbVertex
100
AcDb2dVertex
 10
77.87875531156975
 20
104.3068197400209
 30
0.0
  0
VERTEX
  5
4A9
330
49C
100
AcDbEntity
  8
Capa 1
 62
     7
420
 16777215
370
     9
100
AcDbVertex
100
AcDb2dVertex
 10
78.06396283741252
 20
104.2803624832865
 30
0.0
  0
VERTEX
  5
4AA
330
49C
100
AcDbEntity
  8
Capa 1
 62
     7
420
 16777215
370
     9
100
AcDbVertex
100
AcDb2dVertex
 10
78.24917372760636
 20
104.3068197400209
 30
0.0
  0
VERTEX
  5
4AB
330
49C
100
AcDbEntity
  8
Capa 1
 62
     7
420
 16777215
370
     9
100
AcDbVertex
100
AcDb2dVertex
 10
78.3814633756306
 20
104.4126554956605
 30
0.0
  0
VERTEX
  5
4AC
330
49C
100
AcDbEntity
  8
Capa 1
 62
     7
420
 16777215
370
     9
100
AcDbVertex
100
AcDb2dVertex
 10
78.4872957669179
 20
104.5714057647689
 30
0.0
  0
VERTEX
  5
4AD
330
49C
100
AcDbEntity
  8
Capa 1
 62
     7
420
 16777215
370
     9
100
AcDbVertex
100
AcDb2dVertex
 10
78.54021364473772
 20
104.7566132906117
 30
0.0
  0
SEQEND
  5
4AE
330
49C
100
AcDbEntity
  8
Capa 1
 62
     7
420
 16777215
370
     9
  0
POLYLINE
  5
4AF
330
1F
100
AcDbEntity
  8
Capa 1
 62
     7
420
 16777215
370
     9
100
AcDb2dPolyline
 66
     1
 10
0.0
 20
0.0
 30
0.0
  0
VERTEX
  5
4B0
330
4AF
100
AcDbEntity
  8
Capa 1
 62
     7
420
 16777215
370
     9
100
AcDbVertex
100
AcDb2dVertex
 10
94.12416699493549
 20
111.0007782062548
 30
0.0
  0
VERTEX
  5
4B1
330
4AF
100
AcDbEntity
  8
Capa 1
 62
     7
420
 16777215
370
     9
100
AcDbVertex
100
AcDb2dVertex
 10
74.51854576791008
 20
111.0007782062548
 30
0.0
  0
SEQEND
  5
4B2
330
4AF
100
AcDbEntity
  8
Capa 1
 62
     7
420
 16777215
370
     9
  0
POLYLINE
  5
4B3
330
1F
100
AcDbEntity
  8
Capa 1
 62
     7
420
 16777215
370
     9
100
AcDb2dPolyline
 66
     1
 10
0.0
 20
0.0
 30
0.0
  0
VERTEX
  5
4B4
330
4B3
100
AcDbEntity
  8
Capa 1
 62
     7
420
 16777215
370
     9
100
AcDbVertex
100
AcDb2dVertex
 10
94.12416699493549
 20
88.5111982428949
 30
0.0
  0
VERTEX
  5
4B5
330
4B3
100
AcDbEntity
  8
Capa 1
 62
     7
420
 16777215
370
     9
100
AcDbVertex
100
AcDb2dVertex
 10
95.23541887869428
 20
88.56411612071473
 30
0.0
  0
VERTEX
  5
4B6
330
4B3
100
AcDbEntity
  8
Capa 1
 62
     7
420
 16777215
370
     9
100
AcDbVertex
100
AcDb2dVertex
 10
96.32021350571867
 20
88.72286638982312
 30
0.0
  0
VERTEX
  5
4B7
330
4B3
100
AcDbEntity
  8
Capa 1
 62
     7
420
 16777215
370
     9
100
AcDbVertex
100
AcDb2dVertex
 10
97.37854414730657
 20
88.98744905022009
 30
0.0
  0
VERTEX
  5
4B8
330
4B3
100
AcDbEntity
  8
Capa 1
 62
     7
420
 16777215
370
     9
100
AcDbVertex
100
AcDb2dVertex
 10
98.43688151759659
 20
89.3578674662567
 30
0.0
  0
VERTEX
  5
4B9
330
4B3
100
AcDbEntity
  8
Capa 1
 62
     7
420
 16777215
370
     9
100
AcDbVertex
100
AcDb2dVertex
 10
99.41583366027923
 20
89.83411490923085
 30
0.0
  0
VERTEX
  5
4BA
330
4B3
100
AcDbEntity
  8
Capa 1
 62
     7
420
 16777215
370
     9
100
AcDbVertex
100
AcDb2dVertex
 10
100.3683352749296
 20
90.38974085111023
 30
0.0
  0
VERTEX
  5
4BB
330
4B3
100
AcDbEntity
  8
Capa 1
 62
     7
420
 16777215
370
     9
100
AcDbVertex
100
AcDb2dVertex
 10
101.2679223761112
 20
91.0511991842782
 30
0.0
  0
VERTEX
  5
4BC
330
4B3
100
AcDbEntity
  8
Capa 1
 62
     7
420
 16777215
370
     9
100
AcDbVertex
100
AcDb2dVertex
 10
102.0881309783876
 20
91.79203265200037
 30
0.0
  0
VERTEX
  5
4BD
330
4B3
100
AcDbEntity
  8
Capa 1
 62
     7
420
 16777215
370
     9
100
AcDbVertex
100
AcDb2dVertex
 10
102.8289610817587
 20
92.61224125427674
 30
0.0
  0
VERTEX
  5
4BE
330
4B3
100
AcDbEntity
  8
Capa 1
 62
     7
420
 16777215
370
     9
100
AcDbVertex
100
AcDb2dVertex
 10
103.4639621581923
 20
93.5118249911073
 30
0.0
  0
VERTEX
  5
4BF
330
4B3
100
AcDbEntity
  8
Capa 1
 62
     7
420
 16777215
370
     9
100
AcDbVertex
100
AcDb2dVertex
 10
104.046041992455
 20
94.43786598467224
 30
0.0
  0
VERTEX
  5
4C0
330
4B3
100
AcDbEntity
  8
Capa 1
 62
     7
420
 16777215
370
     9
100
AcDbVertex
100
AcDb2dVertex
 10
104.5222927997802
 20
95.4432821127914
 30
0.0
  0
VERTEX
  5
4C1
330
4B3
100
AcDbEntity
  8
Capa 1
 62
     7
420
 16777215
370
     9
100
AcDbVertex
100
AcDb2dVertex
 10
104.8927145801679
 20
96.47515886199596
 30
0.0
  0
VERTEX
  5
4C2
330
4B3
100
AcDbEntity
  8
Capa 1
 62
     7
420
 16777215
370
     9
100
AcDbVertex
100
AcDb2dVertex
 10
105.1572938762138
 20
97.55995012466931
 30
0.0
  0
VERTEX
  5
4C3
330
4B3
100
AcDbEntity
  8
Capa 1
 62
     7
420
 16777215
370
     9
100
AcDbVertex
100
AcDb2dVertex
 10
105.3160441453222
 20
98.64474138734265
 30
0.0
  0
VERTEX
  5
4C4
330
4B3
100
AcDbEntity
  8
Capa 1
 62
     7
420
 16777215
370
     9
100
AcDbVertex
100
AcDb2dVertex
 10
105.368958658791
 20
99.75598990675037
 30
0.0
  0
VERTEX
  5
4C5
330
4B3
100
AcDbEntity
  8
Capa 1
 62
     7
420
 16777215
370
     9
100
AcDbVertex
100
AcDb2dVertex
 10
105.3160441453222
 20
100.8672417905092
 30
0.0
  0
VERTEX
  5
4C6
330
4B3
100
AcDbEntity
  8
Capa 1
 62
     7
420
 16777215
370
     9
100
AcDbVertex
100
AcDb2dVertex
 10
105.1572938762138
 20
101.9520330531825
 30
0.0
  0
VERTEX
  5
4C7
330
4B3
100
AcDbEntity
  8
Capa 1
 62
     7
420
 16777215
370
     9
100
AcDbVertex
100
AcDb2dVertex
 10
104.8927145801679
 20
103.0103670591215
 30
0.0
  0
VERTEX
  5
4C8
330
4B3
100
AcDbEntity
  8
Capa 1
 62
     7
420
 16777215
370
     9
100
AcDbVertex
100
AcDb2dVertex
 10
104.5222927997802
 20
104.0686943363583
 30
0.0
  0
VERTEX
  5
4C9
330
4B3
100
AcDbEntity
  8
Capa 1
 62
     7
420
 16777215
370
     9
100
AcDbVertex
100
AcDb2dVertex
 10
104.046041992455
 20
105.0476532077431
 30
0.0
  0
VERTEX
  5
4CA
330
4B3
100
AcDbEntity
  8
Capa 1
 62
     7
420
 16777215
370
     9
100
AcDbVertex
100
AcDb2dVertex
 10
103.4639621581923
 20
106.0001548223935
 30
0.0
  0
VERTEX
  5
4CB
330
4B3
100
AcDbEntity
  8
Capa 1
 62
     7
420
 16777215
370
     9
100
AcDbVertex
100
AcDb2dVertex
 10
102.8289610817587
 20
106.899735194873
 30
0.0
  0
VERTEX
  5
4CC
330
4B3
100
AcDbEntity
  8
Capa 1
 62
     7
420
 16777215
370
     9
100
AcDbVertex
100
AcDb2dVertex
 10
102.0881309783876
 20
107.6934865404149
 30
0.0
  0
VERTEX
  5
4CD
330
4B3
100
AcDbEntity
  8
Capa 1
 62
     7
420
 16777215
370
     9
100
AcDbVertex
100
AcDb2dVertex
 10
101.2679223761112
 20
108.4607806292226
 30
0.0
  0
VERTEX
  5
4CE
330
4B3
100
AcDbEntity
  8
Capa 1
 62
     7
420
 16777215
370
     9
100
AcDbVertex
100
AcDb2dVertex
 10
100.3683352749296
 20
109.095774976954
 30
0.0
  0
VERTEX
  5
4CF
330
4B3
100
AcDbEntity
  8
Capa 1
 62
     7
420
 16777215
370
     9
100
AcDbVertex
100
AcDb2dVertex
 10
99.41583366027923
 20
109.6778615399189
 30
0.0
  0
VERTEX
  5
4D0
330
4B3
100
AcDbEntity
  8
Capa 1
 62
     7
420
 16777215
370
     9
100
AcDbVertex
100
AcDb2dVertex
 10
98.43688151759659
 20
110.154112347244
 30
0.0
  0
VERTEX
  5
4D1
330
4B3
100
AcDbEntity
  8
Capa 1
 62
     7
420
 16777215
370
     9
100
AcDbVertex
100
AcDb2dVertex
 10
97.37854414730657
 20
110.5245273989296
 30
0.0
  0
VERTEX
  5
4D2
330
4B3
100
AcDbEntity
  8
Capa 1
 62
     7
420
 16777215
370
     9
100
AcDbVertex
100
AcDb2dVertex
 10
96.32021350571867
 20
110.7891134236776
 30
0.0
  0
VERTEX
  5
4D3
330
4B3
100
AcDbEntity
  8
Capa 1
 62
     7
420
 16777215
370
     9
100
AcDbVertex
100
AcDb2dVertex
 10
95.23541887869428
 20
110.947863692786
 30
0.0
  0
VERTEX
  5
4D4
330
4B3
100
AcDbEntity
  8
Capa 1
 62
     7
420
 16777215
370
     9
100
AcDbVertex
100
AcDb2dVertex
 10
94.12416699493549
 20
111.0007782062548
 30
0.0
  0
SEQEND
  5
4D5
330
4B3
100
AcDbEntity
  8
Capa 1
 62
     7
420
 16777215
370
     9
  0
POLYLINE
  5
4D6
330
1F
100
AcDbEntity
  8
Capa 1
 62
     7
420
 16777215
370
     9
100
AcDb2dPolyline
 66
     1
 10
0.0
 20
0.0
 30
0.0
  0
VERTEX
  5
4D7
330
4D6
100
AcDbEntity
  8
Capa 1
 62
     7
420
 16777215
370
     9
100
AcDbVertex
100
AcDb2dVertex
 10
74.51854576791008
 20
88.5111982428949
 30
0.0
  0
VERTEX
  5
4D8
330
4D6
100
AcDbEntity
  8
Capa 1
 62
     7
420
 16777215
370
     9
100
AcDbVertex
100
AcDb2dVertex
 10
94.12416699493549
 20
88.5111982428949
 30
0.0
  0
SEQEND
  5
4D9
330
4D6
100
AcDbEntity
  8
Capa 1
 62
     7
420
 16777215
370
     9
  0
POLYLINE
  5
4DA
330
1F
100
AcDbEntity
  8
Capa 1
 62
     7
420
 16777215
370
     9
100
AcDb2dPolyline
 66
     1
 10
0.0
 20
0.0
 30
0.0
  0
VERTEX
  5
4DB
330
4DA
100
AcDbEntity
  8
Capa 1
 62
     7
420
 16777215
370
     9
100
AcDbVertex
100
AcDb2dVertex
 10
100.9504218378945
 20
99.75598990675037
 30
0.0
  0
VERTEX
  5
4DC
330
4DA
100
AcDbEntity
  8
Capa 1
 62
     7
420
 16777215
370
     9
100
AcDbVertex
100
AcDb2dVertex
 10
100.9239645811601
 20
100.4439088610038
 30
0.0
  0
VERTEX
  5
4DD
330
4DA
100
AcDbEntity
  8
Capa 1
 62
     7
420
 16777215
370
     9
100
AcDbVertex
100
AcDb2dVertex
 10
100.8181288255204
 20
101.1582817076405
 30
0.0
  0
VERTEX
  5
4DE
330
4DA
100
AcDbEntity
  8
Capa 1
 62
     7
420
 16777215
370
     9
100
AcDbVertex
100
AcDb2dVertex
 10
100.6329212996777
 20
101.8462006618939
 30
0.0
  0
VERTEX
  5
4DF
330
4DA
100
AcDbEntity
  8
Capa 1
 62
     7
420
 16777215
370
     9
100
AcDbVertex
100
AcDb2dVertex
 10
100.394792531664
 20
102.5076589950619
 30
0.0
  0
VERTEX
  5
4E0
330
4DA
100
AcDbEntity
  8
Capa 1
 62
     7
420
 16777215
370
     9
100
AcDbVertex
100
AcDb2dVertex
 10
100.1037559788837
 20
103.1426567071444
 30
0.0
  0
VERTEX
  5
4E1
330
4DA
100
AcDbEntity
  8
Capa 1
 62
     7
420
 16777215
370
     9
100
AcDbVertex
100
AcDb2dVertex
 10
99.73333419849604
 20
103.7247399057582
 30
0.0
  0
VERTEX
  5
4E2
330
4DA
100
AcDbEntity
  8
Capa 1
 62
     7
420
 16777215
370
     9
100
AcDbVertex
100
AcDb2dVertex
 10
99.3364618900761
 20
104.3068197400209
 30
0.0
  0
VERTEX
  5
4E3
330
4DA
100
AcDbEntity
  8
Capa 1
 62
     7
420
 16777215
370
     9
100
AcDbVertex
100
AcDb2dVertex
 10
98.86021108275091
 20
104.8359884251659
 30
0.0
  0
VERTEX
  5
4E4
330
4DA
100
AcDbEntity
  8
Capa 1
 62
     7
420
 16777215
370
     9
100
AcDbVertex
100
AcDb2dVertex
 10
98.33104576195696
 20
105.2857786114057
 30
0.0
  0
VERTEX
  5
4E5
330
4DA
100
AcDbEntity
  8
Capa 1
 62
     7
420
 16777215
370
     9
100
AcDbVertex
100
AcDb2dVertex
 10
97.77542318442863
 20
105.709111540911
 30
0.0
  0
VERTEX
  5
4E6
330
4DA
100
AcDbEntity
  8
Capa 1
 62
     7
420
 16777215
370
     9
100
AcDbVertex
100
AcDb2dVertex
 10
97.16687936472941
 20
106.0795265925966
 30
0.0
  0
VERTEX
  5
4E7
330
4DA
100
AcDbEntity
  8
Capa 1
 62
     7
420
 16777215
370
     9
100
AcDbVertex
100
AcDb2dVertex
 10
96.53187828829583
 20
106.370569874079
 30
0.0
  0
VERTEX
  5
4E8
330
4DA
100
AcDbEntity
  8
Capa 1
 62
     7
420
 16777215
370
     9
100
AcDbVertex
100
AcDb2dVertex
 10
95.87041995512786
 20
106.6086919133905
 30
0.0
  0
VERTEX
  5
4E9
330
4DA
100
AcDbEntity
  8
Capa 1
 62
     7
420
 16777215
370
     9
100
AcDbVertex
100
AcDb2dVertex
 10
95.20896162195989
 20
106.7938994392333
 30
0.0
  0
VERTEX
  5
4EA
330
4DA
100
AcDbEntity
  8
Capa 1
 62
     7
420
 16777215
370
     9
100
AcDbVertex
100
AcDb2dVertex
 10
94.49458877532317
 20
106.899735194873
 30
0.0
  0
VERTEX
  5
4EB
330
4DA
100
AcDbEntity
  8
Capa 1
 62
     7
420
 16777215
370
     9
100
AcDbVertex
100
AcDb2dVertex
 10
93.80667318542082
 20
106.9261924516073
 30
0.0
  0
VERTEX
  5
4EC
330
4DA
100
AcDbEntity
  8
Capa 1
 62
     7
420
 16777215
370
     9
100
AcDbVertex
100
AcDb2dVertex
 10
84.94312882949046
 20
106.9261924516073
 30
0.0
  0
VERTEX
  5
4ED
330
4DA
100
AcDbEntity
  8
Capa 1
 62
     7
420
 16777215
370
     9
100
AcDbVertex
100
AcDb2dVertex
 10
84.46688138651506
 20
106.8732779381386
 30
0.0
  0
VERTEX
  5
4EE
330
4DA
100
AcDbEntity
  8
Capa 1
 62
     7
420
 16777215
370
     9
100
AcDbVertex
100
AcDb2dVertex
 10
83.99063057918985
 20
106.7409849257646
 30
0.0
  0
VERTEX
  5
4EF
330
4DA
100
AcDbEntity
  8
Capa 1
 62
     7
420
 16777215
370
     9
100
AcDbVertex
100
AcDb2dVertex
 10
83.5408403929501
 20
106.5293201431874
 30
0.0
  0
VERTEX
  5
4F0
330
4DA
100
AcDbEntity
  8
Capa 1
 62
     7
420
 16777215
370
     9
100
AcDbVertex
100
AcDb2dVertex
 10
83.17042197691349
 20
106.2118196049706
 30
0.0
  0
VERTEX
  5
4F1
330
4DA
100
AcDbEntity
  8
Capa 1
 62
     7
420
 16777215
370
     9
100
AcDbVertex
100
AcDb2dVertex
 10
82.82646418196232
 20
105.8414045532851
 30
0.0
  0
VERTEX
  5
4F2
330
4DA
100
AcDbEntity
  8
Capa 1
 62
     7
420
 16777215
370
     9
100
AcDbVertex
100
AcDb2dVertex
 10
82.58833877829973
 20
105.4180716237797
 30
0.0
  0
VERTEX
  5
4F3
330
4DA
100
AcDbEntity
  8
Capa 1
 62
     7
420
 16777215
370
     9
100
AcDbVertex
100
AcDb2dVertex
 10
82.42958850919132
 20
104.9682780731889
 30
0.0
  0
VERTEX
  5
4F4
330
4DA
100
AcDbEntity
  8
Capa 1
 62
     7
420
 16777215
370
     9
100
AcDbVertex
100
AcDb2dVertex
 10
82.35021337463841
 20
104.4655700091293
 30
0.0
  0
VERTEX
  5
4F5
330
4DA
100
AcDbEntity
  8
Capa 1
 62
     7
420
 16777215
370
     9
100
AcDbVertex
100
AcDb2dVertex
 10
82.24438098334855
 20
102.1107833222909
 30
0.0
  0
VERTEX
  5
4F6
330
4DA
100
AcDbEntity
  8
Capa 1
 62
     7
420
 16777215
370
     9
100
AcDbVertex
100
AcDb2dVertex
 10
82.19146310552873
 20
99.75598990675037
 30
0.0
  0
SEQEND
  5
4F7
330
4DA
100
AcDbEntity
  8
Capa 1
 62
     7
420
 16777215
370
     9
  0
POLYLINE
  5
4F8
330
1F
100
AcDbEntity
  8
Capa 1
 62
     7
420
 16777215
370
     9
100
AcDb2dPolyline
 66
     1
 10
0.0
 20
0.0
 30
0.0
  0
VERTEX
  5
4F9
330
4F8
100
AcDbEntity
  8
Capa 1
 62
     7
420
 16777215
370
     9
100
AcDbVertex
100
AcDb2dVertex
 10
82.35021337463841
 20
95.04640644002039
 30
0.0
  0
VERTEX
  5
4FA
330
4F8
100
AcDbEntity
  8
Capa 1
 62
     7
420
 16777215
370
     9
100
AcDbVertex
100
AcDb2dVertex
 10
82.24438098334855
 20
97.40119985556092
 30
0.0
  0
VERTEX
  5
4FB
330
4F8
100
AcDbEntity
  8
Capa 1
 62
     7
420
 16777215
370
     9
100
AcDbVertex
100
AcDb2dVertex
 10
82.19146310552873
 20
99.75598990675037
 30
0.0
  0
SEQEND
  5
4FC
330
4F8
100
AcDbEntity
  8
Capa 1
 62
     7
420
 16777215
370
     9
  0
POLYLINE
  5
4FD
330
1F
100
AcDbEntity
  8
Capa 1
 62
     7
420
 16777215
370
     9
100
AcDb2dPolyline
 66
     1
 10
0.0
 20
0.0
 30
0.0
  0
VERTEX
  5
4FE
330
4FD
100
AcDbEntity
  8
Capa 1
 62
     7
420
 16777215
370
     9
100
AcDbVertex
100
AcDb2dVertex
 10
84.94312882949046
 20
92.58578399754235
 30
0.0
  0
VERTEX
  5
4FF
330
4FD
100
AcDbEntity
  8
Capa 1
 62
     7
420
 16777215
370
     9
100
AcDbVertex
100
AcDb2dVertex
 10
84.46688138651506
 20
92.61224125427674
 30
0.0
  0
VERTEX
  5
500
330
4FD
100
AcDbEntity
  8
Capa 1
 62
     7
420
 16777215
370
     9
100
AcDbVertex
100
AcDb2dVertex
 10
83.99063057918985
 20
92.77099152338513
 30
0.0
  0
VERTEX
  5
501
330
4FD
100
AcDbEntity
  8
Capa 1
 62
     7
420
 16777215
370
     9
100
AcDbVertex
100
AcDb2dVertex
 10
83.5408403929501
 20
92.9826563059623
 30
0.0
  0
VERTEX
  5
502
330
4FD
100
AcDbEntity
  8
Capa 1
 62
     7
420
 16777215
370
     9
100
AcDbVertex
100
AcDb2dVertex
 10
83.17042197691349
 20
93.27369958744471
 30
0.0
  0
VERTEX
  5
503
330
4FD
100
AcDbEntity
  8
Capa 1
 62
     7
420
 16777215
370
     9
100
AcDbVertex
100
AcDb2dVertex
 10
82.82646418196232
 20
93.64411463913027
 30
0.0
  0
VERTEX
  5
504
330
4FD
100
AcDbEntity
  8
Capa 1
 62
     7
420
 16777215
370
     9
100
AcDbVertex
100
AcDb2dVertex
 10
82.58833877829973
 20
94.09390818972108
 30
0.0
  0
VERTEX
  5
505
330
4FD
100
AcDbEntity
  8
Capa 1
 62
     7
420
 16777215
370
     9
100
AcDbVertex
100
AcDb2dVertex
 10
82.42958850919132
 20
94.54369837596083
 30
0.0
  0
VERTEX
  5
506
330
4FD
100
AcDbEntity
  8
Capa 1
 62
     7
420
 16777215
370
     9
100
AcDbVertex
100
AcDb2dVertex
 10
82.35021337463841
 20
95.04640644002039
 30
0.0
  0
SEQEND
  5
507
330
4FD
100
AcDbEntity
  8
Capa 1
 62
     7
420
 16777215
370
     9
  0
POLYLINE
  5
508
330
1F
100
AcDbEntity
  8
Capa 1
 62
     7
420
 16777215
370
     9
100
AcDb2dPolyline
 66
     1
 10
0.0
 20
0.0
 30
0.0
  0
VERTEX
  5
509
330
508
100
AcDbEntity
  8
Capa 1
 62
     7
420
 16777215
370
     9
100
AcDbVertex
100
AcDb2dVertex
 10
93.80667318542082
 20
92.58578399754235
 30
0.0
  0
VERTEX
  5
50A
330
508
100
AcDbEntity
  8
Capa 1
 62
     7
420
 16777215
370
     9
100
AcDbVertex
100
AcDb2dVertex
 10
84.94312882949046
 20
92.58578399754235
 30
0.0
  0
SEQEND
  5
50B
330
508
100
AcDbEntity
  8
Capa 1
 62
     7
420
 16777215
370
     9
  0
POLYLINE
  5
50C
330
1F
100
AcDbEntity
  8
Capa 1
 62
     7
420
 16777215
370
     9
100
AcDb2dPolyline
 66
     1
 10
0.0
 20
0.0
 30
0.0
  0
VERTEX
  5
50D
330
50C
100
AcDbEntity
  8
Capa 1
 62
     7
420
 16777215
370
     9
100
AcDbVertex
100
AcDb2dVertex
 10
100.9504218378945
 20
99.75598990675037
 30
0.0
  0
VERTEX
  5
50E
330
50C
100
AcDbEntity
  8
Capa 1
 62
     7
420
 16777215
370
     9
100
AcDbVertex
100
AcDb2dVertex
 10
100.9239645811601
 20
99.04161706011365
 30
0.0
  0
VERTEX
  5
50F
330
50C
100
AcDbEntity
  8
Capa 1
 62
     7
420
 16777215
370
     9
100
AcDbVertex
100
AcDb2dVertex
 10
100.8181288255204
 20
98.35369810586023
 30
0.0
  0
VERTEX
  5
510
330
50C
100
AcDbEntity
  8
Capa 1
 62
     7
420
 16777215
370
     9
100
AcDbVertex
100
AcDb2dVertex
 10
100.6329212996777
 20
97.66578251595789
 30
0.0
  0
VERTEX
  5
511
330
50C
100
AcDbEntity
  8
Capa 1
 62
     7
420
 16777215
370
     9
100
AcDbVertex
100
AcDb2dVertex
 10
100.394792531664
 20
97.00432418278992
 30
0.0
  0
VERTEX
  5
512
330
50C
100
AcDbEntity
  8
Capa 1
 62
     7
420
 16777215
370
     9
100
AcDbVertex
100
AcDb2dVertex
 10
100.1037559788837
 20
96.36932310635633
 30
0.0
  0
VERTEX
  5
513
330
50C
100
AcDbEntity
  8
Capa 1
 62
     7
420
 16777215
370
     9
100
AcDbVertex
100
AcDb2dVertex
 10
99.73333419849604
 20
95.76078265100818
 30
0.0
  0
VERTEX
  5
514
330
50C
100
AcDbEntity
  8
Capa 1
 62
     7
420
 16777215
370
     9
100
AcDbVertex
100
AcDb2dVertex
 10
99.3364618900761
 20
95.20515670912879
 30
0.0
  0
VERTEX
  5
515
330
50C
100
AcDbEntity
  8
Capa 1
 62
     7
420
 16777215
370
     9
100
AcDbVertex
100
AcDb2dVertex
 10
98.86021108275091
 20
94.67599138833484
 30
0.0
  0
VERTEX
  5
516
330
50C
100
AcDbEntity
  8
Capa 1
 62
     7
420
 16777215
370
     9
100
AcDbVertex
100
AcDb2dVertex
 10
98.33104576195696
 20
94.19974058100965
 30
0.0
  0
VERTEX
  5
517
330
50C
100
AcDbEntity
  8
Capa 1
 62
     7
420
 16777215
370
     9
100
AcDbVertex
100
AcDb2dVertex
 10
97.77542318442863
 20
93.77640765150427
 30
0.0
  0
VERTEX
  5
518
330
50C
100
AcDbEntity
  8
Capa 1
 62
     7
420
 16777215
370
     9
100
AcDbVertex
100
AcDb2dVertex
 10
97.16687936472941
 20
93.4324498565531
 30
0.0
  0
VERTEX
  5
519
330
50C
100
AcDbEntity
  8
Capa 1
 62
     7
420
 16777215
370
     9
100
AcDbVertex
100
AcDb2dVertex
 10
96.53187828829583
 20
93.11494931833631
 30
0.0
  0
VERTEX
  5
51A
330
50C
100
AcDbEntity
  8
Capa 1
 62
     7
420
 16777215
370
     9
100
AcDbVertex
100
AcDb2dVertex
 10
95.87041995512786
 20
92.87682391467371
 30
0.0
  0
VERTEX
  5
51B
330
50C
100
AcDbEntity
  8
Capa 1
 62
     7
420
 16777215
370
     9
100
AcDbVertex
100
AcDb2dVertex
 10
95.20896162195989
 20
92.71807364556531
 30
0.0
  0
VERTEX
  5
51C
330
50C
100
AcDbEntity
  8
Capa 1
 62
     7
420
 16777215
370
     9
100
AcDbVertex
100
AcDb2dVertex
 10
94.49458877532317
 20
92.61224125427674
 30
0.0
  0
VERTEX
  5
51D
330
50C
100
AcDbEntity
  8
Capa 1
 62
     7
420
 16777215
370
     9
100
AcDbVertex
100
AcDb2dVertex
 10
93.80667318542082
 20
92.58578399754235
 30
0.0
  0
SEQEND
  5
51E
330
50C
100
AcDbEntity
  8
Capa 1
 62
     7
420
 16777215
370
     9
  0
POLYLINE
  5
51F
330
1F
100
AcDbEntity
  8
Capa 1
 62
     7
420
 16777215
370
     9
100
AcDb2dPolyline
 66
     1
 10
0.0
 20
0.0
 30
0.0
  0
VERTEX
  5
520
330
51F
100
AcDbEntity
  8
Capa 1
 62
     7
420
 16777215
370
     9
100
AcDbVertex
100
AcDb2dVertex
 10
64.12042332741642
 20
88.96099179348572
 30
0.0
  0
VERTEX
  5
521
330
51F
100
AcDbEntity
  8
Capa 1
 62
     7
420
 16777215
370
     9
100
AcDbVertex
100
AcDb2dVertex
 10
64.12042332741642
 20
89.09328144150868
 30
0.0
  0
SEQEND
  5
522
330
51F
100
AcDbEntity
  8
Capa 1
 62
     7
420
 16777215
370
     9
  0
POLYLINE
  5
523
330
1F
100
AcDbEntity
  8
Capa 1
 62
     7
420
 16777215
370
     9
100
AcDb2dPolyline
 66
     1
 10
0.0
 20
0.0
 30
0.0
  0
VERTEX
  5
524
330
523
100
AcDbEntity
  8
Capa 1
 62
     7
420
 16777215
370
     9
100
AcDbVertex
100
AcDb2dVertex
 10
64.12042332741642
 20
110.550984655664
 30
0.0
  0
VERTEX
  5
525
330
523
100
AcDbEntity
  8
Capa 1
 62
     7
420
 16777215
370
     9
100
AcDbVertex
100
AcDb2dVertex
 10
64.12042332741642
 20
89.09328144150868
 30
0.0
  0
SEQEND
  5
526
330
523
100
AcDbEntity
  8
Capa 1
 62
     7
420
 16777215
370
     9
  0
POLYLINE
  5
527
330
1F
100
AcDbEntity
  8
Capa 1
 62
     7
420
 16777215
370
     9
100
AcDb2dPolyline
 66
     1
 10
0.0
 20
0.0
 30
0.0
  0
VERTEX
  5
528
330
527
100
AcDbEntity
  8
Capa 1
 62
     7
420
 16777215
370
     9
100
AcDbVertex
100
AcDb2dVertex
 10
69.94125531355412
 20
99.75598990675037
 30
0.0
  0
VERTEX
  5
529
330
527
100
AcDbEntity
  8
Capa 1
 62
     7
420
 16777215
370
     9
100
AcDbVertex
100
AcDb2dVertex
 10
69.8883374357343
 20
100.0734904449672
 30
0.0
  0
VERTEX
  5
52A
330
527
100
AcDbEntity
  8
Capa 1
 62
     7
420
 16777215
370
     9
100
AcDbVertex
100
AcDb2dVertex
 10
69.782505044447
 20
100.3645337264496
 30
0.0
  0
VERTEX
  5
52B
330
527
100
AcDbEntity
  8
Capa 1
 62
     7
420
 16777215
370
     9
100
AcDbVertex
100
AcDb2dVertex
 10
69.57084026186857
 20
100.6291163868466
 30
0.0
  0
VERTEX
  5
52C
330
527
100
AcDbEntity
  8
Capa 1
 62
     7
420
 16777215
370
     9
100
AcDbVertex
100
AcDb2dVertex
 10
69.30625423712053
 20
100.8407811694237
 30
0.0
  0
VERTEX
  5
52D
330
527
100
AcDbEntity
  8
Capa 1
 62
     7
420
 16777215
370
     9
100
AcDbVertex
100
AcDb2dVertex
 10
69.01521431998917
 20
100.9466169250634
 30
0.0
  0
VERTEX
  5
52E
330
527
100
AcDbEntity
  8
Capa 1
 62
     7
420
 16777215
370
     9
100
AcDbVertex
100
AcDb2dVertex
 10
68.69771378177238
 20
100.9995314385321
 30
0.0
  0
VERTEX
  5
52F
330
527
100
AcDbEntity
  8
Capa 1
 62
     7
420
 16777215
370
     9
100
AcDbVertex
100
AcDb2dVertex
 10
68.3537559868212
 20
100.9466169250634
 30
0.0
  0
VERTEX
  5
530
330
527
100
AcDbEntity
  8
Capa 1
 62
     7
420
 16777215
370
     9
100
AcDbVertex
100
AcDb2dVertex
 10
68.0627127053388
 20
100.8407811694237
 30
0.0
  0
VERTEX
  5
531
330
527
100
AcDbEntity
  8
Capa 1
 62
     7
420
 16777215
370
     9
100
AcDbVertex
100
AcDb2dVertex
 10
67.7981300449431
 20
100.6291163868466
 30
0.0
  0
VERTEX
  5
532
330
527
100
AcDbEntity
  8
Capa 1
 62
     7
420
 16777215
370
     9
100
AcDbVertex
100
AcDb2dVertex
 10
67.61292251909904
 20
100.3645337264496
 30
0.0
  0
VERTEX
  5
533
330
527
100
AcDbEntity
  8
Capa 1
 62
     7
420
 16777215
370
     9
100
AcDbVertex
100
AcDb2dVertex
 10
67.48062950672502
 20
100.0734904449672
 30
0.0
  0
VERTEX
  5
534
330
527
100
AcDbEntity
  8
Capa 1
 62
     7
420
 16777215
370
     9
100
AcDbVertex
100
AcDb2dVertex
 10
67.42771499325626
 20
99.75598990675037
 30
0.0
  0
VERTEX
  5
535
330
527
100
AcDbEntity
  8
Capa 1
 62
     7
420
 16777215
370
     9
100
AcDbVertex
100
AcDb2dVertex
 10
67.48062950672502
 20
99.43848936853358
 30
0.0
  0
VERTEX
  5
536
330
527
100
AcDbEntity
  8
Capa 1
 62
     7
420
 16777215
370
     9
100
AcDbVertex
100
AcDb2dVertex
 10
67.61292251909904
 20
99.12099219466785
 30
0.0
  0
VERTEX
  5
537
330
527
100
AcDbEntity
  8
Capa 1
 62
     7
420
 16777215
370
     9
100
AcDbVertex
100
AcDb2dVertex
 10
67.7981300449431
 20
98.85640616991981
 30
0.0
  0
VERTEX
  5
538
330
527
100
AcDbEntity
  8
Capa 1
 62
     7
420
 16777215
370
     9
100
AcDbVertex
100
AcDb2dVertex
 10
68.0627127053388
 20
98.67119864407704
 30
0.0
  0
VERTEX
  5
539
330
527
100
AcDbEntity
  8
Capa 1
 62
     7
420
 16777215
370
     9
100
AcDbVertex
100
AcDb2dVertex
 10
68.3537559868212
 20
98.53890899605408
 30
0.0
  0
VERTEX
  5
53A
330
527
100
AcDbEntity
  8
Capa 1
 62
     7
420
 16777215
370
     9
100
AcDbVertex
100
AcDb2dVertex
 10
68.69771378177238
 20
98.51244837496864
 30
0.0
  0
VERTEX
  5
53B
330
527
100
AcDbEntity
  8
Capa 1
 62
     7
420
 16777215
370
     9
100
AcDbVertex
100
AcDb2dVertex
 10
69.01521431998917
 20
98.53890899605408
 30
0.0
  0
VERTEX
  5
53C
330
527
100
AcDbEntity
  8
Capa 1
 62
     7
420
 16777215
370
     9
100
AcDbVertex
100
AcDb2dVertex
 10
69.30625423712053
 20
98.67119864407704
 30
0.0
  0
VERTEX
  5
53D
330
527
100
AcDbEntity
  8
Capa 1
 62
     7
420
 16777215
370
     9
100
AcDbVertex
100
AcDb2dVertex
 10
69.57084026186857
 20
98.85640616991981
 30
0.0
  0
VERTEX
  5
53E
330
527
100
AcDbEntity
  8
Capa 1
 62
     7
420
 16777215
370
     9
100
AcDbVertex
100
AcDb2dVertex
 10
69.782505044447
 20
99.12099219466785
 30
0.0
  0
VERTEX
  5
53F
330
527
100
AcDbEntity
  8
Capa 1
 62
     7
420
 16777215
370
     9
100
AcDbVertex
100
AcDb2dVertex
 10
69.8883374357343
 20
99.43848936853358
 30
0.0
  0
VERTEX
  5
540
330
527
100
AcDbEntity
  8
Capa 1
 62
     7
420
 16777215
370
     9
100
AcDbVertex
100
AcDb2dVertex
 10
69.94125531355412
 20
99.75598990675037
 30
0.0
  0
SEQEND
  5
541
330
527
100
AcDbEntity
  8
Capa 1
 62
     7
420
 16777215
370
     9
  0
POLYLINE
  5
542
330
1F
100
AcDbEntity
  8
Capa 1
 62
     7
420
 16777215
370
     9
100
AcDb2dPolyline
 66
     1
 10
0.0
 20
0.0
 30
0.0
  0
VERTEX
  5
543
330
542
100
AcDbEntity
  8
Capa 1
 62
     7
420
 16777215
370
     9
100
AcDbVertex
100
AcDb2dVertex
 10
73.93646256929631
 20
109.5720257842792
 30
0.0
  0
VERTEX
  5
544
330
542
100
AcDbEntity
  8
Capa 1
 62
     7
420
 16777215
370
     9
100
AcDbVertex
100
AcDb2dVertex
 10
73.91000531256194
 20
109.889526322496
 30
0.0
  0
VERTEX
  5
545
330
542
100
AcDbEntity
  8
Capa 1
 62
     7
420
 16777215
370
     9
100
AcDbVertex
100
AcDb2dVertex
 10
73.77771230018791
 20
110.2070268607128
 30
0.0
  0
VERTEX
  5
546
330
542
100
AcDbEntity
  8
Capa 1
 62
     7
420
 16777215
370
     9
100
AcDbVertex
100
AcDb2dVertex
 10
73.59250477434513
 20
110.4716128854608
 30
0.0
  0
VERTEX
  5
547
330
542
100
AcDbEntity
  8
Capa 1
 62
     7
420
 16777215
370
     9
100
AcDbVertex
100
AcDb2dVertex
 10
73.32792211394816
 20
110.6568204113036
 30
0.0
  0
VERTEX
  5
548
330
542
100
AcDbEntity
  8
Capa 1
 62
     7
420
 16777215
370
     9
100
AcDbVertex
100
AcDb2dVertex
 10
73.0368821968168
 20
110.7891134236776
 30
0.0
  0
VERTEX
  5
549
330
542
100
AcDbEntity
  8
Capa 1
 62
     7
420
 16777215
370
     9
100
AcDbVertex
100
AcDb2dVertex
 10
72.69292103751457
 20
110.815570680412
 30
0.0
  0
SEQEND
  5
54A
330
542
100
AcDbEntity
  8
Capa 1
 62
     7
420
 16777215
370
     9
  0
POLYLINE
  5
54B
330
1F
100
AcDbEntity
  8
Capa 1
 62
     7
420
 16777215
370
     9
100
AcDb2dPolyline
 66
     1
 10
0.0
 20
0.0
 30
0.0
  0
VERTEX
  5
54C
330
54B
100
AcDbEntity
  8
Capa 1
 62
     7
420
 16777215
370
     9
100
AcDbVertex
100
AcDb2dVertex
 10
64.38500598781339
 20
110.815570680412
 30
0.0
  0
VERTEX
  5
54D
330
54B
100
AcDbEntity
  8
Capa 1
 62
     7
420
 16777215
370
     9
100
AcDbVertex
100
AcDb2dVertex
 10
64.2527146576149
 20
110.7891134236776
 30
0.0
  0
VERTEX
  5
54E
330
54B
100
AcDbEntity
  8
Capa 1
 62
     7
420
 16777215
370
     9
100
AcDbVertex
100
AcDb2dVertex
 10
64.1733395230607
 20
110.7097349247724
 30
0.0
  0
VERTEX
  5
54F
330
54B
100
AcDbEntity
  8
Capa 1
 62
     7
420
 16777215
370
     9
100
AcDbVertex
100
AcDb2dVertex
 10
64.12042332741642
 20
110.5774419123984
 30
0.0
  0
VERTEX
  5
550
330
54B
100
AcDbEntity
  8
Capa 1
 62
     7
420
 16777215
370
     9
100
AcDbVertex
100
AcDb2dVertex
 10
64.12042332741642
 20
110.550984655664
 30
0.0
  0
SEQEND
  5
551
330
54B
100
AcDbEntity
  8
Capa 1
 62
     7
420
 16777215
370
     9
  0
POLYLINE
  5
552
330
1F
100
AcDbEntity
  8
Capa 1
 62
     7
420
 16777215
370
     9
100
AcDb2dPolyline
 66
     1
 10
0.0
 20
0.0
 30
0.0
  0
VERTEX
  5
553
330
552
100
AcDbEntity
  8
Capa 1
 62
     7
420
 16777215
370
     9
100
AcDbVertex
100
AcDb2dVertex
 10
73.93646256929631
 20
89.91349004378505
 30
0.0
  0
VERTEX
  5
554
330
552
100
AcDbEntity
  8
Capa 1
 62
     7
420
 16777215
370
     9
100
AcDbVertex
100
AcDb2dVertex
 10
73.93646256929631
 20
109.5720257842792
 30
0.0
  0
SEQEND
  5
555
330
552
100
AcDbEntity
  8
Capa 1
 62
     7
420
 16777215
370
     9
  0
POLYLINE
  5
556
330
1F
100
AcDbEntity
  8
Capa 1
 62
     7
420
 16777215
370
     9
100
AcDb2dPolyline
 66
     1
 10
0.0
 20
0.0
 30
0.0
  0
VERTEX
  5
557
330
556
100
AcDbEntity
  8
Capa 1
 62
     7
420
 16777215
370
     9
100
AcDbVertex
100
AcDb2dVertex
 10
72.69292103751457
 20
110.815570680412
 30
0.0
  0
VERTEX
  5
558
330
556
100
AcDbEntity
  8
Capa 1
 62
     7
420
 16777215
370
     9
100
AcDbVertex
100
AcDb2dVertex
 10
64.38500598781339
 20
110.815570680412
 30
0.0
  0
SEQEND
  5
559
330
556
100
AcDbEntity
  8
Capa 1
 62
     7
420
 16777215
370
     9
  0
POLYLINE
  5
55A
330
1F
100
AcDbEntity
  8
Capa 1
 62
     7
420
 16777215
370
     9
100
AcDb2dPolyline
 66
     1
 10
0.0
 20
0.0
 30
0.0
  0
VERTEX
  5
55B
330
55A
100
AcDbEntity
  8
Capa 1
 62
     7
420
 16777215
370
     9
100
AcDbVertex
100
AcDb2dVertex
 10
72.69292103751457
 20
88.6699485120033
 30
0.0
  0
VERTEX
  5
55C
330
55A
100
AcDbEntity
  8
Capa 1
 62
     7
420
 16777215
370
     9
100
AcDbVertex
100
AcDb2dVertex
 10
73.0368821968168
 20
88.72286638982312
 30
0.0
  0
VERTEX
  5
55D
330
55A
100
AcDbEntity
  8
Capa 1
 62
     7
420
 16777215
370
     9
100
AcDbVertex
100
AcDb2dVertex
 10
73.32792211394816
 20
88.85515940219715
 30
0.0
  0
VERTEX
  5
55E
330
55A
100
AcDbEntity
  8
Capa 1
 62
     7
420
 16777215
370
     9
100
AcDbVertex
100
AcDb2dVertex
 10
73.59250477434513
 20
89.04036692803992
 30
0.0
  0
VERTEX
  5
55F
330
55A
100
AcDbEntity
  8
Capa 1
 62
     7
420
 16777215
370
     9
100
AcDbVertex
100
AcDb2dVertex
 10
73.77771230018791
 20
89.3049495884369
 30
0.0
  0
VERTEX
  5
560
330
55A
100
AcDbEntity
  8
Capa 1
 62
     7
420
 16777215
370
     9
100
AcDbVertex
100
AcDb2dVertex
 10
73.91000531256194
 20
89.59599286991931
 30
0.0
  0
VERTEX
  5
561
330
55A
100
AcDbEntity
  8
Capa 1
 62
     7
420
 16777215
370
     9
100
AcDbVertex
100
AcDb2dVertex
 10
73.93646256929631
 20
89.91349004378505
 30
0.0
  0
SEQEND
  5
562
330
55A
100
AcDbEntity
  8
Capa 1
 62
     7
420
 16777215
370
     9
  0
POLYLINE
  5
563
330
1F
100
AcDbEntity
  8
Capa 1
 62
     7
420
 16777215
370
     9
100
AcDb2dPolyline
 66
     1
 10
0.0
 20
0.0
 30
0.0
  0
VERTEX
  5
564
330
563
100
AcDbEntity
  8
Capa 1
 62
     7
420
 16777215
370
     9
100
AcDbVertex
100
AcDb2dVertex
 10
64.12042332741642
 20
88.93453453675134
 30
0.0
  0
VERTEX
  5
565
330
563
100
AcDbEntity
  8
Capa 1
 62
     7
420
 16777215
370
     9
100
AcDbVertex
100
AcDb2dVertex
 10
64.1733395230607
 20
88.80224152437732
 30
0.0
  0
VERTEX
  5
566
330
563
100
AcDbEntity
  8
Capa 1
 62
     7
420
 16777215
370
     9
100
AcDbVertex
100
AcDb2dVertex
 10
64.2527146576149
 20
88.72286638982312
 30
0.0
  0
VERTEX
  5
567
330
563
100
AcDbEntity
  8
Capa 1
 62
     7
420
 16777215
370
     9
100
AcDbVertex
100
AcDb2dVertex
 10
64.38500598781339
 20
88.6699485120033
 30
0.0
  0
SEQEND
  5
568
330
563
100
AcDbEntity
  8
Capa 1
 62
     7
420
 16777215
370
     9
  0
POLYLINE
  5
569
330
1F
100
AcDbEntity
  8
Capa 1
 62
     7
420
 16777215
370
     9
100
AcDb2dPolyline
 66
     1
 10
0.0
 20
0.0
 30
0.0
  0
VERTEX
  5
56A
330
569
100
AcDbEntity
  8
Capa 1
 62
     7
420
 16777215
370
     9
100
AcDbVertex
100
AcDb2dVertex
 10
64.38500598781339
 20
88.6699485120033
 30
0.0
  0
VERTEX
  5
56B
330
569
100
AcDbEntity
  8
Capa 1
 62
     7
420
 16777215
370
     9
100
AcDbVertex
100
AcDb2dVertex
 10
72.69292103751457
 20
88.6699485120033
 30
0.0
  0
SEQEND
  5
56C
330
569
100
AcDbEntity
  8
Capa 1
 62
     7
420
 16777215
370
     9
  0
POLYLINE
  5
56D
330
1F
100
AcDbEntity
  8
Capa 1
 62
     7
420
 16777215
370
     9
100
AcDb2dPolyline
 66
     1
 10
0.0
 20
0.0
 30
0.0
  0
VERTEX
  5
56E
330
56D
100
AcDbEntity
  8
Capa 1
 62
     7
420
 16777215
370
     9
100
AcDbVertex
100
AcDb2dVertex
 10
64.12042332741642
 20
88.93453453675134
 30
0.0
  0
VERTEX
  5
56F
330
56D
100
AcDbEntity
  8
Capa 1
 62
     7
420
 16777215
370
     9
100
AcDbVertex
100
AcDb2dVertex
 10
64.12042332741642
 20
88.96099179348572
 30
0.0
  0
SEQEND
  5
570
330
56D
100
AcDbEntity
  8
Capa 1
 62
     7
420
 16777215
370
     9
  0
POLYLINE
  5
571
330
1F
100
AcDbEntity
  8
Capa 1
 62
     7
420
 16777215
370
     9
100
AcDb2dPolyline
 66
     1
 10
0.0
 20
0.0
 30
0.0
  0
VERTEX
  5
572
330
571
100
AcDbEntity
  8
Capa 1
 62
     7
420
 16777215
370
     9
100
AcDbVertex
100
AcDb2dVertex
 10
101.2414583906748
 20
99.75598990675037
 30
0.0
  0
VERTEX
  5
573
330
571
100
AcDbEntity
  8
Capa 1
 62
     7
420
 16777215
370
     9
100
AcDbVertex
100
AcDb2dVertex
 10
101.188543877206
 20
100.6820342646664
 30
0.0
  0
VERTEX
  5
574
330
571
100
AcDbEntity
  8
Capa 1
 62
     7
420
 16777215
370
     9
100
AcDbVertex
100
AcDb2dVertex
 10
101.0297936080976
 20
101.6080752582313
 30
0.0
  0
VERTEX
  5
575
330
571
100
AcDbEntity
  8
Capa 1
 62
     7
420
 16777215
370
     9
100
AcDbVertex
100
AcDb2dVertex
 10
100.7387503266152
 20
102.4811983739765
 30
0.0
  0
VERTEX
  5
576
330
571
100
AcDbEntity
  8
Capa 1
 62
     7
420
 16777215
370
     9
100
AcDbVertex
100
AcDb2dVertex
 10
100.3418780181952
 20
103.3278675973383
 30
0.0
  0
VERTEX
  5
577
330
571
100
AcDbEntity
  8
Capa 1
 62
     7
420
 16777215
370
     9
100
AcDbVertex
100
AcDb2dVertex
 10
99.83916995413567
 20
104.1216122141781
 30
0.0
  0
VERTEX
  5
578
330
571
100
AcDbEntity
  8
Capa 1
 62
     7
420
 16777215
370
     9
100
AcDbVertex
100
AcDb2dVertex
 10
99.25708339117084
 20
104.8359884251659
 30
0.0
  0
VERTEX
  5
579
330
571
100
AcDbEntity
  8
Capa 1
 62
     7
420
 16777215
370
     9
100
AcDbVertex
100
AcDb2dVertex
 10
98.59562505800287
 20
105.4974467583339
 30
0.0
  0
VERTEX
  5
57A
330
571
100
AcDbEntity
  8
Capa 1
 62
     7
420
 16777215
370
     9
100
AcDbVertex
100
AcDb2dVertex
 10
97.82833769789738
 20
106.0530693358622
 30
0.0
  0
VERTEX
  5
57B
330
571
100
AcDbEntity
  8
Capa 1
 62
     7
420
 16777215
370
     9
100
AcDbVertex
100
AcDb2dVertex
 10
97.0345863523554
 20
106.502862886453
 30
0.0
  0
VERTEX
  5
57C
330
571
100
AcDbEntity
  8
Capa 1
 62
     7
420
 16777215
370
     9
100
AcDbVertex
100
AcDb2dVertex
 10
96.16146323661027
 20
106.8468206814042
 30
0.0
  0
VERTEX
  5
57D
330
571
100
AcDbEntity
  8
Capa 1
 62
     7
420
 16777215
370
     9
100
AcDbVertex
100
AcDb2dVertex
 10
95.26187613542865
 20
107.1113999774501
 30
0.0
  0
VERTEX
  5
57E
330
571
100
AcDbEntity
  8
Capa 1
 62
     7
420
 16777215
370
     9
100
AcDbVertex
100
AcDb2dVertex
 10
94.33583850621477
 20
107.2436929898241
 30
0.0
  0
VERTEX
  5
57F
330
571
100
AcDbEntity
  8
Capa 1
 62
     7
420
 16777215
370
     9
100
AcDbVertex
100
AcDb2dVertex
 10
90.60521391086955
 20
107.2701502465585
 30
0.0
  0
VERTEX
  5
580
330
571
100
AcDbEntity
  8
Capa 1
 62
     7
420
 16777215
370
     9
100
AcDbVertex
100
AcDb2dVertex
 10
86.87458931552433
 20
107.296614231995
 30
0.0
  0
VERTEX
  5
581
330
571
100
AcDbEntity
  8
Capa 1
 62
     7
420
 16777215
370
     9
100
AcDbVertex
100
AcDb2dVertex
 10
85.02250396404338
 20
107.296614231995
 30
0.0
  0
VERTEX
  5
582
330
571
100
AcDbEntity
  8
Capa 1
 62
     7
420
 16777215
370
     9
100
AcDbVertex
100
AcDb2dVertex
 10
84.54625652106925
 20
107.2701502465585
 30
0.0
  0
VERTEX
  5
583
330
571
100
AcDbEntity
  8
Capa 1
 62
     7
420
 16777215
370
     9
100
AcDbVertex
100
AcDb2dVertex
 10
84.09646297047844
 20
107.1907784763554
 30
0.0
  0
VERTEX
  5
584
330
571
100
AcDbEntity
  8
Capa 1
 62
     7
420
 16777215
370
     9
100
AcDbVertex
100
AcDb2dVertex
 10
83.67313004097434
 20
107.032028207247
 30
0.0
  0
VERTEX
  5
585
330
571
100
AcDbEntity
  8
Capa 1
 62
     7
420
 16777215
370
     9
100
AcDbVertex
100
AcDb2dVertex
 10
83.24979711146769
 20
106.7938994392333
 30
0.0
  0
VERTEX
  5
586
330
571
100
AcDbEntity
  8
Capa 1
 62
     7
420
 16777215
370
     9
100
AcDbVertex
100
AcDb2dVertex
 10
82.90583931651652
 20
106.502862886453
 30
0.0
  0
VERTEX
  5
587
330
571
100
AcDbEntity
  8
Capa 1
 62
     7
420
 16777215
370
     9
100
AcDbVertex
100
AcDb2dVertex
 10
82.58833877829973
 20
106.1589050915019
 30
0.0
  0
VERTEX
  5
588
330
571
100
AcDbEntity
  8
Capa 1
 62
     7
420
 16777215
370
     9
100
AcDbVertex
100
AcDb2dVertex
 10
82.35021337463841
 20
105.7620294187308
 30
0.0
  0
VERTEX
  5
589
330
571
100
AcDbEntity
  8
Capa 1
 62
     7
420
 16777215
370
     9
100
AcDbVertex
100
AcDb2dVertex
 10
82.16500584879435
 20
105.3386964892255
 30
0.0
  0
VERTEX
  5
58A
330
571
100
AcDbEntity
  8
Capa 1
 62
     7
420
 16777215
370
     9
100
AcDbVertex
100
AcDb2dVertex
 10
82.03271283642033
 20
104.8624456819003
 30
0.0
  0
VERTEX
  5
58B
330
571
100
AcDbEntity
  8
Capa 1
 62
     7
420
 16777215
370
     9
100
AcDbVertex
100
AcDb2dVertex
 10
82.00625557968596
 20
104.4126554956605
 30
0.0
  0
VERTEX
  5
58C
330
571
100
AcDbEntity
  8
Capa 1
 62
     7
420
 16777215
370
     9
100
AcDbVertex
100
AcDb2dVertex
 10
81.95333770186613
 20
103.4866145020956
 30
0.0
  0
VERTEX
  5
58D
330
571
100
AcDbEntity
  8
Capa 1
 62
     7
420
 16777215
370
     9
100
AcDbVertex
100
AcDb2dVertex
 10
81.84750531057756
 20
99.75598990675037
 30
0.0
  0
VERTEX
  5
58E
330
571
100
AcDbEntity
  8
Capa 1
 62
     7
420
 16777215
370
     9
100
AcDbVertex
100
AcDb2dVertex
 10
81.95333770186613
 20
96.02536531140515
 30
0.0
  0
VERTEX
  5
58F
330
571
100
AcDbEntity
  8
Capa 1
 62
     7
420
 16777215
370
     9
100
AcDbVertex
100
AcDb2dVertex
 10
82.00625557968596
 20
95.09932431784021
 30
0.0
  0
VERTEX
  5
590
330
571
100
AcDbEntity
  8
Capa 1
 62
     7
420
 16777215
370
     9
100
AcDbVertex
100
AcDb2dVertex
 10
82.03271283642033
 20
94.62307351051503
 30
0.0
  0
VERTEX
  5
591
330
571
100
AcDbEntity
  8
Capa 1
 62
     7
420
 16777215
370
     9
100
AcDbVertex
100
AcDb2dVertex
 10
82.16500584879435
 20
94.17328332427527
 30
0.0
  0
VERTEX
  5
592
330
571
100
AcDbEntity
  8
Capa 1
 62
     7
420
 16777215
370
     9
100
AcDbVertex
100
AcDb2dVertex
 10
82.35021337463841
 20
93.7499503947699
 30
0.0
  0
VERTEX
  5
593
330
571
100
AcDbEntity
  8
Capa 1
 62
     7
420
 16777215
370
     9
100
AcDbVertex
100
AcDb2dVertex
 10
82.58833877829973
 20
93.35307472199891
 30
0.0
  0
VERTEX
  5
594
330
571
100
AcDbEntity
  8
Capa 1
 62
     7
420
 16777215
370
     9
100
AcDbVertex
100
AcDb2dVertex
 10
82.90583931651652
 20
93.00911692704773
 30
0.0
  0
VERTEX
  5
595
330
571
100
AcDbEntity
  8
Capa 1
 62
     7
420
 16777215
370
     9
100
AcDbVertex
100
AcDb2dVertex
 10
83.24979711146769
 20
92.71807364556531
 30
0.0
  0
VERTEX
  5
596
330
571
100
AcDbEntity
  8
Capa 1
 62
     7
420
 16777215
370
     9
100
AcDbVertex
100
AcDb2dVertex
 10
83.67313004097434
 20
92.47994824190272
 30
0.0
  0
VERTEX
  5
597
330
571
100
AcDbEntity
  8
Capa 1
 62
     7
420
 16777215
370
     9
100
AcDbVertex
100
AcDb2dVertex
 10
84.09646297047844
 20
92.32119797279432
 30
0.0
  0
VERTEX
  5
598
330
571
100
AcDbEntity
  8
Capa 1
 62
     7
420
 16777215
370
     9
100
AcDbVertex
100
AcDb2dVertex
 10
84.54625652106925
 20
92.21536558150574
 30
0.0
  0
VERTEX
  5
599
330
571
100
AcDbEntity
  8
Capa 1
 62
     7
420
 16777215
370
     9
100
AcDbVertex
100
AcDb2dVertex
 10
85.02250396404338
 20
92.18890832477136
 30
0.0
  0
VERTEX
  5
59A
330
571
100
AcDbEntity
  8
Capa 1
 62
     7
420
 16777215
370
     9
100
AcDbVertex
100
AcDb2dVertex
 10
86.87458931552433
 20
92.21536558150574
 30
0.0
  0
VERTEX
  5
59B
330
571
100
AcDbEntity
  8
Capa 1
 62
     7
420
 16777215
370
     9
100
AcDbVertex
100
AcDb2dVertex
 10
90.60521391086955
 20
92.21536558150574
 30
0.0
  0
VERTEX
  5
59C
330
571
100
AcDbEntity
  8
Capa 1
 62
     7
420
 16777215
370
     9
100
AcDbVertex
100
AcDb2dVertex
 10
94.33583850621477
 20
92.26828345932556
 30
0.0
  0
VERTEX
  5
59D
330
571
100
AcDbEntity
  8
Capa 1
 62
     7
420
 16777215
370
     9
100
AcDbVertex
100
AcDb2dVertex
 10
95.26187613542865
 20
92.40057310734852
 30
0.0
  0
VERTEX
  5
59E
330
571
100
AcDbEntity
  8
Capa 1
 62
     7
420
 16777215
370
     9
100
AcDbVertex
100
AcDb2dVertex
 10
96.16146323661027
 20
92.63869851101111
 30
0.0
  0
VERTEX
  5
59F
330
571
100
AcDbEntity
  8
Capa 1
 62
     7
420
 16777215
370
     9
100
AcDbVertex
100
AcDb2dVertex
 10
97.0345863523554
 20
93.00911692704773
 30
0.0
  0
VERTEX
  5
5A0
330
571
100
AcDbEntity
  8
Capa 1
 62
     7
420
 16777215
370
     9
100
AcDbVertex
100
AcDb2dVertex
 10
97.82833769789738
 20
93.45890711328748
 30
0.0
  0
VERTEX
  5
5A1
330
571
100
AcDbEntity
  8
Capa 1
 62
     7
420
 16777215
370
     9
100
AcDbVertex
100
AcDb2dVertex
 10
98.59562505800287
 20
94.01453305516688
 30
0.0
  0
VERTEX
  5
5A2
330
571
100
AcDbEntity
  8
Capa 1
 62
     7
420
 16777215
370
     9
100
AcDbVertex
100
AcDb2dVertex
 10
99.25708339117084
 20
94.64953413160046
 30
0.0
  0
VERTEX
  5
5A3
330
571
100
AcDbEntity
  8
Capa 1
 62
     7
420
 16777215
370
     9
100
AcDbVertex
100
AcDb2dVertex
 10
99.83916995413567
 20
95.39036759932263
 30
0.0
  0
VERTEX
  5
5A4
330
571
100
AcDbEntity
  8
Capa 1
 62
     7
420
 16777215
370
     9
100
AcDbVertex
100
AcDb2dVertex
 10
100.3418780181952
 20
96.18411558051356
 30
0.0
  0
VERTEX
  5
5A5
330
571
100
AcDbEntity
  8
Capa 1
 62
     7
420
 16777215
370
     9
100
AcDbVertex
100
AcDb2dVertex
 10
100.7387503266152
 20
97.0307814395243
 30
0.0
  0
VERTEX
  5
5A6
330
571
100
AcDbEntity
  8
Capa 1
 62
     7
420
 16777215
370
     9
100
AcDbVertex
100
AcDb2dVertex
 10
101.0297936080976
 20
97.9039079196205
 30
0.0
  0
VERTEX
  5
5A7
330
571
100
AcDbEntity
  8
Capa 1
 62
     7
420
 16777215
370
     9
100
AcDbVertex
100
AcDb2dVertex
 10
101.188543877206
 20
98.82994891318543
 30
0.0
  0
VERTEX
  5
5A8
330
571
100
AcDbEntity
  8
Capa 1
 62
     7
420
 16777215
370
     9
100
AcDbVertex
100
AcDb2dVertex
 10
101.2414583906748
 20
99.75598990675037
 30
0.0
  0
SEQEND
  5
5A9
330
571
100
AcDbEntity
  8
Capa 1
 62
     7
420
 16777215
370
     9
  0
POLYLINE
  5
5AA
330
1F
100
AcDbEntity
  8
Capa 1
 62
     7
420
 16777215
370
     9
100
AcDb2dPolyline
 66
     1
 10
0.0
 20
0.0
 30
0.0
  0
VERTEX
  5
5AB
330
5AA
100
AcDbEntity
  8
Capa 1
 62
     7
420
 16777215
370
     9
100
AcDbVertex
100
AcDb2dVertex
 10
69.14750733236319
 20
94.75536652288903
 30
0.0
  0
VERTEX
  5
5AC
330
5AA
100
AcDbEntity
  8
Capa 1
 62
     7
420
 16777215
370
     9
100
AcDbVertex
100
AcDb2dVertex
 10
69.12104671127904
 20
94.94057404873182
 30
0.0
  0
VERTEX
  5
5AD
330
5AA
100
AcDbEntity
  8
Capa 1
 62
     7
420
 16777215
370
     9
100
AcDbVertex
100
AcDb2dVertex
 10
69.01521431998917
 20
95.07286706110584
 30
0.0
  0
VERTEX
  5
5AE
330
5AA
100
AcDbEntity
  8
Capa 1
 62
     7
420
 16777215
370
     9
100
AcDbVertex
100
AcDb2dVertex
 10
68.9887570632548
 20
95.09932431784021
 30
0.0
  0
SEQEND
  5
5AF
330
5AA
100
AcDbEntity
  8
Capa 1
 62
     7
420
 16777215
370
     9
  0
POLYLINE
  5
5B0
330
1F
100
AcDbEntity
  8
Capa 1
 62
     7
420
 16777215
370
     9
100
AcDb2dPolyline
 66
     1
 10
0.0
 20
0.0
 30
0.0
  0
VERTEX
  5
5B1
330
5B0
100
AcDbEntity
  8
Capa 1
 62
     7
420
 16777215
370
     9
100
AcDbVertex
100
AcDb2dVertex
 10
68.8300067941464
 20
95.17869945239441
 30
0.0
  0
VERTEX
  5
5B2
330
5B0
100
AcDbEntity
  8
Capa 1
 62
     7
420
 16777215
370
     9
100
AcDbVertex
100
AcDb2dVertex
 10
68.69771378177238
 20
95.23161733021423
 30
0.0
  0
VERTEX
  5
5B3
330
5B0
100
AcDbEntity
  8
Capa 1
 62
     7
420
 16777215
370
     9
100
AcDbVertex
100
AcDb2dVertex
 10
68.51250625593089
 20
95.17869945239441
 30
0.0
  0
VERTEX
  5
5B4
330
5B0
100
AcDbEntity
  8
Capa 1
 62
     7
420
 16777215
370
     9
100
AcDbVertex
100
AcDb2dVertex
 10
68.45958837811106
 20
95.15224219566004
 30
0.0
  0
SEQEND
  5
5B5
330
5B0
100
AcDbEntity
  8
Capa 1
 62
     7
420
 16777215
370
     9
  0
POLYLINE
  5
5B6
330
1F
100
AcDbEntity
  8
Capa 1
 62
     7
420
 16777215
370
     9
100
AcDb2dPolyline
 66
     1
 10
0.0
 20
0.0
 30
0.0
  0
VERTEX
  5
5B7
330
5B6
100
AcDbEntity
  8
Capa 1
 62
     7
420
 16777215
370
     9
100
AcDbVertex
100
AcDb2dVertex
 10
68.32729873008682
 20
95.01994918328602
 30
0.0
  0
VERTEX
  5
5B8
330
5B6
100
AcDbEntity
  8
Capa 1
 62
     7
420
 16777215
370
     9
100
AcDbVertex
100
AcDb2dVertex
 10
68.24792359553263
 20
94.94057404873182
 30
0.0
  0
VERTEX
  5
5B9
330
5B6
100
AcDbEntity
  8
Capa 1
 62
     7
420
 16777215
370
     9
100
AcDbVertex
100
AcDb2dVertex
 10
68.22146297444719
 20
94.75536652288903
 30
0.0
  0
VERTEX
  5
5BA
330
5B6
100
AcDbEntity
  8
Capa 1
 62
     7
420
 16777215
370
     9
100
AcDbVertex
100
AcDb2dVertex
 10
68.24792359553263
 20
94.64953413160046
 30
0.0
  0
SEQEND
  5
5BB
330
5B6
100
AcDbEntity
  8
Capa 1
 62
     7
420
 16777215
370
     9
  0
POLYLINE
  5
5BC
330
1F
100
AcDbEntity
  8
Capa 1
 62
     7
420
 16777215
370
     9
100
AcDb2dPolyline
 66
     1
 10
0.0
 20
0.0
 30
0.0
  0
VERTEX
  5
5BD
330
5BC
100
AcDbEntity
  8
Capa 1
 62
     7
420
 16777215
370
     9
100
AcDbVertex
100
AcDb2dVertex
 10
68.32729873008682
 20
94.49078386249207
 30
0.0
  0
VERTEX
  5
5BE
330
5BC
100
AcDbEntity
  8
Capa 1
 62
     7
420
 16777215
370
     9
100
AcDbVertex
100
AcDb2dVertex
 10
68.3537559868212
 20
94.41140872793787
 30
0.0
  0
VERTEX
  5
5BF
330
5BC
100
AcDbEntity
  8
Capa 1
 62
     7
420
 16777215
370
     9
100
AcDbVertex
100
AcDb2dVertex
 10
68.51250625593089
 20
94.30557297229822
 30
0.0
  0
VERTEX
  5
5C0
330
5BC
100
AcDbEntity
  8
Capa 1
 62
     7
420
 16777215
370
     9
100
AcDbVertex
100
AcDb2dVertex
 10
68.64479590395256
 20
94.27911571556385
 30
0.0
  0
SEQEND
  5
5C1
330
5BC
100
AcDbEntity
  8
Capa 1
 62
     7
420
 16777215
370
     9
  0
POLYLINE
  5
5C2
330
1F
100
AcDbEntity
  8
Capa 1
 62
     7
420
 16777215
370
     9
100
AcDb2dPolyline
 66
     1
 10
0.0
 20
0.0
 30
0.0
  0
VERTEX
  5
5C3
330
5C2
100
AcDbEntity
  8
Capa 1
 62
     7
420
 16777215
370
     9
100
AcDbVertex
100
AcDb2dVertex
 10
68.8300067941464
 20
94.30557297229822
 30
0.0
  0
VERTEX
  5
5C4
330
5C2
100
AcDbEntity
  8
Capa 1
 62
     7
420
 16777215
370
     9
100
AcDbVertex
100
AcDb2dVertex
 10
68.85646405088077
 20
94.30557297229822
 30
0.0
  0
VERTEX
  5
5C5
330
5C2
100
AcDbEntity
  8
Capa 1
 62
     7
420
 16777215
370
     9
100
AcDbVertex
100
AcDb2dVertex
 10
69.01521431998917
 20
94.41140872793787
 30
0.0
  0
VERTEX
  5
5C6
330
5C2
100
AcDbEntity
  8
Capa 1
 62
     7
420
 16777215
370
     9
100
AcDbVertex
100
AcDb2dVertex
 10
69.12104671127904
 20
94.57015899704626
 30
0.0
  0
SEQEND
  5
5C7
330
5C2
100
AcDbEntity
  8
Capa 1
 62
     7
420
 16777215
370
     9
  0
POLYLINE
  5
5C8
330
1F
100
AcDbEntity
  8
Capa 1
 62
     7
420
 16777215
370
     9
100
AcDb2dPolyline
 66
     1
 10
0.0
 20
0.0
 30
0.0
  0
VERTEX
  5
5C9
330
5C8
100
AcDbEntity
  8
Capa 1
 62
     7
420
 16777215
370
     9
100
AcDbVertex
100
AcDb2dVertex
 10
69.14750733236319
 20
94.75536652288903
 30
0.0
  0
VERTEX
  5
5CA
330
5C8
100
AcDbEntity
  8
Capa 1
 62
     7
420
 16777215
370
     9
100
AcDbVertex
100
AcDb2dVertex
 10
69.17396458909886
 20
94.75536652288903
 30
0.0
  0
SEQEND
  5
5CB
330
5C8
100
AcDbEntity
  8
Capa 1
 62
     7
420
 16777215
370
     9
  0
POLYLINE
  5
5CC
330
1F
100
AcDbEntity
  8
Capa 1
 62
     7
420
 16777215
370
     9
100
AcDb2dPolyline
 66
     1
 10
0.0
 20
0.0
 30
0.0
  0
VERTEX
  5
5CD
330
5CC
100
AcDbEntity
  8
Capa 1
 62
     7
420
 16777215
370
     9
100
AcDbVertex
100
AcDb2dVertex
 10
69.14750733236319
 20
104.7566132906117
 30
0.0
  0
VERTEX
  5
5CE
330
5CC
100
AcDbEntity
  8
Capa 1
 62
     7
420
 16777215
370
     9
100
AcDbVertex
100
AcDb2dVertex
 10
69.12104671127904
 20
104.9418208164545
 30
0.0
  0
VERTEX
  5
5CF
330
5CC
100
AcDbEntity
  8
Capa 1
 62
     7
420
 16777215
370
     9
100
AcDbVertex
100
AcDb2dVertex
 10
69.01521431998917
 20
105.0741138288285
 30
0.0
  0
VERTEX
  5
5D0
330
5CC
100
AcDbEntity
  8
Capa 1
 62
     7
420
 16777215
370
     9
100
AcDbVertex
100
AcDb2dVertex
 10
68.9887570632548
 20
105.1005710855629
 30
0.0
  0
SEQEND
  5
5D1
330
5CC
100
AcDbEntity
  8
Capa 1
 62
     7
420
 16777215
370
     9
  0
POLYLINE
  5
5D2
330
1F
100
AcDbEntity
  8
Capa 1
 62
     7
420
 16777215
370
     9
100
AcDb2dPolyline
 66
     1
 10
0.0
 20
0.0
 30
0.0
  0
VERTEX
  5
5D3
330
5D2
100
AcDbEntity
  8
Capa 1
 62
     7
420
 16777215
370
     9
100
AcDbVertex
100
AcDb2dVertex
 10
68.8300067941464
 20
105.1799462201171
 30
0.0
  0
VERTEX
  5
5D4
330
5D2
100
AcDbEntity
  8
Capa 1
 62
     7
420
 16777215
370
     9
100
AcDbVertex
100
AcDb2dVertex
 10
68.69771378177238
 20
105.2328640979369
 30
0.0
  0
VERTEX
  5
5D5
330
5D2
100
AcDbEntity
  8
Capa 1
 62
     7
420
 16777215
370
     9
100
AcDbVertex
100
AcDb2dVertex
 10
68.51250625593089
 20
105.1799462201171
 30
0.0
  0
VERTEX
  5
5D6
330
5D2
100
AcDbEntity
  8
Capa 1
 62
     7
420
 16777215
370
     9
100
AcDbVertex
100
AcDb2dVertex
 10
68.45958837811106
 20
105.1534889633827
 30
0.0
  0
SEQEND
  5
5D7
330
5D2
100
AcDbEntity
  8
Capa 1
 62
     7
420
 16777215
370
     9
  0
POLYLINE
  5
5D8
330
1F
100
AcDbEntity
  8
Capa 1
 62
     7
420
 16777215
370
     9
100
AcDb2dPolyline
 66
     1
 10
0.0
 20
0.0
 30
0.0
  0
VERTEX
  5
5D9
330
5D8
100
AcDbEntity
  8
Capa 1
 62
     7
420
 16777215
370
     9
100
AcDbVertex
100
AcDb2dVertex
 10
68.32729873008682
 20
105.0211959510087
 30
0.0
  0
VERTEX
  5
5DA
330
5D8
100
AcDbEntity
  8
Capa 1
 62
     7
420
 16777215
370
     9
100
AcDbVertex
100
AcDb2dVertex
 10
68.24792359553263
 20
104.9418208164545
 30
0.0
  0
VERTEX
  5
5DB
330
5D8
100
AcDbEntity
  8
Capa 1
 62
     7
420
 16777215
370
     9
100
AcDbVertex
100
AcDb2dVertex
 10
68.22146297444719
 20
104.7566132906117
 30
0.0
  0
VERTEX
  5
5DC
330
5D8
100
AcDbEntity
  8
Capa 1
 62
     7
420
 16777215
370
     9
100
AcDbVertex
100
AcDb2dVertex
 10
68.24792359553263
 20
104.6507808993231
 30
0.0
  0
SEQEND
  5
5DD
330
5D8
100
AcDbEntity
  8
Capa 1
 62
     7
420
 16777215
370
     9
  0
POLYLINE
  5
5DE
330
1F
100
AcDbEntity
  8
Capa 1
 62
     7
420
 16777215
370
     9
100
AcDb2dPolyline
 66
     1
 10
0.0
 20
0.0
 30
0.0
  0
VERTEX
  5
5DF
330
5DE
100
AcDbEntity
  8
Capa 1
 62
     7
420
 16777215
370
     9
100
AcDbVertex
100
AcDb2dVertex
 10
68.32729873008682
 20
104.4920306302147
 30
0.0
  0
VERTEX
  5
5E0
330
5DE
100
AcDbEntity
  8
Capa 1
 62
     7
420
 16777215
370
     9
100
AcDbVertex
100
AcDb2dVertex
 10
68.3537559868212
 20
104.4126554956605
 30
0.0
  0
VERTEX
  5
5E1
330
5DE
100
AcDbEntity
  8
Capa 1
 62
     7
420
 16777215
370
     9
100
AcDbVertex
100
AcDb2dVertex
 10
68.51250625593089
 20
104.3068197400209
 30
0.0
  0
VERTEX
  5
5E2
330
5DE
100
AcDbEntity
  8
Capa 1
 62
     7
420
 16777215
370
     9
100
AcDbVertex
100
AcDb2dVertex
 10
68.64479590395256
 20
104.2803624832865
 30
0.0
  0
SEQEND
  5
5E3
330
5DE
100
AcDbEntity
  8
Capa 1
 62
     7
420
 16777215
370
     9
  0
POLYLINE
  5
5E4
330
1F
100
AcDbEntity
  8
Capa 1
 62
     7
420
 16777215
370
     9
100
AcDb2dPolyline
 66
     1
 10
0.0
 20
0.0
 30
0.0
  0
VERTEX
  5
5E5
330
5E4
100
AcDbEntity
  8
Capa 1
 62
     7
420
 16777215
370
     9
100
AcDbVertex
100
AcDb2dVertex
 10
68.8300067941464
 20
104.3068197400209
 30
0.0
  0
VERTEX
  5
5E6
330
5E4
100
AcDbEntity
  8
Capa 1
 62
     7
420
 16777215
370
     9
100
AcDbVertex
100
AcDb2dVertex
 10
68.85646405088077
 20
104.3068197400209
 30
0.0
  0
VERTEX
  5
5E7
330
5E4
100
AcDbEntity
  8
Capa 1
 62
     7
420
 16777215
370
     9
100
AcDbVertex
100
AcDb2dVertex
 10
69.01521431998917
 20
104.4126554956605
 30
0.0
  0
VERTEX
  5
5E8
330
5E4
100
AcDbEntity
  8
Capa 1
 62
     7
420
 16777215
370
     9
100
AcDbVertex
100
AcDb2dVertex
 10
69.12104671127904
 20
104.5714057647689
 30
0.0
  0
SEQEND
  5
5E9
330
5E4
100
AcDbEntity
  8
Capa 1
 62
     7
420
 16777215
370
     9
  0
POLYLINE
  5
5EA
330
1F
100
AcDbEntity
  8
Capa 1
 62
     7
420
 16777215
370
     9
100
AcDb2dPolyline
 66
     1
 10
0.0
 20
0.0
 30
0.0
  0
VERTEX
  5
5EB
330
5EA
100
AcDbEntity
  8
Capa 1
 62
     7
420
 16777215
370
     9
100
AcDbVertex
100
AcDb2dVertex
 10
69.14750733236319
 20
104.7566132906117
 30
0.0
  0
VERTEX
  5
5EC
330
5EA
100
AcDbEntity
  8
Capa 1
 62
     7
420
 16777215
370
     9
100
AcDbVertex
100
AcDb2dVertex
 10
69.17396458909886
 20
104.7566132906117
 30
0.0
  0
SEQEND
  5
5ED
330
5EA
100
AcDbEntity
  8
Capa 1
 62
     7
420
 16777215
370
     9
  0
POLYLINE
  5
5EE
330
1F
100
AcDbEntity
  8
Capa 1
 62
     7
420
 16777215
370
     9
100
AcDb2dPolyline
 66
     1
 10
0.0
 20
0.0
 30
0.0
  0
VERTEX
  5
5EF
330
5EE
100
AcDbEntity
  8
Capa 1
 62
     7
420
 16777215
370
     9
100
AcDbVertex
100
AcDb2dVertex
 10
68.69771378177238
 20
104.9153635597201
 30
0.0
  0
VERTEX
  5
5F0
330
5EE
100
AcDbEntity
  8
Capa 1
 62
     7
420
 16777215
370
     9
100
AcDbVertex
100
AcDb2dVertex
 10
68.69771378177238
 20
104.7566132906117
 30
0.0
  0
VERTEX
  5
5F1
330
5EE
100
AcDbEntity
  8
Capa 1
 62
     7
420
 16777215
370
     9
100
AcDbVertex
100
AcDb2dVertex
 10
68.53896351266398
 20
104.7566132906117
 30
0.0
  0
SEQEND
  5
5F2
330
5EE
100
AcDbEntity
  8
Capa 1
 62
     7
420
 16777215
370
     9
  0
POLYLINE
  5
5F3
330
1F
100
AcDbEntity
  8
Capa 1
 62
     7
420
 16777215
370
     9
100
AcDb2dPolyline
 66
     1
 10
0.0
 20
0.0
 30
0.0
  0
VERTEX
  5
5F4
330
5F3
100
AcDbEntity
  8
Capa 1
 62
     7
420
 16777215
370
     9
100
AcDbVertex
100
AcDb2dVertex
 10
68.69771378177238
 20
104.5978630215033
 30
0.0
  0
VERTEX
  5
5F5
330
5F3
100
AcDbEntity
  8
Capa 1
 62
     7
420
 16777215
370
     9
100
AcDbVertex
100
AcDb2dVertex
 10
68.69771378177238
 20
104.7566132906117
 30
0.0
  0
VERTEX
  5
5F6
330
5F3
100
AcDbEntity
  8
Capa 1
 62
     7
420
 16777215
370
     9
100
AcDbVertex
100
AcDb2dVertex
 10
68.85646405088077
 20
104.7566132906117
 30
0.0
  0
SEQEND
  5
5F7
330
5F3
100
AcDbEntity
  8
Capa 1
 62
     7
420
 16777215
370
     9
  0
POLYLINE
  5
5F8
330
1F
100
AcDbEntity
  8
Capa 1
 62
     7
420
 16777215
370
     9
100
AcDb2dPolyline
 66
     1
 10
0.0
 20
0.0
 30
0.0
  0
VERTEX
  5
5F9
330
5F8
100
AcDbEntity
  8
Capa 1
 62
     7
420
 16777215
370
     9
100
AcDbVertex
100
AcDb2dVertex
 10
69.01521431998917
 20
104.7566132906117
 30
0.0
  0
VERTEX
  5
5FA
330
5F8
100
AcDbEntity
  8
Capa 1
 62
     7
420
 16777215
370
     9
100
AcDbVertex
100
AcDb2dVertex
 10
69.30625423712053
 20
104.7566132906117
 30
0.0
  0
SEQEND
  5
5FB
330
5F8
100
AcDbEntity
  8
Capa 1
 62
     7
420
 16777215
370
     9
  0
POLYLINE
  5
5FC
330
1F
100
AcDbEntity
  8
Capa 1
 62
     7
420
 16777215
370
     9
100
AcDb2dPolyline
 66
     1
 10
0.0
 20
0.0
 30
0.0
  0
VERTEX
  5
5FD
330
5FC
100
AcDbEntity
  8
Capa 1
 62
     7
420
 16777215
370
     9
100
AcDbVertex
100
AcDb2dVertex
 10
68.69771378177238
 20
104.4391127523949
 30
0.0
  0
VERTEX
  5
5FE
330
5FC
100
AcDbEntity
  8
Capa 1
 62
     7
420
 16777215
370
     9
100
AcDbVertex
100
AcDb2dVertex
 10
68.69771378177238
 20
104.1216122141781
 30
0.0
  0
SEQEND
  5
5FF
330
5FC
100
AcDbEntity
  8
Capa 1
 62
     7
420
 16777215
370
     9
  0
POLYLINE
  5
600
330
1F
100
AcDbEntity
  8
Capa 1
 62
     7
420
 16777215
370
     9
100
AcDb2dPolyline
 66
     1
 10
0.0
 20
0.0
 30
0.0
  0
VERTEX
  5
601
330
600
100
AcDbEntity
  8
Capa 1
 62
     7
420
 16777215
370
     9
100
AcDbVertex
100
AcDb2dVertex
 10
68.38021324355559
 20
104.7566132906117
 30
0.0
  0
VERTEX
  5
602
330
600
100
AcDbEntity
  8
Capa 1
 62
     7
420
 16777215
370
     9
100
AcDbVertex
100
AcDb2dVertex
 10
68.0627127053388
 20
104.7566132906117
 30
0.0
  0
SEQEND
  5
603
330
600
100
AcDbEntity
  8
Capa 1
 62
     7
420
 16777215
370
     9
  0
POLYLINE
  5
604
330
1F
100
AcDbEntity
  8
Capa 1
 62
     7
420
 16777215
370
     9
100
AcDb2dPolyline
 66
     1
 10
0.0
 20
0.0
 30
0.0
  0
VERTEX
  5
605
330
604
100
AcDbEntity
  8
Capa 1
 62
     7
420
 16777215
370
     9
100
AcDbVertex
100
AcDb2dVertex
 10
68.69771378177238
 20
105.0741138288285
 30
0.0
  0
VERTEX
  5
606
330
604
100
AcDbEntity
  8
Capa 1
 62
     7
420
 16777215
370
     9
100
AcDbVertex
100
AcDb2dVertex
 10
68.69771378177238
 20
105.3651537459599
 30
0.0
  0
SEQEND
  5
607
330
604
100
AcDbEntity
  8
Capa 1
 62
     7
420
 16777215
370
     9
  0
POLYLINE
  5
608
330
1F
100
AcDbEntity
  8
Capa 1
 62
     7
420
 16777215
370
     9
100
AcDb2dPolyline
 66
     1
 10
0.0
 20
0.0
 30
0.0
  0
VERTEX
  5
609
330
608
100
AcDbEntity
  8
Capa 1
 62
     7
420
 16777215
370
     9
100
AcDbVertex
100
AcDb2dVertex
 10
68.69771378177238
 20
94.91411679199744
 30
0.0
  0
VERTEX
  5
60A
330
608
100
AcDbEntity
  8
Capa 1
 62
     7
420
 16777215
370
     9
100
AcDbVertex
100
AcDb2dVertex
 10
68.69771378177238
 20
94.75536652288903
 30
0.0
  0
VERTEX
  5
60B
330
608
100
AcDbEntity
  8
Capa 1
 62
     7
420
 16777215
370
     9
100
AcDbVertex
100
AcDb2dVertex
 10
68.53896351266398
 20
94.75536652288903
 30
0.0
  0
SEQEND
  5
60C
330
608
100
AcDbEntity
  8
Capa 1
 62
     7
420
 16777215
370
     9
  0
POLYLINE
  5
60D
330
1F
100
AcDbEntity
  8
Capa 1
 62
     7
420
 16777215
370
     9
100
AcDb2dPolyline
 66
     1
 10
0.0
 20
0.0
 30
0.0
  0
VERTEX
  5
60E
330
60D
100
AcDbEntity
  8
Capa 1
 62
     7
420
 16777215
370
     9
100
AcDbVertex
100
AcDb2dVertex
 10
68.69771378177238
 20
94.59661625378064
 30
0.0
  0
VERTEX
  5
60F
330
60D
100
AcDbEntity
  8
Capa 1
 62
     7
420
 16777215
370
     9
100
AcDbVertex
100
AcDb2dVertex
 10
68.69771378177238
 20
94.75536652288903
 30
0.0
  0
VERTEX
  5
610
330
60D
100
AcDbEntity
  8
Capa 1
 62
     7
420
 16777215
370
     9
100
AcDbVertex
100
AcDb2dVertex
 10
68.85646405088077
 20
94.75536652288903
 30
0.0
  0
SEQEND
  5
611
330
60D
100
AcDbEntity
  8
Capa 1
 62
     7
420
 16777215
370
     9
  0
POLYLINE
  5
612
330
1F
100
AcDbEntity
  8
Capa 1
 62
     7
420
 16777215
370
     9
100
AcDb2dPolyline
 66
     1
 10
0.0
 20
0.0
 30
0.0
  0
VERTEX
  5
613
330
612
100
AcDbEntity
  8
Capa 1
 62
     7
420
 16777215
370
     9
100
AcDbVertex
100
AcDb2dVertex
 10
68.48604899919522
 20
99.75598990675037
 30
0.0
  0
VERTEX
  5
614
330
612
100
AcDbEntity
  8
Capa 1
 62
     7
420
 16777215
370
     9
100
AcDbVertex
100
AcDb2dVertex
 10
68.88292130761515
 20
99.75598990675037
 30
0.0
  0
SEQEND
  5
615
330
612
100
AcDbEntity
  8
Capa 1
 62
     7
420
 16777215
370
     9
  0
POLYLINE
  5
616
330
1F
100
AcDbEntity
  8
Capa 1
 62
     7
420
 16777215
370
     9
100
AcDb2dPolyline
 66
     1
 10
0.0
 20
0.0
 30
0.0
  0
VERTEX
  5
617
330
616
100
AcDbEntity
  8
Capa 1
 62
     7
420
 16777215
370
     9
100
AcDbVertex
100
AcDb2dVertex
 10
66.73979603900285
 20
99.75598990675037
 30
0.0
  0
VERTEX
  5
618
330
616
100
AcDbEntity
  8
Capa 1
 62
     7
420
 16777215
370
     9
100
AcDbVertex
100
AcDb2dVertex
 10
68.1156305831586
 20
99.75598990675037
 30
0.0
  0
SEQEND
  5
619
330
616
100
AcDbEntity
  8
Capa 1
 62
     7
420
 16777215
370
     9
  0
POLYLINE
  5
61A
330
1F
100
AcDbEntity
  8
Capa 1
 62
     7
420
 16777215
370
     9
100
AcDb2dPolyline
 66
     1
 10
0.0
 20
0.0
 30
0.0
  0
VERTEX
  5
61B
330
61A
100
AcDbEntity
  8
Capa 1
 62
     7
420
 16777215
370
     9
100
AcDbVertex
100
AcDb2dVertex
 10
69.01521431998917
 20
94.75536652288903
 30
0.0
  0
VERTEX
  5
61C
330
61A
100
AcDbEntity
  8
Capa 1
 62
     7
420
 16777215
370
     9
100
AcDbVertex
100
AcDb2dVertex
 10
69.30625423712053
 20
94.75536652288903
 30
0.0
  0
SEQEND
  5
61D
330
61A
100
AcDbEntity
  8
Capa 1
 62
     7
420
 16777215
370
     9
  0
POLYLINE
  5
61E
330
1F
100
AcDbEntity
  8
Capa 1
 62
     7
420
 16777215
370
     9
100
AcDb2dPolyline
 66
     1
 10
0.0
 20
0.0
 30
0.0
  0
VERTEX
  5
61F
330
61E
100
AcDbEntity
  8
Capa 1
 62
     7
420
 16777215
370
     9
100
AcDbVertex
100
AcDb2dVertex
 10
68.69771378177238
 20
94.43786598467224
 30
0.0
  0
VERTEX
  5
620
330
61E
100
AcDbEntity
  8
Capa 1
 62
     7
420
 16777215
370
     9
100
AcDbVertex
100
AcDb2dVertex
 10
68.69771378177238
 20
94.12036544645545
 30
0.0
  0
SEQEND
  5
621
330
61E
100
AcDbEntity
  8
Capa 1
 62
     7
420
 16777215
370
     9
  0
POLYLINE
  5
622
330
1F
100
AcDbEntity
  8
Capa 1
 62
     7
420
 16777215
370
     9
100
AcDb2dPolyline
 66
     1
 10
0.0
 20
0.0
 30
0.0
  0
VERTEX
  5
623
330
622
100
AcDbEntity
  8
Capa 1
 62
     7
420
 16777215
370
     9
100
AcDbVertex
100
AcDb2dVertex
 10
68.38021324355559
 20
94.75536652288903
 30
0.0
  0
VERTEX
  5
624
330
622
100
AcDbEntity
  8
Capa 1
 62
     7
420
 16777215
370
     9
100
AcDbVertex
100
AcDb2dVertex
 10
68.0627127053388
 20
94.75536652288903
 30
0.0
  0
SEQEND
  5
625
330
622
100
AcDbEntity
  8
Capa 1
 62
     7
420
 16777215
370
     9
  0
POLYLINE
  5
626
330
1F
100
AcDbEntity
  8
Capa 1
 62
     7
420
 16777215
370
     9
100
AcDb2dPolyline
 66
     1
 10
0.0
 20
0.0
 30
0.0
  0
VERTEX
  5
627
330
626
100
AcDbEntity
  8
Capa 1
 62
     7
420
 16777215
370
     9
100
AcDbVertex
100
AcDb2dVertex
 10
68.69771378177238
 20
95.07286706110584
 30
0.0
  0
VERTEX
  5
628
330
626
100
AcDbEntity
  8
Capa 1
 62
     7
420
 16777215
370
     9
100
AcDbVertex
100
AcDb2dVertex
 10
68.69771378177238
 20
95.3639069782372
 30
0.0
  0
SEQEND
  5
629
330
626
100
AcDbEntity
  8
Capa 1
 62
     7
420
 16777215
370
     9
  0
POLYLINE
  5
62A
330
1F
100
AcDbEntity
  8
Capa 1
 62
     7
420
 16777215
370
     9
100
AcDb2dPolyline
 66
     1
 10
0.0
 20
0.0
 30
0.0
  0
VERTEX
  5
62B
330
62A
100
AcDbEntity
  8
Capa 1
 62
     7
420
 16777215
370
     9
100
AcDbVertex
100
AcDb2dVertex
 10
69.27979698038615
 20
99.75598990675037
 30
0.0
  0
VERTEX
  5
62C
330
62A
100
AcDbEntity
  8
Capa 1
 62
     7
420
 16777215
370
     9
100
AcDbVertex
100
AcDb2dVertex
 10
70.6556315245419
 20
99.75598990675037
 30
0.0
  0
SEQEND
  5
62D
330
62A
100
AcDbEntity
  8
Capa 1
 62
     7
420
 16777215
370
     9
  0
POLYLINE
  5
62E
330
1F
100
AcDbEntity
  8
Capa 1
 62
     7
420
 16777215
370
     9
100
AcDb2dPolyline
 66
     1
 10
0.0
 20
0.0
 30
0.0
  0
VERTEX
  5
62F
330
62E
100
AcDbEntity
  8
Capa 1
 62
     7
420
 16777215
370
     9
100
AcDbVertex
100
AcDb2dVertex
 10
68.69771378177238
 20
99.99411531041297
 30
0.0
  0
VERTEX
  5
630
330
62E
100
AcDbEntity
  8
Capa 1
 62
     7
420
 16777215
370
     9
100
AcDbVertex
100
AcDb2dVertex
 10
68.69771378177238
 20
99.62370025872741
 30
0.0
  0
SEQEND
  5
631
330
62E
100
AcDbEntity
  8
Capa 1
 62
     7
420
 16777215
370
     9
  0
POLYLINE
  5
632
330
1F
100
AcDbEntity
  8
Capa 1
 62
     7
420
 16777215
370
     9
100
AcDb2dPolyline
 66
     1
 10
0.0
 20
0.0
 30
0.0
  0
VERTEX
  5
633
330
632
100
AcDbEntity
  8
Capa 1
 62
     7
420
 16777215
370
     9
100
AcDbVertex
100
AcDb2dVertex
 10
68.69771378177238
 20
102.0578654444711
 30
0.0
  0
VERTEX
  5
634
330
632
100
AcDbEntity
  8
Capa 1
 62
     7
420
 16777215
370
     9
100
AcDbVertex
100
AcDb2dVertex
 10
68.69771378177238
 20
100.390990983184
 30
0.0
  0
SEQEND
  5
635
330
632
100
AcDbEntity
  8
Capa 1
 62
     7
420
 16777215
370
     9
  0
POLYLINE
  5
636
330
1F
100
AcDbEntity
  8
Capa 1
 62
     7
420
 16777215
370
     9
100
AcDb2dPolyline
 66
     1
 10
0.0
 20
0.0
 30
0.0
  0
VERTEX
  5
637
330
636
100
AcDbEntity
  8
Capa 1
 62
     7
420
 16777215
370
     9
100
AcDbVertex
100
AcDb2dVertex
 10
68.69771378177238
 20
99.22682458595642
 30
0.0
  0
VERTEX
  5
638
330
636
100
AcDbEntity
  8
Capa 1
 62
     7
420
 16777215
370
     9
100
AcDbVertex
100
AcDb2dVertex
 10
68.69771378177238
 20
97.55995012466931
 30
0.0
  0
SEQEND
  5
639
330
636
100
AcDbEntity
  8
Capa 1
 62
     7
420
 16777215
370
     9
  0
POLYLINE
  5
63A
330
1F
100
AcDbEntity
  8
Capa 1
 62
     7
420
 16777215
370
     9
100
AcDb2dPolyline
 66
     1
 10
0.0
 20
0.0
 30
0.0
  0
VERTEX
  5
63B
330
63A
100
AcDbEntity
  8
Capa 1
 62
     7
420
 16777215
370
     9
100
AcDbVertex
100
AcDb2dVertex
 10
78.06396283741252
 20
104.9153635597201
 30
0.0
  0
VERTEX
  5
63C
330
63A
100
AcDbEntity
  8
Capa 1
 62
     7
420
 16777215
370
     9
100
AcDbVertex
100
AcDb2dVertex
 10
78.06396283741252
 20
104.7566132906117
 30
0.0
  0
VERTEX
  5
63D
330
63A
100
AcDbEntity
  8
Capa 1
 62
     7
420
 16777215
370
     9
100
AcDbVertex
100
AcDb2dVertex
 10
77.90521256830412
 20
104.7566132906117
 30
0.0
  0
SEQEND
  5
63E
330
63A
100
AcDbEntity
  8
Capa 1
 62
     7
420
 16777215
370
     9
  0
POLYLINE
  5
63F
330
1F
100
AcDbEntity
  8
Capa 1
 62
     7
420
 16777215
370
     9
100
AcDb2dPolyline
 66
     1
 10
0.0
 20
0.0
 30
0.0
  0
VERTEX
  5
640
330
63F
100
AcDbEntity
  8
Capa 1
 62
     7
420
 16777215
370
     9
100
AcDbVertex
100
AcDb2dVertex
 10
78.06396283741252
 20
104.5978630215033
 30
0.0
  0
VERTEX
  5
641
330
63F
100
AcDbEntity
  8
Capa 1
 62
     7
420
 16777215
370
     9
100
AcDbVertex
100
AcDb2dVertex
 10
78.06396283741252
 20
104.7566132906117
 30
0.0
  0
VERTEX
  5
642
330
63F
100
AcDbEntity
  8
Capa 1
 62
     7
420
 16777215
370
     9
100
AcDbVertex
100
AcDb2dVertex
 10
78.22271310652091
 20
104.7566132906117
 30
0.0
  0
SEQEND
  5
643
330
63F
100
AcDbEntity
  8
Capa 1
 62
     7
420
 16777215
370
     9
  0
POLYLINE
  5
644
330
1F
100
AcDbEntity
  8
Capa 1
 62
     7
420
 16777215
370
     9
100
AcDb2dPolyline
 66
     1
 10
0.0
 20
0.0
 30
0.0
  0
VERTEX
  5
645
330
644
100
AcDbEntity
  8
Capa 1
 62
     7
420
 16777215
370
     9
100
AcDbVertex
100
AcDb2dVertex
 10
78.3814633756306
 20
104.7566132906117
 30
0.0
  0
VERTEX
  5
646
330
644
100
AcDbEntity
  8
Capa 1
 62
     7
420
 16777215
370
     9
100
AcDbVertex
100
AcDb2dVertex
 10
78.69896391384611
 20
104.7566132906117
 30
0.0
  0
SEQEND
  5
647
330
644
100
AcDbEntity
  8
Capa 1
 62
     7
420
 16777215
370
     9
  0
POLYLINE
  5
648
330
1F
100
AcDbEntity
  8
Capa 1
 62
     7
420
 16777215
370
     9
100
AcDb2dPolyline
 66
     1
 10
0.0
 20
0.0
 30
0.0
  0
VERTEX
  5
649
330
648
100
AcDbEntity
  8
Capa 1
 62
     7
420
 16777215
370
     9
100
AcDbVertex
100
AcDb2dVertex
 10
78.06396283741252
 20
104.4391127523949
 30
0.0
  0
VERTEX
  5
64A
330
648
100
AcDbEntity
  8
Capa 1
 62
     7
420
 16777215
370
     9
100
AcDbVertex
100
AcDb2dVertex
 10
78.06396283741252
 20
104.1216122141781
 30
0.0
  0
SEQEND
  5
64B
330
648
100
AcDbEntity
  8
Capa 1
 62
     7
420
 16777215
370
     9
  0
POLYLINE
  5
64C
330
1F
100
AcDbEntity
  8
Capa 1
 62
     7
420
 16777215
370
     9
100
AcDb2dPolyline
 66
     1
 10
0.0
 20
0.0
 30
0.0
  0
VERTEX
  5
64D
330
64C
100
AcDbEntity
  8
Capa 1
 62
     7
420
 16777215
370
     9
100
AcDbVertex
100
AcDb2dVertex
 10
77.74646229919573
 20
104.7566132906117
 30
0.0
  0
VERTEX
  5
64E
330
64C
100
AcDbEntity
  8
Capa 1
 62
     7
420
 16777215
370
     9
100
AcDbVertex
100
AcDb2dVertex
 10
77.42896512533
 20
104.7566132906117
 30
0.0
  0
SEQEND
  5
64F
330
64C
100
AcDbEntity
  8
Capa 1
 62
     7
420
 16777215
370
     9
  0
POLYLINE
  5
650
330
1F
100
AcDbEntity
  8
Capa 1
 62
     7
420
 16777215
370
     9
100
AcDb2dPolyline
 66
     1
 10
0.0
 20
0.0
 30
0.0
  0
VERTEX
  5
651
330
650
100
AcDbEntity
  8
Capa 1
 62
     7
420
 16777215
370
     9
100
AcDbVertex
100
AcDb2dVertex
 10
78.06396283741252
 20
105.0741138288285
 30
0.0
  0
VERTEX
  5
652
330
650
100
AcDbEntity
  8
Capa 1
 62
     7
420
 16777215
370
     9
100
AcDbVertex
100
AcDb2dVertex
 10
78.06396283741252
 20
105.3651537459599
 30
0.0
  0
SEQEND
  5
653
330
650
100
AcDbEntity
  8
Capa 1
 62
     7
420
 16777215
370
     9
  0
POLYLINE
  5
654
330
1F
100
AcDbEntity
  8
Capa 1
 62
     7
420
 16777215
370
     9
100
AcDb2dPolyline
 66
     1
 10
0.0
 20
0.0
 30
0.0
  0
VERTEX
  5
655
330
654
100
AcDbEntity
  8
Capa 1
 62
     7
420
 16777215
370
     9
100
AcDbVertex
100
AcDb2dVertex
 10
77.90521256830412
 20
94.75536652288903
 30
0.0
  0
VERTEX
  5
656
330
654
100
AcDbEntity
  8
Capa 1
 62
     7
420
 16777215
370
     9
100
AcDbVertex
100
AcDb2dVertex
 10
78.06396283741252
 20
94.75536652288903
 30
0.0
  0
VERTEX
  5
657
330
654
100
AcDbEntity
  8
Capa 1
 62
     7
420
 16777215
370
     9
100
AcDbVertex
100
AcDb2dVertex
 10
78.06396283741252
 20
94.59661625378064
 30
0.0
  0
SEQEND
  5
658
330
654
100
AcDbEntity
  8
Capa 1
 62
     7
420
 16777215
370
     9
  0
POLYLINE
  5
659
330
1F
100
AcDbEntity
  8
Capa 1
 62
     7
420
 16777215
370
     9
100
AcDb2dPolyline
 66
     1
 10
0.0
 20
0.0
 30
0.0
  0
VERTEX
  5
65A
330
659
100
AcDbEntity
  8
Capa 1
 62
     7
420
 16777215
370
     9
100
AcDbVertex
100
AcDb2dVertex
 10
78.22271310652091
 20
94.75536652288903
 30
0.0
  0
VERTEX
  5
65B
330
659
100
AcDbEntity
  8
Capa 1
 62
     7
420
 16777215
370
     9
100
AcDbVertex
100
AcDb2dVertex
 10
78.06396283741252
 20
94.75536652288903
 30
0.0
  0
VERTEX
  5
65C
330
659
100
AcDbEntity
  8
Capa 1
 62
     7
420
 16777215
370
     9
100
AcDbVertex
100
AcDb2dVertex
 10
78.06396283741252
 20
94.91411679199744
 30
0.0
  0
SEQEND
  5
65D
330
659
100
AcDbEntity
  8
Capa 1
 62
     7
420
 16777215
370
     9
  0
POLYLINE
  5
65E
330
1F
100
AcDbEntity
  8
Capa 1
 62
     7
420
 16777215
370
     9
100
AcDb2dPolyline
 66
     1
 10
0.0
 20
0.0
 30
0.0
  0
VERTEX
  5
65F
330
65E
100
AcDbEntity
  8
Capa 1
 62
     7
420
 16777215
370
     9
100
AcDbVertex
100
AcDb2dVertex
 10
76.26479872810245
 20
95.86661504229676
 30
0.0
  0
VERTEX
  5
660
330
65E
100
AcDbEntity
  8
Capa 1
 62
     7
420
 16777215
370
     9
100
AcDbVertex
100
AcDb2dVertex
 10
76.26479872810245
 20
98.19494783675184
 30
0.0
  0
SEQEND
  5
661
330
65E
100
AcDbEntity
  8
Capa 1
 62
     7
420
 16777215
370
     9
  0
POLYLINE
  5
662
330
1F
100
AcDbEntity
  8
Capa 1
 62
     7
420
 16777215
370
     9
100
AcDb2dPolyline
 66
     1
 10
0.0
 20
0.0
 30
0.0
  0
VERTEX
  5
663
330
662
100
AcDbEntity
  8
Capa 1
 62
     7
420
 16777215
370
     9
100
AcDbVertex
100
AcDb2dVertex
 10
76.26479872810245
 20
103.6189075144696
 30
0.0
  0
VERTEX
  5
664
330
662
100
AcDbEntity
  8
Capa 1
 62
     7
420
 16777215
370
     9
100
AcDbVertex
100
AcDb2dVertex
 10
76.26479872810245
 20
101.3170319767489
 30
0.0
  0
SEQEND
  5
665
330
662
100
AcDbEntity
  8
Capa 1
 62
     7
420
 16777215
370
     9
  0
POLYLINE
  5
666
330
1F
100
AcDbEntity
  8
Capa 1
 62
     7
420
 16777215
370
     9
100
AcDb2dPolyline
 66
     1
 10
0.0
 20
0.0
 30
0.0
  0
VERTEX
  5
667
330
666
100
AcDbEntity
  8
Capa 1
 62
     7
420
 16777215
370
     9
100
AcDbVertex
100
AcDb2dVertex
 10
77.13792184384758
 20
94.75536652288903
 30
0.0
  0
VERTEX
  5
668
330
666
100
AcDbEntity
  8
Capa 1
 62
     7
420
 16777215
370
     9
100
AcDbVertex
100
AcDb2dVertex
 10
75.62979765166887
 20
94.75536652288903
 30
0.0
  0
SEQEND
  5
669
330
666
100
AcDbEntity
  8
Capa 1
 62
     7
420
 16777215
370
     9
  0
POLYLINE
  5
66A
330
1F
100
AcDbEntity
  8
Capa 1
 62
     7
420
 16777215
370
     9
100
AcDb2dPolyline
 66
     1
 10
0.0
 20
0.0
 30
0.0
  0
VERTEX
  5
66B
330
66A
100
AcDbEntity
  8
Capa 1
 62
     7
420
 16777215
370
     9
100
AcDbVertex
100
AcDb2dVertex
 10
77.13792184384758
 20
104.7566132906117
 30
0.0
  0
VERTEX
  5
66C
330
66A
100
AcDbEntity
  8
Capa 1
 62
     7
420
 16777215
370
     9
100
AcDbVertex
100
AcDb2dVertex
 10
75.62979765166887
 20
104.7566132906117
 30
0.0
  0
SEQEND
  5
66D
330
66A
100
AcDbEntity
  8
Capa 1
 62
     7
420
 16777215
370
     9
  0
POLYLINE
  5
66E
330
1F
100
AcDbEntity
  8
Capa 1
 62
     7
420
 16777215
370
     9
100
AcDb2dPolyline
 66
     1
 10
0.0
 20
0.0
 30
0.0
  0
VERTEX
  5
66F
330
66E
100
AcDbEntity
  8
Capa 1
 62
     7
420
 16777215
370
     9
100
AcDbVertex
100
AcDb2dVertex
 10
78.06396283741252
 20
95.07286706110584
 30
0.0
  0
VERTEX
  5
670
330
66E
100
AcDbEntity
  8
Capa 1
 62
     7
420
 16777215
370
     9
100
AcDbVertex
100
AcDb2dVertex
 10
78.06396283741252
 20
95.3639069782372
 30
0.0
  0
SEQEND
  5
671
330
66E
100
AcDbEntity
  8
Capa 1
 62
     7
420
 16777215
370
     9
  0
POLYLINE
  5
672
330
1F
100
AcDbEntity
  8
Capa 1
 62
     7
420
 16777215
370
     9
100
AcDb2dPolyline
 66
     1
 10
0.0
 20
0.0
 30
0.0
  0
VERTEX
  5
673
330
672
100
AcDbEntity
  8
Capa 1
 62
     7
420
 16777215
370
     9
100
AcDbVertex
100
AcDb2dVertex
 10
78.3814633756306
 20
94.75536652288903
 30
0.0
  0
VERTEX
  5
674
330
672
100
AcDbEntity
  8
Capa 1
 62
     7
420
 16777215
370
     9
100
AcDbVertex
100
AcDb2dVertex
 10
78.69896391384611
 20
94.75536652288903
 30
0.0
  0
SEQEND
  5
675
330
672
100
AcDbEntity
  8
Capa 1
 62
     7
420
 16777215
370
     9
  0
POLYLINE
  5
676
330
1F
100
AcDbEntity
  8
Capa 1
 62
     7
420
 16777215
370
     9
100
AcDb2dPolyline
 66
     1
 10
0.0
 20
0.0
 30
0.0
  0
VERTEX
  5
677
330
676
100
AcDbEntity
  8
Capa 1
 62
     7
420
 16777215
370
     9
100
AcDbVertex
100
AcDb2dVertex
 10
78.06396283741252
 20
94.43786598467224
 30
0.0
  0
VERTEX
  5
678
330
676
100
AcDbEntity
  8
Capa 1
 62
     7
420
 16777215
370
     9
100
AcDbVertex
100
AcDb2dVertex
 10
78.06396283741252
 20
94.12036544645545
 30
0.0
  0
SEQEND
  5
679
330
676
100
AcDbEntity
  8
Capa 1
 62
     7
420
 16777215
370
     9
  0
POLYLINE
  5
67A
330
1F
100
AcDbEntity
  8
Capa 1
 62
     7
420
 16777215
370
     9
100
AcDb2dPolyline
 66
     1
 10
0.0
 20
0.0
 30
0.0
  0
VERTEX
  5
67B
330
67A
100
AcDbEntity
  8
Capa 1
 62
     7
420
 16777215
370
     9
100
AcDbVertex
100
AcDb2dVertex
 10
77.74646229919573
 20
94.75536652288903
 30
0.0
  0
VERTEX
  5
67C
330
67A
100
AcDbEntity
  8
Capa 1
 62
     7
420
 16777215
370
     9
100
AcDbVertex
100
AcDb2dVertex
 10
77.42896512533
 20
94.75536652288903
 30
0.0
  0
SEQEND
  5
67D
330
67A
100
AcDbEntity
  8
Capa 1
 62
     7
420
 16777215
370
     9
  0
POLYLINE
  5
67E
330
1F
100
AcDbEntity
  8
Capa 1
370
     0
100
AcDb2dPolyline
 66
     1
 10
0.0
 20
0.0
 30
0.0
  0
VERTEX
  5
67F
330
67E
100
AcDbEntity
  8
Capa 1
370
     0
100
AcDbVertex
100
AcDb2dVertex
 10
76.07958783790862
 20
103.6189075144696
 30
0.0
  0
VERTEX
  5
680
330
67E
100
AcDbEntity
  8
Capa 1
370
     0
100
AcDbVertex
100
AcDb2dVertex
 10
76.45000625394651
 20
103.6189075144696
 30
0.0
  0
VERTEX
  5
681
330
67E
100
AcDbEntity
  8
Capa 1
370
     0
100
AcDbVertex
100
AcDb2dVertex
 10
76.26479872810245
 20
104.7566132906117
 30
0.0
  0
SEQEND
  5
683
330
67E
100
AcDbEntity
  8
Capa 1
370
     0
  0
HATCH
  5
682
330
1F
100
AcDbEntity
  8
Capa 1
 62
     7
420
 16777215
100
AcDbHatch
 10
0.0
 20
0.0
 30
0.0
210
0.0
220
0.0
230
1.0
  2
SOLID
 70
     1
 71
     0
 91
        1
 92
        1
 93
        3
 72
     1
 10
76.07958783790862
 20
103.6189075144696
 11
76.45000625394651
 21
103.6189075144696
 72
     1
 10
76.45000625394651
 20
103.6189075144696
 11
76.26479872810245
 21
104.7566132906117
 72
     1
 10
76.26479872810245
 20
104.7566132906117
 11
76.0795878379086
 21
103.6189075144696
 97
        0
 75
     0
 76
     1
 98
        0
  0
POLYLINE
  5
684
330
1F
100
AcDbEntity
  8
Capa 1
370
     0
100
AcDb2dPolyline
 66
     1
 10
0.0
 20
0.0
 30
0.0
  0
VERTEX
  5
685
330
684
100
AcDbEntity
  8
Capa 1
370
     0
100
AcDbVertex
100
AcDb2dVertex
 10
76.07958783790862
 20
95.86661504229676
 30
0.0
  0
VERTEX
  5
686
330
684
100
AcDbEntity
  8
Capa 1
370
     0
100
AcDbVertex
100
AcDb2dVertex
 10
76.45000625394651
 20
95.86661504229676
 30
0.0
  0
VERTEX
  5
687
330
684
100
AcDbEntity
  8
Capa 1
370
     0
100
AcDbVertex
100
AcDb2dVertex
 10
76.26479872810245
 20
94.75536652288903
 30
0.0
  0
SEQEND
  5
689
330
684
100
AcDbEntity
  8
Capa 1
370
     0
  0
HATCH
  5
688
330
1F
100
AcDbEntity
  8
Capa 1
 62
     7
420
 16777215
100
AcDbHatch
 10
0.0
 20
0.0
 30
0.0
210
0.0
220
0.0
230
1.0
  2
SOLID
 70
     1
 71
     0
 91
        1
 92
        1
 93
        3
 72
     1
 10
76.07958783790862
 20
95.86661504229676
 11
76.45000625394651
 21
95.86661504229676
 72
     1
 10
76.45000625394651
 20
95.86661504229676
 11
76.26479872810245
 21
94.75536652288903
 72
     1
 10
76.26479872810245
 20
94.75536652288903
 11
76.0795878379086
 21
95.86661504229676
 97
        0
 75
     0
 76
     1
 98
        0
  0
POLYLINE
  5
68A
330
1F
100
AcDbEntity
  8
Capa 1
 62
     7
420
 16777215
370
     9
100
AcDb2dPolyline
 66
     1
 10
0.0
 20
0.0
 30
0.0
  0
VERTEX
  5
68B
330
68A
100
AcDbEntity
  8
Capa 1
 62
     7
420
 16777215
370
     9
100
AcDbVertex
100
AcDb2dVertex
 10
87.64188003998215
 20
97.0307814395243
 30
0.0
  0
VERTEX
  5
68C
330
68A
100
AcDbEntity
  8
Capa 1
 62
     7
420
 16777215
370
     9
100
AcDbVertex
100
AcDb2dVertex
 10
90.12896310354435
 20
97.0307814395243
 30
0.0
  0
SEQEND
  5
68D
330
68A
100
AcDbEntity
  8
Capa 1
 62
     7
420
 16777215
370
     9
  0
POLYLINE
  5
68E
330
1F
100
AcDbEntity
  8
Capa 1
 62
     7
420
 16777215
370
     9
100
AcDb2dPolyline
 66
     1
 10
0.0
 20
0.0
 30
0.0
  0
VERTEX
  5
68F
330
68E
100
AcDbEntity
  8
Capa 1
 62
     7
420
 16777215
370
     9
100
AcDbVertex
100
AcDb2dVertex
 10
87.64188003998215
 20
102.4811983739765
 30
0.0
  0
VERTEX
  5
690
330
68E
100
AcDbEntity
  8
Capa 1
 62
     7
420
 16777215
370
     9
100
AcDbVertex
100
AcDb2dVertex
 10
90.12896310354435
 20
102.4811983739765
 30
0.0
  0
SEQEND
  5
691
330
68E
100
AcDbEntity
  8
Capa 1
 62
     7
420
 16777215
370
     9
  0
POLYLINE
  5
692
330
1F
100
AcDbEntity
  8
Capa 1
 62
     7
420
 16777215
370
     9
100
AcDb2dPolyline
 66
     1
 10
0.0
 20
0.0
 30
0.0
  0
VERTEX
  5
693
330
692
100
AcDbEntity
  8
Capa 1
 62
     7
420
 16777215
370
     9
100
AcDbVertex
100
AcDb2dVertex
 10
90.10250584680998
 20
102.4811983739765
 30
0.0
  0
VERTEX
  5
694
330
692
100
AcDbEntity
  8
Capa 1
 62
     7
420
 16777215
370
     9
100
AcDbVertex
100
AcDb2dVertex
 10
90.63167116760393
 20
102.4018232394223
 30
0.0
  0
VERTEX
  5
695
330
692
100
AcDbEntity
  8
Capa 1
 62
     7
420
 16777215
370
     9
100
AcDbVertex
100
AcDb2dVertex
 10
91.1343792316635
 20
102.2430729703138
 30
0.0
  0
VERTEX
  5
696
330
692
100
AcDbEntity
  8
Capa 1
 62
     7
420
 16777215
370
     9
100
AcDbVertex
100
AcDb2dVertex
 10
91.61063003898997
 20
102.0049509310023
 30
0.0
  0
VERTEX
  5
697
330
692
100
AcDbEntity
  8
Capa 1
 62
     7
420
 16777215
370
     9
100
AcDbVertex
100
AcDb2dVertex
 10
92.00750571175968
 20
101.6609897717001
 30
0.0
  0
VERTEX
  5
698
330
692
100
AcDbEntity
  8
Capa 1
 62
     7
420
 16777215
370
     9
100
AcDbVertex
100
AcDb2dVertex
 10
92.35146350671086
 20
101.2641174632801
 30
0.0
  0
VERTEX
  5
699
330
692
100
AcDbEntity
  8
Capa 1
 62
     7
420
 16777215
370
     9
100
AcDbVertex
100
AcDb2dVertex
 10
92.58958891037345
 20
100.787866655955
 30
0.0
  0
VERTEX
  5
69A
330
692
100
AcDbEntity
  8
Capa 1
 62
     7
420
 16777215
370
     9
100
AcDbVertex
100
AcDb2dVertex
 10
92.74833917948185
 20
100.2851585918954
 30
0.0
  0
VERTEX
  5
69B
330
692
100
AcDbEntity
  8
Capa 1
 62
     7
420
 16777215
370
     9
100
AcDbVertex
100
AcDb2dVertex
 10
92.80125369295061
 20
99.75598990675037
 30
0.0
  0
SEQEND
  5
69C
330
692
100
AcDbEntity
  8
Capa 1
 62
     7
420
 16777215
370
     9
  0
POLYLINE
  5
69D
330
1F
100
AcDbEntity
  8
Capa 1
 62
     7
420
 16777215
370
     9
100
AcDb2dPolyline
 66
     1
 10
0.0
 20
0.0
 30
0.0
  0
VERTEX
  5
69E
330
69D
100
AcDbEntity
  8
Capa 1
 62
     7
420
 16777215
370
     9
100
AcDbVertex
100
AcDb2dVertex
 10
90.10250584680998
 20
97.0307814395243
 30
0.0
  0
VERTEX
  5
69F
330
69D
100
AcDbEntity
  8
Capa 1
 62
     7
420
 16777215
370
     9
100
AcDbVertex
100
AcDb2dVertex
 10
90.63167116760393
 20
97.08369931734413
 30
0.0
  0
VERTEX
  5
6A0
330
69D
100
AcDbEntity
  8
Capa 1
 62
     7
420
 16777215
370
     9
100
AcDbVertex
100
AcDb2dVertex
 10
91.1343792316635
 20
97.24244958645252
 30
0.0
  0
VERTEX
  5
6A1
330
69D
100
AcDbEntity
  8
Capa 1
 62
     7
420
 16777215
370
     9
100
AcDbVertex
100
AcDb2dVertex
 10
91.61063003898997
 20
97.50703224684949
 30
0.0
  0
VERTEX
  5
6A2
330
69D
100
AcDbEntity
  8
Capa 1
 62
     7
420
 16777215
370
     9
100
AcDbVertex
100
AcDb2dVertex
 10
92.00750571175968
 20
97.85099004180067
 30
0.0
  0
VERTEX
  5
6A3
330
69D
100
AcDbEntity
  8
Capa 1
 62
     7
420
 16777215
370
     9
100
AcDbVertex
100
AcDb2dVertex
 10
92.35146350671086
 20
98.24786571457166
 30
0.0
  0
VERTEX
  5
6A4
330
69D
100
AcDbEntity
  8
Capa 1
 62
     7
420
 16777215
370
     9
100
AcDbVertex
100
AcDb2dVertex
 10
92.58958891037345
 20
98.72411652189685
 30
0.0
  0
VERTEX
  5
6A5
330
69D
100
AcDbEntity
  8
Capa 1
 62
     7
420
 16777215
370
     9
100
AcDbVertex
100
AcDb2dVertex
 10
92.74833917948185
 20
99.22682458595642
 30
0.0
  0
VERTEX
  5
6A6
330
69D
100
AcDbEntity
  8
Capa 1
 62
     7
420
 16777215
370
     9
100
AcDbVertex
100
AcDb2dVertex
 10
92.80125369295061
 20
99.75598990675037
 30
0.0
  0
SEQEND
  5
6A7
330
69D
100
AcDbEntity
  8
Capa 1
 62
     7
420
 16777215
370
     9
  0
POLYLINE
  5
6A8
330
1F
100
AcDbEntity
  8
Capa 1
 62
     7
420
 16777215
370
     9
100
AcDb2dPolyline
 66
     1
 10
0.0
 20
0.0
 30
0.0
  0
VERTEX
  5
6A9
330
6A8
100
AcDbEntity
  8
Capa 1
 62
     7
420
 16777215
370
     9
100
AcDbVertex
100
AcDb2dVertex
 10
87.64188003998215
 20
102.4811983739765
 30
0.0
  0
VERTEX
  5
6AA
330
6A8
100
AcDbEntity
  8
Capa 1
 62
     7
420
 16777215
370
     9
100
AcDbVertex
100
AcDb2dVertex
 10
87.24500436720989
 20
101.9520330531825
 30
0.0
  0
VERTEX
  5
6AB
330
6A8
100
AcDbEntity
  8
Capa 1
 62
     7
420
 16777215
370
     9
100
AcDbVertex
100
AcDb2dVertex
 10
86.95396445007853
 20
101.3699498545687
 30
0.0
  0
VERTEX
  5
6AC
330
6A8
100
AcDbEntity
  8
Capa 1
 62
     7
420
 16777215
370
     9
100
AcDbVertex
100
AcDb2dVertex
 10
86.74229630315031
 20
100.7349487781351
 30
0.0
  0
VERTEX
  5
6AD
330
6A8
100
AcDbEntity
  8
Capa 1
 62
     7
420
 16777215
370
     9
100
AcDbVertex
100
AcDb2dVertex
 10
86.63646391186174
 20
100.0734904449672
 30
0.0
  0
VERTEX
  5
6AE
330
6A8
100
AcDbEntity
  8
Capa 1
 62
     7
420
 16777215
370
     9
100
AcDbVertex
100
AcDb2dVertex
 10
86.63646391186174
 20
99.4120321117992
 30
0.0
  0
VERTEX
  5
6AF
330
6A8
100
AcDbEntity
  8
Capa 1
 62
     7
420
 16777215
370
     9
100
AcDbVertex
100
AcDb2dVertex
 10
86.74229630315031
 20
98.77703103536561
 30
0.0
  0
VERTEX
  5
6B0
330
6A8
100
AcDbEntity
  8
Capa 1
 62
     7
420
 16777215
370
     9
100
AcDbVertex
100
AcDb2dVertex
 10
86.95396445007853
 20
98.14203332328309
 30
0.0
  0
VERTEX
  5
6B1
330
6A8
100
AcDbEntity
  8
Capa 1
 62
     7
420
 16777215
370
     9
100
AcDbVertex
100
AcDb2dVertex
 10
87.24500436720989
 20
97.55995012466931
 30
0.0
  0
VERTEX
  5
6B2
330
6A8
100
AcDbEntity
  8
Capa 1
 62
     7
420
 16777215
370
     9
100
AcDbVertex
100
AcDb2dVertex
 10
87.64188003998215
 20
97.0307814395243
 30
0.0
  0
SEQEND
  5
6B3
330
6A8
100
AcDbEntity
  8
Capa 1
 62
     7
420
 16777215
370
     9
  0
POLYLINE
  5
6B4
330
1F
100
AcDbEntity
  8
Capa 1
 62
     7
420
 16777215
370
     9
100
AcDb2dPolyline
 66
     1
 10
0.0
 20
0.0
 30
0.0
  0
VERTEX
  5
6B5
330
6B4
100
AcDbEntity
  8
Capa 1
 62
     7
420
 16777215
370
     9
100
AcDbVertex
100
AcDb2dVertex
 10
66.50167399969132
 20
92.9826563059623
 30
0.0
  0
VERTEX
  5
6B6
330
6B4
100
AcDbEntity
  8
Capa 1
 62
     7
420
 16777215
370
     9
100
AcDbVertex
100
AcDb2dVertex
 10
66.50167399969132
 20
92.77099152338513
 30
0.0
  0
SEQEND
  5
6B7
330
6B4
100
AcDbEntity
  8
Capa 1
 62
     7
420
 16777215
370
     9
  0
POLYLINE
  5
6B8
330
1F
100
AcDbEntity
  8
Capa 1
 62
     7
420
 16777215
370
     9
100
AcDb2dPolyline
 66
     1
 10
0.0
 20
0.0
 30
0.0
  0
VERTEX
  5
6B9
330
6B8
100
AcDbEntity
  8
Capa 1
 62
     7
420
 16777215
370
     9
100
AcDbVertex
100
AcDb2dVertex
 10
66.50167399969132
 20
94.49078386249207
 30
0.0
  0
VERTEX
  5
6BA
330
6B8
100
AcDbEntity
  8
Capa 1
 62
     7
420
 16777215
370
     9
100
AcDbVertex
100
AcDb2dVertex
 10
66.50167399969132
 20
93.16786719615612
 30
0.0
  0
SEQEND
  5
6BB
330
6B8
100
AcDbEntity
  8
Capa 1
 62
     7
420
 16777215
370
     9
  0
POLYLINE
  5
6BC
330
1F
100
AcDbEntity
  8
Capa 1
 62
     7
420
 16777215
370
     9
100
AcDb2dPolyline
 66
     1
 10
0.0
 20
0.0
 30
0.0
  0
VERTEX
  5
6BD
330
6BC
100
AcDbEntity
  8
Capa 1
 62
     7
420
 16777215
370
     9
100
AcDbVertex
100
AcDb2dVertex
 10
66.50167399969132
 20
92.58578399754235
 30
0.0
  0
VERTEX
  5
6BE
330
6BC
100
AcDbEntity
  8
Capa 1
 62
     7
420
 16777215
370
     9
100
AcDbVertex
100
AcDb2dVertex
 10
66.50167399969132
 20
91.26286733120642
 30
0.0
  0
SEQEND
  5
6BF
330
6BC
100
AcDbEntity
  8
Capa 1
 62
     7
420
 16777215
370
     9
  0
POLYLINE
  5
6C0
330
1F
100
AcDbEntity
  8
Capa 1
 62
     7
420
 16777215
370
     9
100
AcDb2dPolyline
 66
     1
 10
0.0
 20
0.0
 30
0.0
  0
VERTEX
  5
6C1
330
6C0
100
AcDbEntity
  8
Capa 1
 62
     7
420
 16777215
370
     9
100
AcDbVertex
100
AcDb2dVertex
 10
66.60750639097989
 20
92.87682391467371
 30
0.0
  0
VERTEX
  5
6C2
330
6C0
100
AcDbEntity
  8
Capa 1
 62
     7
420
 16777215
370
     9
100
AcDbVertex
100
AcDb2dVertex
 10
66.39583824405167
 20
92.87682391467371
 30
0.0
  0
SEQEND
  5
6C3
330
6C0
100
AcDbEntity
  8
Capa 1
 62
     7
420
 16777215
370
     9
  0
POLYLINE
  5
6C4
330
1F
100
AcDbEntity
  8
Capa 1
 62
     7
420
 16777215
370
     9
100
AcDb2dPolyline
 66
     1
 10
0.0
 20
0.0
 30
0.0
  0
VERTEX
  5
6C5
330
6C4
100
AcDbEntity
  8
Capa 1
 62
     7
420
 16777215
370
     9
100
AcDbVertex
100
AcDb2dVertex
 10
68.1156305831586
 20
92.87682391467371
 30
0.0
  0
VERTEX
  5
6C6
330
6C4
100
AcDbEntity
  8
Capa 1
 62
     7
420
 16777215
370
     9
100
AcDbVertex
100
AcDb2dVertex
 10
66.79271391682268
 20
92.87682391467371
 30
0.0
  0
SEQEND
  5
6C7
330
6C4
100
AcDbEntity
  8
Capa 1
 62
     7
420
 16777215
370
     9
  0
POLYLINE
  5
6C8
330
1F
100
AcDbEntity
  8
Capa 1
 62
     7
420
 16777215
370
     9
100
AcDb2dPolyline
 66
     1
 10
0.0
 20
0.0
 30
0.0
  0
VERTEX
  5
6C9
330
6C8
100
AcDbEntity
  8
Capa 1
 62
     7
420
 16777215
370
     9
100
AcDbVertex
100
AcDb2dVertex
 10
66.2106307182089
 20
92.87682391467371
 30
0.0
  0
VERTEX
  5
6CA
330
6C8
100
AcDbEntity
  8
Capa 1
 62
     7
420
 16777215
370
     9
100
AcDbVertex
100
AcDb2dVertex
 10
64.8877157340485
 20
92.87682391467371
 30
0.0
  0
SEQEND
  5
6CB
330
6C8
100
AcDbEntity
  8
Capa 1
 62
     7
420
 16777215
370
     9
  0
POLYLINE
  5
6CC
330
1F
100
AcDbEntity
  8
Capa 1
 62
     7
420
 16777215
370
     9
100
AcDb2dPolyline
 66
     1
 10
0.0
 20
0.0
 30
0.0
  0
VERTEX
  5
6CD
330
6CC
100
AcDbEntity
  8
Capa 1
 62
     7
420
 16777215
370
     9
100
AcDbVertex
100
AcDb2dVertex
 10
67.0837571983051
 20
92.87682391467371
 30
0.0
  0
VERTEX
  5
6CE
330
6CC
100
AcDbEntity
  8
Capa 1
 62
     7
420
 16777215
370
     9
100
AcDbVertex
100
AcDb2dVertex
 10
67.05729657721965
 20
93.11494931833631
 30
0.0
  0
VERTEX
  5
6CF
330
6CC
100
AcDbEntity
  8
Capa 1
 62
     7
420
 16777215
370
     9
100
AcDbVertex
100
AcDb2dVertex
 10
67.00438206375088
 20
93.16786719615612
 30
0.0
  0
SEQEND
  5
6D0
330
6CC
100
AcDbEntity
  8
Capa 1
 62
     7
420
 16777215
370
     9
  0
POLYLINE
  5
6D1
330
1F
100
AcDbEntity
  8
Capa 1
 62
     7
420
 16777215
370
     9
100
AcDb2dPolyline
 66
     1
 10
0.0
 20
0.0
 30
0.0
  0
VERTEX
  5
6D2
330
6D1
100
AcDbEntity
  8
Capa 1
 62
     7
420
 16777215
370
     9
100
AcDbVertex
100
AcDb2dVertex
 10
66.92500692919668
 20
93.30015684417909
 30
0.0
  0
VERTEX
  5
6D3
330
6D1
100
AcDbEntity
  8
Capa 1
 62
     7
420
 16777215
370
     9
100
AcDbVertex
100
AcDb2dVertex
 10
66.73979603900285
 20
93.4324498565531
 30
0.0
  0
VERTEX
  5
6D4
330
6D1
100
AcDbEntity
  8
Capa 1
 62
     7
420
 16777215
370
     9
100
AcDbVertex
100
AcDb2dVertex
 10
66.66042090444866
 20
93.4324498565531
 30
0.0
  0
SEQEND
  5
6D5
330
6D1
100
AcDbEntity
  8
Capa 1
 62
     7
420
 16777215
370
     9
  0
POLYLINE
  5
6D6
330
1F
100
AcDbEntity
  8
Capa 1
 62
     7
420
 16777215
370
     9
100
AcDb2dPolyline
 66
     1
 10
0.0
 20
0.0
 30
0.0
  0
VERTEX
  5
6D7
330
6D6
100
AcDbEntity
  8
Capa 1
 62
     7
420
 16777215
370
     9
100
AcDbVertex
100
AcDb2dVertex
 10
66.50167399969132
 20
93.45890711328748
 30
0.0
  0
VERTEX
  5
6D8
330
6D6
100
AcDbEntity
  8
Capa 1
 62
     7
420
 16777215
370
     9
100
AcDbVertex
100
AcDb2dVertex
 10
66.26354859602873
 20
93.4324498565531
 30
0.0
  0
VERTEX
  5
6D9
330
6D6
100
AcDbEntity
  8
Capa 1
 62
     7
420
 16777215
370
     9
100
AcDbVertex
100
AcDb2dVertex
 10
66.2106307182089
 20
93.37953197873328
 30
0.0
  0
SEQEND
  5
6DA
330
6D6
100
AcDbEntity
  8
Capa 1
 62
     7
420
 16777215
370
     9
  0
POLYLINE
  5
6DB
330
1F
100
AcDbEntity
  8
Capa 1
 62
     7
420
 16777215
370
     9
100
AcDb2dPolyline
 66
     1
 10
0.0
 20
0.0
 30
0.0
  0
VERTEX
  5
6DC
330
6DB
100
AcDbEntity
  8
Capa 1
 62
     7
420
 16777215
370
     9
100
AcDbVertex
100
AcDb2dVertex
 10
66.07833770583488
 20
93.30015684417909
 30
0.0
  0
VERTEX
  5
6DD
330
6DB
100
AcDbEntity
  8
Capa 1
 62
     7
420
 16777215
370
     9
100
AcDbVertex
100
AcDb2dVertex
 10
65.94604805781192
 20
93.11494931833631
 30
0.0
  0
VERTEX
  5
6DE
330
6DB
100
AcDbEntity
  8
Capa 1
 62
     7
420
 16777215
370
     9
100
AcDbVertex
100
AcDb2dVertex
 10
65.94604805781192
 20
93.0355741837821
 30
0.0
  0
SEQEND
  5
6DF
330
6DB
100
AcDbEntity
  8
Capa 1
 62
     7
420
 16777215
370
     9
  0
POLYLINE
  5
6E0
330
1F
100
AcDbEntity
  8
Capa 1
 62
     7
420
 16777215
370
     9
100
AcDb2dPolyline
 66
     1
 10
0.0
 20
0.0
 30
0.0
  0
VERTEX
  5
6E1
330
6E0
100
AcDbEntity
  8
Capa 1
 62
     7
420
 16777215
370
     9
100
AcDbVertex
100
AcDb2dVertex
 10
65.91959080107883
 20
92.87682391467371
 30
0.0
  0
VERTEX
  5
6E2
330
6E0
100
AcDbEntity
  8
Capa 1
 62
     7
420
 16777215
370
     9
100
AcDbVertex
100
AcDb2dVertex
 10
65.94604805781192
 20
92.63869851101111
 30
0.0
  0
VERTEX
  5
6E3
330
6E0
100
AcDbEntity
  8
Capa 1
 62
     7
420
 16777215
370
     9
100
AcDbVertex
100
AcDb2dVertex
 10
65.99896257128069
 20
92.58578399754235
 30
0.0
  0
SEQEND
  5
6E4
330
6E0
100
AcDbEntity
  8
Capa 1
 62
     7
420
 16777215
370
     9
  0
POLYLINE
  5
6E5
330
1F
100
AcDbEntity
  8
Capa 1
 62
     7
420
 16777215
370
     9
100
AcDb2dPolyline
 66
     1
 10
0.0
 20
0.0
 30
0.0
  0
VERTEX
  5
6E6
330
6E5
100
AcDbEntity
  8
Capa 1
 62
     7
420
 16777215
370
     9
100
AcDbVertex
100
AcDb2dVertex
 10
66.07833770583488
 20
92.45349098516834
 30
0.0
  0
VERTEX
  5
6E7
330
6E5
100
AcDbEntity
  8
Capa 1
 62
     7
420
 16777215
370
     9
100
AcDbVertex
100
AcDb2dVertex
 10
66.26354859602873
 20
92.32119797279432
 30
0.0
  0
VERTEX
  5
6E8
330
6E5
100
AcDbEntity
  8
Capa 1
 62
     7
420
 16777215
370
     9
100
AcDbVertex
100
AcDb2dVertex
 10
66.34292373058292
 20
92.32119797279432
 30
0.0
  0
SEQEND
  5
6E9
330
6E5
100
AcDbEntity
  8
Capa 1
 62
     7
420
 16777215
370
     9
  0
POLYLINE
  5
6EA
330
1F
100
AcDbEntity
  8
Capa 1
 62
     7
420
 16777215
370
     9
100
AcDb2dPolyline
 66
     1
 10
0.0
 20
0.0
 30
0.0
  0
VERTEX
  5
6EB
330
6EA
100
AcDbEntity
  8
Capa 1
 62
     7
420
 16777215
370
     9
100
AcDbVertex
100
AcDb2dVertex
 10
66.50167399969132
 20
92.29474071605995
 30
0.0
  0
VERTEX
  5
6EC
330
6EA
100
AcDbEntity
  8
Capa 1
 62
     7
420
 16777215
370
     9
100
AcDbVertex
100
AcDb2dVertex
 10
66.73979603900285
 20
92.32119797279432
 30
0.0
  0
VERTEX
  5
6ED
330
6EA
100
AcDbEntity
  8
Capa 1
 62
     7
420
 16777215
370
     9
100
AcDbVertex
100
AcDb2dVertex
 10
66.79271391682268
 20
92.37411585061415
 30
0.0
  0
SEQEND
  5
6EE
330
6EA
100
AcDbEntity
  8
Capa 1
 62
     7
420
 16777215
370
     9
  0
POLYLINE
  5
6EF
330
1F
100
AcDbEntity
  8
Capa 1
 62
     7
420
 16777215
370
     9
100
AcDb2dPolyline
 66
     1
 10
0.0
 20
0.0
 30
0.0
  0
VERTEX
  5
6F0
330
6EF
100
AcDbEntity
  8
Capa 1
 62
     7
420
 16777215
370
     9
100
AcDbVertex
100
AcDb2dVertex
 10
66.92500692919668
 20
92.45349098516834
 30
0.0
  0
VERTEX
  5
6F1
330
6EF
100
AcDbEntity
  8
Capa 1
 62
     7
420
 16777215
370
     9
100
AcDbVertex
100
AcDb2dVertex
 10
67.05729657721965
 20
92.63869851101111
 30
0.0
  0
VERTEX
  5
6F2
330
6EF
100
AcDbEntity
  8
Capa 1
 62
     7
420
 16777215
370
     9
100
AcDbVertex
100
AcDb2dVertex
 10
67.05729657721965
 20
92.71807364556531
 30
0.0
  0
SEQEND
  5
6F3
330
6EF
100
AcDbEntity
  8
Capa 1
 62
     7
420
 16777215
370
     9
  0
POLYLINE
  5
6F4
330
1F
100
AcDbEntity
  8
Capa 1
 62
     7
420
 16777215
370
     9
100
AcDb2dPolyline
 66
     1
 10
0.0
 20
0.0
 30
0.0
  0
VERTEX
  5
6F5
330
6F4
100
AcDbEntity
  8
Capa 1
 62
     7
420
 16777215
370
     9
100
AcDbVertex
100
AcDb2dVertex
 10
67.0837571983051
 20
92.87682391467371
 30
0.0
  0
VERTEX
  5
6F6
330
6F4
100
AcDbEntity
  8
Capa 1
 62
     7
420
 16777215
370
     9
100
AcDbVertex
100
AcDb2dVertex
 10
67.11021445503947
 20
92.87682391467371
 30
0.0
  0
SEQEND
  5
6F7
330
6F4
100
AcDbEntity
  8
Capa 1
 62
     7
420
 16777215
370
     9
  0
MTEXT
  5
6F8
330
1F
100
AcDbEntity
  8
Capa 1
 62
     7
420
 16777215
100
AcDbMText
 10
111.3665011657348
 20
159.3094834671171
 30
0.0
 40
2.49766666604225
 41
0.0
 46
0.0
 71
     7
 72
     1
  1
\fArial|b1|i0|c0|p34;\W1;400
 73
     1
 44
1.0
  0
MTEXT
  5
6F9
330
1F
100
AcDbEntity
  8
Capa 1
 62
     7
420
 16777215
100
AcDbMText
 10
82.16793889004829
 20
137.1678547834164
 30
0.0
 40
2.49766666604225
 41
0.0
 46
0.0
 71
     7
 72
     1
  1
\fArial|b1|i0|c0|p34;\W1;390
 73
     1
 44
1.0
  0
MTEXT
  5
6FA
330
1F
100
AcDbEntity
  8
Capa 1
 62
     7
420
 16777215
100
AcDbMText
 10
52.80125595468164
 20
152.0816731390629
 30
0.0
 40
2.49766666604225
 41
0.0
 46
0.0
 71
     7
 72
     1
  1
\fArial|b1|i0|c0|p34;\W1;180
 73
     1
 44
1.0
  0
MTEXT
  5
6FB
330
1F
100
AcDbEntity
  8
Capa 1
 62
     7
420
 16777215
100
AcDbMText
 10
63.9702555178616
 20
163.0095160182754
 30
0.0
 40
2.49766666604225
 41
0.0
 46
0.0
 71
     7
 72
     1
  1
\fArial|b1|i0|c0|p34;\W1;110
 73
     1
 44
1.0
  0
MTEXT
  5
6FC
330
1F
100
AcDbEntity
  8
Capa 1
 62
     7
420
 16777215
100
AcDbMText
 10
74.7478922339172
 20
158.0217067747307
 30
0.0
 40
2.49766666604225
 41
0.0
 46
0.0
 71
     7
 72
     1
  1
\fArial|b1|i0|c0|p34;\W1;Ø102
 73
     1
 44
1.0
  0
MTEXT
  5
6FD
330
1F
100
AcDbEntity
  8
Capa 1
 62
     7
420
 16777215
100
AcDbMText
 10
167.5105332697543
 20
171.5554198789862
 30
0.0
 40
2.49766666604225
 41
0.0
 46
0.0
 71
     7
 72
     1
  1
\fArial|b1|i0|c0|p34;\W1;795
 73
     1
 44
1.0
  0
MTEXT
  5
6FE
330
1F
100
AcDbEntity
  8
Capa 1
 62
     7
420
 16777215
100
AcDbMText
 10
142.7030896995673
 20
155.213264935155
 30
0.0
 40
2.49766666604225
 41
0.0
 46
0.0
 71
     7
 72
     1
  1
\fArial|b1|i0|c0|p34;\W1;120
 73
     1
 44
1.0
  0
MTEXT
  5
6FF
330
1F
100
AcDbEntity
  8
Capa 1
 62
     7
420
 16777215
100
AcDbMText
 10
127.7872042866296
 20
152.6294433212177
 30
0.0
 40
2.49766666604225
 41
0.0
 46
0.0
 71
     7
 72
     1
  1
\fArial|b1|i0|c0|p34;\W1;200
 73
     1
 44
1.0
  0
MTEXT
  5
700
330
1F
100
AcDbEntity
  8
Capa 1
 62
     7
420
 16777215
100
AcDbMText
 10
145.1008761573012
 20
138.7904947569691
 30
0.0
 40
2.49766666604225
 41
0.0
 46
0.0
 71
     7
 72
     1
  1
\fArial|b1|i0|c0|p34;\W1;220
 73
     1
 44
1.0
  0
MTEXT
  5
701
330
1F
100
AcDbEntity
  8
Capa 1
 62
     7
420
 16777215
100
AcDbMText
 10
64.80879175897141
 20
117.2627820887399
 30
0.0
 40
2.49766666604225
 41
0.0
 46
0.0
 71
     7
 72
     1
  1
\fArial|b1|i0|c0|p34;\W1;157
 73
     1
 44
1.0
  0
MTEXT
  5
702
330
1F
100
AcDbEntity
  8
Capa 1
 62
     7
420
 16777215
100
AcDbMText
 10
87.3472954425729
 20
117.1036186773213
 30
0.0
 40
2.49766666604225
 41
0.0
 46
0.0
 71
     7
 72
     1
  1
\fArial|b1|i0|c0|p34;\W1;437
 73
     1
 44
1.0
  0
MTEXT
  5
703
330
1F
100
AcDbEntity
  8
Capa 1
 62
     7
420
 16777215
100
AcDbMText
 10
117.5573377527287
 20
97.03111434206167
 30
0.0
 40
2.49766666604225
 41
0.0
 46
0.0
 71
     7
 72
     1
  1
\fArial|b1|i0|c0|p34;\W1;360
 11
6.123233995736766E-17
 21
1.0
 31
0.0
 73
     1
 44
1.0
  0
MTEXT
  5
704
330
1F
100
AcDbEntity
  8
Capa 1
 62
     7
420
 16777215
100
AcDbMText
 10
53.74934623222239
 20
97.37837996697485
 30
0.0
 40
2.49766666604225
 41
0.0
 46
0.0
 71
     7
 72
     1
  1
\fArial|b1|i0|c0|p34;\W1;355
 11
6.123233995736766E-17
 21
1.0
 31
0.0
 73
     1
 44
1.0
  0
MTEXT
  5
705
330
1F
100
AcDbEntity
  8
Capa 1
 62
     7
420
 16777215
100
AcDbMText
 10
56.6108425422709
 20
78.6597981574184
 30
0.0
 40
2.49766666604225
 41
0.0
 46
0.0
 71
     7
 72
     1
  1
\fArial|b1|i0|c0|p34;\W1;38
 73
     1
 44
1.0
  0
MTEXT
  5
706
330
1F
100
AcDbEntity
  8
Capa 1
 62
     7
420
 16777215
100
AcDbMText
 10
80.58664006231862
 20
75.39384763740154
 30
0.0
 40
2.49766666604225
 41
0.0
 46
0.0
 71
     7
 72
     1
  1
\fArial|b1|i0|c0|p34;\W1;660
 73
     1
 44
1.0
  0
MTEXT
  5
707
330
1F
100
AcDbEntity
  8
Capa 1
 62
     7
420
 16777215
100
AcDbMText
 10
60.92754718528895
 20
94.97577037556162
 30
0.0
 40
2.49766666604225
 41
0.0
 46
0.0
 71
     7
 72
     1
  1
\fArial|b1|i0|c0|p34;\W1;160
 11
6.123233995736766E-17
 21
1.0
 31
0.0
 73
     1
 44
1.0
  0
MTEXT
  5
708
330
1F
100
AcDbEntity
  8
Capa 1
 62
     7
420
 16777215
100
AcDbMText
 10
80.66587725847937
 20
94.64504120897763
 30
0.0
 40
2.49766666604225
 41
0.0
 46
0.0
 71
     7
 72
     1
  1
\fArial|b1|i0|c0|p34;\W1;160
 11
6.123233995736766E-17
 21
1.0
 31
0.0
 73
     1
 44
1.0
  0
ENDSEC
  0
SECTION
  2
OBJECTS
  0
DICTIONARY
  5
C
330
0
100
AcDbDictionary
281
     1
  3
ACAD_GROUP
350
D
  3
ACAD_LAYOUT
350
1A
  3
ACAD_MATERIAL
350
3B
  3
ACAD_MLEADERSTYLE
350
70A
  3
ACAD_MLINESTYLE
350
17
  3
ACAD_PLOTSETTINGS
350
19
  3
ACAD_PLOTSTYLENAME
350
E
  3
ACAD_TABLESTYLE
350
709
  3
ACAD_VISUALSTYLE
350
2A
  0
SUN
  5
3F
330
29
100
AcDbSun
 90
        1
290
     0
 63
     7
421
 16777215
 40
1.0
291
     1
 91
  2455826
 92
 54000000
292
     0
 70
     2
 71
   256
280
     1
  0
DICTIONARY
  5
D
102
{ACAD_REACTORS
330
C
102
}
330
C
100
AcDbDictionary
281
     1
  0
DICTIONARY
  5
1A
102
{ACAD_REACTORS
330
C
102
}
330
C
100
AcDbDictionary
281
     1
  3
Layout1
350
1E
  3
Layout2
350
26
  3
Model
350
22
  0
DICTIONARY
  5
3B
102
{ACAD_REACTORS
330
C
102
}
330
C
100
AcDbDictionary
281
     1
  3
ByBlock
350
3D
  3
ByLayer
350
3C
  3
Global
350
3E
  0
DICTIONARY
  5
70A
102
{ACAD_REACTORS
330
C
102
}
330
C
100
AcDbDictionary
281
     1
  0
DICTIONARY
  5
17
102
{ACAD_REACTORS
330
C
102
}
330
C
100
AcDbDictionary
281
     1
  3
Standard
350
18
  0
DICTIONARY
  5
19
102
{ACAD_REACTORS
330
C
102
}
330
C
100
AcDbDictionary
281
     1
  0
ACDBDICTIONARYWDFLT
  5
E
102
{ACAD_REACTORS
330
C
102
}
330
C
100
AcDbDictionary
281
     1
  3
Normal
350
F
100
AcDbDictionaryWithDefault
340
F
  0
DICTIONARY
  5
709
102
{ACAD_REACTORS
330
C
102
}
330
C
100
AcDbDictionary
281
     1
  0
DICTIONARY
  5
2A
102
{ACAD_REACTORS
330
C
102
}
330
C
100
AcDbDictionary
281
     1
  3
2dWireframe
350
2F
  3
3D Hidden
350
31
  3
3dWireframe
350
30
  3
Basic
350
32
  3
Brighten
350
36
  3
ColorChange
350
3A
  3
Conceptual
350
34
  3
Dim
350
35
  3
Facepattern
350
39
  3
Flat
350
2B
  3
FlatWithEdges
350
2C
  3
Gouraud
350
2D
  3
GouraudWithEdges
350
2E
  3
Linepattern
350
38
  3
Realistic
350
33
  3
Thicken
350
37
  0
LAYOUT
  5
1E
102
{ACAD_REACTORS
330
1A
102
}
330
1A
100
AcDbPlotSettings
  1

  2
none_device
  4

  6

 40
0.0
 41
0.0
 42
0.0
 43
0.0
 44
0.0
 45
0.0
 46
0.0
 47
0.0
 48
0.0
 49
0.0
140
0.0
141
0.0
142
1.0
143
1.0
 70
   688
 72
     0
 73
     0
 74
     5
  7

 75
    16
 76
     0
 77
     2
 78
   300
147
1.0
148
0.0
149
0.0
100
AcDbLayout
  1
Layout1
 70
     1
 71
     1
 10
0.0
 20
0.0
 11
12.0
 21
9.0
 12
0.0
 22
0.0
 32
0.0
 14
1.000000000000000E+20
 24
1.000000000000000E+20
 34
1.000000000000000E+20
 15
-1.000000000000000E+20
 25
-1.000000000000000E+20
 35
-1.000000000000000E+20
146
0.0
 13
0.0
 23
0.0
 33
0.0
 16
1.0
 26
0.0
 36
0.0
 17
0.0
 27
1.0
 37
0.0
 76
     0
330
1B
  0
LAYOUT
  5
26
102
{ACAD_REACTORS
330
1A
102
}
330
1A
100
AcDbPlotSettings
  1

  2
none_device
  4

  6

 40
0.0
 41
0.0
 42
0.0
 43
0.0
 44
0.0
 45
0.0
 46
0.0
 47
0.0
 48
0.0
 49
0.0
140
0.0
141
0.0
142
1.0
143
1.0
 70
   688
 72
     0
 73
     0
 74
     5
  7

 75
    16
 76
     0
 77
     2
 78
   300
147
1.0
148
0.0
149
0.0
100
AcDbLayout
  1
Layout2
 70
     1
 71
     2
 10
0.0
 20
0.0
 11
0.0
 21
0.0
 12
0.0
 22
0.0
 32
0.0
 14
0.0
 24
0.0
 34
0.0
 15
0.0
 25
0.0
 35
0.0
146
0.0
 13
0.0
 23
0.0
 33
0.0
 16
1.0
 26
0.0
 36
0.0
 17
0.0
 27
1.0
 37
0.0
 76
     0
330
23
  0
LAYOUT
  5
22
102
{ACAD_REACTORS
330
1A
102
}
330
1A
100
AcDbPlotSettings
  1

  2
none_device
  4

  6

 40
0.0
 41
0.0
 42
0.0
 43
0.0
 44
0.0
 45
0.0
 46
0.0
 47
0.0
 48
0.0
 49
0.0
140
0.0
141
0.0
142
1.0
143
1.0
 70
  1712
 72
     0
 73
     0
 74
     0
  7

 75
     0
 76
     0
 77
     2
 78
   300
147
1.0
148
0.0
149
0.0
100
AcDbLayout
  1
Model
 70
     1
 71
     0
 10
0.0
 20
0.0
 11
12.0
 21
9.0
 12
0.0
 22
0.0
 32
0.0
 14
1.000000000000000E+20
 24
1.000000000000000E+20
 34
1.000000000000000E+20
 15
-1.000000000000000E+20
 25
-1.000000000000000E+20
 35
-1.000000000000000E+20
146
0.0
 13
0.0
 23
0.0
 33
0.0
 16
1.0
 26
0.0
 36
0.0
 17
0.0
 27
1.0
 37
0.0
 76
     0
330
1F
331
29
  0
MATERIAL
  5
3D
102
{ACAD_REACTORS
330
3B
102
}
330
3B
100
AcDbMaterial
  1
ByBlock
 72
     1
 94
      127
  0
MATERIAL
  5
3C
102
{ACAD_REACTORS
330
3B
102
}
330
3B
100
AcDbMaterial
  1
ByLayer
 72
     1
 94
      127
  0
MATERIAL
  5
3E
102
{ACAD_REACTORS
330
3B
102
}
330
3B
100
AcDbMaterial
  1
Global
 72
     1
 94
      127
  0
MLINESTYLE
  5
18
102
{ACAD_REACTORS
330
17
102
}
330
17
100
AcDbMlineStyle
  2
Standard
 70
     0
  3

 62
   256
 51
90.0
 52
90.0
 71
     2
 49
0.5
 62
   256
  6
BYLAYER
 49
-0.5
 62
   256
  6
BYLAYER
  0
ACDBPLACEHOLDER
  5
F
102
{ACAD_REACTORS
330
E
102
}
330
E
  0
VISUALSTYLE
  5
2F
102
{ACAD_REACTORS
330
2A
102
}
330
2A
100
AcDbVisualStyle
  2
2dWireframe
 70
     4
177
     2
291
     0
 71
     0
176
     1
 72
     2
176
     1
 73
     0
176
     1
 90
        0
176
     1
 40
-0.6
176
     1
 41
-30.0
176
     1
 62
     5
 63
     7
421
 16777215
176
     1
 74
     1
176
     1
 91
        4
176
     1
 64
     7
176
     1
 65
   257
176
     1
 75
     1
176
     1
175
     1
176
     1
 42
1.0
176
     1
 92
        0
176
     1
 66
   257
176
     1
 43
1.0
176
     1
 76
     1
176
     1
 77
     6
176
     1
 78
     2
176
     1
 67
     7
176
     1
 79
     5
176
     1
170
     0
176
     1
171
     0
176
     1
290
     0
176
     1
 93
        1
176
     1
 44
0.0
176
     1
173
     0
176
     1
  0
VISUALSTYLE
  5
31
102
{ACAD_REACTORS
330
2A
102
}
330
2A
100
AcDbVisualStyle
  2
3D Hidden
 70
     6
177
     2
291
     0
 71
     1
176
     1
 72
     2
176
     1
 73
     2
176
     1
 90
        0
176
     1
 40
-0.6
176
     1
 41
-30.0
176
     1
 62
     5
 63
     7
421
 16777215
176
     1
 74
     2
176
     1
 91
        2
176
     1
 64
     7
176
     1
 65
   257
176
     1
 75
     2
176
     1
175
     1
176
     1
 42
40.0
176
     1
 92
        0
176
     1
 66
   257
176
     1
 43
1.0
176
     1
 76
     1
176
     1
 77
     6
176
     1
 78
     2
176
     1
 67
     7
176
     1
 79
     3
176
     1
170
     0
176
     1
171
     0
176
     1
290
     0
176
     1
 93
        1
176
     1
 44
0.0
176
     1
173
     0
176
     1
  0
VISUALSTYLE
  5
30
102
{ACAD_REACTORS
330
2A
102
}
330
2A
100
AcDbVisualStyle
  2
3dWireframe
 70
     5
177
     2
291
     0
 71
     0
176
     1
 72
     2
176
     1
 73
     0
176
     1
 90
        0
176
     1
 40
-0.6
176
     1
 41
-30.0
176
     1
 62
     5
 63
     7
421
 16777215
176
     1
 74
     1
176
     1
 91
        4
176
     1
 64
     7
176
     1
 65
   257
176
     1
 75
     1
176
     1
175
     1
176
     1
 42
1.0
176
     1
 92
        0
176
     1
 66
   257
176
     1
 43
1.0
176
     1
 76
     1
176
     1
 77
     6
176
     1
 78
     2
176
     1
 67
     7
176
     1
 79
     5
176
     1
170
     0
176
     1
171
     0
176
     1
290
     0
176
     1
 93
        1
176
     1
 44
0.0
176
     1
173
     0
176
     1
  0
VISUALSTYLE
  5
32
102
{ACAD_REACTORS
330
2A
102
}
330
2A
100
AcDbVisualStyle
  2
Basic
 70
     7
177
     2
291
     1
 71
     1
176
     1
 72
     0
176
     1
 73
     1
176
     1
 90
        0
176
     1
 40
-0.6
176
     1
 41
-30.0
176
     1
 62
     5
 63
     7
421
 16777215
176
     1
 74
     0
176
     1
 91
        4
176
     1
 64
     7
176
     1
 65
   257
176
     1
 75
     1
176
     1
175
     1
176
     1
 42
1.0
176
     1
 92
        8
176
     1
 66
     7
176
     1
 43
1.0
176
     1
 76
     1
176
     1
 77
     6
176
     1
 78
     2
176
     1
 67
     7
176
     1
 79
     5
176
     1
170
     0
176
     1
171
     0
176
     1
290
     0
176
     1
 93
        1
176
     1
 44
0.0
176
     1
173
     0
176
     1
  0
VISUALSTYLE
  5
36
102
{ACAD_REACTORS
330
2A
102
}
330
2A
100
AcDbVisualStyle
  2
Brighten
 70
    12
177
     2
291
     1
 71
     2
176
     1
 72
     2
176
     1
 73
     0
176
     1
 90
        0
176
     1
 40
-0.6
176
     1
 41
-30.0
176
     1
 62
     5
 63
     7
421
 16777215
176
     1
 74
     1
176
     1
 91
        4
176
     1
 64
     7
176
     1
 65
   257
176
     1
 75
     1
176
     1
175
     1
176
     1
 42
1.0
176
     1
 92
        8
176
     1
 66
     7
176
     1
 43
1.0
176
     1
 76
     1
176
     1
 77
     6
176
     1
 78
     2
176
     1
 67
     7
176
     1
 79
     5
176
     1
170
     0
176
     1
171
     0
176
     1
290
     0
176
     1
 93
        1
176
     1
 44
50.0
176
     1
173
     0
176
     1
  0
VISUALSTYLE
  5
3A
102
{ACAD_REACTORS
330
2A
102
}
330
2A
100
AcDbVisualStyle
  2
ColorChange
 70
    16
177
     2
291
     1
 71
     2
176
     1
 72
     2
176
     1
 73
     3
176
     1
 90
        0
176
     1
 40
-0.6
176
     1
 41
-30.0
176
     1
 62
     5
 63
     8
421
  8421504
176
     1
 74
     1
176
     1
 91
        4
176
     1
 64
     7
176
     1
 65
   257
176
     1
 75
     1
176
     1
175
     1
176
     1
 42
1.0
176
     1
 92
        8
176
     1
 66
     8
424
  8421504
176
     1
 43
1.0
176
     1
 76
     1
176
     1
 77
     6
176
     1
 78
     2
176
     1
 67
     7
176
     1
 79
     5
176
     1
170
     0
176
     1
171
     0
176
     1
290
     0
176
     1
 93
        1
176
     1
 44
0.0
176
     1
173
     0
176
     1
  0
VISUALSTYLE
  5
34
102
{ACAD_REACTORS
330
2A
102
}
330
2A
100
AcDbVisualStyle
  2
Conceptual
 70
     9
177
     2
291
     0
 71
     3
176
     1
 72
     2
176
     1
 73
     0
176
     1
 90
        0
176
     1
 40
-0.6
176
     1
 41
-30.0
176
     1
 62
     5
 63
     7
421
 16777215
176
     1
 74
     2
176
     1
 91
        2
176
     1
 64
     7
176
     1
 65
   257
176
     1
 75
     1
176
     1
175
     1
176
     1
 42
40.0
176
     1
 92
        8
176
     1
 66
     7
176
     1
 43
1.0
176
     1
 76
     1
176
     1
 77
     6
176
     1
 78
     2
176
     1
 67
     7
176
     1
 79
     3
176
     1
170
     0
176
     1
171
     0
176
     1
290
     0
176
     1
 93
        1
176
     1
 44
0.0
176
     1
173
     0
176
     1
  0
VISUALSTYLE
  5
35
102
{ACAD_REACTORS
330
2A
102
}
330
2A
100
AcDbVisualStyle
  2
Dim
 70
    11
177
     2
291
     1
 71
     2
176
     1
 72
     2
176
     1
 73
     0
176
     1
 90
        0
176
     1
 40
-0.6
176
     1
 41
-30.0
176
     1
 62
     5
 63
     7
421
 16777215
176
     1
 74
     1
176
     1
 91
        4
176
     1
 64
     7
176
     1
 65
   257
176
     1
 75
     1
176
     1
175
     1
176
     1
 42
1.0
176
     1
 92
        8
176
     1
 66
     7
176
     1
 43
1.0
176
     1
 76
     1
176
     1
 77
     6
176
     1
 78
     2
176
     1
 67
     7
176
     1
 79
     5
176
     1
170
     0
176
     1
171
     0
176
     1
290
     0
176
     1
 93
        1
176
     1
 44
-50.0
176
     1
173
     0
176
     1
  0
VISUALSTYLE
  5
39
102
{ACAD_REACTORS
330
2A
102
}
330
2A
100
AcDbVisualStyle
  2
Facepattern
 70
    15
177
     2
291
     1
 71
     2
176
     1
 72
     2
176
     1
 73
     0
176
     1
 90
        0
176
     1
 40
-0.6
176
     1
 41
-30.0
176
     1
 62
     5
 63
     7
421
 16777215
176
     1
 74
     1
176
     1
 91
        4
176
     1
 64
     7
176
     1
 65
   257
176
     1
 75
     1
176
     1
175
     1
176
     1
 42
1.0
176
     1
 92
        8
176
     1
 66
     7
176
     1
 43
1.0
176
     1
 76
     1
176
     1
 77
     6
176
     1
 78
     2
176
     1
 67
     7
176
     1
 79
     5
176
     1
170
     0
176
     1
171
     0
176
     1
290
     0
176
     1
 93
        1
176
     1
 44
0.0
176
     1
173
     0
176
     1
  0
VISUALSTYLE
  5
2B
102
{ACAD_REACTORS
330
2A
102
}
330
2A
100
AcDbVisualStyle
  2
Flat
 70
     0
177
     2
291
     1
 71
     2
176
     1
 72
     1
176
     1
 73
     1
176
     1
 90
        2
176
     1
 40
-0.6
176
     1
 41
30.0
176
     1
 62
     5
 63
     7
421
 16777215
176
     1
 74
     0
176
     1
 91
        4
176
     1
 64
     7
176
     1
 65
   257
176
     1
 75
     1
176
     1
175
     1
176
     1
 42
1.0
176
     1
 92
        8
176
     1
 66
     7
176
     1
 43
1.0
176
     1
 76
     1
176
     1
 77
     6
176
     1
 78
     2
176
     1
 67
     7
176
     1
 79
     5
176
     1
170
     0
176
     1
171
     0
176
     1
290
     0
176
     1
 93
       13
176
     1
 44
0.0
176
     1
173
     0
176
     1
  0
VISUALSTYLE
  5
2C
102
{ACAD_REACTORS
330
2A
102
}
330
2A
100
AcDbVisualStyle
  2
FlatWithEdges
 70
     1
177
     2
291
     1
 71
     2
176
     1
 72
     1
176
     1
 73
     1
176
     1
 90
        2
176
     1
 40
-0.6
176
     1
 41
30.0
176
     1
 62
     5
 63
     7
421
 16777215
176
     1
 74
     1
176
     1
 91
        4
176
     1
 64
     7
176
     1
 65
   257
176
     1
 75
     1
176
     1
175
     1
176
     1
 42
1.0
176
     1
 92
        0
176
     1
 66
   257
176
     1
 43
1.0
176
     1
 76
     1
176
     1
 77
     6
176
     1
 78
     2
176
     1
 67
     7
176
     1
 79
     5
176
     1
170
     0
176
     1
171
     0
176
     1
290
     0
176
     1
 93
       13
176
     1
 44
0.0
176
     1
173
     0
176
     1
  0
VISUALSTYLE
  5
2D
102
{ACAD_REACTORS
330
2A
102
}
330
2A
100
AcDbVisualStyle
  2
Gouraud
 70
     2
177
     2
291
     1
 71
     2
176
     1
 72
     2
176
     1
 73
     1
176
     1
 90
        2
176
     1
 40
-0.6
176
     1
 41
30.0
176
     1
 62
     5
 63
     7
421
 16777215
176
     1
 74
     0
176
     1
 91
        4
176
     1
 64
     7
176
     1
 65
   257
176
     1
 75
     1
176
     1
175
     1
176
     1
 42
1.0
176
     1
 92
        0
176
     1
 66
     7
176
     1
 43
1.0
176
     1
 76
     1
176
     1
 77
     6
176
     1
 78
     2
176
     1
 67
     7
176
     1
 79
     5
176
     1
170
     0
176
     1
171
     0
176
     1
290
     0
176
     1
 93
       13
176
     1
 44
0.0
176
     1
173
     0
176
     1
  0
VISUALSTYLE
  5
2E
102
{ACAD_REACTORS
330
2A
102
}
330
2A
100
AcDbVisualStyle
  2
GouraudWithEdges
 70
     3
177
     2
291
     1
 71
     2
176
     1
 72
     2
176
     1
 73
     1
176
     1
 90
        2
176
     1
 40
-0.6
176
     1
 41
30.0
176
     1
 62
     5
 63
     7
421
 16777215
176
     1
 74
     1
176
     1
 91
        4
176
     1
 64
     7
176
     1
 65
   257
176
     1
 75
     1
176
     1
175
     1
176
     1
 42
1.0
176
     1
 92
        0
176
     1
 66
   257
176
     1
 43
1.0
176
     1
 76
     1
176
     1
 77
     6
176
     1
 78
     2
176
     1
 67
     7
176
     1
 79
     5
176
     1
170
     0
176
     1
171
     0
176
     1
290
     0
176
     1
 93
       13
176
     1
 44
0.0
176
     1
173
     0
176
     1
  0
VISUALSTYLE
  5
38
102
{ACAD_REACTORS
330
2A
102
}
330
2A
100
AcDbVisualStyle
  2
Linepattern
 70
    14
177
     2
291
     1
 71
     2
176
     1
 72
     2
176
     1
 73
     0
176
     1
 90
        0
176
     1
 40
-0.6
176
     1
 41
-30.0
176
     1
 62
     5
 63
     7
421
 16777215
176
     1
 74
     1
176
     1
 91
        4
176
     1
 64
     7
176
     1
 65
   257
176
     1
 75
     7
176
     1
175
     7
176
     1
 42
1.0
176
     1
 92
        8
176
     1
 66
     7
176
     1
 43
1.0
176
     1
 76
     1
176
     1
 77
     6
176
     1
 78
     2
176
     1
 67
     7
176
     1
 79
     5
176
     1
170
     0
176
     1
171
     0
176
     1
290
     0
176
     1
 93
        1
176
     1
 44
0.0
176
     1
173
     0
176
     1
  0
VISUALSTYLE
  5
33
102
{ACAD_REACTORS
330
2A
102
}
330
2A
100
AcDbVisualStyle
  2
Realistic
 70
     8
177
     2
291
     0
 71
     2
176
     1
 72
     2
176
     1
 73
     0
176
     1
 90
        0
176
     1
 40
-0.6
176
     1
 41
-30.0
176
     1
 62
     5
 63
     7
421
 16777215
176
     1
 74
     1
176
     1
 91
        0
176
     1
 64
     7
176
     1
 65
   257
176
     1
 75
     1
176
     1
175
     1
176
     1
 42
1.0
176
     1
 92
        8
176
     1
 66
     8
424
  7895160
176
     1
 43
1.0
176
     1
 76
     1
176
     1
 77
     6
176
     1
 78
     2
176
     1
 67
     7
176
     1
 79
     5
176
     1
170
     0
176
     1
171
     0
176
     1
290
     0
176
     1
 93
       13
176
     1
 44
0.0
176
     1
173
     0
176
     1
  0
VISUALSTYLE
  5
37
102
{ACAD_REACTORS
330
2A
102
}
330
2A
100
AcDbVisualStyle
  2
Thicken
 70
    13
177
     2
291
     1
 71
     2
176
     1
 72
     2
176
     1
 73
     0
176
     1
 90
        0
176
     1
 40
-0.6
176
     1
 41
-30.0
176
     1
 62
     5
 63
     7
421
 16777215
176
     1
 74
     1
176
     1
 91
        4
176
     1
 64
     7
176
     1
 65
   257
176
     1
 75
     1
176
     1
175
     1
176
     1
 42
1.0
176
     1
 92
       12
176
     1
 66
     7
176
     1
 43
1.0
176
     1
 76
     1
176
     1
 77
     6
176
     1
 78
     2
176
     1
 67
     7
176
     1
 79
     5
176
     1
170
     0
176
     1
171
     0
176
     1
290
     0
176
     1
 93
        1
176
     1
 44
0.0
176
     1
173
     0
176
     1
  0
ENDSEC
  0
EOF
