  0
SECTION
  2
HEADER
  9
$ACADVER
  1
AC1018
  9
$ACADMAINTVER
 70
     0
  9
$DWGCODEPAGE
  3
ANSI_1252
  9
$INSBASE
 10
0.0
 20
0.0
 30
0.0
  9
$EXTMIN
 10
48.67537669777965
 20
65.10126858820093
 30
0.0
  9
$EXTMAX
 10
940.5859751116224
 20
633.0480538459444
 30
0.0
  9
$LIMMIN
 10
0.0
 20
0.0
  9
$LIMMAX
 10
12.0
 20
9.0
  9
$ORTHOMODE
 70
     0
  9
$REGENMODE
 70
     1
  9
$FILLMODE
 70
     1
  9
$QTEXTMODE
 70
     0
  9
$MIRRTEXT
 70
     0
  9
$LTSCALE
 40
1.0
  9
$ATTMODE
 70
     1
  9
$TEXTSIZE
 40
0.2
  9
$TRACEWID
 40
0.05
  9
$TEXTSTYLE
  7
Standard
  9
$CLAYER
  8
0
  9
$CELTYPE
  6
ByLayer
  9
$CECOLOR
 62
   256
  9
$CELTSCALE
 40
1.0
  9
$DISPSILH
 70
     0
  9
$DIMSCALE
 40
1.0
  9
$DIMASZ
 40
0.18
  9
$DIMEXO
 40
0.0625
  9
$DIMDLI
 40
0.38
  9
$DIMRND
 40
0.0
  9
$DIMDLE
 40
0.0
  9
$DIMEXE
 40
0.18
  9
$DIMTP
 40
0.0
  9
$DIMTM
 40
0.0
  9
$DIMTXT
 40
0.18
  9
$DIMCEN
 40
0.09
  9
$DIMTSZ
 40
0.0
  9
$DIMTOL
 70
     0
  9
$DIMLIM
 70
     0
  9
$DIMTIH
 70
     1
  9
$DIMTOH
 70
     1
  9
$DIMSE1
 70
     0
  9
$DIMSE2
 70
     0
  9
$DIMTAD
 70
     0
  9
$DIMZIN
 70
     0
  9
$DIMBLK
  1

  9
$DIMASO
 70
     1
  9
$DIMSHO
 70
     1
  9
$DIMPOST
  1

  9
$DIMAPOST
  1

  9
$DIMALT
 70
     0
  9
$DIMALTD
 70
     2
  9
$DIMALTF
 40
25.4
  9
$DIMLFAC
 40
1.0
  9
$DIMTOFL
 70
     0
  9
$DIMTVP
 40
0.0
  9
$DIMTIX
 70
     0
  9
$DIMSOXD
 70
     0
  9
$DIMSAH
 70
     0
  9
$DIMBLK1
  1

  9
$DIMBLK2
  1

  9
$DIMSTYLE
  2
Standard
  9
$DIMCLRD
 70
     0
  9
$DIMCLRE
 70
     0
  9
$DIMCLRT
 70
     0
  9
$DIMTFAC
 40
1.0
  9
$DIMGAP
 40
0.09
  9
$DIMJUST
 70
     0
  9
$DIMSD1
 70
     0
  9
$DIMSD2
 70
     0
  9
$DIMTOLJ
 70
     1
  9
$DIMTZIN
 70
     0
  9
$DIMALTZ
 70
     0
  9
$DIMALTTZ
 70
     0
  9
$DIMUPT
 70
     0
  9
$DIMDEC
 70
     4
  9
$DIMTDEC
 70
     4
  9
$DIMALTU
 70
     2
  9
$DIMALTTD
 70
     2
  9
$DIMTXSTY
  7
Standard
  9
$DIMAUNIT
 70
     0
  9
$DIMADEC
 70
     0
  9
$DIMALTRND
 40
0.0
  9
$DIMAZIN
 70
     0
  9
$DIMDSEP
 70
    46
  9
$DIMATFIT
 70
     3
  9
$DIMFRAC
 70
     0
  9
$DIMLDRBLK
  1

  9
$DIMLUNIT
 70
     2
  9
$DIMLWD
 70
    -2
  9
$DIMLWE
 70
    -2
  9
$DIMTMOVE
 70
     0
  9
$LUNITS
 70
     2
  9
$LUPREC
 70
     4
  9
$SKETCHINC
 40
0.1
  9
$FILLETRAD
 40
0.0
  9
$AUNITS
 70
     0
  9
$AUPREC
 70
     0
  9
$MENU
  1
.
  9
$ELEVATION
 40
0.0
  9
$PELEVATION
 40
0.0
  9
$THICKNESS
 40
0.0
  9
$LIMCHECK
 70
     0
  9
$CHAMFERA
 40
0.0
  9
$CHAMFERB
 40
0.0
  9
$CHAMFERC
 40
0.0
  9
$CHAMFERD
 40
0.0
  9
$SKPOLY
 70
     0
  9
$TDCREATE
 40
2454473.050479190
  9
$TDUCREATE
 40
2454473.008812523
  9
$TDUPDATE
 40
2454551.543493171
  9
$TDUUPDATE
 40
2454551.501826505
  9
$TDINDWG
 40
0.0035825463
  9
$TDUSRTIMER
 40
0.0035823611
  9
$USRTIMER
 70
     1
  9
$ANGBASE
 50
0.0
  9
$ANGDIR
 70
     0
  9
$PDMODE
 70
     0
  9
$PDSIZE
 40
0.0
  9
$PLINEWID
 40
0.0
  9
$SPLFRAME
 70
     0
  9
$SPLINETYPE
 70
     6
  9
$SPLINESEGS
 70
     8
  9
$HANDSEED
  5
355
  9
$SURFTAB1
 70
     6
  9
$SURFTAB2
 70
     6
  9
$SURFTYPE
 70
     6
  9
$SURFU
 70
     6
  9
$SURFV
 70
     6
  9
$UCSBASE
  2

  9
$UCSNAME
  2

  9
$UCSORG
 10
0.0
 20
0.0
 30
0.0
  9
$UCSXDIR
 10
1.0
 20
0.0
 30
0.0
  9
$UCSYDIR
 10
0.0
 20
1.0
 30
0.0
  9
$UCSORTHOREF
  2

  9
$UCSORTHOVIEW
 70
     0
  9
$UCSORGTOP
 10
0.0
 20
0.0
 30
0.0
  9
$UCSORGBOTTOM
 10
0.0
 20
0.0
 30
0.0
  9
$UCSORGLEFT
 10
0.0
 20
0.0
 30
0.0
  9
$UCSORGRIGHT
 10
0.0
 20
0.0
 30
0.0
  9
$UCSORGFRONT
 10
0.0
 20
0.0
 30
0.0
  9
$UCSORGBACK
 10
0.0
 20
0.0
 30
0.0
  9
$PUCSBASE
  2

  9
$PUCSNAME
  2

  9
$PUCSORG
 10
0.0
 20
0.0
 30
0.0
  9
$PUCSXDIR
 10
1.0
 20
0.0
 30
0.0
  9
$PUCSYDIR
 10
0.0
 20
1.0
 30
0.0
  9
$PUCSORTHOREF
  2

  9
$PUCSORTHOVIEW
 70
     0
  9
$PUCSORGTOP
 10
0.0
 20
0.0
 30
0.0
  9
$PUCSORGBOTTOM
 10
0.0
 20
0.0
 30
0.0
  9
$PUCSORGLEFT
 10
0.0
 20
0.0
 30
0.0
  9
$PUCSORGRIGHT
 10
0.0
 20
0.0
 30
0.0
  9
$PUCSORGFRONT
 10
0.0
 20
0.0
 30
0.0
  9
$PUCSORGBACK
 10
0.0
 20
0.0
 30
0.0
  9
$USERI1
 70
     0
  9
$USERI2
 70
     0
  9
$USERI3
 70
     0
  9
$USERI4
 70
     0
  9
$USERI5
 70
     0
  9
$USERR1
 40
0.0
  9
$USERR2
 40
0.0
  9
$USERR3
 40
0.0
  9
$USERR4
 40
0.0
  9
$USERR5
 40
0.0
  9
$WORLDVIEW
 70
     1
  9
$SHADEDGE
 70
     3
  9
$SHADEDIF
 70
    70
  9
$TILEMODE
 70
     1
  9
$MAXACTVP
 70
    64
  9
$PINSBASE
 10
0.0
 20
0.0
 30
0.0
  9
$PLIMCHECK
 70
     0
  9
$PEXTMIN
 10
0.0
 20
0.0
 30
0.0
  9
$PEXTMAX
 10
0.0
 20
0.0
 30
0.0
  9
$PLIMMIN
 10
0.0
 20
0.0
  9
$PLIMMAX
 10
12.0
 20
9.0
  9
$UNITMODE
 70
     0
  9
$VISRETAIN
 70
     1
  9
$PLINEGEN
 70
     0
  9
$PSLTSCALE
 70
     1
  9
$TREEDEPTH
 70
  3020
  9
$CMLSTYLE
  2
Standard
  9
$CMLJUST
 70
     0
  9
$CMLSCALE
 40
1.0
  9
$PROXYGRAPHICS
 70
     1
  9
$MEASUREMENT
 70
     0
  9
$CELWEIGHT
370
    -1
  9
$ENDCAPS
280
     0
  9
$JOINSTYLE
280
     0
  9
$LWDISPLAY
290
     0
  9
$INSUNITS
 70
     1
  9
$HYPERLINKBASE
  1

  9
$STYLESHEET
  1

  9
$XEDIT
290
     1
  9
$CEPSNTYPE
380
     0
  9
$PSTYLEMODE
290
     1
  9
$FINGERPRINTGUID
  2
{FDEAD576-A652-11D2-9A35-0060089B3A3F}
  9
$VERSIONGUID
  2
{9625DC31-25BB-47B4-B78A-A6B7FAF6825B}
  9
$EXTNAMES
290
     1
  9
$PSVPSCALE
 40
0.0
  9
$OLESTARTUP
290
     0
  9
$SORTENTS
280
   127
  9
$INDEXCTL
280
     0
  9
$HIDETEXT
280
     1
  9
$XCLIPFRAME
290
     0
  9
$HALOGAP
280
     0
  9
$OBSCOLOR
 70
   257
  9
$OBSLTYPE
280
     0
  9
$INTERSECTIONDISPLAY
280
     0
  9
$INTERSECTIONCOLOR
 70
   257
  9
$DIMASSOC
280
     2
  9
$PROJECTNAME
  1

  0
ENDSEC
  0
SECTION
  2
CLASSES
  0
CLASS
  1
ACDBDICTIONARYWDFLT
  2
AcDbDictionaryWithDefault
  3
ObjectDBX Classes
 90
        0
 91
        1
280
     0
281
     0
  0
CLASS
  1
DICTIONARYVAR
  2
AcDbDictionaryVar
  3
ObjectDBX Classes
 90
        0
 91
        2
280
     0
281
     0
  0
CLASS
  1
SORTENTSTABLE
  2
AcDbSortentsTable
  3
ObjectDBX Classes
 90
        0
 91
        0
280
     0
281
     0
  0
ENDSEC
  0
SECTION
  2
TABLES
  0
TABLE
  2
VPORT
  5
8
330
0
100
AcDbSymbolTable
 70
     3
  0
VPORT
  5
354
330
8
100
AcDbSymbolTableRecord
100
AcDbViewportTableRecord
  2
*Active
 70
     0
 10
0.0
 20
0.0
 11
1.0
 21
1.0
 12
351.6914729685364
 22
369.9422931380594
 13
0.0
 23
0.0
 14
0.5
 24
0.5
 15
0.5
 25
0.5
 16
0.0
 26
0.0
 36
1.0
 17
0.0
 27
0.0
 37
0.0
 40
998.2299422803556
 41
1.642184557438794
 42
50.0
 43
0.0
 44
0.0
 50
0.0
 51
0.0
 71
     0
 72
  1000
 73
     1
 74
     3
 75
     0
 76
     0
 77
     0
 78
     0
281
     0
 65
     1
110
0.0
120
0.0
130
0.0
111
1.0
121
0.0
131
0.0
112
0.0
122
1.0
132
0.0
 79
     0
146
0.0
  0
ENDTAB
  0
TABLE
  2
LTYPE
  5
5
330
0
100
AcDbSymbolTable
 70
     1
  0
LTYPE
  5
14
330
5
100
AcDbSymbolTableRecord
100
AcDbLinetypeTableRecord
  2
ByBlock
 70
     0
  3

 72
    65
 73
     0
 40
0.0
  0
LTYPE
  5
15
330
5
100
AcDbSymbolTableRecord
100
AcDbLinetypeTableRecord
  2
ByLayer
 70
     0
  3

 72
    65
 73
     0
 40
0.0
  0
LTYPE
  5
16
330
5
100
AcDbSymbolTableRecord
100
AcDbLinetypeTableRecord
  2
Continuous
 70
     0
  3
Solid line
 72
    65
 73
     0
 40
0.0
  0
ENDTAB
  0
TABLE
  2
LAYER
  5
2
102
{ACAD_XDICTIONARY
360
96
102
}
330
0
100
AcDbSymbolTable
 70
     1
  0
LAYER
  5
10
330
2
100
AcDbSymbolTableRecord
100
AcDbLayerTableRecord
  2
0
 70
     0
 62
     7
  6
Continuous
370
    -3
390
F
  0
ENDTAB
  0
TABLE
  2
STYLE
  5
3
330
0
100
AcDbSymbolTable
 70
     6
  0
STYLE
  5
11
330
3
100
AcDbSymbolTableRecord
100
AcDbTextStyleTableRecord
  2
Standard
 70
     0
 40
0.0
 41
1.0
 50
0.0
 71
     0
 42
0.2
  3
txt
  4

  0
STYLE
  5
93
330
3
100
AcDbSymbolTableRecord
100
AcDbTextStyleTableRecord
  2
ROMANS
 70
     0
 40
0.0
 41
1.0
 50
0.0
 71
     0
 42
25.0
  3
romans
  4

  0
STYLE
  5
94
330
3
100
AcDbSymbolTableRecord
100
AcDbTextStyleTableRecord
  2
SANSSERIFBOLD
 70
     0
 40
0.0
 41
1.0
 50
0.0
 71
     0
 42
87.71704489347758
  3
ARIALBD.TTF
  4

1001
ACAD
1000
Arial
1071
 33554466
  0
STYLE
  5
106
330
3
100
AcDbSymbolTableRecord
100
AcDbTextStyleTableRecord
  2
NOMBRE
 70
     0
 40
0.0
 41
1.0
 50
0.0
 71
     0
 42
2.0
  3
stylu.ttf
  4

1001
ACAD
1000
Stylus BT
1071
       34
  0
STYLE
  5
107
330
3
100
AcDbSymbolTableRecord
100
AcDbTextStyleTableRecord
  2
ISO
 70
     0
 40
0.0
 41
1.0
 50
0.0
 71
     0
 42
4.0
  3
ISOCP.SHX
  4

  0
STYLE
  5
167
330
3
100
AcDbSymbolTableRecord
100
AcDbTextStyleTableRecord
  2
S
 70
     0
 40
0.0
 41
1.0
 50
0.0
 71
     0
 42
10.0
  3
TEL_____.PFB
  4

  0
ENDTAB
  0
TABLE
  2
VIEW
  5
6
330
0
100
AcDbSymbolTable
 70
     0
  0
ENDTAB
  0
TABLE
  2
UCS
  5
7
330
0
100
AcDbSymbolTable
 70
     0
  0
ENDTAB
  0
TABLE
  2
APPID
  5
9
330
0
100
AcDbSymbolTable
 70
     2
  0
APPID
  5
12
330
9
100
AcDbSymbolTableRecord
100
AcDbRegAppTableRecord
  2
ACAD
 70
     0
  0
APPID
  5
95
330
9
100
AcDbSymbolTableRecord
100
AcDbRegAppTableRecord
  2
ACAD_PSEXT
 70
     0
  0
ENDTAB
  0
TABLE
  2
DIMSTYLE
  5
A
330
0
100
AcDbSymbolTable
 70
     1
100
AcDbDimStyleTable
 71
     0
  0
DIMSTYLE
105
27
330
A
100
AcDbSymbolTableRecord
100
AcDbDimStyleTableRecord
  2
Standard
 70
     0
340
11
  0
ENDTAB
  0
TABLE
  2
BLOCK_RECORD
  5
1
330
0
100
AcDbSymbolTable
 70
     4
  0
BLOCK_RECORD
  5
1F
330
1
100
AcDbSymbolTableRecord
100
AcDbBlockTableRecord
  2
*Model_Space
340
22
  0
BLOCK_RECORD
  5
58
330
1
100
AcDbSymbolTableRecord
100
AcDbBlockTableRecord
  2
*Paper_Space
340
59
  0
BLOCK_RECORD
  5
5D
330
1
100
AcDbSymbolTableRecord
100
AcDbBlockTableRecord
  2
*Paper_Space0
340
5E
  0
BLOCK_RECORD
  5
D9
330
1
100
AcDbSymbolTableRecord
100
AcDbBlockTableRecord
  2
18130_L
340
0
310
2800000020000000200000000100080000000000000400000000000000000000000000000000000000000000000080000080000000808000800000008000800080800000C0C0C000C0DCC000F0CAA6000020400000206000002080000020A0000020C0000020E00000400000004020000040400000406000004080000040A0
310
000040C0000040E00000600000006020000060400000606000006080000060A0000060C0000060E00000800000008020000080400000806000008080000080A0000080C0000080E00000A0000000A0200000A0400000A0600000A0800000A0A00000A0C00000A0E00000C0000000C0200000C0400000C0600000C0800000C0
310
A00000C0C00000C0E00000E0000000E0200000E0400000E0600000E0800000E0A00000E0C00000E0E00040000000400020004000400040006000400080004000A0004000C0004000E00040200000402020004020400040206000402080004020A0004020C0004020E000404000004040200040404000404060004040800040
310
40A0004040C0004040E00040600000406020004060400040606000406080004060A0004060C0004060E00040800000408020004080400040806000408080004080A0004080C0004080E00040A0000040A0200040A0400040A0600040A0800040A0A00040A0C00040A0E00040C0000040C0200040C0400040C0600040C08000
310
40C0A00040C0C00040C0E00040E0000040E0200040E0400040E0600040E0800040E0A00040E0C00040E0E00080000000800020008000400080006000800080008000A0008000C0008000E00080200000802020008020400080206000802080008020A0008020C0008020E00080400000804020008040400080406000804080
310
008040A0008040C0008040E00080600000806020008060400080606000806080008060A0008060C0008060E00080800000808020008080400080806000808080008080A0008080C0008080E00080A0000080A0200080A0400080A0600080A0800080A0A00080A0C00080A0E00080C0000080C0200080C0400080C0600080C0
310
800080C0A00080C0C00080C0E00080E0000080E0200080E0400080E0600080E0800080E0A00080E0C00080E0E000C0000000C0002000C0004000C0006000C0008000C000A000C000C000C000E000C0200000C0202000C0204000C0206000C0208000C020A000C020C000C020E000C0400000C0402000C0404000C0406000C0
310
408000C040A000C040C000C040E000C0600000C0602000C0604000C0606000C0608000C060A000C060C000C060E000C0800000C0802000C0804000C0806000C0808000C080A000C080C000C080E000C0A00000C0A02000C0A04000C0A06000C0A08000C0A0A000C0A0C000C0A0E000C0C00000C0C02000C0C04000C0C06000
310
C0C08000C0C0A000F0FBFF00A4A0A000808080000000FF0000FF000000FFFF00FF000000FF00FF00FFFF0000FFFFFF0000000000000000000000000000000000000000000000000000000000000000000000000000000000000000000000000000000000000000000000000000000000000000000000000000000000000000
310
00000000000000000000000000000000000000000000000000000000000000000000000000000000000000000000000000000000000000000000000000000000000000000000000000000000000000000000FFFFFFFFFFFFFFFFFFFFFFFFFFFFFFFFFFFFFFFFFFFFFF000000000000000000FF0000000000FFFFFFFFFF0000
310
000000000000000000FF00000000000000000000FF0000000000000000FF0000000000000000000000FF00000000000000000000FFFFFFFFFF00000000FF0000000000000000000000FF0000000000000000000000FFFF000000000000FF0000000000000000000000FF000000000000000000000000FF000000000000FF00
310
000000000000000000FF00000000000000000000000000FF000000000000FF00000000000000000000FF00000000000000000000000000FF000000000000FF00000000000000000000FF0000000000000000000000000000FF0000000000FF00000000000000000000FF000000000000000000000000000000FF00000000FF
310
00FFFFFFFFFFFFFFFFFFFFFF000000000000000000000000000000FF000000FF00FF000000000000000000FF00000000000000000000000000000000FF0000FF000000000000000000000000FFFF0000000000000000000000000000FFFFFFFF0000000000000000000000000000FF00000000000000000000000000FF00FF
310
FF000000000000000000000000000000FF000000000000000000000000FF00FF00000000000000000000000000000000FF000000000000000000FFFFFFFFFFFF0000000000000000000000000000000000FF0000000000000000FF00FF00FF00FFFFFFFF0000000000000000000000000000FF00000000000000FFFFFFFFFF
310
FFFFFFFFFFFFFFFF0000000000000000000000FF00000000000000FF000000000000000000000000000000000000000000000000FF000000000000FFFFFFFFFFFFFFFFFFFFFFFFFFFFFFFFFFFFFFFFFFFFFFFFFFFF0000000000000000FFFFFFFFFFFFFFFFFFFFFFFFFFFFFFFFFFFFFFFFFFFFFF000000000000000000FFFF
310
FFFFFFFFFFFFFFFFFFFFFFFFFFFFFFFFFFFFFFFFFF00000000000000000000000000000000000000000000000000000000000000000000000000000000000000000000000000000000000000000000000000000000000000000000000000000000000000000000000000000000000000000000000000000000000000000000
310
0000000000000000000000000000000000000000000000000000000000000000000000000000000000000000000000000000000000000000
102
{BLKREFS
331
352
102
}
1001
ACAD
1000
DesignCenter Data
1002
{
1070
     1
1070
     4
1002
}
  0
BLOCK_RECORD
  5
100
330
1
100
AcDbSymbolTableRecord
100
AcDbBlockTableRecord
  2
_DOT
340
0
  0
ENDTAB
  0
ENDSEC
  0
SECTION
  2
BLOCKS
  0
BLOCK
  5
20
330
1F
100
AcDbEntity
  8
0
100
AcDbBlockBegin
  2
*Model_Space
 70
     0
 10
0.0
 20
0.0
 30
0.0
  3
*Model_Space
  1

  0
ENDBLK
  5
21
330
1F
100
AcDbEntity
  8
0
100
AcDbBlockEnd
  0
BLOCK
  5
5A
330
58
100
AcDbEntity
 67
     1
  8
0
100
AcDbBlockBegin
  2
*Paper_Space
 70
     0
 10
0.0
 20
0.0
 30
0.0
  3
*Paper_Space
  1

  0
ENDBLK
  5
5B
330
58
100
AcDbEntity
 67
     1
  8
0
100
AcDbBlockEnd
  0
BLOCK
  5
5F
330
5D
100
AcDbEntity
  8
0
100
AcDbBlockBegin
  2
*Paper_Space0
 70
     0
 10
0.0
 20
0.0
 30
0.0
  3
*Paper_Space0
  1

  0
ENDBLK
  5
60
330
5D
100
AcDbEntity
  8
0
100
AcDbBlockEnd
  0
BLOCK
  5
DA
330
D9
100
AcDbEntity
  8
0
100
AcDbBlockBegin
  2
18130_L
 70
     0
 10
0.0
 20
0.0
 30
0.0
  3
18130_L
  1

  0
ARC
  5
301
330
D9
100
AcDbEntity
  8
0
100
AcDbCircle
 10
186.232993054673
 20
35.00000000000023
 30
0.0
 40
5.0
100
AcDbArc
 50
270.0
 51
0.0
  0
LINE
  5
302
330
D9
100
AcDbEntity
  8
0
100
AcDbLine
 10
104.4294789172454
 20
30.00000000000023
 30
0.0
 11
186.232993054673
 21
30.00000000000023
 31
0.0
  0
LINE
  5
303
330
D9
100
AcDbEntity
  8
0
100
AcDbLine
 10
191.232993054673
 20
35.00000000000023
 30
0.0
 11
191.232993054673
 21
194.2398327229896
 31
0.0
  0
LINE
  5
304
330
D9
100
AcDbEntity
  8
0
100
AcDbLine
 10
120.9160025374658
 20
226.0774468059826
 30
0.0
 11
120.9160025374658
 21
303.0
 31
0.0
  0
LINE
  5
305
330
D9
100
AcDbEntity
  8
0
100
AcDbLine
 10
0.0
 20
0.0
 30
0.0
 11
410.9160025374658
 21
0.0
 31
0.0
  0
LINE
  5
306
330
D9
100
AcDbEntity
  8
0
100
AcDbLine
 10
410.9160025374658
 20
0.0
 30
0.0
 11
404.5263820923391
 21
171.6069490976952
 31
0.0
  0
LINE
  5
307
330
D9
100
AcDbEntity
  8
0
100
AcDbLine
 10
83.91600253746586
 20
380.0000000000001
 30
0.0
 11
536.7529168237852
 21
380.0000000000001
 31
0.0
  0
ARC
  5
308
330
D9
100
AcDbEntity
  8
0
100
AcDbCircle
 10
429.5090704165414
 20
172.5371555778547
 30
0.0
 40
25.0
100
AcDbArc
 50
117.4061287676973
 51
182.1323684365528
  0
ARC
  5
309
330
D9
100
AcDbEntity
  8
0
100
AcDbCircle
 10
536.7529168237852
 20
372.0000000000001
 30
0.0
 40
8.0
100
AcDbArc
 50
351.1244024997448
 51
90.0
  0
LINE
  5
30A
330
D9
100
AcDbEntity
  8
0
100
AcDbLine
 10
75.91600253746586
 20
300.0
 30
0.0
 11
75.91600253746586
 21
372.0000000000001
 31
0.0
  0
ARC
  5
30B
330
D9
100
AcDbEntity
  8
0
100
AcDbCircle
 10
83.91600253746586
 20
372.0000000000001
 30
0.0
 40
8.0
100
AcDbArc
 50
88.75345692163993
 51
180.0
  0
LINE
  5
30C
330
D9
100
AcDbEntity
  8
0
100
AcDbLine
 10
77.91600253746586
 20
298.0
 30
0.0
 11
107.8333387502717
 21
298.0
 31
0.0
  0
ARC
  5
30D
330
D9
100
AcDbEntity
  8
0
100
AcDbCircle
 10
77.91600253746586
 20
300.0
 30
0.0
 40
2.0
100
AcDbArc
 50
180.0
 51
270.0
  0
LINE
  5
30E
330
D9
100
AcDbEntity
  8
0
100
AcDbLine
 10
2.097713651146477
 20
60.07065942930058
 30
0.0
 11
0.0
 21
0.0
 31
0.0
  0
ARC
  5
30F
330
D9
100
AcDbEntity
  8
0
100
AcDbCircle
 10
20.08674853749111
 20
59.44246848865441
 30
0.0
 40
18.0
100
AcDbArc
 50
119.9999999999997
 51
177.9999999999963
  0
LINE
  5
310
330
D9
100
AcDbEntity
  8
0
100
AcDbLine
 10
11.0867485374911
 20
75.03092575677874
 30
0.0
 11
39.84964990448501
 21
91.63719460368884
 31
0.0
  0
ARC
  5
311
330
D9
100
AcDbEntity
  8
0
100
AcDbCircle
 10
107.8333387502717
 20
303.0
 30
0.0
 40
5.0
100
AcDbArc
 50
270.0
 51
329.9999999999645
  0
ARC
  5
312
330
D9
100
AcDbEntity
  8
0
100
AcDbCircle
 10
116.4935927881161
 20
298.0
 30
0.0
 40
5.0
100
AcDbArc
 50
90.0
 51
149.9999999999645
  0
ARC
  5
313
330
D9
100
AcDbEntity
  8
0
100
AcDbCircle
 10
37.34964990448501
 20
95.96732162260741
 30
0.0
 40
5.0
100
AcDbArc
 50
299.9999999999997
 51
355.1232286749059
  0
ARC
  5
314
330
D9
100
AcDbEntity
  8
0
100
AcDbCircle
 10
307.5309618641695
 20
407.7951863312918
 30
0.0
 40
240.0
100
AcDbArc
 50
297.4061287676973
 51
351.1244024997448
  0
ARC
  5
315
330
D9
100
AcDbEntity
  8
0
100
AcDbCircle
 10
526.1189432720491
 20
405.9999999999976
 30
0.0
 40
1.0
100
AcDbArc
 50
270.0
 51
0.0
1001
ACAD
1000
ASC_BOUNDS
1002
{
1070
    19
1002
}
  0
LINE
  5
316
330
D9
100
AcDbEntity
  8
0
100
AcDbLine
 10
441.8556857949654
 20
402.9999999999978
 30
0.0
 11
441.8556857949654
 21
400.6274606680603
 31
0.0
  0
LINE
  5
317
330
D9
100
AcDbEntity
  8
0
100
AcDbLine
 10
441.8556857949649
 20
402.9999999999978
 30
0.0
 11
441.984725046319
 21
404.9999999999977
 31
0.0
  0
LINE
  5
318
330
D9
100
AcDbEntity
  8
0
100
AcDbLine
 10
421.8556857949654
 20
402.9999999999978
 30
0.0
 11
421.7266465436114
 21
404.9999999999977
 31
0.0
  0
LINE
  5
319
330
D9
100
AcDbEntity
  8
0
100
AcDbLine
 10
421.8556857949654
 20
402.9999999999978
 30
0.0
 11
421.8556857949654
 21
400.6274606680603
 31
0.0
  0
ARC
  5
31A
330
D9
100
AcDbEntity
  8
0
100
AcDbCircle
 10
431.8556857949622
 20
479.9999999999974
 30
0.0
 40
80.0
100
AcDbArc
 50
262.8192442185417
 51
277.1807557814583
  0
LINE
  5
31B
330
D9
100
AcDbEntity
  8
0
100
AcDbLine
 10
421.8556857949649
 20
400.6274606680601
 30
0.0
 11
441.8556857949654
 21
400.6274606680601
 31
0.0
  0
ARC
  5
31C
330
D9
100
AcDbEntity
  8
0
100
AcDbCircle
 10
431.8556857949636
 20
479.9999999999383
 30
0.0
 40
79.99999999994082
100
AcDbArc
 50
262.8192442185417
 51
277.1807557814583
  0
ARC
  5
31D
330
D9
100
AcDbEntity
  8
0
100
AcDbCircle
 10
434.9466393000855
 20
65.11839259975812
 30
0.0
 40
359.8816074002396
100
AcDbArc
 50
76.28820863090424
 51
90.0
1001
ACAD
1000
ASC_BOUNDS
1002
{
1070
    19
1002
}
  0
ARC
  5
31E
330
D9
100
AcDbEntity
  8
0
100
AcDbCircle
 10
518.1189432720491
 20
405.9999999999976
 30
0.0
 40
9.0
100
AcDbArc
 50
0.0
 51
76.28820863090424
1001
ACAD
1000
ASC_BOUNDS
1002
{
1070
    19
1002
}
  0
LINE
  5
31F
330
D9
100
AcDbEntity
  8
0
100
AcDbLine
 10
491.3218243938707
 20
399.9999999999975
 30
0.0
 11
524.9966928112778
 21
399.9999999999975
 31
0.0
1001
ACAD
1000
ASC_BOUNDS
1002
{
1070
    19
1002
}
  0
LINE
  5
320
330
D9
100
AcDbEntity
  8
0
100
AcDbLine
 10
537.221841865037
 20
386.0912406355389
 30
0.0
 11
536.9466393000855
 21
389.0948876264922
 31
0.0
1001
ACAD
1000
ASC_BOUNDS
1002
{
1070
    19
1002
}
  0
ARC
  5
321
330
D9
100
AcDbEntity
  8
0
100
AcDbCircle
 10
536.2260129909698
 20
385.9999999999977
 30
0.0
 40
1.0
100
AcDbArc
 50
270.0
 51
5.234983955055374
1001
ACAD
1000
ASC_BOUNDS
1002
{
1070
    19
1002
}
  0
LINE
  5
322
330
D9
100
AcDbEntity
  8
0
100
AcDbLine
 10
485.1059950196006
 20
380.9356142470769
 30
0.0
 11
485.368227666985
 21
384.9999999999977
 31
0.0
1001
ACAD
1000
ASC_BOUNDS
1002
{
1070
    19
1005
0
1005
0
1002
}
  0
ARC
  5
323
330
D9
100
AcDbEntity
  8
0
100
AcDbCircle
 10
484.1080699348269
 20
381.0
 30
0.0
 40
1.0
100
AcDbArc
 50
270.0
 51
356.3084145010584
1001
ACAD
1000
ASC_BOUNDS
1002
{
1070
    19
1005
0
1005
0
1002
}
  0
ARC
  5
324
330
D9
100
AcDbEntity
  8
0
100
AcDbCircle
 10
524.9966928112778
 20
387.9999999999977
 30
0.0
 40
12.0
100
AcDbArc
 50
5.234983955055374
 51
90.0
1001
ACAD
1000
ASC_BOUNDS
1002
{
1070
    19
1002
}
  0
ARC
  5
325
330
D9
100
AcDbEntity
  8
0
100
AcDbCircle
 10
109.3482665350828
 20
399.4999999999974
 30
0.0
 40
6.0
100
AcDbArc
 50
113.5564643090919
 51
178.4242238671761
1001
ACAD
1000
ASC_BOUNDS
1002
{
1070
    19
1002
}
  0
LINE
  5
326
330
D9
100
AcDbEntity
  8
0
100
AcDbLine
 10
102.322975704539
 20
406.4999999999974
 30
0.0
 11
102.3218243938707
 21
404.9999999999976
 31
0.0
  0
ARC
  5
327
330
D9
100
AcDbEntity
  8
0
100
AcDbCircle
 10
106.9747660867149
 20
407.0125987953931
 30
0.0
 40
2.0
100
AcDbArc
 50
270.0
 51
270.1347785445022
  0
LINE
  5
328
330
D9
100
AcDbEntity
  8
0
100
AcDbLine
 10
103.3505355515697
 20
399.6649940890311
 30
0.0
 11
103.2772231150491
 21
396.9999999999974
 31
0.0
  0
LINE
  5
329
330
D9
100
AcDbEntity
  8
0
100
AcDbLine
 10
102.322975704539
 20
406.4999999999974
 30
0.0
 11
103.0903328685997
 21
416.6778478722882
 31
0.0
1001
ACAD
1000
ASC_BOUNDS
1002
{
1070
    19
1002
}
  0
ARC
  5
32A
330
D9
100
AcDbEntity
  8
0
100
AcDbCircle
 10
112.0648616928536
 20
416.0012147496702
 30
0.0
 40
9.0
100
AcDbArc
 50
90.0
 51
175.6883514775356
1001
ACAD
1000
ASC_BOUNDS
1002
{
1070
    19
1002
}
  0
ARC
  5
32B
330
D9
100
AcDbEntity
  8
0
100
AcDbCircle
 10
251.3881224811501
 20
1547.379202975041
 30
0.0
 40
1150.0
100
AcDbArc
 50
263.4002265097123
 51
266.133269072167
1001
ACAD
1000
ASC_BOUNDS
1002
{
1070
    19
1002
}
  0
LINE
  5
32C
330
D9
100
AcDbEntity
  8
0
100
AcDbLine
 10
179.6221525726398
 20
380.8781306565945
 30
0.0
 11
179.1160506552108
 21
384.9999999999978
 31
0.0
1001
ACAD
1000
ASC_BOUNDS
1002
{
1070
    19
1002
}
  0
ARC
  5
32D
330
D9
100
AcDbEntity
  8
0
100
AcDbCircle
 10
180.6146987242812
 20
380.9999999999997
 30
0.0
 40
1.0
100
AcDbArc
 50
187.000000000006
 51
270.0
1001
ACAD
1000
ASC_BOUNDS
1002
{
1070
    19
1002
}
  0
ARC
  5
32E
330
D9
100
AcDbEntity
  8
0
100
AcDbCircle
 10
115.3218243938707
 20
396.9999999999977
 30
0.0
 40
12.0
100
AcDbArc
 50
242.181860715344
 51
270.0
  0
LINE
  5
32F
330
D9
100
AcDbEntity
  8
0
100
AcDbLine
 10
115.3218243938707
 20
384.9999999999977
 30
0.0
 11
536.2260129909698
 21
384.9999999999977
 31
0.0
  0
ARC
  5
330
330
D9
100
AcDbEntity
  8
0
100
AcDbCircle
 10
115.4337018638248
 20
397.118457745852
 30
0.0
 40
12.15705588565699
100
AcDbArc
 50
180.5582960510086
 51
241.9760550992299
  0
LINE
  5
331
330
D9
100
AcDbEntity
  8
0
100
AcDbLine
 10
102.3218243938707
 20
404.9999999999977
 30
0.0
 11
526.1189432720491
 21
404.9999999999976
 31
0.0
  0
LINE
  5
332
330
D9
100
AcDbEntity
  8
0
100
AcDbLine
 10
111.9169968272124
 20
424.9999999999974
 30
0.0
 11
434.9466393000855
 21
424.9999999999976
 31
0.0
1001
ACAD
1000
ASC_BOUNDS
1002
{
1070
    19
1005
0
1005
0
1002
}
  0
LINE
  5
333
330
D9
100
AcDbEntity
  8
0
100
AcDbLine
 10
175.2573509085303
 20
399.9999999999977
 30
0.0
 11
524.9966928112778
 21
399.9999999999977
 31
0.0
  0
LINE
  5
334
330
D9
100
AcDbEntity
  8
0
100
AcDbLine
 10
173.7932477769989
 20
399.9999999999975
 30
0.0
 11
491.3218243938707
 21
399.9999999999977
 31
0.0
1001
ACAD
1000
ASC_BOUNDS
1002
{
1070
    19
1002
}
  0
ARC
  5
335
330
D9
100
AcDbEntity
  8
0
100
AcDbCircle
 10
214.4294183573066
 20
80.85854651431588
 30
0.0
 40
172.7231540362062
100
AcDbArc
 50
104.7832882775519
 51
175.1232286749174
  0
LINE
  5
336
330
D9
100
AcDbEntity
  8
0
100
AcDbLine
 10
116.4935927881188
 20
303.0000000000001
 30
0.0
 11
155.7404721955591
 21
302.9999999999993
 31
0.0
  0
ARC
  5
337
330
D9
100
AcDbEntity
  8
0
100
AcDbCircle
 10
458.0931705836952
 20
377.9860102707799
 30
0.0
 40
310.0
100
AcDbArc
 50
186.4042952494413
 51
206.519696377574
  0
ARC
  5
338
330
D9
100
AcDbEntity
  8
0
100
AcDbCircle
 10
169.0809120417482
 20
252.6986828490059
 30
0.0
 40
5.0
100
AcDbArc
 50
284.7832882775519
 51
23.43681762176641
  0
LINE
  5
339
330
D9
100
AcDbEntity
  8
0
100
AcDbLine
 10
308.6126331579608
 20
340.0000000000001
 30
0.0
 11
75.91600253746586
 21
345.0000000000001
 31
0.0
  0
LINE
  5
33A
330
D9
100
AcDbEntity
  8
0
100
AcDbLine
 10
110.0697449869795
 20
298.5280331905944
 30
0.0
 11
110.0697449869795
 21
344.3141856818534
 31
0.0
  0
LINE
  5
33B
330
D9
100
AcDbEntity
  8
0
100
AcDbLine
 10
115.1173448568407
 20
303.0000000000001
 30
0.0
 11
115.1173448568407
 21
344.1281010356177
 31
0.0
  0
ARC
  5
33C
330
D9
100
AcDbEntity
  8
0
100
AcDbCircle
 10
155.7404721955591
 20
300.9999999999993
 30
0.0
 40
2.0
100
AcDbArc
 50
14.28527885099585
 51
90.0
  0
LINE
  5
33D
330
D9
100
AcDbEntity
  8
0
100
AcDbLine
 10
7.554086972349097
 20
67.2052059043242
 30
0.0
 11
92.59720763232555
 21
67.2052059043242
 31
0.0
  0
ARC
  5
33E
330
D9
100
AcDbEntity
  8
0
100
AcDbCircle
 10
91.23299305467392
 20
194.9187817907078
 30
0.0
 40
100.0
100
AcDbArc
 50
0.0
 51
26.51969637762281
  0
POLYLINE
  5
33F
330
D9
100
AcDbEntity
  8
0
100
AcDb2dPolyline
 66
     1
 10
0.0
 20
0.0
 30
0.0
 70
     4
 75
     6
  0
VERTEX
  5
340
330
33F
100
AcDbEntity
  8
0
100
AcDbVertex
100
AcDb2dVertex
 10
216.3169768298376
 20
194.6666457281203
 30
0.0
 70
    16
  0
VERTEX
  5
341
330
33F
100
AcDbEntity
  8
0
100
AcDbVertex
100
AcDb2dVertex
 10
216.3169768298376
 20
194.6666457281203
 30
0.0
 70
     8
  0
VERTEX
  5
342
330
33F
100
AcDbEntity
  8
0
100
AcDbVertex
100
AcDb2dVertex
 10
233.0725858139372
 20
190.0665957798396
 30
0.0
 70
     8
  0
VERTEX
  5
343
330
33F
100
AcDbEntity
  8
0
100
AcDbVertex
100
AcDb2dVertex
 10
252.7746987774012
 20
186.4838538664454
 30
0.0
 70
     8
  0
VERTEX
  5
344
330
33F
100
AcDbEntity
  8
0
100
AcDbVertex
100
AcDb2dVertex
 10
274.9111693544014
 20
183.9250691253251
 30
0.0
 70
     8
  0
VERTEX
  5
345
330
33F
100
AcDbEntity
  8
0
100
AcDbVertex
100
AcDb2dVertex
 10
298.969851179108
 20
182.3968906938664
 30
0.0
 70
     8
  0
VERTEX
  5
346
330
33F
100
AcDbEntity
  8
0
100
AcDbVertex
100
AcDb2dVertex
 10
324.4385978856922
 20
181.9059677094573
 30
0.0
 70
     8
  0
VERTEX
  5
347
330
33F
100
AcDbEntity
  8
0
100
AcDbVertex
100
AcDb2dVertex
 10
350.8052631083247
 20
182.4589493094851
 30
0.0
 70
     8
  0
VERTEX
  5
348
330
33F
100
AcDbEntity
  8
0
100
AcDbVertex
100
AcDb2dVertex
 10
377.5577004811762
 20
184.0624846313376
 30
0.0
 70
     8
  0
VERTEX
  5
349
330
33F
100
AcDbEntity
  8
0
100
AcDbVertex
100
AcDb2dVertex
 10
404.183763638418
 20
186.7232228124026
 30
0.0
 70
     8
  0
VERTEX
  5
34A
330
33F
100
AcDbEntity
  8
0
100
AcDbVertex
100
AcDb2dVertex
 10
256.6146876008797
 20
181.0493454972015
 30
0.0
 70
    16
  0
VERTEX
  5
34B
330
33F
100
AcDbEntity
  8
0
100
AcDbVertex
100
AcDb2dVertex
 10
333.804668720657
 20
178.2124068396015
 30
0.0
 70
    16
  0
VERTEX
  5
34C
330
33F
100
AcDbEntity
  8
0
100
AcDbVertex
100
AcDb2dVertex
 10
404.183763638418
 20
186.7232228124026
 30
0.0
 70
    16
  0
SEQEND
  5
34D
330
33F
100
AcDbEntity
  8
0
  0
LINE
  5
34E
330
D9
100
AcDbEntity
  8
0
100
AcDbLine
 10
184.5328715182859
 20
337.5575370281675
 30
0.0
 11
184.5328715182864
 21
328.5339724140718
 31
0.0
  0
LINE
  5
34F
330
D9
100
AcDbEntity
  8
0
100
AcDbLine
 10
252.0741008465066
 20
321.2102385177637
 30
0.0
 11
190.4039780451917
 21
322.5353570344535
 31
0.0
  0
ARC
  5
350
330
D9
100
AcDbEntity
  8
0
100
AcDbCircle
 10
190.5328715182864
 20
328.5339724140718
 30
0.0
 40
6.0
100
AcDbArc
 50
180.0
 51
268.7690633082502
  0
ARC
  5
351
330
D9
100
AcDbEntity
  8
0
100
AcDbCircle
 10
189.5328715182859
 20
337.5575370281677
 30
0.0
 40
5.0
100
AcDbArc
 50
88.76906330825024
 51
180.0
  0
ENDBLK
  5
DB
330
D9
100
AcDbEntity
  8
0
100
AcDbBlockEnd
  0
BLOCK
  5
101
330
100
100
AcDbEntity
  8
0
100
AcDbBlockBegin
  2
_DOT
 70
     0
 10
0.0
 20
0.0
 30
0.0
  3
_DOT
  1

  0
LWPOLYLINE
  5
102
330
100
100
AcDbEntity
  8
0
  6
ByBlock
 62
     0
100
AcDbPolyline
 90
        2
 70
     1
 43
0.5
 10
-0.25
 20
0.0
 42
1.0
 10
0.25
 20
0.0
 42
1.0
  0
LINE
  5
103
330
100
100
AcDbEntity
  8
0
  6
ByBlock
 62
     0
100
AcDbLine
 10
-0.5
 20
0.0
 30
0.0
 11
-1.0
 21
0.0
 31
0.0
  0
ENDBLK
  5
104
330
100
100
AcDbEntity
  8
0
100
AcDbBlockEnd
  0
ENDSEC
  0
SECTION
  2
ENTITIES
  0
MTEXT
  5
BD
330
1F
100
AcDbEntity
  8
0
100
AcDbMText
 10
50.52108686360518
 20
124.822489448571
 30
0.0
 40
20.0
 41
0.0000000000009095
 71
     1
 72
     5
  1
{\fTimes New Roman|b0|i0|c0|p18;\C0;INODORO DE TANQUE ALTO O FLUXOR CON SALIDA VERTICAL\PSERIE ELIA}
 73
     1
 44
1.0
  0
INSERT
  5
352
330
1F
100
AcDbEntity
  8
0
100
AcDbBlockReference
  2
18130_L
 10
252.1705966277961
 20
194.5015036544254
 30
0.0
  0
ENDSEC
  0
SECTION
  2
OBJECTS
  0
DICTIONARY
  5
C
330
0
100
AcDbDictionary
281
     1
  3
ACAD_COLOR
350
73
  3
ACAD_GROUP
350
D
  3
ACAD_LAYOUT
350
1A
  3
ACAD_MATERIAL
350
72
  3
ACAD_MLINESTYLE
350
17
  3
ACAD_PLOTSETTINGS
350
19
  3
ACAD_PLOTSTYLENAME
350
E
  3
AcDbVariableDictionary
350
66
  0
DICTIONARY
  5
96
330
2
100
AcDbDictionary
280
     1
281
     1
  3
ACAD_LAYERFILTERS
360
15B
  3
ACAD_LAYERSTATES
360
97
  0
DICTIONARY
  5
73
102
{ACAD_REACTORS
330
C
102
}
330
C
100
AcDbDictionary
281
     1
  0
DICTIONARY
  5
D
102
{ACAD_REACTORS
330
C
102
}
330
C
100
AcDbDictionary
281
     1
  0
DICTIONARY
  5
1A
102
{ACAD_REACTORS
330
C
102
}
330
C
100
AcDbDictionary
281
     1
  3
Model
350
22
  3
Presentación1
350
59
  3
Presentación2
350
5E
  0
DICTIONARY
  5
72
102
{ACAD_REACTORS
330
C
102
}
330
C
100
AcDbDictionary
281
     1
  0
DICTIONARY
  5
17
102
{ACAD_REACTORS
330
C
102
}
330
C
100
AcDbDictionary
281
     1
  3
Standard
350
18
  0
DICTIONARY
  5
19
102
{ACAD_REACTORS
330
C
102
}
330
C
100
AcDbDictionary
281
     1
  0
ACDBDICTIONARYWDFLT
  5
E
102
{ACAD_REACTORS
330
C
102
}
330
C
100
AcDbDictionary
281
     1
  3
Normal
350
F
100
AcDbDictionaryWithDefault
340
F
  0
DICTIONARY
  5
66
102
{ACAD_REACTORS
330
C
102
}
330
C
100
AcDbDictionary
281
     1
  3
DIMASSOC
350
67
  3
HIDETEXT
350
6B
  0
DICTIONARY
  5
15B
102
{ACAD_REACTORS
330
96
102
}
330
96
100
AcDbDictionary
281
     1
  0
DICTIONARY
  5
97
102
{ACAD_REACTORS
330
96
102
}
330
96
100
AcDbDictionary
281
     1
  0
LAYOUT
  5
22
102
{ACAD_REACTORS
330
1A
102
}
330
1A
100
AcDbPlotSettings
  1

  2
none_device
  4
ANSI_A_(8.50_x_11.00_Inches)
  6

 40
6.349999904632567
 41
19.04999923706055
 42
6.350006103515625
 43
19.04998779296875
 44
215.8999938964844
 45
279.3999938964844
 46
0.0
 47
0.0
 48
0.0
 49
0.0
140
0.0
141
0.0
142
1.0
143
2.584895464708373
 70
 11952
 72
     0
 73
     1
 74
     0
  7

 75
     0
147
0.3868628397755418
 76
     0
 77
     2
 78
   300
148
0.0
149
0.0
100
AcDbLayout
  1
Model
 70
     1
 71
     0
 10
0.0
 20
0.0
 11
12.0
 21
9.0
 12
0.0
 22
0.0
 32
0.0
 14
0.0
 24
0.0
 34
0.0
 15
0.0
 25
0.0
 35
0.0
146
0.0
 13
0.0
 23
0.0
 33
0.0
 16
1.0
 26
0.0
 36
0.0
 17
0.0
 27
1.0
 37
0.0
 76
     0
330
1F
  0
LAYOUT
  5
59
102
{ACAD_REACTORS
330
1A
102
}
330
1A
100
AcDbPlotSettings
  1

  2
None
  4

  6

 40
0.0
 41
0.0
 42
0.0
 43
0.0
 44
0.0
 45
0.0
 46
0.0
 47
0.0
 48
0.0
 49
0.0
140
0.0
141
0.0
142
1.0
143
1.0
 70
   688
 72
     0
 73
     0
 74
     5
  7

 75
    16
147
1.0
 76
     0
 77
     2
 78
   300
148
0.0
149
0.0
100
AcDbLayout
  1
Presentación1
 70
     1
 71
     1
 10
0.0
 20
0.0
 11
12.0
 21
9.0
 12
0.0
 22
0.0
 32
0.0
 14
0.0
 24
0.0
 34
0.0
 15
0.0
 25
0.0
 35
0.0
146
0.0
 13
0.0
 23
0.0
 33
0.0
 16
1.0
 26
0.0
 36
0.0
 17
0.0
 27
1.0
 37
0.0
 76
     0
330
58
  0
LAYOUT
  5
5E
102
{ACAD_REACTORS
330
1A
102
}
330
1A
100
AcDbPlotSettings
  1

  2
None
  4

  6

 40
0.0
 41
0.0
 42
0.0
 43
0.0
 44
0.0
 45
0.0
 46
0.0
 47
0.0
 48
0.0
 49
0.0
140
0.0
141
0.0
142
1.0
143
1.0
 70
   688
 72
     0
 73
     0
 74
     5
  7

 75
    16
147
1.0
 76
     0
 77
     2
 78
   300
148
0.0
149
0.0
100
AcDbLayout
  1
Presentación2
 70
     1
 71
     2
 10
0.0
 20
0.0
 11
12.0
 21
9.0
 12
0.0
 22
0.0
 32
0.0
 14
0.0
 24
0.0
 34
0.0
 15
0.0
 25
0.0
 35
0.0
146
0.0
 13
0.0
 23
0.0
 33
0.0
 16
1.0
 26
0.0
 36
0.0
 17
0.0
 27
1.0
 37
0.0
 76
     0
330
5D
  0
MLINESTYLE
  5
18
102
{ACAD_REACTORS
330
17
102
}
330
17
100
AcDbMlineStyle
  2
STANDARD
 70
     0
  3

 62
   256
 51
90.0
 52
90.0
 71
     2
 49
0.5
 62
   256
  6
BYLAYER
 49
-0.5
 62
   256
  6
BYLAYER
  0
ACDBPLACEHOLDER
  5
F
102
{ACAD_REACTORS
330
E
102
}
330
E
  0
DICTIONARYVAR
  5
67
102
{ACAD_REACTORS
330
66
102
}
330
66
100
DictionaryVariables
280
     0
  1
2
  0
DICTIONARYVAR
  5
6B
102
{ACAD_REACTORS
330
66
102
}
330
66
100
DictionaryVariables
280
     0
  1
1
  0
ENDSEC
  0
EOF
