  0
SECTION
  2
HEADER
  9
$ACADVER
  1
AC1018
  9
$ACADMAINTVER
 70
     0
  9
$DWGCODEPAGE
  3
ANSI_1252
  9
$INSBASE
 10
0.0
 20
0.0
 30
0.0
  9
$EXTMIN
 10
20.89745943606434
 20
-18.50746092074121
 30
0.0
  9
$EXTMAX
 10
880.3773050174996
 20
890.8901620982115
 30
0.0
  9
$LIMMIN
 10
0.0
 20
0.0
  9
$LIMMAX
 10
12.0
 20
9.0
  9
$ORTHOMODE
 70
     0
  9
$REGENMODE
 70
     1
  9
$FILLMODE
 70
     1
  9
$QTEXTMODE
 70
     0
  9
$MIRRTEXT
 70
     0
  9
$LTSCALE
 40
1.0
  9
$ATTMODE
 70
     1
  9
$TEXTSIZE
 40
0.2
  9
$TRACEWID
 40
0.05
  9
$TEXTSTYLE
  7
Standard
  9
$CLAYER
  8
0
  9
$CELTYPE
  6
ByLayer
  9
$CECOLOR
 62
   256
  9
$CELTSCALE
 40
1.0
  9
$DISPSILH
 70
     0
  9
$DIMSCALE
 40
1.0
  9
$DIMASZ
 40
0.18
  9
$DIMEXO
 40
0.0625
  9
$DIMDLI
 40
0.38
  9
$DIMRND
 40
0.0
  9
$DIMDLE
 40
0.0
  9
$DIMEXE
 40
0.18
  9
$DIMTP
 40
0.0
  9
$DIMTM
 40
0.0
  9
$DIMTXT
 40
0.18
  9
$DIMCEN
 40
0.09
  9
$DIMTSZ
 40
0.0
  9
$DIMTOL
 70
     0
  9
$DIMLIM
 70
     0
  9
$DIMTIH
 70
     1
  9
$DIMTOH
 70
     1
  9
$DIMSE1
 70
     0
  9
$DIMSE2
 70
     0
  9
$DIMTAD
 70
     0
  9
$DIMZIN
 70
     0
  9
$DIMBLK
  1

  9
$DIMASO
 70
     1
  9
$DIMSHO
 70
     1
  9
$DIMPOST
  1

  9
$DIMAPOST
  1

  9
$DIMALT
 70
     0
  9
$DIMALTD
 70
     2
  9
$DIMALTF
 40
25.4
  9
$DIMLFAC
 40
1.0
  9
$DIMTOFL
 70
     0
  9
$DIMTVP
 40
0.0
  9
$DIMTIX
 70
     0
  9
$DIMSOXD
 70
     0
  9
$DIMSAH
 70
     0
  9
$DIMBLK1
  1

  9
$DIMBLK2
  1

  9
$DIMSTYLE
  2
Standard
  9
$DIMCLRD
 70
     0
  9
$DIMCLRE
 70
     0
  9
$DIMCLRT
 70
     0
  9
$DIMTFAC
 40
1.0
  9
$DIMGAP
 40
0.09
  9
$DIMJUST
 70
     0
  9
$DIMSD1
 70
     0
  9
$DIMSD2
 70
     0
  9
$DIMTOLJ
 70
     1
  9
$DIMTZIN
 70
     0
  9
$DIMALTZ
 70
     0
  9
$DIMALTTZ
 70
     0
  9
$DIMUPT
 70
     0
  9
$DIMDEC
 70
     4
  9
$DIMTDEC
 70
     4
  9
$DIMALTU
 70
     2
  9
$DIMALTTD
 70
     2
  9
$DIMTXSTY
  7
Standard
  9
$DIMAUNIT
 70
     0
  9
$DIMADEC
 70
     0
  9
$DIMALTRND
 40
0.0
  9
$DIMAZIN
 70
     0
  9
$DIMDSEP
 70
    46
  9
$DIMATFIT
 70
     3
  9
$DIMFRAC
 70
     0
  9
$DIMLDRBLK
  1

  9
$DIMLUNIT
 70
     2
  9
$DIMLWD
 70
    -2
  9
$DIMLWE
 70
    -2
  9
$DIMTMOVE
 70
     0
  9
$LUNITS
 70
     2
  9
$LUPREC
 70
     4
  9
$SKETCHINC
 40
0.1
  9
$FILLETRAD
 40
0.0
  9
$AUNITS
 70
     0
  9
$AUPREC
 70
     0
  9
$MENU
  1
.
  9
$ELEVATION
 40
0.0
  9
$PELEVATION
 40
0.0
  9
$THICKNESS
 40
0.0
  9
$LIMCHECK
 70
     0
  9
$CHAMFERA
 40
0.0
  9
$CHAMFERB
 40
0.0
  9
$CHAMFERC
 40
0.0
  9
$CHAMFERD
 40
0.0
  9
$SKPOLY
 70
     0
  9
$TDCREATE
 40
2454473.075238484
  9
$TDUCREATE
 40
2454473.033571817
  9
$TDUPDATE
 40
2454500.707220938
  9
$TDUUPDATE
 40
2454500.665554271
  9
$TDINDWG
 40
0.0010382292
  9
$TDUSRTIMER
 40
0.0010382292
  9
$USRTIMER
 70
     1
  9
$ANGBASE
 50
0.0
  9
$ANGDIR
 70
     0
  9
$PDMODE
 70
     0
  9
$PDSIZE
 40
0.0
  9
$PLINEWID
 40
0.0
  9
$SPLFRAME
 70
     0
  9
$SPLINETYPE
 70
     6
  9
$SPLINESEGS
 70
     8
  9
$HANDSEED
  5
193
  9
$SURFTAB1
 70
     6
  9
$SURFTAB2
 70
     6
  9
$SURFTYPE
 70
     6
  9
$SURFU
 70
     6
  9
$SURFV
 70
     6
  9
$UCSBASE
  2

  9
$UCSNAME
  2

  9
$UCSORG
 10
0.0
 20
0.0
 30
0.0
  9
$UCSXDIR
 10
1.0
 20
0.0
 30
0.0
  9
$UCSYDIR
 10
0.0
 20
1.0
 30
0.0
  9
$UCSORTHOREF
  2

  9
$UCSORTHOVIEW
 70
     0
  9
$UCSORGTOP
 10
0.0
 20
0.0
 30
0.0
  9
$UCSORGBOTTOM
 10
0.0
 20
0.0
 30
0.0
  9
$UCSORGLEFT
 10
0.0
 20
0.0
 30
0.0
  9
$UCSORGRIGHT
 10
0.0
 20
0.0
 30
0.0
  9
$UCSORGFRONT
 10
0.0
 20
0.0
 30
0.0
  9
$UCSORGBACK
 10
0.0
 20
0.0
 30
0.0
  9
$PUCSBASE
  2

  9
$PUCSNAME
  2

  9
$PUCSORG
 10
0.0
 20
0.0
 30
0.0
  9
$PUCSXDIR
 10
1.0
 20
0.0
 30
0.0
  9
$PUCSYDIR
 10
0.0
 20
1.0
 30
0.0
  9
$PUCSORTHOREF
  2

  9
$PUCSORTHOVIEW
 70
     0
  9
$PUCSORGTOP
 10
0.0
 20
0.0
 30
0.0
  9
$PUCSORGBOTTOM
 10
0.0
 20
0.0
 30
0.0
  9
$PUCSORGLEFT
 10
0.0
 20
0.0
 30
0.0
  9
$PUCSORGRIGHT
 10
0.0
 20
0.0
 30
0.0
  9
$PUCSORGFRONT
 10
0.0
 20
0.0
 30
0.0
  9
$PUCSORGBACK
 10
0.0
 20
0.0
 30
0.0
  9
$USERI1
 70
     0
  9
$USERI2
 70
     0
  9
$USERI3
 70
     0
  9
$USERI4
 70
     0
  9
$USERI5
 70
     0
  9
$USERR1
 40
0.0
  9
$USERR2
 40
0.0
  9
$USERR3
 40
0.0
  9
$USERR4
 40
0.0
  9
$USERR5
 40
0.0
  9
$WORLDVIEW
 70
     1
  9
$SHADEDGE
 70
     3
  9
$SHADEDIF
 70
    70
  9
$TILEMODE
 70
     1
  9
$MAXACTVP
 70
    64
  9
$PINSBASE
 10
0.0
 20
0.0
 30
0.0
  9
$PLIMCHECK
 70
     0
  9
$PEXTMIN
 10
0.0
 20
0.0
 30
0.0
  9
$PEXTMAX
 10
0.0
 20
0.0
 30
0.0
  9
$PLIMMIN
 10
0.0
 20
0.0
  9
$PLIMMAX
 10
12.0
 20
9.0
  9
$UNITMODE
 70
     0
  9
$VISRETAIN
 70
     1
  9
$PLINEGEN
 70
     0
  9
$PSLTSCALE
 70
     1
  9
$TREEDEPTH
 70
  3020
  9
$CMLSTYLE
  2
Standard
  9
$CMLJUST
 70
     0
  9
$CMLSCALE
 40
1.0
  9
$PROXYGRAPHICS
 70
     1
  9
$MEASUREMENT
 70
     0
  9
$CELWEIGHT
370
    -1
  9
$ENDCAPS
280
     0
  9
$JOINSTYLE
280
     0
  9
$LWDISPLAY
290
     0
  9
$INSUNITS
 70
     1
  9
$HYPERLINKBASE
  1

  9
$STYLESHEET
  1

  9
$XEDIT
290
     1
  9
$CEPSNTYPE
380
     0
  9
$PSTYLEMODE
290
     1
  9
$FINGERPRINTGUID
  2
{FDEAD576-A652-11D2-9A35-0060089B3A3F}
  9
$VERSIONGUID
  2
{452EBCCA-A152-47A7-AC17-2D6B7BA32CC8}
  9
$EXTNAMES
290
     1
  9
$PSVPSCALE
 40
0.0
  9
$OLESTARTUP
290
     0
  9
$SORTENTS
280
   127
  9
$INDEXCTL
280
     0
  9
$HIDETEXT
280
     1
  9
$XCLIPFRAME
290
     0
  9
$HALOGAP
280
     0
  9
$OBSCOLOR
 70
   257
  9
$OBSLTYPE
280
     0
  9
$INTERSECTIONDISPLAY
280
     0
  9
$INTERSECTIONCOLOR
 70
   257
  9
$DIMASSOC
280
     2
  9
$PROJECTNAME
  1

  0
ENDSEC
  0
SECTION
  2
CLASSES
  0
CLASS
  1
ACDBDICTIONARYWDFLT
  2
AcDbDictionaryWithDefault
  3
ObjectDBX Classes
 90
        0
 91
        1
280
     0
281
     0
  0
CLASS
  1
DICTIONARYVAR
  2
AcDbDictionaryVar
  3
ObjectDBX Classes
 90
        0
 91
        2
280
     0
281
     0
  0
CLASS
  1
SORTENTSTABLE
  2
AcDbSortentsTable
  3
ObjectDBX Classes
 90
        0
 91
        0
280
     0
281
     0
  0
ENDSEC
  0
SECTION
  2
TABLES
  0
TABLE
  2
VPORT
  5
8
330
0
100
AcDbSymbolTable
 70
     5
  0
VPORT
  5
192
330
8
100
AcDbSymbolTableRecord
100
AcDbViewportTableRecord
  2
*Active
 70
     0
 10
0.0
 20
0.0
 11
1.0
 21
1.0
 12
416.009644922557
 22
166.1652416584984
 13
0.0
 23
0.0
 14
0.5
 24
0.5
 15
0.5
 25
0.5
 16
0.0
 26
0.0
 36
1.0
 17
0.0
 27
0.0
 37
0.0
 40
995.1132857021748
 41
1.809523809523809
 42
50.0
 43
0.0
 44
0.0
 50
0.0
 51
0.0
 71
     0
 72
  1000
 73
     1
 74
     3
 75
     0
 76
     0
 77
     0
 78
     0
281
     0
 65
     1
110
0.0
120
0.0
130
0.0
111
1.0
121
0.0
131
0.0
112
0.0
122
1.0
132
0.0
 79
     0
146
0.0
  0
ENDTAB
  0
TABLE
  2
LTYPE
  5
5
330
0
100
AcDbSymbolTable
 70
     1
  0
LTYPE
  5
14
330
5
100
AcDbSymbolTableRecord
100
AcDbLinetypeTableRecord
  2
ByBlock
 70
     0
  3

 72
    65
 73
     0
 40
0.0
  0
LTYPE
  5
15
330
5
100
AcDbSymbolTableRecord
100
AcDbLinetypeTableRecord
  2
ByLayer
 70
     0
  3

 72
    65
 73
     0
 40
0.0
  0
LTYPE
  5
16
330
5
100
AcDbSymbolTableRecord
100
AcDbLinetypeTableRecord
  2
Continuous
 70
     0
  3
Solid line
 72
    65
 73
     0
 40
0.0
  0
ENDTAB
  0
TABLE
  2
LAYER
  5
2
102
{ACAD_XDICTIONARY
360
96
102
}
330
0
100
AcDbSymbolTable
 70
     1
  0
LAYER
  5
10
330
2
100
AcDbSymbolTableRecord
100
AcDbLayerTableRecord
  2
0
 70
     0
 62
     7
  6
Continuous
370
    -3
390
F
  0
ENDTAB
  0
TABLE
  2
STYLE
  5
3
330
0
100
AcDbSymbolTable
 70
     3
  0
STYLE
  5
11
330
3
100
AcDbSymbolTableRecord
100
AcDbTextStyleTableRecord
  2
Standard
 70
     0
 40
0.0
 41
1.0
 50
0.0
 71
     0
 42
0.2
  3
txt
  4

  0
STYLE
  5
93
330
3
100
AcDbSymbolTableRecord
100
AcDbTextStyleTableRecord
  2
ROMANS
 70
     0
 40
0.0
 41
1.0
 50
0.0
 71
     0
 42
25.0
  3
romans
  4

  0
STYLE
  5
94
330
3
100
AcDbSymbolTableRecord
100
AcDbTextStyleTableRecord
  2
SANSSERIFBOLD
 70
     0
 40
0.0
 41
1.0
 50
0.0
 71
     0
 42
87.71704489347758
  3
ARIALBD.TTF
  4

1001
ACAD
1000
Arial
1071
 33554466
  0
ENDTAB
  0
TABLE
  2
VIEW
  5
6
330
0
100
AcDbSymbolTable
 70
     0
  0
ENDTAB
  0
TABLE
  2
UCS
  5
7
330
0
100
AcDbSymbolTable
 70
     0
  0
ENDTAB
  0
TABLE
  2
APPID
  5
9
330
0
100
AcDbSymbolTable
 70
     2
  0
APPID
  5
12
330
9
100
AcDbSymbolTableRecord
100
AcDbRegAppTableRecord
  2
ACAD
 70
     0
  0
APPID
  5
95
330
9
100
AcDbSymbolTableRecord
100
AcDbRegAppTableRecord
  2
ACAD_PSEXT
 70
     0
  0
ENDTAB
  0
TABLE
  2
DIMSTYLE
  5
A
330
0
100
AcDbSymbolTable
 70
     1
100
AcDbDimStyleTable
 71
     0
  0
DIMSTYLE
105
27
330
A
100
AcDbSymbolTableRecord
100
AcDbDimStyleTableRecord
  2
Standard
 70
     0
340
11
  0
ENDTAB
  0
TABLE
  2
BLOCK_RECORD
  5
1
330
0
100
AcDbSymbolTable
 70
     4
  0
BLOCK_RECORD
  5
1F
330
1
100
AcDbSymbolTableRecord
100
AcDbBlockTableRecord
  2
*Model_Space
340
22
  0
BLOCK_RECORD
  5
58
330
1
100
AcDbSymbolTableRecord
100
AcDbBlockTableRecord
  2
*Paper_Space
340
59
  0
BLOCK_RECORD
  5
5D
330
1
100
AcDbSymbolTableRecord
100
AcDbBlockTableRecord
  2
*Paper_Space0
340
5E
  0
BLOCK_RECORD
  5
FF
330
1
100
AcDbSymbolTableRecord
100
AcDbBlockTableRecord
  2
18180_A
340
0
1001
ACAD
1000
DesignCenter Data
1002
{
1070
     1
1070
     1
1002
}
  0
BLOCK_RECORD
  5
139
330
1
100
AcDbSymbolTableRecord
100
AcDbBlockTableRecord
  2
18150_A
340
0
102
{BLKREFS
331
18A
331
18E
102
}
1001
ACAD
1000
DesignCenter Data
1002
{
1070
     1
1070
     4
1002
}
  0
ENDTAB
  0
ENDSEC
  0
SECTION
  2
BLOCKS
  0
BLOCK
  5
20
330
1F
100
AcDbEntity
  8
0
100
AcDbBlockBegin
  2
*Model_Space
 70
     0
 10
0.0
 20
0.0
 30
0.0
  3
*Model_Space
  1

  0
ENDBLK
  5
21
330
1F
100
AcDbEntity
  8
0
100
AcDbBlockEnd
  0
BLOCK
  5
5A
330
58
100
AcDbEntity
 67
     1
  8
0
100
AcDbBlockBegin
  2
*Paper_Space
 70
     0
 10
0.0
 20
0.0
 30
0.0
  3
*Paper_Space
  1

  0
ENDBLK
  5
5B
330
58
100
AcDbEntity
 67
     1
  8
0
100
AcDbBlockEnd
  0
BLOCK
  5
5F
330
5D
100
AcDbEntity
  8
0
100
AcDbBlockBegin
  2
*Paper_Space0
 70
     0
 10
0.0
 20
0.0
 30
0.0
  3
*Paper_Space0
  1

  0
ENDBLK
  5
60
330
5D
100
AcDbEntity
  8
0
100
AcDbBlockEnd
  0
BLOCK
  5
100
330
FF
100
AcDbEntity
  8
0
100
AcDbBlockBegin
  2
18180_A
 70
     0
 10
0.0
 20
0.0
 30
0.0
  3
18180_A
  1

  0
ARC
  5
102
330
FF
100
AcDbEntity
  8
0
100
AcDbCircle
 10
171.9922525803595
 20
747.0
 30
0.0
 40
22.18974362329169
100
AcDbArc
 50
0.0
 51
90.0
  0
LINE
  5
103
330
FF
100
AcDbEntity
  8
0
100
AcDbLine
 10
180.1819962036498
 20
747.0
 30
0.0
 11
179.4540557351175
 21
745.0
 31
0.0
1001
ACAD
1000
ASC_BOUNDS
1002
{
1070
    19
1002
}
  0
ARC
  5
104
330
FF
100
AcDbEntity
  8
0
100
AcDbCircle
 10
187.9989142997474
 20
743.0
 30
0.0
 40
2.0
100
AcDbArc
 50
359.9377939638388
 51
90.0
1001
ACAD
1000
ASC_BOUNDS
1002
{
1070
    19
1002
}
  0
LINE
  5
105
330
FF
100
AcDbEntity
  8
0
100
AcDbLine
 10
0.0
 20
767.1897436232902
 30
0.0
 11
133.3311262835669
 21
767.1897436232902
 31
0.0
  0
ARC
  5
106
330
FF
100
AcDbEntity
  8
0
100
AcDbCircle
 10
139.3311262835669
 20
764.1897436232902
 30
0.0
 40
5.0
100
AcDbArc
 50
90.0
 51
126.86989764587
  0
ARC
  5
107
330
FF
100
AcDbEntity
  8
0
100
AcDbCircle
 10
133.3311262835669
 20
772.1897436232902
 30
0.0
 40
5.0
100
AcDbArc
 50
270.0
 51
306.8698976458701
  0
ARC
  5
108
330
FF
100
AcDbEntity
  8
0
100
AcDbCircle
 10
1.181996203649759
 20
-1681.345306956335
 30
0.0
 40
2456.535050579626
100
AcDbArc
 50
85.97643143716689
 51
90.02756866684689
  0
LINE
  5
109
330
FF
100
AcDbEntity
  8
0
100
AcDbLine
 10
139.3311262835669
 20
769.1897436232903
 30
0.0
 11
173.2864370410171
 21
769.1897436232903
 31
0.0
  0
ARC
  5
10A
330
FF
100
AcDbEntity
  8
0
100
AcDbCircle
 10
-133.3311262835668
 20
772.1897436232902
 30
0.0
 40
5.0
100
AcDbArc
 50
233.1301023541299
 51
270.0
  0
ARC
  5
10B
330
FF
100
AcDbEntity
  8
0
100
AcDbCircle
 10
-139.3311262835668
 20
764.1897436232902
 30
0.0
 40
5.0
100
AcDbArc
 50
53.13010235412992
 51
90.0
  0
ARC
  5
10C
330
FF
100
AcDbEntity
  8
0
100
AcDbCircle
 10
-187.9989142997474
 20
743.0
 30
0.0
 40
2.0
100
AcDbArc
 50
90.0
 51
180.0622060361611
1001
ACAD
1000
ASC_BOUNDS
1002
{
1070
    19
1002
}
  0
LINE
  5
10D
330
FF
100
AcDbEntity
  8
0
100
AcDbLine
 10
-180.1819962036461
 20
747.0
 30
0.0
 11
-179.4540557351138
 21
745.0
 31
0.0
1001
ACAD
1000
ASC_BOUNDS
1002
{
1070
    19
1002
}
  0
ARC
  5
10E
330
FF
100
AcDbEntity
  8
0
100
AcDbCircle
 10
-171.9922525803558
 20
747.0
 30
0.0
 40
22.18974362329169
100
AcDbArc
 50
90.0
 51
180.0
  0
LINE
  5
10F
330
FF
100
AcDbEntity
  8
0
100
AcDbLine
 10
-139.3311262835668
 20
769.1897436232903
 30
0.0
 11
-173.286437041017
 21
769.1897436232903
 31
0.0
  0
LINE
  5
110
330
FF
100
AcDbEntity
  8
0
100
AcDbLine
 10
-187.9989142997474
 20
745.0
 30
0.0
 11
187.9989142997474
 21
745.0
 31
0.0
1001
ACAD
1000
ASC_BOUNDS
1002
{
1070
    19
1002
}
  0
LINE
  5
111
330
FF
100
AcDbEntity
  8
0
100
AcDbLine
 10
194.1819962036498
 20
747.0
 30
0.0
 11
-194.1819962036461
 21
747.0
 31
0.0
  0
ARC
  5
112
330
FF
100
AcDbEntity
  8
0
100
AcDbCircle
 10
-1.181996203646122
 20
-1681.345306956335
 30
0.0
 40
2456.535050579626
100
AcDbArc
 50
89.97243133315311
 51
94.0235685628331
  0
LINE
  5
113
330
FF
100
AcDbEntity
  8
0
100
AcDbLine
 10
0.0
 20
767.1897436232902
 30
0.0
 11
-133.3311262835668
 21
767.1897436232902
 31
0.0
  0
ARC
  5
114
330
FF
100
AcDbEntity
  8
0
100
AcDbCircle
 10
166.8620279390343
 20
372.0
 30
0.0
 40
8.0
100
AcDbArc
 50
358.0238917142839
 51
90.0
  0
LINE
  5
115
330
FF
100
AcDbEntity
  8
0
100
AcDbLine
 10
0.0
 20
385.0
 30
0.0
 11
106.3243533976274
 21
385.0
 31
0.0
  0
LINE
  5
116
330
FF
100
AcDbEntity
  8
0
100
AcDbLine
 10
0.0
 20
385.0
 30
0.0
 11
117.2095314223989
 21
385.0
 31
0.0
1001
ACAD
1000
ASC_BOUNDS
1002
{
1070
    19
1002
}
  0
LINE
  5
117
330
FF
100
AcDbEntity
  8
0
100
AcDbLine
 10
106.3243533976274
 20
385.0
 30
0.0
 11
126.1821976168431
 21
385.0
 31
0.0
  0
ARC
  5
118
330
FF
100
AcDbEntity
  8
0
100
AcDbCircle
 10
126.1821976168431
 20
380.0
 30
0.0
 40
5.0
100
AcDbArc
 50
30.00000000003548
 51
90.0
  0
ARC
  5
119
330
FF
100
AcDbEntity
  8
0
100
AcDbCircle
 10
134.8424516546875
 20
385.0
 30
0.0
 40
5.0
100
AcDbArc
 50
210.0000000000355
 51
270.0
  0
LINE
  5
11A
330
FF
100
AcDbEntity
  8
0
100
AcDbLine
 10
0.0
 20
380.0
 30
0.0
 11
166.8903903865285
 21
380.0
 31
0.0
  0
ARC
  5
11B
330
FF
100
AcDbEntity
  8
0
100
AcDbCircle
 10
117.2095314223989
 20
430.0
 30
0.0
 40
45.0
100
AcDbArc
 50
270.0
 51
349.9164150763334
1001
ACAD
1000
ASC_BOUNDS
1002
{
1070
    19
1002
}
  0
ARC
  5
11C
330
FF
100
AcDbEntity
  8
0
100
AcDbCircle
 10
125.6720184898477
 20
195.9641845590685
 30
0.0
 40
25.0
100
AcDbArc
 50
136.0146216500396
 51
181.9999999999971
  0
ARC
  5
11D
330
FF
100
AcDbEntity
  8
0
100
AcDbCircle
 10
-64.99999999999636
 20
380.0
 30
0.0
 40
240.0
100
AcDbArc
 50
316.0146216500397
 51
358.0238917142839
  0
ARC
  5
11E
330
FF
100
AcDbEntity
  8
0
100
AcDbCircle
 10
-134.8424516546838
 20
385.0
 30
0.0
 40
5.0
100
AcDbArc
 50
270.0
 51
329.9999999999631
  0
ARC
  5
11F
330
FF
100
AcDbEntity
  8
0
100
AcDbCircle
 10
-126.182197616843
 20
380.0
 30
0.0
 40
5.0
100
AcDbArc
 50
90.0
 51
149.9999999999645
  0
LINE
  5
120
330
FF
100
AcDbEntity
  8
0
100
AcDbLine
 10
-106.3243533976238
 20
385.0
 30
0.0
 11
-126.182197616843
 21
385.0
 31
0.0
  0
ARC
  5
121
330
FF
100
AcDbEntity
  8
0
100
AcDbCircle
 10
-117.2095314223952
 20
430.0
 30
0.0
 40
45.0
100
AcDbArc
 50
190.0835849236665
 51
270.0
1001
ACAD
1000
ASC_BOUNDS
1002
{
1070
    19
1002
}
  0
ARC
  5
122
330
FF
100
AcDbEntity
  8
0
100
AcDbCircle
 10
-166.8620279390306
 20
372.0
 30
0.0
 40
8.0
100
AcDbArc
 50
90.0
 51
181.976108285716
  0
ARC
  5
123
330
FF
100
AcDbEntity
  8
0
100
AcDbCircle
 10
-125.672018489844
 20
195.9641845590685
 30
0.0
 40
25.0
100
AcDbArc
 50
358.0000000000029
 51
43.98537834996031
  0
ARC
  5
124
330
FF
100
AcDbEntity
  8
0
100
AcDbCircle
 10
65.0
 20
380.0
 30
0.0
 40
240.0
100
AcDbArc
 50
181.976108285716
 51
223.9853783499603
  0
LINE
  5
125
330
FF
100
AcDbEntity
  8
0
100
AcDbLine
 10
0.0
 20
380.0
 30
0.0
 11
-166.8903903865284
 21
380.0
 31
0.0
  0
LINE
  5
126
330
FF
100
AcDbEntity
  8
0
100
AcDbLine
 10
0.0
 20
385.0
 30
0.0
 11
-106.3243533976238
 21
385.0
 31
0.0
  0
LINE
  5
127
330
FF
100
AcDbEntity
  8
0
100
AcDbLine
 10
0.0
 20
385.0
 30
0.0
 11
-117.2095314223952
 21
385.0
 31
0.0
1001
ACAD
1000
ASC_BOUNDS
1002
{
1070
    19
1002
}
  0
LINE
  5
128
330
FF
100
AcDbEntity
  8
0
100
AcDbLine
 10
0.0
 20
0.0
 30
0.0
 11
107.5
 21
0.0
 31
0.0
  0
LINE
  5
129
330
FF
100
AcDbEntity
  8
0
100
AcDbLine
 10
0.0
 20
0.0
 30
0.0
 11
-107.5
 21
0.0
 31
0.0
  0
LINE
  5
12A
330
FF
100
AcDbEntity
  8
0
100
AcDbLine
 10
107.5
 20
0.0
 30
0.0
 11
100.6872478143668
 21
195.0916971415063
 31
0.0
  0
LINE
  5
12B
330
FF
100
AcDbEntity
  8
0
100
AcDbLine
 10
-107.5
 20
0.0
 30
0.0
 11
-100.6872478143668
 21
195.0916971415063
 31
0.0
  0
ARC
  5
12C
330
FF
100
AcDbEntity
  8
0
100
AcDbCircle
 10
0.0
 20
398.6928542803799
 30
0.0
 40
218.604078403651
100
AcDbArc
 50
249.7712553190293
 51
270.0
  0
ARC
  5
12D
330
FF
100
AcDbEntity
  8
0
100
AcDbCircle
 10
0.0
 20
398.6928542803799
 30
0.0
 40
218.604078403651
100
AcDbArc
 50
270.0
 51
290.2287446809708
  0
ARC
  5
12E
330
FF
100
AcDbEntity
  8
0
100
AcDbCircle
 10
1654.129616410264
 20
745.0
 30
0.0
 40
1844.129616410262
100
AcDbArc
 50
180.0622060361676
 51
190.0835849236665
1001
ACAD
1000
ASC_BOUNDS
1002
{
1070
    19
1002
}
  0
ARC
  5
12F
330
FF
100
AcDbEntity
  8
0
100
AcDbCircle
 10
-1654.12961641026
 20
745.0
 30
0.0
 40
1844.129616410262
100
AcDbArc
 50
349.9164150763334
 51
359.9377939638324
1001
ACAD
1000
ASC_BOUNDS
1002
{
1070
    19
1002
}
  0
ENDBLK
  5
101
330
FF
100
AcDbEntity
  8
0
100
AcDbBlockEnd
  0
BLOCK
  5
13A
330
139
100
AcDbEntity
  8
0
100
AcDbBlockBegin
  2
18150_A
 70
     0
 10
0.0
 20
0.0
 30
0.0
  3
18150_A
  1

  0
ARC
  5
13B
330
139
100
AcDbEntity
  8
0
100
AcDbCircle
 10
117.2095314223988
 20
430.0
 30
0.0
 40
45.0
100
AcDbArc
 50
336.410972771954
 51
349.9164150763334
1001
ACAD
1000
ASC_BOUNDS
1002
{
1070
    19
1002
}
  0
LINE
  5
13C
330
139
100
AcDbEntity
  8
0
100
AcDbLine
 10
0.0
 20
380.0000000000001
 30
0.0
 11
-166.8903903865275
 21
380.0000000000001
 31
0.0
  0
ARC
  5
13D
330
139
100
AcDbEntity
  8
0
 62
     0
100
AcDbCircle
 10
-144.3976307329593
 20
460.0000000000001
 30
0.0
 40
80.0
100
AcDbArc
 50
262.8192442185418
 51
277.1807557814582
  0
ARC
  5
13E
330
139
100
AcDbEntity
  8
0
 62
     0
100
AcDbCircle
 10
-107.3976307329593
 20
460.0000000000001
 30
0.0
 40
80.0
100
AcDbArc
 50
262.8192442185418
 51
277.1807557814582
  0
ARC
  5
13F
330
139
100
AcDbEntity
  8
0
 62
     0
100
AcDbCircle
 10
145.0541865957149
 20
460.0000000000005
 30
0.0
 40
80.0
100
AcDbArc
 50
262.8192442185418
 51
277.1807557814582
  0
ARC
  5
140
330
139
100
AcDbEntity
  8
0
 62
     0
100
AcDbCircle
 10
108.054186595715
 20
460.0000000000005
 30
0.0
 40
80.0
100
AcDbArc
 50
262.8192442185418
 51
277.1807557814582
  0
ARC
  5
141
330
139
100
AcDbEntity
  8
0
 62
     0
100
AcDbCircle
 10
155.5541865957149
 20
384.0000000000005
 30
0.0
 40
0.5
100
AcDbArc
 50
90.0
 51
180.0
  0
ARC
  5
142
330
139
100
AcDbEntity
  8
0
 62
     0
100
AcDbCircle
 10
134.5541865957149
 20
384.0000000000005
 30
0.0
 40
0.5
100
AcDbArc
 50
0.0
 51
90.0
  0
LINE
  5
143
330
139
100
AcDbEntity
  8
0
 62
     0
100
AcDbLine
 10
135.0541865957149
 20
380.6274606680627
 30
0.0
 11
135.0541865957149
 21
384.0000000000005
 31
0.0
  0
LINE
  5
144
330
139
100
AcDbEntity
  8
0
 62
     0
100
AcDbLine
 10
155.0541865957149
 20
380.6274606680627
 30
0.0
 11
155.0541865957149
 21
384.0000000000005
 31
0.0
  0
ARC
  5
145
330
139
100
AcDbEntity
  8
0
 62
     0
100
AcDbCircle
 10
118.554186595715
 20
384.0000000000005
 30
0.0
 40
0.5
100
AcDbArc
 50
90.0
 51
180.0
  0
ARC
  5
146
330
139
100
AcDbEntity
  8
0
 62
     0
100
AcDbCircle
 10
97.55418659571502
 20
384.0000000000005
 30
0.0
 40
0.5
100
AcDbArc
 50
0.0
 51
90.0
  0
LINE
  5
147
330
139
100
AcDbEntity
  8
0
 62
     0
100
AcDbLine
 10
98.054186595715
 20
380.6274606680627
 30
0.0
 11
98.054186595715
 21
384.0000000000005
 31
0.0
  0
LINE
  5
148
330
139
100
AcDbEntity
  8
0
 62
     0
100
AcDbLine
 10
118.054186595715
 20
380.6274606680627
 30
0.0
 11
118.054186595715
 21
384.0000000000005
 31
0.0
  0
LINE
  5
149
330
139
100
AcDbEntity
  8
0
 62
     0
100
AcDbLine
 10
82.55418659571478
 20
396.5000000000001
 30
0.0
 11
82.55418659571478
 21
400.0
 31
0.0
  0
LINE
  5
14A
330
139
100
AcDbEntity
  8
0
 62
     0
100
AcDbLine
 10
92.55418659571502
 20
396.4999999999999
 30
0.0
 11
92.55418659571455
 21
400.0
 31
0.0
  0
ARC
  5
14B
330
139
100
AcDbEntity
  8
0
 62
     0
100
AcDbCircle
 10
160.7945062017726
 20
386.5000000000001
 30
0.0
 40
10.0
100
AcDbArc
 50
0.0
 51
90.0
  0
ARC
  5
14C
330
139
100
AcDbEntity
  8
0
 62
     0
100
AcDbCircle
 10
168.7945062017726
 20
386.5000000000001
 30
0.0
 40
2.0
100
AcDbArc
 50
270.0
 51
0.0
  0
ARC
  5
14D
330
139
100
AcDbEntity
  8
0
 62
     0
100
AcDbCircle
 10
109.554186595715
 20
398.0000000000001
 30
0.0
 40
2.0
100
AcDbArc
 50
90.0
 51
180.0
  0
LINE
  5
14E
330
139
100
AcDbEntity
  8
0
 62
     0
100
AcDbLine
 10
107.554186595715
 20
396.4999999999999
 30
0.0
 11
107.554186595715
 21
398.0000000000001
 31
0.0
  0
ARC
  5
14F
330
139
100
AcDbEntity
  8
0
 62
     0
100
AcDbCircle
 10
158.0541865957154
 20
402.0000000000001
 30
0.0
 40
10.0
100
AcDbArc
 50
0.0
 51
90.0
  0
ARC
  5
150
330
139
100
AcDbEntity
  8
0
 62
     0
100
AcDbCircle
 10
166.0541865957154
 20
402.0000000000001
 30
0.0
 40
2.0
100
AcDbArc
 50
270.0
 51
0.0
  0
ARC
  5
151
330
139
100
AcDbEntity
  8
0
 62
     0
100
AcDbCircle
 10
-154.8976307329593
 20
384.0000000000001
 30
0.0
 40
0.5
100
AcDbArc
 50
0.0
 51
90.0
  0
ARC
  5
152
330
139
100
AcDbEntity
  8
0
 62
     0
100
AcDbCircle
 10
-133.8976307329593
 20
384.0000000000001
 30
0.0
 40
0.5
100
AcDbArc
 50
90.0
 51
180.0
  0
LINE
  5
153
330
139
100
AcDbEntity
  8
0
 62
     0
100
AcDbLine
 10
-134.3976307329593
 20
380.6274606680623
 30
0.0
 11
-134.3976307329593
 21
384.0000000000001
 31
0.0
  0
LINE
  5
154
330
139
100
AcDbEntity
  8
0
 62
     0
100
AcDbLine
 10
-154.3976307329593
 20
380.6274606680623
 30
0.0
 11
-154.3976307329593
 21
384.0000000000001
 31
0.0
  0
ARC
  5
155
330
139
100
AcDbEntity
  8
0
 62
     0
100
AcDbCircle
 10
-117.8976307329591
 20
384.0000000000001
 30
0.0
 40
0.5
100
AcDbArc
 50
0.0
 51
90.0
  0
ARC
  5
156
330
139
100
AcDbEntity
  8
0
 62
     0
100
AcDbCircle
 10
-96.8976307329591
 20
384.0000000000001
 30
0.0
 40
0.5
100
AcDbArc
 50
90.0
 51
180.0
  0
LINE
  5
157
330
139
100
AcDbEntity
  8
0
 62
     0
100
AcDbLine
 10
-97.39763073295932
 20
380.6274606680623
 30
0.0
 11
-97.39763073295932
 21
384.0000000000001
 31
0.0
  0
LINE
  5
158
330
139
100
AcDbEntity
  8
0
 62
     0
100
AcDbLine
 10
-117.3976307329593
 20
380.6274606680623
 30
0.0
 11
-117.3976307329593
 21
384.0000000000001
 31
0.0
  0
LINE
  5
159
330
139
100
AcDbEntity
  8
0
 62
     0
100
AcDbLine
 10
-81.8976307329591
 20
396.4999999999997
 30
0.0
 11
-81.8976307329591
 21
399.9999999999997
 31
0.0
  0
LINE
  5
15A
330
139
100
AcDbEntity
  8
0
 62
     0
100
AcDbLine
 10
-91.89763073295933
 20
396.4999999999994
 30
0.0
 11
-91.89763073295887
 21
399.9999999999997
 31
0.0
  0
LINE
  5
15B
330
139
100
AcDbEntity
  8
0
 62
     0
100
AcDbLine
 10
-168.137950339017
 20
384.5000000000012
 30
0.0
 11
168.7945062017726
 21
384.4999999999939
 31
0.0
  0
LINE
  5
15C
330
139
100
AcDbEntity
  8
0
 62
     0
100
AcDbLine
 10
-160.137950339017
 20
396.4999999999997
 30
0.0
 11
160.7945062017726
 21
396.4999999999997
 31
0.0
  0
ARC
  5
15D
330
139
100
AcDbEntity
  8
0
 62
     0
100
AcDbCircle
 10
-160.137950339017
 20
386.4999999999996
 30
0.0
 40
10.0
100
AcDbArc
 50
90.0
 51
180.0
  0
ARC
  5
15E
330
139
100
AcDbEntity
  8
0
 62
     0
100
AcDbCircle
 10
-168.137950339017
 20
386.4999999999996
 30
0.0
 40
2.0
100
AcDbArc
 50
180.0
 51
270.0
  0
ARC
  5
15F
330
139
100
AcDbEntity
  8
0
 62
     0
100
AcDbCircle
 10
-108.8976307329593
 20
397.9999999999997
 30
0.0
 40
2.0
100
AcDbArc
 50
0.0
 51
90.0
  0
LINE
  5
160
330
139
100
AcDbEntity
  8
0
 62
     0
100
AcDbLine
 10
166.0541865957154
 20
400.0000000000003
 30
0.0
 11
-165.3976307329595
 21
399.9999999999997
 31
0.0
  0
LINE
  5
161
330
139
100
AcDbEntity
  8
0
 62
     0
100
AcDbLine
 10
-106.8976307329593
 20
396.4999999999994
 30
0.0
 11
-106.8976307329593
 21
397.9999999999997
 31
0.0
  0
ARC
  5
162
330
139
100
AcDbEntity
  8
0
 62
     0
100
AcDbCircle
 10
-157.3976307329595
 20
401.9999999999996
 30
0.0
 40
10.0
100
AcDbArc
 50
90.0
 51
180.0
  0
ARC
  5
163
330
139
100
AcDbEntity
  8
0
 62
     0
100
AcDbCircle
 10
-165.3976307329595
 20
401.9999999999996
 30
0.0
 40
2.0
100
AcDbArc
 50
180.0
 51
270.0
  0
LINE
  5
164
330
139
100
AcDbEntity
  8
0
 62
     0
100
AcDbLine
 10
158.0541865957154
 20
412.0
 30
0.0
 11
-157.3976307329595
 21
411.9999999999996
 31
0.0
  0
ARC
  5
165
330
139
100
AcDbEntity
  8
0
100
AcDbCircle
 10
65.0
 20
380.0
 30
0.0
 40
240.0
100
AcDbArc
 50
181.9761082857144
 51
223.9853783499603
  0
ARC
  5
166
330
139
100
AcDbEntity
  8
0
100
AcDbCircle
 10
-64.99999999999636
 20
380.0
 30
0.0
 40
240.0
100
AcDbArc
 50
316.0146216500397
 51
358.0238917142856
  0
ARC
  5
167
330
139
100
AcDbEntity
  8
0
100
AcDbCircle
 10
0.0
 20
398.6928542803799
 30
0.0
 40
218.604078403651
100
AcDbArc
 50
270.0
 51
290.2287446809708
  0
LINE
  5
168
330
139
100
AcDbEntity
  8
0
100
AcDbLine
 10
0.0
 20
0.0
 30
0.0
 11
107.5
 21
0.0
 31
0.0
  0
ARC
  5
169
330
139
100
AcDbEntity
  8
0
100
AcDbCircle
 10
0.0
 20
398.6928542803799
 30
0.0
 40
218.604078403651
100
AcDbArc
 50
249.7712553190293
 51
270.0
  0
LINE
  5
16A
330
139
100
AcDbEntity
  8
0
100
AcDbLine
 10
-107.5
 20
0.0
 30
0.0
 11
-100.6872478143668
 21
195.0916971415063
 31
0.0
  0
ARC
  5
16B
330
139
100
AcDbEntity
  8
0
100
AcDbCircle
 10
-125.672018489844
 20
195.9641845590686
 30
0.0
 40
25.0
100
AcDbArc
 50
358.0000000000029
 51
43.98537834996031
  0
LINE
  5
16C
330
139
100
AcDbEntity
  8
0
100
AcDbLine
 10
0.0
 20
0.0
 30
0.0
 11
-107.5
 21
0.0
 31
0.0
  0
ARC
  5
16D
330
139
100
AcDbEntity
  8
0
100
AcDbCircle
 10
125.6720184898477
 20
195.9641845590686
 30
0.0
 40
25.0
100
AcDbArc
 50
136.0146216500396
 51
181.9999999999971
  0
LINE
  5
16E
330
139
100
AcDbEntity
  8
0
100
AcDbLine
 10
107.5
 20
0.0
 30
0.0
 11
100.6872478143668
 21
195.0916971415063
 31
0.0
  0
ARC
  5
16F
330
139
100
AcDbEntity
  8
0
100
AcDbCircle
 10
-1654.12961641026
 20
745.0
 30
0.0
 40
1844.129616410262
100
AcDbArc
 50
349.9164150763334
 51
359.9377939638324
1001
ACAD
1000
ASC_BOUNDS
1002
{
1070
    19
1002
}
  0
ARC
  5
170
330
139
100
AcDbEntity
  8
0
100
AcDbCircle
 10
1654.129616410266
 20
745.0
 30
0.0
 40
1844.129616410262
100
AcDbArc
 50
180.0622060361676
 51
190.0835849236665
1001
ACAD
1000
ASC_BOUNDS
1002
{
1070
    19
1002
}
  0
LINE
  5
171
330
139
100
AcDbEntity
  8
0
100
AcDbLine
 10
0.0
 20
380.0
 30
0.0
 11
166.8903903865284
 21
380.0
 31
0.0
  0
ARC
  5
172
330
139
100
AcDbEntity
  8
0
100
AcDbCircle
 10
-117.2095314223952
 20
430.0
 30
0.0
 40
45.0
100
AcDbArc
 50
190.0835849236665
 51
203.6523388681959
1001
ACAD
1000
ASC_BOUNDS
1002
{
1070
    19
1002
}
  0
LINE
  5
173
330
139
100
AcDbEntity
  8
0
100
AcDbLine
 10
0.0
 20
380.0
 30
0.0
 11
-166.8903903865285
 21
380.0
 31
0.0
  0
ARC
  5
174
330
139
100
AcDbEntity
  8
0
100
AcDbCircle
 10
-166.8620279390307
 20
372.0
 30
0.0
 40
8.0
100
AcDbArc
 50
90.0
 51
181.9761082857144
  0
ARC
  5
175
330
139
100
AcDbEntity
  8
0
100
AcDbCircle
 10
166.8620279390342
 20
372.0
 30
0.0
 40
8.0
100
AcDbArc
 50
358.0238917142856
 51
90.0
  0
LINE
  5
176
330
139
100
AcDbEntity
  8
0
100
AcDbLine
 10
194.1819962036497
 20
747.0
 30
0.0
 11
-194.1819962036461
 21
747.0
 31
0.0
  0
ARC
  5
177
330
139
100
AcDbEntity
  8
0
100
AcDbCircle
 10
1.181996203649759
 20
-1681.345306956335
 30
0.0
 40
2456.535050579626
100
AcDbArc
 50
85.97643143716689
 51
90.02756866695111
  0
LINE
  5
178
330
139
100
AcDbEntity
  8
0
100
AcDbLine
 10
0.0
 20
767.1897436232902
 30
0.0
 11
133.3311262835668
 21
767.1897436232902
 31
0.0
  0
LINE
  5
179
330
139
100
AcDbEntity
  8
0
100
AcDbLine
 10
-187.9989142997474
 20
745.0
 30
0.0
 11
187.9989142997473
 21
745.0
 31
0.0
1001
ACAD
1000
ASC_BOUNDS
1002
{
1070
    19
1002
}
  0
LINE
  5
17A
330
139
100
AcDbEntity
  8
0
100
AcDbLine
 10
0.0
 20
767.1897436232902
 30
0.0
 11
-133.3311262835668
 21
767.1897436232902
 31
0.0
  0
ARC
  5
17B
330
139
100
AcDbEntity
  8
0
100
AcDbCircle
 10
-139.3311262835668
 20
764.1897436232902
 30
0.0
 40
5.0
100
AcDbArc
 50
53.13010235412992
 51
90.0
  0
ARC
  5
17C
330
139
100
AcDbEntity
  8
0
100
AcDbCircle
 10
-133.3311262835668
 20
772.1897436232902
 30
0.0
 40
5.0
100
AcDbArc
 50
233.1301023541299
 51
270.0
  0
ARC
  5
17D
330
139
100
AcDbEntity
  8
0
100
AcDbCircle
 10
-171.9922525803559
 20
747.0
 30
0.0
 40
22.18974362329169
100
AcDbArc
 50
90.0
 51
180.0
  0
LINE
  5
17E
330
139
100
AcDbEntity
  8
0
100
AcDbLine
 10
-139.3311262835668
 20
769.1897436232903
 30
0.0
 11
-173.2864370410171
 21
769.1897436232903
 31
0.0
  0
LINE
  5
17F
330
139
100
AcDbEntity
  8
0
100
AcDbLine
 10
-180.1819962036461
 20
747.0
 30
0.0
 11
-179.4540557351138
 21
745.0
 31
0.0
1001
ACAD
1000
ASC_BOUNDS
1002
{
1070
    19
1002
}
  0
ARC
  5
180
330
139
100
AcDbEntity
  8
0
100
AcDbCircle
 10
-1.181996203646122
 20
-1681.345306956335
 30
0.0
 40
2456.535050579626
100
AcDbArc
 50
89.97243133315311
 51
94.0235685628331
  0
ARC
  5
181
330
139
100
AcDbEntity
  8
0
100
AcDbCircle
 10
-187.9989142997474
 20
743.0
 30
0.0
 40
2.0
100
AcDbArc
 50
90.0
 51
180.0622060361611
1001
ACAD
1000
ASC_BOUNDS
1002
{
1070
    19
1002
}
  0
ARC
  5
182
330
139
100
AcDbEntity
  8
0
100
AcDbCircle
 10
187.9989142997473
 20
743.0
 30
0.0
 40
2.0
100
AcDbArc
 50
359.9377939638388
 51
90.0
1001
ACAD
1000
ASC_BOUNDS
1002
{
1070
    19
1002
}
  0
LINE
  5
183
330
139
100
AcDbEntity
  8
0
100
AcDbLine
 10
180.1819962036497
 20
747.0
 30
0.0
 11
179.4540557351174
 21
745.0
 31
0.0
1001
ACAD
1000
ASC_BOUNDS
1002
{
1070
    19
1002
}
  0
LINE
  5
184
330
139
100
AcDbEntity
  8
0
100
AcDbLine
 10
139.3311262835668
 20
769.1897436232903
 30
0.0
 11
173.286437041017
 21
769.1897436232903
 31
0.0
  0
ARC
  5
185
330
139
100
AcDbEntity
  8
0
100
AcDbCircle
 10
171.9922525803594
 20
747.0
 30
0.0
 40
22.18974362329169
100
AcDbArc
 50
0.0
 51
90.0
  0
ARC
  5
186
330
139
100
AcDbEntity
  8
0
100
AcDbCircle
 10
133.3311262835668
 20
772.1897436232902
 30
0.0
 40
5.0
100
AcDbArc
 50
270.0
 51
306.8698976458701
  0
ARC
  5
187
330
139
100
AcDbEntity
  8
0
100
AcDbCircle
 10
139.3311262835668
 20
764.1897436232902
 30
0.0
 40
5.0
100
AcDbArc
 50
90.0
 51
126.86989764587
  0
ENDBLK
  5
188
330
139
100
AcDbEntity
  8
0
100
AcDbBlockEnd
  0
ENDSEC
  0
SECTION
  2
ENTITIES
  0
MTEXT
  5
D0
330
1F
100
AcDbEntity
  8
0
100
AcDbMText
 10
105.1501961494392
 20
67.493158789344
 30
0.0
 40
20.0
 41
1133.185185185185
 71
     1
 72
     5
  1
{\fTimes New Roman|b0|i0|c0|p18;\C0;INODORO DE TANQUE BAJO CON SALIDA HORIZONTAL\PSERIE ELIA}
 73
     1
 44
1.0
  0
INSERT
  5
18E
330
1F
100
AcDbEntity
  8
0
100
AcDbBlockReference
  2
18150_A
 10
435.4152101460672
 20
114.1666784044947
 30
0.0
  0
ENDSEC
  0
SECTION
  2
OBJECTS
  0
DICTIONARY
  5
C
330
0
100
AcDbDictionary
281
     1
  3
ACAD_COLOR
350
73
  3
ACAD_GROUP
350
D
  3
ACAD_LAYOUT
350
1A
  3
ACAD_MATERIAL
350
72
  3
ACAD_MLINESTYLE
350
17
  3
ACAD_PLOTSETTINGS
350
19
  3
ACAD_PLOTSTYLENAME
350
E
  3
AcDbVariableDictionary
350
66
  0
DICTIONARY
  5
96
330
2
100
AcDbDictionary
280
     1
281
     1
  3
ACAD_LAYERSTATES
360
97
  0
DICTIONARY
  5
73
102
{ACAD_REACTORS
330
C
102
}
330
C
100
AcDbDictionary
281
     1
  0
DICTIONARY
  5
D
102
{ACAD_REACTORS
330
C
102
}
330
C
100
AcDbDictionary
281
     1
  0
DICTIONARY
  5
1A
102
{ACAD_REACTORS
330
C
102
}
330
C
100
AcDbDictionary
281
     1
  3
Model
350
22
  3
Presentación1
350
59
  3
Presentación2
350
5E
  0
DICTIONARY
  5
72
102
{ACAD_REACTORS
330
C
102
}
330
C
100
AcDbDictionary
281
     1
  0
DICTIONARY
  5
17
102
{ACAD_REACTORS
330
C
102
}
330
C
100
AcDbDictionary
281
     1
  3
Standard
350
18
  0
DICTIONARY
  5
19
102
{ACAD_REACTORS
330
C
102
}
330
C
100
AcDbDictionary
281
     1
  0
ACDBDICTIONARYWDFLT
  5
E
102
{ACAD_REACTORS
330
C
102
}
330
C
100
AcDbDictionary
281
     1
  3
Normal
350
F
100
AcDbDictionaryWithDefault
340
F
  0
DICTIONARY
  5
66
102
{ACAD_REACTORS
330
C
102
}
330
C
100
AcDbDictionary
281
     1
  3
DIMASSOC
350
67
  3
HIDETEXT
350
6B
  0
DICTIONARY
  5
97
102
{ACAD_REACTORS
330
96
102
}
330
96
100
AcDbDictionary
281
     1
  0
LAYOUT
  5
22
102
{ACAD_REACTORS
330
1A
102
}
330
1A
100
AcDbPlotSettings
  1

  2
none_device
  4
ANSI_A_(8.50_x_11.00_Inches)
  6

 40
6.349999904632567
 41
19.04999923706055
 42
6.350006103515625
 43
19.04998779296875
 44
215.8999938964844
 45
279.3999938964844
 46
0.0
 47
0.0
 48
0.0
 49
0.0
140
0.0
141
0.0
142
1.0
143
2.584895464708373
 70
 11952
 72
     0
 73
     1
 74
     0
  7

 75
     0
147
0.3868628397755418
 76
     0
 77
     2
 78
   300
148
0.0
149
0.0
100
AcDbLayout
  1
Model
 70
     1
 71
     0
 10
0.0
 20
0.0
 11
12.0
 21
9.0
 12
0.0
 22
0.0
 32
0.0
 14
0.0
 24
0.0
 34
0.0
 15
0.0
 25
0.0
 35
0.0
146
0.0
 13
0.0
 23
0.0
 33
0.0
 16
1.0
 26
0.0
 36
0.0
 17
0.0
 27
1.0
 37
0.0
 76
     0
330
1F
  0
LAYOUT
  5
59
102
{ACAD_REACTORS
330
1A
102
}
330
1A
100
AcDbPlotSettings
  1

  2
None
  4

  6

 40
0.0
 41
0.0
 42
0.0
 43
0.0
 44
0.0
 45
0.0
 46
0.0
 47
0.0
 48
0.0
 49
0.0
140
0.0
141
0.0
142
1.0
143
1.0
 70
   688
 72
     0
 73
     0
 74
     5
  7

 75
    16
147
1.0
 76
     0
 77
     2
 78
   300
148
0.0
149
0.0
100
AcDbLayout
  1
Presentación1
 70
     1
 71
     1
 10
0.0
 20
0.0
 11
12.0
 21
9.0
 12
0.0
 22
0.0
 32
0.0
 14
0.0
 24
0.0
 34
0.0
 15
0.0
 25
0.0
 35
0.0
146
0.0
 13
0.0
 23
0.0
 33
0.0
 16
1.0
 26
0.0
 36
0.0
 17
0.0
 27
1.0
 37
0.0
 76
     0
330
58
  0
LAYOUT
  5
5E
102
{ACAD_REACTORS
330
1A
102
}
330
1A
100
AcDbPlotSettings
  1

  2
None
  4

  6

 40
0.0
 41
0.0
 42
0.0
 43
0.0
 44
0.0
 45
0.0
 46
0.0
 47
0.0
 48
0.0
 49
0.0
140
0.0
141
0.0
142
1.0
143
1.0
 70
   688
 72
     0
 73
     0
 74
     5
  7

 75
    16
147
1.0
 76
     0
 77
     2
 78
   300
148
0.0
149
0.0
100
AcDbLayout
  1
Presentación2
 70
     1
 71
     2
 10
0.0
 20
0.0
 11
12.0
 21
9.0
 12
0.0
 22
0.0
 32
0.0
 14
0.0
 24
0.0
 34
0.0
 15
0.0
 25
0.0
 35
0.0
146
0.0
 13
0.0
 23
0.0
 33
0.0
 16
1.0
 26
0.0
 36
0.0
 17
0.0
 27
1.0
 37
0.0
 76
     0
330
5D
  0
MLINESTYLE
  5
18
102
{ACAD_REACTORS
330
17
102
}
330
17
100
AcDbMlineStyle
  2
STANDARD
 70
     0
  3

 62
   256
 51
90.0
 52
90.0
 71
     2
 49
0.5
 62
   256
  6
BYLAYER
 49
-0.5
 62
   256
  6
BYLAYER
  0
ACDBPLACEHOLDER
  5
F
102
{ACAD_REACTORS
330
E
102
}
330
E
  0
DICTIONARYVAR
  5
67
102
{ACAD_REACTORS
330
66
102
}
330
66
100
DictionaryVariables
280
     0
  1
2
  0
DICTIONARYVAR
  5
6B
102
{ACAD_REACTORS
330
66
102
}
330
66
100
DictionaryVariables
280
     0
  1
1
  0
ENDSEC
  0
EOF
