  0
SECTION
  2
HEADER
  9
$ACADVER
  1
AC1015
  9
$ACADMAINTVER
 70
     6
  9
$DWGCODEPAGE
  3
ASCII
  9
$INSBASE
 10
0.0
 20
0.0
 30
0.0
  9
$EXTMIN
 10
1.000000000000000E+20
 20
1.000000000000000E+20
 30
1.000000000000000E+20
  9
$EXTMAX
 10
-1.000000000000000E+20
 20
-1.000000000000000E+20
 30
-1.000000000000000E+20
  9
$LIMMIN
 10
0.0
 20
0.0
  9
$LIMMAX
 10
12.0
 20
9.0
  9
$ORTHOMODE
 70
     0
  9
$REGENMODE
 70
     1
  9
$FILLMODE
 70
     1
  9
$QTEXTMODE
 70
     0
  9
$MIRRTEXT
 70
     1
  9
$LTSCALE
 40
1.0
  9
$ATTMODE
 70
     1
  9
$TEXTSIZE
 40
0.2
  9
$TRACEWID
 40
0.05
  9
$TEXTSTYLE
  7
Standard
  9
$CLAYER
  8
0
  9
$CELTYPE
  6
ByLayer
  9
$CECOLOR
 62
   256
  9
$CELTSCALE
 40
1.0
  9
$DISPSILH
 70
     0
  9
$DIMSCALE
 40
1.0
  9
$DIMASZ
 40
0.18
  9
$DIMEXO
 40
0.0625
  9
$DIMDLI
 40
0.38
  9
$DIMRND
 40
0.0
  9
$DIMDLE
 40
0.0
  9
$DIMEXE
 40
0.18
  9
$DIMTP
 40
0.0
  9
$DIMTM
 40
0.0
  9
$DIMTXT
 40
0.18
  9
$DIMCEN
 40
0.09
  9
$DIMTSZ
 40
0.0
  9
$DIMTOL
 70
     0
  9
$DIMLIM
 70
     0
  9
$DIMTIH
 70
     1
  9
$DIMTOH
 70
     1
  9
$DIMSE1
 70
     0
  9
$DIMSE2
 70
     0
  9
$DIMTAD
 70
     0
  9
$DIMZIN
 70
     0
  9
$DIMBLK
  1

  9
$DIMASO
 70
     1
  9
$DIMSHO
 70
     1
  9
$DIMPOST
  1

  9
$DIMAPOST
  1

  9
$DIMALT
 70
     0
  9
$DIMALTD
 70
     2
  9
$DIMALTF
 40
25.4
  9
$DIMLFAC
 40
1.0
  9
$DIMTOFL
 70
     0
  9
$DIMTVP
 40
0.0
  9
$DIMTIX
 70
     0
  9
$DIMSOXD
 70
     0
  9
$DIMSAH
 70
     0
  9
$DIMBLK1
  1

  9
$DIMBLK2
  1

  9
$DIMSTYLE
  2
Standard
  9
$DIMCLRD
 70
     0
  9
$DIMCLRE
 70
     0
  9
$DIMCLRT
 70
     0
  9
$DIMTFAC
 40
1.0
  9
$DIMGAP
 40
0.09
  9
$DIMJUST
 70
     0
  9
$DIMSD1
 70
     0
  9
$DIMSD2
 70
     0
  9
$DIMTOLJ
 70
     1
  9
$DIMTZIN
 70
     0
  9
$DIMALTZ
 70
     0
  9
$DIMALTTZ
 70
     0
  9
$DIMUPT
 70
     0
  9
$DIMDEC
 70
     4
  9
$DIMTDEC
 70
     4
  9
$DIMALTU
 70
     2
  9
$DIMALTTD
 70
     2
  9
$DIMTXSTY
  7
Standard
  9
$DIMAUNIT
 70
     0
  9
$DIMADEC
 70
     0
  9
$DIMALTRND
 40
0.0
  9
$DIMAZIN
 70
     0
  9
$DIMDSEP
 70
    46
  9
$DIMATFIT
 70
     3
  9
$DIMFRAC
 70
     0
  9
$DIMLDRBLK
  1

  9
$DIMLUNIT
 70
     2
  9
$DIMLWD
 70
    -2
  9
$DIMLWE
 70
    -2
  9
$DIMTMOVE
 70
     0
  9
$LUNITS
 70
     2
  9
$LUPREC
 70
     4
  9
$SKETCHINC
 40
0.1
  9
$FILLETRAD
 40
0.5
  9
$AUNITS
 70
     0
  9
$AUPREC
 70
     0
  9
$MENU
  1
.
  9
$ELEVATION
 40
0.0
  9
$PELEVATION
 40
0.0
  9
$THICKNESS
 40
0.0
  9
$LIMCHECK
 70
     0
  9
$CHAMFERA
 40
0.5
  9
$CHAMFERB
 40
0.5
  9
$CHAMFERC
 40
1.0
  9
$CHAMFERD
 40
0.0
  9
$SKPOLY
 70
     0
  9
$TDCREATE
 40
2454996.767893518
  9
$TDUCREATE
 40
2454996.726226852
  9
$TDUPDATE
 40
2454996.76789353
  9
$TDUUPDATE
 40
2454996.726226863
  9
$TDINDWG
 40
0.0000000116
  9
$TDUSRTIMER
 40
0.0000000116
  9
$USRTIMER
 70
     1
  9
$ANGBASE
 50
0.0
  9
$ANGDIR
 70
     0
  9
$PDMODE
 70
     0
  9
$PDSIZE
 40
0.0
  9
$PLINEWID
 40
0.0
  9
$SPLFRAME
 70
     0
  9
$SPLINETYPE
 70
     6
  9
$SPLINESEGS
 70
     8
  9
$HANDSEED
  5
741
  9
$SURFTAB1
 70
     6
  9
$SURFTAB2
 70
     6
  9
$SURFTYPE
 70
     6
  9
$SURFU
 70
     6
  9
$SURFV
 70
     6
  9
$UCSBASE
  2

  9
$UCSNAME
  2

  9
$UCSORG
 10
0.0
 20
0.0
 30
0.0
  9
$UCSXDIR
 10
1.0
 20
0.0
 30
0.0
  9
$UCSYDIR
 10
0.0
 20
1.0
 30
0.0
  9
$UCSORTHOREF
  2

  9
$UCSORTHOVIEW
 70
     0
  9
$UCSORGTOP
 10
0.0
 20
0.0
 30
0.0
  9
$UCSORGBOTTOM
 10
0.0
 20
0.0
 30
0.0
  9
$UCSORGLEFT
 10
0.0
 20
0.0
 30
0.0
  9
$UCSORGRIGHT
 10
0.0
 20
0.0
 30
0.0
  9
$UCSORGFRONT
 10
0.0
 20
0.0
 30
0.0
  9
$UCSORGBACK
 10
0.0
 20
0.0
 30
0.0
  9
$PUCSBASE
  2

  9
$PUCSNAME
  2

  9
$PUCSORG
 10
0.0
 20
0.0
 30
0.0
  9
$PUCSXDIR
 10
1.0
 20
0.0
 30
0.0
  9
$PUCSYDIR
 10
0.0
 20
1.0
 30
0.0
  9
$PUCSORTHOREF
  2

  9
$PUCSORTHOVIEW
 70
     0
  9
$PUCSORGTOP
 10
0.0
 20
0.0
 30
0.0
  9
$PUCSORGBOTTOM
 10
0.0
 20
0.0
 30
0.0
  9
$PUCSORGLEFT
 10
0.0
 20
0.0
 30
0.0
  9
$PUCSORGRIGHT
 10
0.0
 20
0.0
 30
0.0
  9
$PUCSORGFRONT
 10
0.0
 20
0.0
 30
0.0
  9
$PUCSORGBACK
 10
0.0
 20
0.0
 30
0.0
  9
$USERI1
 70
     0
  9
$USERI2
 70
     0
  9
$USERI3
 70
     0
  9
$USERI4
 70
     0
  9
$USERI5
 70
     0
  9
$USERR1
 40
0.0
  9
$USERR2
 40
0.0
  9
$USERR3
 40
0.0
  9
$USERR4
 40
0.0
  9
$USERR5
 40
0.0
  9
$WORLDVIEW
 70
     1
  9
$SHADEDGE
 70
     3
  9
$SHADEDIF
 70
    70
  9
$TILEMODE
 70
     1
  9
$MAXACTVP
 70
    64
  9
$PINSBASE
 10
0.0
 20
0.0
 30
0.0
  9
$PLIMCHECK
 70
     0
  9
$PEXTMIN
 10
1.000000000000000E+20
 20
1.000000000000000E+20
 30
1.000000000000000E+20
  9
$PEXTMAX
 10
-1.000000000000000E+20
 20
-1.000000000000000E+20
 30
-1.000000000000000E+20
  9
$PLIMMIN
 10
0.0
 20
0.0
  9
$PLIMMAX
 10
12.0
 20
9.0
  9
$UNITMODE
 70
     0
  9
$VISRETAIN
 70
     1
  9
$PLINEGEN
 70
     0
  9
$PSLTSCALE
 70
     1
  9
$TREEDEPTH
 70
  3020
  9
$CMLSTYLE
  2
Standard
  9
$CMLJUST
 70
     0
  9
$CMLSCALE
 40
1.0
  9
$PROXYGRAPHICS
 70
     1
  9
$MEASUREMENT
 70
     0
  9
$CELWEIGHT
370
    -1
  9
$ENDCAPS
280
     0
  9
$JOINSTYLE
280
     0
  9
$LWDISPLAY
290
     1
  9
$INSUNITS
 70
     1
  9
$HYPERLINKBASE
  1

  9
$STYLESHEET
  1

  9
$XEDIT
290
     1
  9
$CEPSNTYPE
380
     0
  9
$PSTYLEMODE
290
     1
  9
$FINGERPRINTGUID
  2
{9245F5B9-0A7E-5B5F-275D-CE54E7A3287F}
  9
$VERSIONGUID
  2
{FAEB1C32-E019-11D5-929B-00C0DF256EC4}
  9
$EXTNAMES
290
     1
  9
$PSVPSCALE
 40
0.0
  9
$OLESTARTUP
290
     0
  0
ENDSEC
  0
SECTION
  2
CLASSES
  0
CLASS
  1
ACDBDICTIONARYWDFLT
  2
AcDbDictionaryWithDefault
  3
ObjectDBX Classes
 90
        0
280
     0
281
     0
  0
CLASS
  1
VISUALSTYLE
  2
AcDbVisualStyle
  3
ObjectDBX Classes
 90
     4095
280
     0
281
     0
  0
CLASS
  1
ACDBPLACEHOLDER
  2
AcDbPlaceHolder
  3
ObjectDBX Classes
 90
        0
280
     0
281
     0
  0
CLASS
  1
LAYOUT
  2
AcDbLayout
  3
ObjectDBX Classes
 90
        0
280
     0
281
     0
  0
ENDSEC
  0
SECTION
  2
TABLES
  0
TABLE
  2
VPORT
  5
8
330
0
100
AcDbSymbolTable
 70
     1
  0
VPORT
  5
29
330
8
100
AcDbSymbolTableRecord
100
AcDbViewportTableRecord
  2
*Active
 70
     0
 10
0.0
 20
0.0
 11
1.0
 21
1.0
 12
0.0
 22
0.0
 13
0.0
 23
0.0
 14
0.5
 24
0.5
 15
0.5
 25
0.5
 16
0.0
 26
0.0
 36
1.0
 17
105.2024334702124
 27
148.2160292723551
 37
0.0
 40
196.398146766271
 41
1.014286941181102
 42
50.0
 43
0.0
 44
0.0
 50
0.0
 51
0.0
 71
     0
 72
   100
 73
     1
 74
     3
 75
     0
 76
     0
 77
     0
 78
     0
281
     0
 65
     1
110
0.0
120
0.0
130
0.0
111
1.0
121
0.0
131
0.0
112
0.0
122
1.0
132
0.0
 79
     0
146
0.0
  0
ENDTAB
  0
TABLE
  2
LTYPE
  5
5
330
0
100
AcDbSymbolTable
 70
    21
  0
LTYPE
  5
14
330
5
100
AcDbSymbolTableRecord
100
AcDbLinetypeTableRecord
  2
ByBlock
 70
     0
  3

 72
    65
 73
     0
 40
0.0
  0
LTYPE
  5
15
330
5
100
AcDbSymbolTableRecord
100
AcDbLinetypeTableRecord
  2
ByLayer
 70
     0
  3

 72
    65
 73
     0
 40
0.0
  0
LTYPE
  5
16
330
5
100
AcDbSymbolTableRecord
100
AcDbLinetypeTableRecord
  2
Continuous
 70
     0
  3
Solid line
 72
    65
 73
     0
 40
0.0
  0
LTYPE
  5
227
330
5
100
AcDbSymbolTableRecord
100
AcDbLinetypeTableRecord
  2
AI-Linetype-1
 70
     0
  3
Adobe Illustrator Linetype No. 1
 72
    65
 73
     4
 40
58.40468711533073
 49
36.50292894242871
 74
     0
 49
-7.300586057634004
 74
     0
 49
7.300586057634004
 74
     0
 49
-7.300586057634004
 74
     0
  0
LTYPE
  5
230
330
5
100
AcDbSymbolTableRecord
100
AcDbLinetypeTableRecord
  2
AI-Linetype-2
 70
     0
  3
Adobe Illustrator Linetype No. 2
 72
    65
 73
     4
 40
58.40468711533073
 49
36.50292894242871
 74
     0
 49
-7.300586057634004
 74
     0
 49
7.300586057634004
 74
     0
 49
-7.300586057634004
 74
     0
  0
LTYPE
  5
239
330
5
100
AcDbSymbolTableRecord
100
AcDbLinetypeTableRecord
  2
AI-Linetype-3
 70
     0
  3
Adobe Illustrator Linetype No. 3
 72
    65
 73
     4
 40
58.40468711533073
 49
36.50292894242871
 74
     0
 49
-7.300586057634004
 74
     0
 49
7.300586057634004
 74
     0
 49
-7.300586057634004
 74
     0
  0
LTYPE
  5
242
330
5
100
AcDbSymbolTableRecord
100
AcDbLinetypeTableRecord
  2
AI-Linetype-4
 70
     0
  3
Adobe Illustrator Linetype No. 4
 72
    65
 73
     4
 40
58.40468711533073
 49
36.50292894242871
 74
     0
 49
-7.300586057634004
 74
     0
 49
7.300586057634004
 74
     0
 49
-7.300586057634004
 74
     0
  0
LTYPE
  5
24B
330
5
100
AcDbSymbolTableRecord
100
AcDbLinetypeTableRecord
  2
AI-Linetype-5
 70
     0
  3
Adobe Illustrator Linetype No. 5
 72
    65
 73
     4
 40
58.40468711533073
 49
36.50292894242871
 74
     0
 49
-7.300586057634004
 74
     0
 49
7.300586057634004
 74
     0
 49
-7.300586057634004
 74
     0
  0
LTYPE
  5
254
330
5
100
AcDbSymbolTableRecord
100
AcDbLinetypeTableRecord
  2
AI-Linetype-6
 70
     0
  3
Adobe Illustrator Linetype No. 6
 72
    65
 73
     4
 40
58.40468711533073
 49
36.50292894242871
 74
     0
 49
-7.300586057634004
 74
     0
 49
7.300586057634004
 74
     0
 49
-7.300586057634004
 74
     0
  0
LTYPE
  5
25A
330
5
100
AcDbSymbolTableRecord
100
AcDbLinetypeTableRecord
  2
AI-Linetype-7
 70
     0
  3
Adobe Illustrator Linetype No. 7
 72
    65
 73
     2
 40
8.213159314838254
 49
5.475439543225503
 74
     0
 49
-2.737719771612752
 74
     0
  0
LTYPE
  5
260
330
5
100
AcDbSymbolTableRecord
100
AcDbLinetypeTableRecord
  2
AI-Linetype-8
 70
     0
  3
Adobe Illustrator Linetype No. 8
 72
    65
 73
     2
 40
8.213159314838254
 49
5.475439543225503
 74
     0
 49
-2.737719771612752
 74
     0
  0
LTYPE
  5
269
330
5
100
AcDbSymbolTableRecord
100
AcDbLinetypeTableRecord
  2
AI-Linetype-9
 70
     0
  3
Adobe Illustrator Linetype No. 9
 72
    65
 73
     2
 40
8.213159314838254
 49
5.475439543225503
 74
     0
 49
-2.737719771612752
 74
     0
  0
LTYPE
  5
272
330
5
100
AcDbSymbolTableRecord
100
AcDbLinetypeTableRecord
  2
AI-Linetype-10
 70
     0
  3
Adobe Illustrator Linetype No. 10
 72
    65
 73
     2
 40
8.213159314838254
 49
5.475439543225503
 74
     0
 49
-2.737719771612752
 74
     0
  0
LTYPE
  5
27B
330
5
100
AcDbSymbolTableRecord
100
AcDbLinetypeTableRecord
  2
AI-Linetype-11
 70
     0
  3
Adobe Illustrator Linetype No. 11
 72
    65
 73
     4
 40
58.40468711533073
 49
36.50292894242871
 74
     0
 49
-7.300586057634004
 74
     0
 49
7.300586057634004
 74
     0
 49
-7.300586057634004
 74
     0
  0
LTYPE
  5
284
330
5
100
AcDbSymbolTableRecord
100
AcDbLinetypeTableRecord
  2
AI-Linetype-12
 70
     0
  3
Adobe Illustrator Linetype No. 12
 72
    65
 73
     4
 40
58.40468711533073
 49
36.50292894242871
 74
     0
 49
-7.300586057634004
 74
     0
 49
7.300586057634004
 74
     0
 49
-7.300586057634004
 74
     0
  0
LTYPE
  5
28A
330
5
100
AcDbSymbolTableRecord
100
AcDbLinetypeTableRecord
  2
AI-Linetype-13
 70
     0
  3
Adobe Illustrator Linetype No. 13
 72
    65
 73
     2
 40
8.213159314838254
 49
5.475439543225503
 74
     0
 49
-2.737719771612752
 74
     0
  0
LTYPE
  5
290
330
5
100
AcDbSymbolTableRecord
100
AcDbLinetypeTableRecord
  2
AI-Linetype-14
 70
     0
  3
Adobe Illustrator Linetype No. 14
 72
    65
 73
     2
 40
8.213159314838254
 49
5.475439543225503
 74
     0
 49
-2.737719771612752
 74
     0
  0
LTYPE
  5
299
330
5
100
AcDbSymbolTableRecord
100
AcDbLinetypeTableRecord
  2
AI-Linetype-15
 70
     0
  3
Adobe Illustrator Linetype No. 15
 72
    65
 73
     2
 40
8.213159314838254
 49
5.475439543225503
 74
     0
 49
-2.737719771612752
 74
     0
  0
LTYPE
  5
2A2
330
5
100
AcDbSymbolTableRecord
100
AcDbLinetypeTableRecord
  2
AI-Linetype-16
 70
     0
  3
Adobe Illustrator Linetype No. 16
 72
    65
 73
     2
 40
8.213159314838254
 49
5.475439543225503
 74
     0
 49
-2.737719771612752
 74
     0
  0
LTYPE
  5
59A
330
5
100
AcDbSymbolTableRecord
100
AcDbLinetypeTableRecord
  2
AI-Linetype-17
 70
     0
  3
Adobe Illustrator Linetype No. 17
 72
    65
 73
     4
 40
58.40468711533073
 49
36.50292894242871
 74
     0
 49
-7.300586057634004
 74
     0
 49
7.300586057634004
 74
     0
 49
-7.300586057634004
 74
     0
  0
LTYPE
  5
5A3
330
5
100
AcDbSymbolTableRecord
100
AcDbLinetypeTableRecord
  2
AI-Linetype-18
 70
     0
  3
Adobe Illustrator Linetype No. 18
 72
    65
 73
     4
 40
58.40468711533073
 49
36.50292894242871
 74
     0
 49
-7.300586057634004
 74
     0
 49
7.300586057634004
 74
     0
 49
-7.300586057634004
 74
     0
  0
LTYPE
  5
5AC
330
5
100
AcDbSymbolTableRecord
100
AcDbLinetypeTableRecord
  2
AI-Linetype-19
 70
     0
  3
Adobe Illustrator Linetype No. 19
 72
    65
 73
     4
 40
58.40468711533073
 49
36.50292894242871
 74
     0
 49
-7.300586057634004
 74
     0
 49
7.300586057634004
 74
     0
 49
-7.300586057634004
 74
     0
  0
LTYPE
  5
5B5
330
5
100
AcDbSymbolTableRecord
100
AcDbLinetypeTableRecord
  2
AI-Linetype-20
 70
     0
  3
Adobe Illustrator Linetype No. 20
 72
    65
 73
     4
 40
58.40468711533073
 49
36.50292894242871
 74
     0
 49
-7.300586057634004
 74
     0
 49
7.300586057634004
 74
     0
 49
-7.300586057634004
 74
     0
  0
ENDTAB
  0
TABLE
  2
LAYER
  5
2
330
0
100
AcDbSymbolTable
 70
     2
  0
LAYER
  5
10
330
2
100
AcDbSymbolTableRecord
100
AcDbLayerTableRecord
  2
0
 70
     0
 62
     7
  6
Continuous
370
    -3
390
F
  0
LAYER
  5
3B
330
2
100
AcDbSymbolTableRecord
100
AcDbLayerTableRecord
  2
Capa 1
 70
     0
 62
     7
  6
Continuous
370
    -3
390
F
  0
ENDTAB
  0
TABLE
  2
STYLE
  5
3
330
0
100
AcDbSymbolTable
 70
     1
  0
STYLE
  5
11
330
3
100
AcDbSymbolTableRecord
100
AcDbTextStyleTableRecord
  2
Standard
 70
     0
 40
0.0
 41
1.0
 50
0.0
 71
     0
 42
0.2
  3
txt
  4

  0
ENDTAB
  0
TABLE
  2
VIEW
  5
6
330
0
100
AcDbSymbolTable
 70
     0
  0
ENDTAB
  0
TABLE
  2
UCS
  5
7
330
0
100
AcDbSymbolTable
 70
     0
  0
ENDTAB
  0
TABLE
  2
APPID
  5
9
330
0
100
AcDbSymbolTable
 70
     1
  0
APPID
  5
12
330
9
100
AcDbSymbolTableRecord
100
AcDbRegAppTableRecord
  2
ACAD
 70
     0
  0
ENDTAB
  0
TABLE
  2
DIMSTYLE
  5
A
330
0
100
AcDbSymbolTable
 70
     1
100
AcDbDimStyleTable
  0
DIMSTYLE
105
27
330
A
100
AcDbSymbolTableRecord
100
AcDbDimStyleTableRecord
  2
Standard
 70
     0
340
11
  0
ENDTAB
  0
TABLE
  2
BLOCK_RECORD
  5
1
330
0
100
AcDbSymbolTable
 70
   191
  0
BLOCK_RECORD
  5
1F
330
1
100
AcDbSymbolTableRecord
100
AcDbBlockTableRecord
  2
*Model_Space
340
22
  0
BLOCK_RECORD
  5
1B
330
1
100
AcDbSymbolTableRecord
100
AcDbBlockTableRecord
  2
*Paper_Space
340
1E
  0
BLOCK_RECORD
  5
23
330
1
100
AcDbSymbolTableRecord
100
AcDbBlockTableRecord
  2
*Paper_Space0
340
26
  0
BLOCK_RECORD
  5
3C
330
1
100
AcDbSymbolTableRecord
100
AcDbBlockTableRecord
  2
block 2
340
0
102
{BLKREFS
331
3D
102
}
  0
BLOCK_RECORD
  5
44
330
1
100
AcDbSymbolTableRecord
100
AcDbBlockTableRecord
  2
block 3
340
0
102
{BLKREFS
331
45
102
}
  0
BLOCK_RECORD
  5
7B
330
1
100
AcDbSymbolTableRecord
100
AcDbBlockTableRecord
  2
block 4
340
0
102
{BLKREFS
331
7C
102
}
  0
BLOCK_RECORD
  5
80
330
1
100
AcDbSymbolTableRecord
100
AcDbBlockTableRecord
  2
block 5
340
0
102
{BLKREFS
331
81
102
}
  0
BLOCK_RECORD
  5
88
330
1
100
AcDbSymbolTableRecord
100
AcDbBlockTableRecord
  2
block 6
340
0
102
{BLKREFS
331
89
102
}
  0
BLOCK_RECORD
  5
90
330
1
100
AcDbSymbolTableRecord
100
AcDbBlockTableRecord
  2
block 7
340
0
102
{BLKREFS
331
91
102
}
  0
BLOCK_RECORD
  5
95
330
1
100
AcDbSymbolTableRecord
100
AcDbBlockTableRecord
  2
block 8
340
0
102
{BLKREFS
331
96
102
}
  0
BLOCK_RECORD
  5
9A
330
1
100
AcDbSymbolTableRecord
100
AcDbBlockTableRecord
  2
block 9
340
0
102
{BLKREFS
331
9B
102
}
  0
BLOCK_RECORD
  5
CE
330
1
100
AcDbSymbolTableRecord
100
AcDbBlockTableRecord
  2
block 10
340
0
102
{BLKREFS
331
CF
102
}
  0
BLOCK_RECORD
  5
102
330
1
100
AcDbSymbolTableRecord
100
AcDbBlockTableRecord
  2
block 11
340
0
102
{BLKREFS
331
103
102
}
  0
BLOCK_RECORD
  5
107
330
1
100
AcDbSymbolTableRecord
100
AcDbBlockTableRecord
  2
block 12
340
0
102
{BLKREFS
331
108
102
}
  0
BLOCK_RECORD
  5
10C
330
1
100
AcDbSymbolTableRecord
100
AcDbBlockTableRecord
  2
block 13
340
0
102
{BLKREFS
331
10D
102
}
  0
BLOCK_RECORD
  5
111
330
1
100
AcDbSymbolTableRecord
100
AcDbBlockTableRecord
  2
block 14
340
0
102
{BLKREFS
331
112
102
}
  0
BLOCK_RECORD
  5
119
330
1
100
AcDbSymbolTableRecord
100
AcDbBlockTableRecord
  2
block 15
340
0
102
{BLKREFS
331
11A
102
}
  0
BLOCK_RECORD
  5
121
330
1
100
AcDbSymbolTableRecord
100
AcDbBlockTableRecord
  2
block 16
340
0
102
{BLKREFS
331
122
102
}
  0
BLOCK_RECORD
  5
126
330
1
100
AcDbSymbolTableRecord
100
AcDbBlockTableRecord
  2
block 17
340
0
102
{BLKREFS
331
127
102
}
  0
BLOCK_RECORD
  5
12E
330
1
100
AcDbSymbolTableRecord
100
AcDbBlockTableRecord
  2
block 18
340
0
102
{BLKREFS
331
12F
102
}
  0
BLOCK_RECORD
  5
133
330
1
100
AcDbSymbolTableRecord
100
AcDbBlockTableRecord
  2
block 19
340
0
102
{BLKREFS
331
134
102
}
  0
BLOCK_RECORD
  5
13B
330
1
100
AcDbSymbolTableRecord
100
AcDbBlockTableRecord
  2
block 20
340
0
102
{BLKREFS
331
13C
102
}
  0
BLOCK_RECORD
  5
140
330
1
100
AcDbSymbolTableRecord
100
AcDbBlockTableRecord
  2
block 21
340
0
102
{BLKREFS
331
141
102
}
  0
BLOCK_RECORD
  5
145
330
1
100
AcDbSymbolTableRecord
100
AcDbBlockTableRecord
  2
block 22
340
0
102
{BLKREFS
331
146
102
}
  0
BLOCK_RECORD
  5
14D
330
1
100
AcDbSymbolTableRecord
100
AcDbBlockTableRecord
  2
block 23
340
0
102
{BLKREFS
331
14E
102
}
  0
BLOCK_RECORD
  5
152
330
1
100
AcDbSymbolTableRecord
100
AcDbBlockTableRecord
  2
block 24
340
0
102
{BLKREFS
331
153
102
}
  0
BLOCK_RECORD
  5
157
330
1
100
AcDbSymbolTableRecord
100
AcDbBlockTableRecord
  2
block 25
340
0
102
{BLKREFS
331
158
102
}
  0
BLOCK_RECORD
  5
15C
330
1
100
AcDbSymbolTableRecord
100
AcDbBlockTableRecord
  2
block 26
340
0
102
{BLKREFS
331
15D
102
}
  0
BLOCK_RECORD
  5
164
330
1
100
AcDbSymbolTableRecord
100
AcDbBlockTableRecord
  2
block 27
340
0
102
{BLKREFS
331
165
102
}
  0
BLOCK_RECORD
  5
169
330
1
100
AcDbSymbolTableRecord
100
AcDbBlockTableRecord
  2
block 28
340
0
102
{BLKREFS
331
16A
102
}
  0
BLOCK_RECORD
  5
16E
330
1
100
AcDbSymbolTableRecord
100
AcDbBlockTableRecord
  2
block 29
340
0
102
{BLKREFS
331
16F
102
}
  0
BLOCK_RECORD
  5
1A2
330
1
100
AcDbSymbolTableRecord
100
AcDbBlockTableRecord
  2
block 30
340
0
102
{BLKREFS
331
1A3
102
}
  0
BLOCK_RECORD
  5
1A7
330
1
100
AcDbSymbolTableRecord
100
AcDbBlockTableRecord
  2
block 31
340
0
102
{BLKREFS
331
1A8
102
}
  0
BLOCK_RECORD
  5
1AF
330
1
100
AcDbSymbolTableRecord
100
AcDbBlockTableRecord
  2
block 32
340
0
102
{BLKREFS
331
1B0
102
}
  0
BLOCK_RECORD
  5
1E3
330
1
100
AcDbSymbolTableRecord
100
AcDbBlockTableRecord
  2
block 33
340
0
102
{BLKREFS
331
1E4
102
}
  0
BLOCK_RECORD
  5
1E8
330
1
100
AcDbSymbolTableRecord
100
AcDbBlockTableRecord
  2
block 34
340
0
102
{BLKREFS
331
1E9
102
}
  0
BLOCK_RECORD
  5
1ED
330
1
100
AcDbSymbolTableRecord
100
AcDbBlockTableRecord
  2
block 35
340
0
102
{BLKREFS
331
1EE
102
}
  0
BLOCK_RECORD
  5
1F5
330
1
100
AcDbSymbolTableRecord
100
AcDbBlockTableRecord
  2
block 36
340
0
102
{BLKREFS
331
1F6
102
}
  0
BLOCK_RECORD
  5
1FD
330
1
100
AcDbSymbolTableRecord
100
AcDbBlockTableRecord
  2
block 37
340
0
102
{BLKREFS
331
1FE
102
}
  0
BLOCK_RECORD
  5
205
330
1
100
AcDbSymbolTableRecord
100
AcDbBlockTableRecord
  2
block 38
340
0
102
{BLKREFS
331
206
102
}
  0
BLOCK_RECORD
  5
20A
330
1
100
AcDbSymbolTableRecord
100
AcDbBlockTableRecord
  2
block 39
340
0
102
{BLKREFS
331
20B
102
}
  0
BLOCK_RECORD
  5
20F
330
1
100
AcDbSymbolTableRecord
100
AcDbBlockTableRecord
  2
block 40
340
0
102
{BLKREFS
331
210
102
}
  0
BLOCK_RECORD
  5
217
330
1
100
AcDbSymbolTableRecord
100
AcDbBlockTableRecord
  2
block 41
340
0
102
{BLKREFS
331
218
102
}
  0
BLOCK_RECORD
  5
21F
330
1
100
AcDbSymbolTableRecord
100
AcDbBlockTableRecord
  2
block 42
340
0
102
{BLKREFS
331
220
102
}
  0
BLOCK_RECORD
  5
228
330
1
100
AcDbSymbolTableRecord
100
AcDbBlockTableRecord
  2
block 43
340
0
102
{BLKREFS
331
229
102
}
  0
BLOCK_RECORD
  5
231
330
1
100
AcDbSymbolTableRecord
100
AcDbBlockTableRecord
  2
block 44
340
0
102
{BLKREFS
331
232
102
}
  0
BLOCK_RECORD
  5
23A
330
1
100
AcDbSymbolTableRecord
100
AcDbBlockTableRecord
  2
block 45
340
0
102
{BLKREFS
331
23B
102
}
  0
BLOCK_RECORD
  5
243
330
1
100
AcDbSymbolTableRecord
100
AcDbBlockTableRecord
  2
block 46
340
0
102
{BLKREFS
331
244
102
}
  0
BLOCK_RECORD
  5
24C
330
1
100
AcDbSymbolTableRecord
100
AcDbBlockTableRecord
  2
block 47
340
0
102
{BLKREFS
331
24D
102
}
  0
BLOCK_RECORD
  5
255
330
1
100
AcDbSymbolTableRecord
100
AcDbBlockTableRecord
  2
block 48
340
0
102
{BLKREFS
331
256
102
}
  0
BLOCK_RECORD
  5
25B
330
1
100
AcDbSymbolTableRecord
100
AcDbBlockTableRecord
  2
block 49
340
0
102
{BLKREFS
331
25C
102
}
  0
BLOCK_RECORD
  5
261
330
1
100
AcDbSymbolTableRecord
100
AcDbBlockTableRecord
  2
block 50
340
0
102
{BLKREFS
331
262
102
}
  0
BLOCK_RECORD
  5
26A
330
1
100
AcDbSymbolTableRecord
100
AcDbBlockTableRecord
  2
block 51
340
0
102
{BLKREFS
331
26B
102
}
  0
BLOCK_RECORD
  5
273
330
1
100
AcDbSymbolTableRecord
100
AcDbBlockTableRecord
  2
block 52
340
0
102
{BLKREFS
331
274
102
}
  0
BLOCK_RECORD
  5
27C
330
1
100
AcDbSymbolTableRecord
100
AcDbBlockTableRecord
  2
block 53
340
0
102
{BLKREFS
331
27D
102
}
  0
BLOCK_RECORD
  5
285
330
1
100
AcDbSymbolTableRecord
100
AcDbBlockTableRecord
  2
block 54
340
0
102
{BLKREFS
331
286
102
}
  0
BLOCK_RECORD
  5
28B
330
1
100
AcDbSymbolTableRecord
100
AcDbBlockTableRecord
  2
block 55
340
0
102
{BLKREFS
331
28C
102
}
  0
BLOCK_RECORD
  5
291
330
1
100
AcDbSymbolTableRecord
100
AcDbBlockTableRecord
  2
block 56
340
0
102
{BLKREFS
331
292
102
}
  0
BLOCK_RECORD
  5
29A
330
1
100
AcDbSymbolTableRecord
100
AcDbBlockTableRecord
  2
block 57
340
0
102
{BLKREFS
331
29B
102
}
  0
BLOCK_RECORD
  5
2A3
330
1
100
AcDbSymbolTableRecord
100
AcDbBlockTableRecord
  2
block 58
340
0
102
{BLKREFS
331
2A4
102
}
  0
BLOCK_RECORD
  5
2A7
330
1
100
AcDbSymbolTableRecord
100
AcDbBlockTableRecord
  2
block 59
340
0
102
{BLKREFS
331
2A8
102
}
  0
BLOCK_RECORD
  5
2AB
330
1
100
AcDbSymbolTableRecord
100
AcDbBlockTableRecord
  2
block 60
340
0
102
{BLKREFS
331
2AC
102
}
  0
BLOCK_RECORD
  5
2B3
330
1
100
AcDbSymbolTableRecord
100
AcDbBlockTableRecord
  2
block 61
340
0
102
{BLKREFS
331
2B4
102
}
  0
BLOCK_RECORD
  5
2BB
330
1
100
AcDbSymbolTableRecord
100
AcDbBlockTableRecord
  2
block 62
340
0
102
{BLKREFS
331
2BC
102
}
  0
BLOCK_RECORD
  5
2C3
330
1
100
AcDbSymbolTableRecord
100
AcDbBlockTableRecord
  2
block 63
340
0
102
{BLKREFS
331
2C4
102
}
  0
BLOCK_RECORD
  5
2CB
330
1
100
AcDbSymbolTableRecord
100
AcDbBlockTableRecord
  2
block 64
340
0
102
{BLKREFS
331
2CC
102
}
  0
BLOCK_RECORD
  5
2D6
330
1
100
AcDbSymbolTableRecord
100
AcDbBlockTableRecord
  2
block 65
340
0
102
{BLKREFS
331
2D7
102
}
  0
BLOCK_RECORD
  5
2E1
330
1
100
AcDbSymbolTableRecord
100
AcDbBlockTableRecord
  2
block 66
340
0
102
{BLKREFS
331
2E2
102
}
  0
BLOCK_RECORD
  5
2E6
330
1
100
AcDbSymbolTableRecord
100
AcDbBlockTableRecord
  2
block 67
340
0
102
{BLKREFS
331
2E7
102
}
  0
BLOCK_RECORD
  5
2EE
330
1
100
AcDbSymbolTableRecord
100
AcDbBlockTableRecord
  2
block 68
340
0
102
{BLKREFS
331
2EF
102
}
  0
BLOCK_RECORD
  5
2F6
330
1
100
AcDbSymbolTableRecord
100
AcDbBlockTableRecord
  2
block 69
340
0
102
{BLKREFS
331
2F7
102
}
  0
BLOCK_RECORD
  5
2FE
330
1
100
AcDbSymbolTableRecord
100
AcDbBlockTableRecord
  2
block 70
340
0
102
{BLKREFS
331
2FF
102
}
  0
BLOCK_RECORD
  5
302
330
1
100
AcDbSymbolTableRecord
100
AcDbBlockTableRecord
  2
block 71
340
0
102
{BLKREFS
331
303
102
}
  0
BLOCK_RECORD
  5
306
330
1
100
AcDbSymbolTableRecord
100
AcDbBlockTableRecord
  2
block 72
340
0
102
{BLKREFS
331
307
102
}
  0
BLOCK_RECORD
  5
30E
330
1
100
AcDbSymbolTableRecord
100
AcDbBlockTableRecord
  2
block 73
340
0
102
{BLKREFS
331
30F
102
}
  0
BLOCK_RECORD
  5
316
330
1
100
AcDbSymbolTableRecord
100
AcDbBlockTableRecord
  2
block 74
340
0
102
{BLKREFS
331
317
102
}
  0
BLOCK_RECORD
  5
31E
330
1
100
AcDbSymbolTableRecord
100
AcDbBlockTableRecord
  2
block 75
340
0
102
{BLKREFS
331
31F
102
}
  0
BLOCK_RECORD
  5
326
330
1
100
AcDbSymbolTableRecord
100
AcDbBlockTableRecord
  2
block 76
340
0
102
{BLKREFS
331
327
102
}
  0
BLOCK_RECORD
  5
331
330
1
100
AcDbSymbolTableRecord
100
AcDbBlockTableRecord
  2
block 77
340
0
102
{BLKREFS
331
332
102
}
  0
BLOCK_RECORD
  5
33C
330
1
100
AcDbSymbolTableRecord
100
AcDbBlockTableRecord
  2
block 78
340
0
102
{BLKREFS
331
33D
102
}
  0
BLOCK_RECORD
  5
341
330
1
100
AcDbSymbolTableRecord
100
AcDbBlockTableRecord
  2
block 79
340
0
102
{BLKREFS
331
342
102
}
  0
BLOCK_RECORD
  5
349
330
1
100
AcDbSymbolTableRecord
100
AcDbBlockTableRecord
  2
block 80
340
0
102
{BLKREFS
331
34A
102
}
  0
BLOCK_RECORD
  5
351
330
1
100
AcDbSymbolTableRecord
100
AcDbBlockTableRecord
  2
block 81
340
0
102
{BLKREFS
331
352
102
}
  0
BLOCK_RECORD
  5
359
330
1
100
AcDbSymbolTableRecord
100
AcDbBlockTableRecord
  2
block 82
340
0
102
{BLKREFS
331
35A
102
}
  0
BLOCK_RECORD
  5
361
330
1
100
AcDbSymbolTableRecord
100
AcDbBlockTableRecord
  2
block 83
340
0
102
{BLKREFS
331
362
102
}
  0
BLOCK_RECORD
  5
365
330
1
100
AcDbSymbolTableRecord
100
AcDbBlockTableRecord
  2
block 84
340
0
102
{BLKREFS
331
366
102
}
  0
BLOCK_RECORD
  5
369
330
1
100
AcDbSymbolTableRecord
100
AcDbBlockTableRecord
  2
block 85
340
0
102
{BLKREFS
331
36A
102
}
  0
BLOCK_RECORD
  5
371
330
1
100
AcDbSymbolTableRecord
100
AcDbBlockTableRecord
  2
block 86
340
0
102
{BLKREFS
331
372
102
}
  0
BLOCK_RECORD
  5
379
330
1
100
AcDbSymbolTableRecord
100
AcDbBlockTableRecord
  2
block 87
340
0
102
{BLKREFS
331
37A
102
}
  0
BLOCK_RECORD
  5
381
330
1
100
AcDbSymbolTableRecord
100
AcDbBlockTableRecord
  2
block 88
340
0
102
{BLKREFS
331
382
102
}
  0
BLOCK_RECORD
  5
389
330
1
100
AcDbSymbolTableRecord
100
AcDbBlockTableRecord
  2
block 89
340
0
102
{BLKREFS
331
38A
102
}
  0
BLOCK_RECORD
  5
394
330
1
100
AcDbSymbolTableRecord
100
AcDbBlockTableRecord
  2
block 90
340
0
102
{BLKREFS
331
395
102
}
  0
BLOCK_RECORD
  5
39F
330
1
100
AcDbSymbolTableRecord
100
AcDbBlockTableRecord
  2
block 91
340
0
102
{BLKREFS
331
3A0
102
}
  0
BLOCK_RECORD
  5
3A4
330
1
100
AcDbSymbolTableRecord
100
AcDbBlockTableRecord
  2
block 92
340
0
102
{BLKREFS
331
3A5
102
}
  0
BLOCK_RECORD
  5
3AC
330
1
100
AcDbSymbolTableRecord
100
AcDbBlockTableRecord
  2
block 93
340
0
102
{BLKREFS
331
3AD
102
}
  0
BLOCK_RECORD
  5
3B4
330
1
100
AcDbSymbolTableRecord
100
AcDbBlockTableRecord
  2
block 94
340
0
102
{BLKREFS
331
3B5
102
}
  0
BLOCK_RECORD
  5
3BC
330
1
100
AcDbSymbolTableRecord
100
AcDbBlockTableRecord
  2
block 95
340
0
102
{BLKREFS
331
3BD
102
}
  0
BLOCK_RECORD
  5
3C0
330
1
100
AcDbSymbolTableRecord
100
AcDbBlockTableRecord
  2
block 96
340
0
102
{BLKREFS
331
3C1
102
}
  0
BLOCK_RECORD
  5
3C4
330
1
100
AcDbSymbolTableRecord
100
AcDbBlockTableRecord
  2
block 97
340
0
102
{BLKREFS
331
3C5
102
}
  0
BLOCK_RECORD
  5
3CC
330
1
100
AcDbSymbolTableRecord
100
AcDbBlockTableRecord
  2
block 98
340
0
102
{BLKREFS
331
3CD
102
}
  0
BLOCK_RECORD
  5
3D4
330
1
100
AcDbSymbolTableRecord
100
AcDbBlockTableRecord
  2
block 99
340
0
102
{BLKREFS
331
3D5
102
}
  0
BLOCK_RECORD
  5
3DC
330
1
100
AcDbSymbolTableRecord
100
AcDbBlockTableRecord
  2
block 100
340
0
102
{BLKREFS
331
3DD
102
}
  0
BLOCK_RECORD
  5
3E4
330
1
100
AcDbSymbolTableRecord
100
AcDbBlockTableRecord
  2
block 101
340
0
102
{BLKREFS
331
3E5
102
}
  0
BLOCK_RECORD
  5
3EF
330
1
100
AcDbSymbolTableRecord
100
AcDbBlockTableRecord
  2
block 102
340
0
102
{BLKREFS
331
3F0
102
}
  0
BLOCK_RECORD
  5
3FA
330
1
100
AcDbSymbolTableRecord
100
AcDbBlockTableRecord
  2
block 103
340
0
102
{BLKREFS
331
3FB
102
}
  0
BLOCK_RECORD
  5
3FF
330
1
100
AcDbSymbolTableRecord
100
AcDbBlockTableRecord
  2
block 104
340
0
102
{BLKREFS
331
400
102
}
  0
BLOCK_RECORD
  5
407
330
1
100
AcDbSymbolTableRecord
100
AcDbBlockTableRecord
  2
block 105
340
0
102
{BLKREFS
331
408
102
}
  0
BLOCK_RECORD
  5
40F
330
1
100
AcDbSymbolTableRecord
100
AcDbBlockTableRecord
  2
block 106
340
0
102
{BLKREFS
331
410
102
}
  0
BLOCK_RECORD
  5
417
330
1
100
AcDbSymbolTableRecord
100
AcDbBlockTableRecord
  2
block 107
340
0
102
{BLKREFS
331
418
102
}
  0
BLOCK_RECORD
  5
41B
330
1
100
AcDbSymbolTableRecord
100
AcDbBlockTableRecord
  2
block 108
340
0
102
{BLKREFS
331
41C
102
}
  0
BLOCK_RECORD
  5
41F
330
1
100
AcDbSymbolTableRecord
100
AcDbBlockTableRecord
  2
block 109
340
0
102
{BLKREFS
331
420
102
}
  0
BLOCK_RECORD
  5
427
330
1
100
AcDbSymbolTableRecord
100
AcDbBlockTableRecord
  2
block 110
340
0
102
{BLKREFS
331
428
102
}
  0
BLOCK_RECORD
  5
42F
330
1
100
AcDbSymbolTableRecord
100
AcDbBlockTableRecord
  2
block 111
340
0
102
{BLKREFS
331
430
102
}
  0
BLOCK_RECORD
  5
437
330
1
100
AcDbSymbolTableRecord
100
AcDbBlockTableRecord
  2
block 112
340
0
102
{BLKREFS
331
438
102
}
  0
BLOCK_RECORD
  5
43F
330
1
100
AcDbSymbolTableRecord
100
AcDbBlockTableRecord
  2
block 113
340
0
102
{BLKREFS
331
440
102
}
  0
BLOCK_RECORD
  5
44A
330
1
100
AcDbSymbolTableRecord
100
AcDbBlockTableRecord
  2
block 114
340
0
102
{BLKREFS
331
44B
102
}
  0
BLOCK_RECORD
  5
455
330
1
100
AcDbSymbolTableRecord
100
AcDbBlockTableRecord
  2
block 115
340
0
102
{BLKREFS
331
456
102
}
  0
BLOCK_RECORD
  5
45A
330
1
100
AcDbSymbolTableRecord
100
AcDbBlockTableRecord
  2
block 116
340
0
102
{BLKREFS
331
45B
102
}
  0
BLOCK_RECORD
  5
462
330
1
100
AcDbSymbolTableRecord
100
AcDbBlockTableRecord
  2
block 117
340
0
102
{BLKREFS
331
463
102
}
  0
BLOCK_RECORD
  5
46A
330
1
100
AcDbSymbolTableRecord
100
AcDbBlockTableRecord
  2
block 118
340
0
102
{BLKREFS
331
46B
102
}
  0
BLOCK_RECORD
  5
472
330
1
100
AcDbSymbolTableRecord
100
AcDbBlockTableRecord
  2
block 119
340
0
102
{BLKREFS
331
473
102
}
  0
BLOCK_RECORD
  5
476
330
1
100
AcDbSymbolTableRecord
100
AcDbBlockTableRecord
  2
block 120
340
0
102
{BLKREFS
331
477
102
}
  0
BLOCK_RECORD
  5
47A
330
1
100
AcDbSymbolTableRecord
100
AcDbBlockTableRecord
  2
block 121
340
0
102
{BLKREFS
331
47B
102
}
  0
BLOCK_RECORD
  5
482
330
1
100
AcDbSymbolTableRecord
100
AcDbBlockTableRecord
  2
block 122
340
0
102
{BLKREFS
331
483
102
}
  0
BLOCK_RECORD
  5
48A
330
1
100
AcDbSymbolTableRecord
100
AcDbBlockTableRecord
  2
block 123
340
0
102
{BLKREFS
331
48B
102
}
  0
BLOCK_RECORD
  5
492
330
1
100
AcDbSymbolTableRecord
100
AcDbBlockTableRecord
  2
block 124
340
0
102
{BLKREFS
331
493
102
}
  0
BLOCK_RECORD
  5
49A
330
1
100
AcDbSymbolTableRecord
100
AcDbBlockTableRecord
  2
block 125
340
0
102
{BLKREFS
331
49B
102
}
  0
BLOCK_RECORD
  5
4A5
330
1
100
AcDbSymbolTableRecord
100
AcDbBlockTableRecord
  2
block 126
340
0
102
{BLKREFS
331
4A6
102
}
  0
BLOCK_RECORD
  5
4B0
330
1
100
AcDbSymbolTableRecord
100
AcDbBlockTableRecord
  2
block 127
340
0
102
{BLKREFS
331
4B1
102
}
  0
BLOCK_RECORD
  5
4B5
330
1
100
AcDbSymbolTableRecord
100
AcDbBlockTableRecord
  2
block 128
340
0
102
{BLKREFS
331
4B6
102
}
  0
BLOCK_RECORD
  5
4BD
330
1
100
AcDbSymbolTableRecord
100
AcDbBlockTableRecord
  2
block 129
340
0
102
{BLKREFS
331
4BE
102
}
  0
BLOCK_RECORD
  5
4C5
330
1
100
AcDbSymbolTableRecord
100
AcDbBlockTableRecord
  2
block 130
340
0
102
{BLKREFS
331
4C6
102
}
  0
BLOCK_RECORD
  5
4CD
330
1
100
AcDbSymbolTableRecord
100
AcDbBlockTableRecord
  2
block 131
340
0
102
{BLKREFS
331
4CE
102
}
  0
BLOCK_RECORD
  5
4D2
330
1
100
AcDbSymbolTableRecord
100
AcDbBlockTableRecord
  2
block 132
340
0
102
{BLKREFS
331
4D3
102
}
  0
BLOCK_RECORD
  5
4D7
330
1
100
AcDbSymbolTableRecord
100
AcDbBlockTableRecord
  2
block 133
340
0
102
{BLKREFS
331
4D8
102
}
  0
BLOCK_RECORD
  5
4DC
330
1
100
AcDbSymbolTableRecord
100
AcDbBlockTableRecord
  2
block 134
340
0
102
{BLKREFS
331
4DD
102
}
  0
BLOCK_RECORD
  5
4E1
330
1
100
AcDbSymbolTableRecord
100
AcDbBlockTableRecord
  2
block 135
340
0
102
{BLKREFS
331
4E2
102
}
  0
BLOCK_RECORD
  5
4E9
330
1
100
AcDbSymbolTableRecord
100
AcDbBlockTableRecord
  2
block 136
340
0
102
{BLKREFS
331
4EA
102
}
  0
BLOCK_RECORD
  5
4EE
330
1
100
AcDbSymbolTableRecord
100
AcDbBlockTableRecord
  2
block 137
340
0
102
{BLKREFS
331
4EF
102
}
  0
BLOCK_RECORD
  5
4F6
330
1
100
AcDbSymbolTableRecord
100
AcDbBlockTableRecord
  2
block 138
340
0
102
{BLKREFS
331
4F7
102
}
  0
BLOCK_RECORD
  5
4FB
330
1
100
AcDbSymbolTableRecord
100
AcDbBlockTableRecord
  2
block 139
340
0
102
{BLKREFS
331
4FC
102
}
  0
BLOCK_RECORD
  5
500
330
1
100
AcDbSymbolTableRecord
100
AcDbBlockTableRecord
  2
block 140
340
0
102
{BLKREFS
331
501
102
}
  0
BLOCK_RECORD
  5
508
330
1
100
AcDbSymbolTableRecord
100
AcDbBlockTableRecord
  2
block 141
340
0
102
{BLKREFS
331
509
102
}
  0
BLOCK_RECORD
  5
50D
330
1
100
AcDbSymbolTableRecord
100
AcDbBlockTableRecord
  2
block 142
340
0
102
{BLKREFS
331
50E
102
}
  0
BLOCK_RECORD
  5
512
330
1
100
AcDbSymbolTableRecord
100
AcDbBlockTableRecord
  2
block 143
340
0
102
{BLKREFS
331
513
102
}
  0
BLOCK_RECORD
  5
54A
330
1
100
AcDbSymbolTableRecord
100
AcDbBlockTableRecord
  2
block 144
340
0
102
{BLKREFS
331
54B
102
}
  0
BLOCK_RECORD
  5
54F
330
1
100
AcDbSymbolTableRecord
100
AcDbBlockTableRecord
  2
block 145
340
0
102
{BLKREFS
331
550
102
}
  0
BLOCK_RECORD
  5
583
330
1
100
AcDbSymbolTableRecord
100
AcDbBlockTableRecord
  2
block 146
340
0
102
{BLKREFS
331
584
102
}
  0
BLOCK_RECORD
  5
588
330
1
100
AcDbSymbolTableRecord
100
AcDbBlockTableRecord
  2
block 147
340
0
102
{BLKREFS
331
589
102
}
  0
BLOCK_RECORD
  5
58D
330
1
100
AcDbSymbolTableRecord
100
AcDbBlockTableRecord
  2
block 148
340
0
102
{BLKREFS
331
58E
102
}
  0
BLOCK_RECORD
  5
592
330
1
100
AcDbSymbolTableRecord
100
AcDbBlockTableRecord
  2
block 149
340
0
102
{BLKREFS
331
593
102
}
  0
BLOCK_RECORD
  5
59B
330
1
100
AcDbSymbolTableRecord
100
AcDbBlockTableRecord
  2
block 150
340
0
102
{BLKREFS
331
59C
102
}
  0
BLOCK_RECORD
  5
5A4
330
1
100
AcDbSymbolTableRecord
100
AcDbBlockTableRecord
  2
block 151
340
0
102
{BLKREFS
331
5A5
102
}
  0
BLOCK_RECORD
  5
5AD
330
1
100
AcDbSymbolTableRecord
100
AcDbBlockTableRecord
  2
block 152
340
0
102
{BLKREFS
331
5AE
102
}
  0
BLOCK_RECORD
  5
5BE
330
1
100
AcDbSymbolTableRecord
100
AcDbBlockTableRecord
  2
block 153
340
0
102
{BLKREFS
331
5BF
102
}
  0
BLOCK_RECORD
  5
5C6
330
1
100
AcDbSymbolTableRecord
100
AcDbBlockTableRecord
  2
block 154
340
0
102
{BLKREFS
331
5C7
102
}
  0
BLOCK_RECORD
  5
5CE
330
1
100
AcDbSymbolTableRecord
100
AcDbBlockTableRecord
  2
block 155
340
0
102
{BLKREFS
331
5CF
102
}
  0
BLOCK_RECORD
  5
5D9
330
1
100
AcDbSymbolTableRecord
100
AcDbBlockTableRecord
  2
block 156
340
0
102
{BLKREFS
331
5DA
102
}
  0
BLOCK_RECORD
  5
5E4
330
1
100
AcDbSymbolTableRecord
100
AcDbBlockTableRecord
  2
block 157
340
0
102
{BLKREFS
331
5E5
102
}
  0
BLOCK_RECORD
  5
5E9
330
1
100
AcDbSymbolTableRecord
100
AcDbBlockTableRecord
  2
block 158
340
0
102
{BLKREFS
331
5EA
102
}
  0
BLOCK_RECORD
  5
5F1
330
1
100
AcDbSymbolTableRecord
100
AcDbBlockTableRecord
  2
block 159
340
0
102
{BLKREFS
331
5F2
102
}
  0
BLOCK_RECORD
  5
5F9
330
1
100
AcDbSymbolTableRecord
100
AcDbBlockTableRecord
  2
block 160
340
0
102
{BLKREFS
331
5FA
102
}
  0
BLOCK_RECORD
  5
601
330
1
100
AcDbSymbolTableRecord
100
AcDbBlockTableRecord
  2
block 161
340
0
102
{BLKREFS
331
602
102
}
  0
BLOCK_RECORD
  5
605
330
1
100
AcDbSymbolTableRecord
100
AcDbBlockTableRecord
  2
block 162
340
0
102
{BLKREFS
331
606
102
}
  0
BLOCK_RECORD
  5
609
330
1
100
AcDbSymbolTableRecord
100
AcDbBlockTableRecord
  2
block 163
340
0
102
{BLKREFS
331
60A
102
}
  0
BLOCK_RECORD
  5
611
330
1
100
AcDbSymbolTableRecord
100
AcDbBlockTableRecord
  2
block 164
340
0
102
{BLKREFS
331
612
102
}
  0
BLOCK_RECORD
  5
619
330
1
100
AcDbSymbolTableRecord
100
AcDbBlockTableRecord
  2
block 165
340
0
102
{BLKREFS
331
61A
102
}
  0
BLOCK_RECORD
  5
621
330
1
100
AcDbSymbolTableRecord
100
AcDbBlockTableRecord
  2
block 166
340
0
102
{BLKREFS
331
622
102
}
  0
BLOCK_RECORD
  5
629
330
1
100
AcDbSymbolTableRecord
100
AcDbBlockTableRecord
  2
block 167
340
0
102
{BLKREFS
331
62A
102
}
  0
BLOCK_RECORD
  5
634
330
1
100
AcDbSymbolTableRecord
100
AcDbBlockTableRecord
  2
block 168
340
0
102
{BLKREFS
331
635
102
}
  0
BLOCK_RECORD
  5
63F
330
1
100
AcDbSymbolTableRecord
100
AcDbBlockTableRecord
  2
block 169
340
0
102
{BLKREFS
331
640
102
}
  0
BLOCK_RECORD
  5
644
330
1
100
AcDbSymbolTableRecord
100
AcDbBlockTableRecord
  2
block 170
340
0
102
{BLKREFS
331
645
102
}
  0
BLOCK_RECORD
  5
64C
330
1
100
AcDbSymbolTableRecord
100
AcDbBlockTableRecord
  2
block 171
340
0
102
{BLKREFS
331
64D
102
}
  0
BLOCK_RECORD
  5
654
330
1
100
AcDbSymbolTableRecord
100
AcDbBlockTableRecord
  2
block 172
340
0
102
{BLKREFS
331
655
102
}
  0
BLOCK_RECORD
  5
65C
330
1
100
AcDbSymbolTableRecord
100
AcDbBlockTableRecord
  2
block 173
340
0
102
{BLKREFS
331
65D
102
}
  0
BLOCK_RECORD
  5
694
330
1
100
AcDbSymbolTableRecord
100
AcDbBlockTableRecord
  2
block 174
340
0
102
{BLKREFS
331
695
102
}
  0
BLOCK_RECORD
  5
6C8
330
1
100
AcDbSymbolTableRecord
100
AcDbBlockTableRecord
  2
block 175
340
0
102
{BLKREFS
331
6C9
102
}
  0
BLOCK_RECORD
  5
6CD
330
1
100
AcDbSymbolTableRecord
100
AcDbBlockTableRecord
  2
block 176
340
0
102
{BLKREFS
331
6CE
102
}
  0
BLOCK_RECORD
  5
6D2
330
1
100
AcDbSymbolTableRecord
100
AcDbBlockTableRecord
  2
block 177
340
0
102
{BLKREFS
331
6D3
102
}
  0
BLOCK_RECORD
  5
6D7
330
1
100
AcDbSymbolTableRecord
100
AcDbBlockTableRecord
  2
block 178
340
0
102
{BLKREFS
331
6D8
102
}
  0
BLOCK_RECORD
  5
6DC
330
1
100
AcDbSymbolTableRecord
100
AcDbBlockTableRecord
  2
block 179
340
0
102
{BLKREFS
331
6DD
102
}
  0
BLOCK_RECORD
  5
6E1
330
1
100
AcDbSymbolTableRecord
100
AcDbBlockTableRecord
  2
block 180
340
0
102
{BLKREFS
331
6E2
102
}
  0
BLOCK_RECORD
  5
6E5
330
1
100
AcDbSymbolTableRecord
100
AcDbBlockTableRecord
  2
block 181
340
0
102
{BLKREFS
331
6E6
102
}
  0
BLOCK_RECORD
  5
6E9
330
1
100
AcDbSymbolTableRecord
100
AcDbBlockTableRecord
  2
block 182
340
0
102
{BLKREFS
331
6EA
102
}
  0
BLOCK_RECORD
  5
6F1
330
1
100
AcDbSymbolTableRecord
100
AcDbBlockTableRecord
  2
block 183
340
0
102
{BLKREFS
331
6F2
102
}
  0
BLOCK_RECORD
  5
6F9
330
1
100
AcDbSymbolTableRecord
100
AcDbBlockTableRecord
  2
block 184
340
0
102
{BLKREFS
331
6FA
102
}
  0
BLOCK_RECORD
  5
701
330
1
100
AcDbSymbolTableRecord
100
AcDbBlockTableRecord
  2
block 185
340
0
102
{BLKREFS
331
702
102
}
  0
BLOCK_RECORD
  5
709
330
1
100
AcDbSymbolTableRecord
100
AcDbBlockTableRecord
  2
block 186
340
0
102
{BLKREFS
331
70A
102
}
  0
BLOCK_RECORD
  5
714
330
1
100
AcDbSymbolTableRecord
100
AcDbBlockTableRecord
  2
block 187
340
0
102
{BLKREFS
331
715
102
}
  0
BLOCK_RECORD
  5
71F
330
1
100
AcDbSymbolTableRecord
100
AcDbBlockTableRecord
  2
block 188
340
0
102
{BLKREFS
331
720
102
}
  0
BLOCK_RECORD
  5
724
330
1
100
AcDbSymbolTableRecord
100
AcDbBlockTableRecord
  2
block 189
340
0
102
{BLKREFS
331
725
102
}
  0
BLOCK_RECORD
  5
72C
330
1
100
AcDbSymbolTableRecord
100
AcDbBlockTableRecord
  2
block 190
340
0
102
{BLKREFS
331
72D
102
}
  0
BLOCK_RECORD
  5
734
330
1
100
AcDbSymbolTableRecord
100
AcDbBlockTableRecord
  2
block 191
340
0
102
{BLKREFS
331
735
102
}
  0
ENDTAB
  0
ENDSEC
  0
SECTION
  2
BLOCKS
  0
BLOCK
  5
20
330
1F
100
AcDbEntity
  8
0
100
AcDbBlockBegin
  2
*Model_Space
 70
     0
 71
     0
 10
0.0
 20
0.0
 30
0.0
  3
*Model_Space
  1

  0
ENDBLK
  5
21
330
1F
100
AcDbEntity
  8
0
100
AcDbBlockEnd
  0
BLOCK
  5
1C
330
1B
100
AcDbEntity
 67
     1
  8
0
100
AcDbBlockBegin
  2
*Paper_Space
 70
     0
 71
     0
 10
0.0
 20
0.0
 30
0.0
  3
*Paper_Space
  1

  0
ENDBLK
  5
1D
330
1B
100
AcDbEntity
 67
     1
  8
0
100
AcDbBlockEnd
  0
BLOCK
  5
24
330
23
100
AcDbEntity
  8
0
100
AcDbBlockBegin
  2
*Paper_Space0
 70
     0
 71
     0
 10
0.0
 20
0.0
 30
0.0
  3
*Paper_Space0
  1

  0
ENDBLK
  5
25
330
23
100
AcDbEntity
  8
0
100
AcDbBlockEnd
  0
BLOCK
  5
3E
330
3C
100
AcDbEntity
  8
0
100
AcDbBlockBegin
  2
block 2
 70
     0
 71
     0
 10
0.0
 20
0.0
 30
0.0
  3
block 2
  1

  0
POLYLINE
  5
40
330
3C
100
AcDbEntity
  8
Capa 1
 62
   223
370
    25
100
AcDb2dPolyline
 66
     1
 10
0.0
 20
0.0
 30
0.0
  0
VERTEX
  5
41
330
40
100
AcDbEntity
  8
Capa 1
 62
   223
370
    25
100
AcDbVertex
100
AcDb2dVertex
 10
76.3902196459393
 20
135.4526310986587
 30
0.0
  0
VERTEX
  5
42
330
40
100
AcDbEntity
  8
Capa 1
 62
   223
370
    25
100
AcDbVertex
100
AcDb2dVertex
 10
131.9417319735199
 20
135.4526310986587
 30
0.0
  0
SEQEND
  5
43
330
40
100
AcDbEntity
  8
Capa 1
370
    25
  0
ENDBLK
  5
3F
330
3C
100
AcDbEntity
  8
0
100
AcDbBlockEnd
  0
BLOCK
  5
46
330
44
100
AcDbEntity
  8
0
100
AcDbBlockBegin
  2
block 3
 70
     0
 71
     0
 10
0.0
 20
0.0
 30
0.0
  3
block 3
  1

  0
POLYLINE
  5
48
330
44
100
AcDbEntity
  8
Capa 1
370
     0
100
AcDb2dPolyline
 66
     1
 10
0.0
 20
0.0
 30
0.0
  0
VERTEX
  5
49
330
48
100
AcDbEntity
  8
Capa 1
370
     0
100
AcDbVertex
100
AcDb2dVertex
 10
130.8585932384168
 20
135.4526310986587
 30
0.0
  0
VERTEX
  5
4A
330
48
100
AcDbEntity
  8
Capa 1
370
     0
100
AcDbVertex
100
AcDb2dVertex
 10
75.30432483262977
 20
135.4526310986587
 30
0.0
  0
VERTEX
  5
4B
330
48
100
AcDbEntity
  8
Capa 1
370
     0
100
AcDbVertex
100
AcDb2dVertex
 10
75.30432483262977
 20
129.612501379362
 30
0.0
  0
VERTEX
  5
4C
330
48
100
AcDbEntity
  8
Capa 1
370
     0
100
AcDbVertex
100
AcDb2dVertex
 10
130.8585932384168
 20
129.612501379362
 30
0.0
  0
VERTEX
  5
4D
330
48
100
AcDbEntity
  8
Capa 1
370
     0
100
AcDbVertex
100
AcDb2dVertex
 10
130.8585932384168
 20
135.4526310986587
 30
0.0
  0
SEQEND
  5
4E
330
48
100
AcDbEntity
  8
Capa 1
370
     0
  0
POLYLINE
  5
4F
330
44
100
AcDbEntity
  8
Capa 1
370
     0
100
AcDb2dPolyline
 66
     1
 10
0.0
 20
0.0
 30
0.0
  0
VERTEX
  5
50
330
4F
100
AcDbEntity
  8
Capa 1
370
     0
100
AcDbVertex
100
AcDb2dVertex
 10
74.81374291189603
 20
130.1058393783021
 30
0.0
  0
VERTEX
  5
51
330
4F
100
AcDbEntity
  8
Capa 1
370
     0
100
AcDbVertex
100
AcDb2dVertex
 10
80.16053463225256
 20
135.4526310986587
 30
0.0
  0
SEQEND
  5
52
330
4F
100
AcDbEntity
  8
Capa 1
370
     0
  0
POLYLINE
  5
53
330
44
100
AcDbEntity
  8
Capa 1
370
     0
100
AcDb2dPolyline
 66
     1
 10
0.0
 20
0.0
 30
0.0
  0
VERTEX
  5
54
330
53
100
AcDbEntity
  8
Capa 1
370
     0
100
AcDbVertex
100
AcDb2dVertex
 10
79.48253939348571
 20
129.612501379362
 30
0.0
  0
VERTEX
  5
55
330
53
100
AcDbEntity
  8
Capa 1
370
     0
100
AcDbVertex
100
AcDb2dVertex
 10
85.32542519098872
 20
135.4526310986587
 30
0.0
  0
SEQEND
  5
56
330
53
100
AcDbEntity
  8
Capa 1
370
     0
  0
POLYLINE
  5
57
330
44
100
AcDbEntity
  8
Capa 1
370
     0
100
AcDb2dPolyline
 66
     1
 10
0.0
 20
0.0
 30
0.0
  0
VERTEX
  5
58
330
57
100
AcDbEntity
  8
Capa 1
370
     0
100
AcDbVertex
100
AcDb2dVertex
 10
84.6446738740155
 20
129.612501379362
 30
0.0
  0
VERTEX
  5
59
330
57
100
AcDbEntity
  8
Capa 1
370
     0
100
AcDbVertex
100
AcDb2dVertex
 10
90.48480359331215
 20
135.4526310986587
 30
0.0
  0
SEQEND
  5
5A
330
57
100
AcDbEntity
  8
Capa 1
370
     0
  0
POLYLINE
  5
5B
330
44
100
AcDbEntity
  8
Capa 1
370
     0
100
AcDb2dPolyline
 66
     1
 10
0.0
 20
0.0
 30
0.0
  0
VERTEX
  5
5C
330
5B
100
AcDbEntity
  8
Capa 1
370
     0
100
AcDbVertex
100
AcDb2dVertex
 10
89.8068083545453
 20
129.612501379362
 30
0.0
  0
VERTEX
  5
5D
330
5B
100
AcDbEntity
  8
Capa 1
370
     0
100
AcDbVertex
100
AcDb2dVertex
 10
95.64969415204831
 20
135.4526310986587
 30
0.0
  0
SEQEND
  5
5E
330
5B
100
AcDbEntity
  8
Capa 1
370
     0
  0
POLYLINE
  5
5F
330
44
100
AcDbEntity
  8
Capa 1
370
     0
100
AcDb2dPolyline
 66
     1
 10
0.0
 20
0.0
 30
0.0
  0
VERTEX
  5
60
330
5F
100
AcDbEntity
  8
Capa 1
370
     0
100
AcDbVertex
100
AcDb2dVertex
 10
94.97169891328146
 20
129.612501379362
 30
0.0
  0
VERTEX
  5
61
330
5F
100
AcDbEntity
  8
Capa 1
370
     0
100
AcDbVertex
100
AcDb2dVertex
 10
100.8090725543717
 20
135.4526310986587
 30
0.0
  0
SEQEND
  5
62
330
5F
100
AcDbEntity
  8
Capa 1
370
     0
  0
POLYLINE
  5
63
330
44
100
AcDbEntity
  8
Capa 1
370
     0
100
AcDb2dPolyline
 66
     1
 10
0.0
 20
0.0
 30
0.0
  0
VERTEX
  5
64
330
63
100
AcDbEntity
  8
Capa 1
370
     0
100
AcDbVertex
100
AcDb2dVertex
 10
100.1310773156049
 20
129.612501379362
 30
0.0
  0
VERTEX
  5
65
330
63
100
AcDbEntity
  8
Capa 1
370
     0
100
AcDbVertex
100
AcDb2dVertex
 10
105.9739631131079
 20
135.4526310986587
 30
0.0
  0
SEQEND
  5
66
330
63
100
AcDbEntity
  8
Capa 1
370
     0
  0
POLYLINE
  5
67
330
44
100
AcDbEntity
  8
Capa 1
370
     0
100
AcDb2dPolyline
 66
     1
 10
0.0
 20
0.0
 30
0.0
  0
VERTEX
  5
68
330
67
100
AcDbEntity
  8
Capa 1
370
     0
100
AcDbVertex
100
AcDb2dVertex
 10
105.295967874341
 20
129.612501379362
 30
0.0
  0
VERTEX
  5
69
330
67
100
AcDbEntity
  8
Capa 1
370
     0
100
AcDbVertex
100
AcDb2dVertex
 10
111.1333415154313
 20
135.4526310986587
 30
0.0
  0
SEQEND
  5
6A
330
67
100
AcDbEntity
  8
Capa 1
370
     0
  0
POLYLINE
  5
6B
330
44
100
AcDbEntity
  8
Capa 1
370
     0
100
AcDb2dPolyline
 66
     1
 10
0.0
 20
0.0
 30
0.0
  0
VERTEX
  5
6C
330
6B
100
AcDbEntity
  8
Capa 1
370
     0
100
AcDbVertex
100
AcDb2dVertex
 10
110.4553462766645
 20
129.612501379362
 30
0.0
  0
VERTEX
  5
6D
330
6B
100
AcDbEntity
  8
Capa 1
370
     0
100
AcDbVertex
100
AcDb2dVertex
 10
116.2954759959611
 20
135.4526310986587
 30
0.0
  0
SEQEND
  5
6E
330
6B
100
AcDbEntity
  8
Capa 1
370
     0
  0
POLYLINE
  5
6F
330
44
100
AcDbEntity
  8
Capa 1
370
     0
100
AcDb2dPolyline
 66
     1
 10
0.0
 20
0.0
 30
0.0
  0
VERTEX
  5
70
330
6F
100
AcDbEntity
  8
Capa 1
370
     0
100
AcDbVertex
100
AcDb2dVertex
 10
115.6202368354006
 20
129.612501379362
 30
0.0
  0
VERTEX
  5
71
330
6F
100
AcDbEntity
  8
Capa 1
370
     0
100
AcDbVertex
100
AcDb2dVertex
 10
121.4603665546973
 20
135.4526310986587
 30
0.0
  0
SEQEND
  5
72
330
6F
100
AcDbEntity
  8
Capa 1
370
     0
  0
POLYLINE
  5
73
330
44
100
AcDbEntity
  8
Capa 1
370
     0
100
AcDb2dPolyline
 66
     1
 10
0.0
 20
0.0
 30
0.0
  0
VERTEX
  5
74
330
73
100
AcDbEntity
  8
Capa 1
370
     0
100
AcDbVertex
100
AcDb2dVertex
 10
120.7796152377241
 20
129.612501379362
 30
0.0
  0
VERTEX
  5
75
330
73
100
AcDbEntity
  8
Capa 1
370
     0
100
AcDbVertex
100
AcDb2dVertex
 10
126.6197449570207
 20
135.4526310986587
 30
0.0
  0
SEQEND
  5
76
330
73
100
AcDbEntity
  8
Capa 1
370
     0
  0
POLYLINE
  5
77
330
44
100
AcDbEntity
  8
Capa 1
370
     0
100
AcDb2dPolyline
 66
     1
 10
0.0
 20
0.0
 30
0.0
  0
VERTEX
  5
78
330
77
100
AcDbEntity
  8
Capa 1
370
     0
100
AcDbVertex
100
AcDb2dVertex
 10
125.9417497182539
 20
129.612501379362
 30
0.0
  0
VERTEX
  5
79
330
77
100
AcDbEntity
  8
Capa 1
370
     0
100
AcDbVertex
100
AcDb2dVertex
 10
131.3243704552932
 20
134.992366038195
 30
0.0
  0
SEQEND
  5
7A
330
77
100
AcDbEntity
  8
Capa 1
370
     0
  0
ENDBLK
  5
47
330
44
100
AcDbEntity
  8
0
100
AcDbBlockEnd
  0
BLOCK
  5
7D
330
7B
100
AcDbEntity
  8
0
100
AcDbBlockBegin
  2
block 4
 70
     0
 71
     0
 10
0.0
 20
0.0
 30
0.0
  3
block 4
  1

  0
SPLINE
  5
7F
330
7B
100
AcDbEntity
  8
Capa 1
 62
     7
370
    25
100
AcDbSpline
210
0.0
220
0.0
230
1.0
 70
    11
 71
     3
 72
    23
 73
    19
 74
     0
 42
0.0000000001
 43
0.0000000001
 40
0.0
 40
0.0
 40
0.0
 40
0.0
 40
1.0
 40
1.0
 40
1.0
 40
2.0
 40
2.0
 40
2.0
 40
3.0
 40
3.0
 40
3.0
 40
4.0
 40
4.0
 40
4.0
 40
5.0
 40
5.0
 40
5.0
 40
6.0
 40
6.0
 40
6.0
 40
6.0
 10
159.9655351758835
 20
80.10231248014301
 30
0.0
 10
159.9655351758835
 20
81.58508255516972
 30
0.0
 10
158.7638850779065
 20
82.78673265314676
 30
0.0
 10
157.2783589246734
 20
82.78673265314676
 30
0.0
 10
155.798344927853
 20
82.78673265314676
 30
0.0
 10
154.5939387516696
 20
81.58508255516972
 30
0.0
 10
154.5939387516696
 20
80.10231248014301
 30
0.0
 10
154.5939387516696
 20
78.6195424051163
 30
0.0
 10
155.798344927853
 20
77.41238015072653
 30
0.0
 10
157.2783589246734
 20
77.41238015072653
 30
0.0
 10
158.7638850779065
 20
77.41238015072653
 30
0.0
 10
159.9655351758835
 20
78.6195424051163
 30
0.0
 10
159.9655351758835
 20
80.10231248014301
 30
0.0
 10
159.9655351758835
 20
80.10231248014301
 30
0.0
 10
159.9655351758835
 20
80.10231248014301
 30
0.0
 10
159.9655351758835
 20
80.10231248014301
 30
0.0
 10
159.9655351758835
 20
80.10231248014301
 30
0.0
 10
159.9655351758835
 20
80.10231248014301
 30
0.0
 10
159.9655351758835
 20
80.10231248014301
 30
0.0
  0
ENDBLK
  5
7E
330
7B
100
AcDbEntity
  8
0
100
AcDbBlockEnd
  0
BLOCK
  5
82
330
80
100
AcDbEntity
  8
0
100
AcDbBlockBegin
  2
block 5
 70
     0
 71
     0
 10
0.0
 20
0.0
 30
0.0
  3
block 5
  1

  0
POLYLINE
  5
84
330
80
100
AcDbEntity
  8
Capa 1
 62
     7
370
    25
100
AcDb2dPolyline
 66
     1
 10
0.0
 20
0.0
 30
0.0
  0
VERTEX
  5
85
330
84
100
AcDbEntity
  8
Capa 1
 62
     7
370
    25
100
AcDbVertex
100
AcDb2dVertex
 10
192.3218933186597
 20
104.1656312999538
 30
0.0
  0
VERTEX
  5
86
330
84
100
AcDbEntity
  8
Capa 1
 62
     7
370
    25
100
AcDbVertex
100
AcDb2dVertex
 10
192.3218933186597
 20
80.10231248014301
 30
0.0
  0
SEQEND
  5
87
330
84
100
AcDbEntity
  8
Capa 1
370
    25
  0
ENDBLK
  5
83
330
80
100
AcDbEntity
  8
0
100
AcDbBlockEnd
  0
BLOCK
  5
8A
330
88
100
AcDbEntity
  8
0
100
AcDbBlockBegin
  2
block 6
 70
     0
 71
     0
 10
0.0
 20
0.0
 30
0.0
  3
block 6
  1

  0
POLYLINE
  5
8C
330
88
100
AcDbEntity
  8
Capa 1
 62
     7
370
    25
100
AcDb2dPolyline
 66
     1
 10
0.0
 20
0.0
 30
0.0
  0
VERTEX
  5
8D
330
8C
100
AcDbEntity
  8
Capa 1
 62
     7
370
    25
100
AcDbVertex
100
AcDb2dVertex
 10
190.7454165846164
 20
86.81887506906513
 30
0.0
  0
VERTEX
  5
8E
330
8C
100
AcDbEntity
  8
Capa 1
 62
     7
370
    25
100
AcDbVertex
100
AcDb2dVertex
 10
190.7454165846164
 20
80.10231248014301
 30
0.0
  0
SEQEND
  5
8F
330
8C
100
AcDbEntity
  8
Capa 1
370
    25
  0
ENDBLK
  5
8B
330
88
100
AcDbEntity
  8
0
100
AcDbBlockEnd
  0
BLOCK
  5
92
330
90
100
AcDbEntity
  8
0
100
AcDbBlockBegin
  2
block 7
 70
     0
 71
     0
 10
0.0
 20
0.0
 30
0.0
  3
block 7
  1

  0
SPLINE
  5
94
330
90
100
AcDbEntity
  8
Capa 1
 62
     7
370
    25
100
AcDbSpline
210
0.0
220
0.0
230
1.0
 70
     8
 71
     3
 72
    11
 73
     7
 74
     0
 42
0.0000000001
 43
0.0000000001
 40
0.0
 40
0.0
 40
0.0
 40
0.0
 40
1.0
 40
1.0
 40
1.0
 40
2.0
 40
2.0
 40
2.0
 40
2.0
 10
190.7454165846164
 20
86.81887506906513
 30
0.0
 10
190.7454165846164
 20
89.39856427022683
 30
0.0
 10
188.6535532259821
 20
91.49042762886117
 30
0.0
 10
186.071107946614
 20
91.49042762886117
 30
0.0
 10
186.071107946614
 20
91.49042762886117
 30
0.0
 10
186.071107946614
 20
91.49042762886117
 30
0.0
 10
186.071107946614
 20
91.49042762886117
 30
0.0
  0
ENDBLK
  5
93
330
90
100
AcDbEntity
  8
0
100
AcDbBlockEnd
  0
BLOCK
  5
97
330
95
100
AcDbEntity
  8
0
100
AcDbBlockBegin
  2
block 8
 70
     0
 71
     0
 10
0.0
 20
0.0
 30
0.0
  3
block 8
  1

  0
SPLINE
  5
99
330
95
100
AcDbEntity
  8
Capa 1
 62
     7
370
    25
100
AcDbSpline
210
0.0
220
0.0
230
1.0
 70
     8
 71
     3
 72
    11
 73
     7
 74
     0
 42
0.0000000001
 43
0.0000000001
 40
0.0
 40
0.0
 40
0.0
 40
0.0
 40
1.0
 40
1.0
 40
1.0
 40
2.0
 40
2.0
 40
2.0
 40
2.0
 10
192.3218933186597
 20
104.1656312999538
 30
0.0
 10
192.3218933186597
 20
104.4219465731462
 30
0.0
 10
192.115187453182
 20
104.6314085168302
 30
0.0
 10
191.8561161017832
 20
104.6314085168302
 30
0.0
 10
191.8561161017832
 20
104.6314085168302
 30
0.0
 10
191.8561161017832
 20
104.6314085168302
 30
0.0
 10
191.8561161017832
 20
104.6314085168302
 30
0.0
  0
ENDBLK
  5
98
330
95
100
AcDbEntity
  8
0
100
AcDbBlockEnd
  0
BLOCK
  5
9C
330
9A
100
AcDbEntity
  8
0
100
AcDbBlockBegin
  2
block 9
 70
     0
 71
     0
 10
0.0
 20
0.0
 30
0.0
  3
block 9
  1

  0
POLYLINE
  5
9E
330
9A
100
AcDbEntity
  8
Capa 1
 62
     7
370
    15
100
AcDb2dPolyline
 66
     1
 10
0.0
 20
0.0
 30
0.0
  0
VERTEX
  5
9F
330
9E
100
AcDbEntity
  8
Capa 1
 62
     7
370
    15
100
AcDbVertex
100
AcDb2dVertex
 10
157.2783589246734
 20
52.06748496495398
 30
0.0
  0
VERTEX
  5
A0
330
9E
100
AcDbEntity
  8
Capa 1
 62
     7
370
    15
100
AcDbVertex
100
AcDb2dVertex
 10
160.006876348979
 20
52.07299712136672
 30
0.0
  0
VERTEX
  5
A1
330
9E
100
AcDbEntity
  8
Capa 1
 62
     7
370
    15
100
AcDbVertex
100
AcDb2dVertex
 10
162.9641482644134
 20
52.07850927777945
 30
0.0
  0
VERTEX
  5
A2
330
9E
100
AcDbEntity
  8
Capa 1
 62
     7
370
    15
100
AcDbVertex
100
AcDb2dVertex
 10
165.7781041131165
 20
52.08953359060494
 30
0.0
  0
VERTEX
  5
A3
330
9E
100
AcDbEntity
  8
Capa 1
 62
     7
370
    15
100
AcDbVertex
100
AcDb2dVertex
 10
168.4514999732947
 20
52.10331398163678
 30
0.0
  0
VERTEX
  5
A4
330
9E
100
AcDbEntity
  8
Capa 1
 62
     7
370
    15
100
AcDbVertex
100
AcDb2dVertex
 10
170.9898480013609
 20
52.119850450875
 30
0.0
  0
VERTEX
  5
A5
330
9E
100
AcDbEntity
  8
Capa 1
 62
     7
370
    15
100
AcDbVertex
100
AcDb2dVertex
 10
173.4014164319341
 20
52.13914299831958
 30
0.0
  0
VERTEX
  5
A6
330
9E
100
AcDbEntity
  8
Capa 1
 62
     7
370
    15
100
AcDbVertex
100
AcDb2dVertex
 10
175.6972295778397
 20
52.16394770217691
 30
0.0
  0
VERTEX
  5
A7
330
9E
100
AcDbEntity
  8
Capa 1
 62
     7
370
    15
100
AcDbVertex
100
AcDb2dVertex
 10
177.9296529249989
 20
52.18875240603423
 30
0.0
  0
VERTEX
  5
A8
330
9E
100
AcDbEntity
  8
Capa 1
 62
     7
370
    15
100
AcDbVertex
100
AcDb2dVertex
 10
180.0711256913479
 20
52.21631318809792
 30
0.0
  0
VERTEX
  5
A9
330
9E
100
AcDbEntity
  8
Capa 1
 62
     7
370
    15
100
AcDbVertex
100
AcDb2dVertex
 10
182.146452580744
 20
52.24387397016162
 30
0.0
  0
VERTEX
  5
AA
330
9E
100
AcDbEntity
  8
Capa 1
 62
     7
370
    15
100
AcDbVertex
100
AcDb2dVertex
 10
183.0945434837351
 20
52.25765436119347
 30
0.0
  0
VERTEX
  5
AB
330
9E
100
AcDbEntity
  8
Capa 1
 62
     7
370
    15
100
AcDbVertex
100
AcDb2dVertex
 10
184.0288539956943
 20
52.27143475222531
 30
0.0
  0
VERTEX
  5
AC
330
9E
100
AcDbEntity
  8
Capa 1
 62
     7
370
    15
100
AcDbVertex
100
AcDb2dVertex
 10
184.9466280384153
 20
52.28521514325715
 30
0.0
  0
VERTEX
  5
AD
330
9E
100
AcDbEntity
  8
Capa 1
 62
     7
370
    15
100
AcDbVertex
100
AcDb2dVertex
 10
185.8478656118981
 20
52.31277592532085
 30
0.0
  0
VERTEX
  5
AE
330
9E
100
AcDbEntity
  8
Capa 1
 62
     7
370
    15
100
AcDbVertex
100
AcDb2dVertex
 10
186.713274168698
 20
52.43404336640111
 30
0.0
  0
VERTEX
  5
AF
330
9E
100
AcDbEntity
  8
Capa 1
 62
     7
370
    15
100
AcDbVertex
100
AcDb2dVertex
 10
187.5924631165299
 20
52.67106609214887
 30
0.0
  0
VERTEX
  5
B0
330
9E
100
AcDbEntity
  8
Capa 1
 62
     7
370
    15
100
AcDbVertex
100
AcDb2dVertex
 10
188.369677170726
 20
52.99352724229408
 30
0.0
  0
VERTEX
  5
B1
330
9E
100
AcDbEntity
  8
Capa 1
 62
     7
370
    15
100
AcDbVertex
100
AcDb2dVertex
 10
189.0201116274292
 20
53.3518174091221
 30
0.0
  0
VERTEX
  5
B2
330
9E
100
AcDbEntity
  8
Capa 1
 62
     7
370
    15
100
AcDbVertex
100
AcDb2dVertex
 10
189.4307672801782
 20
53.62742522975903
 30
0.0
  0
VERTEX
  5
B3
330
9E
100
AcDbEntity
  8
Capa 1
 62
     7
370
    15
100
AcDbVertex
100
AcDb2dVertex
 10
189.772520977768
 20
53.89752089398323
 30
0.0
  0
VERTEX
  5
B4
330
9E
100
AcDbEntity
  8
Capa 1
 62
     7
370
    15
100
AcDbVertex
100
AcDb2dVertex
 10
190.0591531112304
 20
54.14556793255647
 30
0.0
  0
VERTEX
  5
B5
330
9E
100
AcDbEntity
  8
Capa 1
 62
     7
370
    15
100
AcDbVertex
100
AcDb2dVertex
 10
190.3209805408355
 20
54.39912712754245
 30
0.0
  0
VERTEX
  5
B6
330
9E
100
AcDbEntity
  8
Capa 1
 62
     7
370
    15
100
AcDbVertex
100
AcDb2dVertex
 10
190.6351734563616
 20
54.74088082513225
 30
0.0
  0
VERTEX
  5
B7
330
9E
100
AcDbEntity
  8
Capa 1
 62
     7
370
    15
100
AcDbVertex
100
AcDb2dVertex
 10
190.9824393103642
 20
55.17909725994497
 30
0.0
  0
VERTEX
  5
B8
330
9E
100
AcDbEntity
  8
Capa 1
 62
     7
370
    15
100
AcDbVertex
100
AcDb2dVertex
 10
191.2773396784457
 20
55.62006977296407
 30
0.0
  0
VERTEX
  5
B9
330
9E
100
AcDbEntity
  8
Capa 1
 62
     7
370
    15
100
AcDbVertex
100
AcDb2dVertex
 10
191.5005820131616
 20
56.01418895647489
 30
0.0
  0
VERTEX
  5
BA
330
9E
100
AcDbEntity
  8
Capa 1
 62
     7
370
    15
100
AcDbVertex
100
AcDb2dVertex
 10
191.6714588619565
 20
56.35043049765195
 30
0.0
  0
VERTEX
  5
BB
330
9E
100
AcDbEntity
  8
Capa 1
 62
     7
370
    15
100
AcDbVertex
100
AcDb2dVertex
 10
191.7982384594495
 20
56.63981870932073
 30
0.0
  0
VERTEX
  5
BC
330
9E
100
AcDbEntity
  8
Capa 1
 62
     7
370
    15
100
AcDbVertex
100
AcDb2dVertex
 10
191.936042369768
 20
57.00637711076786
 30
0.0
  0
VERTEX
  5
BD
330
9E
100
AcDbEntity
  8
Capa 1
 62
     7
370
    15
100
AcDbVertex
100
AcDb2dVertex
 10
192.0793584364992
 20
57.47491040585064
 30
0.0
  0
VERTEX
  5
BE
330
9E
100
AcDbEntity
  8
Capa 1
 62
     7
370
    15
100
AcDbVertex
100
AcDb2dVertex
 10
192.2116501904049
 20
58.05919898560095
 30
0.0
  0
VERTEX
  5
BF
330
9E
100
AcDbEntity
  8
Capa 1
 62
     7
370
    15
100
AcDbVertex
100
AcDb2dVertex
 10
192.2998446930087
 20
58.76199892822513
 30
0.0
  0
VERTEX
  5
C0
330
9E
100
AcDbEntity
  8
Capa 1
 62
     7
370
    15
100
AcDbVertex
100
AcDb2dVertex
 10
192.3218933186597
 20
59.58055415551683
 30
0.0
  0
VERTEX
  5
C1
330
9E
100
AcDbEntity
  8
Capa 1
 62
     7
370
    15
100
AcDbVertex
100
AcDb2dVertex
 10
192.3218933186597
 20
60.51486466747604
 30
0.0
  0
VERTEX
  5
C2
330
9E
100
AcDbEntity
  8
Capa 1
 62
     7
370
    15
100
AcDbVertex
100
AcDb2dVertex
 10
192.3218933186597
 20
61.55666222948366
 30
0.0
  0
VERTEX
  5
C3
330
9E
100
AcDbEntity
  8
Capa 1
 62
     7
370
    15
100
AcDbVertex
100
AcDb2dVertex
 10
192.3218933186597
 20
62.7031907633333
 30
0.0
  0
VERTEX
  5
C4
330
9E
100
AcDbEntity
  8
Capa 1
 62
     7
370
    15
100
AcDbVertex
100
AcDb2dVertex
 10
192.3218933186597
 20
63.95720634723136
 30
0.0
  0
VERTEX
  5
C5
330
9E
100
AcDbEntity
  8
Capa 1
 62
     7
370
    15
100
AcDbVertex
100
AcDb2dVertex
 10
192.3218933186597
 20
65.32146505938418
 30
0.0
  0
VERTEX
  5
C6
330
9E
100
AcDbEntity
  8
Capa 1
 62
     7
370
    15
100
AcDbVertex
100
AcDb2dVertex
 10
192.3218933186597
 20
67.0109409998886
 30
0.0
  0
VERTEX
  5
C7
330
9E
100
AcDbEntity
  8
Capa 1
 62
     7
370
    15
100
AcDbVertex
100
AcDb2dVertex
 10
192.3218933186597
 20
68.84097692891785
 30
0.0
  0
VERTEX
  5
C8
330
9E
100
AcDbEntity
  8
Capa 1
 62
     7
370
    15
100
AcDbVertex
100
AcDb2dVertex
 10
192.3218933186597
 20
70.8143289246783
 30
0.0
  0
VERTEX
  5
C9
330
9E
100
AcDbEntity
  8
Capa 1
 62
     7
370
    15
100
AcDbVertex
100
AcDb2dVertex
 10
192.3218933186597
 20
72.91997267434449
 30
0.0
  0
VERTEX
  5
CA
330
9E
100
AcDbEntity
  8
Capa 1
 62
     7
370
    15
100
AcDbVertex
100
AcDb2dVertex
 10
192.3218933186597
 20
75.17444464715462
 30
0.0
  0
VERTEX
  5
CB
330
9E
100
AcDbEntity
  8
Capa 1
 62
     7
370
    15
100
AcDbVertex
100
AcDb2dVertex
 10
192.3218933186597
 20
77.56947660848958
 30
0.0
  0
VERTEX
  5
CC
330
9E
100
AcDbEntity
  8
Capa 1
 62
     7
370
    15
100
AcDbVertex
100
AcDb2dVertex
 10
192.3218933186597
 20
80.10231248014301
 30
0.0
  0
SEQEND
  5
CD
330
9E
100
AcDbEntity
  8
Capa 1
370
    15
  0
ENDBLK
  5
9D
330
9A
100
AcDbEntity
  8
0
100
AcDbBlockEnd
  0
BLOCK
  5
D0
330
CE
100
AcDbEntity
  8
0
100
AcDbBlockBegin
  2
block 10
 70
     0
 71
     0
 10
0.0
 20
0.0
 30
0.0
  3
block 10
  1

  0
POLYLINE
  5
D2
330
CE
100
AcDbEntity
  8
Capa 1
 62
     7
370
    15
100
AcDb2dPolyline
 66
     1
 10
0.0
 20
0.0
 30
0.0
  0
VERTEX
  5
D3
330
D2
100
AcDbEntity
  8
Capa 1
 62
     7
370
    15
100
AcDbVertex
100
AcDb2dVertex
 10
157.2783589246734
 20
53.64671777720362
 30
0.0
  0
VERTEX
  5
D4
330
D2
100
AcDbEntity
  8
Capa 1
 62
     7
370
    15
100
AcDbVertex
100
AcDb2dVertex
 10
160.0041202707727
 20
53.64947385540999
 30
0.0
  0
VERTEX
  5
D5
330
D2
100
AcDbEntity
  8
Capa 1
 62
     7
370
    15
100
AcDbVertex
100
AcDb2dVertex
 10
162.9558800297942
 20
53.65498601182272
 30
0.0
  0
VERTEX
  5
D6
330
D2
100
AcDbEntity
  8
Capa 1
 62
     7
370
    15
100
AcDbVertex
100
AcDb2dVertex
 10
165.7698358784973
 20
53.66325424644183
 30
0.0
  0
VERTEX
  5
D7
330
D2
100
AcDbEntity
  8
Capa 1
 62
     7
370
    15
100
AcDbVertex
100
AcDb2dVertex
 10
168.4432317386756
 20
53.67979071568005
 30
0.0
  0
VERTEX
  5
D8
330
D2
100
AcDbEntity
  8
Capa 1
 62
     7
370
    15
100
AcDbVertex
100
AcDb2dVertex
 10
170.9788236885354
 20
53.69908326312463
 30
0.0
  0
VERTEX
  5
D9
330
D2
100
AcDbEntity
  8
Capa 1
 62
     7
370
    15
100
AcDbVertex
100
AcDb2dVertex
 10
173.3876360409022
 20
53.71837581056922
 30
0.0
  0
VERTEX
  5
DA
330
D2
100
AcDbEntity
  8
Capa 1
 62
     7
370
    15
100
AcDbVertex
100
AcDb2dVertex
 10
175.6779370303952
 20
53.74318051442654
 30
0.0
  0
VERTEX
  5
DB
330
D2
100
AcDbEntity
  8
Capa 1
 62
     7
370
    15
100
AcDbVertex
100
AcDb2dVertex
 10
177.907604299348
 20
53.7652291400775
 30
0.0
  0
VERTEX
  5
DC
330
D2
100
AcDbEntity
  8
Capa 1
 62
     7
370
    15
100
AcDbVertex
100
AcDb2dVertex
 10
180.0518331439033
 20
53.79278992214119
 30
0.0
  0
VERTEX
  5
DD
330
D2
100
AcDbEntity
  8
Capa 1
 62
     7
370
    15
100
AcDbVertex
100
AcDb2dVertex
 10
182.1216478768867
 20
53.82035070420488
 30
0.0
  0
VERTEX
  5
DE
330
D2
100
AcDbEntity
  8
Capa 1
 62
     7
370
    15
100
AcDbVertex
100
AcDb2dVertex
 10
183.0724948580841
 20
53.8368871734431
 30
0.0
  0
VERTEX
  5
DF
330
D2
100
AcDbEntity
  8
Capa 1
 62
     7
370
    15
100
AcDbVertex
100
AcDb2dVertex
 10
184.004049291837
 20
53.84791148626858
 30
0.0
  0
VERTEX
  5
E0
330
D2
100
AcDbEntity
  8
Capa 1
 62
     7
370
    15
100
AcDbVertex
100
AcDb2dVertex
 10
184.9107990217325
 20
53.8644479555068
 30
0.0
  0
VERTEX
  5
E1
330
D2
100
AcDbEntity
  8
Capa 1
 62
     7
370
    15
100
AcDbVertex
100
AcDb2dVertex
 10
185.712817779786
 20
53.88649658115775
 30
0.0
  0
VERTEX
  5
E2
330
D2
100
AcDbEntity
  8
Capa 1
 62
     7
370
    15
100
AcDbVertex
100
AcDb2dVertex
 10
186.3935690967592
 20
53.9802032401743
 30
0.0
  0
VERTEX
  5
E3
330
D2
100
AcDbEntity
  8
Capa 1
 62
     7
370
    15
100
AcDbVertex
100
AcDb2dVertex
 10
187.0825886483515
 20
54.17037263641379
 30
0.0
  0
VERTEX
  5
E4
330
D2
100
AcDbEntity
  8
Capa 1
 62
     7
370
    15
100
AcDbVertex
100
AcDb2dVertex
 10
187.6889258537528
 20
54.41841967498704
 30
0.0
  0
VERTEX
  5
E5
330
D2
100
AcDbEntity
  8
Capa 1
 62
     7
370
    15
100
AcDbVertex
100
AcDb2dVertex
 10
188.1988003219311
 20
54.70229573024308
 30
0.0
  0
VERTEX
  5
E6
330
D2
100
AcDbEntity
  8
Capa 1
 62
     7
370
    15
100
AcDbVertex
100
AcDb2dVertex
 10
188.5047250028381
 20
54.91175767392715
 30
0.0
  0
VERTEX
  5
E7
330
D2
100
AcDbEntity
  8
Capa 1
 62
     7
370
    15
100
AcDbVertex
100
AcDb2dVertex
 10
188.772064588856
 20
55.11570746119848
 30
0.0
  0
VERTEX
  5
E8
330
D2
100
AcDbEntity
  8
Capa 1
 62
     7
370
    15
100
AcDbVertex
100
AcDb2dVertex
 10
188.9897947671591
 20
55.3031207792316
 30
0.0
  0
VERTEX
  5
E9
330
D2
100
AcDbEntity
  8
Capa 1
 62
     7
370
    15
100
AcDbVertex
100
AcDb2dVertex
 10
189.1909884762241
 20
55.49604625367745
 30
0.0
  0
VERTEX
  5
EA
330
D2
100
AcDbEntity
  8
Capa 1
 62
     7
370
    15
100
AcDbVertex
100
AcDb2dVertex
 10
189.4307672801782
 20
55.76614191790165
 30
0.0
  0
VERTEX
  5
EB
330
D2
100
AcDbEntity
  8
Capa 1
 62
     7
370
    15
100
AcDbVertex
100
AcDb2dVertex
 10
189.7063751008152
 20
56.10789561549144
 30
0.0
  0
VERTEX
  5
EC
330
D2
100
AcDbEntity
  8
Capa 1
 62
     7
370
    15
100
AcDbVertex
100
AcDb2dVertex
 10
189.9378856701502
 20
56.45516146949399
 30
0.0
  0
VERTEX
  5
ED
330
D2
100
AcDbEntity
  8
Capa 1
 62
     7
370
    15
100
AcDbVertex
100
AcDb2dVertex
 10
190.1142746753578
 20
56.75833007219461
 30
0.0
  0
VERTEX
  5
EE
330
D2
100
AcDbEntity
  8
Capa 1
 62
     7
370
    15
100
AcDbVertex
100
AcDb2dVertex
 10
190.2410542728508
 20
57.01740142359333
 30
0.0
  0
VERTEX
  5
EF
330
D2
100
AcDbEntity
  8
Capa 1
 62
     7
370
    15
100
AcDbVertex
100
AcDb2dVertex
 10
190.3375170100737
 20
57.23788768010288
 30
0.0
  0
VERTEX
  5
F0
330
D2
100
AcDbEntity
  8
Capa 1
 62
     7
370
    15
100
AcDbVertex
100
AcDb2dVertex
 10
190.4450040601221
 20
57.51349550073981
 30
0.0
  0
VERTEX
  5
F1
330
D2
100
AcDbEntity
  8
Capa 1
 62
     7
370
    15
100
AcDbVertex
100
AcDb2dVertex
 10
190.5552471883769
 20
57.88005390218694
 30
0.0
  0
VERTEX
  5
F2
330
D2
100
AcDbEntity
  8
Capa 1
 62
     7
370
    15
100
AcDbVertex
100
AcDb2dVertex
 10
190.6572220820126
 20
58.33480680623789
 30
0.0
  0
VERTEX
  5
F3
330
D2
100
AcDbEntity
  8
Capa 1
 62
     7
370
    15
100
AcDbVertex
100
AcDb2dVertex
 10
190.7261240371718
 20
58.88326636930538
 30
0.0
  0
VERTEX
  5
F4
330
D2
100
AcDbEntity
  8
Capa 1
 62
     7
370
    15
100
AcDbVertex
100
AcDb2dVertex
 10
190.7481726628228
 20
59.60260278116778
 30
0.0
  0
VERTEX
  5
F5
330
D2
100
AcDbEntity
  8
Capa 1
 62
     7
370
    15
100
AcDbVertex
100
AcDb2dVertex
 10
190.7481726628228
 20
60.51486466747604
 30
0.0
  0
VERTEX
  5
F6
330
D2
100
AcDbEntity
  8
Capa 1
 62
     7
370
    15
100
AcDbVertex
100
AcDb2dVertex
 10
190.7481726628228
 20
61.55666222948366
 30
0.0
  0
VERTEX
  5
F7
330
D2
100
AcDbEntity
  8
Capa 1
 62
     7
370
    15
100
AcDbVertex
100
AcDb2dVertex
 10
190.7481726628228
 20
62.7031907633333
 30
0.0
  0
VERTEX
  5
F8
330
D2
100
AcDbEntity
  8
Capa 1
 62
     7
370
    15
100
AcDbVertex
100
AcDb2dVertex
 10
190.7481726628228
 20
63.95720634723136
 30
0.0
  0
VERTEX
  5
F9
330
D2
100
AcDbEntity
  8
Capa 1
 62
     7
370
    15
100
AcDbVertex
100
AcDb2dVertex
 10
190.7481726628228
 20
65.32146505938418
 30
0.0
  0
VERTEX
  5
FA
330
D2
100
AcDbEntity
  8
Capa 1
 62
     7
370
    15
100
AcDbVertex
100
AcDb2dVertex
 10
190.7481726628228
 20
67.0109409998886
 30
0.0
  0
VERTEX
  5
FB
330
D2
100
AcDbEntity
  8
Capa 1
 62
     7
370
    15
100
AcDbVertex
100
AcDb2dVertex
 10
190.7481726628228
 20
68.84097692891785
 30
0.0
  0
VERTEX
  5
FC
330
D2
100
AcDbEntity
  8
Capa 1
 62
     7
370
    15
100
AcDbVertex
100
AcDb2dVertex
 10
190.7481726628228
 20
70.8143289246783
 30
0.0
  0
VERTEX
  5
FD
330
D2
100
AcDbEntity
  8
Capa 1
 62
     7
370
    15
100
AcDbVertex
100
AcDb2dVertex
 10
190.7481726628228
 20
72.91997267434449
 30
0.0
  0
VERTEX
  5
FE
330
D2
100
AcDbEntity
  8
Capa 1
 62
     7
370
    15
100
AcDbVertex
100
AcDb2dVertex
 10
190.7481726628228
 20
75.17444464715462
 30
0.0
  0
VERTEX
  5
FF
330
D2
100
AcDbEntity
  8
Capa 1
 62
     7
370
    15
100
AcDbVertex
100
AcDb2dVertex
 10
190.7454165846164
 20
77.56947660848958
 30
0.0
  0
VERTEX
  5
100
330
D2
100
AcDbEntity
  8
Capa 1
 62
     7
370
    15
100
AcDbVertex
100
AcDb2dVertex
 10
190.7454165846164
 20
80.10231248014301
 30
0.0
  0
SEQEND
  5
101
330
D2
100
AcDbEntity
  8
Capa 1
370
    15
  0
ENDBLK
  5
D1
330
CE
100
AcDbEntity
  8
0
100
AcDbBlockEnd
  0
BLOCK
  5
104
330
102
100
AcDbEntity
  8
0
100
AcDbBlockBegin
  2
block 11
 70
     0
 71
     0
 10
0.0
 20
0.0
 30
0.0
  3
block 11
  1

  0
SPLINE
  5
106
330
102
100
AcDbEntity
  8
Capa 1
 62
   253
370
    15
100
AcDbSpline
210
0.0
220
0.0
230
1.0
 70
     8
 71
     3
 72
    14
 73
    10
 74
     0
 42
0.0000000001
 43
0.0000000001
 40
0.0
 40
0.0
 40
0.0
 40
0.0
 40
1.0
 40
1.0
 40
1.0
 40
2.0
 40
2.0
 40
2.0
 40
3.0
 40
3.0
 40
3.0
 40
3.0
 10
157.2783589246734
 20
75.89653713722339
 30
0.0
 10
159.6044889308491
 20
75.89653713722339
 30
0.0
 10
161.484134267593
 20
77.77893855217366
 30
0.0
 10
161.484134267593
 20
80.10231248014301
 30
0.0
 10
161.484134267593
 20
82.42293032990601
 30
0.0
 10
159.6044889308491
 20
84.30808782306265
 30
0.0
 10
157.2783589246734
 20
84.30808782306265
 30
0.0
 10
157.2783589246734
 20
84.30808782306265
 30
0.0
 10
157.2783589246734
 20
84.30808782306265
 30
0.0
 10
157.2783589246734
 20
84.30808782306265
 30
0.0
  0
ENDBLK
  5
105
330
102
100
AcDbEntity
  8
0
100
AcDbBlockEnd
  0
BLOCK
  5
109
330
107
100
AcDbEntity
  8
0
100
AcDbBlockBegin
  2
block 12
 70
     0
 71
     0
 10
0.0
 20
0.0
 30
0.0
  3
block 12
  1

  0
SPLINE
  5
10B
330
107
100
AcDbEntity
  8
Capa 1
 62
     7
370
    25
100
AcDbSpline
210
0.0
220
0.0
230
1.0
 70
     8
 71
     3
 72
     8
 73
     4
 74
     0
 42
0.0000000001
 43
0.0000000001
 40
0.0
 40
0.0
 40
0.0
 40
0.0
 40
1.0
 40
1.0
 40
1.0
 40
1.0
 10
69.13622180677517
 20
233.6875266082814
 30
0.0
 10
69.5110484428414
 20
230.2810139452089
 30
0.0
 10
70.7237228536439
 20
223.8069862384473
 30
0.0
 10
71.60842395788848
 20
220.4969363125977
 30
0.0
  0
ENDBLK
  5
10A
330
107
100
AcDbEntity
  8
0
100
AcDbBlockEnd
  0
BLOCK
  5
10E
330
10C
100
AcDbEntity
  8
0
100
AcDbBlockBegin
  2
block 13
 70
     0
 71
     0
 10
0.0
 20
0.0
 30
0.0
  3
block 13
  1

  0
SPLINE
  5
110
330
10C
100
AcDbEntity
  8
Capa 1
 62
     7
370
    25
100
AcDbSpline
210
0.0
220
0.0
230
1.0
 70
     8
 71
     3
 72
    11
 73
     7
 74
     0
 42
0.0000000001
 43
0.0000000001
 40
0.0
 40
0.0
 40
0.0
 40
0.0
 40
1.0
 40
1.0
 40
1.0
 40
2.0
 40
2.0
 40
2.0
 40
2.0
 10
70.05675192770252
 20
234.7403484831146
 30
0.0
 10
69.53860922490509
 20
234.7375924049082
 30
0.0
 10
69.12244141574332
 20
234.3159124393337
 30
0.0
 10
69.12519749394968
 20
233.8005258147426
 30
0.0
 10
69.12519749394968
 20
233.7702089544725
 30
0.0
 10
69.12795357215606
 20
233.7150873903452
 30
0.0
 10
69.13622180677517
 20
233.6875266082814
 30
0.0
  0
ENDBLK
  5
10F
330
10C
100
AcDbEntity
  8
0
100
AcDbBlockEnd
  0
BLOCK
  5
113
330
111
100
AcDbEntity
  8
0
100
AcDbBlockBegin
  2
block 14
 70
     0
 71
     0
 10
0.0
 20
0.0
 30
0.0
  3
block 14
  1

  0
POLYLINE
  5
115
330
111
100
AcDbEntity
  8
Capa 1
 62
     7
370
    25
100
AcDb2dPolyline
 66
     1
 10
0.0
 20
0.0
 30
0.0
  0
VERTEX
  5
116
330
115
100
AcDbEntity
  8
Capa 1
 62
     7
370
    25
100
AcDbVertex
100
AcDb2dVertex
 10
136.2770429921389
 20
220.1414022239761
 30
0.0
  0
VERTEX
  5
117
330
115
100
AcDbEntity
  8
Capa 1
 62
     7
370
    25
100
AcDbVertex
100
AcDb2dVertex
 10
72.06042078373305
 20
220.1414022239761
 30
0.0
  0
SEQEND
  5
118
330
115
100
AcDbEntity
  8
Capa 1
370
    25
  0
ENDBLK
  5
114
330
111
100
AcDbEntity
  8
0
100
AcDbBlockEnd
  0
BLOCK
  5
11B
330
119
100
AcDbEntity
  8
0
100
AcDbBlockBegin
  2
block 15
 70
     0
 71
     0
 10
0.0
 20
0.0
 30
0.0
  3
block 15
  1

  0
POLYLINE
  5
11D
330
119
100
AcDbEntity
  8
Capa 1
370
     0
100
AcDb2dPolyline
 66
     1
 10
0.0
 20
0.0
 30
0.0
  0
VERTEX
  5
11E
330
11D
100
AcDbEntity
  8
Capa 1
370
     0
100
AcDbVertex
100
AcDb2dVertex
 10
70.05675192770252
 20
234.7403484831146
 30
0.0
  0
VERTEX
  5
11F
330
11D
100
AcDbEntity
  8
Capa 1
370
     0
100
AcDbVertex
100
AcDb2dVertex
 10
138.2779557699631
 20
234.7403484831146
 30
0.0
  0
SEQEND
  5
120
330
11D
100
AcDbEntity
  8
Capa 1
370
     0
  0
ENDBLK
  5
11C
330
119
100
AcDbEntity
  8
0
100
AcDbBlockEnd
  0
BLOCK
  5
123
330
121
100
AcDbEntity
  8
0
100
AcDbBlockBegin
  2
block 16
 70
     0
 71
     0
 10
0.0
 20
0.0
 30
0.0
  3
block 16
  1

  0
SPLINE
  5
125
330
121
100
AcDbEntity
  8
Capa 1
 62
     7
370
    25
100
AcDbSpline
210
0.0
220
0.0
230
1.0
 70
     8
 71
     3
 72
     8
 73
     4
 74
     0
 42
0.0000000001
 43
0.0000000001
 40
0.0
 40
0.0
 40
0.0
 40
0.0
 40
1.0
 40
1.0
 40
1.0
 40
1.0
 10
71.60842395788848
 20
220.4969363125977
 30
0.0
 10
71.65527728739676
 20
220.2929865253264
 30
0.0
 10
71.85371491825535
 20
220.133133989357
 30
0.0
 10
72.06042078373305
 20
220.1414022239761
 30
0.0
  0
ENDBLK
  5
124
330
121
100
AcDbEntity
  8
0
100
AcDbBlockEnd
  0
BLOCK
  5
128
330
126
100
AcDbEntity
  8
0
100
AcDbBlockBegin
  2
block 17
 70
     0
 71
     0
 10
0.0
 20
0.0
 30
0.0
  3
block 17
  1

  0
POLYLINE
  5
12A
330
126
100
AcDbEntity
  8
Capa 1
 62
     7
370
    25
100
AcDb2dPolyline
 66
     1
 10
0.0
 20
0.0
 30
0.0
  0
VERTEX
  5
12B
330
12A
100
AcDbEntity
  8
Capa 1
 62
     7
370
    25
100
AcDbVertex
100
AcDb2dVertex
 10
186.071107946614
 20
91.49042762886117
 30
0.0
  0
VERTEX
  5
12C
330
12A
100
AcDbEntity
  8
Capa 1
 62
     7
370
    25
100
AcDbVertex
100
AcDb2dVertex
 10
128.4883659809391
 20
91.49042762886117
 30
0.0
  0
SEQEND
  5
12D
330
12A
100
AcDbEntity
  8
Capa 1
370
    25
  0
ENDBLK
  5
129
330
126
100
AcDbEntity
  8
0
100
AcDbBlockEnd
  0
BLOCK
  5
130
330
12E
100
AcDbEntity
  8
0
100
AcDbBlockBegin
  2
block 18
 70
     0
 71
     0
 10
0.0
 20
0.0
 30
0.0
  3
block 18
  1

  0
SPLINE
  5
132
330
12E
100
AcDbEntity
  8
Capa 1
 62
     7
370
    25
100
AcDbSpline
210
0.0
220
0.0
230
1.0
 70
    11
 71
     3
 72
    23
 73
    19
 74
     0
 42
0.0000000001
 43
0.0000000001
 40
0.0
 40
0.0
 40
0.0
 40
0.0
 40
1.0
 40
1.0
 40
1.0
 40
2.0
 40
2.0
 40
2.0
 40
3.0
 40
3.0
 40
3.0
 40
4.0
 40
4.0
 40
4.0
 40
5.0
 40
5.0
 40
5.0
 40
6.0
 40
6.0
 40
6.0
 40
6.0
 10
159.3261250320058
 20
97.62270163803298
 30
0.0
 10
159.3261250320058
 20
98.75269370264441
 30
0.0
 10
158.4083509892848
 20
99.6704677453654
 30
0.0
 10
157.2783589246734
 20
99.6704677453654
 30
0.0
 10
156.1511229382683
 20
99.6704677453654
 30
0.0
 10
155.2361049737537
 20
98.75269370264441
 30
0.0
 10
155.2361049737537
 20
97.62270163803298
 30
0.0
 10
155.2361049737537
 20
96.49270957342155
 30
0.0
 10
156.1511229382683
 20
95.58044768711329
 30
0.0
 10
157.2783589246734
 20
95.58044768711329
 30
0.0
 10
158.4083509892848
 20
95.58044768711329
 30
0.0
 10
159.3261250320058
 20
96.49270957342155
 30
0.0
 10
159.3261250320058
 20
97.62270163803298
 30
0.0
 10
159.3261250320058
 20
97.62270163803298
 30
0.0
 10
159.3261250320058
 20
97.62270163803298
 30
0.0
 10
159.3261250320058
 20
97.62270163803298
 30
0.0
 10
159.3261250320058
 20
97.62270163803298
 30
0.0
 10
159.3261250320058
 20
97.62270163803298
 30
0.0
 10
159.3261250320058
 20
97.62270163803298
 30
0.0
  0
ENDBLK
  5
131
330
12E
100
AcDbEntity
  8
0
100
AcDbBlockEnd
  0
BLOCK
  5
135
330
133
100
AcDbEntity
  8
0
100
AcDbBlockBegin
  2
block 19
 70
     0
 71
     0
 10
0.0
 20
0.0
 30
0.0
  3
block 19
  1

  0
POLYLINE
  5
137
330
133
100
AcDbEntity
  8
Capa 1
 62
     7
370
    25
100
AcDb2dPolyline
 66
     1
 10
0.0
 20
0.0
 30
0.0
  0
VERTEX
  5
138
330
137
100
AcDbEntity
  8
Capa 1
 62
     7
370
    25
100
AcDbVertex
100
AcDb2dVertex
 10
130.9219830371633
 20
87.73664911178612
 30
0.0
  0
VERTEX
  5
139
330
137
100
AcDbEntity
  8
Capa 1
 62
     7
370
    25
100
AcDbVertex
100
AcDb2dVertex
 10
183.6347348121835
 20
87.73664911178612
 30
0.0
  0
SEQEND
  5
13A
330
137
100
AcDbEntity
  8
Capa 1
370
    25
  0
ENDBLK
  5
136
330
133
100
AcDbEntity
  8
0
100
AcDbBlockEnd
  0
BLOCK
  5
13D
330
13B
100
AcDbEntity
  8
0
100
AcDbBlockBegin
  2
block 20
 70
     0
 71
     0
 10
0.0
 20
0.0
 30
0.0
  3
block 20
  1

  0
SPLINE
  5
13F
330
13B
100
AcDbEntity
  8
Capa 1
 62
     7
370
    25
100
AcDbSpline
210
0.0
220
0.0
230
1.0
 70
     8
 71
     3
 72
    11
 73
     7
 74
     0
 42
0.0000000001
 43
0.0000000001
 40
0.0
 40
0.0
 40
0.0
 40
0.0
 40
1.0
 40
1.0
 40
1.0
 40
2.0
 40
2.0
 40
2.0
 40
2.0
 10
187.3747329382267
 20
83.9966509857429
 30
0.0
 10
187.3747329382267
 20
86.06095356231356
 30
0.0
 10
185.7017934669605
 20
87.73664911178612
 30
0.0
 10
183.6347348121835
 20
87.73664911178612
 30
0.0
 10
183.6347348121835
 20
87.73664911178612
 30
0.0
 10
183.6347348121835
 20
87.73664911178612
 30
0.0
 10
183.6347348121835
 20
87.73664911178612
 30
0.0
  0
ENDBLK
  5
13E
330
13B
100
AcDbEntity
  8
0
100
AcDbBlockEnd
  0
BLOCK
  5
142
330
140
100
AcDbEntity
  8
0
100
AcDbBlockBegin
  2
block 21
 70
     0
 71
     0
 10
0.0
 20
0.0
 30
0.0
  3
block 21
  1

  0
SPLINE
  5
144
330
140
100
AcDbEntity
  8
Capa 1
 62
     7
370
    25
100
AcDbSpline
210
0.0
220
0.0
230
1.0
 70
     8
 71
     3
 72
    62
 73
    58
 74
     0
 42
0.0000000001
 43
0.0000000001
 40
0.0
 40
0.0
 40
0.0
 40
0.0
 40
1.0
 40
1.0
 40
1.0
 40
2.0
 40
2.0
 40
2.0
 40
3.0
 40
3.0
 40
3.0
 40
4.0
 40
4.0
 40
4.0
 40
5.0
 40
5.0
 40
5.0
 40
6.0
 40
6.0
 40
6.0
 40
7.0
 40
7.0
 40
7.0
 40
8.0
 40
8.0
 40
8.0
 40
9.0
 40
9.0
 40
9.0
 40
10.0
 40
10.0
 40
10.0
 40
11.0
 40
11.0
 40
11.0
 40
12.0
 40
12.0
 40
12.0
 40
13.0
 40
13.0
 40
13.0
 40
14.0
 40
14.0
 40
14.0
 40
15.0
 40
15.0
 40
15.0
 40
16.0
 40
16.0
 40
16.0
 40
17.0
 40
17.0
 40
17.0
 40
18.0
 40
18.0
 40
18.0
 40
19.0
 40
19.0
 40
19.0
 40
19.0
 10
157.2783589246734
 20
88.67371570195169
 30
0.0
 10
157.3059197067371
 20
88.67371570195169
 30
0.0
 10
157.3334804888007
 20
88.67371570195169
 30
0.0
 10
157.3610412708645
 20
88.67371570195169
 30
0.0
 10
157.3610412708645
 20
88.67371570195169
 30
0.0
 10
157.3610412708645
 20
88.67371570195169
 30
0.0
 10
157.3610412708645
 20
88.67371570195169
 30
0.0
 10
157.5429424324848
 20
88.67922785836443
 30
0.0
 10
157.7220875158988
 20
88.7178129532536
 30
0.0
 10
157.8846961300746
 20
88.78395883020647
 30
0.0
 10
157.8846961300746
 20
88.78395883020647
 30
0.0
 10
157.8846961300746
 20
88.78395883020647
 30
0.0
 10
157.8846961300746
 20
88.78395883020647
 30
0.0
 10
158.0473047442504
 20
88.8445925507466
 30
0.0
 10
158.1906208109816
 20
88.93278705335041
 30
0.0
 10
158.3063760956491
 20
89.04303018160519
 30
0.0
 10
158.3063760956491
 20
89.04303018160519
 30
0.0
 10
158.3063760956491
 20
89.04303018160519
 30
0.0
 10
158.3063760956491
 20
89.04303018160519
 30
0.0
 10
158.3918145200466
 20
89.12571252779627
 30
0.0
 10
158.4552043187931
 20
89.21941918681283
 30
0.0
 10
158.5020576483014
 20
89.31863800224212
 30
0.0
 10
158.5020576483014
 20
89.31863800224212
 30
0.0
 10
158.5020576483014
 20
89.31863800224212
 30
0.0
 10
158.5020576483014
 20
89.31863800224212
 30
0.0
 10
158.5461548996033
 20
89.42336897408416
 30
0.0
 10
158.5709596034606
 20
89.53361210233894
 30
0.0
 10
158.5626913688415
 20
89.6438552305937
 30
0.0
 10
158.5626913688415
 20
89.6438552305937
 30
0.0
 10
158.5626913688415
 20
89.6438552305937
 30
0.0
 10
158.5626913688415
 20
89.6438552305937
 30
0.0
 10
158.5599352906351
 20
89.7513422806421
 30
0.0
 10
158.529618430365
 20
89.85882933069051
 30
0.0
 10
158.477252944444
 20
89.96080422432618
 30
0.0
 10
158.477252944444
 20
89.96080422432618
 30
0.0
 10
158.477252944444
 20
89.96080422432618
 30
0.0
 10
158.477252944444
 20
89.96080422432618
 30
0.0
 10
158.4221313803166
 20
90.0572669615491
 30
0.0
 10
158.350473346951
 20
90.14546146415293
 30
0.0
 10
158.2567666879345
 20
90.22814381034401
 30
0.0
 10
158.2567666879345
 20
90.22814381034401
 30
0.0
 10
158.2567666879345
 20
90.22814381034401
 30
0.0
 10
158.2567666879345
 20
90.22814381034401
 30
0.0
 10
158.1685721853307
 20
90.30531400012235
 30
0.0
 10
158.0583290570759
 20
90.37421595528158
 30
0.0
 10
157.939817694202
 20
90.42106928478987
 30
0.0
 10
157.939817694202
 20
90.42106928478987
 30
0.0
 10
157.939817694202
 20
90.42106928478987
 30
0.0
 10
157.939817694202
 20
90.42106928478987
 30
0.0
 10
157.782721236439
 20
90.49272731815547
 30
0.0
 10
157.6008200748186
 20
90.53682456945738
 30
0.0
 10
157.4189189131982
 20
90.55060496048922
 30
0.0
 10
157.4189189131982
 20
90.55060496048922
 30
0.0
 10
157.4189189131982
 20
90.55060496048922
 30
0.0
 10
157.4189189131982
 20
90.55060496048922
 30
0.0
 10
157.3748216618963
 20
90.5533610386956
 30
0.0
 10
157.3252122541817
 20
90.5533610386956
 30
0.0
 10
157.2783589246734
 20
90.5533610386956
 30
0.0
  0
ENDBLK
  5
143
330
140
100
AcDbEntity
  8
0
100
AcDbBlockEnd
  0
BLOCK
  5
147
330
145
100
AcDbEntity
  8
0
100
AcDbBlockBegin
  2
block 22
 70
     0
 71
     0
 10
0.0
 20
0.0
 30
0.0
  3
block 22
  1

  0
POLYLINE
  5
149
330
145
100
AcDbEntity
  8
Capa 1
 62
     7
370
    25
100
AcDb2dPolyline
 66
     1
 10
0.0
 20
0.0
 30
0.0
  0
VERTEX
  5
14A
330
149
100
AcDbEntity
  8
Capa 1
 62
     7
370
    25
100
AcDbVertex
100
AcDb2dVertex
 10
191.8561161017832
 20
104.6314085168302
 30
0.0
  0
VERTEX
  5
14B
330
149
100
AcDbEntity
  8
Capa 1
 62
     7
370
    25
100
AcDbVertex
100
AcDb2dVertex
 10
122.7033578257699
 20
104.6314085168302
 30
0.0
  0
SEQEND
  5
14C
330
149
100
AcDbEntity
  8
Capa 1
370
    25
  0
ENDBLK
  5
148
330
145
100
AcDbEntity
  8
0
100
AcDbBlockEnd
  0
BLOCK
  5
14F
330
14D
100
AcDbEntity
  8
0
100
AcDbBlockBegin
  2
block 23
 70
     0
 71
     0
 10
0.0
 20
0.0
 30
0.0
  3
block 23
  1

  0
SPLINE
  5
151
330
14D
100
AcDbEntity
  8
Capa 1
 62
     7
370
    25
100
AcDbSpline
210
0.0
220
0.0
230
1.0
 70
     8
 71
     3
 72
     8
 73
     4
 74
     0
 42
0.0000000001
 43
0.0000000001
 40
0.0
 40
0.0
 40
0.0
 40
0.0
 40
1.0
 40
1.0
 40
1.0
 40
1.0
 10
136.7317958961899
 20
220.4969363125977
 30
0.0
 10
137.6137409222281
 20
223.8069862384473
 30
0.0
 10
138.8264153330306
 20
230.2810139452089
 30
0.0
 10
139.2067541255095
 20
233.6875266082814
 30
0.0
  0
ENDBLK
  5
150
330
14D
100
AcDbEntity
  8
0
100
AcDbBlockEnd
  0
BLOCK
  5
154
330
152
100
AcDbEntity
  8
0
100
AcDbBlockBegin
  2
block 24
 70
     0
 71
     0
 10
0.0
 20
0.0
 30
0.0
  3
block 24
  1

  0
SPLINE
  5
156
330
152
100
AcDbEntity
  8
Capa 1
 62
     7
370
    25
100
AcDbSpline
210
0.0
220
0.0
230
1.0
 70
     8
 71
     3
 72
    11
 73
     7
 74
     0
 42
0.0000000001
 43
0.0000000001
 40
0.0
 40
0.0
 40
0.0
 40
0.0
 40
1.0
 40
1.0
 40
1.0
 40
2.0
 40
2.0
 40
2.0
 40
2.0
 10
139.2067541255095
 20
233.6875266082814
 30
0.0
 10
139.270143924256
 20
234.2001571546662
 30
0.0
 10
138.9090976792216
 20
234.6686904497489
 30
0.0
 10
138.396467132837
 20
234.7348363267018
 30
0.0
 10
138.3689063507732
 20
234.7375924049082
 30
0.0
 10
138.3137847866459
 20
234.7403484831146
 30
0.0
 10
138.2862240045822
 20
234.7403484831146
 30
0.0
  0
ENDBLK
  5
155
330
152
100
AcDbEntity
  8
0
100
AcDbBlockEnd
  0
BLOCK
  5
159
330
157
100
AcDbEntity
  8
0
100
AcDbBlockBegin
  2
block 25
 70
     0
 71
     0
 10
0.0
 20
0.0
 30
0.0
  3
block 25
  1

  0
SPLINE
  5
15B
330
157
100
AcDbEntity
  8
Capa 1
 62
     7
370
    25
100
AcDbSpline
210
0.0
220
0.0
230
1.0
 70
     8
 71
     3
 72
     8
 73
     4
 74
     0
 42
0.0000000001
 43
0.0000000001
 40
0.0
 40
0.0
 40
0.0
 40
0.0
 40
1.0
 40
1.0
 40
1.0
 40
1.0
 10
136.2770429921389
 20
220.1414022239761
 30
0.0
 10
136.4837488576166
 20
220.133133989357
 30
0.0
 10
136.6876986448879
 20
220.2929865253264
 30
0.0
 10
136.7317958961899
 20
220.4969363125977
 30
0.0
  0
ENDBLK
  5
15A
330
157
100
AcDbEntity
  8
0
100
AcDbBlockEnd
  0
BLOCK
  5
15E
330
15C
100
AcDbEntity
  8
0
100
AcDbBlockBegin
  2
block 26
 70
     0
 71
     0
 10
0.0
 20
0.0
 30
0.0
  3
block 26
  1

  0
POLYLINE
  5
160
330
15C
100
AcDbEntity
  8
Capa 1
 62
     7
370
    25
100
AcDb2dPolyline
 66
     1
 10
0.0
 20
0.0
 30
0.0
  0
VERTEX
  5
161
330
160
100
AcDbEntity
  8
Capa 1
 62
     7
370
    25
100
AcDbVertex
100
AcDb2dVertex
 10
123.8113012647303
 20
86.81887506906513
 30
0.0
  0
VERTEX
  5
162
330
160
100
AcDbEntity
  8
Capa 1
 62
     7
370
    25
100
AcDbVertex
100
AcDb2dVertex
 10
123.8113012647303
 20
80.10231248014301
 30
0.0
  0
SEQEND
  5
163
330
160
100
AcDbEntity
  8
Capa 1
370
    25
  0
ENDBLK
  5
15F
330
15C
100
AcDbEntity
  8
0
100
AcDbBlockEnd
  0
BLOCK
  5
166
330
164
100
AcDbEntity
  8
0
100
AcDbBlockBegin
  2
block 27
 70
     0
 71
     0
 10
0.0
 20
0.0
 30
0.0
  3
block 27
  1

  0
SPLINE
  5
168
330
164
100
AcDbEntity
  8
Capa 1
 62
     7
370
    25
100
AcDbSpline
210
0.0
220
0.0
230
1.0
 70
     8
 71
     3
 72
    11
 73
     7
 74
     0
 42
0.0000000001
 43
0.0000000001
 40
0.0
 40
0.0
 40
0.0
 40
0.0
 40
1.0
 40
1.0
 40
1.0
 40
2.0
 40
2.0
 40
2.0
 40
2.0
 10
128.4883659809391
 20
91.49042762886117
 30
0.0
 10
125.905920701571
 20
91.49042762886117
 30
0.0
 10
123.8113012647303
 20
89.39856427022683
 30
0.0
 10
123.8113012647303
 20
86.81887506906513
 30
0.0
 10
123.8113012647303
 20
86.81887506906513
 30
0.0
 10
123.8113012647303
 20
86.81887506906513
 30
0.0
 10
123.8113012647303
 20
86.81887506906513
 30
0.0
  0
ENDBLK
  5
167
330
164
100
AcDbEntity
  8
0
100
AcDbBlockEnd
  0
BLOCK
  5
16B
330
169
100
AcDbEntity
  8
0
100
AcDbBlockBegin
  2
block 28
 70
     0
 71
     0
 10
0.0
 20
0.0
 30
0.0
  3
block 28
  1

  0
SPLINE
  5
16D
330
169
100
AcDbEntity
  8
Capa 1
 62
     7
370
    25
100
AcDbSpline
210
0.0
220
0.0
230
1.0
 70
     8
 71
     3
 72
    11
 73
     7
 74
     0
 42
0.0000000001
 43
0.0000000001
 40
0.0
 40
0.0
 40
0.0
 40
0.0
 40
1.0
 40
1.0
 40
1.0
 40
2.0
 40
2.0
 40
2.0
 40
2.0
 10
122.7033578257699
 20
104.6314085168302
 30
0.0
 10
122.4442864743712
 20
104.6314085168302
 30
0.0
 10
122.2375806088935
 20
104.4219465731462
 30
0.0
 10
122.2375806088935
 20
104.1656312999538
 30
0.0
 10
122.2375806088935
 20
104.1656312999538
 30
0.0
 10
122.2375806088935
 20
104.1656312999538
 30
0.0
 10
122.2375806088935
 20
104.1656312999538
 30
0.0
  0
ENDBLK
  5
16C
330
169
100
AcDbEntity
  8
0
100
AcDbBlockEnd
  0
BLOCK
  5
170
330
16E
100
AcDbEntity
  8
0
100
AcDbBlockBegin
  2
block 29
 70
     0
 71
     0
 10
0.0
 20
0.0
 30
0.0
  3
block 29
  1

  0
POLYLINE
  5
172
330
16E
100
AcDbEntity
  8
Capa 1
 62
     7
370
    15
100
AcDb2dPolyline
 66
     1
 10
0.0
 20
0.0
 30
0.0
  0
VERTEX
  5
173
330
172
100
AcDbEntity
  8
Capa 1
 62
     7
370
    15
100
AcDbVertex
100
AcDb2dVertex
 10
157.2783589246734
 20
53.64671777720362
 30
0.0
  0
VERTEX
  5
174
330
172
100
AcDbEntity
  8
Capa 1
 62
     7
370
    15
100
AcDbVertex
100
AcDb2dVertex
 10
154.5581097349868
 20
53.64947385540999
 30
0.0
  0
VERTEX
  5
175
330
172
100
AcDbEntity
  8
Capa 1
 62
     7
370
    15
100
AcDbVertex
100
AcDb2dVertex
 10
151.6035938977589
 20
53.65498601182272
 30
0.0
  0
VERTEX
  5
176
330
172
100
AcDbEntity
  8
Capa 1
 62
     7
370
    15
100
AcDbVertex
100
AcDb2dVertex
 10
148.7896380490558
 20
53.66325424644183
 30
0.0
  0
VERTEX
  5
177
330
172
100
AcDbEntity
  8
Capa 1
 62
     7
370
    15
100
AcDbVertex
100
AcDb2dVertex
 10
146.1162421888775
 20
53.67979071568005
 30
0.0
  0
VERTEX
  5
178
330
172
100
AcDbEntity
  8
Capa 1
 62
     7
370
    15
100
AcDbVertex
100
AcDb2dVertex
 10
143.5806502390177
 20
53.69908326312463
 30
0.0
  0
VERTEX
  5
179
330
172
100
AcDbEntity
  8
Capa 1
 62
     7
370
    15
100
AcDbVertex
100
AcDb2dVertex
 10
141.1718378866509
 20
53.71837581056922
 30
0.0
  0
VERTEX
  5
17A
330
172
100
AcDbEntity
  8
Capa 1
 62
     7
370
    15
100
AcDbVertex
100
AcDb2dVertex
 10
138.881536897158
 20
53.74318051442654
 30
0.0
  0
VERTEX
  5
17B
330
172
100
AcDbEntity
  8
Capa 1
 62
     7
370
    15
100
AcDbVertex
100
AcDb2dVertex
 10
136.6518696282052
 20
53.7652291400775
 30
0.0
  0
VERTEX
  5
17C
330
172
100
AcDbEntity
  8
Capa 1
 62
     7
370
    15
100
AcDbVertex
100
AcDb2dVertex
 10
134.5048847054434
 20
53.79278992214119
 30
0.0
  0
VERTEX
  5
17D
330
172
100
AcDbEntity
  8
Capa 1
 62
     7
370
    15
100
AcDbVertex
100
AcDb2dVertex
 10
132.4378260506664
 20
53.82035070420488
 30
0.0
  0
VERTEX
  5
17E
330
172
100
AcDbEntity
  8
Capa 1
 62
     7
370
    15
100
AcDbVertex
100
AcDb2dVertex
 10
131.4897351476754
 20
53.8368871734431
 30
0.0
  0
VERTEX
  5
17F
330
172
100
AcDbEntity
  8
Capa 1
 62
     7
370
    15
100
AcDbVertex
100
AcDb2dVertex
 10
130.5554246357162
 20
53.84791148626858
 30
0.0
  0
VERTEX
  5
180
330
172
100
AcDbEntity
  8
Capa 1
 62
     7
370
    15
100
AcDbVertex
100
AcDb2dVertex
 10
129.6486749058206
 20
53.8644479555068
 30
0.0
  0
VERTEX
  5
181
330
172
100
AcDbEntity
  8
Capa 1
 62
     7
370
    15
100
AcDbVertex
100
AcDb2dVertex
 10
128.8466561477671
 20
53.88649658115775
 30
0.0
  0
VERTEX
  5
182
330
172
100
AcDbEntity
  8
Capa 1
 62
     7
370
    15
100
AcDbVertex
100
AcDb2dVertex
 10
128.1631487525875
 20
53.9802032401743
 30
0.0
  0
VERTEX
  5
183
330
172
100
AcDbEntity
  8
Capa 1
 62
     7
370
    15
100
AcDbVertex
100
AcDb2dVertex
 10
127.4768852792016
 20
54.17037263641379
 30
0.0
  0
VERTEX
  5
184
330
172
100
AcDbEntity
  8
Capa 1
 62
     7
370
    15
100
AcDbVertex
100
AcDb2dVertex
 10
126.8705480738003
 20
54.41841967498704
 30
0.0
  0
VERTEX
  5
185
330
172
100
AcDbEntity
  8
Capa 1
 62
     7
370
    15
100
AcDbVertex
100
AcDb2dVertex
 10
126.3634296838284
 20
54.70229573024308
 30
0.0
  0
VERTEX
  5
186
330
172
100
AcDbEntity
  8
Capa 1
 62
     7
370
    15
100
AcDbVertex
100
AcDb2dVertex
 10
126.0519928465086
 20
54.91175767392715
 30
0.0
  0
VERTEX
  5
187
330
172
100
AcDbEntity
  8
Capa 1
 62
     7
370
    15
100
AcDbVertex
100
AcDb2dVertex
 10
125.7874093386972
 20
55.11570746119848
 30
0.0
  0
VERTEX
  5
188
330
172
100
AcDbEntity
  8
Capa 1
 62
     7
370
    15
100
AcDbVertex
100
AcDb2dVertex
 10
125.569679160394
 20
55.3031207792316
 30
0.0
  0
VERTEX
  5
189
330
172
100
AcDbEntity
  8
Capa 1
 62
     7
370
    15
100
AcDbVertex
100
AcDb2dVertex
 10
125.3712415295354
 20
55.49604625367745
 30
0.0
  0
VERTEX
  5
18A
330
172
100
AcDbEntity
  8
Capa 1
 62
     7
370
    15
100
AcDbVertex
100
AcDb2dVertex
 10
125.1287066473749
 20
55.76614191790165
 30
0.0
  0
VERTEX
  5
18B
330
172
100
AcDbEntity
  8
Capa 1
 62
     7
370
    15
100
AcDbVertex
100
AcDb2dVertex
 10
124.853098826738
 20
56.10789561549144
 30
0.0
  0
VERTEX
  5
18C
330
172
100
AcDbEntity
  8
Capa 1
 62
     7
370
    15
100
AcDbVertex
100
AcDb2dVertex
 10
124.6215882574029
 20
56.45516146949399
 30
0.0
  0
VERTEX
  5
18D
330
172
100
AcDbEntity
  8
Capa 1
 62
     7
370
    15
100
AcDbVertex
100
AcDb2dVertex
 10
124.4451992521953
 20
56.75833007219461
 30
0.0
  0
VERTEX
  5
18E
330
172
100
AcDbEntity
  8
Capa 1
 62
     7
370
    15
100
AcDbVertex
100
AcDb2dVertex
 10
124.3156635764959
 20
57.01740142359333
 30
0.0
  0
VERTEX
  5
18F
330
172
100
AcDbEntity
  8
Capa 1
 62
     7
370
    15
100
AcDbVertex
100
AcDb2dVertex
 10
124.2219569174794
 20
57.23788768010288
 30
0.0
  0
VERTEX
  5
190
330
172
100
AcDbEntity
  8
Capa 1
 62
     7
370
    15
100
AcDbVertex
100
AcDb2dVertex
 10
124.114469867431
 20
57.51349550073981
 30
0.0
  0
VERTEX
  5
191
330
172
100
AcDbEntity
  8
Capa 1
 62
     7
370
    15
100
AcDbVertex
100
AcDb2dVertex
 10
124.0042267391762
 20
57.88005390218694
 30
0.0
  0
VERTEX
  5
192
330
172
100
AcDbEntity
  8
Capa 1
 62
     7
370
    15
100
AcDbVertex
100
AcDb2dVertex
 10
123.9022518455405
 20
58.33480680623789
 30
0.0
  0
VERTEX
  5
193
330
172
100
AcDbEntity
  8
Capa 1
 62
     7
370
    15
100
AcDbVertex
100
AcDb2dVertex
 10
123.8333498903813
 20
58.88326636930538
 30
0.0
  0
VERTEX
  5
194
330
172
100
AcDbEntity
  8
Capa 1
 62
     7
370
    15
100
AcDbVertex
100
AcDb2dVertex
 10
123.8113012647303
 20
59.60260278116778
 30
0.0
  0
VERTEX
  5
195
330
172
100
AcDbEntity
  8
Capa 1
 62
     7
370
    15
100
AcDbVertex
100
AcDb2dVertex
 10
123.8113012647303
 20
60.51486466747604
 30
0.0
  0
VERTEX
  5
196
330
172
100
AcDbEntity
  8
Capa 1
 62
     7
370
    15
100
AcDbVertex
100
AcDb2dVertex
 10
123.8113012647303
 20
61.55666222948366
 30
0.0
  0
VERTEX
  5
197
330
172
100
AcDbEntity
  8
Capa 1
 62
     7
370
    15
100
AcDbVertex
100
AcDb2dVertex
 10
123.8113012647303
 20
62.7031907633333
 30
0.0
  0
VERTEX
  5
198
330
172
100
AcDbEntity
  8
Capa 1
 62
     7
370
    15
100
AcDbVertex
100
AcDb2dVertex
 10
123.8113012647303
 20
63.95720634723136
 30
0.0
  0
VERTEX
  5
199
330
172
100
AcDbEntity
  8
Capa 1
 62
     7
370
    15
100
AcDbVertex
100
AcDb2dVertex
 10
123.8113012647303
 20
65.32146505938418
 30
0.0
  0
VERTEX
  5
19A
330
172
100
AcDbEntity
  8
Capa 1
 62
     7
370
    15
100
AcDbVertex
100
AcDb2dVertex
 10
123.8113012647303
 20
67.0109409998886
 30
0.0
  0
VERTEX
  5
19B
330
172
100
AcDbEntity
  8
Capa 1
 62
     7
370
    15
100
AcDbVertex
100
AcDb2dVertex
 10
123.8113012647303
 20
68.84097692891785
 30
0.0
  0
VERTEX
  5
19C
330
172
100
AcDbEntity
  8
Capa 1
 62
     7
370
    15
100
AcDbVertex
100
AcDb2dVertex
 10
123.8113012647303
 20
70.8143289246783
 30
0.0
  0
VERTEX
  5
19D
330
172
100
AcDbEntity
  8
Capa 1
 62
     7
370
    15
100
AcDbVertex
100
AcDb2dVertex
 10
123.8113012647303
 20
72.91997267434449
 30
0.0
  0
VERTEX
  5
19E
330
172
100
AcDbEntity
  8
Capa 1
 62
     7
370
    15
100
AcDbVertex
100
AcDb2dVertex
 10
123.8113012647303
 20
75.17444464715462
 30
0.0
  0
VERTEX
  5
19F
330
172
100
AcDbEntity
  8
Capa 1
 62
     7
370
    15
100
AcDbVertex
100
AcDb2dVertex
 10
123.8113012647303
 20
77.56947660848958
 30
0.0
  0
VERTEX
  5
1A0
330
172
100
AcDbEntity
  8
Capa 1
 62
     7
370
    15
100
AcDbVertex
100
AcDb2dVertex
 10
123.8113012647303
 20
80.10231248014301
 30
0.0
  0
SEQEND
  5
1A1
330
172
100
AcDbEntity
  8
Capa 1
370
    15
  0
ENDBLK
  5
171
330
16E
100
AcDbEntity
  8
0
100
AcDbBlockEnd
  0
BLOCK
  5
1A4
330
1A2
100
AcDbEntity
  8
0
100
AcDbBlockBegin
  2
block 30
 70
     0
 71
     0
 10
0.0
 20
0.0
 30
0.0
  3
block 30
  1

  0
SPLINE
  5
1A6
330
1A2
100
AcDbEntity
  8
Capa 1
 62
     7
370
    25
100
AcDbSpline
210
0.0
220
0.0
230
1.0
 70
     8
 71
     3
 72
    11
 73
     7
 74
     0
 42
0.0000000001
 43
0.0000000001
 40
0.0
 40
0.0
 40
0.0
 40
0.0
 40
1.0
 40
1.0
 40
1.0
 40
2.0
 40
2.0
 40
2.0
 40
2.0
 10
130.9219830371633
 20
87.73664911178612
 30
0.0
 10
128.860436538799
 20
87.73664911178612
 30
0.0
 10
127.1847409893264
 20
86.06095356231356
 30
0.0
 10
127.1847409893264
 20
83.9966509857429
 30
0.0
 10
127.1847409893264
 20
83.9966509857429
 30
0.0
 10
127.1847409893264
 20
83.9966509857429
 30
0.0
 10
127.1847409893264
 20
83.9966509857429
 30
0.0
  0
ENDBLK
  5
1A5
330
1A2
100
AcDbEntity
  8
0
100
AcDbBlockEnd
  0
BLOCK
  5
1A9
330
1A7
100
AcDbEntity
  8
0
100
AcDbBlockBegin
  2
block 31
 70
     0
 71
     0
 10
0.0
 20
0.0
 30
0.0
  3
block 31
  1

  0
POLYLINE
  5
1AB
330
1A7
100
AcDbEntity
  8
Capa 1
 62
     7
370
    25
100
AcDb2dPolyline
 66
     1
 10
0.0
 20
0.0
 30
0.0
  0
VERTEX
  5
1AC
330
1AB
100
AcDbEntity
  8
Capa 1
 62
     7
370
    25
100
AcDbVertex
100
AcDb2dVertex
 10
122.2375806088935
 20
104.1656312999538
 30
0.0
  0
VERTEX
  5
1AD
330
1AB
100
AcDbEntity
  8
Capa 1
 62
     7
370
    25
100
AcDbVertex
100
AcDb2dVertex
 10
122.2375806088935
 20
80.10231248014301
 30
0.0
  0
SEQEND
  5
1AE
330
1AB
100
AcDbEntity
  8
Capa 1
370
    25
  0
ENDBLK
  5
1AA
330
1A7
100
AcDbEntity
  8
0
100
AcDbBlockEnd
  0
BLOCK
  5
1B1
330
1AF
100
AcDbEntity
  8
0
100
AcDbBlockBegin
  2
block 32
 70
     0
 71
     0
 10
0.0
 20
0.0
 30
0.0
  3
block 32
  1

  0
POLYLINE
  5
1B3
330
1AF
100
AcDbEntity
  8
Capa 1
 62
     7
370
    15
100
AcDb2dPolyline
 66
     1
 10
0.0
 20
0.0
 30
0.0
  0
VERTEX
  5
1B4
330
1B3
100
AcDbEntity
  8
Capa 1
 62
     7
370
    15
100
AcDbVertex
100
AcDb2dVertex
 10
157.2783589246734
 20
52.06748496495398
 30
0.0
  0
VERTEX
  5
1B5
330
1B3
100
AcDbEntity
  8
Capa 1
 62
     7
370
    15
100
AcDbVertex
100
AcDb2dVertex
 10
154.5525975785741
 20
52.07299712136672
 30
0.0
  0
VERTEX
  5
1B6
330
1B3
100
AcDbEntity
  8
Capa 1
 62
     7
370
    15
100
AcDbVertex
100
AcDb2dVertex
 10
151.5980817413461
 20
52.07850927777945
 30
0.0
  0
VERTEX
  5
1B7
330
1B3
100
AcDbEntity
  8
Capa 1
 62
     7
370
    15
100
AcDbVertex
100
AcDb2dVertex
 10
148.7813698144367
 20
52.08953359060494
 30
0.0
  0
VERTEX
  5
1B8
330
1B3
100
AcDbEntity
  8
Capa 1
 62
     7
370
    15
100
AcDbVertex
100
AcDb2dVertex
 10
146.105217876052
 20
52.10331398163678
 30
0.0
  0
VERTEX
  5
1B9
330
1B3
100
AcDbEntity
  8
Capa 1
 62
     7
370
    15
100
AcDbVertex
100
AcDb2dVertex
 10
143.5668698479859
 20
52.119850450875
 30
0.0
  0
VERTEX
  5
1BA
330
1B3
100
AcDbEntity
  8
Capa 1
 62
     7
370
    15
100
AcDbVertex
100
AcDb2dVertex
 10
141.1553014174127
 20
52.13914299831958
 30
0.0
  0
VERTEX
  5
1BB
330
1B3
100
AcDbEntity
  8
Capa 1
 62
     7
370
    15
100
AcDbVertex
100
AcDb2dVertex
 10
138.8650004279197
 20
52.16394770217691
 30
0.0
  0
VERTEX
  5
1BC
330
1B3
100
AcDbEntity
  8
Capa 1
 62
     7
370
    15
100
AcDbVertex
100
AcDb2dVertex
 10
136.6325770807606
 20
52.18875240603423
 30
0.0
  0
VERTEX
  5
1BD
330
1B3
100
AcDbEntity
  8
Capa 1
 62
     7
370
    15
100
AcDbVertex
100
AcDb2dVertex
 10
134.4883482362052
 20
52.21631318809792
 30
0.0
  0
VERTEX
  5
1BE
330
1B3
100
AcDbEntity
  8
Capa 1
 62
     7
370
    15
100
AcDbVertex
100
AcDb2dVertex
 10
132.4157774250154
 20
52.24387397016162
 30
0.0
  0
VERTEX
  5
1BF
330
1B3
100
AcDbEntity
  8
Capa 1
 62
     7
370
    15
100
AcDbVertex
100
AcDb2dVertex
 10
131.464930443818
 20
52.25765436119347
 30
0.0
  0
VERTEX
  5
1C0
330
1B3
100
AcDbEntity
  8
Capa 1
 62
     7
370
    15
100
AcDbVertex
100
AcDb2dVertex
 10
130.5306199318588
 20
52.27143475222531
 30
0.0
  0
VERTEX
  5
1C1
330
1B3
100
AcDbEntity
  8
Capa 1
 62
     7
370
    15
100
AcDbVertex
100
AcDb2dVertex
 10
129.6156019673442
 20
52.28521514325715
 30
0.0
  0
VERTEX
  5
1C2
330
1B3
100
AcDbEntity
  8
Capa 1
 62
     7
370
    15
100
AcDbVertex
100
AcDb2dVertex
 10
128.711608315655
 20
52.31277592532085
 30
0.0
  0
VERTEX
  5
1C3
330
1B3
100
AcDbEntity
  8
Capa 1
 62
     7
370
    15
100
AcDbVertex
100
AcDb2dVertex
 10
127.8461997588551
 20
52.43404336640111
 30
0.0
  0
VERTEX
  5
1C4
330
1B3
100
AcDbEntity
  8
Capa 1
 62
     7
370
    15
100
AcDbVertex
100
AcDb2dVertex
 10
126.9697668892296
 20
52.67106609214887
 30
0.0
  0
VERTEX
  5
1C5
330
1B3
100
AcDbEntity
  8
Capa 1
 62
     7
370
    15
100
AcDbVertex
100
AcDb2dVertex
 10
126.1897967568271
 20
52.99352724229408
 30
0.0
  0
VERTEX
  5
1C6
330
1B3
100
AcDbEntity
  8
Capa 1
 62
     7
370
    15
100
AcDbVertex
100
AcDb2dVertex
 10
125.5393623001239
 20
53.3518174091221
 30
0.0
  0
VERTEX
  5
1C7
330
1B3
100
AcDbEntity
  8
Capa 1
 62
     7
370
    15
100
AcDbVertex
100
AcDb2dVertex
 10
125.1287066473749
 20
53.62742522975903
 30
0.0
  0
VERTEX
  5
1C8
330
1B3
100
AcDbEntity
  8
Capa 1
 62
     7
370
    15
100
AcDbVertex
100
AcDb2dVertex
 10
124.7841968715787
 20
53.89752089398323
 30
0.0
  0
VERTEX
  5
1C9
330
1B3
100
AcDbEntity
  8
Capa 1
 62
     7
370
    15
100
AcDbVertex
100
AcDb2dVertex
 10
124.5003208163227
 20
54.14556793255647
 30
0.0
  0
VERTEX
  5
1CA
330
1B3
100
AcDbEntity
  8
Capa 1
 62
     7
370
    15
100
AcDbVertex
100
AcDb2dVertex
 10
124.241249464924
 20
54.39912712754245
 30
0.0
  0
VERTEX
  5
1CB
330
1B3
100
AcDbEntity
  8
Capa 1
 62
     7
370
    15
100
AcDbVertex
100
AcDb2dVertex
 10
123.9270565493979
 20
54.74088082513225
 30
0.0
  0
VERTEX
  5
1CC
330
1B3
100
AcDbEntity
  8
Capa 1
 62
     7
370
    15
100
AcDbVertex
100
AcDb2dVertex
 10
123.5797906953953
 20
55.17909725994497
 30
0.0
  0
VERTEX
  5
1CD
330
1B3
100
AcDbEntity
  8
Capa 1
 62
     7
370
    15
100
AcDbVertex
100
AcDb2dVertex
 10
123.2821342491074
 20
55.62006977296407
 30
0.0
  0
VERTEX
  5
1CE
330
1B3
100
AcDbEntity
  8
Capa 1
 62
     7
370
    15
100
AcDbVertex
100
AcDb2dVertex
 10
123.0561358361851
 20
56.01418895647489
 30
0.0
  0
VERTEX
  5
1CF
330
1B3
100
AcDbEntity
  8
Capa 1
 62
     7
370
    15
100
AcDbVertex
100
AcDb2dVertex
 10
122.890771143803
 20
56.35043049765195
 30
0.0
  0
VERTEX
  5
1D0
330
1B3
100
AcDbEntity
  8
Capa 1
 62
     7
370
    15
100
AcDbVertex
100
AcDb2dVertex
 10
122.7612354681036
 20
56.63981870932073
 30
0.0
  0
VERTEX
  5
1D1
330
1B3
100
AcDbEntity
  8
Capa 1
 62
     7
370
    15
100
AcDbVertex
100
AcDb2dVertex
 10
122.6234315577852
 20
57.00637711076786
 30
0.0
  0
VERTEX
  5
1D2
330
1B3
100
AcDbEntity
  8
Capa 1
 62
     7
370
    15
100
AcDbVertex
100
AcDb2dVertex
 10
122.480115491054
 20
57.47491040585064
 30
0.0
  0
VERTEX
  5
1D3
330
1B3
100
AcDbEntity
  8
Capa 1
 62
     7
370
    15
100
AcDbVertex
100
AcDb2dVertex
 10
122.3478237371482
 20
58.05919898560095
 30
0.0
  0
VERTEX
  5
1D4
330
1B3
100
AcDbEntity
  8
Capa 1
 62
     7
370
    15
100
AcDbVertex
100
AcDb2dVertex
 10
122.2596292345444
 20
58.76199892822513
 30
0.0
  0
VERTEX
  5
1D5
330
1B3
100
AcDbEntity
  8
Capa 1
 62
     7
370
    15
100
AcDbVertex
100
AcDb2dVertex
 10
122.2375806088935
 20
59.58055415551683
 30
0.0
  0
VERTEX
  5
1D6
330
1B3
100
AcDbEntity
  8
Capa 1
 62
     7
370
    15
100
AcDbVertex
100
AcDb2dVertex
 10
122.2375806088935
 20
60.51486466747604
 30
0.0
  0
VERTEX
  5
1D7
330
1B3
100
AcDbEntity
  8
Capa 1
 62
     7
370
    15
100
AcDbVertex
100
AcDb2dVertex
 10
122.2375806088935
 20
61.55666222948366
 30
0.0
  0
VERTEX
  5
1D8
330
1B3
100
AcDbEntity
  8
Capa 1
 62
     7
370
    15
100
AcDbVertex
100
AcDb2dVertex
 10
122.2375806088935
 20
62.7031907633333
 30
0.0
  0
VERTEX
  5
1D9
330
1B3
100
AcDbEntity
  8
Capa 1
 62
     7
370
    15
100
AcDbVertex
100
AcDb2dVertex
 10
122.2375806088935
 20
63.95720634723136
 30
0.0
  0
VERTEX
  5
1DA
330
1B3
100
AcDbEntity
  8
Capa 1
 62
     7
370
    15
100
AcDbVertex
100
AcDb2dVertex
 10
122.2375806088935
 20
65.32146505938418
 30
0.0
  0
VERTEX
  5
1DB
330
1B3
100
AcDbEntity
  8
Capa 1
 62
     7
370
    15
100
AcDbVertex
100
AcDb2dVertex
 10
122.2375806088935
 20
67.0109409998886
 30
0.0
  0
VERTEX
  5
1DC
330
1B3
100
AcDbEntity
  8
Capa 1
 62
     7
370
    15
100
AcDbVertex
100
AcDb2dVertex
 10
122.2375806088935
 20
68.84097692891785
 30
0.0
  0
VERTEX
  5
1DD
330
1B3
100
AcDbEntity
  8
Capa 1
 62
     7
370
    15
100
AcDbVertex
100
AcDb2dVertex
 10
122.2375806088935
 20
70.8143289246783
 30
0.0
  0
VERTEX
  5
1DE
330
1B3
100
AcDbEntity
  8
Capa 1
 62
     7
370
    15
100
AcDbVertex
100
AcDb2dVertex
 10
122.2375806088935
 20
72.91997267434449
 30
0.0
  0
VERTEX
  5
1DF
330
1B3
100
AcDbEntity
  8
Capa 1
 62
     7
370
    15
100
AcDbVertex
100
AcDb2dVertex
 10
122.2375806088935
 20
75.17444464715462
 30
0.0
  0
VERTEX
  5
1E0
330
1B3
100
AcDbEntity
  8
Capa 1
 62
     7
370
    15
100
AcDbVertex
100
AcDb2dVertex
 10
122.2375806088935
 20
77.56947660848958
 30
0.0
  0
VERTEX
  5
1E1
330
1B3
100
AcDbEntity
  8
Capa 1
 62
     7
370
    15
100
AcDbVertex
100
AcDb2dVertex
 10
122.2375806088935
 20
80.10231248014301
 30
0.0
  0
SEQEND
  5
1E2
330
1B3
100
AcDbEntity
  8
Capa 1
370
    15
  0
ENDBLK
  5
1B2
330
1AF
100
AcDbEntity
  8
0
100
AcDbBlockEnd
  0
BLOCK
  5
1E5
330
1E3
100
AcDbEntity
  8
0
100
AcDbBlockBegin
  2
block 33
 70
     0
 71
     0
 10
0.0
 20
0.0
 30
0.0
  3
block 33
  1

  0
SPLINE
  5
1E7
330
1E3
100
AcDbEntity
  8
Capa 1
 62
   253
370
    15
100
AcDbSpline
210
0.0
220
0.0
230
1.0
 70
     8
 71
     3
 72
    14
 73
    10
 74
     0
 42
0.0000000001
 43
0.0000000001
 40
0.0
 40
0.0
 40
0.0
 40
0.0
 40
1.0
 40
1.0
 40
1.0
 40
2.0
 40
2.0
 40
2.0
 40
3.0
 40
3.0
 40
3.0
 40
3.0
 10
157.2783589246734
 20
84.30808782306265
 30
0.0
 10
154.954984996704
 20
84.30808782306265
 30
0.0
 10
153.0753396599601
 20
82.42293032990601
 30
0.0
 10
153.0753396599601
 20
80.10231248014301
 30
0.0
 10
153.0753396599601
 20
77.77893855217366
 30
0.0
 10
154.954984996704
 20
75.89653713722339
 30
0.0
 10
157.2783589246734
 20
75.89653713722339
 30
0.0
 10
157.2783589246734
 20
75.89653713722339
 30
0.0
 10
157.2783589246734
 20
75.89653713722339
 30
0.0
 10
157.2783589246734
 20
75.89653713722339
 30
0.0
  0
ENDBLK
  5
1E6
330
1E3
100
AcDbEntity
  8
0
100
AcDbBlockEnd
  0
BLOCK
  5
1EA
330
1E8
100
AcDbEntity
  8
0
100
AcDbBlockBegin
  2
block 34
 70
     0
 71
     0
 10
0.0
 20
0.0
 30
0.0
  3
block 34
  1

  0
SPLINE
  5
1EC
330
1E8
100
AcDbEntity
  8
Capa 1
 62
     7
370
    25
100
AcDbSpline
210
0.0
220
0.0
230
1.0
 70
     8
 71
     3
 72
    62
 73
    58
 74
     0
 42
0.0000000001
 43
0.0000000001
 40
0.0
 40
0.0
 40
0.0
 40
0.0
 40
1.0
 40
1.0
 40
1.0
 40
2.0
 40
2.0
 40
2.0
 40
3.0
 40
3.0
 40
3.0
 40
4.0
 40
4.0
 40
4.0
 40
5.0
 40
5.0
 40
5.0
 40
6.0
 40
6.0
 40
6.0
 40
7.0
 40
7.0
 40
7.0
 40
8.0
 40
8.0
 40
8.0
 40
9.0
 40
9.0
 40
9.0
 40
10.0
 40
10.0
 40
10.0
 40
11.0
 40
11.0
 40
11.0
 40
12.0
 40
12.0
 40
12.0
 40
13.0
 40
13.0
 40
13.0
 40
14.0
 40
14.0
 40
14.0
 40
15.0
 40
15.0
 40
15.0
 40
16.0
 40
16.0
 40
16.0
 40
17.0
 40
17.0
 40
17.0
 40
18.0
 40
18.0
 40
18.0
 40
19.0
 40
19.0
 40
19.0
 40
19.0
 10
157.2783589246734
 20
88.67371570195169
 30
0.0
 10
157.2535542208161
 20
88.67371570195169
 30
0.0
 10
157.2259934387523
 20
88.67371570195169
 30
0.0
 10
157.1984326566887
 20
88.67371570195169
 30
0.0
 10
157.1984326566887
 20
88.67371570195169
 30
0.0
 10
157.1984326566887
 20
88.67371570195169
 30
0.0
 10
157.1984326566887
 20
88.67371570195169
 30
0.0
 10
157.0165314950683
 20
88.67922785836443
 30
0.0
 10
156.8373864116543
 20
88.7178129532536
 30
0.0
 10
156.6747777974785
 20
88.78395883020647
 30
0.0
 10
156.6747777974785
 20
88.78395883020647
 30
0.0
 10
156.6747777974785
 20
88.78395883020647
 30
0.0
 10
156.6747777974785
 20
88.78395883020647
 30
0.0
 10
156.5149252615091
 20
88.8445925507466
 30
0.0
 10
156.3688531165715
 20
88.93278705335041
 30
0.0
 10
156.2558539101103
 20
89.04303018160519
 30
0.0
 10
156.2558539101103
 20
89.04303018160519
 30
0.0
 10
156.2558539101103
 20
89.04303018160519
 30
0.0
 10
156.2558539101103
 20
89.04303018160519
 30
0.0
 10
156.1676594075065
 20
89.12571252779627
 30
0.0
 10
156.1015135305537
 20
89.21941918681283
 30
0.0
 10
156.0574162792518
 20
89.31863800224212
 30
0.0
 10
156.0574162792518
 20
89.31863800224212
 30
0.0
 10
156.0574162792518
 20
89.31863800224212
 30
0.0
 10
156.0574162792518
 20
89.31863800224212
 30
0.0
 10
156.0133190279498
 20
89.42336897408416
 30
0.0
 10
155.9912704022989
 20
89.53361210233894
 30
0.0
 10
155.9967825587116
 20
89.6438552305937
 30
0.0
 10
155.9967825587116
 20
89.6438552305937
 30
0.0
 10
155.9967825587116
 20
89.6438552305937
 30
0.0
 10
155.9967825587116
 20
89.6438552305937
 30
0.0
 10
155.999538636918
 20
89.7513422806421
 30
0.0
 10
156.0298554971881
 20
89.85882933069051
 30
0.0
 10
156.0822209831091
 20
89.96080422432618
 30
0.0
 10
156.0822209831091
 20
89.96080422432618
 30
0.0
 10
156.0822209831091
 20
89.96080422432618
 30
0.0
 10
156.0822209831091
 20
89.96080422432618
 30
0.0
 10
156.1345864690301
 20
90.0572669615491
 30
0.0
 10
156.2117566588084
 20
90.14546146415293
 30
0.0
 10
156.3027072396186
 20
90.22814381034401
 30
0.0
 10
156.3027072396186
 20
90.22814381034401
 30
0.0
 10
156.3027072396186
 20
90.22814381034401
 30
0.0
 10
156.3027072396186
 20
90.22814381034401
 30
0.0
 10
156.3936578204288
 20
90.30531400012235
 30
0.0
 10
156.5039009486836
 20
90.37421595528158
 30
0.0
 10
156.6196562333511
 20
90.42106928478987
 30
0.0
 10
156.6196562333511
 20
90.42106928478987
 30
0.0
 10
156.6196562333511
 20
90.42106928478987
 30
0.0
 10
156.6196562333511
 20
90.42106928478987
 30
0.0
 10
156.7795087693205
 20
90.49272731815547
 30
0.0
 10
156.9586538527345
 20
90.53682456945738
 30
0.0
 10
157.1405550143549
 20
90.55060496048922
 30
0.0
 10
157.1405550143549
 20
90.55060496048922
 30
0.0
 10
157.1405550143549
 20
90.55060496048922
 30
0.0
 10
157.1405550143549
 20
90.55060496048922
 30
0.0
 10
157.1846522656568
 20
90.5533610386956
 30
0.0
 10
157.2342616733715
 20
90.5533610386956
 30
0.0
 10
157.2783589246734
 20
90.5533610386956
 30
0.0
  0
ENDBLK
  5
1EB
330
1E8
100
AcDbEntity
  8
0
100
AcDbBlockEnd
  0
BLOCK
  5
1EF
330
1ED
100
AcDbEntity
  8
0
100
AcDbBlockBegin
  2
block 35
 70
     0
 71
     0
 10
0.0
 20
0.0
 30
0.0
  3
block 35
  1

  0
POLYLINE
  5
1F1
330
1ED
100
AcDbEntity
  8
Capa 1
 62
     7
370
    15
100
AcDb2dPolyline
 66
     1
 10
0.0
 20
0.0
 30
0.0
  0
VERTEX
  5
1F2
330
1F1
100
AcDbEntity
  8
Capa 1
 62
     7
370
    15
100
AcDbVertex
100
AcDb2dVertex
 10
93.07276102909297
 20
220.1414022239761
 30
0.0
  0
VERTEX
  5
1F3
330
1F1
100
AcDbEntity
  8
Capa 1
 62
     7
370
    15
100
AcDbVertex
100
AcDb2dVertex
 10
93.07000495088661
 20
135.5711424615326
 30
0.0
  0
SEQEND
  5
1F4
330
1F1
100
AcDbEntity
  8
Capa 1
370
    15
  0
ENDBLK
  5
1F0
330
1ED
100
AcDbEntity
  8
0
100
AcDbBlockEnd
  0
BLOCK
  5
1F7
330
1F5
100
AcDbEntity
  8
0
100
AcDbBlockBegin
  2
block 36
 70
     0
 71
     0
 10
0.0
 20
0.0
 30
0.0
  3
block 36
  1

  0
POLYLINE
  5
1F9
330
1F5
100
AcDbEntity
  8
Capa 1
 62
     7
370
    15
100
AcDb2dPolyline
 66
     1
 10
0.0
 20
0.0
 30
0.0
  0
VERTEX
  5
1FA
330
1F9
100
AcDbEntity
  8
Capa 1
 62
     7
370
    15
100
AcDbVertex
100
AcDb2dVertex
 10
115.264702746779
 20
220.1414022239761
 30
0.0
  0
VERTEX
  5
1FB
330
1F9
100
AcDbEntity
  8
Capa 1
 62
     7
370
    15
100
AcDbVertex
100
AcDb2dVertex
 10
115.2619466685726
 20
135.5711424615326
 30
0.0
  0
SEQEND
  5
1FC
330
1F9
100
AcDbEntity
  8
Capa 1
370
    15
  0
ENDBLK
  5
1F8
330
1F5
100
AcDbEntity
  8
0
100
AcDbBlockEnd
  0
BLOCK
  5
1FF
330
1FD
100
AcDbEntity
  8
0
100
AcDbBlockBegin
  2
block 37
 70
     0
 71
     0
 10
0.0
 20
0.0
 30
0.0
  3
block 37
  1

  0
POLYLINE
  5
201
330
1FD
100
AcDbEntity
  8
Capa 1
 62
     7
370
    15
100
AcDb2dPolyline
 66
     1
 10
0.0
 20
0.0
 30
0.0
  0
VERTEX
  5
202
330
201
100
AcDbEntity
  8
Capa 1
 62
     7
370
    15
100
AcDbVertex
100
AcDb2dVertex
 10
115.1461913839051
 20
135.4526310986587
 30
0.0
  0
VERTEX
  5
203
330
201
100
AcDbEntity
  8
Capa 1
 62
     7
370
    15
100
AcDbVertex
100
AcDb2dVertex
 10
93.18576023555411
 20
135.4526310986587
 30
0.0
  0
SEQEND
  5
204
330
201
100
AcDbEntity
  8
Capa 1
370
    15
  0
ENDBLK
  5
200
330
1FD
100
AcDbEntity
  8
0
100
AcDbBlockEnd
  0
BLOCK
  5
207
330
205
100
AcDbEntity
  8
0
100
AcDbBlockBegin
  2
block 38
 70
     0
 71
     0
 10
0.0
 20
0.0
 30
0.0
  3
block 38
  1

  0
SPLINE
  5
209
330
205
100
AcDbEntity
  8
Capa 1
 62
     7
370
    15
100
AcDbSpline
210
0.0
220
0.0
230
1.0
 70
     8
 71
     3
 72
     8
 73
     4
 74
     0
 42
0.0000000001
 43
0.0000000001
 40
0.0
 40
0.0
 40
0.0
 40
0.0
 40
1.0
 40
1.0
 40
1.0
 40
1.0
 10
93.07000495088661
 20
135.5711424615326
 30
0.0
 10
93.07000495088661
 20
135.5049965845797
 30
0.0
 10
93.11961435860125
 20
135.4526310986587
 30
0.0
 10
93.18576023555411
 20
135.4526310986587
 30
0.0
  0
ENDBLK
  5
208
330
205
100
AcDbEntity
  8
0
100
AcDbBlockEnd
  0
BLOCK
  5
20C
330
20A
100
AcDbEntity
  8
0
100
AcDbBlockBegin
  2
block 39
 70
     0
 71
     0
 10
0.0
 20
0.0
 30
0.0
  3
block 39
  1

  0
SPLINE
  5
20E
330
20A
100
AcDbEntity
  8
Capa 1
 62
     7
370
    15
100
AcDbSpline
210
0.0
220
0.0
230
1.0
 70
     8
 71
     3
 72
     8
 73
     4
 74
     0
 42
0.0000000001
 43
0.0000000001
 40
0.0
 40
0.0
 40
0.0
 40
0.0
 40
1.0
 40
1.0
 40
1.0
 40
1.0
 10
115.1461913839051
 20
135.4526310986587
 30
0.0
 10
115.2095811826516
 20
135.4526310986587
 30
0.0
 10
115.2619466685726
 20
135.5049965845797
 30
0.0
 10
115.2619466685726
 20
135.5711424615326
 30
0.0
  0
ENDBLK
  5
20D
330
20A
100
AcDbEntity
  8
0
100
AcDbBlockEnd
  0
BLOCK
  5
211
330
20F
100
AcDbEntity
  8
0
100
AcDbBlockBegin
  2
block 40
 70
     0
 71
     0
 10
0.0
 20
0.0
 30
0.0
  3
block 40
  1

  0
POLYLINE
  5
213
330
20F
100
AcDbEntity
  8
Capa 1
 62
   253
370
    15
100
AcDb2dPolyline
 66
     1
 10
0.0
 20
0.0
 30
0.0
  0
VERTEX
  5
214
330
213
100
AcDbEntity
  8
Capa 1
 62
   253
370
    15
100
AcDbVertex
100
AcDb2dVertex
 10
113.2224487958593
 20
220.1414022239761
 30
0.0
  0
VERTEX
  5
215
330
213
100
AcDbEntity
  8
Capa 1
 62
   253
370
    15
100
AcDbVertex
100
AcDb2dVertex
 10
113.2196927176529
 20
135.5711424615326
 30
0.0
  0
SEQEND
  5
216
330
213
100
AcDbEntity
  8
Capa 1
370
    15
  0
ENDBLK
  5
212
330
20F
100
AcDbEntity
  8
0
100
AcDbBlockEnd
  0
BLOCK
  5
219
330
217
100
AcDbEntity
  8
0
100
AcDbBlockBegin
  2
block 41
 70
     0
 71
     0
 10
0.0
 20
0.0
 30
0.0
  3
block 41
  1

  0
POLYLINE
  5
21B
330
217
100
AcDbEntity
  8
Capa 1
 62
   253
370
    15
100
AcDb2dPolyline
 66
     1
 10
0.0
 20
0.0
 30
0.0
  0
VERTEX
  5
21C
330
21B
100
AcDbEntity
  8
Capa 1
 62
   253
370
    15
100
AcDbVertex
100
AcDb2dVertex
 10
95.11777105821903
 20
220.1414022239761
 30
0.0
  0
VERTEX
  5
21D
330
21B
100
AcDbEntity
  8
Capa 1
 62
   253
370
    15
100
AcDbVertex
100
AcDb2dVertex
 10
95.11501498001266
 20
135.5711424615326
 30
0.0
  0
SEQEND
  5
21E
330
21B
100
AcDbEntity
  8
Capa 1
370
    15
  0
ENDBLK
  5
21A
330
217
100
AcDbEntity
  8
0
100
AcDbBlockEnd
  0
BLOCK
  5
221
330
21F
100
AcDbEntity
  8
0
100
AcDbBlockBegin
  2
block 42
 70
     0
 71
     0
 10
0.0
 20
0.0
 30
0.0
  3
block 42
  1

  0
POLYLINE
  5
223
330
21F
100
AcDbEntity
  8
Capa 1
  6
AI-Linetype-1
 62
     2
370
    25
100
AcDb2dPolyline
 66
     1
 10
0.0
 20
0.0
 30
0.0
  0
VERTEX
  5
224
330
223
100
AcDbEntity
  8
Capa 1
  6
AI-Linetype-1
 62
     2
370
    25
100
AcDbVertex
100
AcDb2dVertex
 10
157.2783589246734
 20
73.09360560134576
 30
0.0
  0
VERTEX
  5
225
330
223
100
AcDbEntity
  8
Capa 1
  6
AI-Linetype-1
 62
     2
370
    25
100
AcDbVertex
100
AcDb2dVertex
 10
157.2783589246734
 20
87.11101935894027
 30
0.0
  0
SEQEND
  5
226
330
223
100
AcDbEntity
  8
Capa 1
  6
AI-Linetype-1
370
    25
  0
ENDBLK
  5
222
330
21F
100
AcDbEntity
  8
0
100
AcDbBlockEnd
  0
BLOCK
  5
22A
330
228
100
AcDbEntity
  8
0
100
AcDbBlockBegin
  2
block 43
 70
     0
 71
     0
 10
0.0
 20
0.0
 30
0.0
  3
block 43
  1

  0
POLYLINE
  5
22C
330
228
100
AcDbEntity
  8
Capa 1
  6
AI-Linetype-2
 62
     2
370
    25
100
AcDb2dPolyline
 66
     1
 10
0.0
 20
0.0
 30
0.0
  0
VERTEX
  5
22D
330
22C
100
AcDbEntity
  8
Capa 1
  6
AI-Linetype-2
 62
     2
370
    25
100
AcDbVertex
100
AcDb2dVertex
 10
150.2696520458761
 20
80.10231248014301
 30
0.0
  0
VERTEX
  5
22E
330
22C
100
AcDbEntity
  8
Capa 1
  6
AI-Linetype-2
 62
     2
370
    25
100
AcDbVertex
100
AcDb2dVertex
 10
164.289821881677
 20
80.10231248014301
 30
0.0
  0
SEQEND
  5
22F
330
22C
100
AcDbEntity
  8
Capa 1
  6
AI-Linetype-2
370
    25
  0
ENDBLK
  5
22B
330
228
100
AcDbEntity
  8
0
100
AcDbBlockEnd
  0
BLOCK
  5
233
330
231
100
AcDbEntity
  8
0
100
AcDbBlockBegin
  2
block 44
 70
     0
 71
     0
 10
0.0
 20
0.0
 30
0.0
  3
block 44
  1

  0
POLYLINE
  5
235
330
231
100
AcDbEntity
  8
Capa 1
  6
AI-Linetype-3
 62
     2
370
    25
100
AcDb2dPolyline
 66
     1
 10
0.0
 20
0.0
 30
0.0
  0
VERTEX
  5
236
330
235
100
AcDbEntity
  8
Capa 1
  6
AI-Linetype-3
 62
     2
370
    25
100
AcDbVertex
100
AcDb2dVertex
 10
150.2696520458761
 20
97.62270163803298
 30
0.0
  0
VERTEX
  5
237
330
235
100
AcDbEntity
  8
Capa 1
  6
AI-Linetype-3
 62
     2
370
    25
100
AcDbVertex
100
AcDb2dVertex
 10
164.289821881677
 20
97.62270163803298
 30
0.0
  0
SEQEND
  5
238
330
235
100
AcDbEntity
  8
Capa 1
  6
AI-Linetype-3
370
    25
  0
ENDBLK
  5
234
330
231
100
AcDbEntity
  8
0
100
AcDbBlockEnd
  0
BLOCK
  5
23C
330
23A
100
AcDbEntity
  8
0
100
AcDbBlockBegin
  2
block 45
 70
     0
 71
     0
 10
0.0
 20
0.0
 30
0.0
  3
block 45
  1

  0
POLYLINE
  5
23E
330
23A
100
AcDbEntity
  8
Capa 1
  6
AI-Linetype-4
 62
     2
370
    25
100
AcDb2dPolyline
 66
     1
 10
0.0
 20
0.0
 30
0.0
  0
VERTEX
  5
23F
330
23E
100
AcDbEntity
  8
Capa 1
  6
AI-Linetype-4
 62
     2
370
    25
100
AcDbVertex
100
AcDb2dVertex
 10
157.2783589246734
 20
90.61399475923572
 30
0.0
  0
VERTEX
  5
240
330
23E
100
AcDbEntity
  8
Capa 1
  6
AI-Linetype-4
 62
     2
370
    25
100
AcDbVertex
100
AcDb2dVertex
 10
157.2783589246734
 20
104.6314085168302
 30
0.0
  0
SEQEND
  5
241
330
23E
100
AcDbEntity
  8
Capa 1
  6
AI-Linetype-4
370
    25
  0
ENDBLK
  5
23D
330
23A
100
AcDbEntity
  8
0
100
AcDbBlockEnd
  0
BLOCK
  5
245
330
243
100
AcDbEntity
  8
0
100
AcDbBlockBegin
  2
block 46
 70
     0
 71
     0
 10
0.0
 20
0.0
 30
0.0
  3
block 46
  1

  0
POLYLINE
  5
247
330
243
100
AcDbEntity
  8
Capa 1
  6
AI-Linetype-5
 62
     2
370
    25
100
AcDb2dPolyline
 66
     1
 10
0.0
 20
0.0
 30
0.0
  0
VERTEX
  5
248
330
247
100
AcDbEntity
  8
Capa 1
  6
AI-Linetype-5
 62
     2
370
    25
100
AcDbVertex
100
AcDb2dVertex
 10
90.61985142542426
 20
229.8345292757771
 30
0.0
  0
VERTEX
  5
249
330
247
100
AcDbEntity
  8
Capa 1
  6
AI-Linetype-5
 62
     2
370
    25
100
AcDbVertex
100
AcDb2dVertex
 10
85.01398835366899
 20
229.8345292757771
 30
0.0
  0
SEQEND
  5
24A
330
247
100
AcDbEntity
  8
Capa 1
  6
AI-Linetype-5
370
    25
  0
ENDBLK
  5
246
330
243
100
AcDbEntity
  8
0
100
AcDbBlockEnd
  0
BLOCK
  5
24E
330
24C
100
AcDbEntity
  8
0
100
AcDbBlockBegin
  2
block 47
 70
     0
 71
     0
 10
0.0
 20
0.0
 30
0.0
  3
block 47
  1

  0
POLYLINE
  5
250
330
24C
100
AcDbEntity
  8
Capa 1
  6
AI-Linetype-6
 62
     2
370
    25
100
AcDb2dPolyline
 66
     1
 10
0.0
 20
0.0
 30
0.0
  0
VERTEX
  5
251
330
250
100
AcDbEntity
  8
Capa 1
  6
AI-Linetype-6
 62
     2
370
    25
100
AcDbVertex
100
AcDb2dVertex
 10
87.81416381134025
 20
227.0315977398995
 30
0.0
  0
VERTEX
  5
252
330
250
100
AcDbEntity
  8
Capa 1
  6
AI-Linetype-6
 62
     2
370
    25
100
AcDbVertex
100
AcDb2dVertex
 10
87.81416381134025
 20
232.6402168898611
 30
0.0
  0
SEQEND
  5
253
330
250
100
AcDbEntity
  8
Capa 1
  6
AI-Linetype-6
370
    25
  0
ENDBLK
  5
24F
330
24C
100
AcDbEntity
  8
0
100
AcDbBlockEnd
  0
BLOCK
  5
257
330
255
100
AcDbEntity
  8
0
100
AcDbBlockBegin
  2
block 48
 70
     0
 71
     0
 10
0.0
 20
0.0
 30
0.0
  3
block 48
  1

  0
SPLINE
  5
259
330
255
100
AcDbEntity
  8
Capa 1
  6
AI-Linetype-7
 62
     1
370
    25
100
AcDbSpline
210
0.0
220
0.0
230
1.0
 70
     8
 71
     3
 72
    14
 73
    10
 74
     0
 42
0.0000000001
 43
0.0000000001
 40
0.0
 40
0.0
 40
0.0
 40
0.0
 40
1.0
 40
1.0
 40
1.0
 40
2.0
 40
2.0
 40
2.0
 40
3.0
 40
3.0
 40
3.0
 40
3.0
 10
87.23263130979632
 20
231.0031064352777
 30
0.0
 10
86.5877090095059
 20
231.0031064352777
 30
0.0
 10
86.06405415029572
 20
230.4794515760675
 30
0.0
 10
86.06405415029572
 20
229.8345292757771
 30
0.0
 10
86.06405415029572
 20
229.1896069754867
 30
0.0
 10
86.5877090095059
 20
228.6659521162765
 30
0.0
 10
87.23263130979632
 20
228.6659521162765
 30
0.0
 10
87.23263130979632
 20
228.6659521162765
 30
0.0
 10
87.23263130979632
 20
228.6659521162765
 30
0.0
 10
87.23263130979632
 20
228.6659521162765
 30
0.0
  0
ENDBLK
  5
258
330
255
100
AcDbEntity
  8
0
100
AcDbBlockEnd
  0
BLOCK
  5
25D
330
25B
100
AcDbEntity
  8
0
100
AcDbBlockBegin
  2
block 49
 70
     0
 71
     0
 10
0.0
 20
0.0
 30
0.0
  3
block 49
  1

  0
SPLINE
  5
25F
330
25B
100
AcDbEntity
  8
Capa 1
  6
AI-Linetype-8
 62
     1
370
    25
100
AcDbSpline
210
0.0
220
0.0
230
1.0
 70
     8
 71
     3
 72
    14
 73
    10
 74
     0
 42
0.0000000001
 43
0.0000000001
 40
0.0
 40
0.0
 40
0.0
 40
0.0
 40
1.0
 40
1.0
 40
1.0
 40
2.0
 40
2.0
 40
2.0
 40
3.0
 40
3.0
 40
3.0
 40
3.0
 10
88.40120846929693
 20
228.6659521162765
 30
0.0
 10
89.04613076958735
 20
228.6659521162765
 30
0.0
 10
89.56978562879753
 20
229.1896069754867
 30
0.0
 10
89.56978562879753
 20
229.8345292757771
 30
0.0
 10
89.56978562879753
 20
230.4794515760675
 30
0.0
 10
89.04613076958735
 20
231.0031064352777
 30
0.0
 10
88.40120846929693
 20
231.0031064352777
 30
0.0
 10
88.40120846929693
 20
231.0031064352777
 30
0.0
 10
88.40120846929693
 20
231.0031064352777
 30
0.0
 10
88.40120846929693
 20
231.0031064352777
 30
0.0
  0
ENDBLK
  5
25E
330
25B
100
AcDbEntity
  8
0
100
AcDbBlockEnd
  0
BLOCK
  5
263
330
261
100
AcDbEntity
  8
0
100
AcDbBlockBegin
  2
block 50
 70
     0
 71
     0
 10
0.0
 20
0.0
 30
0.0
  3
block 50
  1

  0
POLYLINE
  5
265
330
261
100
AcDbEntity
  8
Capa 1
  6
AI-Linetype-9
 62
     1
370
    25
100
AcDb2dPolyline
 66
     1
 10
0.0
 20
0.0
 30
0.0
  0
VERTEX
  5
266
330
265
100
AcDbEntity
  8
Capa 1
  6
AI-Linetype-9
 62
     1
370
    25
100
AcDbVertex
100
AcDb2dVertex
 10
87.23263130979632
 20
231.0031064352777
 30
0.0
  0
VERTEX
  5
267
330
265
100
AcDbEntity
  8
Capa 1
  6
AI-Linetype-9
 62
     1
370
    25
100
AcDbVertex
100
AcDb2dVertex
 10
88.40120846929693
 20
231.0031064352777
 30
0.0
  0
SEQEND
  5
268
330
265
100
AcDbEntity
  8
Capa 1
  6
AI-Linetype-9
370
    25
  0
ENDBLK
  5
264
330
261
100
AcDbEntity
  8
0
100
AcDbBlockEnd
  0
BLOCK
  5
26C
330
26A
100
AcDbEntity
  8
0
100
AcDbBlockBegin
  2
block 51
 70
     0
 71
     0
 10
0.0
 20
0.0
 30
0.0
  3
block 51
  1

  0
POLYLINE
  5
26E
330
26A
100
AcDbEntity
  8
Capa 1
  6
AI-Linetype-10
 62
     1
370
    25
100
AcDb2dPolyline
 66
     1
 10
0.0
 20
0.0
 30
0.0
  0
VERTEX
  5
26F
330
26E
100
AcDbEntity
  8
Capa 1
  6
AI-Linetype-10
 62
     1
370
    25
100
AcDbVertex
100
AcDb2dVertex
 10
88.40120846929693
 20
228.6659521162765
 30
0.0
  0
VERTEX
  5
270
330
26E
100
AcDbEntity
  8
Capa 1
  6
AI-Linetype-10
 62
     1
370
    25
100
AcDbVertex
100
AcDb2dVertex
 10
87.23263130979632
 20
228.6659521162765
 30
0.0
  0
SEQEND
  5
271
330
26E
100
AcDbEntity
  8
Capa 1
  6
AI-Linetype-10
370
    25
  0
ENDBLK
  5
26D
330
26A
100
AcDbEntity
  8
0
100
AcDbBlockEnd
  0
BLOCK
  5
275
330
273
100
AcDbEntity
  8
0
100
AcDbBlockBegin
  2
block 52
 70
     0
 71
     0
 10
0.0
 20
0.0
 30
0.0
  3
block 52
  1

  0
POLYLINE
  5
277
330
273
100
AcDbEntity
  8
Capa 1
  6
AI-Linetype-11
 62
     2
370
    25
100
AcDb2dPolyline
 66
     1
 10
0.0
 20
0.0
 30
0.0
  0
VERTEX
  5
278
330
277
100
AcDbEntity
  8
Capa 1
  6
AI-Linetype-11
 62
     2
370
    25
100
AcDbVertex
100
AcDb2dVertex
 10
117.712100194035
 20
229.8345292757771
 30
0.0
  0
VERTEX
  5
279
330
277
100
AcDbEntity
  8
Capa 1
  6
AI-Linetype-11
 62
     2
370
    25
100
AcDbVertex
100
AcDb2dVertex
 10
123.3207193439966
 20
229.8345292757771
 30
0.0
  0
SEQEND
  5
27A
330
277
100
AcDbEntity
  8
Capa 1
  6
AI-Linetype-11
370
    25
  0
ENDBLK
  5
276
330
273
100
AcDbEntity
  8
0
100
AcDbBlockEnd
  0
BLOCK
  5
27E
330
27C
100
AcDbEntity
  8
0
100
AcDbBlockBegin
  2
block 53
 70
     0
 71
     0
 10
0.0
 20
0.0
 30
0.0
  3
block 53
  1

  0
POLYLINE
  5
280
330
27C
100
AcDbEntity
  8
Capa 1
  6
AI-Linetype-12
 62
     2
370
    25
100
AcDb2dPolyline
 66
     1
 10
0.0
 20
0.0
 30
0.0
  0
VERTEX
  5
281
330
280
100
AcDbEntity
  8
Capa 1
  6
AI-Linetype-12
 62
     2
370
    25
100
AcDbVertex
100
AcDb2dVertex
 10
120.5150317299126
 20
227.0315977398995
 30
0.0
  0
VERTEX
  5
282
330
280
100
AcDbEntity
  8
Capa 1
  6
AI-Linetype-12
 62
     2
370
    25
100
AcDbVertex
100
AcDb2dVertex
 10
120.5150317299126
 20
232.6402168898611
 30
0.0
  0
SEQEND
  5
283
330
280
100
AcDbEntity
  8
Capa 1
  6
AI-Linetype-12
370
    25
  0
ENDBLK
  5
27F
330
27C
100
AcDbEntity
  8
0
100
AcDbBlockEnd
  0
BLOCK
  5
287
330
285
100
AcDbEntity
  8
0
100
AcDbBlockBegin
  2
block 54
 70
     0
 71
     0
 10
0.0
 20
0.0
 30
0.0
  3
block 54
  1

  0
SPLINE
  5
289
330
285
100
AcDbEntity
  8
Capa 1
  6
AI-Linetype-13
 62
     1
370
    25
100
AcDbSpline
210
0.0
220
0.0
230
1.0
 70
     8
 71
     3
 72
    14
 73
    10
 74
     0
 42
0.0000000001
 43
0.0000000001
 40
0.0
 40
0.0
 40
0.0
 40
0.0
 40
1.0
 40
1.0
 40
1.0
 40
2.0
 40
2.0
 40
2.0
 40
3.0
 40
3.0
 40
3.0
 40
3.0
 10
121.1020763878693
 20
228.6659521162765
 30
0.0
 10
121.7442426099533
 20
228.6659521162765
 30
0.0
 10
122.2678974691635
 20
229.1896069754867
 30
0.0
 10
122.2678974691635
 20
229.8345292757771
 30
0.0
 10
122.2678974691635
 20
230.4794515760675
 30
0.0
 10
121.7442426099533
 20
231.0031064352777
 30
0.0
 10
121.1020763878693
 20
231.0031064352777
 30
0.0
 10
121.1020763878693
 20
231.0031064352777
 30
0.0
 10
121.1020763878693
 20
231.0031064352777
 30
0.0
 10
121.1020763878693
 20
231.0031064352777
 30
0.0
  0
ENDBLK
  5
288
330
285
100
AcDbEntity
  8
0
100
AcDbBlockEnd
  0
BLOCK
  5
28D
330
28B
100
AcDbEntity
  8
0
100
AcDbBlockBegin
  2
block 55
 70
     0
 71
     0
 10
0.0
 20
0.0
 30
0.0
  3
block 55
  1

  0
SPLINE
  5
28F
330
28B
100
AcDbEntity
  8
Capa 1
  6
AI-Linetype-14
 62
     1
370
    25
100
AcDbSpline
210
0.0
220
0.0
230
1.0
 70
     8
 71
     3
 72
    14
 73
    10
 74
     0
 42
0.0000000001
 43
0.0000000001
 40
0.0
 40
0.0
 40
0.0
 40
0.0
 40
1.0
 40
1.0
 40
1.0
 40
2.0
 40
2.0
 40
2.0
 40
3.0
 40
3.0
 40
3.0
 40
3.0
 10
119.9334992283687
 20
231.0031064352777
 30
0.0
 10
119.2858208498719
 20
231.0031064352777
 30
0.0
 10
118.7621659906617
 20
230.4794515760675
 30
0.0
 10
118.7621659906617
 20
229.8345292757771
 30
0.0
 10
118.7621659906617
 20
229.1896069754867
 30
0.0
 10
119.2858208498719
 20
228.6659521162765
 30
0.0
 10
119.9334992283687
 20
228.6659521162765
 30
0.0
 10
119.9334992283687
 20
228.6659521162765
 30
0.0
 10
119.9334992283687
 20
228.6659521162765
 30
0.0
 10
119.9334992283687
 20
228.6659521162765
 30
0.0
  0
ENDBLK
  5
28E
330
28B
100
AcDbEntity
  8
0
100
AcDbBlockEnd
  0
BLOCK
  5
293
330
291
100
AcDbEntity
  8
0
100
AcDbBlockBegin
  2
block 56
 70
     0
 71
     0
 10
0.0
 20
0.0
 30
0.0
  3
block 56
  1

  0
POLYLINE
  5
295
330
291
100
AcDbEntity
  8
Capa 1
  6
AI-Linetype-15
 62
     1
370
    25
100
AcDb2dPolyline
 66
     1
 10
0.0
 20
0.0
 30
0.0
  0
VERTEX
  5
296
330
295
100
AcDbEntity
  8
Capa 1
  6
AI-Linetype-15
 62
     1
370
    25
100
AcDbVertex
100
AcDb2dVertex
 10
121.1020763878693
 20
231.0031064352777
 30
0.0
  0
VERTEX
  5
297
330
295
100
AcDbEntity
  8
Capa 1
  6
AI-Linetype-15
 62
     1
370
    25
100
AcDbVertex
100
AcDb2dVertex
 10
119.9334992283687
 20
231.0031064352777
 30
0.0
  0
SEQEND
  5
298
330
295
100
AcDbEntity
  8
Capa 1
  6
AI-Linetype-15
370
    25
  0
ENDBLK
  5
294
330
291
100
AcDbEntity
  8
0
100
AcDbBlockEnd
  0
BLOCK
  5
29C
330
29A
100
AcDbEntity
  8
0
100
AcDbBlockBegin
  2
block 57
 70
     0
 71
     0
 10
0.0
 20
0.0
 30
0.0
  3
block 57
  1

  0
POLYLINE
  5
29E
330
29A
100
AcDbEntity
  8
Capa 1
  6
AI-Linetype-16
 62
     1
370
    25
100
AcDb2dPolyline
 66
     1
 10
0.0
 20
0.0
 30
0.0
  0
VERTEX
  5
29F
330
29E
100
AcDbEntity
  8
Capa 1
  6
AI-Linetype-16
 62
     1
370
    25
100
AcDbVertex
100
AcDb2dVertex
 10
119.9334992283687
 20
228.6659521162765
 30
0.0
  0
VERTEX
  5
2A0
330
29E
100
AcDbEntity
  8
Capa 1
  6
AI-Linetype-16
 62
     1
370
    25
100
AcDbVertex
100
AcDb2dVertex
 10
121.1020763878693
 20
228.6659521162765
 30
0.0
  0
SEQEND
  5
2A1
330
29E
100
AcDbEntity
  8
Capa 1
  6
AI-Linetype-16
370
    25
  0
ENDBLK
  5
29D
330
29A
100
AcDbEntity
  8
0
100
AcDbBlockEnd
  0
BLOCK
  5
2A5
330
2A3
100
AcDbEntity
  8
0
100
AcDbBlockBegin
  2
block 58
 70
     0
 71
     0
 10
0.0
 20
0.0
 30
0.0
  3
block 58
  1

  0
INSERT
  5
2A8
330
2A3
100
AcDbEntity
  8
Capa 1
100
AcDbBlockReference
  2
block 59
 10
0.0
 20
0.0
 30
0.0
  0
ENDBLK
  5
2A6
330
2A3
100
AcDbEntity
  8
0
100
AcDbBlockEnd
  0
BLOCK
  5
2A9
330
2A7
100
AcDbEntity
  8
0
100
AcDbBlockBegin
  2
block 59
 70
     0
 71
     0
 10
0.0
 20
0.0
 30
0.0
  3
block 59
  1

  0
INSERT
  5
2AC
330
2A7
100
AcDbEntity
  8
Capa 1
100
AcDbBlockReference
  2
block 60
 10
0.0
 20
0.0
 30
0.0
  0
INSERT
  5
2B4
330
2A7
100
AcDbEntity
  8
Capa 1
100
AcDbBlockReference
  2
block 61
 10
0.0
 20
0.0
 30
0.0
  0
INSERT
  5
2BC
330
2A7
100
AcDbEntity
  8
Capa 1
100
AcDbBlockReference
  2
block 62
 10
0.0
 20
0.0
 30
0.0
  0
INSERT
  5
2C4
330
2A7
100
AcDbEntity
  8
Capa 1
100
AcDbBlockReference
  2
block 63
 10
0.0
 20
0.0
 30
0.0
  0
INSERT
  5
2CC
330
2A7
100
AcDbEntity
  8
Capa 1
100
AcDbBlockReference
  2
block 64
 10
0.0
 20
0.0
 30
0.0
  0
INSERT
  5
2D7
330
2A7
100
AcDbEntity
  8
Capa 1
100
AcDbBlockReference
  2
block 65
 10
0.0
 20
0.0
 30
0.0
  0
INSERT
  5
2E2
330
2A7
100
AcDbEntity
  8
Capa 1
100
AcDbBlockReference
  2
block 66
 10
0.0
 20
0.0
 30
0.0
  0
INSERT
  5
2E7
330
2A7
100
AcDbEntity
  8
Capa 1
100
AcDbBlockReference
  2
block 67
 10
0.0
 20
0.0
 30
0.0
  0
INSERT
  5
2EF
330
2A7
100
AcDbEntity
  8
Capa 1
100
AcDbBlockReference
  2
block 68
 10
0.0
 20
0.0
 30
0.0
  0
INSERT
  5
2F7
330
2A7
100
AcDbEntity
  8
Capa 1
100
AcDbBlockReference
  2
block 69
 10
0.0
 20
0.0
 30
0.0
  0
ENDBLK
  5
2AA
330
2A7
100
AcDbEntity
  8
0
100
AcDbBlockEnd
  0
BLOCK
  5
2AD
330
2AB
100
AcDbEntity
  8
0
100
AcDbBlockBegin
  2
block 60
 70
     0
 71
     0
 10
0.0
 20
0.0
 30
0.0
  3
block 60
  1

  0
POLYLINE
  5
2AF
330
2AB
100
AcDbEntity
  8
Capa 1
 62
    72
370
    25
100
AcDb2dPolyline
 66
     1
 10
0.0
 20
0.0
 30
0.0
  0
VERTEX
  5
2B0
330
2AF
100
AcDbEntity
  8
Capa 1
 62
    72
370
    25
100
AcDbVertex
100
AcDb2dVertex
 10
70.05675192770252
 20
234.7403484831146
 30
0.0
  0
VERTEX
  5
2B1
330
2AF
100
AcDbEntity
  8
Capa 1
 62
    72
370
    25
100
AcDbVertex
100
AcDb2dVertex
 10
49.83816220577697
 20
234.7403484831146
 30
0.0
  0
SEQEND
  5
2B2
330
2AF
100
AcDbEntity
  8
Capa 1
370
    25
  0
ENDBLK
  5
2AE
330
2AB
100
AcDbEntity
  8
0
100
AcDbBlockEnd
  0
BLOCK
  5
2B5
330
2B3
100
AcDbEntity
  8
0
100
AcDbBlockBegin
  2
block 61
 70
     0
 71
     0
 10
0.0
 20
0.0
 30
0.0
  3
block 61
  1

  0
POLYLINE
  5
2B7
330
2B3
100
AcDbEntity
  8
Capa 1
 62
    72
370
    25
100
AcDb2dPolyline
 66
     1
 10
0.0
 20
0.0
 30
0.0
  0
VERTEX
  5
2B8
330
2B7
100
AcDbEntity
  8
Capa 1
 62
    72
370
    25
100
AcDbVertex
100
AcDb2dVertex
 10
76.3902196459393
 20
135.4526310986587
 30
0.0
  0
VERTEX
  5
2B9
330
2B7
100
AcDbEntity
  8
Capa 1
 62
    72
370
    25
100
AcDbVertex
100
AcDb2dVertex
 10
49.83816220577697
 20
135.4526310986587
 30
0.0
  0
SEQEND
  5
2BA
330
2B7
100
AcDbEntity
  8
Capa 1
370
    25
  0
ENDBLK
  5
2B6
330
2B3
100
AcDbEntity
  8
0
100
AcDbBlockEnd
  0
BLOCK
  5
2BD
330
2BB
100
AcDbEntity
  8
0
100
AcDbBlockBegin
  2
block 62
 70
     0
 71
     0
 10
0.0
 20
0.0
 30
0.0
  3
block 62
  1

  0
POLYLINE
  5
2BF
330
2BB
100
AcDbEntity
  8
Capa 1
 62
    72
370
    25
100
AcDb2dPolyline
 66
     1
 10
0.0
 20
0.0
 30
0.0
  0
VERTEX
  5
2C0
330
2BF
100
AcDbEntity
  8
Capa 1
 62
    72
370
    25
100
AcDbVertex
100
AcDb2dVertex
 10
52.17807260298455
 20
231.2373730828191
 30
0.0
  0
VERTEX
  5
2C1
330
2BF
100
AcDbEntity
  8
Capa 1
 62
    72
370
    25
100
AcDbVertex
100
AcDb2dVertex
 10
52.17807260298455
 20
190.2517340759005
 30
0.0
  0
SEQEND
  5
2C2
330
2BF
100
AcDbEntity
  8
Capa 1
370
    25
  0
ENDBLK
  5
2BE
330
2BB
100
AcDbEntity
  8
0
100
AcDbBlockEnd
  0
BLOCK
  5
2C5
330
2C3
100
AcDbEntity
  8
0
100
AcDbBlockBegin
  2
block 63
 70
     0
 71
     0
 10
0.0
 20
0.0
 30
0.0
  3
block 63
  1

  0
POLYLINE
  5
2C7
330
2C3
100
AcDbEntity
  8
Capa 1
 62
    72
370
    25
100
AcDb2dPolyline
 66
     1
 10
0.0
 20
0.0
 30
0.0
  0
VERTEX
  5
2C8
330
2C7
100
AcDbEntity
  8
Capa 1
 62
    72
370
    25
100
AcDbVertex
100
AcDb2dVertex
 10
52.17807260298455
 20
138.9556064989541
 30
0.0
  0
VERTEX
  5
2C9
330
2C7
100
AcDbEntity
  8
Capa 1
 62
    72
370
    25
100
AcDbVertex
100
AcDb2dVertex
 10
52.17807260298455
 20
179.9412455058728
 30
0.0
  0
SEQEND
  5
2CA
330
2C7
100
AcDbEntity
  8
Capa 1
370
    25
  0
ENDBLK
  5
2C6
330
2C3
100
AcDbEntity
  8
0
100
AcDbBlockEnd
  0
BLOCK
  5
2CD
330
2CB
100
AcDbEntity
  8
0
100
AcDbBlockBegin
  2
block 64
 70
     0
 71
     0
 10
0.0
 20
0.0
 30
0.0
  3
block 64
  1

  0
POLYLINE
  5
2CF
330
2CB
100
AcDbEntity
  8
Capa 1
370
     0
100
AcDb2dPolyline
 66
     1
 10
0.0
 20
0.0
 30
0.0
  0
VERTEX
  5
2D0
330
2CF
100
AcDbEntity
  8
Capa 1
370
     0
100
AcDbVertex
100
AcDb2dVertex
 10
51.59378402323425
 20
231.2373730828191
 30
0.0
  0
VERTEX
  5
2D1
330
2CF
100
AcDbEntity
  8
Capa 1
370
     0
100
AcDbVertex
100
AcDb2dVertex
 10
52.75960510452848
 20
231.2373730828191
 30
0.0
  0
VERTEX
  5
2D2
330
2CF
100
AcDbEntity
  8
Capa 1
370
     0
100
AcDbVertex
100
AcDb2dVertex
 10
52.17807260298455
 20
234.7403484831146
 30
0.0
  0
VERTEX
  5
2D3
330
2CF
100
AcDbEntity
  8
Capa 1
370
     0
100
AcDbVertex
100
AcDb2dVertex
 10
51.59378402323425
 20
231.2373730828191
 30
0.0
  0
SEQEND
  5
2D4
330
2CF
100
AcDbEntity
  8
Capa 1
370
     0
  0
HATCH
  5
2D5
330
2CB
100
AcDbEntity
  8
Capa 1
 62
    72
100
AcDbHatch
 10
0.0
 20
0.0
 30
0.0
210
0.0
220
0.0
230
1.0
  2
SOLID
 70
     1
 71
     0
 91
        1
 92
        1
 93
        3
 72
     1
 10
51.59378402323425
 20
231.2373730828191
 11
52.75960510452848
 21
231.2373730828191
 72
     1
 10
52.75960510452848
 20
231.2373730828191
 11
52.17807260298455
 21
234.7403484831146
 72
     1
 10
52.17807260298455
 20
234.7403484831146
 11
51.59378402323425
 21
231.2373730828191
 97
        0
 75
     2
 76
     1
 98
        0
  0
ENDBLK
  5
2CE
330
2CB
100
AcDbEntity
  8
0
100
AcDbBlockEnd
  0
BLOCK
  5
2D8
330
2D6
100
AcDbEntity
  8
0
100
AcDbBlockBegin
  2
block 65
 70
     0
 71
     0
 10
0.0
 20
0.0
 30
0.0
  3
block 65
  1

  0
POLYLINE
  5
2DA
330
2D6
100
AcDbEntity
  8
Capa 1
370
     0
100
AcDb2dPolyline
 66
     1
 10
0.0
 20
0.0
 30
0.0
  0
VERTEX
  5
2DB
330
2DA
100
AcDbEntity
  8
Capa 1
370
     0
100
AcDbVertex
100
AcDb2dVertex
 10
51.59378402323425
 20
138.9556064989541
 30
0.0
  0
VERTEX
  5
2DC
330
2DA
100
AcDbEntity
  8
Capa 1
370
     0
100
AcDbVertex
100
AcDb2dVertex
 10
52.75960510452848
 20
138.9556064989541
 30
0.0
  0
VERTEX
  5
2DD
330
2DA
100
AcDbEntity
  8
Capa 1
370
     0
100
AcDbVertex
100
AcDb2dVertex
 10
52.17807260298455
 20
135.4526310986587
 30
0.0
  0
VERTEX
  5
2DE
330
2DA
100
AcDbEntity
  8
Capa 1
370
     0
100
AcDbVertex
100
AcDb2dVertex
 10
51.59378402323425
 20
138.9556064989541
 30
0.0
  0
SEQEND
  5
2DF
330
2DA
100
AcDbEntity
  8
Capa 1
370
     0
  0
HATCH
  5
2E0
330
2D6
100
AcDbEntity
  8
Capa 1
 62
    72
100
AcDbHatch
 10
0.0
 20
0.0
 30
0.0
210
0.0
220
0.0
230
1.0
  2
SOLID
 70
     1
 71
     0
 91
        1
 92
        1
 93
        3
 72
     1
 10
51.59378402323425
 20
138.9556064989541
 11
52.75960510452848
 21
138.9556064989541
 72
     1
 10
52.75960510452848
 20
138.9556064989541
 11
52.17807260298455
 21
135.4526310986587
 72
     1
 10
52.17807260298455
 20
135.4526310986587
 11
51.59378402323425
 21
138.9556064989541
 97
        0
 75
     2
 76
     1
 98
        0
  0
ENDBLK
  5
2D9
330
2D6
100
AcDbEntity
  8
0
100
AcDbBlockEnd
  0
BLOCK
  5
2E3
330
2E1
100
AcDbEntity
  8
0
100
AcDbBlockBegin
  2
block 66
 70
     0
 71
     0
 10
0.0
 20
0.0
 30
0.0
  3
block 66
  1

  0
MTEXT
  5
2E5
330
2E1
100
AcDbEntity
  8
Capa 1
 62
   223
100
AcDbMText
 10
53.63603797415394
 20
180.9251654255466
 30
0.0
 40
2.920234423053602
 41
0.0
 71
     7
 72
     1
  1
\fMyriad Pro|b0|i0|c0|p34;\W1;850
 11
-4.371139000186241E-8
 21
0.999999999999999
 31
0.0
 73
     1
 44
1.0
  0
ENDBLK
  5
2E4
330
2E1
100
AcDbEntity
  8
0
100
AcDbBlockEnd
  0
BLOCK
  5
2E8
330
2E6
100
AcDbEntity
  8
0
100
AcDbBlockBegin
  2
block 67
 70
     0
 71
     0
 10
0.0
 20
0.0
 30
0.0
  3
block 67
  1

  0
POLYLINE
  5
2EA
330
2E6
100
AcDbEntity
  8
Capa 1
370
     0
100
AcDb2dPolyline
 66
     1
 10
0.0
 20
0.0
 30
0.0
  0
VERTEX
  5
2EB
330
2EA
100
AcDbEntity
  8
Capa 1
370
     0
100
AcDbVertex
100
AcDb2dVertex
 10
70.05675192770252
 20
234.7403484831146
 30
0.0
  0
VERTEX
  5
2EC
330
2EA
100
AcDbEntity
  8
Capa 1
370
     0
100
AcDbVertex
100
AcDb2dVertex
 10
70.05675192770252
 20
234.7403484831146
 30
0.0
  0
SEQEND
  5
2ED
330
2EA
100
AcDbEntity
  8
Capa 1
370
     0
  0
ENDBLK
  5
2E9
330
2E6
100
AcDbEntity
  8
0
100
AcDbBlockEnd
  0
BLOCK
  5
2F0
330
2EE
100
AcDbEntity
  8
0
100
AcDbBlockBegin
  2
block 68
 70
     0
 71
     0
 10
0.0
 20
0.0
 30
0.0
  3
block 68
  1

  0
POLYLINE
  5
2F2
330
2EE
100
AcDbEntity
  8
Capa 1
370
     0
100
AcDb2dPolyline
 66
     1
 10
0.0
 20
0.0
 30
0.0
  0
VERTEX
  5
2F3
330
2F2
100
AcDbEntity
  8
Capa 1
370
     0
100
AcDbVertex
100
AcDb2dVertex
 10
76.3902196459393
 20
135.4526310986587
 30
0.0
  0
VERTEX
  5
2F4
330
2F2
100
AcDbEntity
  8
Capa 1
370
     0
100
AcDbVertex
100
AcDb2dVertex
 10
76.3902196459393
 20
135.4526310986587
 30
0.0
  0
SEQEND
  5
2F5
330
2F2
100
AcDbEntity
  8
Capa 1
370
     0
  0
ENDBLK
  5
2F1
330
2EE
100
AcDbEntity
  8
0
100
AcDbBlockEnd
  0
BLOCK
  5
2F8
330
2F6
100
AcDbEntity
  8
0
100
AcDbBlockBegin
  2
block 69
 70
     0
 71
     0
 10
0.0
 20
0.0
 30
0.0
  3
block 69
  1

  0
POLYLINE
  5
2FA
330
2F6
100
AcDbEntity
  8
Capa 1
370
     0
100
AcDb2dPolyline
 66
     1
 10
0.0
 20
0.0
 30
0.0
  0
VERTEX
  5
2FB
330
2FA
100
AcDbEntity
  8
Capa 1
370
     0
100
AcDbVertex
100
AcDb2dVertex
 10
52.17807260298455
 20
135.4526310986587
 30
0.0
  0
VERTEX
  5
2FC
330
2FA
100
AcDbEntity
  8
Capa 1
370
     0
100
AcDbVertex
100
AcDb2dVertex
 10
52.17807260298455
 20
135.4526310986587
 30
0.0
  0
SEQEND
  5
2FD
330
2FA
100
AcDbEntity
  8
Capa 1
370
     0
  0
ENDBLK
  5
2F9
330
2F6
100
AcDbEntity
  8
0
100
AcDbBlockEnd
  0
BLOCK
  5
300
330
2FE
100
AcDbEntity
  8
0
100
AcDbBlockBegin
  2
block 70
 70
     0
 71
     0
 10
0.0
 20
0.0
 30
0.0
  3
block 70
  1

  0
INSERT
  5
303
330
2FE
100
AcDbEntity
  8
Capa 1
100
AcDbBlockReference
  2
block 71
 10
0.0
 20
0.0
 30
0.0
  0
ENDBLK
  5
301
330
2FE
100
AcDbEntity
  8
0
100
AcDbBlockEnd
  0
BLOCK
  5
304
330
302
100
AcDbEntity
  8
0
100
AcDbBlockBegin
  2
block 71
 70
     0
 71
     0
 10
0.0
 20
0.0
 30
0.0
  3
block 71
  1

  0
INSERT
  5
307
330
302
100
AcDbEntity
  8
Capa 1
100
AcDbBlockReference
  2
block 72
 10
0.0
 20
0.0
 30
0.0
  0
INSERT
  5
30F
330
302
100
AcDbEntity
  8
Capa 1
100
AcDbBlockReference
  2
block 73
 10
0.0
 20
0.0
 30
0.0
  0
INSERT
  5
317
330
302
100
AcDbEntity
  8
Capa 1
100
AcDbBlockReference
  2
block 74
 10
0.0
 20
0.0
 30
0.0
  0
INSERT
  5
31F
330
302
100
AcDbEntity
  8
Capa 1
100
AcDbBlockReference
  2
block 75
 10
0.0
 20
0.0
 30
0.0
  0
INSERT
  5
327
330
302
100
AcDbEntity
  8
Capa 1
100
AcDbBlockReference
  2
block 76
 10
0.0
 20
0.0
 30
0.0
  0
INSERT
  5
332
330
302
100
AcDbEntity
  8
Capa 1
100
AcDbBlockReference
  2
block 77
 10
0.0
 20
0.0
 30
0.0
  0
INSERT
  5
33D
330
302
100
AcDbEntity
  8
Capa 1
100
AcDbBlockReference
  2
block 78
 10
0.0
 20
0.0
 30
0.0
  0
INSERT
  5
342
330
302
100
AcDbEntity
  8
Capa 1
100
AcDbBlockReference
  2
block 79
 10
0.0
 20
0.0
 30
0.0
  0
INSERT
  5
34A
330
302
100
AcDbEntity
  8
Capa 1
100
AcDbBlockReference
  2
block 80
 10
0.0
 20
0.0
 30
0.0
  0
INSERT
  5
352
330
302
100
AcDbEntity
  8
Capa 1
100
AcDbBlockReference
  2
block 81
 10
0.0
 20
0.0
 30
0.0
  0
ENDBLK
  5
305
330
302
100
AcDbEntity
  8
0
100
AcDbBlockEnd
  0
BLOCK
  5
308
330
306
100
AcDbEntity
  8
0
100
AcDbBlockBegin
  2
block 72
 70
     0
 71
     0
 10
0.0
 20
0.0
 30
0.0
  3
block 72
  1

  0
POLYLINE
  5
30A
330
306
100
AcDbEntity
  8
Capa 1
 62
    72
370
    25
100
AcDb2dPolyline
 66
     1
 10
0.0
 20
0.0
 30
0.0
  0
VERTEX
  5
30B
330
30A
100
AcDbEntity
  8
Capa 1
 62
    72
370
    25
100
AcDbVertex
100
AcDb2dVertex
 10
85.01398835366899
 20
229.8345292757771
 30
0.0
  0
VERTEX
  5
30C
330
30A
100
AcDbEntity
  8
Capa 1
 62
    72
370
    25
100
AcDbVertex
100
AcDb2dVertex
 10
58.95251283424042
 20
229.8345292757771
 30
0.0
  0
SEQEND
  5
30D
330
30A
100
AcDbEntity
  8
Capa 1
370
    25
  0
ENDBLK
  5
309
330
306
100
AcDbEntity
  8
0
100
AcDbBlockEnd
  0
BLOCK
  5
310
330
30E
100
AcDbEntity
  8
0
100
AcDbBlockBegin
  2
block 73
 70
     0
 71
     0
 10
0.0
 20
0.0
 30
0.0
  3
block 73
  1

  0
POLYLINE
  5
312
330
30E
100
AcDbEntity
  8
Capa 1
 62
    72
370
    25
100
AcDb2dPolyline
 66
     1
 10
0.0
 20
0.0
 30
0.0
  0
VERTEX
  5
313
330
312
100
AcDbEntity
  8
Capa 1
 62
    72
370
    25
100
AcDbVertex
100
AcDb2dVertex
 10
70.05675192770252
 20
234.7403484831146
 30
0.0
  0
VERTEX
  5
314
330
312
100
AcDbEntity
  8
Capa 1
 62
    72
370
    25
100
AcDbVertex
100
AcDb2dVertex
 10
58.95251283424042
 20
234.7403484831146
 30
0.0
  0
SEQEND
  5
315
330
312
100
AcDbEntity
  8
Capa 1
370
    25
  0
ENDBLK
  5
311
330
30E
100
AcDbEntity
  8
0
100
AcDbBlockEnd
  0
BLOCK
  5
318
330
316
100
AcDbEntity
  8
0
100
AcDbBlockBegin
  2
block 74
 70
     0
 71
     0
 10
0.0
 20
0.0
 30
0.0
  3
block 74
  1

  0
POLYLINE
  5
31A
330
316
100
AcDbEntity
  8
Capa 1
 62
    72
370
    25
100
AcDb2dPolyline
 66
     1
 10
0.0
 20
0.0
 30
0.0
  0
VERTEX
  5
31B
330
31A
100
AcDbEntity
  8
Capa 1
 62
    72
370
    25
100
AcDbVertex
100
AcDb2dVertex
 10
61.28691107503526
 20
238.2460799616164
 30
0.0
  0
VERTEX
  5
31C
330
31A
100
AcDbEntity
  8
Capa 1
 62
    72
370
    25
100
AcDbVertex
100
AcDb2dVertex
 10
61.28691107503526
 20
241.7490553619118
 30
0.0
  0
SEQEND
  5
31D
330
31A
100
AcDbEntity
  8
Capa 1
370
    25
  0
ENDBLK
  5
319
330
316
100
AcDbEntity
  8
0
100
AcDbBlockEnd
  0
BLOCK
  5
320
330
31E
100
AcDbEntity
  8
0
100
AcDbBlockBegin
  2
block 75
 70
     0
 71
     0
 10
0.0
 20
0.0
 30
0.0
  3
block 75
  1

  0
POLYLINE
  5
322
330
31E
100
AcDbEntity
  8
Capa 1
 62
    72
370
    25
100
AcDb2dPolyline
 66
     1
 10
0.0
 20
0.0
 30
0.0
  0
VERTEX
  5
323
330
322
100
AcDbEntity
  8
Capa 1
 62
    72
370
    25
100
AcDbVertex
100
AcDb2dVertex
 10
61.28691107503526
 20
226.3315538754817
 30
0.0
  0
VERTEX
  5
324
330
322
100
AcDbEntity
  8
Capa 1
 62
    72
370
    25
100
AcDbVertex
100
AcDb2dVertex
 10
61.28691107503526
 20
222.8258223969798
 30
0.0
  0
SEQEND
  5
325
330
322
100
AcDbEntity
  8
Capa 1
370
    25
  0
ENDBLK
  5
321
330
31E
100
AcDbEntity
  8
0
100
AcDbBlockEnd
  0
BLOCK
  5
328
330
326
100
AcDbEntity
  8
0
100
AcDbBlockBegin
  2
block 76
 70
     0
 71
     0
 10
0.0
 20
0.0
 30
0.0
  3
block 76
  1

  0
POLYLINE
  5
32A
330
326
100
AcDbEntity
  8
Capa 1
370
     0
100
AcDb2dPolyline
 66
     1
 10
0.0
 20
0.0
 30
0.0
  0
VERTEX
  5
32B
330
32A
100
AcDbEntity
  8
Capa 1
370
     0
100
AcDbVertex
100
AcDb2dVertex
 10
60.70262249528495
 20
238.2460799616164
 30
0.0
  0
VERTEX
  5
32C
330
32A
100
AcDbEntity
  8
Capa 1
370
     0
100
AcDbVertex
100
AcDb2dVertex
 10
61.87119965478556
 20
238.2460799616164
 30
0.0
  0
VERTEX
  5
32D
330
32A
100
AcDbEntity
  8
Capa 1
370
     0
100
AcDbVertex
100
AcDb2dVertex
 10
61.28691107503526
 20
234.7403484831146
 30
0.0
  0
VERTEX
  5
32E
330
32A
100
AcDbEntity
  8
Capa 1
370
     0
100
AcDbVertex
100
AcDb2dVertex
 10
60.70262249528495
 20
238.2460799616164
 30
0.0
  0
SEQEND
  5
32F
330
32A
100
AcDbEntity
  8
Capa 1
370
     0
  0
HATCH
  5
330
330
326
100
AcDbEntity
  8
Capa 1
 62
    72
100
AcDbHatch
 10
0.0
 20
0.0
 30
0.0
210
0.0
220
0.0
230
1.0
  2
SOLID
 70
     1
 71
     0
 91
        1
 92
        1
 93
        3
 72
     1
 10
60.70262249528495
 20
238.2460799616164
 11
61.87119965478556
 21
238.2460799616164
 72
     1
 10
61.87119965478556
 20
238.2460799616164
 11
61.28691107503526
 21
234.7403484831146
 72
     1
 10
61.28691107503526
 20
234.7403484831146
 11
60.70262249528495
 21
238.2460799616164
 97
        0
 75
     2
 76
     1
 98
        0
  0
ENDBLK
  5
329
330
326
100
AcDbEntity
  8
0
100
AcDbBlockEnd
  0
BLOCK
  5
333
330
331
100
AcDbEntity
  8
0
100
AcDbBlockBegin
  2
block 77
 70
     0
 71
     0
 10
0.0
 20
0.0
 30
0.0
  3
block 77
  1

  0
POLYLINE
  5
335
330
331
100
AcDbEntity
  8
Capa 1
370
     0
100
AcDb2dPolyline
 66
     1
 10
0.0
 20
0.0
 30
0.0
  0
VERTEX
  5
336
330
335
100
AcDbEntity
  8
Capa 1
370
     0
100
AcDbVertex
100
AcDb2dVertex
 10
60.70262249528495
 20
226.3315538754817
 30
0.0
  0
VERTEX
  5
337
330
335
100
AcDbEntity
  8
Capa 1
370
     0
100
AcDbVertex
100
AcDb2dVertex
 10
61.87119965478556
 20
226.3315538754817
 30
0.0
  0
VERTEX
  5
338
330
335
100
AcDbEntity
  8
Capa 1
370
     0
100
AcDbVertex
100
AcDb2dVertex
 10
61.28691107503526
 20
229.8345292757771
 30
0.0
  0
VERTEX
  5
339
330
335
100
AcDbEntity
  8
Capa 1
370
     0
100
AcDbVertex
100
AcDb2dVertex
 10
60.70262249528495
 20
226.3315538754817
 30
0.0
  0
SEQEND
  5
33A
330
335
100
AcDbEntity
  8
Capa 1
370
     0
  0
HATCH
  5
33B
330
331
100
AcDbEntity
  8
Capa 1
 62
    72
100
AcDbHatch
 10
0.0
 20
0.0
 30
0.0
210
0.0
220
0.0
230
1.0
  2
SOLID
 70
     1
 71
     0
 91
        1
 92
        1
 93
        3
 72
     1
 10
60.70262249528495
 20
226.3315538754817
 11
61.87119965478556
 21
226.3315538754817
 72
     1
 10
61.87119965478556
 20
226.3315538754817
 11
61.28691107503526
 21
229.8345292757771
 72
     1
 10
61.28691107503526
 20
229.8345292757771
 11
60.70262249528495
 21
226.3315538754817
 97
        0
 75
     2
 76
     1
 98
        0
  0
ENDBLK
  5
334
330
331
100
AcDbEntity
  8
0
100
AcDbBlockEnd
  0
BLOCK
  5
33E
330
33C
100
AcDbEntity
  8
0
100
AcDbBlockBegin
  2
block 78
 70
     0
 71
     0
 10
0.0
 20
0.0
 30
0.0
  3
block 78
  1

  0
MTEXT
  5
340
330
33C
100
AcDbEntity
  8
Capa 1
 62
   223
100
AcDbMText
 10
62.74763252441101
 20
216.5116472261876
 30
0.0
 40
2.920234423053602
 41
0.0
 71
     7
 72
     1
  1
\fMyriad Pro|b0|i0|c0|p34;\W1;42
 11
-4.371139000186241E-8
 21
0.999999999999999
 31
0.0
 73
     1
 44
1.0
  0
ENDBLK
  5
33F
330
33C
100
AcDbEntity
  8
0
100
AcDbBlockEnd
  0
BLOCK
  5
343
330
341
100
AcDbEntity
  8
0
100
AcDbBlockBegin
  2
block 79
 70
     0
 71
     0
 10
0.0
 20
0.0
 30
0.0
  3
block 79
  1

  0
POLYLINE
  5
345
330
341
100
AcDbEntity
  8
Capa 1
370
     0
100
AcDb2dPolyline
 66
     1
 10
0.0
 20
0.0
 30
0.0
  0
VERTEX
  5
346
330
345
100
AcDbEntity
  8
Capa 1
370
     0
100
AcDbVertex
100
AcDb2dVertex
 10
85.01398835366899
 20
229.8345292757771
 30
0.0
  0
VERTEX
  5
347
330
345
100
AcDbEntity
  8
Capa 1
370
     0
100
AcDbVertex
100
AcDb2dVertex
 10
85.01398835366899
 20
229.8345292757771
 30
0.0
  0
SEQEND
  5
348
330
345
100
AcDbEntity
  8
Capa 1
370
     0
  0
ENDBLK
  5
344
330
341
100
AcDbEntity
  8
0
100
AcDbBlockEnd
  0
BLOCK
  5
34B
330
349
100
AcDbEntity
  8
0
100
AcDbBlockBegin
  2
block 80
 70
     0
 71
     0
 10
0.0
 20
0.0
 30
0.0
  3
block 80
  1

  0
POLYLINE
  5
34D
330
349
100
AcDbEntity
  8
Capa 1
370
     0
100
AcDb2dPolyline
 66
     1
 10
0.0
 20
0.0
 30
0.0
  0
VERTEX
  5
34E
330
34D
100
AcDbEntity
  8
Capa 1
370
     0
100
AcDbVertex
100
AcDb2dVertex
 10
70.05675192770252
 20
234.7403484831146
 30
0.0
  0
VERTEX
  5
34F
330
34D
100
AcDbEntity
  8
Capa 1
370
     0
100
AcDbVertex
100
AcDb2dVertex
 10
70.05675192770252
 20
234.7403484831146
 30
0.0
  0
SEQEND
  5
350
330
34D
100
AcDbEntity
  8
Capa 1
370
     0
  0
ENDBLK
  5
34C
330
349
100
AcDbEntity
  8
0
100
AcDbBlockEnd
  0
BLOCK
  5
353
330
351
100
AcDbEntity
  8
0
100
AcDbBlockBegin
  2
block 81
 70
     0
 71
     0
 10
0.0
 20
0.0
 30
0.0
  3
block 81
  1

  0
POLYLINE
  5
355
330
351
100
AcDbEntity
  8
Capa 1
370
     0
100
AcDb2dPolyline
 66
     1
 10
0.0
 20
0.0
 30
0.0
  0
VERTEX
  5
356
330
355
100
AcDbEntity
  8
Capa 1
370
     0
100
AcDbVertex
100
AcDb2dVertex
 10
61.28691107503526
 20
234.7403484831146
 30
0.0
  0
VERTEX
  5
357
330
355
100
AcDbEntity
  8
Capa 1
370
     0
100
AcDbVertex
100
AcDb2dVertex
 10
61.28691107503526
 20
234.7403484831146
 30
0.0
  0
SEQEND
  5
358
330
355
100
AcDbEntity
  8
Capa 1
370
     0
  0
ENDBLK
  5
354
330
351
100
AcDbEntity
  8
0
100
AcDbBlockEnd
  0
BLOCK
  5
35B
330
359
100
AcDbEntity
  8
0
100
AcDbBlockBegin
  2
block 82
 70
     0
 71
     0
 10
0.0
 20
0.0
 30
0.0
  3
block 82
  1

  0
POLYLINE
  5
35D
330
359
100
AcDbEntity
  8
Capa 1
 62
    72
370
    25
100
AcDb2dPolyline
 66
     1
 10
0.0
 20
0.0
 30
0.0
  0
VERTEX
  5
35E
330
35D
100
AcDbEntity
  8
Capa 1
 62
    72
370
    25
100
AcDbVertex
100
AcDb2dVertex
 10
61.28691107503526
 20
229.8345292757771
 30
0.0
  0
VERTEX
  5
35F
330
35D
100
AcDbEntity
  8
Capa 1
 62
    72
370
    25
100
AcDbVertex
100
AcDb2dVertex
 10
61.28691107503526
 20
234.7403484831146
 30
0.0
  0
SEQEND
  5
360
330
35D
100
AcDbEntity
  8
Capa 1
370
    25
  0
ENDBLK
  5
35C
330
359
100
AcDbEntity
  8
0
100
AcDbBlockEnd
  0
BLOCK
  5
363
330
361
100
AcDbEntity
  8
0
100
AcDbBlockBegin
  2
block 83
 70
     0
 71
     0
 10
0.0
 20
0.0
 30
0.0
  3
block 83
  1

  0
INSERT
  5
366
330
361
100
AcDbEntity
  8
Capa 1
100
AcDbBlockReference
  2
block 84
 10
0.0
 20
0.0
 30
0.0
  0
ENDBLK
  5
364
330
361
100
AcDbEntity
  8
0
100
AcDbBlockEnd
  0
BLOCK
  5
367
330
365
100
AcDbEntity
  8
0
100
AcDbBlockBegin
  2
block 84
 70
     0
 71
     0
 10
0.0
 20
0.0
 30
0.0
  3
block 84
  1

  0
INSERT
  5
36A
330
365
100
AcDbEntity
  8
Capa 1
100
AcDbBlockReference
  2
block 85
 10
0.0
 20
0.0
 30
0.0
  0
INSERT
  5
372
330
365
100
AcDbEntity
  8
Capa 1
100
AcDbBlockReference
  2
block 86
 10
0.0
 20
0.0
 30
0.0
  0
INSERT
  5
37A
330
365
100
AcDbEntity
  8
Capa 1
100
AcDbBlockReference
  2
block 87
 10
0.0
 20
0.0
 30
0.0
  0
INSERT
  5
382
330
365
100
AcDbEntity
  8
Capa 1
100
AcDbBlockReference
  2
block 88
 10
0.0
 20
0.0
 30
0.0
  0
INSERT
  5
38A
330
365
100
AcDbEntity
  8
Capa 1
100
AcDbBlockReference
  2
block 89
 10
0.0
 20
0.0
 30
0.0
  0
INSERT
  5
395
330
365
100
AcDbEntity
  8
Capa 1
100
AcDbBlockReference
  2
block 90
 10
0.0
 20
0.0
 30
0.0
  0
INSERT
  5
3A0
330
365
100
AcDbEntity
  8
Capa 1
100
AcDbBlockReference
  2
block 91
 10
0.0
 20
0.0
 30
0.0
  0
INSERT
  5
3A5
330
365
100
AcDbEntity
  8
Capa 1
100
AcDbBlockReference
  2
block 92
 10
0.0
 20
0.0
 30
0.0
  0
INSERT
  5
3AD
330
365
100
AcDbEntity
  8
Capa 1
100
AcDbBlockReference
  2
block 93
 10
0.0
 20
0.0
 30
0.0
  0
INSERT
  5
3B5
330
365
100
AcDbEntity
  8
Capa 1
100
AcDbBlockReference
  2
block 94
 10
0.0
 20
0.0
 30
0.0
  0
ENDBLK
  5
368
330
365
100
AcDbEntity
  8
0
100
AcDbBlockEnd
  0
BLOCK
  5
36B
330
369
100
AcDbEntity
  8
0
100
AcDbBlockBegin
  2
block 85
 70
     0
 71
     0
 10
0.0
 20
0.0
 30
0.0
  3
block 85
  1

  0
POLYLINE
  5
36D
330
369
100
AcDbEntity
  8
Capa 1
 62
    72
370
    25
100
AcDb2dPolyline
 66
     1
 10
0.0
 20
0.0
 30
0.0
  0
VERTEX
  5
36E
330
36D
100
AcDbEntity
  8
Capa 1
 62
    72
370
    25
100
AcDbVertex
100
AcDb2dVertex
 10
87.81416381134025
 20
232.6402168898611
 30
0.0
  0
VERTEX
  5
36F
330
36D
100
AcDbEntity
  8
Capa 1
 62
    72
370
    25
100
AcDbVertex
100
AcDb2dVertex
 10
87.81416381134025
 20
244.3645735797563
 30
0.0
  0
SEQEND
  5
370
330
36D
100
AcDbEntity
  8
Capa 1
370
    25
  0
ENDBLK
  5
36C
330
369
100
AcDbEntity
  8
0
100
AcDbBlockEnd
  0
BLOCK
  5
373
330
371
100
AcDbEntity
  8
0
100
AcDbBlockBegin
  2
block 86
 70
     0
 71
     0
 10
0.0
 20
0.0
 30
0.0
  3
block 86
  1

  0
POLYLINE
  5
375
330
371
100
AcDbEntity
  8
Capa 1
 62
    72
370
    25
100
AcDb2dPolyline
 66
     1
 10
0.0
 20
0.0
 30
0.0
  0
VERTEX
  5
376
330
375
100
AcDbEntity
  8
Capa 1
 62
    72
370
    25
100
AcDbVertex
100
AcDb2dVertex
 10
120.5150317299126
 20
232.6402168898611
 30
0.0
  0
VERTEX
  5
377
330
375
100
AcDbEntity
  8
Capa 1
 62
    72
370
    25
100
AcDbVertex
100
AcDb2dVertex
 10
120.5150317299126
 20
244.3645735797563
 30
0.0
  0
SEQEND
  5
378
330
375
100
AcDbEntity
  8
Capa 1
370
    25
  0
ENDBLK
  5
374
330
371
100
AcDbEntity
  8
0
100
AcDbBlockEnd
  0
BLOCK
  5
37B
330
379
100
AcDbEntity
  8
0
100
AcDbBlockBegin
  2
block 87
 70
     0
 71
     0
 10
0.0
 20
0.0
 30
0.0
  3
block 87
  1

  0
POLYLINE
  5
37D
330
379
100
AcDbEntity
  8
Capa 1
 62
    72
370
    25
100
AcDb2dPolyline
 66
     1
 10
0.0
 20
0.0
 30
0.0
  0
VERTEX
  5
37E
330
37D
100
AcDbEntity
  8
Capa 1
 62
    72
370
    25
100
AcDbVertex
100
AcDb2dVertex
 10
91.32265136804844
 20
242.0274192607551
 30
0.0
  0
VERTEX
  5
37F
330
37D
100
AcDbEntity
  8
Capa 1
 62
    72
370
    25
100
AcDbVertex
100
AcDb2dVertex
 10
99.01210956381892
 20
242.0274192607551
 30
0.0
  0
SEQEND
  5
380
330
37D
100
AcDbEntity
  8
Capa 1
370
    25
  0
ENDBLK
  5
37C
330
379
100
AcDbEntity
  8
0
100
AcDbBlockEnd
  0
BLOCK
  5
383
330
381
100
AcDbEntity
  8
0
100
AcDbBlockBegin
  2
block 88
 70
     0
 71
     0
 10
0.0
 20
0.0
 30
0.0
  3
block 88
  1

  0
POLYLINE
  5
385
330
381
100
AcDbEntity
  8
Capa 1
 62
    72
370
    25
100
AcDb2dPolyline
 66
     1
 10
0.0
 20
0.0
 30
0.0
  0
VERTEX
  5
386
330
385
100
AcDbEntity
  8
Capa 1
 62
    72
370
    25
100
AcDbVertex
100
AcDb2dVertex
 10
117.0120563296172
 20
242.0274192607551
 30
0.0
  0
VERTEX
  5
387
330
385
100
AcDbEntity
  8
Capa 1
 62
    72
370
    25
100
AcDbVertex
100
AcDb2dVertex
 10
109.3225981338467
 20
242.0274192607551
 30
0.0
  0
SEQEND
  5
388
330
385
100
AcDbEntity
  8
Capa 1
370
    25
  0
ENDBLK
  5
384
330
381
100
AcDbEntity
  8
0
100
AcDbBlockEnd
  0
BLOCK
  5
38B
330
389
100
AcDbEntity
  8
0
100
AcDbBlockBegin
  2
block 89
 70
     0
 71
     0
 10
0.0
 20
0.0
 30
0.0
  3
block 89
  1

  0
POLYLINE
  5
38D
330
389
100
AcDbEntity
  8
Capa 1
370
     0
100
AcDb2dPolyline
 66
     1
 10
0.0
 20
0.0
 30
0.0
  0
VERTEX
  5
38E
330
38D
100
AcDbEntity
  8
Capa 1
370
     0
100
AcDbVertex
100
AcDb2dVertex
 10
91.32265136804844
 20
242.6117078405054
 30
0.0
  0
VERTEX
  5
38F
330
38D
100
AcDbEntity
  8
Capa 1
370
     0
100
AcDbVertex
100
AcDb2dVertex
 10
91.32265136804844
 20
241.4431306810048
 30
0.0
  0
VERTEX
  5
390
330
38D
100
AcDbEntity
  8
Capa 1
370
     0
100
AcDbVertex
100
AcDb2dVertex
 10
87.81416381134025
 20
242.0274192607551
 30
0.0
  0
VERTEX
  5
391
330
38D
100
AcDbEntity
  8
Capa 1
370
     0
100
AcDbVertex
100
AcDb2dVertex
 10
91.32265136804844
 20
242.6117078405054
 30
0.0
  0
SEQEND
  5
392
330
38D
100
AcDbEntity
  8
Capa 1
370
     0
  0
HATCH
  5
393
330
389
100
AcDbEntity
  8
Capa 1
 62
    72
100
AcDbHatch
 10
0.0
 20
0.0
 30
0.0
210
0.0
220
0.0
230
1.0
  2
SOLID
 70
     1
 71
     0
 91
        1
 92
        1
 93
        3
 72
     1
 10
91.32265136804844
 20
242.6117078405054
 11
91.32265136804844
 21
241.4431306810048
 72
     1
 10
91.32265136804844
 20
241.4431306810048
 11
87.81416381134025
 21
242.0274192607551
 72
     1
 10
87.81416381134025
 20
242.0274192607551
 11
91.32265136804844
 21
242.6117078405054
 97
        0
 75
     2
 76
     1
 98
        0
  0
ENDBLK
  5
38C
330
389
100
AcDbEntity
  8
0
100
AcDbBlockEnd
  0
BLOCK
  5
396
330
394
100
AcDbEntity
  8
0
100
AcDbBlockBegin
  2
block 90
 70
     0
 71
     0
 10
0.0
 20
0.0
 30
0.0
  3
block 90
  1

  0
POLYLINE
  5
398
330
394
100
AcDbEntity
  8
Capa 1
370
     0
100
AcDb2dPolyline
 66
     1
 10
0.0
 20
0.0
 30
0.0
  0
VERTEX
  5
399
330
398
100
AcDbEntity
  8
Capa 1
370
     0
100
AcDbVertex
100
AcDb2dVertex
 10
117.0120563296172
 20
242.6117078405054
 30
0.0
  0
VERTEX
  5
39A
330
398
100
AcDbEntity
  8
Capa 1
370
     0
100
AcDbVertex
100
AcDb2dVertex
 10
117.0120563296172
 20
241.4431306810048
 30
0.0
  0
VERTEX
  5
39B
330
398
100
AcDbEntity
  8
Capa 1
370
     0
100
AcDbVertex
100
AcDb2dVertex
 10
120.5150317299126
 20
242.0274192607551
 30
0.0
  0
VERTEX
  5
39C
330
398
100
AcDbEntity
  8
Capa 1
370
     0
100
AcDbVertex
100
AcDb2dVertex
 10
117.0120563296172
 20
242.6117078405054
 30
0.0
  0
SEQEND
  5
39D
330
398
100
AcDbEntity
  8
Capa 1
370
     0
  0
HATCH
  5
39E
330
394
100
AcDbEntity
  8
Capa 1
 62
    72
100
AcDbHatch
 10
0.0
 20
0.0
 30
0.0
210
0.0
220
0.0
230
1.0
  2
SOLID
 70
     1
 71
     0
 91
        1
 92
        1
 93
        3
 72
     1
 10
117.0120563296172
 20
242.6117078405054
 11
117.0120563296172
 21
241.4431306810048
 72
     1
 10
117.0120563296172
 20
241.4431306810048
 11
120.5150317299126
 21
242.0274192607551
 72
     1
 10
120.5150317299126
 20
242.0274192607551
 11
117.0120563296172
 21
242.6117078405054
 97
        0
 75
     2
 76
     1
 98
        0
  0
ENDBLK
  5
397
330
394
100
AcDbEntity
  8
0
100
AcDbBlockEnd
  0
BLOCK
  5
3A1
330
39F
100
AcDbEntity
  8
0
100
AcDbBlockBegin
  2
block 91
 70
     0
 71
     0
 10
0.0
 20
0.0
 30
0.0
  3
block 91
  1

  0
MTEXT
  5
3A3
330
39F
100
AcDbEntity
  8
Capa 1
 62
   223
100
AcDbMText
 10
99.99327340528642
 20
240.5666978113794
 30
0.0
 40
2.920234423053602
 41
0.0
 71
     7
 72
     1
  1
\fMyriad Pro|b0|i0|c0|p34;\W1;280
 73
     1
 44
1.0
  0
ENDBLK
  5
3A2
330
39F
100
AcDbEntity
  8
0
100
AcDbBlockEnd
  0
BLOCK
  5
3A6
330
3A4
100
AcDbEntity
  8
0
100
AcDbBlockBegin
  2
block 92
 70
     0
 71
     0
 10
0.0
 20
0.0
 30
0.0
  3
block 92
  1

  0
POLYLINE
  5
3A8
330
3A4
100
AcDbEntity
  8
Capa 1
370
     0
100
AcDb2dPolyline
 66
     1
 10
0.0
 20
0.0
 30
0.0
  0
VERTEX
  5
3A9
330
3A8
100
AcDbEntity
  8
Capa 1
370
     0
100
AcDbVertex
100
AcDb2dVertex
 10
87.81416381134025
 20
232.6402168898611
 30
0.0
  0
VERTEX
  5
3AA
330
3A8
100
AcDbEntity
  8
Capa 1
370
     0
100
AcDbVertex
100
AcDb2dVertex
 10
87.81416381134025
 20
232.6402168898611
 30
0.0
  0
SEQEND
  5
3AB
330
3A8
100
AcDbEntity
  8
Capa 1
370
     0
  0
ENDBLK
  5
3A7
330
3A4
100
AcDbEntity
  8
0
100
AcDbBlockEnd
  0
BLOCK
  5
3AE
330
3AC
100
AcDbEntity
  8
0
100
AcDbBlockBegin
  2
block 93
 70
     0
 71
     0
 10
0.0
 20
0.0
 30
0.0
  3
block 93
  1

  0
POLYLINE
  5
3B0
330
3AC
100
AcDbEntity
  8
Capa 1
370
     0
100
AcDb2dPolyline
 66
     1
 10
0.0
 20
0.0
 30
0.0
  0
VERTEX
  5
3B1
330
3B0
100
AcDbEntity
  8
Capa 1
370
     0
100
AcDbVertex
100
AcDb2dVertex
 10
120.5150317299126
 20
232.6402168898611
 30
0.0
  0
VERTEX
  5
3B2
330
3B0
100
AcDbEntity
  8
Capa 1
370
     0
100
AcDbVertex
100
AcDb2dVertex
 10
120.5150317299126
 20
232.6402168898611
 30
0.0
  0
SEQEND
  5
3B3
330
3B0
100
AcDbEntity
  8
Capa 1
370
     0
  0
ENDBLK
  5
3AF
330
3AC
100
AcDbEntity
  8
0
100
AcDbBlockEnd
  0
BLOCK
  5
3B6
330
3B4
100
AcDbEntity
  8
0
100
AcDbBlockBegin
  2
block 94
 70
     0
 71
     0
 10
0.0
 20
0.0
 30
0.0
  3
block 94
  1

  0
POLYLINE
  5
3B8
330
3B4
100
AcDbEntity
  8
Capa 1
370
     0
100
AcDb2dPolyline
 66
     1
 10
0.0
 20
0.0
 30
0.0
  0
VERTEX
  5
3B9
330
3B8
100
AcDbEntity
  8
Capa 1
370
     0
100
AcDbVertex
100
AcDb2dVertex
 10
120.5150317299126
 20
242.0274192607551
 30
0.0
  0
VERTEX
  5
3BA
330
3B8
100
AcDbEntity
  8
Capa 1
370
     0
100
AcDbVertex
100
AcDb2dVertex
 10
120.5150317299126
 20
242.0274192607551
 30
0.0
  0
SEQEND
  5
3BB
330
3B8
100
AcDbEntity
  8
Capa 1
370
     0
  0
ENDBLK
  5
3B7
330
3B4
100
AcDbEntity
  8
0
100
AcDbBlockEnd
  0
BLOCK
  5
3BE
330
3BC
100
AcDbEntity
  8
0
100
AcDbBlockBegin
  2
block 95
 70
     0
 71
     0
 10
0.0
 20
0.0
 30
0.0
  3
block 95
  1

  0
INSERT
  5
3C1
330
3BC
100
AcDbEntity
  8
Capa 1
100
AcDbBlockReference
  2
block 96
 10
0.0
 20
0.0
 30
0.0
  0
ENDBLK
  5
3BF
330
3BC
100
AcDbEntity
  8
0
100
AcDbBlockEnd
  0
BLOCK
  5
3C2
330
3C0
100
AcDbEntity
  8
0
100
AcDbBlockBegin
  2
block 96
 70
     0
 71
     0
 10
0.0
 20
0.0
 30
0.0
  3
block 96
  1

  0
INSERT
  5
3C5
330
3C0
100
AcDbEntity
  8
Capa 1
100
AcDbBlockReference
  2
block 97
 10
0.0
 20
0.0
 30
0.0
  0
INSERT
  5
3CD
330
3C0
100
AcDbEntity
  8
Capa 1
100
AcDbBlockReference
  2
block 98
 10
0.0
 20
0.0
 30
0.0
  0
INSERT
  5
3D5
330
3C0
100
AcDbEntity
  8
Capa 1
100
AcDbBlockReference
  2
block 99
 10
0.0
 20
0.0
 30
0.0
  0
INSERT
  5
3DD
330
3C0
100
AcDbEntity
  8
Capa 1
100
AcDbBlockReference
  2
block 100
 10
0.0
 20
0.0
 30
0.0
  0
INSERT
  5
3E5
330
3C0
100
AcDbEntity
  8
Capa 1
100
AcDbBlockReference
  2
block 101
 10
0.0
 20
0.0
 30
0.0
  0
INSERT
  5
3F0
330
3C0
100
AcDbEntity
  8
Capa 1
100
AcDbBlockReference
  2
block 102
 10
0.0
 20
0.0
 30
0.0
  0
INSERT
  5
3FB
330
3C0
100
AcDbEntity
  8
Capa 1
100
AcDbBlockReference
  2
block 103
 10
0.0
 20
0.0
 30
0.0
  0
INSERT
  5
400
330
3C0
100
AcDbEntity
  8
Capa 1
100
AcDbBlockReference
  2
block 104
 10
0.0
 20
0.0
 30
0.0
  0
INSERT
  5
408
330
3C0
100
AcDbEntity
  8
Capa 1
100
AcDbBlockReference
  2
block 105
 10
0.0
 20
0.0
 30
0.0
  0
INSERT
  5
410
330
3C0
100
AcDbEntity
  8
Capa 1
100
AcDbBlockReference
  2
block 106
 10
0.0
 20
0.0
 30
0.0
  0
ENDBLK
  5
3C3
330
3C0
100
AcDbEntity
  8
0
100
AcDbBlockEnd
  0
BLOCK
  5
3C6
330
3C4
100
AcDbEntity
  8
0
100
AcDbBlockBegin
  2
block 97
 70
     0
 71
     0
 10
0.0
 20
0.0
 30
0.0
  3
block 97
  1

  0
POLYLINE
  5
3C8
330
3C4
100
AcDbEntity
  8
Capa 1
 62
    72
370
    25
100
AcDb2dPolyline
 66
     1
 10
0.0
 20
0.0
 30
0.0
  0
VERTEX
  5
3C9
330
3C8
100
AcDbEntity
  8
Capa 1
 62
    72
370
    25
100
AcDbVertex
100
AcDb2dVertex
 10
191.8561161017832
 20
104.6314085168302
 30
0.0
  0
VERTEX
  5
3CA
330
3C8
100
AcDbEntity
  8
Capa 1
 62
    72
370
    25
100
AcDbVertex
100
AcDb2dVertex
 10
202.6571865925447
 20
104.6314085168302
 30
0.0
  0
SEQEND
  5
3CB
330
3C8
100
AcDbEntity
  8
Capa 1
370
    25
  0
ENDBLK
  5
3C7
330
3C4
100
AcDbEntity
  8
0
100
AcDbBlockEnd
  0
BLOCK
  5
3CE
330
3CC
100
AcDbEntity
  8
0
100
AcDbBlockBegin
  2
block 98
 70
     0
 71
     0
 10
0.0
 20
0.0
 30
0.0
  3
block 98
  1

  0
POLYLINE
  5
3D0
330
3CC
100
AcDbEntity
  8
Capa 1
 62
    72
370
    25
100
AcDb2dPolyline
 66
     1
 10
0.0
 20
0.0
 30
0.0
  0
VERTEX
  5
3D1
330
3D0
100
AcDbEntity
  8
Capa 1
 62
    72
370
    25
100
AcDbVertex
100
AcDb2dVertex
 10
164.289821881677
 20
80.10231248014301
 30
0.0
  0
VERTEX
  5
3D2
330
3D0
100
AcDbEntity
  8
Capa 1
 62
    72
370
    25
100
AcDbVertex
100
AcDb2dVertex
 10
202.6571865925447
 20
80.10231248014301
 30
0.0
  0
SEQEND
  5
3D3
330
3D0
100
AcDbEntity
  8
Capa 1
370
    25
  0
ENDBLK
  5
3CF
330
3CC
100
AcDbEntity
  8
0
100
AcDbBlockEnd
  0
BLOCK
  5
3D6
330
3D4
100
AcDbEntity
  8
0
100
AcDbBlockBegin
  2
block 99
 70
     0
 71
     0
 10
0.0
 20
0.0
 30
0.0
  3
block 99
  1

  0
POLYLINE
  5
3D8
330
3D4
100
AcDbEntity
  8
Capa 1
 62
    72
370
    25
100
AcDb2dPolyline
 66
     1
 10
0.0
 20
0.0
 30
0.0
  0
VERTEX
  5
3D9
330
3D8
100
AcDbEntity
  8
Capa 1
 62
    72
370
    25
100
AcDbVertex
100
AcDb2dVertex
 10
200.3200322735435
 20
101.1311891947412
 30
0.0
  0
VERTEX
  5
3DA
330
3D8
100
AcDbEntity
  8
Capa 1
 62
    72
370
    25
100
AcDbVertex
100
AcDb2dVertex
 10
200.3200322735435
 20
97.52348282260368
 30
0.0
  0
SEQEND
  5
3DB
330
3D8
100
AcDbEntity
  8
Capa 1
370
    25
  0
ENDBLK
  5
3D7
330
3D4
100
AcDbEntity
  8
0
100
AcDbBlockEnd
  0
BLOCK
  5
3DE
330
3DC
100
AcDbEntity
  8
0
100
AcDbBlockBegin
  2
block 100
 70
     0
 71
     0
 10
0.0
 20
0.0
 30
0.0
  3
block 100
  1

  0
POLYLINE
  5
3E0
330
3DC
100
AcDbEntity
  8
Capa 1
 62
    72
370
    25
100
AcDb2dPolyline
 66
     1
 10
0.0
 20
0.0
 30
0.0
  0
VERTEX
  5
3E1
330
3E0
100
AcDbEntity
  8
Capa 1
 62
    72
370
    25
100
AcDbVertex
100
AcDb2dVertex
 10
200.3200322735435
 20
83.60804395864483
 30
0.0
  0
VERTEX
  5
3E2
330
3E0
100
AcDbEntity
  8
Capa 1
 62
    72
370
    25
100
AcDbVertex
100
AcDb2dVertex
 10
200.3200322735435
 20
87.21299425257594
 30
0.0
  0
SEQEND
  5
3E3
330
3E0
100
AcDbEntity
  8
Capa 1
370
    25
  0
ENDBLK
  5
3DF
330
3DC
100
AcDbEntity
  8
0
100
AcDbBlockEnd
  0
BLOCK
  5
3E6
330
3E4
100
AcDbEntity
  8
0
100
AcDbBlockBegin
  2
block 101
 70
     0
 71
     0
 10
0.0
 20
0.0
 30
0.0
  3
block 101
  1

  0
POLYLINE
  5
3E8
330
3E4
100
AcDbEntity
  8
Capa 1
370
     0
100
AcDb2dPolyline
 66
     1
 10
0.0
 20
0.0
 30
0.0
  0
VERTEX
  5
3E9
330
3E8
100
AcDbEntity
  8
Capa 1
370
     0
100
AcDbVertex
100
AcDb2dVertex
 10
199.7357436937932
 20
101.1311891947412
 30
0.0
  0
VERTEX
  5
3EA
330
3E8
100
AcDbEntity
  8
Capa 1
370
     0
100
AcDbVertex
100
AcDb2dVertex
 10
200.9043208532938
 20
101.1311891947412
 30
0.0
  0
VERTEX
  5
3EB
330
3E8
100
AcDbEntity
  8
Capa 1
370
     0
100
AcDbVertex
100
AcDb2dVertex
 10
200.3200322735435
 20
104.6314085168302
 30
0.0
  0
VERTEX
  5
3EC
330
3E8
100
AcDbEntity
  8
Capa 1
370
     0
100
AcDbVertex
100
AcDb2dVertex
 10
199.7357436937932
 20
101.1311891947412
 30
0.0
  0
SEQEND
  5
3ED
330
3E8
100
AcDbEntity
  8
Capa 1
370
     0
  0
HATCH
  5
3EE
330
3E4
100
AcDbEntity
  8
Capa 1
 62
    72
100
AcDbHatch
 10
0.0
 20
0.0
 30
0.0
210
0.0
220
0.0
230
1.0
  2
SOLID
 70
     1
 71
     0
 91
        1
 92
        1
 93
        3
 72
     1
 10
199.7357436937932
 20
101.1311891947412
 11
200.9043208532938
 21
101.1311891947412
 72
     1
 10
200.9043208532938
 20
101.1311891947412
 11
200.3200322735435
 21
104.6314085168302
 72
     1
 10
200.3200322735435
 20
104.6314085168302
 11
199.7357436937932
 21
101.1311891947412
 97
        0
 75
     2
 76
     1
 98
        0
  0
ENDBLK
  5
3E7
330
3E4
100
AcDbEntity
  8
0
100
AcDbBlockEnd
  0
BLOCK
  5
3F1
330
3EF
100
AcDbEntity
  8
0
100
AcDbBlockBegin
  2
block 102
 70
     0
 71
     0
 10
0.0
 20
0.0
 30
0.0
  3
block 102
  1

  0
POLYLINE
  5
3F3
330
3EF
100
AcDbEntity
  8
Capa 1
370
     0
100
AcDb2dPolyline
 66
     1
 10
0.0
 20
0.0
 30
0.0
  0
VERTEX
  5
3F4
330
3F3
100
AcDbEntity
  8
Capa 1
370
     0
100
AcDbVertex
100
AcDb2dVertex
 10
199.7357436937932
 20
83.60804395864483
 30
0.0
  0
VERTEX
  5
3F5
330
3F3
100
AcDbEntity
  8
Capa 1
370
     0
100
AcDbVertex
100
AcDb2dVertex
 10
200.9043208532938
 20
83.60804395864483
 30
0.0
  0
VERTEX
  5
3F6
330
3F3
100
AcDbEntity
  8
Capa 1
370
     0
100
AcDbVertex
100
AcDb2dVertex
 10
200.3200322735435
 20
80.10231248014301
 30
0.0
  0
VERTEX
  5
3F7
330
3F3
100
AcDbEntity
  8
Capa 1
370
     0
100
AcDbVertex
100
AcDb2dVertex
 10
199.7357436937932
 20
83.60804395864483
 30
0.0
  0
SEQEND
  5
3F8
330
3F3
100
AcDbEntity
  8
Capa 1
370
     0
  0
HATCH
  5
3F9
330
3EF
100
AcDbEntity
  8
Capa 1
 62
    72
100
AcDbHatch
 10
0.0
 20
0.0
 30
0.0
210
0.0
220
0.0
230
1.0
  2
SOLID
 70
     1
 71
     0
 91
        1
 92
        1
 93
        3
 72
     1
 10
199.7357436937932
 20
83.60804395864483
 11
200.9043208532938
 21
83.60804395864483
 72
     1
 10
200.9043208532938
 20
83.60804395864483
 11
200.3200322735435
 21
80.10231248014301
 72
     1
 10
200.3200322735435
 20
80.10231248014301
 11
199.7357436937932
 21
83.60804395864483
 97
        0
 75
     2
 76
     1
 98
        0
  0
ENDBLK
  5
3F2
330
3EF
100
AcDbEntity
  8
0
100
AcDbBlockEnd
  0
BLOCK
  5
3FC
330
3FA
100
AcDbEntity
  8
0
100
AcDbBlockBegin
  2
block 103
 70
     0
 71
     0
 10
0.0
 20
0.0
 30
0.0
  3
block 103
  1

  0
MTEXT
  5
3FE
330
3FA
100
AcDbEntity
  8
Capa 1
 62
   223
100
AcDbMText
 10
201.7779976447129
 20
88.19415809404343
 30
0.0
 40
2.920234423053602
 41
0.0
 71
     7
 72
     1
  1
\fMyriad Pro|b0|i0|c0|p34;\W1;210
 11
-4.371139000186241E-8
 21
0.999999999999999
 31
0.0
 73
     1
 44
1.0
  0
ENDBLK
  5
3FD
330
3FA
100
AcDbEntity
  8
0
100
AcDbBlockEnd
  0
BLOCK
  5
401
330
3FF
100
AcDbEntity
  8
0
100
AcDbBlockBegin
  2
block 104
 70
     0
 71
     0
 10
0.0
 20
0.0
 30
0.0
  3
block 104
  1

  0
POLYLINE
  5
403
330
3FF
100
AcDbEntity
  8
Capa 1
370
     0
100
AcDb2dPolyline
 66
     1
 10
0.0
 20
0.0
 30
0.0
  0
VERTEX
  5
404
330
403
100
AcDbEntity
  8
Capa 1
370
     0
100
AcDbVertex
100
AcDb2dVertex
 10
191.8561161017832
 20
104.6314085168302
 30
0.0
  0
VERTEX
  5
405
330
403
100
AcDbEntity
  8
Capa 1
370
     0
100
AcDbVertex
100
AcDb2dVertex
 10
191.8561161017832
 20
104.6314085168302
 30
0.0
  0
SEQEND
  5
406
330
403
100
AcDbEntity
  8
Capa 1
370
     0
  0
ENDBLK
  5
402
330
3FF
100
AcDbEntity
  8
0
100
AcDbBlockEnd
  0
BLOCK
  5
409
330
407
100
AcDbEntity
  8
0
100
AcDbBlockBegin
  2
block 105
 70
     0
 71
     0
 10
0.0
 20
0.0
 30
0.0
  3
block 105
  1

  0
POLYLINE
  5
40B
330
407
100
AcDbEntity
  8
Capa 1
370
     0
100
AcDb2dPolyline
 66
     1
 10
0.0
 20
0.0
 30
0.0
  0
VERTEX
  5
40C
330
40B
100
AcDbEntity
  8
Capa 1
370
     0
100
AcDbVertex
100
AcDb2dVertex
 10
164.289821881677
 20
80.10231248014301
 30
0.0
  0
VERTEX
  5
40D
330
40B
100
AcDbEntity
  8
Capa 1
370
     0
100
AcDbVertex
100
AcDb2dVertex
 10
164.289821881677
 20
80.10231248014301
 30
0.0
  0
SEQEND
  5
40E
330
40B
100
AcDbEntity
  8
Capa 1
370
     0
  0
ENDBLK
  5
40A
330
407
100
AcDbEntity
  8
0
100
AcDbBlockEnd
  0
BLOCK
  5
411
330
40F
100
AcDbEntity
  8
0
100
AcDbBlockBegin
  2
block 106
 70
     0
 71
     0
 10
0.0
 20
0.0
 30
0.0
  3
block 106
  1

  0
POLYLINE
  5
413
330
40F
100
AcDbEntity
  8
Capa 1
370
     0
100
AcDb2dPolyline
 66
     1
 10
0.0
 20
0.0
 30
0.0
  0
VERTEX
  5
414
330
413
100
AcDbEntity
  8
Capa 1
370
     0
100
AcDbVertex
100
AcDb2dVertex
 10
200.3200322735435
 20
80.10231248014301
 30
0.0
  0
VERTEX
  5
415
330
413
100
AcDbEntity
  8
Capa 1
370
     0
100
AcDbVertex
100
AcDb2dVertex
 10
200.3200322735435
 20
80.10231248014301
 30
0.0
  0
SEQEND
  5
416
330
413
100
AcDbEntity
  8
Capa 1
370
     0
  0
ENDBLK
  5
412
330
40F
100
AcDbEntity
  8
0
100
AcDbBlockEnd
  0
BLOCK
  5
419
330
417
100
AcDbEntity
  8
0
100
AcDbBlockBegin
  2
block 107
 70
     0
 71
     0
 10
0.0
 20
0.0
 30
0.0
  3
block 107
  1

  0
INSERT
  5
41C
330
417
100
AcDbEntity
  8
Capa 1
100
AcDbBlockReference
  2
block 108
 10
0.0
 20
0.0
 30
0.0
  0
ENDBLK
  5
41A
330
417
100
AcDbEntity
  8
0
100
AcDbBlockEnd
  0
BLOCK
  5
41D
330
41B
100
AcDbEntity
  8
0
100
AcDbBlockBegin
  2
block 108
 70
     0
 71
     0
 10
0.0
 20
0.0
 30
0.0
  3
block 108
  1

  0
INSERT
  5
420
330
41B
100
AcDbEntity
  8
Capa 1
100
AcDbBlockReference
  2
block 109
 10
0.0
 20
0.0
 30
0.0
  0
INSERT
  5
428
330
41B
100
AcDbEntity
  8
Capa 1
100
AcDbBlockReference
  2
block 110
 10
0.0
 20
0.0
 30
0.0
  0
INSERT
  5
430
330
41B
100
AcDbEntity
  8
Capa 1
100
AcDbBlockReference
  2
block 111
 10
0.0
 20
0.0
 30
0.0
  0
INSERT
  5
438
330
41B
100
AcDbEntity
  8
Capa 1
100
AcDbBlockReference
  2
block 112
 10
0.0
 20
0.0
 30
0.0
  0
INSERT
  5
440
330
41B
100
AcDbEntity
  8
Capa 1
100
AcDbBlockReference
  2
block 113
 10
0.0
 20
0.0
 30
0.0
  0
INSERT
  5
44B
330
41B
100
AcDbEntity
  8
Capa 1
100
AcDbBlockReference
  2
block 114
 10
0.0
 20
0.0
 30
0.0
  0
INSERT
  5
456
330
41B
100
AcDbEntity
  8
Capa 1
100
AcDbBlockReference
  2
block 115
 10
0.0
 20
0.0
 30
0.0
  0
INSERT
  5
45B
330
41B
100
AcDbEntity
  8
Capa 1
100
AcDbBlockReference
  2
block 116
 10
0.0
 20
0.0
 30
0.0
  0
INSERT
  5
463
330
41B
100
AcDbEntity
  8
Capa 1
100
AcDbBlockReference
  2
block 117
 10
0.0
 20
0.0
 30
0.0
  0
INSERT
  5
46B
330
41B
100
AcDbEntity
  8
Capa 1
100
AcDbBlockReference
  2
block 118
 10
0.0
 20
0.0
 30
0.0
  0
ENDBLK
  5
41E
330
41B
100
AcDbEntity
  8
0
100
AcDbBlockEnd
  0
BLOCK
  5
421
330
41F
100
AcDbEntity
  8
0
100
AcDbBlockBegin
  2
block 109
 70
     0
 71
     0
 10
0.0
 20
0.0
 30
0.0
  3
block 109
  1

  0
POLYLINE
  5
423
330
41F
100
AcDbEntity
  8
Capa 1
 62
    72
370
    25
100
AcDb2dPolyline
 66
     1
 10
0.0
 20
0.0
 30
0.0
  0
VERTEX
  5
424
330
423
100
AcDbEntity
  8
Capa 1
 62
    72
370
    25
100
AcDbVertex
100
AcDb2dVertex
 10
122.7033578257699
 20
104.6314085168302
 30
0.0
  0
VERTEX
  5
425
330
423
100
AcDbEntity
  8
Capa 1
 62
    72
370
    25
100
AcDbVertex
100
AcDb2dVertex
 10
111.9022873350084
 20
104.6314085168302
 30
0.0
  0
SEQEND
  5
426
330
423
100
AcDbEntity
  8
Capa 1
370
    25
  0
ENDBLK
  5
422
330
41F
100
AcDbEntity
  8
0
100
AcDbBlockEnd
  0
BLOCK
  5
429
330
427
100
AcDbEntity
  8
0
100
AcDbBlockBegin
  2
block 110
 70
     0
 71
     0
 10
0.0
 20
0.0
 30
0.0
  3
block 110
  1

  0
POLYLINE
  5
42B
330
427
100
AcDbEntity
  8
Capa 1
 62
    72
370
    25
100
AcDb2dPolyline
 66
     1
 10
0.0
 20
0.0
 30
0.0
  0
VERTEX
  5
42C
330
42B
100
AcDbEntity
  8
Capa 1
 62
    72
370
    25
100
AcDbVertex
100
AcDb2dVertex
 10
157.2783589246734
 20
52.06748496495398
 30
0.0
  0
VERTEX
  5
42D
330
42B
100
AcDbEntity
  8
Capa 1
 62
    72
370
    25
100
AcDbVertex
100
AcDb2dVertex
 10
111.9022873350084
 20
52.06748496495398
 30
0.0
  0
SEQEND
  5
42E
330
42B
100
AcDbEntity
  8
Capa 1
370
    25
  0
ENDBLK
  5
42A
330
427
100
AcDbEntity
  8
0
100
AcDbBlockEnd
  0
BLOCK
  5
431
330
42F
100
AcDbEntity
  8
0
100
AcDbBlockBegin
  2
block 111
 70
     0
 71
     0
 10
0.0
 20
0.0
 30
0.0
  3
block 111
  1

  0
POLYLINE
  5
433
330
42F
100
AcDbEntity
  8
Capa 1
 62
    72
370
    25
100
AcDb2dPolyline
 66
     1
 10
0.0
 20
0.0
 30
0.0
  0
VERTEX
  5
434
330
433
100
AcDbEntity
  8
Capa 1
 62
    72
370
    25
100
AcDbVertex
100
AcDb2dVertex
 10
114.2394416540096
 20
101.1311891947412
 30
0.0
  0
VERTEX
  5
435
330
433
100
AcDbEntity
  8
Capa 1
 62
    72
370
    25
100
AcDbVertex
100
AcDb2dVertex
 10
114.2394416540096
 20
83.5033129868028
 30
0.0
  0
SEQEND
  5
436
330
433
100
AcDbEntity
  8
Capa 1
370
    25
  0
ENDBLK
  5
432
330
42F
100
AcDbEntity
  8
0
100
AcDbBlockEnd
  0
BLOCK
  5
439
330
437
100
AcDbEntity
  8
0
100
AcDbBlockBegin
  2
block 112
 70
     0
 71
     0
 10
0.0
 20
0.0
 30
0.0
  3
block 112
  1

  0
POLYLINE
  5
43B
330
437
100
AcDbEntity
  8
Capa 1
 62
    72
370
    25
100
AcDb2dPolyline
 66
     1
 10
0.0
 20
0.0
 30
0.0
  0
VERTEX
  5
43C
330
43B
100
AcDbEntity
  8
Capa 1
 62
    72
370
    25
100
AcDbVertex
100
AcDb2dVertex
 10
114.2394416540096
 20
55.57321644345579
 30
0.0
  0
VERTEX
  5
43D
330
43B
100
AcDbEntity
  8
Capa 1
 62
    72
370
    25
100
AcDbVertex
100
AcDb2dVertex
 10
114.2394416540096
 20
73.19282441677505
 30
0.0
  0
SEQEND
  5
43E
330
43B
100
AcDbEntity
  8
Capa 1
370
    25
  0
ENDBLK
  5
43A
330
437
100
AcDbEntity
  8
0
100
AcDbBlockEnd
  0
BLOCK
  5
441
330
43F
100
AcDbEntity
  8
0
100
AcDbBlockBegin
  2
block 113
 70
     0
 71
     0
 10
0.0
 20
0.0
 30
0.0
  3
block 113
  1

  0
POLYLINE
  5
443
330
43F
100
AcDbEntity
  8
Capa 1
370
     0
100
AcDb2dPolyline
 66
     1
 10
0.0
 20
0.0
 30
0.0
  0
VERTEX
  5
444
330
443
100
AcDbEntity
  8
Capa 1
370
     0
100
AcDbVertex
100
AcDb2dVertex
 10
113.6579091524657
 20
101.1311891947412
 30
0.0
  0
VERTEX
  5
445
330
443
100
AcDbEntity
  8
Capa 1
370
     0
100
AcDbVertex
100
AcDb2dVertex
 10
114.8237302337599
 20
101.1311891947412
 30
0.0
  0
VERTEX
  5
446
330
443
100
AcDbEntity
  8
Capa 1
370
     0
100
AcDbVertex
100
AcDb2dVertex
 10
114.2394416540096
 20
104.6314085168302
 30
0.0
  0
VERTEX
  5
447
330
443
100
AcDbEntity
  8
Capa 1
370
     0
100
AcDbVertex
100
AcDb2dVertex
 10
113.6579091524657
 20
101.1311891947412
 30
0.0
  0
SEQEND
  5
448
330
443
100
AcDbEntity
  8
Capa 1
370
     0
  0
HATCH
  5
449
330
43F
100
AcDbEntity
  8
Capa 1
 62
    72
100
AcDbHatch
 10
0.0
 20
0.0
 30
0.0
210
0.0
220
0.0
230
1.0
  2
SOLID
 70
     1
 71
     0
 91
        1
 92
        1
 93
        3
 72
     1
 10
113.6579091524657
 20
101.1311891947412
 11
114.8237302337599
 21
101.1311891947412
 72
     1
 10
114.8237302337599
 20
101.1311891947412
 11
114.2394416540096
 21
104.6314085168302
 72
     1
 10
114.2394416540096
 20
104.6314085168302
 11
113.6579091524657
 21
101.1311891947412
 97
        0
 75
     2
 76
     1
 98
        0
  0
ENDBLK
  5
442
330
43F
100
AcDbEntity
  8
0
100
AcDbBlockEnd
  0
BLOCK
  5
44C
330
44A
100
AcDbEntity
  8
0
100
AcDbBlockBegin
  2
block 114
 70
     0
 71
     0
 10
0.0
 20
0.0
 30
0.0
  3
block 114
  1

  0
POLYLINE
  5
44E
330
44A
100
AcDbEntity
  8
Capa 1
370
     0
100
AcDb2dPolyline
 66
     1
 10
0.0
 20
0.0
 30
0.0
  0
VERTEX
  5
44F
330
44E
100
AcDbEntity
  8
Capa 1
370
     0
100
AcDbVertex
100
AcDb2dVertex
 10
113.6579091524657
 20
55.57321644345579
 30
0.0
  0
VERTEX
  5
450
330
44E
100
AcDbEntity
  8
Capa 1
370
     0
100
AcDbVertex
100
AcDb2dVertex
 10
114.8237302337599
 20
55.57321644345579
 30
0.0
  0
VERTEX
  5
451
330
44E
100
AcDbEntity
  8
Capa 1
370
     0
100
AcDbVertex
100
AcDb2dVertex
 10
114.2394416540096
 20
52.06748496495398
 30
0.0
  0
VERTEX
  5
452
330
44E
100
AcDbEntity
  8
Capa 1
370
     0
100
AcDbVertex
100
AcDb2dVertex
 10
113.6579091524657
 20
55.57321644345579
 30
0.0
  0
SEQEND
  5
453
330
44E
100
AcDbEntity
  8
Capa 1
370
     0
  0
HATCH
  5
454
330
44A
100
AcDbEntity
  8
Capa 1
 62
    72
100
AcDbHatch
 10
0.0
 20
0.0
 30
0.0
210
0.0
220
0.0
230
1.0
  2
SOLID
 70
     1
 71
     0
 91
        1
 92
        1
 93
        3
 72
     1
 10
113.6579091524657
 20
55.57321644345579
 11
114.8237302337599
 21
55.57321644345579
 72
     1
 10
114.8237302337599
 20
55.57321644345579
 11
114.2394416540096
 21
52.06748496495398
 72
     1
 10
114.2394416540096
 20
52.06748496495398
 11
113.6579091524657
 21
55.57321644345579
 97
        0
 75
     2
 76
     1
 98
        0
  0
ENDBLK
  5
44D
330
44A
100
AcDbEntity
  8
0
100
AcDbBlockEnd
  0
BLOCK
  5
457
330
455
100
AcDbEntity
  8
0
100
AcDbBlockBegin
  2
block 115
 70
     0
 71
     0
 10
0.0
 20
0.0
 30
0.0
  3
block 115
  1

  0
MTEXT
  5
459
330
455
100
AcDbEntity
  8
Capa 1
 62
   223
100
AcDbMText
 10
115.7001631033853
 20
74.17950041465528
 30
0.0
 40
2.920234423053602
 41
0.0
 71
     7
 72
     1
  1
\fMyriad Pro|b0|i0|c0|p34;\W1;450
 11
-4.371139000186241E-8
 21
0.999999999999999
 31
0.0
 73
     1
 44
1.0
  0
ENDBLK
  5
458
330
455
100
AcDbEntity
  8
0
100
AcDbBlockEnd
  0
BLOCK
  5
45C
330
45A
100
AcDbEntity
  8
0
100
AcDbBlockBegin
  2
block 116
 70
     0
 71
     0
 10
0.0
 20
0.0
 30
0.0
  3
block 116
  1

  0
POLYLINE
  5
45E
330
45A
100
AcDbEntity
  8
Capa 1
370
     0
100
AcDb2dPolyline
 66
     1
 10
0.0
 20
0.0
 30
0.0
  0
VERTEX
  5
45F
330
45E
100
AcDbEntity
  8
Capa 1
370
     0
100
AcDbVertex
100
AcDb2dVertex
 10
122.7033578257699
 20
104.6314085168302
 30
0.0
  0
VERTEX
  5
460
330
45E
100
AcDbEntity
  8
Capa 1
370
     0
100
AcDbVertex
100
AcDb2dVertex
 10
122.7033578257699
 20
104.6314085168302
 30
0.0
  0
SEQEND
  5
461
330
45E
100
AcDbEntity
  8
Capa 1
370
     0
  0
ENDBLK
  5
45D
330
45A
100
AcDbEntity
  8
0
100
AcDbBlockEnd
  0
BLOCK
  5
464
330
462
100
AcDbEntity
  8
0
100
AcDbBlockBegin
  2
block 117
 70
     0
 71
     0
 10
0.0
 20
0.0
 30
0.0
  3
block 117
  1

  0
POLYLINE
  5
466
330
462
100
AcDbEntity
  8
Capa 1
370
     0
100
AcDb2dPolyline
 66
     1
 10
0.0
 20
0.0
 30
0.0
  0
VERTEX
  5
467
330
466
100
AcDbEntity
  8
Capa 1
370
     0
100
AcDbVertex
100
AcDb2dVertex
 10
157.2783589246734
 20
52.06748496495398
 30
0.0
  0
VERTEX
  5
468
330
466
100
AcDbEntity
  8
Capa 1
370
     0
100
AcDbVertex
100
AcDb2dVertex
 10
157.2783589246734
 20
52.06748496495398
 30
0.0
  0
SEQEND
  5
469
330
466
100
AcDbEntity
  8
Capa 1
370
     0
  0
ENDBLK
  5
465
330
462
100
AcDbEntity
  8
0
100
AcDbBlockEnd
  0
BLOCK
  5
46C
330
46A
100
AcDbEntity
  8
0
100
AcDbBlockBegin
  2
block 118
 70
     0
 71
     0
 10
0.0
 20
0.0
 30
0.0
  3
block 118
  1

  0
POLYLINE
  5
46E
330
46A
100
AcDbEntity
  8
Capa 1
370
     0
100
AcDb2dPolyline
 66
     1
 10
0.0
 20
0.0
 30
0.0
  0
VERTEX
  5
46F
330
46E
100
AcDbEntity
  8
Capa 1
370
     0
100
AcDbVertex
100
AcDb2dVertex
 10
114.2394416540096
 20
52.06748496495398
 30
0.0
  0
VERTEX
  5
470
330
46E
100
AcDbEntity
  8
Capa 1
370
     0
100
AcDbVertex
100
AcDb2dVertex
 10
114.2394416540096
 20
52.06748496495398
 30
0.0
  0
SEQEND
  5
471
330
46E
100
AcDbEntity
  8
Capa 1
370
     0
  0
ENDBLK
  5
46D
330
46A
100
AcDbEntity
  8
0
100
AcDbBlockEnd
  0
BLOCK
  5
474
330
472
100
AcDbEntity
  8
0
100
AcDbBlockBegin
  2
block 119
 70
     0
 71
     0
 10
0.0
 20
0.0
 30
0.0
  3
block 119
  1

  0
INSERT
  5
477
330
472
100
AcDbEntity
  8
Capa 1
100
AcDbBlockReference
  2
block 120
 10
0.0
 20
0.0
 30
0.0
  0
ENDBLK
  5
475
330
472
100
AcDbEntity
  8
0
100
AcDbBlockEnd
  0
BLOCK
  5
478
330
476
100
AcDbEntity
  8
0
100
AcDbBlockBegin
  2
block 120
 70
     0
 71
     0
 10
0.0
 20
0.0
 30
0.0
  3
block 120
  1

  0
INSERT
  5
47B
330
476
100
AcDbEntity
  8
Capa 1
100
AcDbBlockReference
  2
block 121
 10
0.0
 20
0.0
 30
0.0
  0
INSERT
  5
483
330
476
100
AcDbEntity
  8
Capa 1
100
AcDbBlockReference
  2
block 122
 10
0.0
 20
0.0
 30
0.0
  0
INSERT
  5
48B
330
476
100
AcDbEntity
  8
Capa 1
100
AcDbBlockReference
  2
block 123
 10
0.0
 20
0.0
 30
0.0
  0
INSERT
  5
493
330
476
100
AcDbEntity
  8
Capa 1
100
AcDbBlockReference
  2
block 124
 10
0.0
 20
0.0
 30
0.0
  0
INSERT
  5
49B
330
476
100
AcDbEntity
  8
Capa 1
100
AcDbBlockReference
  2
block 125
 10
0.0
 20
0.0
 30
0.0
  0
INSERT
  5
4A6
330
476
100
AcDbEntity
  8
Capa 1
100
AcDbBlockReference
  2
block 126
 10
0.0
 20
0.0
 30
0.0
  0
INSERT
  5
4B1
330
476
100
AcDbEntity
  8
Capa 1
100
AcDbBlockReference
  2
block 127
 10
0.0
 20
0.0
 30
0.0
  0
INSERT
  5
4B6
330
476
100
AcDbEntity
  8
Capa 1
100
AcDbBlockReference
  2
block 128
 10
0.0
 20
0.0
 30
0.0
  0
INSERT
  5
4BE
330
476
100
AcDbEntity
  8
Capa 1
100
AcDbBlockReference
  2
block 129
 10
0.0
 20
0.0
 30
0.0
  0
INSERT
  5
4C6
330
476
100
AcDbEntity
  8
Capa 1
100
AcDbBlockReference
  2
block 130
 10
0.0
 20
0.0
 30
0.0
  0
ENDBLK
  5
479
330
476
100
AcDbEntity
  8
0
100
AcDbBlockEnd
  0
BLOCK
  5
47C
330
47A
100
AcDbEntity
  8
0
100
AcDbBlockBegin
  2
block 121
 70
     0
 71
     0
 10
0.0
 20
0.0
 30
0.0
  3
block 121
  1

  0
POLYLINE
  5
47E
330
47A
100
AcDbEntity
  8
Capa 1
 62
    72
370
    25
100
AcDb2dPolyline
 66
     1
 10
0.0
 20
0.0
 30
0.0
  0
VERTEX
  5
47F
330
47E
100
AcDbEntity
  8
Capa 1
 62
    72
370
    25
100
AcDbVertex
100
AcDb2dVertex
 10
122.2375806088935
 20
104.1656312999538
 30
0.0
  0
VERTEX
  5
480
330
47E
100
AcDbEntity
  8
Capa 1
 62
    72
370
    25
100
AcDbVertex
100
AcDb2dVertex
 10
122.2375806088935
 20
114.9667017907153
 30
0.0
  0
SEQEND
  5
481
330
47E
100
AcDbEntity
  8
Capa 1
370
    25
  0
ENDBLK
  5
47D
330
47A
100
AcDbEntity
  8
0
100
AcDbBlockEnd
  0
BLOCK
  5
484
330
482
100
AcDbEntity
  8
0
100
AcDbBlockBegin
  2
block 122
 70
     0
 71
     0
 10
0.0
 20
0.0
 30
0.0
  3
block 122
  1

  0
POLYLINE
  5
486
330
482
100
AcDbEntity
  8
Capa 1
 62
    72
370
    25
100
AcDb2dPolyline
 66
     1
 10
0.0
 20
0.0
 30
0.0
  0
VERTEX
  5
487
330
486
100
AcDbEntity
  8
Capa 1
 62
    72
370
    25
100
AcDbVertex
100
AcDb2dVertex
 10
192.3218933186597
 20
104.1656312999538
 30
0.0
  0
VERTEX
  5
488
330
486
100
AcDbEntity
  8
Capa 1
 62
    72
370
    25
100
AcDbVertex
100
AcDb2dVertex
 10
192.3218933186597
 20
114.9667017907153
 30
0.0
  0
SEQEND
  5
489
330
486
100
AcDbEntity
  8
Capa 1
370
    25
  0
ENDBLK
  5
485
330
482
100
AcDbEntity
  8
0
100
AcDbBlockEnd
  0
BLOCK
  5
48C
330
48A
100
AcDbEntity
  8
0
100
AcDbBlockBegin
  2
block 123
 70
     0
 71
     0
 10
0.0
 20
0.0
 30
0.0
  3
block 123
  1

  0
POLYLINE
  5
48E
330
48A
100
AcDbEntity
  8
Capa 1
 62
    72
370
    25
100
AcDb2dPolyline
 66
     1
 10
0.0
 20
0.0
 30
0.0
  0
VERTEX
  5
48F
330
48E
100
AcDbEntity
  8
Capa 1
 62
    72
370
    25
100
AcDbVertex
100
AcDb2dVertex
 10
125.7405560091889
 20
112.6295474717141
 30
0.0
  0
VERTEX
  5
490
330
48E
100
AcDbEntity
  8
Capa 1
 62
    72
370
    25
100
AcDbVertex
100
AcDb2dVertex
 10
144.8098611190584
 20
112.6295474717141
 30
0.0
  0
SEQEND
  5
491
330
48E
100
AcDbEntity
  8
Capa 1
370
    25
  0
ENDBLK
  5
48D
330
48A
100
AcDbEntity
  8
0
100
AcDbBlockEnd
  0
BLOCK
  5
494
330
492
100
AcDbEntity
  8
0
100
AcDbBlockBegin
  2
block 124
 70
     0
 71
     0
 10
0.0
 20
0.0
 30
0.0
  3
block 124
  1

  0
POLYLINE
  5
496
330
492
100
AcDbEntity
  8
Capa 1
 62
    72
370
    25
100
AcDb2dPolyline
 66
     1
 10
0.0
 20
0.0
 30
0.0
  0
VERTEX
  5
497
330
496
100
AcDbEntity
  8
Capa 1
 62
    72
370
    25
100
AcDbVertex
100
AcDb2dVertex
 10
188.8189179183642
 20
112.6295474717141
 30
0.0
  0
VERTEX
  5
498
330
496
100
AcDbEntity
  8
Capa 1
 62
    72
370
    25
100
AcDbVertex
100
AcDb2dVertex
 10
169.5870041943189
 20
112.6295474717141
 30
0.0
  0
SEQEND
  5
499
330
496
100
AcDbEntity
  8
Capa 1
370
    25
  0
ENDBLK
  5
495
330
492
100
AcDbEntity
  8
0
100
AcDbBlockEnd
  0
BLOCK
  5
49C
330
49A
100
AcDbEntity
  8
0
100
AcDbBlockBegin
  2
block 125
 70
     0
 71
     0
 10
0.0
 20
0.0
 30
0.0
  3
block 125
  1

  0
POLYLINE
  5
49E
330
49A
100
AcDbEntity
  8
Capa 1
370
     0
100
AcDb2dPolyline
 66
     1
 10
0.0
 20
0.0
 30
0.0
  0
VERTEX
  5
49F
330
49E
100
AcDbEntity
  8
Capa 1
370
     0
100
AcDbVertex
100
AcDb2dVertex
 10
125.7405560091889
 20
113.2138360514644
 30
0.0
  0
VERTEX
  5
4A0
330
49E
100
AcDbEntity
  8
Capa 1
370
     0
100
AcDbVertex
100
AcDb2dVertex
 10
125.7405560091889
 20
112.0452588919638
 30
0.0
  0
VERTEX
  5
4A1
330
49E
100
AcDbEntity
  8
Capa 1
370
     0
100
AcDbVertex
100
AcDb2dVertex
 10
122.2375806088935
 20
112.6295474717141
 30
0.0
  0
VERTEX
  5
4A2
330
49E
100
AcDbEntity
  8
Capa 1
370
     0
100
AcDbVertex
100
AcDb2dVertex
 10
125.7405560091889
 20
113.2138360514644
 30
0.0
  0
SEQEND
  5
4A3
330
49E
100
AcDbEntity
  8
Capa 1
370
     0
  0
HATCH
  5
4A4
330
49A
100
AcDbEntity
  8
Capa 1
 62
    72
100
AcDbHatch
 10
0.0
 20
0.0
 30
0.0
210
0.0
220
0.0
230
1.0
  2
SOLID
 70
     1
 71
     0
 91
        1
 92
        1
 93
        3
 72
     1
 10
125.7405560091889
 20
113.2138360514644
 11
125.7405560091889
 21
112.0452588919638
 72
     1
 10
125.7405560091889
 20
112.0452588919638
 11
122.2375806088935
 21
112.6295474717141
 72
     1
 10
122.2375806088935
 20
112.6295474717141
 11
125.7405560091889
 21
113.2138360514644
 97
        0
 75
     2
 76
     1
 98
        0
  0
ENDBLK
  5
49D
330
49A
100
AcDbEntity
  8
0
100
AcDbBlockEnd
  0
BLOCK
  5
4A7
330
4A5
100
AcDbEntity
  8
0
100
AcDbBlockBegin
  2
block 126
 70
     0
 71
     0
 10
0.0
 20
0.0
 30
0.0
  3
block 126
  1

  0
POLYLINE
  5
4A9
330
4A5
100
AcDbEntity
  8
Capa 1
370
     0
100
AcDb2dPolyline
 66
     1
 10
0.0
 20
0.0
 30
0.0
  0
VERTEX
  5
4AA
330
4A9
100
AcDbEntity
  8
Capa 1
370
     0
100
AcDbVertex
100
AcDb2dVertex
 10
188.8189179183642
 20
113.2138360514644
 30
0.0
  0
VERTEX
  5
4AB
330
4A9
100
AcDbEntity
  8
Capa 1
370
     0
100
AcDbVertex
100
AcDb2dVertex
 10
188.8189179183642
 20
112.0452588919638
 30
0.0
  0
VERTEX
  5
4AC
330
4A9
100
AcDbEntity
  8
Capa 1
370
     0
100
AcDbVertex
100
AcDb2dVertex
 10
192.3218933186597
 20
112.6295474717141
 30
0.0
  0
VERTEX
  5
4AD
330
4A9
100
AcDbEntity
  8
Capa 1
370
     0
100
AcDbVertex
100
AcDb2dVertex
 10
188.8189179183642
 20
113.2138360514644
 30
0.0
  0
SEQEND
  5
4AE
330
4A9
100
AcDbEntity
  8
Capa 1
370
     0
  0
HATCH
  5
4AF
330
4A5
100
AcDbEntity
  8
Capa 1
 62
    72
100
AcDbHatch
 10
0.0
 20
0.0
 30
0.0
210
0.0
220
0.0
230
1.0
  2
SOLID
 70
     1
 71
     0
 91
        1
 92
        1
 93
        3
 72
     1
 10
188.8189179183642
 20
113.2138360514644
 11
188.8189179183642
 21
112.0452588919638
 72
     1
 10
188.8189179183642
 20
112.0452588919638
 11
192.3218933186597
 21
112.6295474717141
 72
     1
 10
192.3218933186597
 20
112.6295474717141
 11
188.8189179183642
 21
113.2138360514644
 97
        0
 75
     2
 76
     1
 98
        0
  0
ENDBLK
  5
4A8
330
4A5
100
AcDbEntity
  8
0
100
AcDbBlockEnd
  0
BLOCK
  5
4B2
330
4B0
100
AcDbEntity
  8
0
100
AcDbBlockBegin
  2
block 127
 70
     0
 71
     0
 10
0.0
 20
0.0
 30
0.0
  3
block 127
  1

  0
MTEXT
  5
4B4
330
4B0
100
AcDbEntity
  8
Capa 1
 62
   223
100
AcDbMText
 10
145.7965371169387
 20
111.6566518648657
 30
0.0
 40
2.920234423053602
 41
0.0
 71
     7
 72
     1
  1
\fMyriad Pro|b0|i0|c0|p34;\W1;55/60/65
 73
     1
 44
1.0
  0
ENDBLK
  5
4B3
330
4B0
100
AcDbEntity
  8
0
100
AcDbBlockEnd
  0
BLOCK
  5
4B7
330
4B5
100
AcDbEntity
  8
0
100
AcDbBlockBegin
  2
block 128
 70
     0
 71
     0
 10
0.0
 20
0.0
 30
0.0
  3
block 128
  1

  0
POLYLINE
  5
4B9
330
4B5
100
AcDbEntity
  8
Capa 1
370
     0
100
AcDb2dPolyline
 66
     1
 10
0.0
 20
0.0
 30
0.0
  0
VERTEX
  5
4BA
330
4B9
100
AcDbEntity
  8
Capa 1
370
     0
100
AcDbVertex
100
AcDb2dVertex
 10
122.2375806088935
 20
104.1656312999538
 30
0.0
  0
VERTEX
  5
4BB
330
4B9
100
AcDbEntity
  8
Capa 1
370
     0
100
AcDbVertex
100
AcDb2dVertex
 10
122.2375806088935
 20
104.1656312999538
 30
0.0
  0
SEQEND
  5
4BC
330
4B9
100
AcDbEntity
  8
Capa 1
370
     0
  0
ENDBLK
  5
4B8
330
4B5
100
AcDbEntity
  8
0
100
AcDbBlockEnd
  0
BLOCK
  5
4BF
330
4BD
100
AcDbEntity
  8
0
100
AcDbBlockBegin
  2
block 129
 70
     0
 71
     0
 10
0.0
 20
0.0
 30
0.0
  3
block 129
  1

  0
POLYLINE
  5
4C1
330
4BD
100
AcDbEntity
  8
Capa 1
370
     0
100
AcDb2dPolyline
 66
     1
 10
0.0
 20
0.0
 30
0.0
  0
VERTEX
  5
4C2
330
4C1
100
AcDbEntity
  8
Capa 1
370
     0
100
AcDbVertex
100
AcDb2dVertex
 10
192.3218933186597
 20
104.1656312999538
 30
0.0
  0
VERTEX
  5
4C3
330
4C1
100
AcDbEntity
  8
Capa 1
370
     0
100
AcDbVertex
100
AcDb2dVertex
 10
192.3218933186597
 20
104.1656312999538
 30
0.0
  0
SEQEND
  5
4C4
330
4C1
100
AcDbEntity
  8
Capa 1
370
     0
  0
ENDBLK
  5
4C0
330
4BD
100
AcDbEntity
  8
0
100
AcDbBlockEnd
  0
BLOCK
  5
4C7
330
4C5
100
AcDbEntity
  8
0
100
AcDbBlockBegin
  2
block 130
 70
     0
 71
     0
 10
0.0
 20
0.0
 30
0.0
  3
block 130
  1

  0
POLYLINE
  5
4C9
330
4C5
100
AcDbEntity
  8
Capa 1
370
     0
100
AcDb2dPolyline
 66
     1
 10
0.0
 20
0.0
 30
0.0
  0
VERTEX
  5
4CA
330
4C9
100
AcDbEntity
  8
Capa 1
370
     0
100
AcDbVertex
100
AcDb2dVertex
 10
192.3218933186597
 20
112.6295474717141
 30
0.0
  0
VERTEX
  5
4CB
330
4C9
100
AcDbEntity
  8
Capa 1
370
     0
100
AcDbVertex
100
AcDb2dVertex
 10
192.3218933186597
 20
112.6295474717141
 30
0.0
  0
SEQEND
  5
4CC
330
4C9
100
AcDbEntity
  8
Capa 1
370
     0
  0
ENDBLK
  5
4C8
330
4C5
100
AcDbEntity
  8
0
100
AcDbBlockEnd
  0
BLOCK
  5
4CF
330
4CD
100
AcDbEntity
  8
0
100
AcDbBlockBegin
  2
block 131
 70
     0
 71
     0
 10
0.0
 20
0.0
 30
0.0
  3
block 131
  1

  0
SPLINE
  5
4D1
330
4CD
100
AcDbEntity
  8
Capa 1
 62
     7
370
    25
100
AcDbSpline
210
0.0
220
0.0
230
1.0
 70
    11
 71
     3
 72
    23
 73
    19
 74
     0
 42
0.0000000001
 43
0.0000000001
 40
0.0
 40
0.0
 40
0.0
 40
0.0
 40
1.0
 40
1.0
 40
1.0
 40
2.0
 40
2.0
 40
2.0
 40
3.0
 40
3.0
 40
3.0
 40
4.0
 40
4.0
 40
4.0
 40
5.0
 40
5.0
 40
5.0
 40
6.0
 40
6.0
 40
6.0
 40
6.0
 10
55.74443780202649
 20
82.43671072093785
 30
0.0
 10
55.74443780202649
 20
83.92223687417093
 30
0.0
 10
54.54278770404945
 20
85.12388697214797
 30
0.0
 10
53.05726155081637
 20
85.12388697214797
 30
0.0
 10
51.57173539758329
 20
85.12388697214797
 30
0.0
 10
50.37008529960625
 20
83.92223687417093
 30
0.0
 10
50.37008529960625
 20
82.43671072093785
 30
0.0
 10
50.37008529960625
 20
80.9566967241175
 30
0.0
 10
51.57173539758329
 20
79.74953446972773
 30
0.0
 10
53.05726155081637
 20
79.74953446972773
 30
0.0
 10
54.54278770404945
 20
79.74953446972773
 30
0.0
 10
55.74443780202649
 20
80.9566967241175
 30
0.0
 10
55.74443780202649
 20
82.43671072093785
 30
0.0
 10
55.74443780202649
 20
82.43671072093785
 30
0.0
 10
55.74443780202649
 20
82.43671072093785
 30
0.0
 10
55.74443780202649
 20
82.43671072093785
 30
0.0
 10
55.74443780202649
 20
82.43671072093785
 30
0.0
 10
55.74443780202649
 20
82.43671072093785
 30
0.0
 10
55.74443780202649
 20
82.43671072093785
 30
0.0
  0
ENDBLK
  5
4D0
330
4CD
100
AcDbEntity
  8
0
100
AcDbBlockEnd
  0
BLOCK
  5
4D4
330
4D2
100
AcDbEntity
  8
0
100
AcDbBlockBegin
  2
block 132
 70
     0
 71
     0
 10
0.0
 20
0.0
 30
0.0
  3
block 132
  1

  0
SPLINE
  5
4D6
330
4D2
100
AcDbEntity
  8
Capa 1
 62
     7
370
    25
100
AcDbSpline
210
0.0
220
0.0
230
1.0
 70
     8
 71
     3
 72
    11
 73
     7
 74
     0
 42
0.0000000001
 43
0.0000000001
 40
0.0
 40
0.0
 40
0.0
 40
0.0
 40
1.0
 40
1.0
 40
1.0
 40
2.0
 40
2.0
 40
2.0
 40
2.0
 10
86.52156313255303
 20
88.86664117639755
 30
0.0
 10
86.52156313255303
 20
91.44081822114653
 30
0.0
 10
84.43245585212506
 20
93.53543765798723
 30
0.0
 10
81.85276665096335
 20
93.53543765798723
 30
0.0
 10
81.85276665096335
 20
93.53543765798723
 30
0.0
 10
81.85276665096335
 20
93.53543765798723
 30
0.0
 10
81.85276665096335
 20
93.53543765798723
 30
0.0
  0
ENDBLK
  5
4D5
330
4D2
100
AcDbEntity
  8
0
100
AcDbBlockEnd
  0
BLOCK
  5
4D9
330
4D7
100
AcDbEntity
  8
0
100
AcDbBlockBegin
  2
block 133
 70
     0
 71
     0
 10
0.0
 20
0.0
 30
0.0
  3
block 133
  1

  0
SPLINE
  5
4DB
330
4D7
100
AcDbEntity
  8
Capa 1
 62
     7
370
    25
100
AcDbSpline
210
0.0
220
0.0
230
1.0
 70
     8
 71
     3
 72
    11
 73
     7
 74
     0
 42
0.0000000001
 43
0.0000000001
 40
0.0
 40
0.0
 40
0.0
 40
0.0
 40
1.0
 40
1.0
 40
1.0
 40
2.0
 40
2.0
 40
2.0
 40
2.0
 10
88.10079594480267
 20
104.1656312999538
 30
0.0
 10
88.10079594480267
 20
104.4219465731462
 30
0.0
 10
87.8913340011186
 20
104.6314085168302
 30
0.0
 10
87.63226264971988
 20
104.6314085168302
 30
0.0
 10
87.63226264971988
 20
104.6314085168302
 30
0.0
 10
87.63226264971988
 20
104.6314085168302
 30
0.0
 10
87.63226264971988
 20
104.6314085168302
 30
0.0
  0
ENDBLK
  5
4DA
330
4D7
100
AcDbEntity
  8
0
100
AcDbBlockEnd
  0
BLOCK
  5
4DE
330
4DC
100
AcDbEntity
  8
0
100
AcDbBlockBegin
  2
block 134
 70
     0
 71
     0
 10
0.0
 20
0.0
 30
0.0
  3
block 134
  1

  0
SPLINE
  5
4E0
330
4DC
100
AcDbEntity
  8
Capa 1
 62
   253
370
    15
100
AcDbSpline
210
0.0
220
0.0
230
1.0
 70
     8
 71
     3
 72
    14
 73
    10
 74
     0
 42
0.0000000001
 43
0.0000000001
 40
0.0
 40
0.0
 40
0.0
 40
0.0
 40
1.0
 40
1.0
 40
1.0
 40
2.0
 40
2.0
 40
2.0
 40
3.0
 40
3.0
 40
3.0
 40
3.0
 10
53.05726155081637
 20
78.23369145622459
 30
0.0
 10
55.37787940057937
 20
78.23369145622459
 30
0.0
 10
57.263036893736
 20
80.1133367929685
 30
0.0
 10
57.263036893736
 20
82.43671072093785
 30
0.0
 10
57.263036893736
 20
84.76008464890722
 30
0.0
 10
55.37787940057937
 20
86.64248606385749
 30
0.0
 10
53.05726155081637
 20
86.64248606385749
 30
0.0
 10
53.05726155081637
 20
86.64248606385749
 30
0.0
 10
53.05726155081637
 20
86.64248606385749
 30
0.0
 10
53.05726155081637
 20
86.64248606385749
 30
0.0
  0
ENDBLK
  5
4DF
330
4DC
100
AcDbEntity
  8
0
100
AcDbBlockEnd
  0
BLOCK
  5
4E3
330
4E1
100
AcDbEntity
  8
0
100
AcDbBlockBegin
  2
block 135
 70
     0
 71
     0
 10
0.0
 20
0.0
 30
0.0
  3
block 135
  1

  0
POLYLINE
  5
4E5
330
4E1
100
AcDbEntity
  8
Capa 1
 62
     7
370
    25
100
AcDb2dPolyline
 66
     1
 10
0.0
 20
0.0
 30
0.0
  0
VERTEX
  5
4E6
330
4E5
100
AcDbEntity
  8
Capa 1
 62
     7
370
    25
100
AcDbVertex
100
AcDb2dVertex
 10
81.85276665096335
 20
93.53543765798723
 30
0.0
  0
VERTEX
  5
4E7
330
4E5
100
AcDbEntity
  8
Capa 1
 62
     7
370
    25
100
AcDbVertex
100
AcDb2dVertex
 10
24.2617564506694
 20
93.53543765798723
 30
0.0
  0
SEQEND
  5
4E8
330
4E5
100
AcDbEntity
  8
Capa 1
370
    25
  0
ENDBLK
  5
4E4
330
4E1
100
AcDbEntity
  8
0
100
AcDbBlockEnd
  0
BLOCK
  5
4EB
330
4E9
100
AcDbEntity
  8
0
100
AcDbBlockBegin
  2
block 136
 70
     0
 71
     0
 10
0.0
 20
0.0
 30
0.0
  3
block 136
  1

  0
SPLINE
  5
4ED
330
4E9
100
AcDbEntity
  8
Capa 1
 62
     7
370
    25
100
AcDbSpline
210
0.0
220
0.0
230
1.0
 70
    11
 71
     3
 72
    23
 73
    19
 74
     0
 42
0.0000000001
 43
0.0000000001
 40
0.0
 40
0.0
 40
0.0
 40
0.0
 40
1.0
 40
1.0
 40
1.0
 40
2.0
 40
2.0
 40
2.0
 40
3.0
 40
3.0
 40
3.0
 40
4.0
 40
4.0
 40
4.0
 40
5.0
 40
5.0
 40
5.0
 40
6.0
 40
6.0
 40
6.0
 40
6.0
 10
55.09951550173606
 20
97.62270163803298
 30
0.0
 10
55.09951550173606
 20
98.75269370264441
 30
0.0
 10
54.18725361542781
 20
99.6704677453654
 30
0.0
 10
53.05726155081637
 20
99.6704677453654
 30
0.0
 10
51.92726948620493
 20
99.6704677453654
 30
0.0
 10
51.01500759989668
 20
98.75269370264441
 30
0.0
 10
51.01500759989668
 20
97.62270163803298
 30
0.0
 10
51.01500759989668
 20
96.49270957342155
 30
0.0
 10
51.92726948620493
 20
95.58044768711329
 30
0.0
 10
53.05726155081637
 20
95.58044768711329
 30
0.0
 10
54.18725361542781
 20
95.58044768711329
 30
0.0
 10
55.09951550173606
 20
96.49270957342155
 30
0.0
 10
55.09951550173606
 20
97.62270163803298
 30
0.0
 10
55.09951550173606
 20
97.62270163803298
 30
0.0
 10
55.09951550173606
 20
97.62270163803298
 30
0.0
 10
55.09951550173606
 20
97.62270163803298
 30
0.0
 10
55.09951550173606
 20
97.62270163803298
 30
0.0
 10
55.09951550173606
 20
97.62270163803298
 30
0.0
 10
55.09951550173606
 20
97.62270163803298
 30
0.0
  0
ENDBLK
  5
4EC
330
4E9
100
AcDbEntity
  8
0
100
AcDbBlockEnd
  0
BLOCK
  5
4F0
330
4EE
100
AcDbEntity
  8
0
100
AcDbBlockBegin
  2
block 137
 70
     0
 71
     0
 10
0.0
 20
0.0
 30
0.0
  3
block 137
  1

  0
POLYLINE
  5
4F2
330
4EE
100
AcDbEntity
  8
Capa 1
 62
     7
370
    25
100
AcDb2dPolyline
 66
     1
 10
0.0
 20
0.0
 30
0.0
  0
VERTEX
  5
4F3
330
4F2
100
AcDbEntity
  8
Capa 1
 62
     7
370
    25
100
AcDbVertex
100
AcDb2dVertex
 10
26.70364174151264
 20
89.77890306270581
 30
0.0
  0
VERTEX
  5
4F4
330
4F2
100
AcDbEntity
  8
Capa 1
 62
     7
370
    25
100
AcDbVertex
100
AcDb2dVertex
 10
79.4108813601201
 20
89.77890306270581
 30
0.0
  0
SEQEND
  5
4F5
330
4F2
100
AcDbEntity
  8
Capa 1
370
    25
  0
ENDBLK
  5
4F1
330
4EE
100
AcDbEntity
  8
0
100
AcDbBlockEnd
  0
BLOCK
  5
4F8
330
4F6
100
AcDbEntity
  8
0
100
AcDbBlockBegin
  2
block 138
 70
     0
 71
     0
 10
0.0
 20
0.0
 30
0.0
  3
block 138
  1

  0
SPLINE
  5
4FA
330
4F6
100
AcDbEntity
  8
Capa 1
 62
     7
370
    25
100
AcDbSpline
210
0.0
220
0.0
230
1.0
 70
     8
 71
     3
 72
    11
 73
     7
 74
     0
 42
0.0000000001
 43
0.0000000001
 40
0.0
 40
0.0
 40
0.0
 40
0.0
 40
1.0
 40
1.0
 40
1.0
 40
2.0
 40
2.0
 40
2.0
 40
2.0
 10
83.15087948616332
 20
86.03890493666259
 30
0.0
 10
83.15087948616332
 20
88.1059635914396
 30
0.0
 10
81.47518393669075
 20
89.77890306270581
 30
0.0
 10
79.4108813601201
 20
89.77890306270581
 30
0.0
 10
79.4108813601201
 20
89.77890306270581
 30
0.0
 10
79.4108813601201
 20
89.77890306270581
 30
0.0
 10
79.4108813601201
 20
89.77890306270581
 30
0.0
  0
ENDBLK
  5
4F9
330
4F6
100
AcDbEntity
  8
0
100
AcDbBlockEnd
  0
BLOCK
  5
4FD
330
4FB
100
AcDbEntity
  8
0
100
AcDbBlockBegin
  2
block 139
 70
     0
 71
     0
 10
0.0
 20
0.0
 30
0.0
  3
block 139
  1

  0
SPLINE
  5
4FF
330
4FB
100
AcDbEntity
  8
Capa 1
 62
     7
370
    25
100
AcDbSpline
210
0.0
220
0.0
230
1.0
 70
     8
 71
     3
 72
    62
 73
    58
 74
     0
 42
0.0000000001
 43
0.0000000001
 40
0.0
 40
0.0
 40
0.0
 40
0.0
 40
1.0
 40
1.0
 40
1.0
 40
2.0
 40
2.0
 40
2.0
 40
3.0
 40
3.0
 40
3.0
 40
4.0
 40
4.0
 40
4.0
 40
5.0
 40
5.0
 40
5.0
 40
6.0
 40
6.0
 40
6.0
 40
7.0
 40
7.0
 40
7.0
 40
8.0
 40
8.0
 40
8.0
 40
9.0
 40
9.0
 40
9.0
 40
10.0
 40
10.0
 40
10.0
 40
11.0
 40
11.0
 40
11.0
 40
12.0
 40
12.0
 40
12.0
 40
13.0
 40
13.0
 40
13.0
 40
14.0
 40
14.0
 40
14.0
 40
15.0
 40
15.0
 40
15.0
 40
16.0
 40
16.0
 40
16.0
 40
17.0
 40
17.0
 40
17.0
 40
18.0
 40
18.0
 40
18.0
 40
19.0
 40
19.0
 40
19.0
 40
19.0
 10
46.05131075022548
 20
90.77384729520514
 30
0.0
 10
46.07335937587644
 20
90.77384729520514
 30
0.0
 10
46.10092015794013
 20
90.77384729520514
 30
0.0
 10
46.12848094000383
 20
90.77384729520514
 30
0.0
 10
46.12848094000383
 20
90.77384729520514
 30
0.0
 10
46.12848094000383
 20
90.77384729520514
 30
0.0
 10
46.12848094000383
 20
90.77384729520514
 30
0.0
 10
46.3103821016242
 20
90.78487160803061
 30
0.0
 10
46.49228326324458
 20
90.82345670291978
 30
0.0
 10
46.652135799214
 20
90.88409042345991
 30
0.0
 10
46.652135799214
 20
90.88409042345991
 30
0.0
 10
46.652135799214
 20
90.88409042345991
 30
0.0
 10
46.652135799214
 20
90.88409042345991
 30
0.0
 10
46.81474441338979
 20
90.94472414400003
 30
0.0
 10
46.96081655832737
 20
91.03567472481024
 30
0.0
 10
47.07381576478851
 20
91.145917853065
 30
0.0
 10
47.07381576478851
 20
91.145917853065
 30
0.0
 10
47.07381576478851
 20
91.145917853065
 30
0.0
 10
47.07381576478851
 20
91.145917853065
 30
0.0
 10
47.15925418918596
 20
91.22860019925608
 30
0.0
 10
47.22815614434519
 20
91.32506293647901
 30
0.0
 10
47.26949731744074
 20
91.42428175190831
 30
0.0
 10
47.26949731744074
 20
91.42428175190831
 30
0.0
 10
47.26949731744074
 20
91.42428175190831
 30
0.0
 10
47.26949731744074
 20
91.42428175190831
 30
0.0
 10
47.31359456874264
 20
91.52901272375034
 30
0.0
 10
47.33839927259997
 20
91.63374369559237
 30
0.0
 10
47.33013103798086
 20
91.74398682384715
 30
0.0
 10
47.33013103798086
 20
91.74398682384715
 30
0.0
 10
47.33013103798086
 20
91.74398682384715
 30
0.0
 10
47.33013103798086
 20
91.74398682384715
 30
0.0
 10
47.32737495977449
 20
91.85422995210193
 30
0.0
 10
47.29705809950443
 20
91.96171700215034
 30
0.0
 10
47.24469261358341
 20
92.063691895786
 30
0.0
 10
47.24469261358341
 20
92.063691895786
 30
0.0
 10
47.24469261358341
 20
92.063691895786
 30
0.0
 10
47.24469261358341
 20
92.063691895786
 30
0.0
 10
47.1923271276624
 20
92.16291071121529
 30
0.0
 10
47.11791301609042
 20
92.25110521381912
 30
0.0
 10
47.02420635707387
 20
92.33103148180382
 30
0.0
 10
47.02420635707387
 20
92.33103148180382
 30
0.0
 10
47.02420635707387
 20
92.33103148180382
 30
0.0
 10
47.02420635707387
 20
92.33103148180382
 30
0.0
 10
46.93601185447005
 20
92.4054455933758
 30
0.0
 10
46.82576872621527
 20
92.4771036267414
 30
0.0
 10
46.70725736334139
 20
92.52671303445605
 30
0.0
 10
46.70725736334139
 20
92.52671303445605
 30
0.0
 10
46.70725736334139
 20
92.52671303445605
 30
0.0
 10
46.70725736334139
 20
92.52671303445605
 30
0.0
 10
46.55016090557834
 20
92.59561498961529
 30
0.0
 10
46.37101582216432
 20
92.64246831912357
 30
0.0
 10
46.18911466054395
 20
92.65349263194904
 30
0.0
 10
46.18911466054395
 20
92.65349263194904
 30
0.0
 10
46.18911466054395
 20
92.65349263194904
 30
0.0
 10
46.18911466054395
 20
92.65349263194904
 30
0.0
 10
46.14226133103567
 20
92.65900478836177
 30
0.0
 10
46.09540800152739
 20
92.66176086656814
 30
0.0
 10
46.05131075022548
 20
92.66176086656814
 30
0.0
  0
ENDBLK
  5
4FE
330
4FB
100
AcDbEntity
  8
0
100
AcDbBlockEnd
  0
BLOCK
  5
502
330
500
100
AcDbEntity
  8
0
100
AcDbBlockBegin
  2
block 140
 70
     0
 71
     0
 10
0.0
 20
0.0
 30
0.0
  3
block 140
  1

  0
POLYLINE
  5
504
330
500
100
AcDbEntity
  8
Capa 1
 62
     7
370
    25
100
AcDb2dPolyline
 66
     1
 10
0.0
 20
0.0
 30
0.0
  0
VERTEX
  5
505
330
504
100
AcDbEntity
  8
Capa 1
 62
     7
370
    25
100
AcDbVertex
100
AcDb2dVertex
 10
87.63226264971988
 20
104.6314085168302
 30
0.0
  0
VERTEX
  5
506
330
504
100
AcDbEntity
  8
Capa 1
 62
     7
370
    25
100
AcDbVertex
100
AcDb2dVertex
 10
18.48226045191286
 20
104.6314085168302
 30
0.0
  0
SEQEND
  5
507
330
504
100
AcDbEntity
  8
Capa 1
370
    25
  0
ENDBLK
  5
503
330
500
100
AcDbEntity
  8
0
100
AcDbBlockEnd
  0
BLOCK
  5
50A
330
508
100
AcDbEntity
  8
0
100
AcDbBlockBegin
  2
block 141
 70
     0
 71
     0
 10
0.0
 20
0.0
 30
0.0
  3
block 141
  1

  0
SPLINE
  5
50C
330
508
100
AcDbEntity
  8
Capa 1
 62
     7
370
    25
100
AcDbSpline
210
0.0
220
0.0
230
1.0
 70
     8
 71
     3
 72
    11
 73
     7
 74
     0
 42
0.0000000001
 43
0.0000000001
 40
0.0
 40
0.0
 40
0.0
 40
0.0
 40
1.0
 40
1.0
 40
1.0
 40
2.0
 40
2.0
 40
2.0
 40
2.0
 10
24.2617564506694
 20
93.53543765798723
 30
0.0
 10
21.68206724950768
 20
93.53543765798723
 30
0.0
 10
19.59295996907971
 20
91.44081822114653
 30
0.0
 10
19.59295996907971
 20
88.86664117639755
 30
0.0
 10
19.59295996907971
 20
88.86664117639755
 30
0.0
 10
19.59295996907971
 20
88.86664117639755
 30
0.0
 10
19.59295996907971
 20
88.86664117639755
 30
0.0
  0
ENDBLK
  5
50B
330
508
100
AcDbEntity
  8
0
100
AcDbBlockEnd
  0
BLOCK
  5
50F
330
50D
100
AcDbEntity
  8
0
100
AcDbBlockBegin
  2
block 142
 70
     0
 71
     0
 10
0.0
 20
0.0
 30
0.0
  3
block 142
  1

  0
SPLINE
  5
511
330
50D
100
AcDbEntity
  8
Capa 1
 62
     7
370
    25
100
AcDbSpline
210
0.0
220
0.0
230
1.0
 70
     8
 71
     3
 72
    11
 73
     7
 74
     0
 42
0.0000000001
 43
0.0000000001
 40
0.0
 40
0.0
 40
0.0
 40
0.0
 40
1.0
 40
1.0
 40
1.0
 40
2.0
 40
2.0
 40
2.0
 40
2.0
 10
18.48226045191286
 20
104.6314085168302
 30
0.0
 10
18.22318910051415
 20
104.6314085168302
 30
0.0
 10
18.01372715683008
 20
104.4219465731462
 30
0.0
 10
18.01372715683008
 20
104.1656312999538
 30
0.0
 10
18.01372715683008
 20
104.1656312999538
 30
0.0
 10
18.01372715683008
 20
104.1656312999538
 30
0.0
 10
18.01372715683008
 20
104.1656312999538
 30
0.0
  0
ENDBLK
  5
510
330
50D
100
AcDbEntity
  8
0
100
AcDbBlockEnd
  0
BLOCK
  5
514
330
512
100
AcDbEntity
  8
0
100
AcDbBlockBegin
  2
block 143
 70
     0
 71
     0
 10
0.0
 20
0.0
 30
0.0
  3
block 143
  1

  0
POLYLINE
  5
516
330
512
100
AcDbEntity
  8
Capa 1
 62
     7
370
    15
100
AcDb2dPolyline
 66
     1
 10
0.0
 20
0.0
 30
0.0
  0
VERTEX
  5
517
330
516
100
AcDbEntity
  8
Capa 1
 62
     7
370
    15
100
AcDbVertex
100
AcDb2dVertex
 10
19.59295996907971
 20
88.86664117639755
 30
0.0
  0
VERTEX
  5
73C
330
516
100
AcDbEntity
  8
0
100
AcDbVertex
100
AcDb2dVertex
 10
19.59295996907971
 20
88.86664117639755
 30
0.0
  0
SEQEND
  5
518
330
516
100
AcDbEntity
  8
Capa 1
370
    15
  0
POLYLINE
  5
519
330
512
100
AcDbEntity
  8
Capa 1
 62
     7
370
    15
100
AcDb2dPolyline
 66
     1
 10
0.0
 20
0.0
 30
0.0
  0
VERTEX
  5
51A
330
519
100
AcDbEntity
  8
Capa 1
 62
     7
370
    15
100
AcDbVertex
100
AcDb2dVertex
 10
19.59295996907971
 20
88.86664117639755
 30
0.0
  0
VERTEX
  5
73D
330
519
100
AcDbEntity
  8
0
100
AcDbVertex
100
AcDb2dVertex
 10
19.59295996907971
 20
88.86664117639755
 30
0.0
  0
SEQEND
  5
51B
330
519
100
AcDbEntity
  8
Capa 1
370
    15
  0
POLYLINE
  5
51C
330
512
100
AcDbEntity
  8
Capa 1
 62
     7
370
    15
100
AcDb2dPolyline
 66
     1
 10
0.0
 20
0.0
 30
0.0
  0
VERTEX
  5
51D
330
51C
100
AcDbEntity
  8
Capa 1
 62
     7
370
    15
100
AcDbVertex
100
AcDb2dVertex
 10
53.05726155081637
 20
65.32973329400329
 30
0.0
  0
VERTEX
  5
51E
330
51C
100
AcDbEntity
  8
Capa 1
 62
     7
370
    15
100
AcDbVertex
100
AcDb2dVertex
 10
50.33150020471708
 20
65.32973329400329
 30
0.0
  0
VERTEX
  5
51F
330
51C
100
AcDbEntity
  8
Capa 1
 62
     7
370
    15
100
AcDbVertex
100
AcDb2dVertex
 10
47.37974044569551
 20
65.33524545041604
 30
0.0
  0
VERTEX
  5
520
330
51C
100
AcDbEntity
  8
Capa 1
 62
     7
370
    15
100
AcDbVertex
100
AcDb2dVertex
 10
44.56854067519877
 20
65.34626976324151
 30
0.0
  0
VERTEX
  5
521
330
51C
100
AcDbEntity
  8
Capa 1
 62
     7
370
    15
100
AcDbVertex
100
AcDb2dVertex
 10
41.8951448150205
 20
65.36280623247973
 30
0.0
  0
VERTEX
  5
522
330
51C
100
AcDbEntity
  8
Capa 1
 62
     7
370
    15
100
AcDbVertex
100
AcDb2dVertex
 10
39.3595528651607
 20
65.37658662351157
 30
0.0
  0
VERTEX
  5
523
330
51C
100
AcDbEntity
  8
Capa 1
 62
     7
370
    15
100
AcDbVertex
100
AcDb2dVertex
 10
36.94798443458752
 20
65.39587917095616
 30
0.0
  0
VERTEX
  5
524
330
51C
100
AcDbEntity
  8
Capa 1
 62
     7
370
    15
100
AcDbVertex
100
AcDb2dVertex
 10
34.66043952330096
 20
65.42068387481348
 30
0.0
  0
VERTEX
  5
525
330
51C
100
AcDbEntity
  8
Capa 1
 62
     7
370
    15
100
AcDbVertex
100
AcDb2dVertex
 10
32.42801617614178
 20
65.4454885786708
 30
0.0
  0
VERTEX
  5
526
330
51C
100
AcDbEntity
  8
Capa 1
 62
     7
370
    15
100
AcDbVertex
100
AcDb2dVertex
 10
30.2865434097928
 20
65.4730493607345
 30
0.0
  0
VERTEX
  5
527
330
51C
100
AcDbEntity
  8
Capa 1
 62
     7
370
    15
100
AcDbVertex
100
AcDb2dVertex
 10
28.21397259860304
 20
65.5006101427982
 30
0.0
  0
VERTEX
  5
528
330
51C
100
AcDbEntity
  8
Capa 1
 62
     7
370
    15
100
AcDbVertex
100
AcDb2dVertex
 10
27.26312561740562
 20
65.51439053383004
 30
0.0
  0
VERTEX
  5
529
330
51C
100
AcDbEntity
  8
Capa 1
 62
     7
370
    15
100
AcDbVertex
100
AcDb2dVertex
 10
26.32881510544641
 20
65.52817092486188
 30
0.0
  0
VERTEX
  5
52A
330
51C
100
AcDbEntity
  8
Capa 1
 62
     7
370
    15
100
AcDbVertex
100
AcDb2dVertex
 10
25.42482145375726
 20
65.54195131589374
 30
0.0
  0
VERTEX
  5
52B
330
51C
100
AcDbEntity
  8
Capa 1
 62
     7
370
    15
100
AcDbVertex
100
AcDb2dVertex
 10
24.62004661749741
 20
65.56951209795743
 30
0.0
  0
VERTEX
  5
52C
330
51C
100
AcDbEntity
  8
Capa 1
 62
     7
370
    15
100
AcDbVertex
100
AcDb2dVertex
 10
23.94205137873055
 20
65.66321875697399
 30
0.0
  0
VERTEX
  5
52D
330
51C
100
AcDbEntity
  8
Capa 1
 62
     7
370
    15
100
AcDbVertex
100
AcDb2dVertex
 10
23.25303182713821
 20
65.85338815321347
 30
0.0
  0
VERTEX
  5
52E
330
51C
100
AcDbEntity
  8
Capa 1
 62
     7
370
    15
100
AcDbVertex
100
AcDb2dVertex
 10
22.65220677814969
 20
66.1014351917867
 30
0.0
  0
VERTEX
  5
52F
330
51C
100
AcDbEntity
  8
Capa 1
 62
     7
370
    15
100
AcDbVertex
100
AcDb2dVertex
 10
22.13682015355862
 20
66.38255516883639
 30
0.0
  0
VERTEX
  5
530
330
51C
100
AcDbEntity
  8
Capa 1
 62
     7
370
    15
100
AcDbVertex
100
AcDb2dVertex
 10
21.83089547265163
 20
66.58926103431409
 30
0.0
  0
VERTEX
  5
531
330
51C
100
AcDbEntity
  8
Capa 1
 62
     7
370
    15
100
AcDbVertex
100
AcDb2dVertex
 10
21.56631196484017
 20
66.7959668997918
 30
0.0
  0
VERTEX
  5
532
330
51C
100
AcDbEntity
  8
Capa 1
 62
     7
370
    15
100
AcDbVertex
100
AcDb2dVertex
 10
21.34582570833062
 20
66.98613629603128
 30
0.0
  0
VERTEX
  5
533
330
51C
100
AcDbEntity
  8
Capa 1
 62
     7
370
    15
100
AcDbVertex
100
AcDb2dVertex
 10
21.14738807747203
 20
67.17906177047713
 30
0.0
  0
VERTEX
  5
534
330
51C
100
AcDbEntity
  8
Capa 1
 62
     7
370
    15
100
AcDbVertex
100
AcDb2dVertex
 10
20.90485319531152
 20
67.44364527828859
 30
0.0
  0
VERTEX
  5
535
330
51C
100
AcDbEntity
  8
Capa 1
 62
     7
370
    15
100
AcDbVertex
100
AcDb2dVertex
 10
20.63200145288096
 20
67.78815505408475
 30
0.0
  0
VERTEX
  5
536
330
51C
100
AcDbEntity
  8
Capa 1
 62
     7
370
    15
100
AcDbVertex
100
AcDb2dVertex
 10
20.39773480533956
 20
68.13266482988092
 30
0.0
  0
VERTEX
  5
537
330
51C
100
AcDbEntity
  8
Capa 1
 62
     7
370
    15
100
AcDbVertex
100
AcDb2dVertex
 10
20.22685795654467
 20
68.43858951078792
 30
0.0
  0
VERTEX
  5
538
330
51C
100
AcDbEntity
  8
Capa 1
 62
     7
370
    15
100
AcDbVertex
100
AcDb2dVertex
 10
20.09456620263894
 20
68.70041694039301
 30
0.0
  0
VERTEX
  5
539
330
51C
100
AcDbEntity
  8
Capa 1
 62
     7
370
    15
100
AcDbVertex
100
AcDb2dVertex
 10
19.99810346541601
 20
68.91814711869618
 30
0.0
  0
VERTEX
  5
53A
330
51C
100
AcDbEntity
  8
Capa 1
 62
     7
370
    15
100
AcDbVertex
100
AcDb2dVertex
 10
19.89612857178034
 20
69.19375493933312
 30
0.0
  0
VERTEX
  5
53B
330
51C
100
AcDbEntity
  8
Capa 1
 62
     7
370
    15
100
AcDbVertex
100
AcDb2dVertex
 10
19.78037328711283
 20
69.55755726257388
 30
0.0
  0
VERTEX
  5
53C
330
51C
100
AcDbEntity
  8
Capa 1
 62
     7
370
    15
100
AcDbVertex
100
AcDb2dVertex
 10
19.68115447168353
 20
70.01506624483119
 30
0.0
  0
VERTEX
  5
53D
330
51C
100
AcDbEntity
  8
Capa 1
 62
     7
370
    15
100
AcDbVertex
100
AcDb2dVertex
 10
19.60949643831793
 20
70.56628188610506
 30
0.0
  0
VERTEX
  5
53E
330
51C
100
AcDbEntity
  8
Capa 1
 62
     7
370
    15
100
AcDbVertex
100
AcDb2dVertex
 10
19.59295996907971
 20
71.28561829796746
 30
0.0
  0
VERTEX
  5
53F
330
51C
100
AcDbEntity
  8
Capa 1
 62
     7
370
    15
100
AcDbVertex
100
AcDb2dVertex
 10
19.59295996907971
 20
72.19788018427572
 30
0.0
  0
VERTEX
  5
540
330
51C
100
AcDbEntity
  8
Capa 1
 62
     7
370
    15
100
AcDbVertex
100
AcDb2dVertex
 10
19.59295996907971
 20
75.28193169720302
 30
0.0
  0
VERTEX
  5
541
330
51C
100
AcDbEntity
  8
Capa 1
 62
     7
370
    15
100
AcDbVertex
100
AcDb2dVertex
 10
19.59295996907971
 20
76.42846023105267
 30
0.0
  0
VERTEX
  5
542
330
51C
100
AcDbEntity
  8
Capa 1
 62
     7
370
    15
100
AcDbVertex
100
AcDb2dVertex
 10
19.59295996907971
 20
77.68247581495072
 30
0.0
  0
VERTEX
  5
543
330
51C
100
AcDbEntity
  8
Capa 1
 62
     7
370
    15
100
AcDbVertex
100
AcDb2dVertex
 10
19.59295996907971
 20
79.04673452710355
 30
0.0
  0
VERTEX
  5
544
330
51C
100
AcDbEntity
  8
Capa 1
 62
     7
370
    15
100
AcDbVertex
100
AcDb2dVertex
 10
19.59295996907971
 20
80.73621046760796
 30
0.0
  0
VERTEX
  5
545
330
51C
100
AcDbEntity
  8
Capa 1
 62
     7
370
    15
100
AcDbVertex
100
AcDb2dVertex
 10
19.59295996907971
 20
82.56624639663721
 30
0.0
  0
VERTEX
  5
546
330
51C
100
AcDbEntity
  8
Capa 1
 62
     7
370
    15
100
AcDbVertex
100
AcDb2dVertex
 10
19.59295996907971
 20
84.53959839239766
 30
0.0
  0
VERTEX
  5
547
330
51C
100
AcDbEntity
  8
Capa 1
 62
     7
370
    15
100
AcDbVertex
100
AcDb2dVertex
 10
19.59295996907971
 20
86.64524214206385
 30
0.0
  0
VERTEX
  5
548
330
51C
100
AcDbEntity
  8
Capa 1
 62
     7
370
    15
100
AcDbVertex
100
AcDb2dVertex
 10
19.59295996907971
 20
88.86664117639755
 30
0.0
  0
SEQEND
  5
549
330
51C
100
AcDbEntity
  8
Capa 1
370
    15
  0
ENDBLK
  5
515
330
512
100
AcDbEntity
  8
0
100
AcDbBlockEnd
  0
BLOCK
  5
54C
330
54A
100
AcDbEntity
  8
0
100
AcDbBlockBegin
  2
block 144
 70
     0
 71
     0
 10
0.0
 20
0.0
 30
0.0
  3
block 144
  1

  0
SPLINE
  5
54E
330
54A
100
AcDbEntity
  8
Capa 1
 62
     7
370
    25
100
AcDbSpline
210
0.0
220
0.0
230
1.0
 70
     8
 71
     3
 72
    11
 73
     7
 74
     0
 42
0.0000000001
 43
0.0000000001
 40
0.0
 40
0.0
 40
0.0
 40
0.0
 40
1.0
 40
1.0
 40
1.0
 40
2.0
 40
2.0
 40
2.0
 40
2.0
 10
26.70364174151264
 20
89.77890306270581
 30
0.0
 10
24.639339164942
 20
89.77890306270581
 30
0.0
 10
22.96364361546943
 20
88.1059635914396
 30
0.0
 10
22.96364361546943
 20
86.03890493666259
 30
0.0
 10
22.96364361546943
 20
86.03890493666259
 30
0.0
 10
22.96364361546943
 20
86.03890493666259
 30
0.0
 10
22.96364361546943
 20
86.03890493666259
 30
0.0
  0
ENDBLK
  5
54D
330
54A
100
AcDbEntity
  8
0
100
AcDbBlockEnd
  0
BLOCK
  5
551
330
54F
100
AcDbEntity
  8
0
100
AcDbBlockBegin
  2
block 145
 70
     0
 71
     0
 10
0.0
 20
0.0
 30
0.0
  3
block 145
  1

  0
POLYLINE
  5
553
330
54F
100
AcDbEntity
  8
Capa 1
 62
     7
370
    15
100
AcDb2dPolyline
 66
     1
 10
0.0
 20
0.0
 30
0.0
  0
VERTEX
  5
554
330
553
100
AcDbEntity
  8
Capa 1
 62
     7
370
    15
100
AcDbVertex
100
AcDb2dVertex
 10
53.05726155081637
 20
63.75050048175365
 30
0.0
  0
VERTEX
  5
555
330
553
100
AcDbEntity
  8
Capa 1
 62
     7
370
    15
100
AcDbVertex
100
AcDb2dVertex
 10
50.32874412651071
 20
63.75050048175365
 30
0.0
  0
VERTEX
  5
556
330
553
100
AcDbEntity
  8
Capa 1
 62
     7
370
    15
100
AcDbVertex
100
AcDb2dVertex
 10
47.37698436748914
 20
63.75876871637276
 30
0.0
  0
VERTEX
  5
557
330
553
100
AcDbEntity
  8
Capa 1
 62
     7
370
    15
100
AcDbVertex
100
AcDb2dVertex
 10
44.55751636237329
 20
63.76979302919824
 30
0.0
  0
VERTEX
  5
558
330
553
100
AcDbEntity
  8
Capa 1
 62
     7
370
    15
100
AcDbVertex
100
AcDb2dVertex
 10
41.88412050219502
 20
63.78632949843646
 30
0.0
  0
VERTEX
  5
559
330
553
100
AcDbEntity
  8
Capa 1
 62
     7
370
    15
100
AcDbVertex
100
AcDb2dVertex
 10
39.34577247412885
 20
63.80286596767468
 30
0.0
  0
VERTEX
  5
55A
330
553
100
AcDbEntity
  8
Capa 1
 62
     7
370
    15
100
AcDbVertex
100
AcDb2dVertex
 10
36.93420404355567
 20
63.82215851511926
 30
0.0
  0
VERTEX
  5
55B
330
553
100
AcDbEntity
  8
Capa 1
 62
     7
370
    15
100
AcDbVertex
100
AcDb2dVertex
 10
34.64390305406274
 20
63.84696321897658
 30
0.0
  0
VERTEX
  5
55C
330
553
100
AcDbEntity
  8
Capa 1
 62
     7
370
    15
100
AcDbVertex
100
AcDb2dVertex
 10
32.41147970690356
 20
63.86901184462754
 30
0.0
  0
VERTEX
  5
55D
330
553
100
AcDbEntity
  8
Capa 1
 62
     7
370
    15
100
AcDbVertex
100
AcDb2dVertex
 10
30.26449478414184
 20
63.89657262669123
 30
0.0
  0
VERTEX
  5
55E
330
553
100
AcDbEntity
  8
Capa 1
 62
     7
370
    15
100
AcDbVertex
100
AcDb2dVertex
 10
28.19468005115846
 20
63.92413340875493
 30
0.0
  0
VERTEX
  5
55F
330
553
100
AcDbEntity
  8
Capa 1
 62
     7
370
    15
100
AcDbVertex
100
AcDb2dVertex
 10
27.24383306996103
 20
63.9351577215804
 30
0.0
  0
VERTEX
  5
560
330
553
100
AcDbEntity
  8
Capa 1
 62
     7
370
    15
100
AcDbVertex
100
AcDb2dVertex
 10
26.30952255800182
 20
63.95169419081862
 30
0.0
  0
VERTEX
  5
561
330
553
100
AcDbEntity
  8
Capa 1
 62
     7
370
    15
100
AcDbVertex
100
AcDb2dVertex
 10
25.38899243707446
 20
63.96823066005683
 30
0.0
  0
VERTEX
  5
562
330
553
100
AcDbEntity
  8
Capa 1
 62
     7
370
    15
100
AcDbVertex
100
AcDb2dVertex
 10
24.49051094179805
 20
63.99027928570779
 30
0.0
  0
VERTEX
  5
563
330
553
100
AcDbEntity
  8
Capa 1
 62
     7
370
    15
100
AcDbVertex
100
AcDb2dVertex
 10
23.62510238499808
 20
64.11705888320078
 30
0.0
  0
VERTEX
  5
564
330
553
100
AcDbEntity
  8
Capa 1
 62
     7
370
    15
100
AcDbVertex
100
AcDb2dVertex
 10
22.74315735895988
 20
64.35408160894855
 30
0.0
  0
VERTEX
  5
565
330
553
100
AcDbEntity
  8
Capa 1
 62
     7
370
    15
100
AcDbVertex
100
AcDb2dVertex
 10
21.96594330476373
 20
64.67378668088739
 30
0.0
  0
VERTEX
  5
566
330
553
100
AcDbEntity
  8
Capa 1
 62
     7
370
    15
100
AcDbVertex
100
AcDb2dVertex
 10
21.31275276985419
 20
65.03483292592178
 30
0.0
  0
VERTEX
  5
567
330
553
100
AcDbEntity
  8
Capa 1
 62
     7
370
    15
100
AcDbVertex
100
AcDb2dVertex
 10
20.9076092735179
 20
65.31044074655871
 30
0.0
  0
VERTEX
  5
568
330
553
100
AcDbEntity
  8
Capa 1
 62
     7
370
    15
100
AcDbVertex
100
AcDb2dVertex
 10
20.56309949772173
 20
65.57778033257654
 30
0.0
  0
VERTEX
  5
569
330
553
100
AcDbEntity
  8
Capa 1
 62
     7
370
    15
100
AcDbVertex
100
AcDb2dVertex
 10
20.28197952067205
 20
65.82582737114977
 30
0.0
  0
VERTEX
  5
56A
330
553
100
AcDbEntity
  8
Capa 1
 62
     7
370
    15
100
AcDbVertex
100
AcDb2dVertex
 10
20.01463993465423
 20
66.07938656613575
 30
0.0
  0
VERTEX
  5
56B
330
553
100
AcDbEntity
  8
Capa 1
 62
     7
370
    15
100
AcDbVertex
100
AcDb2dVertex
 10
19.70320309733449
 20
66.42114026372556
 30
0.0
  0
VERTEX
  5
56C
330
553
100
AcDbEntity
  8
Capa 1
 62
     7
370
    15
100
AcDbVertex
100
AcDb2dVertex
 10
19.35318116512558
 20
66.86211277674465
 30
0.0
  0
VERTEX
  5
56D
330
553
100
AcDbEntity
  8
Capa 1
 62
     7
370
    15
100
AcDbVertex
100
AcDb2dVertex
 10
19.06103687525043
 20
67.29757313335101
 30
0.0
  0
VERTEX
  5
56E
330
553
100
AcDbEntity
  8
Capa 1
 62
     7
370
    15
100
AcDbVertex
100
AcDb2dVertex
 10
18.83228238412178
 20
67.69444839506819
 30
0.0
  0
VERTEX
  5
56F
330
553
100
AcDbEntity
  8
Capa 1
 62
     7
370
    15
100
AcDbVertex
100
AcDb2dVertex
 10
18.66416161353324
 20
68.03344601445163
 30
0.0
  0
VERTEX
  5
570
330
553
100
AcDbEntity
  8
Capa 1
 62
     7
370
    15
100
AcDbVertex
100
AcDb2dVertex
 10
18.53738201604025
 20
68.3228342261204
 30
0.0
  0
VERTEX
  5
571
330
553
100
AcDbEntity
  8
Capa 1
 62
     7
370
    15
100
AcDbVertex
100
AcDb2dVertex
 10
18.40233418392815
 20
68.6838804711548
 30
0.0
  0
VERTEX
  5
572
330
553
100
AcDbEntity
  8
Capa 1
 62
     7
370
    15
100
AcDbVertex
100
AcDb2dVertex
 10
18.25901811719695
 20
69.15241376623759
 30
0.0
  0
VERTEX
  5
573
330
553
100
AcDbEntity
  8
Capa 1
 62
     7
370
    15
100
AcDbVertex
100
AcDb2dVertex
 10
18.12397028508485
 20
69.73945842419425
 30
0.0
  0
VERTEX
  5
574
330
553
100
AcDbEntity
  8
Capa 1
 62
     7
370
    15
100
AcDbVertex
100
AcDb2dVertex
 10
18.03301970427466
 20
70.43950228861208
 30
0.0
  0
VERTEX
  5
575
330
553
100
AcDbEntity
  8
Capa 1
 62
     7
370
    15
100
AcDbVertex
100
AcDb2dVertex
 10
18.01372715683008
 20
71.2635696723165
 30
0.0
  0
VERTEX
  5
576
330
553
100
AcDbEntity
  8
Capa 1
 62
     7
370
    15
100
AcDbVertex
100
AcDb2dVertex
 10
18.01372715683008
 20
72.19788018427572
 30
0.0
  0
VERTEX
  5
577
330
553
100
AcDbEntity
  8
Capa 1
 62
     7
370
    15
100
AcDbVertex
100
AcDb2dVertex
 10
18.01372715683008
 20
75.28193169720302
 30
0.0
  0
VERTEX
  5
578
330
553
100
AcDbEntity
  8
Capa 1
 62
     7
370
    15
100
AcDbVertex
100
AcDb2dVertex
 10
18.01372715683008
 20
76.42846023105267
 30
0.0
  0
VERTEX
  5
579
330
553
100
AcDbEntity
  8
Capa 1
 62
     7
370
    15
100
AcDbVertex
100
AcDb2dVertex
 10
18.01372715683008
 20
77.68247581495072
 30
0.0
  0
VERTEX
  5
57A
330
553
100
AcDbEntity
  8
Capa 1
 62
     7
370
    15
100
AcDbVertex
100
AcDb2dVertex
 10
18.01372715683008
 20
79.04673452710355
 30
0.0
  0
VERTEX
  5
57B
330
553
100
AcDbEntity
  8
Capa 1
 62
     7
370
    15
100
AcDbVertex
100
AcDb2dVertex
 10
18.01372715683008
 20
80.73621046760796
 30
0.0
  0
VERTEX
  5
57C
330
553
100
AcDbEntity
  8
Capa 1
 62
     7
370
    15
100
AcDbVertex
100
AcDb2dVertex
 10
18.01372715683008
 20
82.56624639663721
 30
0.0
  0
VERTEX
  5
57D
330
553
100
AcDbEntity
  8
Capa 1
 62
     7
370
    15
100
AcDbVertex
100
AcDb2dVertex
 10
18.01372715683008
 20
84.53959839239766
 30
0.0
  0
VERTEX
  5
57E
330
553
100
AcDbEntity
  8
Capa 1
 62
     7
370
    15
100
AcDbVertex
100
AcDb2dVertex
 10
18.01372715683008
 20
86.64524214206385
 30
0.0
  0
VERTEX
  5
57F
330
553
100
AcDbEntity
  8
Capa 1
 62
     7
370
    15
100
AcDbVertex
100
AcDb2dVertex
 10
18.01372715683008
 20
88.89971411487399
 30
0.0
  0
VERTEX
  5
580
330
553
100
AcDbEntity
  8
Capa 1
 62
     7
370
    15
100
AcDbVertex
100
AcDb2dVertex
 10
18.01372715683008
 20
91.29474607620895
 30
0.0
  0
VERTEX
  5
581
330
553
100
AcDbEntity
  8
Capa 1
 62
     7
370
    15
100
AcDbVertex
100
AcDb2dVertex
 10
18.01372715683008
 20
104.1656312999538
 30
0.0
  0
SEQEND
  5
582
330
553
100
AcDbEntity
  8
Capa 1
370
    15
  0
ENDBLK
  5
552
330
54F
100
AcDbEntity
  8
0
100
AcDbBlockEnd
  0
BLOCK
  5
585
330
583
100
AcDbEntity
  8
0
100
AcDbBlockBegin
  2
block 146
 70
     0
 71
     0
 10
0.0
 20
0.0
 30
0.0
  3
block 146
  1

  0
SPLINE
  5
587
330
583
100
AcDbEntity
  8
Capa 1
 62
   253
370
    15
100
AcDbSpline
210
0.0
220
0.0
230
1.0
 70
     8
 71
     3
 72
    14
 73
    10
 74
     0
 42
0.0000000001
 43
0.0000000001
 40
0.0
 40
0.0
 40
0.0
 40
0.0
 40
1.0
 40
1.0
 40
1.0
 40
2.0
 40
2.0
 40
2.0
 40
3.0
 40
3.0
 40
3.0
 40
3.0
 10
53.05726155081637
 20
86.64248606385749
 30
0.0
 10
50.73664370105338
 20
86.64248606385749
 30
0.0
 10
48.85148620789674
 20
84.76008464890722
 30
0.0
 10
48.85148620789674
 20
82.43671072093785
 30
0.0
 10
48.85148620789674
 20
80.1133367929685
 30
0.0
 10
50.73664370105338
 20
78.23369145622459
 30
0.0
 10
53.05726155081637
 20
78.23369145622459
 30
0.0
 10
53.05726155081637
 20
78.23369145622459
 30
0.0
 10
53.05726155081637
 20
78.23369145622459
 30
0.0
 10
53.05726155081637
 20
78.23369145622459
 30
0.0
  0
ENDBLK
  5
586
330
583
100
AcDbEntity
  8
0
100
AcDbBlockEnd
  0
BLOCK
  5
58A
330
588
100
AcDbEntity
  8
0
100
AcDbBlockBegin
  2
block 147
 70
     0
 71
     0
 10
0.0
 20
0.0
 30
0.0
  3
block 147
  1

  0
SPLINE
  5
58C
330
588
100
AcDbEntity
  8
Capa 1
 62
     7
370
    25
100
AcDbSpline
210
0.0
220
0.0
230
1.0
 70
     8
 71
     3
 72
    62
 73
    58
 74
     0
 42
0.0000000001
 43
0.0000000001
 40
0.0
 40
0.0
 40
0.0
 40
0.0
 40
1.0
 40
1.0
 40
1.0
 40
2.0
 40
2.0
 40
2.0
 40
3.0
 40
3.0
 40
3.0
 40
4.0
 40
4.0
 40
4.0
 40
5.0
 40
5.0
 40
5.0
 40
6.0
 40
6.0
 40
6.0
 40
7.0
 40
7.0
 40
7.0
 40
8.0
 40
8.0
 40
8.0
 40
9.0
 40
9.0
 40
9.0
 40
10.0
 40
10.0
 40
10.0
 40
11.0
 40
11.0
 40
11.0
 40
12.0
 40
12.0
 40
12.0
 40
13.0
 40
13.0
 40
13.0
 40
14.0
 40
14.0
 40
14.0
 40
15.0
 40
15.0
 40
15.0
 40
16.0
 40
16.0
 40
16.0
 40
17.0
 40
17.0
 40
17.0
 40
18.0
 40
18.0
 40
18.0
 40
19.0
 40
19.0
 40
19.0
 40
19.0
 10
46.05131075022548
 20
90.77384729520514
 30
0.0
 10
46.02374996816179
 20
90.77384729520514
 30
0.0
 10
45.99618918609809
 20
90.77384729520514
 30
0.0
 10
45.9686284040344
 20
90.77384729520514
 30
0.0
 10
45.9686284040344
 20
90.77384729520514
 30
0.0
 10
45.9686284040344
 20
90.77384729520514
 30
0.0
 10
45.9686284040344
 20
90.77384729520514
 30
0.0
 10
45.78397116420766
 20
90.78487160803061
 30
0.0
 10
45.60482608079365
 20
90.82345670291978
 30
0.0
 10
45.44497354482422
 20
90.88409042345991
 30
0.0
 10
45.44497354482422
 20
90.88409042345991
 30
0.0
 10
45.44497354482422
 20
90.88409042345991
 30
0.0
 10
45.44497354482422
 20
90.88409042345991
 30
0.0
 10
45.28236493064843
 20
90.94472414400003
 30
0.0
 10
45.13629278571086
 20
91.03567472481024
 30
0.0
 10
45.02329357924972
 20
91.145917853065
 30
0.0
 10
45.02329357924972
 20
91.145917853065
 30
0.0
 10
45.02329357924972
 20
91.145917853065
 30
0.0
 10
45.02329357924972
 20
91.145917853065
 30
0.0
 10
44.93785515485227
 20
91.22860019925608
 30
0.0
 10
44.8717092778994
 20
91.32506293647901
 30
0.0
 10
44.82761202659749
 20
91.42428175190831
 30
0.0
 10
44.82761202659749
 20
91.42428175190831
 30
0.0
 10
44.82761202659749
 20
91.42428175190831
 30
0.0
 10
44.82761202659749
 20
91.42428175190831
 30
0.0
 10
44.78351477529558
 20
91.52901272375034
 30
0.0
 10
44.75871007143826
 20
91.63374369559237
 30
0.0
 10
44.76422222785099
 20
91.74398682384715
 30
0.0
 10
44.76422222785099
 20
91.74398682384715
 30
0.0
 10
44.76422222785099
 20
91.74398682384715
 30
0.0
 10
44.76422222785099
 20
91.74398682384715
 30
0.0
 10
44.76697830605737
 20
91.85422995210193
 30
0.0
 10
44.8000512445338
 20
91.96171700215034
 30
0.0
 10
44.84966065224845
 20
92.063691895786
 30
0.0
 10
44.84966065224845
 20
92.063691895786
 30
0.0
 10
44.84966065224845
 20
92.063691895786
 30
0.0
 10
44.84966065224845
 20
92.063691895786
 30
0.0
 10
44.90478221637584
 20
92.16291071121529
 30
0.0
 10
44.9791963279478
 20
92.25110521381912
 30
0.0
 10
45.07014690875799
 20
92.33103148180382
 30
0.0
 10
45.07014690875799
 20
92.33103148180382
 30
0.0
 10
45.07014690875799
 20
92.33103148180382
 30
0.0
 10
45.07014690875799
 20
92.33103148180382
 30
0.0
 10
45.16109748956818
 20
92.4054455933758
 30
0.0
 10
45.27134061782296
 20
92.4771036267414
 30
0.0
 10
45.38985198069684
 20
92.52671303445605
 30
0.0
 10
45.38985198069684
 20
92.52671303445605
 30
0.0
 10
45.38985198069684
 20
92.52671303445605
 30
0.0
 10
45.38985198069684
 20
92.52671303445605
 30
0.0
 10
45.54694843845989
 20
92.59561498961529
 30
0.0
 10
45.7260935218739
 20
92.64246831912357
 30
0.0
 10
45.90799468349427
 20
92.65349263194904
 30
0.0
 10
45.90799468349427
 20
92.65349263194904
 30
0.0
 10
45.90799468349427
 20
92.65349263194904
 30
0.0
 10
45.90799468349427
 20
92.65349263194904
 30
0.0
 10
45.95209193479619
 20
92.65900478836177
 30
0.0
 10
46.00170134251083
 20
92.66176086656814
 30
0.0
 10
46.05131075022548
 20
92.66176086656814
 30
0.0
  0
ENDBLK
  5
58B
330
588
100
AcDbEntity
  8
0
100
AcDbBlockEnd
  0
BLOCK
  5
58F
330
58D
100
AcDbEntity
  8
0
100
AcDbBlockBegin
  2
block 148
 70
     0
 71
     0
 10
0.0
 20
0.0
 30
0.0
  3
block 148
  1

  0
SPLINE
  5
591
330
58D
100
AcDbEntity
  8
Capa 1
 62
   253
370
    15
100
AcDbSpline
210
0.0
220
0.0
230
1.0
 70
     8
 71
     3
 72
     8
 73
     4
 74
     0
 42
0.0000000001
 43
0.0000000001
 40
0.0
 40
0.0
 40
0.0
 40
0.0
 40
1.0
 40
1.0
 40
1.0
 40
1.0
 10
27.01783465703874
 20
88.54142394804596
 30
0.0
 10
40.21118103092883
 20
87.82759969259631
 30
0.0
 10
65.90334207070391
 20
87.82759969259631
 30
0.0
 10
79.096688444594
 20
88.54142394804596
 30
0.0
  0
ENDBLK
  5
590
330
58D
100
AcDbEntity
  8
0
100
AcDbBlockEnd
  0
BLOCK
  5
594
330
592
100
AcDbEntity
  8
0
100
AcDbBlockBegin
  2
block 149
 70
     0
 71
     0
 10
0.0
 20
0.0
 30
0.0
  3
block 149
  1

  0
POLYLINE
  5
596
330
592
100
AcDbEntity
  8
Capa 1
  6
AI-Linetype-17
 62
     2
370
    25
100
AcDb2dPolyline
 66
     1
 10
0.0
 20
0.0
 30
0.0
  0
VERTEX
  5
597
330
596
100
AcDbEntity
  8
Capa 1
  6
AI-Linetype-17
 62
     2
370
    25
100
AcDbVertex
100
AcDb2dVertex
 10
53.05726155081637
 20
75.4280038421406
 30
0.0
  0
VERTEX
  5
598
330
596
100
AcDbEntity
  8
Capa 1
  6
AI-Linetype-17
 62
     2
370
    25
100
AcDbVertex
100
AcDb2dVertex
 10
53.05726155081637
 20
89.44817367794148
 30
0.0
  0
SEQEND
  5
599
330
596
100
AcDbEntity
  8
Capa 1
  6
AI-Linetype-17
370
    25
  0
ENDBLK
  5
595
330
592
100
AcDbEntity
  8
0
100
AcDbBlockEnd
  0
BLOCK
  5
59D
330
59B
100
AcDbEntity
  8
0
100
AcDbBlockBegin
  2
block 150
 70
     0
 71
     0
 10
0.0
 20
0.0
 30
0.0
  3
block 150
  1

  0
POLYLINE
  5
59F
330
59B
100
AcDbEntity
  8
Capa 1
  6
AI-Linetype-18
 62
     2
370
    25
100
AcDb2dPolyline
 66
     1
 10
0.0
 20
0.0
 30
0.0
  0
VERTEX
  5
5A0
330
59F
100
AcDbEntity
  8
Capa 1
  6
AI-Linetype-18
 62
     2
370
    25
100
AcDbVertex
100
AcDb2dVertex
 10
46.05131075022548
 20
82.43671072093785
 30
0.0
  0
VERTEX
  5
5A1
330
59F
100
AcDbEntity
  8
Capa 1
  6
AI-Linetype-18
 62
     2
370
    25
100
AcDbVertex
100
AcDb2dVertex
 10
60.06321235140726
 20
82.43671072093785
 30
0.0
  0
SEQEND
  5
5A2
330
59F
100
AcDbEntity
  8
Capa 1
  6
AI-Linetype-18
370
    25
  0
ENDBLK
  5
59E
330
59B
100
AcDbEntity
  8
0
100
AcDbBlockEnd
  0
BLOCK
  5
5A6
330
5A4
100
AcDbEntity
  8
0
100
AcDbBlockBegin
  2
block 151
 70
     0
 71
     0
 10
0.0
 20
0.0
 30
0.0
  3
block 151
  1

  0
POLYLINE
  5
5A8
330
5A4
100
AcDbEntity
  8
Capa 1
  6
AI-Linetype-19
 62
     2
370
    25
100
AcDb2dPolyline
 66
     1
 10
0.0
 20
0.0
 30
0.0
  0
VERTEX
  5
5A9
330
5A8
100
AcDbEntity
  8
Capa 1
  6
AI-Linetype-19
 62
     2
370
    25
100
AcDbVertex
100
AcDb2dVertex
 10
46.05131075022548
 20
97.62270163803298
 30
0.0
  0
VERTEX
  5
5AA
330
5A8
100
AcDbEntity
  8
Capa 1
  6
AI-Linetype-19
 62
     2
370
    25
100
AcDbVertex
100
AcDb2dVertex
 10
60.06321235140726
 20
97.62270163803298
 30
0.0
  0
SEQEND
  5
5AB
330
5A8
100
AcDbEntity
  8
Capa 1
  6
AI-Linetype-19
370
    25
  0
ENDBLK
  5
5A7
330
5A4
100
AcDbEntity
  8
0
100
AcDbBlockEnd
  0
BLOCK
  5
5AF
330
5AD
100
AcDbEntity
  8
0
100
AcDbBlockBegin
  2
block 152
 70
     0
 71
     0
 10
0.0
 20
0.0
 30
0.0
  3
block 152
  1

  0
POLYLINE
  5
5B1
330
5AD
100
AcDbEntity
  8
Capa 1
  6
AI-Linetype-20
 62
     2
370
    25
100
AcDb2dPolyline
 66
     1
 10
0.0
 20
0.0
 30
0.0
  0
VERTEX
  5
5B2
330
5B1
100
AcDbEntity
  8
Capa 1
  6
AI-Linetype-20
 62
     2
370
    25
100
AcDbVertex
100
AcDb2dVertex
 10
53.05726155081637
 20
92.66176086656814
 30
0.0
  0
VERTEX
  5
5B3
330
5B1
100
AcDbEntity
  8
Capa 1
  6
AI-Linetype-20
 62
     2
370
    25
100
AcDbVertex
100
AcDb2dVertex
 10
53.05726155081637
 20
104.6314085168302
 30
0.0
  0
SEQEND
  5
5B4
330
5B1
100
AcDbEntity
  8
Capa 1
  6
AI-Linetype-20
370
    25
  0
ENDBLK
  5
5B0
330
5AD
100
AcDbEntity
  8
0
100
AcDbBlockEnd
  0
BLOCK
  5
5C0
330
5BE
100
AcDbEntity
  8
0
100
AcDbBlockBegin
  2
block 153
 70
     0
 71
     0
 10
0.0
 20
0.0
 30
0.0
  3
block 153
  1

  0
POLYLINE
  5
5C2
330
5BE
100
AcDbEntity
  8
Capa 1
 62
    72
370
    25
100
AcDb2dPolyline
 66
     1
 10
0.0
 20
0.0
 30
0.0
  0
VERTEX
  5
5C3
330
5C2
100
AcDbEntity
  8
Capa 1
 62
    72
370
    25
100
AcDbVertex
100
AcDb2dVertex
 10
10.01834428015259
 20
101.1311891947412
 30
0.0
  0
VERTEX
  5
5C4
330
5C2
100
AcDbEntity
  8
Capa 1
 62
    72
370
    25
100
AcDbVertex
100
AcDb2dVertex
 10
10.01834428015259
 20
89.34619878430581
 30
0.0
  0
SEQEND
  5
5C5
330
5C2
100
AcDbEntity
  8
Capa 1
370
    25
  0
ENDBLK
  5
5C1
330
5BE
100
AcDbEntity
  8
0
100
AcDbBlockEnd
  0
BLOCK
  5
5C8
330
5C6
100
AcDbEntity
  8
0
100
AcDbBlockBegin
  2
block 154
 70
     0
 71
     0
 10
0.0
 20
0.0
 30
0.0
  3
block 154
  1

  0
POLYLINE
  5
5CA
330
5C6
100
AcDbEntity
  8
Capa 1
 62
    72
370
    25
100
AcDb2dPolyline
 66
     1
 10
0.0
 20
0.0
 30
0.0
  0
VERTEX
  5
5CB
330
5CA
100
AcDbEntity
  8
Capa 1
 62
    72
370
    25
100
AcDbVertex
100
AcDb2dVertex
 10
10.01834428015259
 20
67.2534758820491
 30
0.0
  0
VERTEX
  5
5CC
330
5CA
100
AcDbEntity
  8
Capa 1
 62
    72
370
    25
100
AcDbVertex
100
AcDb2dVertex
 10
10.01834428015259
 20
79.03295413607171
 30
0.0
  0
SEQEND
  5
5CD
330
5CA
100
AcDbEntity
  8
Capa 1
370
    25
  0
ENDBLK
  5
5C9
330
5C6
100
AcDbEntity
  8
0
100
AcDbBlockEnd
  0
BLOCK
  5
5D0
330
5CE
100
AcDbEntity
  8
0
100
AcDbBlockBegin
  2
block 155
 70
     0
 71
     0
 10
0.0
 20
0.0
 30
0.0
  3
block 155
  1

  0
POLYLINE
  5
5D2
330
5CE
100
AcDbEntity
  8
Capa 1
370
     0
100
AcDb2dPolyline
 66
     1
 10
0.0
 20
0.0
 30
0.0
  0
VERTEX
  5
5D3
330
5D2
100
AcDbEntity
  8
Capa 1
370
     0
100
AcDbVertex
100
AcDb2dVertex
 10
9.431299622195919
 20
101.1311891947412
 30
0.0
  0
VERTEX
  5
5D4
330
5D2
100
AcDbEntity
  8
Capa 1
370
     0
100
AcDbVertex
100
AcDb2dVertex
 10
10.59987678169652
 20
101.1311891947412
 30
0.0
  0
VERTEX
  5
5D5
330
5D2
100
AcDbEntity
  8
Capa 1
370
     0
100
AcDbVertex
100
AcDb2dVertex
 10
10.01834428015259
 20
104.6314085168302
 30
0.0
  0
VERTEX
  5
5D6
330
5D2
100
AcDbEntity
  8
Capa 1
370
     0
100
AcDbVertex
100
AcDb2dVertex
 10
9.431299622195919
 20
101.1311891947412
 30
0.0
  0
SEQEND
  5
5D7
330
5D2
100
AcDbEntity
  8
Capa 1
370
     0
  0
HATCH
  5
5D8
330
5CE
100
AcDbEntity
  8
Capa 1
 62
    72
100
AcDbHatch
 10
0.0
 20
0.0
 30
0.0
210
0.0
220
0.0
230
1.0
  2
SOLID
 70
     1
 71
     0
 91
        1
 92
        1
 93
        3
 72
     1
 10
9.431299622195919
 20
101.1311891947412
 11
10.59987678169652
 21
101.1311891947412
 72
     1
 10
10.59987678169652
 20
101.1311891947412
 11
10.01834428015259
 21
104.6314085168302
 72
     1
 10
10.01834428015259
 20
104.6314085168302
 11
9.431299622195919
 21
101.1311891947412
 97
        0
 75
     2
 76
     1
 98
        0
  0
ENDBLK
  5
5D1
330
5CE
100
AcDbEntity
  8
0
100
AcDbBlockEnd
  0
BLOCK
  5
5DB
330
5D9
100
AcDbEntity
  8
0
100
AcDbBlockBegin
  2
block 156
 70
     0
 71
     0
 10
0.0
 20
0.0
 30
0.0
  3
block 156
  1

  0
POLYLINE
  5
5DD
330
5D9
100
AcDbEntity
  8
Capa 1
370
     0
100
AcDb2dPolyline
 66
     1
 10
0.0
 20
0.0
 30
0.0
  0
VERTEX
  5
5DE
330
5DD
100
AcDbEntity
  8
Capa 1
370
     0
100
AcDbVertex
100
AcDb2dVertex
 10
9.431299622195919
 20
67.2534758820491
 30
0.0
  0
VERTEX
  5
5DF
330
5DD
100
AcDbEntity
  8
Capa 1
370
     0
100
AcDbVertex
100
AcDb2dVertex
 10
10.59987678169652
 20
67.2534758820491
 30
0.0
  0
VERTEX
  5
5E0
330
5DD
100
AcDbEntity
  8
Capa 1
370
     0
100
AcDbVertex
100
AcDb2dVertex
 10
10.01834428015259
 20
63.75050048175365
 30
0.0
  0
VERTEX
  5
5E1
330
5DD
100
AcDbEntity
  8
Capa 1
370
     0
100
AcDbVertex
100
AcDb2dVertex
 10
9.431299622195919
 20
67.2534758820491
 30
0.0
  0
SEQEND
  5
5E2
330
5DD
100
AcDbEntity
  8
Capa 1
370
     0
  0
HATCH
  5
5E3
330
5D9
100
AcDbEntity
  8
Capa 1
 62
    72
100
AcDbHatch
 10
0.0
 20
0.0
 30
0.0
210
0.0
220
0.0
230
1.0
  2
SOLID
 70
     1
 71
     0
 91
        1
 92
        1
 93
        3
 72
     1
 10
9.431299622195919
 20
67.2534758820491
 11
10.59987678169652
 21
67.2534758820491
 72
     1
 10
10.59987678169652
 20
67.2534758820491
 11
10.01834428015259
 21
63.75050048175365
 72
     1
 10
10.01834428015259
 20
63.75050048175365
 11
9.431299622195919
 21
67.2534758820491
 97
        0
 75
     2
 76
     1
 98
        0
  0
ENDBLK
  5
5DC
330
5D9
100
AcDbEntity
  8
0
100
AcDbBlockEnd
  0
BLOCK
  5
5E6
330
5E4
100
AcDbEntity
  8
0
100
AcDbBlockBegin
  2
block 157
 70
     0
 71
     0
 10
0.0
 20
0.0
 30
0.0
  3
block 157
  1

  0
MTEXT
  5
5E8
330
5E4
100
AcDbEntity
  8
Capa 1
 62
   223
100
AcDbMText
 10
11.47630965132198
 20
80.02238621215831
 30
0.0
 40
2.920234423053602
 41
0.0
 71
     7
 72
     1
  1
\fMyriad Pro|b0|i0|c0|p34;\W1;350
 11
-4.371139000186241E-8
 21
0.999999999999999
 31
0.0
 73
     1
 44
1.0
  0
ENDBLK
  5
5E7
330
5E4
100
AcDbEntity
  8
0
100
AcDbBlockEnd
  0
BLOCK
  5
5EB
330
5E9
100
AcDbEntity
  8
0
100
AcDbBlockBegin
  2
block 158
 70
     0
 71
     0
 10
0.0
 20
0.0
 30
0.0
  3
block 158
  1

  0
POLYLINE
  5
5ED
330
5E9
100
AcDbEntity
  8
Capa 1
370
     0
100
AcDb2dPolyline
 66
     1
 10
0.0
 20
0.0
 30
0.0
  0
VERTEX
  5
5EE
330
5ED
100
AcDbEntity
  8
Capa 1
370
     0
100
AcDbVertex
100
AcDb2dVertex
 10
18.48226045191286
 20
104.6314085168302
 30
0.0
  0
VERTEX
  5
5EF
330
5ED
100
AcDbEntity
  8
Capa 1
370
     0
100
AcDbVertex
100
AcDb2dVertex
 10
18.48226045191286
 20
104.6314085168302
 30
0.0
  0
SEQEND
  5
5F0
330
5ED
100
AcDbEntity
  8
Capa 1
370
     0
  0
ENDBLK
  5
5EC
330
5E9
100
AcDbEntity
  8
0
100
AcDbBlockEnd
  0
BLOCK
  5
5F3
330
5F1
100
AcDbEntity
  8
0
100
AcDbBlockBegin
  2
block 159
 70
     0
 71
     0
 10
0.0
 20
0.0
 30
0.0
  3
block 159
  1

  0
POLYLINE
  5
5F5
330
5F1
100
AcDbEntity
  8
Capa 1
370
     0
100
AcDb2dPolyline
 66
     1
 10
0.0
 20
0.0
 30
0.0
  0
VERTEX
  5
5F6
330
5F5
100
AcDbEntity
  8
Capa 1
370
     0
100
AcDbVertex
100
AcDb2dVertex
 10
54.4215202629692
 20
63.75050048175365
 30
0.0
  0
VERTEX
  5
5F7
330
5F5
100
AcDbEntity
  8
Capa 1
370
     0
100
AcDbVertex
100
AcDb2dVertex
 10
54.4215202629692
 20
63.75050048175365
 30
0.0
  0
SEQEND
  5
5F8
330
5F5
100
AcDbEntity
  8
Capa 1
370
     0
  0
ENDBLK
  5
5F4
330
5F1
100
AcDbEntity
  8
0
100
AcDbBlockEnd
  0
BLOCK
  5
5FB
330
5F9
100
AcDbEntity
  8
0
100
AcDbBlockBegin
  2
block 160
 70
     0
 71
     0
 10
0.0
 20
0.0
 30
0.0
  3
block 160
  1

  0
POLYLINE
  5
5FD
330
5F9
100
AcDbEntity
  8
Capa 1
370
     0
100
AcDb2dPolyline
 66
     1
 10
0.0
 20
0.0
 30
0.0
  0
VERTEX
  5
5FE
330
5FD
100
AcDbEntity
  8
Capa 1
370
     0
100
AcDbVertex
100
AcDb2dVertex
 10
10.01834428015259
 20
63.75050048175365
 30
0.0
  0
VERTEX
  5
5FF
330
5FD
100
AcDbEntity
  8
Capa 1
370
     0
100
AcDbVertex
100
AcDb2dVertex
 10
10.01834428015259
 20
63.75050048175365
 30
0.0
  0
SEQEND
  5
600
330
5FD
100
AcDbEntity
  8
Capa 1
370
     0
  0
ENDBLK
  5
5FC
330
5F9
100
AcDbEntity
  8
0
100
AcDbBlockEnd
  0
BLOCK
  5
603
330
601
100
AcDbEntity
  8
0
100
AcDbBlockBegin
  2
block 161
 70
     0
 71
     0
 10
0.0
 20
0.0
 30
0.0
  3
block 161
  1

  0
INSERT
  5
606
330
601
100
AcDbEntity
  8
Capa 1
100
AcDbBlockReference
  2
block 162
 10
0.0
 20
0.0
 30
0.0
  0
ENDBLK
  5
604
330
601
100
AcDbEntity
  8
0
100
AcDbBlockEnd
  0
BLOCK
  5
607
330
605
100
AcDbEntity
  8
0
100
AcDbBlockBegin
  2
block 162
 70
     0
 71
     0
 10
0.0
 20
0.0
 30
0.0
  3
block 162
  1

  0
INSERT
  5
60A
330
605
100
AcDbEntity
  8
Capa 1
100
AcDbBlockReference
  2
block 163
 10
0.0
 20
0.0
 30
0.0
  0
INSERT
  5
612
330
605
100
AcDbEntity
  8
Capa 1
100
AcDbBlockReference
  2
block 164
 10
0.0
 20
0.0
 30
0.0
  0
INSERT
  5
61A
330
605
100
AcDbEntity
  8
Capa 1
100
AcDbBlockReference
  2
block 165
 10
0.0
 20
0.0
 30
0.0
  0
INSERT
  5
622
330
605
100
AcDbEntity
  8
Capa 1
100
AcDbBlockReference
  2
block 166
 10
0.0
 20
0.0
 30
0.0
  0
INSERT
  5
62A
330
605
100
AcDbEntity
  8
Capa 1
100
AcDbBlockReference
  2
block 167
 10
0.0
 20
0.0
 30
0.0
  0
INSERT
  5
635
330
605
100
AcDbEntity
  8
Capa 1
100
AcDbBlockReference
  2
block 168
 10
0.0
 20
0.0
 30
0.0
  0
INSERT
  5
640
330
605
100
AcDbEntity
  8
Capa 1
100
AcDbBlockReference
  2
block 169
 10
0.0
 20
0.0
 30
0.0
  0
INSERT
  5
645
330
605
100
AcDbEntity
  8
Capa 1
100
AcDbBlockReference
  2
block 170
 10
0.0
 20
0.0
 30
0.0
  0
INSERT
  5
64D
330
605
100
AcDbEntity
  8
Capa 1
100
AcDbBlockReference
  2
block 171
 10
0.0
 20
0.0
 30
0.0
  0
INSERT
  5
655
330
605
100
AcDbEntity
  8
Capa 1
100
AcDbBlockReference
  2
block 172
 10
0.0
 20
0.0
 30
0.0
  0
ENDBLK
  5
608
330
605
100
AcDbEntity
  8
0
100
AcDbBlockEnd
  0
BLOCK
  5
60B
330
609
100
AcDbEntity
  8
0
100
AcDbBlockBegin
  2
block 163
 70
     0
 71
     0
 10
0.0
 20
0.0
 30
0.0
  3
block 163
  1

  0
POLYLINE
  5
60D
330
609
100
AcDbEntity
  8
Capa 1
 62
    72
370
    25
100
AcDb2dPolyline
 66
     1
 10
0.0
 20
0.0
 30
0.0
  0
VERTEX
  5
60E
330
60D
100
AcDbEntity
  8
Capa 1
 62
    72
370
    25
100
AcDbVertex
100
AcDb2dVertex
 10
18.01372715683008
 20
104.1656312999538
 30
0.0
  0
VERTEX
  5
60F
330
60D
100
AcDbEntity
  8
Capa 1
 62
    72
370
    25
100
AcDbVertex
100
AcDb2dVertex
 10
18.01372715683008
 20
114.9667017907153
 30
0.0
  0
SEQEND
  5
610
330
60D
100
AcDbEntity
  8
Capa 1
370
    25
  0
ENDBLK
  5
60C
330
609
100
AcDbEntity
  8
0
100
AcDbBlockEnd
  0
BLOCK
  5
613
330
611
100
AcDbEntity
  8
0
100
AcDbBlockBegin
  2
block 164
 70
     0
 71
     0
 10
0.0
 20
0.0
 30
0.0
  3
block 164
  1

  0
POLYLINE
  5
615
330
611
100
AcDbEntity
  8
Capa 1
 62
    72
370
    25
100
AcDb2dPolyline
 66
     1
 10
0.0
 20
0.0
 30
0.0
  0
VERTEX
  5
616
330
615
100
AcDbEntity
  8
Capa 1
 62
    72
370
    25
100
AcDbVertex
100
AcDb2dVertex
 10
88.10079594480267
 20
104.1656312999538
 30
0.0
  0
VERTEX
  5
617
330
615
100
AcDbEntity
  8
Capa 1
 62
    72
370
    25
100
AcDbVertex
100
AcDb2dVertex
 10
88.10079594480267
 20
114.9667017907153
 30
0.0
  0
SEQEND
  5
618
330
615
100
AcDbEntity
  8
Capa 1
370
    25
  0
ENDBLK
  5
614
330
611
100
AcDbEntity
  8
0
100
AcDbBlockEnd
  0
BLOCK
  5
61B
330
619
100
AcDbEntity
  8
0
100
AcDbBlockBegin
  2
block 165
 70
     0
 71
     0
 10
0.0
 20
0.0
 30
0.0
  3
block 165
  1

  0
POLYLINE
  5
61D
330
619
100
AcDbEntity
  8
Capa 1
 62
    72
370
    25
100
AcDb2dPolyline
 66
     1
 10
0.0
 20
0.0
 30
0.0
  0
VERTEX
  5
61E
330
61D
100
AcDbEntity
  8
Capa 1
 62
    72
370
    25
100
AcDbVertex
100
AcDb2dVertex
 10
21.51670255712552
 20
112.6295474717141
 30
0.0
  0
VERTEX
  5
61F
330
61D
100
AcDbEntity
  8
Capa 1
 62
    72
370
    25
100
AcDbVertex
100
AcDb2dVertex
 10
40.58876374520143
 20
112.6295474717141
 30
0.0
  0
SEQEND
  5
620
330
61D
100
AcDbEntity
  8
Capa 1
370
    25
  0
ENDBLK
  5
61C
330
619
100
AcDbEntity
  8
0
100
AcDbBlockEnd
  0
BLOCK
  5
623
330
621
100
AcDbEntity
  8
0
100
AcDbBlockBegin
  2
block 166
 70
     0
 71
     0
 10
0.0
 20
0.0
 30
0.0
  3
block 166
  1

  0
POLYLINE
  5
625
330
621
100
AcDbEntity
  8
Capa 1
 62
    72
370
    25
100
AcDb2dPolyline
 66
     1
 10
0.0
 20
0.0
 30
0.0
  0
VERTEX
  5
626
330
625
100
AcDbEntity
  8
Capa 1
 62
    72
370
    25
100
AcDbVertex
100
AcDb2dVertex
 10
84.59782054450723
 20
112.6295474717141
 30
0.0
  0
VERTEX
  5
627
330
625
100
AcDbEntity
  8
Capa 1
 62
    72
370
    25
100
AcDbVertex
100
AcDb2dVertex
 10
65.36315074225553
 20
112.6295474717141
 30
0.0
  0
SEQEND
  5
628
330
625
100
AcDbEntity
  8
Capa 1
370
    25
  0
ENDBLK
  5
624
330
621
100
AcDbEntity
  8
0
100
AcDbBlockEnd
  0
BLOCK
  5
62B
330
629
100
AcDbEntity
  8
0
100
AcDbBlockBegin
  2
block 167
 70
     0
 71
     0
 10
0.0
 20
0.0
 30
0.0
  3
block 167
  1

  0
POLYLINE
  5
62D
330
629
100
AcDbEntity
  8
Capa 1
370
     0
100
AcDb2dPolyline
 66
     1
 10
0.0
 20
0.0
 30
0.0
  0
VERTEX
  5
62E
330
62D
100
AcDbEntity
  8
Capa 1
370
     0
100
AcDbVertex
100
AcDb2dVertex
 10
21.51670255712552
 20
113.2138360514644
 30
0.0
  0
VERTEX
  5
62F
330
62D
100
AcDbEntity
  8
Capa 1
370
     0
100
AcDbVertex
100
AcDb2dVertex
 10
21.51670255712552
 20
112.0452588919638
 30
0.0
  0
VERTEX
  5
630
330
62D
100
AcDbEntity
  8
Capa 1
370
     0
100
AcDbVertex
100
AcDb2dVertex
 10
18.01372715683008
 20
112.6295474717141
 30
0.0
  0
VERTEX
  5
631
330
62D
100
AcDbEntity
  8
Capa 1
370
     0
100
AcDbVertex
100
AcDb2dVertex
 10
21.51670255712552
 20
113.2138360514644
 30
0.0
  0
SEQEND
  5
632
330
62D
100
AcDbEntity
  8
Capa 1
370
     0
  0
HATCH
  5
633
330
629
100
AcDbEntity
  8
Capa 1
 62
    72
100
AcDbHatch
 10
0.0
 20
0.0
 30
0.0
210
0.0
220
0.0
230
1.0
  2
SOLID
 70
     1
 71
     0
 91
        1
 92
        1
 93
        3
 72
     1
 10
21.51670255712552
 20
113.2138360514644
 11
21.51670255712552
 21
112.0452588919638
 72
     1
 10
21.51670255712552
 20
112.0452588919638
 11
18.01372715683008
 21
112.6295474717141
 72
     1
 10
18.01372715683008
 20
112.6295474717141
 11
21.51670255712552
 21
113.2138360514644
 97
        0
 75
     2
 76
     1
 98
        0
  0
ENDBLK
  5
62C
330
629
100
AcDbEntity
  8
0
100
AcDbBlockEnd
  0
BLOCK
  5
636
330
634
100
AcDbEntity
  8
0
100
AcDbBlockBegin
  2
block 168
 70
     0
 71
     0
 10
0.0
 20
0.0
 30
0.0
  3
block 168
  1

  0
POLYLINE
  5
638
330
634
100
AcDbEntity
  8
Capa 1
370
     0
100
AcDb2dPolyline
 66
     1
 10
0.0
 20
0.0
 30
0.0
  0
VERTEX
  5
639
330
638
100
AcDbEntity
  8
Capa 1
370
     0
100
AcDbVertex
100
AcDb2dVertex
 10
84.59782054450723
 20
113.2138360514644
 30
0.0
  0
VERTEX
  5
63A
330
638
100
AcDbEntity
  8
Capa 1
370
     0
100
AcDbVertex
100
AcDb2dVertex
 10
84.59782054450723
 20
112.0452588919638
 30
0.0
  0
VERTEX
  5
63B
330
638
100
AcDbEntity
  8
Capa 1
370
     0
100
AcDbVertex
100
AcDb2dVertex
 10
88.10079594480267
 20
112.6295474717141
 30
0.0
  0
VERTEX
  5
63C
330
638
100
AcDbEntity
  8
Capa 1
370
     0
100
AcDbVertex
100
AcDb2dVertex
 10
84.59782054450723
 20
113.2138360514644
 30
0.0
  0
SEQEND
  5
63D
330
638
100
AcDbEntity
  8
Capa 1
370
     0
  0
HATCH
  5
63E
330
634
100
AcDbEntity
  8
Capa 1
 62
    72
100
AcDbHatch
 10
0.0
 20
0.0
 30
0.0
210
0.0
220
0.0
230
1.0
  2
SOLID
 70
     1
 71
     0
 91
        1
 92
        1
 93
        3
 72
     1
 10
84.59782054450723
 20
113.2138360514644
 11
84.59782054450723
 21
112.0452588919638
 72
     1
 10
84.59782054450723
 20
112.0452588919638
 11
88.10079594480267
 21
112.6295474717141
 72
     1
 10
88.10079594480267
 20
112.6295474717141
 11
84.59782054450723
 21
113.2138360514644
 97
        0
 75
     2
 76
     1
 98
        0
  0
ENDBLK
  5
637
330
634
100
AcDbEntity
  8
0
100
AcDbBlockEnd
  0
BLOCK
  5
641
330
63F
100
AcDbEntity
  8
0
100
AcDbBlockBegin
  2
block 169
 70
     0
 71
     0
 10
0.0
 20
0.0
 30
0.0
  3
block 169
  1

  0
MTEXT
  5
643
330
63F
100
AcDbEntity
  8
Capa 1
 62
   223
100
AcDbMText
 10
41.57268366487529
 20
111.6566518648657
 30
0.0
 40
2.920234423053602
 41
0.0
 71
     7
 72
     1
  1
\fMyriad Pro|b0|i0|c0|p34;\W1;50/55/60
 73
     1
 44
1.0
  0
ENDBLK
  5
642
330
63F
100
AcDbEntity
  8
0
100
AcDbBlockEnd
  0
BLOCK
  5
646
330
644
100
AcDbEntity
  8
0
100
AcDbBlockBegin
  2
block 170
 70
     0
 71
     0
 10
0.0
 20
0.0
 30
0.0
  3
block 170
  1

  0
POLYLINE
  5
648
330
644
100
AcDbEntity
  8
Capa 1
370
     0
100
AcDb2dPolyline
 66
     1
 10
0.0
 20
0.0
 30
0.0
  0
VERTEX
  5
649
330
648
100
AcDbEntity
  8
Capa 1
370
     0
100
AcDbVertex
100
AcDb2dVertex
 10
18.01372715683008
 20
104.1656312999538
 30
0.0
  0
VERTEX
  5
64A
330
648
100
AcDbEntity
  8
Capa 1
370
     0
100
AcDbVertex
100
AcDb2dVertex
 10
18.01372715683008
 20
104.1656312999538
 30
0.0
  0
SEQEND
  5
64B
330
648
100
AcDbEntity
  8
Capa 1
370
     0
  0
ENDBLK
  5
647
330
644
100
AcDbEntity
  8
0
100
AcDbBlockEnd
  0
BLOCK
  5
64E
330
64C
100
AcDbEntity
  8
0
100
AcDbBlockBegin
  2
block 171
 70
     0
 71
     0
 10
0.0
 20
0.0
 30
0.0
  3
block 171
  1

  0
POLYLINE
  5
650
330
64C
100
AcDbEntity
  8
Capa 1
370
     0
100
AcDb2dPolyline
 66
     1
 10
0.0
 20
0.0
 30
0.0
  0
VERTEX
  5
651
330
650
100
AcDbEntity
  8
Capa 1
370
     0
100
AcDbVertex
100
AcDb2dVertex
 10
88.10079594480267
 20
104.1656312999538
 30
0.0
  0
VERTEX
  5
652
330
650
100
AcDbEntity
  8
Capa 1
370
     0
100
AcDbVertex
100
AcDb2dVertex
 10
88.10079594480267
 20
104.1656312999538
 30
0.0
  0
SEQEND
  5
653
330
650
100
AcDbEntity
  8
Capa 1
370
     0
  0
ENDBLK
  5
64F
330
64C
100
AcDbEntity
  8
0
100
AcDbBlockEnd
  0
BLOCK
  5
656
330
654
100
AcDbEntity
  8
0
100
AcDbBlockBegin
  2
block 172
 70
     0
 71
     0
 10
0.0
 20
0.0
 30
0.0
  3
block 172
  1

  0
POLYLINE
  5
658
330
654
100
AcDbEntity
  8
Capa 1
370
     0
100
AcDb2dPolyline
 66
     1
 10
0.0
 20
0.0
 30
0.0
  0
VERTEX
  5
659
330
658
100
AcDbEntity
  8
Capa 1
370
     0
100
AcDbVertex
100
AcDb2dVertex
 10
88.10079594480267
 20
112.6295474717141
 30
0.0
  0
VERTEX
  5
65A
330
658
100
AcDbEntity
  8
Capa 1
370
     0
100
AcDbVertex
100
AcDb2dVertex
 10
88.10079594480267
 20
112.6295474717141
 30
0.0
  0
SEQEND
  5
65B
330
658
100
AcDbEntity
  8
Capa 1
370
     0
  0
ENDBLK
  5
657
330
654
100
AcDbEntity
  8
0
100
AcDbBlockEnd
  0
BLOCK
  5
65E
330
65C
100
AcDbEntity
  8
0
100
AcDbBlockBegin
  2
block 173
 70
     0
 71
     0
 10
0.0
 20
0.0
 30
0.0
  3
block 173
  1

  0
POLYLINE
  5
660
330
65C
100
AcDbEntity
  8
Capa 1
 62
     7
370
    15
100
AcDb2dPolyline
 66
     1
 10
0.0
 20
0.0
 30
0.0
  0
VERTEX
  5
661
330
660
100
AcDbEntity
  8
Capa 1
 62
     7
370
    15
100
AcDbVertex
100
AcDb2dVertex
 10
86.52156313255303
 20
88.86664117639755
 30
0.0
  0
VERTEX
  5
73E
330
660
100
AcDbEntity
  8
0
100
AcDbVertex
100
AcDb2dVertex
 10
86.52156313255303
 20
88.86664117639755
 30
0.0
  0
SEQEND
  5
662
330
660
100
AcDbEntity
  8
Capa 1
370
    15
  0
POLYLINE
  5
663
330
65C
100
AcDbEntity
  8
Capa 1
 62
     7
370
    15
100
AcDb2dPolyline
 66
     1
 10
0.0
 20
0.0
 30
0.0
  0
VERTEX
  5
664
330
663
100
AcDbEntity
  8
Capa 1
 62
     7
370
    15
100
AcDbVertex
100
AcDb2dVertex
 10
86.52156313255303
 20
88.86664117639755
 30
0.0
  0
VERTEX
  5
73F
330
663
100
AcDbEntity
  8
0
100
AcDbVertex
100
AcDb2dVertex
 10
86.52156313255303
 20
88.86664117639755
 30
0.0
  0
SEQEND
  5
665
330
663
100
AcDbEntity
  8
Capa 1
370
    15
  0
POLYLINE
  5
666
330
65C
100
AcDbEntity
  8
Capa 1
 62
     7
370
    15
100
AcDb2dPolyline
 66
     1
 10
0.0
 20
0.0
 30
0.0
  0
VERTEX
  5
667
330
666
100
AcDbEntity
  8
Capa 1
 62
     7
370
    15
100
AcDbVertex
100
AcDb2dVertex
 10
53.05726155081637
 20
65.32973329400329
 30
0.0
  0
VERTEX
  5
668
330
666
100
AcDbEntity
  8
Capa 1
 62
     7
370
    15
100
AcDbVertex
100
AcDb2dVertex
 10
55.78302289691566
 20
65.32973329400329
 30
0.0
  0
VERTEX
  5
669
330
666
100
AcDbEntity
  8
Capa 1
 62
     7
370
    15
100
AcDbVertex
100
AcDb2dVertex
 10
58.73478265593724
 20
65.33524545041604
 30
0.0
  0
VERTEX
  5
66A
330
666
100
AcDbEntity
  8
Capa 1
 62
     7
370
    15
100
AcDbVertex
100
AcDb2dVertex
 10
61.54598242643397
 20
65.34626976324151
 30
0.0
  0
VERTEX
  5
66B
330
666
100
AcDbEntity
  8
Capa 1
 62
     7
370
    15
100
AcDbVertex
100
AcDb2dVertex
 10
64.21937828661224
 20
65.36280623247973
 30
0.0
  0
VERTEX
  5
66C
330
666
100
AcDbEntity
  8
Capa 1
 62
     7
370
    15
100
AcDbVertex
100
AcDb2dVertex
 10
66.75497023647205
 20
65.37658662351157
 30
0.0
  0
VERTEX
  5
66D
330
666
100
AcDbEntity
  8
Capa 1
 62
     7
370
    15
100
AcDbVertex
100
AcDb2dVertex
 10
69.16653866704523
 20
65.39587917095616
 30
0.0
  0
VERTEX
  5
66E
330
666
100
AcDbEntity
  8
Capa 1
 62
     7
370
    15
100
AcDbVertex
100
AcDb2dVertex
 10
71.45408357833179
 20
65.42068387481348
 30
0.0
  0
VERTEX
  5
66F
330
666
100
AcDbEntity
  8
Capa 1
 62
     7
370
    15
100
AcDbVertex
100
AcDb2dVertex
 10
73.68650692549096
 20
65.4454885786708
 30
0.0
  0
VERTEX
  5
670
330
666
100
AcDbEntity
  8
Capa 1
 62
     7
370
    15
100
AcDbVertex
100
AcDb2dVertex
 10
75.82797969183994
 20
65.4730493607345
 30
0.0
  0
VERTEX
  5
671
330
666
100
AcDbEntity
  8
Capa 1
 62
     7
370
    15
100
AcDbVertex
100
AcDb2dVertex
 10
77.9005505030297
 20
65.5006101427982
 30
0.0
  0
VERTEX
  5
672
330
666
100
AcDbEntity
  8
Capa 1
 62
     7
370
    15
100
AcDbVertex
100
AcDb2dVertex
 10
78.84864140602076
 20
65.51439053383004
 30
0.0
  0
VERTEX
  5
673
330
666
100
AcDbEntity
  8
Capa 1
 62
     7
370
    15
100
AcDbVertex
100
AcDb2dVertex
 10
79.7801958397736
 20
65.52817092486188
 30
0.0
  0
VERTEX
  5
674
330
666
100
AcDbEntity
  8
Capa 1
 62
     7
370
    15
100
AcDbVertex
100
AcDb2dVertex
 10
80.6869455696691
 20
65.54195131589374
 30
0.0
  0
VERTEX
  5
675
330
666
100
AcDbEntity
  8
Capa 1
 62
     7
370
    15
100
AcDbVertex
100
AcDb2dVertex
 10
81.4889643277226
 20
65.56951209795743
 30
0.0
  0
VERTEX
  5
676
330
666
100
AcDbEntity
  8
Capa 1
 62
     7
370
    15
100
AcDbVertex
100
AcDb2dVertex
 10
82.17247172290219
 20
65.66321875697399
 30
0.0
  0
VERTEX
  5
677
330
666
100
AcDbEntity
  8
Capa 1
 62
     7
370
    15
100
AcDbVertex
100
AcDb2dVertex
 10
82.85597911808179
 20
65.85338815321347
 30
0.0
  0
VERTEX
  5
678
330
666
100
AcDbEntity
  8
Capa 1
 62
     7
370
    15
100
AcDbVertex
100
AcDb2dVertex
 10
83.46231632348305
 20
66.1014351917867
 30
0.0
  0
VERTEX
  5
679
330
666
100
AcDbEntity
  8
Capa 1
 62
     7
370
    15
100
AcDbVertex
100
AcDb2dVertex
 10
83.97770294807412
 20
66.38255516883639
 30
0.0
  0
VERTEX
  5
67A
330
666
100
AcDbEntity
  8
Capa 1
 62
     7
370
    15
100
AcDbVertex
100
AcDb2dVertex
 10
84.28362762898112
 20
66.58926103431409
 30
0.0
  0
VERTEX
  5
67B
330
666
100
AcDbEntity
  8
Capa 1
 62
     7
370
    15
100
AcDbVertex
100
AcDb2dVertex
 10
84.54821113679257
 20
66.7959668997918
 30
0.0
  0
VERTEX
  5
67C
330
666
100
AcDbEntity
  8
Capa 1
 62
     7
370
    15
100
AcDbVertex
100
AcDb2dVertex
 10
84.76594131509576
 20
66.98613629603128
 30
0.0
  0
VERTEX
  5
67D
330
666
100
AcDbEntity
  8
Capa 1
 62
     7
370
    15
100
AcDbVertex
100
AcDb2dVertex
 10
84.96713502416071
 20
67.17906177047713
 30
0.0
  0
VERTEX
  5
67E
330
666
100
AcDbEntity
  8
Capa 1
 62
     7
370
    15
100
AcDbVertex
100
AcDb2dVertex
 10
85.20966990632122
 20
67.44364527828859
 30
0.0
  0
VERTEX
  5
67F
330
666
100
AcDbEntity
  8
Capa 1
 62
     7
370
    15
100
AcDbVertex
100
AcDb2dVertex
 10
85.48252164875178
 20
67.78815505408475
 30
0.0
  0
VERTEX
  5
680
330
666
100
AcDbEntity
  8
Capa 1
 62
     7
370
    15
100
AcDbVertex
100
AcDb2dVertex
 10
85.71403221808681
 20
68.13266482988092
 30
0.0
  0
VERTEX
  5
681
330
666
100
AcDbEntity
  8
Capa 1
 62
     7
370
    15
100
AcDbVertex
100
AcDb2dVertex
 10
85.88766514508808
 20
68.43858951078792
 30
0.0
  0
VERTEX
  5
682
330
666
100
AcDbEntity
  8
Capa 1
 62
     7
370
    15
100
AcDbVertex
100
AcDb2dVertex
 10
86.01995689899381
 20
68.70041694039301
 30
0.0
  0
VERTEX
  5
683
330
666
100
AcDbEntity
  8
Capa 1
 62
     7
370
    15
100
AcDbVertex
100
AcDb2dVertex
 10
86.11641963621673
 20
68.91814711869618
 30
0.0
  0
VERTEX
  5
684
330
666
100
AcDbEntity
  8
Capa 1
 62
     7
370
    15
100
AcDbVertex
100
AcDb2dVertex
 10
86.2183945298524
 20
69.19375493933312
 30
0.0
  0
VERTEX
  5
685
330
666
100
AcDbEntity
  8
Capa 1
 62
     7
370
    15
100
AcDbVertex
100
AcDb2dVertex
 10
86.33414981451992
 20
69.55755726257388
 30
0.0
  0
VERTEX
  5
686
330
666
100
AcDbEntity
  8
Capa 1
 62
     7
370
    15
100
AcDbVertex
100
AcDb2dVertex
 10
86.43336862994921
 20
70.01506624483119
 30
0.0
  0
VERTEX
  5
687
330
666
100
AcDbEntity
  8
Capa 1
 62
     7
370
    15
100
AcDbVertex
100
AcDb2dVertex
 10
86.50502666331481
 20
70.56628188610506
 30
0.0
  0
VERTEX
  5
688
330
666
100
AcDbEntity
  8
Capa 1
 62
     7
370
    15
100
AcDbVertex
100
AcDb2dVertex
 10
86.52156313255303
 20
71.28561829796746
 30
0.0
  0
VERTEX
  5
689
330
666
100
AcDbEntity
  8
Capa 1
 62
     7
370
    15
100
AcDbVertex
100
AcDb2dVertex
 10
86.52156313255303
 20
72.19788018427572
 30
0.0
  0
VERTEX
  5
68A
330
666
100
AcDbEntity
  8
Capa 1
 62
     7
370
    15
100
AcDbVertex
100
AcDb2dVertex
 10
86.52156313255303
 20
75.28193169720302
 30
0.0
  0
VERTEX
  5
68B
330
666
100
AcDbEntity
  8
Capa 1
 62
     7
370
    15
100
AcDbVertex
100
AcDb2dVertex
 10
86.52156313255303
 20
76.42846023105267
 30
0.0
  0
VERTEX
  5
68C
330
666
100
AcDbEntity
  8
Capa 1
 62
     7
370
    15
100
AcDbVertex
100
AcDb2dVertex
 10
86.52156313255303
 20
77.68247581495072
 30
0.0
  0
VERTEX
  5
68D
330
666
100
AcDbEntity
  8
Capa 1
 62
     7
370
    15
100
AcDbVertex
100
AcDb2dVertex
 10
86.52156313255303
 20
79.04673452710355
 30
0.0
  0
VERTEX
  5
68E
330
666
100
AcDbEntity
  8
Capa 1
 62
     7
370
    15
100
AcDbVertex
100
AcDb2dVertex
 10
86.52156313255303
 20
80.73621046760796
 30
0.0
  0
VERTEX
  5
68F
330
666
100
AcDbEntity
  8
Capa 1
 62
     7
370
    15
100
AcDbVertex
100
AcDb2dVertex
 10
86.52156313255303
 20
82.56624639663721
 30
0.0
  0
VERTEX
  5
690
330
666
100
AcDbEntity
  8
Capa 1
 62
     7
370
    15
100
AcDbVertex
100
AcDb2dVertex
 10
86.52156313255303
 20
84.53959839239766
 30
0.0
  0
VERTEX
  5
691
330
666
100
AcDbEntity
  8
Capa 1
 62
     7
370
    15
100
AcDbVertex
100
AcDb2dVertex
 10
86.52156313255303
 20
86.64524214206385
 30
0.0
  0
VERTEX
  5
692
330
666
100
AcDbEntity
  8
Capa 1
 62
     7
370
    15
100
AcDbVertex
100
AcDb2dVertex
 10
86.52156313255303
 20
88.86664117639755
 30
0.0
  0
SEQEND
  5
693
330
666
100
AcDbEntity
  8
Capa 1
370
    15
  0
ENDBLK
  5
65F
330
65C
100
AcDbEntity
  8
0
100
AcDbBlockEnd
  0
BLOCK
  5
696
330
694
100
AcDbEntity
  8
0
100
AcDbBlockBegin
  2
block 174
 70
     0
 71
     0
 10
0.0
 20
0.0
 30
0.0
  3
block 174
  1

  0
POLYLINE
  5
698
330
694
100
AcDbEntity
  8
Capa 1
 62
     7
370
    15
100
AcDb2dPolyline
 66
     1
 10
0.0
 20
0.0
 30
0.0
  0
VERTEX
  5
699
330
698
100
AcDbEntity
  8
Capa 1
 62
     7
370
    15
100
AcDbVertex
100
AcDb2dVertex
 10
53.05726155081637
 20
63.75050048175365
 30
0.0
  0
VERTEX
  5
69A
330
698
100
AcDbEntity
  8
Capa 1
 62
     7
370
    15
100
AcDbVertex
100
AcDb2dVertex
 10
55.78302289691566
 20
63.75050048175365
 30
0.0
  0
VERTEX
  5
69B
330
698
100
AcDbEntity
  8
Capa 1
 62
     7
370
    15
100
AcDbVertex
100
AcDb2dVertex
 10
58.73753873414361
 20
63.75876871637276
 30
0.0
  0
VERTEX
  5
69C
330
698
100
AcDbEntity
  8
Capa 1
 62
     7
370
    15
100
AcDbVertex
100
AcDb2dVertex
 10
61.55149458284671
 20
63.76979302919824
 30
0.0
  0
VERTEX
  5
69D
330
698
100
AcDbEntity
  8
Capa 1
 62
     7
370
    15
100
AcDbVertex
100
AcDb2dVertex
 10
64.23040259943772
 20
63.78632949843646
 30
0.0
  0
VERTEX
  5
69E
330
698
100
AcDbEntity
  8
Capa 1
 62
     7
370
    15
100
AcDbVertex
100
AcDb2dVertex
 10
66.76875062750389
 20
63.80286596767468
 30
0.0
  0
VERTEX
  5
69F
330
698
100
AcDbEntity
  8
Capa 1
 62
     7
370
    15
100
AcDbVertex
100
AcDb2dVertex
 10
69.18031905807707
 20
63.82215851511926
 30
0.0
  0
VERTEX
  5
6A0
330
698
100
AcDbEntity
  8
Capa 1
 62
     7
370
    15
100
AcDbVertex
100
AcDb2dVertex
 10
71.47062004757001
 20
63.84696321897658
 30
0.0
  0
VERTEX
  5
6A1
330
698
100
AcDbEntity
  8
Capa 1
 62
     7
370
    15
100
AcDbVertex
100
AcDb2dVertex
 10
73.70304339472918
 20
63.86901184462754
 30
0.0
  0
VERTEX
  5
6A2
330
698
100
AcDbEntity
  8
Capa 1
 62
     7
370
    15
100
AcDbVertex
100
AcDb2dVertex
 10
75.8500283174909
 20
63.89657262669123
 30
0.0
  0
VERTEX
  5
6A3
330
698
100
AcDbEntity
  8
Capa 1
 62
     7
370
    15
100
AcDbVertex
100
AcDb2dVertex
 10
77.91984305047428
 20
63.92413340875493
 30
0.0
  0
VERTEX
  5
6A4
330
698
100
AcDbEntity
  8
Capa 1
 62
     7
370
    15
100
AcDbVertex
100
AcDb2dVertex
 10
78.87069003167171
 20
63.9351577215804
 30
0.0
  0
VERTEX
  5
6A5
330
698
100
AcDbEntity
  8
Capa 1
 62
     7
370
    15
100
AcDbVertex
100
AcDb2dVertex
 10
79.80500054363092
 20
63.95169419081862
 30
0.0
  0
VERTEX
  5
6A6
330
698
100
AcDbEntity
  8
Capa 1
 62
     7
370
    15
100
AcDbVertex
100
AcDb2dVertex
 10
80.72553066455828
 20
63.96823066005683
 30
0.0
  0
VERTEX
  5
6A7
330
698
100
AcDbEntity
  8
Capa 1
 62
     7
370
    15
100
AcDbVertex
100
AcDb2dVertex
 10
81.62401215983469
 20
63.99027928570779
 30
0.0
  0
VERTEX
  5
6A8
330
698
100
AcDbEntity
  8
Capa 1
 62
     7
370
    15
100
AcDbVertex
100
AcDb2dVertex
 10
82.48942071663467
 20
64.11705888320078
 30
0.0
  0
VERTEX
  5
6A9
330
698
100
AcDbEntity
  8
Capa 1
 62
     7
370
    15
100
AcDbVertex
100
AcDb2dVertex
 10
83.36860966446649
 20
64.35408160894855
 30
0.0
  0
VERTEX
  5
6AA
330
698
100
AcDbEntity
  8
Capa 1
 62
     7
370
    15
100
AcDbVertex
100
AcDb2dVertex
 10
84.14857979686902
 20
64.67378668088739
 30
0.0
  0
VERTEX
  5
6AB
330
698
100
AcDbEntity
  8
Capa 1
 62
     7
370
    15
100
AcDbVertex
100
AcDb2dVertex
 10
84.80177033177856
 20
65.03483292592178
 30
0.0
  0
VERTEX
  5
6AC
330
698
100
AcDbEntity
  8
Capa 1
 62
     7
370
    15
100
AcDbVertex
100
AcDb2dVertex
 10
85.20691382811485
 20
65.31044074655871
 30
0.0
  0
VERTEX
  5
6AD
330
698
100
AcDbEntity
  8
Capa 1
 62
     7
370
    15
100
AcDbVertex
100
AcDb2dVertex
 10
85.55142360391102
 20
65.57778033257654
 30
0.0
  0
VERTEX
  5
6AE
330
698
100
AcDbEntity
  8
Capa 1
 62
     7
370
    15
100
AcDbVertex
100
AcDb2dVertex
 10
85.83254358096069
 20
65.82582737114977
 30
0.0
  0
VERTEX
  5
6AF
330
698
100
AcDbEntity
  8
Capa 1
 62
     7
370
    15
100
AcDbVertex
100
AcDb2dVertex
 10
86.09988316697851
 20
66.07938656613575
 30
0.0
  0
VERTEX
  5
6B0
330
698
100
AcDbEntity
  8
Capa 1
 62
     7
370
    15
100
AcDbVertex
100
AcDb2dVertex
 10
86.41132000429826
 20
66.42114026372556
 30
0.0
  0
VERTEX
  5
6B1
330
698
100
AcDbEntity
  8
Capa 1
 62
     7
370
    15
100
AcDbVertex
100
AcDb2dVertex
 10
86.75858585830079
 20
66.86211277674465
 30
0.0
  0
VERTEX
  5
6B2
330
698
100
AcDbEntity
  8
Capa 1
 62
     7
370
    15
100
AcDbVertex
100
AcDb2dVertex
 10
87.05348622638232
 20
67.29757313335101
 30
0.0
  0
VERTEX
  5
6B3
330
698
100
AcDbEntity
  8
Capa 1
 62
     7
370
    15
100
AcDbVertex
100
AcDb2dVertex
 10
87.28224071751097
 20
67.69444839506819
 30
0.0
  0
VERTEX
  5
6B4
330
698
100
AcDbEntity
  8
Capa 1
 62
     7
370
    15
100
AcDbVertex
100
AcDb2dVertex
 10
87.4503614880995
 20
68.03344601445163
 30
0.0
  0
VERTEX
  5
6B5
330
698
100
AcDbEntity
  8
Capa 1
 62
     7
370
    15
100
AcDbVertex
100
AcDb2dVertex
 10
87.57714108559249
 20
68.3228342261204
 30
0.0
  0
VERTEX
  5
6B6
330
698
100
AcDbEntity
  8
Capa 1
 62
     7
370
    15
100
AcDbVertex
100
AcDb2dVertex
 10
87.7121889177046
 20
68.6838804711548
 30
0.0
  0
VERTEX
  5
6B7
330
698
100
AcDbEntity
  8
Capa 1
 62
     7
370
    15
100
AcDbVertex
100
AcDb2dVertex
 10
87.8555049844358
 20
69.15241376623759
 30
0.0
  0
VERTEX
  5
6B8
330
698
100
AcDbEntity
  8
Capa 1
 62
     7
370
    15
100
AcDbVertex
100
AcDb2dVertex
 10
87.98779673834153
 20
69.73945842419425
 30
0.0
  0
VERTEX
  5
6B9
330
698
100
AcDbEntity
  8
Capa 1
 62
     7
370
    15
100
AcDbVertex
100
AcDb2dVertex
 10
88.08150339735808
 20
70.43950228861208
 30
0.0
  0
VERTEX
  5
6BA
330
698
100
AcDbEntity
  8
Capa 1
 62
     7
370
    15
100
AcDbVertex
100
AcDb2dVertex
 10
88.10079594480267
 20
71.2635696723165
 30
0.0
  0
VERTEX
  5
6BB
330
698
100
AcDbEntity
  8
Capa 1
 62
     7
370
    15
100
AcDbVertex
100
AcDb2dVertex
 10
88.10079594480267
 20
72.19788018427572
 30
0.0
  0
VERTEX
  5
6BC
330
698
100
AcDbEntity
  8
Capa 1
 62
     7
370
    15
100
AcDbVertex
100
AcDb2dVertex
 10
88.10079594480267
 20
75.28193169720302
 30
0.0
  0
VERTEX
  5
6BD
330
698
100
AcDbEntity
  8
Capa 1
 62
     7
370
    15
100
AcDbVertex
100
AcDb2dVertex
 10
88.10079594480267
 20
76.42846023105267
 30
0.0
  0
VERTEX
  5
6BE
330
698
100
AcDbEntity
  8
Capa 1
 62
     7
370
    15
100
AcDbVertex
100
AcDb2dVertex
 10
88.10079594480267
 20
77.68247581495072
 30
0.0
  0
VERTEX
  5
6BF
330
698
100
AcDbEntity
  8
Capa 1
 62
     7
370
    15
100
AcDbVertex
100
AcDb2dVertex
 10
88.10079594480267
 20
79.04673452710355
 30
0.0
  0
VERTEX
  5
6C0
330
698
100
AcDbEntity
  8
Capa 1
 62
     7
370
    15
100
AcDbVertex
100
AcDb2dVertex
 10
88.10079594480267
 20
80.73621046760796
 30
0.0
  0
VERTEX
  5
6C1
330
698
100
AcDbEntity
  8
Capa 1
 62
     7
370
    15
100
AcDbVertex
100
AcDb2dVertex
 10
88.10079594480267
 20
82.56624639663721
 30
0.0
  0
VERTEX
  5
6C2
330
698
100
AcDbEntity
  8
Capa 1
 62
     7
370
    15
100
AcDbVertex
100
AcDb2dVertex
 10
88.10079594480267
 20
84.53959839239766
 30
0.0
  0
VERTEX
  5
6C3
330
698
100
AcDbEntity
  8
Capa 1
 62
     7
370
    15
100
AcDbVertex
100
AcDb2dVertex
 10
88.10079594480267
 20
86.64524214206385
 30
0.0
  0
VERTEX
  5
6C4
330
698
100
AcDbEntity
  8
Capa 1
 62
     7
370
    15
100
AcDbVertex
100
AcDb2dVertex
 10
88.10079594480267
 20
88.89971411487399
 30
0.0
  0
VERTEX
  5
6C5
330
698
100
AcDbEntity
  8
Capa 1
 62
     7
370
    15
100
AcDbVertex
100
AcDb2dVertex
 10
88.10079594480267
 20
91.29474607620895
 30
0.0
  0
VERTEX
  5
6C6
330
698
100
AcDbEntity
  8
Capa 1
 62
     7
370
    15
100
AcDbVertex
100
AcDb2dVertex
 10
88.10079594480267
 20
104.1656312999538
 30
0.0
  0
SEQEND
  5
6C7
330
698
100
AcDbEntity
  8
Capa 1
370
    15
  0
ENDBLK
  5
697
330
694
100
AcDbEntity
  8
0
100
AcDbBlockEnd
  0
BLOCK
  5
6CA
330
6C8
100
AcDbEntity
  8
0
100
AcDbBlockBegin
  2
block 175
 70
     0
 71
     0
 10
0.0
 20
0.0
 30
0.0
  3
block 175
  1

  0
SPLINE
  5
6CC
330
6C8
100
AcDbEntity
  8
Capa 1
 62
     7
370
    25
100
AcDbSpline
210
0.0
220
0.0
230
1.0
 70
     8
 71
     3
 72
    26
 73
    22
 74
     0
 42
0.0000000001
 43
0.0000000001
 40
0.0
 40
0.0
 40
0.0
 40
0.0
 40
1.0
 40
1.0
 40
1.0
 40
2.0
 40
2.0
 40
2.0
 40
3.0
 40
3.0
 40
3.0
 40
4.0
 40
4.0
 40
4.0
 40
5.0
 40
5.0
 40
5.0
 40
6.0
 40
6.0
 40
6.0
 40
7.0
 40
7.0
 40
7.0
 40
7.0
 10
46.05131075022548
 20
91.35813587495544
 30
0.0
 10
46.07335937587644
 20
91.35813587495544
 30
0.0
 10
46.10092015794013
 20
91.35813587495544
 30
0.0
 10
46.12848094000383
 20
91.35813587495544
 30
0.0
 10
46.12848094000383
 20
91.35813587495544
 30
0.0
 10
46.12848094000383
 20
91.35813587495544
 30
0.0
 10
46.12848094000383
 20
91.35813587495544
 30
0.0
 10
46.3103821016242
 20
91.36640410957455
 30
0.0
 10
46.49228326324458
 20
91.40498920446372
 30
0.0
 10
46.652135799214
 20
91.46837900321022
 30
0.0
 10
46.652135799214
 20
91.46837900321022
 30
0.0
 10
46.652135799214
 20
91.46837900321022
 30
0.0
 10
46.652135799214
 20
91.46837900321022
 30
0.0
 10
46.81474441338979
 20
91.53176880195672
 30
0.0
 10
46.96081655832737
 20
91.6227193827669
 30
0.0
 10
47.07381576478851
 20
91.73296251102167
 30
0.0
 10
47.07381576478851
 20
91.73296251102167
 30
0.0
 10
47.07381576478851
 20
91.73296251102167
 30
0.0
 10
47.07381576478851
 20
91.73296251102167
 30
0.0
 10
47.15925418918596
 20
91.81564485721276
 30
0.0
 10
47.22540006613882
 20
91.90659543802295
 30
0.0
 10
47.26949731744074
 20
92.0085703316586
 30
0.0
  0
ENDBLK
  5
6CB
330
6C8
100
AcDbEntity
  8
0
100
AcDbBlockEnd
  0
BLOCK
  5
6CF
330
6CD
100
AcDbEntity
  8
0
100
AcDbBlockBegin
  2
block 176
 70
     0
 71
     0
 10
0.0
 20
0.0
 30
0.0
  3
block 176
  1

  0
SPLINE
  5
6D1
330
6CD
100
AcDbEntity
  8
Capa 1
 62
     7
370
    25
100
AcDbSpline
210
0.0
220
0.0
230
1.0
 70
     8
 71
     3
 72
    26
 73
    22
 74
     0
 42
0.0000000001
 43
0.0000000001
 40
0.0
 40
0.0
 40
0.0
 40
0.0
 40
1.0
 40
1.0
 40
1.0
 40
2.0
 40
2.0
 40
2.0
 40
3.0
 40
3.0
 40
3.0
 40
4.0
 40
4.0
 40
4.0
 40
5.0
 40
5.0
 40
5.0
 40
6.0
 40
6.0
 40
6.0
 40
7.0
 40
7.0
 40
7.0
 40
7.0
 10
46.05131075022548
 20
91.35813587495544
 30
0.0
 10
46.02374996816179
 20
91.35813587495544
 30
0.0
 10
45.99618918609809
 20
91.35813587495544
 30
0.0
 10
45.9686284040344
 20
91.35813587495544
 30
0.0
 10
45.9686284040344
 20
91.35813587495544
 30
0.0
 10
45.9686284040344
 20
91.35813587495544
 30
0.0
 10
45.9686284040344
 20
91.35813587495544
 30
0.0
 10
45.78397116420766
 20
91.36640410957455
 30
0.0
 10
45.60482608079365
 20
91.40498920446372
 30
0.0
 10
45.44497354482422
 20
91.46837900321022
 30
0.0
 10
45.44497354482422
 20
91.46837900321022
 30
0.0
 10
45.44497354482422
 20
91.46837900321022
 30
0.0
 10
45.44497354482422
 20
91.46837900321022
 30
0.0
 10
45.28236493064843
 20
91.53176880195672
 30
0.0
 10
45.13629278571086
 20
91.6227193827669
 30
0.0
 10
45.02329357924972
 20
91.73296251102167
 30
0.0
 10
45.02329357924972
 20
91.73296251102167
 30
0.0
 10
45.02329357924972
 20
91.73296251102167
 30
0.0
 10
45.02329357924972
 20
91.73296251102167
 30
0.0
 10
44.93785515485227
 20
91.81564485721276
 30
0.0
 10
44.8717092778994
 20
91.90659543802295
 30
0.0
 10
44.82761202659749
 20
92.0085703316586
 30
0.0
  0
ENDBLK
  5
6D0
330
6CD
100
AcDbEntity
  8
0
100
AcDbBlockEnd
  0
BLOCK
  5
6D4
330
6D2
100
AcDbEntity
  8
0
100
AcDbBlockBegin
  2
block 177
 70
     0
 71
     0
 10
0.0
 20
0.0
 30
0.0
  3
block 177
  1

  0
SPLINE
  5
6D6
330
6D2
100
AcDbEntity
  8
Capa 1
 62
     7
370
    25
100
AcDbSpline
210
0.0
220
0.0
230
1.0
 70
     8
 71
     3
 72
    26
 73
    22
 74
     0
 42
0.0000000001
 43
0.0000000001
 40
0.0
 40
0.0
 40
0.0
 40
0.0
 40
1.0
 40
1.0
 40
1.0
 40
2.0
 40
2.0
 40
2.0
 40
3.0
 40
3.0
 40
3.0
 40
4.0
 40
4.0
 40
4.0
 40
5.0
 40
5.0
 40
5.0
 40
6.0
 40
6.0
 40
6.0
 40
7.0
 40
7.0
 40
7.0
 40
7.0
 10
157.2783589246734
 20
89.25524820349563
 30
0.0
 10
157.3059197067371
 20
89.25524820349563
 30
0.0
 10
157.3334804888007
 20
89.25524820349563
 30
0.0
 10
157.3610412708645
 20
89.258004281702
 30
0.0
 10
157.3610412708645
 20
89.258004281702
 30
0.0
 10
157.3610412708645
 20
89.258004281702
 30
0.0
 10
157.3610412708645
 20
89.258004281702
 30
0.0
 10
157.5429424324848
 20
89.26351643811473
 30
0.0
 10
157.7220875158988
 20
89.29934545479753
 30
0.0
 10
157.8846961300746
 20
89.3654913317504
 30
0.0
 10
157.8846961300746
 20
89.3654913317504
 30
0.0
 10
157.8846961300746
 20
89.3654913317504
 30
0.0
 10
157.8846961300746
 20
89.3654913317504
 30
0.0
 10
158.0473047442504
 20
89.42612505229053
 30
0.0
 10
158.1906208109816
 20
89.51707563310072
 30
0.0
 10
158.3063760956491
 20
89.6273187613555
 30
0.0
 10
158.3063760956491
 20
89.6273187613555
 30
0.0
 10
158.3063760956491
 20
89.6273187613555
 30
0.0
 10
158.3063760956491
 20
89.6273187613555
 30
0.0
 10
158.3918145200466
 20
89.71000110754657
 30
0.0
 10
158.4552043187931
 20
89.80370776656314
 30
0.0
 10
158.5020576483014
 20
89.90568266019879
 30
0.0
  0
ENDBLK
  5
6D5
330
6D2
100
AcDbEntity
  8
0
100
AcDbBlockEnd
  0
BLOCK
  5
6D9
330
6D7
100
AcDbEntity
  8
0
100
AcDbBlockBegin
  2
block 178
 70
     0
 71
     0
 10
0.0
 20
0.0
 30
0.0
  3
block 178
  1

  0
SPLINE
  5
6DB
330
6D7
100
AcDbEntity
  8
Capa 1
 62
     7
370
    25
100
AcDbSpline
210
0.0
220
0.0
230
1.0
 70
     8
 71
     3
 72
    26
 73
    22
 74
     0
 42
0.0000000001
 43
0.0000000001
 40
0.0
 40
0.0
 40
0.0
 40
0.0
 40
1.0
 40
1.0
 40
1.0
 40
2.0
 40
2.0
 40
2.0
 40
3.0
 40
3.0
 40
3.0
 40
4.0
 40
4.0
 40
4.0
 40
5.0
 40
5.0
 40
5.0
 40
6.0
 40
6.0
 40
6.0
 40
7.0
 40
7.0
 40
7.0
 40
7.0
 10
157.2783589246734
 20
89.25524820349563
 30
0.0
 10
157.2535542208161
 20
89.25524820349563
 30
0.0
 10
157.2259934387523
 20
89.25524820349563
 30
0.0
 10
157.1984326566887
 20
89.258004281702
 30
0.0
 10
157.1984326566887
 20
89.258004281702
 30
0.0
 10
157.1984326566887
 20
89.258004281702
 30
0.0
 10
157.1984326566887
 20
89.258004281702
 30
0.0
 10
157.0165314950683
 20
89.26351643811473
 30
0.0
 10
156.8373864116543
 20
89.29934545479753
 30
0.0
 10
156.6747777974785
 20
89.3654913317504
 30
0.0
 10
156.6747777974785
 20
89.3654913317504
 30
0.0
 10
156.6747777974785
 20
89.3654913317504
 30
0.0
 10
156.6747777974785
 20
89.3654913317504
 30
0.0
 10
156.5149252615091
 20
89.42612505229053
 30
0.0
 10
156.3688531165715
 20
89.51707563310072
 30
0.0
 10
156.2558539101103
 20
89.6273187613555
 30
0.0
 10
156.2558539101103
 20
89.6273187613555
 30
0.0
 10
156.2558539101103
 20
89.6273187613555
 30
0.0
 10
156.2558539101103
 20
89.6273187613555
 30
0.0
 10
156.1676594075065
 20
89.71000110754657
 30
0.0
 10
156.10426960876
 20
89.80370776656314
 30
0.0
 10
156.0574162792518
 20
89.90568266019879
 30
0.0
  0
ENDBLK
  5
6DA
330
6D7
100
AcDbEntity
  8
0
100
AcDbBlockEnd
  0
BLOCK
  5
6DE
330
6DC
100
AcDbEntity
  8
0
100
AcDbBlockBegin
  2
block 179
 70
     0
 71
     0
 10
0.0
 20
0.0
 30
0.0
  3
block 179
  1

  0
SPLINE
  5
6E0
330
6DC
100
AcDbEntity
  8
Capa 1
 62
   253
370
    15
100
AcDbSpline
210
0.0
220
0.0
230
1.0
 70
     8
 71
     3
 72
     8
 73
     4
 74
     0
 42
0.0000000001
 43
0.0000000001
 40
0.0
 40
0.0
 40
0.0
 40
0.0
 40
1.0
 40
1.0
 40
1.0
 40
1.0
 10
131.2416881091021
 20
86.20426962904476
 30
0.0
 10
144.4350344829922
 20
85.49320145180147
 30
0.0
 10
170.1244394445609
 20
85.49320145180147
 30
0.0
 10
183.3150297402446
 20
86.20426962904476
 30
0.0
  0
ENDBLK
  5
6DF
330
6DC
100
AcDbEntity
  8
0
100
AcDbBlockEnd
  0
BLOCK
  5
6E3
330
6E1
100
AcDbEntity
  8
0
100
AcDbBlockBegin
  2
block 180
 70
     0
 71
     0
 10
0.0
 20
0.0
 30
0.0
  3
block 180
  1

  0
INSERT
  5
6E6
330
6E1
100
AcDbEntity
  8
Capa 1
100
AcDbBlockReference
  2
block 181
 10
0.0
 20
0.0
 30
0.0
  0
ENDBLK
  5
6E4
330
6E1
100
AcDbEntity
  8
0
100
AcDbBlockEnd
  0
BLOCK
  5
6E7
330
6E5
100
AcDbEntity
  8
0
100
AcDbBlockBegin
  2
block 181
 70
     0
 71
     0
 10
0.0
 20
0.0
 30
0.0
  3
block 181
  1

  0
INSERT
  5
6EA
330
6E5
100
AcDbEntity
  8
Capa 1
100
AcDbBlockReference
  2
block 182
 10
0.0
 20
0.0
 30
0.0
  0
INSERT
  5
6F2
330
6E5
100
AcDbEntity
  8
Capa 1
100
AcDbBlockReference
  2
block 183
 10
0.0
 20
0.0
 30
0.0
  0
INSERT
  5
6FA
330
6E5
100
AcDbEntity
  8
Capa 1
100
AcDbBlockReference
  2
block 184
 10
0.0
 20
0.0
 30
0.0
  0
INSERT
  5
702
330
6E5
100
AcDbEntity
  8
Capa 1
100
AcDbBlockReference
  2
block 185
 10
0.0
 20
0.0
 30
0.0
  0
INSERT
  5
70A
330
6E5
100
AcDbEntity
  8
Capa 1
100
AcDbBlockReference
  2
block 186
 10
0.0
 20
0.0
 30
0.0
  0
INSERT
  5
715
330
6E5
100
AcDbEntity
  8
Capa 1
100
AcDbBlockReference
  2
block 187
 10
0.0
 20
0.0
 30
0.0
  0
INSERT
  5
720
330
6E5
100
AcDbEntity
  8
Capa 1
100
AcDbBlockReference
  2
block 188
 10
0.0
 20
0.0
 30
0.0
  0
INSERT
  5
725
330
6E5
100
AcDbEntity
  8
Capa 1
100
AcDbBlockReference
  2
block 189
 10
0.0
 20
0.0
 30
0.0
  0
INSERT
  5
72D
330
6E5
100
AcDbEntity
  8
Capa 1
100
AcDbBlockReference
  2
block 190
 10
0.0
 20
0.0
 30
0.0
  0
INSERT
  5
735
330
6E5
100
AcDbEntity
  8
Capa 1
100
AcDbBlockReference
  2
block 191
 10
0.0
 20
0.0
 30
0.0
  0
ENDBLK
  5
6E8
330
6E5
100
AcDbEntity
  8
0
100
AcDbBlockEnd
  0
BLOCK
  5
6EB
330
6E9
100
AcDbEntity
  8
0
100
AcDbBlockBegin
  2
block 182
 70
     0
 71
     0
 10
0.0
 20
0.0
 30
0.0
  3
block 182
  1

  0
POLYLINE
  5
6ED
330
6E9
100
AcDbEntity
  8
Capa 1
 62
    72
370
    25
100
AcDb2dPolyline
 66
     1
 10
0.0
 20
0.0
 30
0.0
  0
VERTEX
  5
6EE
330
6ED
100
AcDbEntity
  8
Capa 1
 62
    72
370
    25
100
AcDbVertex
100
AcDb2dVertex
 10
87.63226264971988
 20
104.6314085168302
 30
0.0
  0
VERTEX
  5
6EF
330
6ED
100
AcDbEntity
  8
Capa 1
 62
    72
370
    25
100
AcDbVertex
100
AcDb2dVertex
 10
98.43333314048137
 20
104.6314085168302
 30
0.0
  0
SEQEND
  5
6F0
330
6ED
100
AcDbEntity
  8
Capa 1
370
    25
  0
ENDBLK
  5
6EC
330
6E9
100
AcDbEntity
  8
0
100
AcDbBlockEnd
  0
BLOCK
  5
6F3
330
6F1
100
AcDbEntity
  8
0
100
AcDbBlockBegin
  2
block 183
 70
     0
 71
     0
 10
0.0
 20
0.0
 30
0.0
  3
block 183
  1

  0
POLYLINE
  5
6F5
330
6F1
100
AcDbEntity
  8
Capa 1
 62
    72
370
    25
100
AcDb2dPolyline
 66
     1
 10
0.0
 20
0.0
 30
0.0
  0
VERTEX
  5
6F6
330
6F5
100
AcDbEntity
  8
Capa 1
 62
    72
370
    25
100
AcDbVertex
100
AcDb2dVertex
 10
60.06321235140726
 20
82.43671072093785
 30
0.0
  0
VERTEX
  5
6F7
330
6F5
100
AcDbEntity
  8
Capa 1
 62
    72
370
    25
100
AcDbVertex
100
AcDb2dVertex
 10
98.43333314048137
 20
82.43671072093785
 30
0.0
  0
SEQEND
  5
6F8
330
6F5
100
AcDbEntity
  8
Capa 1
370
    25
  0
ENDBLK
  5
6F4
330
6F1
100
AcDbEntity
  8
0
100
AcDbBlockEnd
  0
BLOCK
  5
6FB
330
6F9
100
AcDbEntity
  8
0
100
AcDbBlockBegin
  2
block 184
 70
     0
 71
     0
 10
0.0
 20
0.0
 30
0.0
  3
block 184
  1

  0
POLYLINE
  5
6FD
330
6F9
100
AcDbEntity
  8
Capa 1
 62
    72
370
    25
100
AcDb2dPolyline
 66
     1
 10
0.0
 20
0.0
 30
0.0
  0
VERTEX
  5
6FE
330
6FD
100
AcDbEntity
  8
Capa 1
 62
    72
370
    25
100
AcDbVertex
100
AcDb2dVertex
 10
96.09617882148015
 20
101.1311891947412
 30
0.0
  0
VERTEX
  5
6FF
330
6FD
100
AcDbEntity
  8
Capa 1
 62
    72
370
    25
100
AcDbVertex
100
AcDb2dVertex
 10
96.09617882148015
 20
98.48535411662658
 30
0.0
  0
SEQEND
  5
700
330
6FD
100
AcDbEntity
  8
Capa 1
370
    25
  0
ENDBLK
  5
6FC
330
6F9
100
AcDbEntity
  8
0
100
AcDbBlockEnd
  0
BLOCK
  5
703
330
701
100
AcDbEntity
  8
0
100
AcDbBlockBegin
  2
block 185
 70
     0
 71
     0
 10
0.0
 20
0.0
 30
0.0
  3
block 185
  1

  0
POLYLINE
  5
705
330
701
100
AcDbEntity
  8
Capa 1
 62
    72
370
    25
100
AcDb2dPolyline
 66
     1
 10
0.0
 20
0.0
 30
0.0
  0
VERTEX
  5
706
330
705
100
AcDbEntity
  8
Capa 1
 62
    72
370
    25
100
AcDbVertex
100
AcDb2dVertex
 10
96.09617882148015
 20
85.94519827764604
 30
0.0
  0
VERTEX
  5
707
330
705
100
AcDbEntity
  8
Capa 1
 62
    72
370
    25
100
AcDbVertex
100
AcDb2dVertex
 10
96.09617882148015
 20
88.59103335576062
 30
0.0
  0
SEQEND
  5
708
330
705
100
AcDbEntity
  8
Capa 1
370
    25
  0
ENDBLK
  5
704
330
701
100
AcDbEntity
  8
0
100
AcDbBlockEnd
  0
BLOCK
  5
70B
330
709
100
AcDbEntity
  8
0
100
AcDbBlockBegin
  2
block 186
 70
     0
 71
     0
 10
0.0
 20
0.0
 30
0.0
  3
block 186
  1

  0
POLYLINE
  5
70D
330
709
100
AcDbEntity
  8
Capa 1
370
     0
100
AcDb2dPolyline
 66
     1
 10
0.0
 20
0.0
 30
0.0
  0
VERTEX
  5
70E
330
70D
100
AcDbEntity
  8
Capa 1
370
     0
100
AcDbVertex
100
AcDb2dVertex
 10
95.51464631993622
 20
101.1311891947412
 30
0.0
  0
VERTEX
  5
70F
330
70D
100
AcDbEntity
  8
Capa 1
370
     0
100
AcDbVertex
100
AcDb2dVertex
 10
96.68322347943682
 20
101.1311891947412
 30
0.0
  0
VERTEX
  5
710
330
70D
100
AcDbEntity
  8
Capa 1
370
     0
100
AcDbVertex
100
AcDb2dVertex
 10
96.09617882148015
 20
104.6314085168302
 30
0.0
  0
VERTEX
  5
711
330
70D
100
AcDbEntity
  8
Capa 1
370
     0
100
AcDbVertex
100
AcDb2dVertex
 10
95.51464631993622
 20
101.1311891947412
 30
0.0
  0
SEQEND
  5
712
330
70D
100
AcDbEntity
  8
Capa 1
370
     0
  0
HATCH
  5
713
330
709
100
AcDbEntity
  8
Capa 1
 62
    72
100
AcDbHatch
 10
0.0
 20
0.0
 30
0.0
210
0.0
220
0.0
230
1.0
  2
SOLID
 70
     1
 71
     0
 91
        1
 92
        1
 93
        3
 72
     1
 10
95.51464631993622
 20
101.1311891947412
 11
96.68322347943682
 21
101.1311891947412
 72
     1
 10
96.68322347943682
 20
101.1311891947412
 11
96.09617882148015
 21
104.6314085168302
 72
     1
 10
96.09617882148015
 20
104.6314085168302
 11
95.51464631993622
 21
101.1311891947412
 97
        0
 75
     2
 76
     1
 98
        0
  0
ENDBLK
  5
70C
330
709
100
AcDbEntity
  8
0
100
AcDbBlockEnd
  0
BLOCK
  5
716
330
714
100
AcDbEntity
  8
0
100
AcDbBlockBegin
  2
block 187
 70
     0
 71
     0
 10
0.0
 20
0.0
 30
0.0
  3
block 187
  1

  0
POLYLINE
  5
718
330
714
100
AcDbEntity
  8
Capa 1
370
     0
100
AcDb2dPolyline
 66
     1
 10
0.0
 20
0.0
 30
0.0
  0
VERTEX
  5
719
330
718
100
AcDbEntity
  8
Capa 1
370
     0
100
AcDbVertex
100
AcDb2dVertex
 10
95.51464631993622
 20
85.94519827764604
 30
0.0
  0
VERTEX
  5
71A
330
718
100
AcDbEntity
  8
Capa 1
370
     0
100
AcDbVertex
100
AcDb2dVertex
 10
96.68322347943682
 20
85.94519827764604
 30
0.0
  0
VERTEX
  5
71B
330
718
100
AcDbEntity
  8
Capa 1
370
     0
100
AcDbVertex
100
AcDb2dVertex
 10
96.09617882148015
 20
82.43671072093785
 30
0.0
  0
VERTEX
  5
71C
330
718
100
AcDbEntity
  8
Capa 1
370
     0
100
AcDbVertex
100
AcDb2dVertex
 10
95.51464631993622
 20
85.94519827764604
 30
0.0
  0
SEQEND
  5
71D
330
718
100
AcDbEntity
  8
Capa 1
370
     0
  0
HATCH
  5
71E
330
714
100
AcDbEntity
  8
Capa 1
 62
    72
100
AcDbHatch
 10
0.0
 20
0.0
 30
0.0
210
0.0
220
0.0
230
1.0
  2
SOLID
 70
     1
 71
     0
 91
        1
 92
        1
 93
        3
 72
     1
 10
95.51464631993622
 20
85.94519827764604
 11
96.68322347943682
 21
85.94519827764604
 72
     1
 10
96.68322347943682
 20
85.94519827764604
 11
96.09617882148015
 21
82.43671072093785
 72
     1
 10
96.09617882148015
 20
82.43671072093785
 11
95.51464631993622
 21
85.94519827764604
 97
        0
 75
     2
 76
     1
 98
        0
  0
ENDBLK
  5
717
330
714
100
AcDbEntity
  8
0
100
AcDbBlockEnd
  0
BLOCK
  5
721
330
71F
100
AcDbEntity
  8
0
100
AcDbBlockBegin
  2
block 188
 70
     0
 71
     0
 10
0.0
 20
0.0
 30
0.0
  3
block 188
  1

  0
MTEXT
  5
723
330
71F
100
AcDbEntity
  8
Capa 1
 62
   223
100
AcDbMText
 10
97.5569002708559
 20
89.15327330985997
 30
0.0
 40
2.920234423053602
 41
0.0
 71
     7
 72
     1
  1
\fMyriad Pro|b0|i0|c0|p34;\W1;190
 11
-4.371139000186241E-8
 21
0.999999999999999
 31
0.0
 73
     1
 44
1.0
  0
ENDBLK
  5
722
330
71F
100
AcDbEntity
  8
0
100
AcDbBlockEnd
  0
BLOCK
  5
726
330
724
100
AcDbEntity
  8
0
100
AcDbBlockBegin
  2
block 189
 70
     0
 71
     0
 10
0.0
 20
0.0
 30
0.0
  3
block 189
  1

  0
POLYLINE
  5
728
330
724
100
AcDbEntity
  8
Capa 1
370
     0
100
AcDb2dPolyline
 66
     1
 10
0.0
 20
0.0
 30
0.0
  0
VERTEX
  5
729
330
728
100
AcDbEntity
  8
Capa 1
370
     0
100
AcDbVertex
100
AcDb2dVertex
 10
87.63226264971988
 20
104.6314085168302
 30
0.0
  0
VERTEX
  5
72A
330
728
100
AcDbEntity
  8
Capa 1
370
     0
100
AcDbVertex
100
AcDb2dVertex
 10
87.63226264971988
 20
104.6314085168302
 30
0.0
  0
SEQEND
  5
72B
330
728
100
AcDbEntity
  8
Capa 1
370
     0
  0
ENDBLK
  5
727
330
724
100
AcDbEntity
  8
0
100
AcDbBlockEnd
  0
BLOCK
  5
72E
330
72C
100
AcDbEntity
  8
0
100
AcDbBlockBegin
  2
block 190
 70
     0
 71
     0
 10
0.0
 20
0.0
 30
0.0
  3
block 190
  1

  0
POLYLINE
  5
730
330
72C
100
AcDbEntity
  8
Capa 1
370
     0
100
AcDb2dPolyline
 66
     1
 10
0.0
 20
0.0
 30
0.0
  0
VERTEX
  5
731
330
730
100
AcDbEntity
  8
Capa 1
370
     0
100
AcDbVertex
100
AcDb2dVertex
 10
60.06321235140726
 20
82.43671072093785
 30
0.0
  0
VERTEX
  5
732
330
730
100
AcDbEntity
  8
Capa 1
370
     0
100
AcDbVertex
100
AcDb2dVertex
 10
60.06321235140726
 20
82.43671072093785
 30
0.0
  0
SEQEND
  5
733
330
730
100
AcDbEntity
  8
Capa 1
370
     0
  0
ENDBLK
  5
72F
330
72C
100
AcDbEntity
  8
0
100
AcDbBlockEnd
  0
BLOCK
  5
736
330
734
100
AcDbEntity
  8
0
100
AcDbBlockBegin
  2
block 191
 70
     0
 71
     0
 10
0.0
 20
0.0
 30
0.0
  3
block 191
  1

  0
POLYLINE
  5
738
330
734
100
AcDbEntity
  8
Capa 1
370
     0
100
AcDb2dPolyline
 66
     1
 10
0.0
 20
0.0
 30
0.0
  0
VERTEX
  5
739
330
738
100
AcDbEntity
  8
Capa 1
370
     0
100
AcDbVertex
100
AcDb2dVertex
 10
96.09617882148015
 20
82.43671072093785
 30
0.0
  0
VERTEX
  5
73A
330
738
100
AcDbEntity
  8
Capa 1
370
     0
100
AcDbVertex
100
AcDb2dVertex
 10
96.09617882148015
 20
82.43671072093785
 30
0.0
  0
SEQEND
  5
73B
330
738
100
AcDbEntity
  8
Capa 1
370
     0
  0
ENDBLK
  5
737
330
734
100
AcDbEntity
  8
0
100
AcDbBlockEnd
  0
ENDSEC
  0
SECTION
  2
ENTITIES
  0
INSERT
  5
3D
330
1F
100
AcDbEntity
  8
Capa 1
100
AcDbBlockReference
  2
block 2
 10
0.0
 20
0.0
 30
0.0
  0
INSERT
  5
45
330
1F
100
AcDbEntity
  8
Capa 1
100
AcDbBlockReference
  2
block 3
 10
0.0
 20
0.0
 30
0.0
  0
INSERT
  5
7C
330
1F
100
AcDbEntity
  8
Capa 1
100
AcDbBlockReference
  2
block 4
 10
0.0
 20
0.0
 30
0.0
  0
INSERT
  5
81
330
1F
100
AcDbEntity
  8
Capa 1
100
AcDbBlockReference
  2
block 5
 10
0.0
 20
0.0
 30
0.0
  0
INSERT
  5
89
330
1F
100
AcDbEntity
  8
Capa 1
100
AcDbBlockReference
  2
block 6
 10
0.0
 20
0.0
 30
0.0
  0
INSERT
  5
91
330
1F
100
AcDbEntity
  8
Capa 1
100
AcDbBlockReference
  2
block 7
 10
0.0
 20
0.0
 30
0.0
  0
INSERT
  5
96
330
1F
100
AcDbEntity
  8
Capa 1
100
AcDbBlockReference
  2
block 8
 10
0.0
 20
0.0
 30
0.0
  0
INSERT
  5
9B
330
1F
100
AcDbEntity
  8
Capa 1
100
AcDbBlockReference
  2
block 9
 10
0.0
 20
0.0
 30
0.0
  0
INSERT
  5
CF
330
1F
100
AcDbEntity
  8
Capa 1
100
AcDbBlockReference
  2
block 10
 10
0.0
 20
0.0
 30
0.0
  0
INSERT
  5
103
330
1F
100
AcDbEntity
  8
Capa 1
100
AcDbBlockReference
  2
block 11
 10
0.0
 20
0.0
 30
0.0
  0
INSERT
  5
108
330
1F
100
AcDbEntity
  8
Capa 1
100
AcDbBlockReference
  2
block 12
 10
0.0
 20
0.0
 30
0.0
  0
INSERT
  5
10D
330
1F
100
AcDbEntity
  8
Capa 1
100
AcDbBlockReference
  2
block 13
 10
0.0
 20
0.0
 30
0.0
  0
INSERT
  5
112
330
1F
100
AcDbEntity
  8
Capa 1
100
AcDbBlockReference
  2
block 14
 10
0.0
 20
0.0
 30
0.0
  0
INSERT
  5
11A
330
1F
100
AcDbEntity
  8
Capa 1
100
AcDbBlockReference
  2
block 15
 10
0.0
 20
0.0
 30
0.0
  0
INSERT
  5
122
330
1F
100
AcDbEntity
  8
Capa 1
100
AcDbBlockReference
  2
block 16
 10
0.0
 20
0.0
 30
0.0
  0
INSERT
  5
127
330
1F
100
AcDbEntity
  8
Capa 1
100
AcDbBlockReference
  2
block 17
 10
0.0
 20
0.0
 30
0.0
  0
INSERT
  5
12F
330
1F
100
AcDbEntity
  8
Capa 1
100
AcDbBlockReference
  2
block 18
 10
0.0
 20
0.0
 30
0.0
  0
INSERT
  5
134
330
1F
100
AcDbEntity
  8
Capa 1
100
AcDbBlockReference
  2
block 19
 10
0.0
 20
0.0
 30
0.0
  0
INSERT
  5
13C
330
1F
100
AcDbEntity
  8
Capa 1
100
AcDbBlockReference
  2
block 20
 10
0.0
 20
0.0
 30
0.0
  0
INSERT
  5
141
330
1F
100
AcDbEntity
  8
Capa 1
100
AcDbBlockReference
  2
block 21
 10
0.0
 20
0.0
 30
0.0
  0
INSERT
  5
146
330
1F
100
AcDbEntity
  8
Capa 1
100
AcDbBlockReference
  2
block 22
 10
0.0
 20
0.0
 30
0.0
  0
INSERT
  5
14E
330
1F
100
AcDbEntity
  8
Capa 1
100
AcDbBlockReference
  2
block 23
 10
0.0
 20
0.0
 30
0.0
  0
INSERT
  5
153
330
1F
100
AcDbEntity
  8
Capa 1
100
AcDbBlockReference
  2
block 24
 10
0.0
 20
0.0
 30
0.0
  0
INSERT
  5
158
330
1F
100
AcDbEntity
  8
Capa 1
100
AcDbBlockReference
  2
block 25
 10
0.0
 20
0.0
 30
0.0
  0
INSERT
  5
15D
330
1F
100
AcDbEntity
  8
Capa 1
100
AcDbBlockReference
  2
block 26
 10
0.0
 20
0.0
 30
0.0
  0
INSERT
  5
165
330
1F
100
AcDbEntity
  8
Capa 1
100
AcDbBlockReference
  2
block 27
 10
0.0
 20
0.0
 30
0.0
  0
INSERT
  5
16A
330
1F
100
AcDbEntity
  8
Capa 1
100
AcDbBlockReference
  2
block 28
 10
0.0
 20
0.0
 30
0.0
  0
INSERT
  5
16F
330
1F
100
AcDbEntity
  8
Capa 1
100
AcDbBlockReference
  2
block 29
 10
0.0
 20
0.0
 30
0.0
  0
INSERT
  5
1A3
330
1F
100
AcDbEntity
  8
Capa 1
100
AcDbBlockReference
  2
block 30
 10
0.0
 20
0.0
 30
0.0
  0
INSERT
  5
1A8
330
1F
100
AcDbEntity
  8
Capa 1
100
AcDbBlockReference
  2
block 31
 10
0.0
 20
0.0
 30
0.0
  0
INSERT
  5
1B0
330
1F
100
AcDbEntity
  8
Capa 1
100
AcDbBlockReference
  2
block 32
 10
0.0
 20
0.0
 30
0.0
  0
INSERT
  5
1E4
330
1F
100
AcDbEntity
  8
Capa 1
100
AcDbBlockReference
  2
block 33
 10
0.0
 20
0.0
 30
0.0
  0
INSERT
  5
1E9
330
1F
100
AcDbEntity
  8
Capa 1
100
AcDbBlockReference
  2
block 34
 10
0.0
 20
0.0
 30
0.0
  0
INSERT
  5
1EE
330
1F
100
AcDbEntity
  8
Capa 1
100
AcDbBlockReference
  2
block 35
 10
0.0
 20
0.0
 30
0.0
  0
INSERT
  5
1F6
330
1F
100
AcDbEntity
  8
Capa 1
100
AcDbBlockReference
  2
block 36
 10
0.0
 20
0.0
 30
0.0
  0
INSERT
  5
1FE
330
1F
100
AcDbEntity
  8
Capa 1
100
AcDbBlockReference
  2
block 37
 10
0.0
 20
0.0
 30
0.0
  0
INSERT
  5
206
330
1F
100
AcDbEntity
  8
Capa 1
100
AcDbBlockReference
  2
block 38
 10
0.0
 20
0.0
 30
0.0
  0
INSERT
  5
20B
330
1F
100
AcDbEntity
  8
Capa 1
100
AcDbBlockReference
  2
block 39
 10
0.0
 20
0.0
 30
0.0
  0
INSERT
  5
210
330
1F
100
AcDbEntity
  8
Capa 1
100
AcDbBlockReference
  2
block 40
 10
0.0
 20
0.0
 30
0.0
  0
INSERT
  5
218
330
1F
100
AcDbEntity
  8
Capa 1
100
AcDbBlockReference
  2
block 41
 10
0.0
 20
0.0
 30
0.0
  0
INSERT
  5
220
330
1F
100
AcDbEntity
  8
Capa 1
100
AcDbBlockReference
  2
block 42
 10
0.0
 20
0.0
 30
0.0
  0
INSERT
  5
229
330
1F
100
AcDbEntity
  8
Capa 1
100
AcDbBlockReference
  2
block 43
 10
0.0
 20
0.0
 30
0.0
  0
INSERT
  5
232
330
1F
100
AcDbEntity
  8
Capa 1
100
AcDbBlockReference
  2
block 44
 10
0.0
 20
0.0
 30
0.0
  0
INSERT
  5
23B
330
1F
100
AcDbEntity
  8
Capa 1
100
AcDbBlockReference
  2
block 45
 10
0.0
 20
0.0
 30
0.0
  0
INSERT
  5
244
330
1F
100
AcDbEntity
  8
Capa 1
100
AcDbBlockReference
  2
block 46
 10
0.0
 20
0.0
 30
0.0
  0
INSERT
  5
24D
330
1F
100
AcDbEntity
  8
Capa 1
100
AcDbBlockReference
  2
block 47
 10
0.0
 20
0.0
 30
0.0
  0
INSERT
  5
256
330
1F
100
AcDbEntity
  8
Capa 1
100
AcDbBlockReference
  2
block 48
 10
0.0
 20
0.0
 30
0.0
  0
INSERT
  5
25C
330
1F
100
AcDbEntity
  8
Capa 1
100
AcDbBlockReference
  2
block 49
 10
0.0
 20
0.0
 30
0.0
  0
INSERT
  5
262
330
1F
100
AcDbEntity
  8
Capa 1
100
AcDbBlockReference
  2
block 50
 10
0.0
 20
0.0
 30
0.0
  0
INSERT
  5
26B
330
1F
100
AcDbEntity
  8
Capa 1
100
AcDbBlockReference
  2
block 51
 10
0.0
 20
0.0
 30
0.0
  0
INSERT
  5
274
330
1F
100
AcDbEntity
  8
Capa 1
100
AcDbBlockReference
  2
block 52
 10
0.0
 20
0.0
 30
0.0
  0
INSERT
  5
27D
330
1F
100
AcDbEntity
  8
Capa 1
100
AcDbBlockReference
  2
block 53
 10
0.0
 20
0.0
 30
0.0
  0
INSERT
  5
286
330
1F
100
AcDbEntity
  8
Capa 1
100
AcDbBlockReference
  2
block 54
 10
0.0
 20
0.0
 30
0.0
  0
INSERT
  5
28C
330
1F
100
AcDbEntity
  8
Capa 1
100
AcDbBlockReference
  2
block 55
 10
0.0
 20
0.0
 30
0.0
  0
INSERT
  5
292
330
1F
100
AcDbEntity
  8
Capa 1
100
AcDbBlockReference
  2
block 56
 10
0.0
 20
0.0
 30
0.0
  0
INSERT
  5
29B
330
1F
100
AcDbEntity
  8
Capa 1
100
AcDbBlockReference
  2
block 57
 10
0.0
 20
0.0
 30
0.0
  0
INSERT
  5
2A4
330
1F
100
AcDbEntity
  8
Capa 1
100
AcDbBlockReference
  2
block 58
 10
0.0
 20
0.0
 30
0.0
  0
INSERT
  5
2FF
330
1F
100
AcDbEntity
  8
Capa 1
100
AcDbBlockReference
  2
block 70
 10
0.0
 20
0.0
 30
0.0
  0
INSERT
  5
35A
330
1F
100
AcDbEntity
  8
Capa 1
100
AcDbBlockReference
  2
block 82
 10
0.0
 20
0.0
 30
0.0
  0
INSERT
  5
362
330
1F
100
AcDbEntity
  8
Capa 1
100
AcDbBlockReference
  2
block 83
 10
0.0
 20
0.0
 30
0.0
  0
INSERT
  5
3BD
330
1F
100
AcDbEntity
  8
Capa 1
100
AcDbBlockReference
  2
block 95
 10
0.0
 20
0.0
 30
0.0
  0
INSERT
  5
418
330
1F
100
AcDbEntity
  8
Capa 1
100
AcDbBlockReference
  2
block 107
 10
0.0
 20
0.0
 30
0.0
  0
INSERT
  5
473
330
1F
100
AcDbEntity
  8
Capa 1
100
AcDbBlockReference
  2
block 119
 10
0.0
 20
0.0
 30
0.0
  0
INSERT
  5
4CE
330
1F
100
AcDbEntity
  8
Capa 1
100
AcDbBlockReference
  2
block 131
 10
0.0
 20
0.0
 30
0.0
  0
INSERT
  5
4D3
330
1F
100
AcDbEntity
  8
Capa 1
100
AcDbBlockReference
  2
block 132
 10
0.0
 20
0.0
 30
0.0
  0
INSERT
  5
4D8
330
1F
100
AcDbEntity
  8
Capa 1
100
AcDbBlockReference
  2
block 133
 10
0.0
 20
0.0
 30
0.0
  0
INSERT
  5
4DD
330
1F
100
AcDbEntity
  8
Capa 1
100
AcDbBlockReference
  2
block 134
 10
0.0
 20
0.0
 30
0.0
  0
INSERT
  5
4E2
330
1F
100
AcDbEntity
  8
Capa 1
100
AcDbBlockReference
  2
block 135
 10
0.0
 20
0.0
 30
0.0
  0
INSERT
  5
4EA
330
1F
100
AcDbEntity
  8
Capa 1
100
AcDbBlockReference
  2
block 136
 10
0.0
 20
0.0
 30
0.0
  0
INSERT
  5
4EF
330
1F
100
AcDbEntity
  8
Capa 1
100
AcDbBlockReference
  2
block 137
 10
0.0
 20
0.0
 30
0.0
  0
INSERT
  5
4F7
330
1F
100
AcDbEntity
  8
Capa 1
100
AcDbBlockReference
  2
block 138
 10
0.0
 20
0.0
 30
0.0
  0
INSERT
  5
4FC
330
1F
100
AcDbEntity
  8
Capa 1
100
AcDbBlockReference
  2
block 139
 10
0.0
 20
0.0
 30
0.0
  0
INSERT
  5
501
330
1F
100
AcDbEntity
  8
Capa 1
100
AcDbBlockReference
  2
block 140
 10
0.0
 20
0.0
 30
0.0
  0
INSERT
  5
509
330
1F
100
AcDbEntity
  8
Capa 1
100
AcDbBlockReference
  2
block 141
 10
0.0
 20
0.0
 30
0.0
  0
INSERT
  5
50E
330
1F
100
AcDbEntity
  8
Capa 1
100
AcDbBlockReference
  2
block 142
 10
0.0
 20
0.0
 30
0.0
  0
INSERT
  5
513
330
1F
100
AcDbEntity
  8
Capa 1
100
AcDbBlockReference
  2
block 143
 10
0.0
 20
0.0
 30
0.0
  0
INSERT
  5
54B
330
1F
100
AcDbEntity
  8
Capa 1
100
AcDbBlockReference
  2
block 144
 10
0.0
 20
0.0
 30
0.0
  0
INSERT
  5
550
330
1F
100
AcDbEntity
  8
Capa 1
100
AcDbBlockReference
  2
block 145
 10
0.0
 20
0.0
 30
0.0
  0
INSERT
  5
584
330
1F
100
AcDbEntity
  8
Capa 1
100
AcDbBlockReference
  2
block 146
 10
0.0
 20
0.0
 30
0.0
  0
INSERT
  5
589
330
1F
100
AcDbEntity
  8
Capa 1
100
AcDbBlockReference
  2
block 147
 10
0.0
 20
0.0
 30
0.0
  0
INSERT
  5
58E
330
1F
100
AcDbEntity
  8
Capa 1
100
AcDbBlockReference
  2
block 148
 10
0.0
 20
0.0
 30
0.0
  0
INSERT
  5
593
330
1F
100
AcDbEntity
  8
Capa 1
100
AcDbBlockReference
  2
block 149
 10
0.0
 20
0.0
 30
0.0
  0
INSERT
  5
59C
330
1F
100
AcDbEntity
  8
Capa 1
100
AcDbBlockReference
  2
block 150
 10
0.0
 20
0.0
 30
0.0
  0
INSERT
  5
5A5
330
1F
100
AcDbEntity
  8
Capa 1
100
AcDbBlockReference
  2
block 151
 10
0.0
 20
0.0
 30
0.0
  0
INSERT
  5
5AE
330
1F
100
AcDbEntity
  8
Capa 1
100
AcDbBlockReference
  2
block 152
 10
0.0
 20
0.0
 30
0.0
  0
POLYLINE
  5
5B6
330
1F
100
AcDbEntity
  8
Capa 1
 62
    72
370
    25
100
AcDb2dPolyline
 66
     1
 10
0.0
 20
0.0
 30
0.0
  0
VERTEX
  5
5B7
330
5B6
100
AcDbEntity
  8
Capa 1
 62
    72
370
    25
100
AcDbVertex
100
AcDb2dVertex
 10
18.48226045191286
 20
104.6314085168302
 30
0.0
  0
VERTEX
  5
5B8
330
5B6
100
AcDbEntity
  8
Capa 1
 62
    72
370
    25
100
AcDbVertex
100
AcDb2dVertex
 10
7.678433882945011
 20
104.6314085168302
 30
0.0
  0
SEQEND
  5
5B9
330
5B6
100
AcDbEntity
  8
Capa 1
370
    25
  0
POLYLINE
  5
5BA
330
1F
100
AcDbEntity
  8
Capa 1
 62
    72
370
    25
100
AcDb2dPolyline
 66
     1
 10
0.0
 20
0.0
 30
0.0
  0
VERTEX
  5
5BB
330
5BA
100
AcDbEntity
  8
Capa 1
 62
    72
370
    25
100
AcDbVertex
100
AcDb2dVertex
 10
54.4215202629692
 20
63.75050048175365
 30
0.0
  0
VERTEX
  5
5BC
330
5BA
100
AcDbEntity
  8
Capa 1
 62
    72
370
    25
100
AcDbVertex
100
AcDb2dVertex
 10
7.678433882945011
 20
63.75050048175365
 30
0.0
  0
SEQEND
  5
5BD
330
5BA
100
AcDbEntity
  8
Capa 1
370
    25
  0
INSERT
  5
5BF
330
1F
100
AcDbEntity
  8
Capa 1
100
AcDbBlockReference
  2
block 153
 10
0.0
 20
0.0
 30
0.0
  0
INSERT
  5
5C7
330
1F
100
AcDbEntity
  8
Capa 1
100
AcDbBlockReference
  2
block 154
 10
0.0
 20
0.0
 30
0.0
  0
INSERT
  5
5CF
330
1F
100
AcDbEntity
  8
Capa 1
100
AcDbBlockReference
  2
block 155
 10
0.0
 20
0.0
 30
0.0
  0
INSERT
  5
5DA
330
1F
100
AcDbEntity
  8
Capa 1
100
AcDbBlockReference
  2
block 156
 10
0.0
 20
0.0
 30
0.0
  0
INSERT
  5
5E5
330
1F
100
AcDbEntity
  8
Capa 1
100
AcDbBlockReference
  2
block 157
 10
0.0
 20
0.0
 30
0.0
  0
INSERT
  5
5EA
330
1F
100
AcDbEntity
  8
Capa 1
100
AcDbBlockReference
  2
block 158
 10
0.0
 20
0.0
 30
0.0
  0
INSERT
  5
5F2
330
1F
100
AcDbEntity
  8
Capa 1
100
AcDbBlockReference
  2
block 159
 10
0.0
 20
0.0
 30
0.0
  0
INSERT
  5
5FA
330
1F
100
AcDbEntity
  8
Capa 1
100
AcDbBlockReference
  2
block 160
 10
0.0
 20
0.0
 30
0.0
  0
INSERT
  5
602
330
1F
100
AcDbEntity
  8
Capa 1
100
AcDbBlockReference
  2
block 161
 10
0.0
 20
0.0
 30
0.0
  0
INSERT
  5
65D
330
1F
100
AcDbEntity
  8
Capa 1
100
AcDbBlockReference
  2
block 173
 10
0.0
 20
0.0
 30
0.0
  0
INSERT
  5
695
330
1F
100
AcDbEntity
  8
Capa 1
100
AcDbBlockReference
  2
block 174
 10
0.0
 20
0.0
 30
0.0
  0
INSERT
  5
6C9
330
1F
100
AcDbEntity
  8
Capa 1
100
AcDbBlockReference
  2
block 175
 10
0.0
 20
0.0
 30
0.0
  0
INSERT
  5
6CE
330
1F
100
AcDbEntity
  8
Capa 1
100
AcDbBlockReference
  2
block 176
 10
0.0
 20
0.0
 30
0.0
  0
INSERT
  5
6D3
330
1F
100
AcDbEntity
  8
Capa 1
100
AcDbBlockReference
  2
block 177
 10
0.0
 20
0.0
 30
0.0
  0
INSERT
  5
6D8
330
1F
100
AcDbEntity
  8
Capa 1
100
AcDbBlockReference
  2
block 178
 10
0.0
 20
0.0
 30
0.0
  0
INSERT
  5
6DD
330
1F
100
AcDbEntity
  8
Capa 1
100
AcDbBlockReference
  2
block 179
 10
0.0
 20
0.0
 30
0.0
  0
INSERT
  5
6E2
330
1F
100
AcDbEntity
  8
Capa 1
100
AcDbBlockReference
  2
block 180
 10
0.0
 20
0.0
 30
0.0
  0
ENDSEC
  0
SECTION
  2
OBJECTS
  0
DICTIONARY
  5
C
330
0
100
AcDbDictionary
281
     1
  3
ACAD_GROUP
350
D
  3
ACAD_LAYOUT
350
1A
  3
ACAD_MLINESTYLE
350
17
  3
ACAD_PLOTSETTINGS
350
19
  3
ACAD_PLOTSTYLENAME
350
E
  3
ACAD_TABLESTYLE
350
740
  3
ACAD_VISUALSTYLE
350
2A
  0
DICTIONARY
  5
D
102
{ACAD_REACTORS
330
C
102
}
330
C
100
AcDbDictionary
281
     1
  0
DICTIONARY
  5
1A
102
{ACAD_REACTORS
330
C
102
}
330
C
100
AcDbDictionary
281
     1
  3
Layout1
350
1E
  3
Layout2
350
26
  3
Model
350
22
  0
DICTIONARY
  5
17
102
{ACAD_REACTORS
330
C
102
}
330
C
100
AcDbDictionary
281
     1
  3
Standard
350
18
  0
DICTIONARY
  5
19
102
{ACAD_REACTORS
330
C
102
}
330
C
100
AcDbDictionary
281
     1
  0
ACDBDICTIONARYWDFLT
  5
E
102
{ACAD_REACTORS
330
C
102
}
330
C
100
AcDbDictionary
281
     1
  3
Normal
350
F
100
AcDbDictionaryWithDefault
340
F
  0
DICTIONARY
  5
740
102
{ACAD_REACTORS
330
C
102
}
330
C
100
AcDbDictionary
281
     1
  0
DICTIONARY
  5
2A
102
{ACAD_REACTORS
330
C
102
}
330
C
100
AcDbDictionary
281
     1
  3
2dWireframe
350
2F
  3
3D Hidden
350
31
  3
3dWireframe
350
30
  3
Basic
350
32
  3
Brighten
350
36
  3
ColorChange
350
3A
  3
Conceptual
350
34
  3
Dim
350
35
  3
Facepattern
350
39
  3
Flat
350
2B
  3
FlatWithEdges
350
2C
  3
Gouraud
350
2D
  3
GouraudWithEdges
350
2E
  3
Linepattern
350
38
  3
Realistic
350
33
  3
Thicken
350
37
  0
LAYOUT
  5
1E
102
{ACAD_REACTORS
330
1A
102
}
330
1A
100
AcDbPlotSettings
  1

  2
none_device
  4

  6

 40
0.0
 41
0.0
 42
0.0
 43
0.0
 44
0.0
 45
0.0
 46
0.0
 47
0.0
 48
0.0
 49
0.0
140
0.0
141
0.0
142
1.0
143
1.0
 70
   688
 72
     0
 73
     0
 74
     5
  7

 75
    16
147
1.0
148
0.0
149
0.0
100
AcDbLayout
  1
Layout1
 70
     1
 71
     1
 10
0.0
 20
0.0
 11
12.0
 21
9.0
 12
0.0
 22
0.0
 32
0.0
 14
1.000000000000000E+20
 24
1.000000000000000E+20
 34
1.000000000000000E+20
 15
-1.000000000000000E+20
 25
-1.000000000000000E+20
 35
-1.000000000000000E+20
146
0.0
 13
0.0
 23
0.0
 33
0.0
 16
1.0
 26
0.0
 36
0.0
 17
0.0
 27
1.0
 37
0.0
 76
     0
330
1B
  0
LAYOUT
  5
26
102
{ACAD_REACTORS
330
1A
102
}
330
1A
100
AcDbPlotSettings
  1

  2
none_device
  4

  6

 40
0.0
 41
0.0
 42
0.0
 43
0.0
 44
0.0
 45
0.0
 46
0.0
 47
0.0
 48
0.0
 49
0.0
140
0.0
141
0.0
142
1.0
143
1.0
 70
   688
 72
     0
 73
     0
 74
     5
  7

 75
    16
147
1.0
148
0.0
149
0.0
100
AcDbLayout
  1
Layout2
 70
     1
 71
     2
 10
0.0
 20
0.0
 11
0.0
 21
0.0
 12
0.0
 22
0.0
 32
0.0
 14
0.0
 24
0.0
 34
0.0
 15
0.0
 25
0.0
 35
0.0
146
0.0
 13
0.0
 23
0.0
 33
0.0
 16
1.0
 26
0.0
 36
0.0
 17
0.0
 27
1.0
 37
0.0
 76
     0
330
23
  0
LAYOUT
  5
22
102
{ACAD_REACTORS
330
1A
102
}
330
1A
100
AcDbPlotSettings
  1

  2
none_device
  4

  6

 40
0.0
 41
0.0
 42
0.0
 43
0.0
 44
0.0
 45
0.0
 46
0.0
 47
0.0
 48
0.0
 49
0.0
140
0.0
141
0.0
142
1.0
143
1.0
 70
  1712
 72
     0
 73
     0
 74
     0
  7

 75
     0
147
1.0
148
0.0
149
0.0
100
AcDbLayout
  1
Model
 70
     1
 71
     0
 10
0.0
 20
0.0
 11
12.0
 21
9.0
 12
0.0
 22
0.0
 32
0.0
 14
1.000000000000000E+20
 24
1.000000000000000E+20
 34
1.000000000000000E+20
 15
-1.000000000000000E+20
 25
-1.000000000000000E+20
 35
-1.000000000000000E+20
146
0.0
 13
0.0
 23
0.0
 33
0.0
 16
1.0
 26
0.0
 36
0.0
 17
0.0
 27
1.0
 37
0.0
 76
     0
330
1F
331
29
  0
MLINESTYLE
  5
18
102
{ACAD_REACTORS
330
17
102
}
330
17
100
AcDbMlineStyle
  2
Standard
 70
     0
  3

 62
   256
 51
90.0
 52
90.0
 71
     2
 49
0.5
 62
   256
  6
BYLAYER
 49
-0.5
 62
   256
  6
BYLAYER
  0
ACDBPLACEHOLDER
  5
F
102
{ACAD_REACTORS
330
E
102
}
330
E
  0
VISUALSTYLE
  5
2F
102
{ACAD_REACTORS
330
2A
102
}
330
2A
100
AcDbVisualStyle
  2
2dWireframe
 70
     4
 71
     0
 72
     2
 73
     0
 90
        0
 40
-0.6
 41
-30.0
 62
     5
 63
     7
 74
     1
 91
        4
 64
     7
 65
   257
 75
     1
175
     1
 42
1.0
 92
        0
 66
   257
 43
1.0
 76
     1
 77
     6
 78
     2
 67
     7
 79
     5
170
     0
171
     0
290
     0
174
     0
 93
        1
 44
0.0
173
     0
291
     0
 45
0.0
1001
ACAD
1000
AcDbSavedByObjectVersion
1070
     0
  0
VISUALSTYLE
  5
31
102
{ACAD_REACTORS
330
2A
102
}
330
2A
100
AcDbVisualStyle
  2
3D Hidden
 70
     6
 71
     1
 72
     2
 73
     2
 90
        0
 40
-0.6
 41
-30.0
 62
     5
 63
     7
 74
     2
 91
        2
 64
     7
 65
   257
 75
     2
175
     1
 42
40.0
 92
        0
 66
   257
 43
1.0
 76
     1
 77
     6
 78
     2
 67
     7
 79
     3
170
     0
171
     0
290
     0
174
     0
 93
        1
 44
0.0
173
     0
291
     0
 45
0.0
1001
ACAD
1000
AcDbSavedByObjectVersion
1070
     0
  0
VISUALSTYLE
  5
30
102
{ACAD_REACTORS
330
2A
102
}
330
2A
100
AcDbVisualStyle
  2
3dWireframe
 70
     5
 71
     0
 72
     2
 73
     0
 90
        0
 40
-0.6
 41
-30.0
 62
     5
 63
     7
 74
     1
 91
        4
 64
     7
 65
   257
 75
     1
175
     1
 42
1.0
 92
        0
 66
   257
 43
1.0
 76
     1
 77
     6
 78
     2
 67
     7
 79
     5
170
     0
171
     0
290
     0
174
     0
 93
        1
 44
0.0
173
     0
291
     0
 45
0.0
1001
ACAD
1000
AcDbSavedByObjectVersion
1070
     0
  0
VISUALSTYLE
  5
32
102
{ACAD_REACTORS
330
2A
102
}
330
2A
100
AcDbVisualStyle
  2
Basic
 70
     7
 71
     1
 72
     0
 73
     1
 90
        0
 40
-0.6
 41
-30.0
 62
     5
 63
     7
 74
     0
 91
        4
 64
     7
 65
   257
 75
     1
175
     1
 42
1.0
 92
        8
 66
     7
 43
1.0
 76
     1
 77
     6
 78
     2
 67
     7
 79
     5
170
     0
171
     0
290
     0
174
     0
 93
        1
 44
0.0
173
     0
291
     1
 45
0.0
1001
ACAD
1000
AcDbSavedByObjectVersion
1070
     0
  0
VISUALSTYLE
  5
36
102
{ACAD_REACTORS
330
2A
102
}
330
2A
100
AcDbVisualStyle
  2
Brighten
 70
    12
 71
     2
 72
     2
 73
     0
 90
        0
 40
-0.6
 41
-30.0
 62
     5
 63
     7
 74
     1
 91
        4
 64
     7
 65
   257
 75
     1
175
     1
 42
1.0
 92
        8
 66
     7
 43
1.0
 76
     1
 77
     6
 78
     2
 67
     7
 79
     5
170
     0
171
     0
290
     0
174
     0
 93
        1
 44
50.0
173
     0
291
     1
 45
0.0
1001
ACAD
1000
AcDbSavedByObjectVersion
1070
     0
  0
VISUALSTYLE
  5
3A
102
{ACAD_REACTORS
330
2A
102
}
330
2A
100
AcDbVisualStyle
  2
ColorChange
 70
    16
 71
     2
 72
     2
 73
     3
 90
        0
 40
-0.6
 41
-30.0
 62
     5
 63
     8
 74
     1
 91
        4
 64
     7
 65
   257
 75
     1
175
     1
 42
1.0
 92
        8
 66
     8
 43
1.0
 76
     1
 77
     6
 78
     2
 67
     7
 79
     5
170
     0
171
     0
290
     0
174
     0
 93
        1
 44
0.0
173
     0
291
     1
 45
0.0
1001
ACAD
1000
AcDbSavedByObjectVersion
1070
     0
  0
VISUALSTYLE
  5
34
102
{ACAD_REACTORS
330
2A
102
}
330
2A
100
AcDbVisualStyle
  2
Conceptual
 70
     9
 71
     3
 72
     2
 73
     0
 90
        0
 40
-0.6
 41
-30.0
 62
     5
 63
     7
 74
     2
 91
        2
 64
     7
 65
   257
 75
     1
175
     1
 42
40.0
 92
        8
 66
     7
 43
1.0
 76
     1
 77
     6
 78
     2
 67
     7
 79
     3
170
     0
171
     0
290
     0
174
     0
 93
        1
 44
0.0
173
     0
291
     0
 45
0.0
1001
ACAD
1000
AcDbSavedByObjectVersion
1070
     0
  0
VISUALSTYLE
  5
35
102
{ACAD_REACTORS
330
2A
102
}
330
2A
100
AcDbVisualStyle
  2
Dim
 70
    11
 71
     2
 72
     2
 73
     0
 90
        0
 40
-0.6
 41
-30.0
 62
     5
 63
     7
 74
     1
 91
        4
 64
     7
 65
   257
 75
     1
175
     1
 42
1.0
 92
        8
 66
     7
 43
1.0
 76
     1
 77
     6
 78
     2
 67
     7
 79
     5
170
     0
171
     0
290
     0
174
     0
 93
        1
 44
-50.0
173
     0
291
     1
 45
0.0
1001
ACAD
1000
AcDbSavedByObjectVersion
1070
     0
  0
VISUALSTYLE
  5
39
102
{ACAD_REACTORS
330
2A
102
}
330
2A
100
AcDbVisualStyle
  2
Facepattern
 70
    15
 71
     2
 72
     2
 73
     0
 90
        0
 40
-0.6
 41
-30.0
 62
     5
 63
     7
 74
     1
 91
        4
 64
     7
 65
   257
 75
     1
175
     1
 42
1.0
 92
        8
 66
     7
 43
1.0
 76
     1
 77
     6
 78
     2
 67
     7
 79
     5
170
     0
171
     0
290
     0
174
     0
 93
        1
 44
0.0
173
     0
291
     1
 45
0.0
1001
ACAD
1000
AcDbSavedByObjectVersion
1070
     0
  0
VISUALSTYLE
  5
2B
102
{ACAD_REACTORS
330
2A
102
}
330
2A
100
AcDbVisualStyle
  2
Flat
 70
     0
 71
     2
 72
     1
 73
     1
 90
        2
 40
-0.6
 41
30.0
 62
     5
 63
     7
 74
     0
 91
        4
 64
     7
 65
   257
 75
     1
175
     1
 42
1.0
 92
        8
 66
     7
 43
1.0
 76
     1
 77
     6
 78
     2
 67
     7
 79
     5
170
     0
171
     0
290
     0
174
     0
 93
       13
 44
0.0
173
     0
291
     1
 45
0.0
1001
ACAD
1000
AcDbSavedByObjectVersion
1070
     0
  0
VISUALSTYLE
  5
2C
102
{ACAD_REACTORS
330
2A
102
}
330
2A
100
AcDbVisualStyle
  2
FlatWithEdges
 70
     1
 71
     2
 72
     1
 73
     1
 90
        2
 40
-0.6
 41
30.0
 62
     5
 63
     7
 74
     1
 91
        4
 64
     7
 65
   257
 75
     1
175
     1
 42
1.0
 92
        0
 66
   257
 43
1.0
 76
     1
 77
     6
 78
     2
 67
     7
 79
     5
170
     0
171
     0
290
     0
174
     0
 93
       13
 44
0.0
173
     0
291
     1
 45
0.0
1001
ACAD
1000
AcDbSavedByObjectVersion
1070
     0
  0
VISUALSTYLE
  5
2D
102
{ACAD_REACTORS
330
2A
102
}
330
2A
100
AcDbVisualStyle
  2
Gouraud
 70
     2
 71
     2
 72
     2
 73
     1
 90
        2
 40
-0.6
 41
30.0
 62
     5
 63
     7
 74
     0
 91
        4
 64
     7
 65
   257
 75
     1
175
     1
 42
1.0
 92
        0
 66
     7
 43
1.0
 76
     1
 77
     6
 78
     2
 67
     7
 79
     5
170
     0
171
     0
290
     0
174
     0
 93
       13
 44
0.0
173
     0
291
     1
 45
0.0
1001
ACAD
1000
AcDbSavedByObjectVersion
1070
     0
  0
VISUALSTYLE
  5
2E
102
{ACAD_REACTORS
330
2A
102
}
330
2A
100
AcDbVisualStyle
  2
GouraudWithEdges
 70
     3
 71
     2
 72
     2
 73
     1
 90
        2
 40
-0.6
 41
30.0
 62
     5
 63
     7
 74
     1
 91
        4
 64
     7
 65
   257
 75
     1
175
     1
 42
1.0
 92
        0
 66
   257
 43
1.0
 76
     1
 77
     6
 78
     2
 67
     7
 79
     5
170
     0
171
     0
290
     0
174
     0
 93
       13
 44
0.0
173
     0
291
     1
 45
0.0
1001
ACAD
1000
AcDbSavedByObjectVersion
1070
     0
  0
VISUALSTYLE
  5
38
102
{ACAD_REACTORS
330
2A
102
}
330
2A
100
AcDbVisualStyle
  2
Linepattern
 70
    14
 71
     2
 72
     2
 73
     0
 90
        0
 40
-0.6
 41
-30.0
 62
     5
 63
     7
 74
     1
 91
        4
 64
     7
 65
   257
 75
     7
175
     7
 42
1.0
 92
        8
 66
     7
 43
1.0
 76
     1
 77
     6
 78
     2
 67
     7
 79
     5
170
     0
171
     0
290
     0
174
     0
 93
        1
 44
0.0
173
     0
291
     1
 45
0.0
1001
ACAD
1000
AcDbSavedByObjectVersion
1070
     0
  0
VISUALSTYLE
  5
33
102
{ACAD_REACTORS
330
2A
102
}
330
2A
100
AcDbVisualStyle
  2
Realistic
 70
     8
 71
     2
 72
     2
 73
     0
 90
        0
 40
-0.6
 41
-30.0
 62
     5
 63
     7
 74
     1
 91
        0
 64
     7
 65
   257
 75
     1
175
     1
 42
1.0
 92
        8
 66
     8
 43
1.0
 76
     1
 77
     6
 78
     2
 67
     7
 79
     5
170
     0
171
     0
290
     0
174
     0
 93
       13
 44
0.0
173
     0
291
     0
 45
0.0
1001
ACAD
1000
AcDbSavedByObjectVersion
1070
     0
  0
VISUALSTYLE
  5
37
102
{ACAD_REACTORS
330
2A
102
}
330
2A
100
AcDbVisualStyle
  2
Thicken
 70
    13
 71
     2
 72
     2
 73
     0
 90
        0
 40
-0.6
 41
-30.0
 62
     5
 63
     7
 74
     1
 91
        4
 64
     7
 65
   257
 75
     1
175
     1
 42
1.0
 92
       12
 66
     7
 43
1.0
 76
     1
 77
     6
 78
     2
 67
     7
 79
     5
170
     0
171
     0
290
     0
174
     0
 93
        1
 44
0.0
173
     0
291
     1
 45
0.0
1001
ACAD
1000
AcDbSavedByObjectVersion
1070
     0
  0
ENDSEC
  0
EOF