  0
SECTION
  2
HEADER
  9
$ACADVER
  1
AC1015
  9
$ACADMAINTVER
 70
    20
  9
$DWGCODEPAGE
  3
ANSI_1252
  9
$INSBASE
 10
0.0
 20
0.0
 30
0.0
  9
$EXTMIN
 10
-471.5901624580805
 20
-26.30883317081362
 30
0.0
  9
$EXTMAX
 10
149.1205156605751
 20
635.0867094789398
 30
0.0
  9
$LIMMIN
 10
0.0
 20
0.0
  9
$LIMMAX
 10
420.0
 20
297.0
  9
$ORTHOMODE
 70
     1
  9
$REGENMODE
 70
     1
  9
$FILLMODE
 70
     1
  9
$QTEXTMODE
 70
     0
  9
$MIRRTEXT
 70
     0
  9
$LTSCALE
 40
1.0
  9
$ATTMODE
 70
     1
  9
$TEXTSIZE
 40
2.5
  9
$TRACEWID
 40
1.0
  9
$TEXTSTYLE
  7
Standard
  9
$CLAYER
  8
0
  9
$CELTYPE
  6
ByLayer
  9
$CECOLOR
 62
   256
  9
$CELTSCALE
 40
1.0
  9
$DISPSILH
 70
     0
  9
$DIMSCALE
 40
1.0
  9
$DIMASZ
 40
2.5
  9
$DIMEXO
 40
0.625
  9
$DIMDLI
 40
3.75
  9
$DIMRND
 40
0.0
  9
$DIMDLE
 40
0.0
  9
$DIMEXE
 40
1.25
  9
$DIMTP
 40
0.0
  9
$DIMTM
 40
0.0
  9
$DIMTXT
 40
2.5
  9
$DIMCEN
 40
2.5
  9
$DIMTSZ
 40
0.0
  9
$DIMTOL
 70
     0
  9
$DIMLIM
 70
     0
  9
$DIMTIH
 70
     0
  9
$DIMTOH
 70
     0
  9
$DIMSE1
 70
     0
  9
$DIMSE2
 70
     0
  9
$DIMTAD
 70
     1
  9
$DIMZIN
 70
     8
  9
$DIMBLK
  1

  9
$DIMASO
 70
     1
  9
$DIMSHO
 70
     1
  9
$DIMPOST
  1

  9
$DIMAPOST
  1

  9
$DIMALT
 70
     0
  9
$DIMALTD
 70
     3
  9
$DIMALTF
 40
0.03937007874016
  9
$DIMLFAC
 40
1.0
  9
$DIMTOFL
 70
     1
  9
$DIMTVP
 40
0.0
  9
$DIMTIX
 70
     0
  9
$DIMSOXD
 70
     0
  9
$DIMSAH
 70
     0
  9
$DIMBLK1
  1

  9
$DIMBLK2
  1

  9
$DIMSTYLE
  2
ISO-25
  9
$DIMCLRD
 70
     0
  9
$DIMCLRE
 70
     0
  9
$DIMCLRT
 70
     0
  9
$DIMTFAC
 40
1.0
  9
$DIMGAP
 40
0.625
  9
$DIMJUST
 70
     0
  9
$DIMSD1
 70
     0
  9
$DIMSD2
 70
     0
  9
$DIMTOLJ
 70
     0
  9
$DIMTZIN
 70
     8
  9
$DIMALTZ
 70
     0
  9
$DIMALTTZ
 70
     0
  9
$DIMUPT
 70
     0
  9
$DIMDEC
 70
     2
  9
$DIMTDEC
 70
     2
  9
$DIMALTU
 70
     2
  9
$DIMALTTD
 70
     3
  9
$DIMTXSTY
  7
Standard
  9
$DIMAUNIT
 70
     0
  9
$DIMADEC
 70
     0
  9
$DIMALTRND
 40
0.0
  9
$DIMAZIN
 70
     0
  9
$DIMDSEP
 70
    44
  9
$DIMATFIT
 70
     3
  9
$DIMFRAC
 70
     0
  9
$DIMLDRBLK
  1

  9
$DIMLUNIT
 70
     2
  9
$DIMLWD
 70
    -2
  9
$DIMLWE
 70
    -2
  9
$DIMTMOVE
 70
     0
  9
$LUNITS
 70
     2
  9
$LUPREC
 70
     4
  9
$SKETCHINC
 40
1.0
  9
$FILLETRAD
 40
0.0
  9
$AUNITS
 70
     0
  9
$AUPREC
 70
     0
  9
$MENU
  1
.
  9
$ELEVATION
 40
0.0
  9
$PELEVATION
 40
0.0
  9
$THICKNESS
 40
0.0
  9
$LIMCHECK
 70
     0
  9
$CHAMFERA
 40
0.0
  9
$CHAMFERB
 40
0.0
  9
$CHAMFERC
 40
0.0
  9
$CHAMFERD
 40
0.0
  9
$SKPOLY
 70
     0
  9
$TDCREATE
 40
2454550.307324757
  9
$TDUCREATE
 40
2454550.265658090
  9
$TDUPDATE
 40
2454550.407354595
  9
$TDUUPDATE
 40
2454550.365687928
  9
$TDINDWG
 40
0.0305533912
  9
$TDUSRTIMER
 40
0.0305526620
  9
$USRTIMER
 70
     1
  9
$ANGBASE
 50
0.0
  9
$ANGDIR
 70
     0
  9
$PDMODE
 70
     0
  9
$PDSIZE
 40
0.0
  9
$PLINEWID
 40
0.0
  9
$SPLFRAME
 70
     0
  9
$SPLINETYPE
 70
     6
  9
$SPLINESEGS
 70
     8
  9
$HANDSEED
  5
2F0
  9
$SURFTAB1
 70
     6
  9
$SURFTAB2
 70
     6
  9
$SURFTYPE
 70
     6
  9
$SURFU
 70
     6
  9
$SURFV
 70
     6
  9
$UCSBASE
  2

  9
$UCSNAME
  2

  9
$UCSORG
 10
0.0
 20
0.0
 30
0.0
  9
$UCSXDIR
 10
1.0
 20
0.0
 30
0.0
  9
$UCSYDIR
 10
0.0
 20
1.0
 30
0.0
  9
$UCSORTHOREF
  2

  9
$UCSORTHOVIEW
 70
     0
  9
$UCSORGTOP
 10
0.0
 20
0.0
 30
0.0
  9
$UCSORGBOTTOM
 10
0.0
 20
0.0
 30
0.0
  9
$UCSORGLEFT
 10
0.0
 20
0.0
 30
0.0
  9
$UCSORGRIGHT
 10
0.0
 20
0.0
 30
0.0
  9
$UCSORGFRONT
 10
0.0
 20
0.0
 30
0.0
  9
$UCSORGBACK
 10
0.0
 20
0.0
 30
0.0
  9
$PUCSBASE
  2

  9
$PUCSNAME
  2

  9
$PUCSORG
 10
0.0
 20
0.0
 30
0.0
  9
$PUCSXDIR
 10
1.0
 20
0.0
 30
0.0
  9
$PUCSYDIR
 10
0.0
 20
1.0
 30
0.0
  9
$PUCSORTHOREF
  2

  9
$PUCSORTHOVIEW
 70
     0
  9
$PUCSORGTOP
 10
0.0
 20
0.0
 30
0.0
  9
$PUCSORGBOTTOM
 10
0.0
 20
0.0
 30
0.0
  9
$PUCSORGLEFT
 10
0.0
 20
0.0
 30
0.0
  9
$PUCSORGRIGHT
 10
0.0
 20
0.0
 30
0.0
  9
$PUCSORGFRONT
 10
0.0
 20
0.0
 30
0.0
  9
$PUCSORGBACK
 10
0.0
 20
0.0
 30
0.0
  9
$USERI1
 70
     0
  9
$USERI2
 70
     0
  9
$USERI3
 70
     0
  9
$USERI4
 70
     0
  9
$USERI5
 70
     0
  9
$USERR1
 40
0.0
  9
$USERR2
 40
0.0
  9
$USERR3
 40
0.0
  9
$USERR4
 40
0.0
  9
$USERR5
 40
0.0
  9
$WORLDVIEW
 70
     1
  9
$SHADEDGE
 70
     3
  9
$SHADEDIF
 70
    70
  9
$TILEMODE
 70
     1
  9
$MAXACTVP
 70
    64
  9
$PINSBASE
 10
0.0
 20
0.0
 30
0.0
  9
$PLIMCHECK
 70
     0
  9
$PEXTMIN
 10
0.0
 20
0.0
 30
0.0
  9
$PEXTMAX
 10
0.0
 20
0.0
 30
0.0
  9
$PLIMMIN
 10
0.0
 20
0.0
  9
$PLIMMAX
 10
12.0
 20
9.0
  9
$UNITMODE
 70
     0
  9
$VISRETAIN
 70
     1
  9
$PLINEGEN
 70
     0
  9
$PSLTSCALE
 70
     1
  9
$TREEDEPTH
 70
  3020
  9
$CMLSTYLE
  2
Standard
  9
$CMLJUST
 70
     0
  9
$CMLSCALE
 40
20.0
  9
$PROXYGRAPHICS
 70
     1
  9
$MEASUREMENT
 70
     1
  9
$CELWEIGHT
370
    -1
  9
$ENDCAPS
280
     0
  9
$JOINSTYLE
280
     0
  9
$LWDISPLAY
290
     0
  9
$INSUNITS
 70
     4
  9
$HYPERLINKBASE
  1

  9
$STYLESHEET
  1

  9
$XEDIT
290
     1
  9
$CEPSNTYPE
380
     0
  9
$PSTYLEMODE
290
     1
  9
$FINGERPRINTGUID
  2
{4A4C6E15-96AD-4E98-A744-8BD4BACD0A4F}
  9
$VERSIONGUID
  2
{191DB5BC-7231-4E96-873C-C6D7F149515E}
  9
$EXTNAMES
290
     1
  9
$PSVPSCALE
 40
0.0
  9
$OLESTARTUP
290
     0
  0
ENDSEC
  0
SECTION
  2
CLASSES
  0
CLASS
  1
ACDBDICTIONARYWDFLT
  2
AcDbDictionaryWithDefault
  3
ObjectDBX Classes
 90
        0
280
     0
281
     0
  0
CLASS
  1
DICTIONARYVAR
  2
AcDbDictionaryVar
  3
ObjectDBX Classes
 90
        0
280
     0
281
     0
  0
CLASS
  1
TABLESTYLE
  2
AcDbTableStyle
  3
ObjectDBX Classes
 90
     2047
280
     0
281
     0
  0
CLASS
  1
SORTENTSTABLE
  2
AcDbSortentsTable
  3
ObjectDBX Classes
 90
        0
280
     0
281
     0
  0
CLASS
  1
ACDBPLACEHOLDER
  2
AcDbPlaceHolder
  3
ObjectDBX Classes
 90
        0
280
     0
281
     0
  0
CLASS
  1
LAYOUT
  2
AcDbLayout
  3
ObjectDBX Classes
 90
        0
280
     0
281
     0
  0
ENDSEC
  0
SECTION
  2
TABLES
  0
TABLE
  2
VPORT
  5
8
330
0
100
AcDbSymbolTable
 70
     2
  0
VPORT
  5
2E7
330
8
100
AcDbSymbolTableRecord
100
AcDbViewportTableRecord
  2
*Active
 70
     0
 10
0.0
 20
0.0
 11
1.0
 21
1.0
 12
-63.09011336460867
 22
270.8638576354247
 13
0.0
 23
0.0
 14
10.0
 24
10.0
 15
10.0
 25
10.0
 16
0.0
 26
0.0
 36
1.0
 17
0.0
 27
0.0
 37
0.0
 40
1065.780007002337
 41
1.454088050314465
 42
50.0
 43
0.0
 44
0.0
 50
0.0
 51
0.0
 71
     0
 72
  1000
 73
     1
 74
     0
 75
     0
 76
     0
 77
     0
 78
     0
281
     0
 65
     1
110
0.0
120
0.0
130
0.0
111
1.0
121
0.0
131
0.0
112
0.0
122
1.0
132
0.0
 79
     0
146
0.0
  0
ENDTAB
  0
TABLE
  2
LTYPE
  5
5
330
0
100
AcDbSymbolTable
 70
     1
  0
LTYPE
  5
14
330
5
100
AcDbSymbolTableRecord
100
AcDbLinetypeTableRecord
  2
ByBlock
 70
     0
  3

 72
    65
 73
     0
 40
0.0
  0
LTYPE
  5
15
330
5
100
AcDbSymbolTableRecord
100
AcDbLinetypeTableRecord
  2
ByLayer
 70
     0
  3

 72
    65
 73
     0
 40
0.0
  0
LTYPE
  5
16
330
5
100
AcDbSymbolTableRecord
100
AcDbLinetypeTableRecord
  2
Continuous
 70
     0
  3
Solid line
 72
    65
 73
     0
 40
0.0
  0
ENDTAB
  0
TABLE
  2
LAYER
  5
2
102
{ACAD_XDICTIONARY
360
118
102
}
330
0
100
AcDbSymbolTable
 70
     1
  0
LAYER
  5
10
330
2
100
AcDbSymbolTableRecord
100
AcDbLayerTableRecord
  2
0
 70
     0
 62
     7
  6
Continuous
370
    -3
390
F
  0
ENDTAB
  0
TABLE
  2
STYLE
  5
3
330
0
100
AcDbSymbolTable
 70
     2
  0
STYLE
  5
11
330
3
100
AcDbSymbolTableRecord
100
AcDbTextStyleTableRecord
  2
Standard
 70
     0
 40
0.0
 41
1.0
 50
0.0
 71
     0
 42
2.5
  3
txt
  4

  0
STYLE
  5
112
330
3
100
AcDbSymbolTableRecord
100
AcDbTextStyleTableRecord
  2
ISO
 70
     0
 40
0.0
 41
1.0
 50
0.0
 71
     0
 42
2.0
  3
ISOCP.SHX
  4

  0
ENDTAB
  0
TABLE
  2
VIEW
  5
6
330
0
100
AcDbSymbolTable
 70
     0
  0
ENDTAB
  0
TABLE
  2
UCS
  5
7
330
0
100
AcDbSymbolTable
 70
     0
  0
ENDTAB
  0
TABLE
  2
APPID
  5
9
330
0
100
AcDbSymbolTable
 70
     6
  0
APPID
  5
12
330
9
100
AcDbSymbolTableRecord
100
AcDbRegAppTableRecord
  2
ACAD
 70
     0
  0
APPID
  5
9E
330
9
100
AcDbSymbolTableRecord
100
AcDbRegAppTableRecord
  2
ACAD_PSEXT
 70
     0
  0
APPID
  5
114
330
9
100
AcDbSymbolTableRecord
100
AcDbRegAppTableRecord
  2
ACAD_DSTYLE_DIMEXT_ENABLED
 70
     0
  0
APPID
  5
115
330
9
100
AcDbSymbolTableRecord
100
AcDbRegAppTableRecord
  2
ACAD_DSTYLE_DIMEXT_LENGTH
 70
     0
  0
APPID
  5
116
330
9
100
AcDbSymbolTableRecord
100
AcDbRegAppTableRecord
  2
ACAD_DSTYLE_DIMJOGGED_JOGANGLE_SYMBOL
 70
     0
  0
APPID
  5
117
330
9
100
AcDbSymbolTableRecord
100
AcDbRegAppTableRecord
  2
ACAD_DSTYLE_DIMARC_LENGTH_SYMBOL
 70
     0
  0
ENDTAB
  0
TABLE
  2
DIMSTYLE
  5
A
330
0
100
AcDbSymbolTable
 70
     2
100
AcDbDimStyleTable
 71
     1
340
27
  0
DIMSTYLE
105
27
330
A
100
AcDbSymbolTableRecord
100
AcDbDimStyleTableRecord
  2
ISO-25
 70
     0
 41
2.5
 42
0.625
 43
3.75
 44
1.25
 73
     0
 74
     0
 77
     1
 78
     8
140
2.5
141
2.5
143
0.03937007874016
147
0.625
171
     3
172
     1
271
     2
272
     2
274
     3
278
    44
283
     0
284
     8
340
11
  0
DIMSTYLE
105
113
330
A
100
AcDbSymbolTableRecord
100
AcDbDimStyleTableRecord
  2
STANDARD
 70
     0
 40
0.0
 41
3.5
 42
0.1
 43
7.0
 44
1.8
 73
     0
 74
     0
 77
     1
140
5.0
141
1.5
146
0.8
147
1.1
172
     1
176
   256
177
   256
178
     6
271
     0
272
     1
284
     8
288
     1
289
     0
340
112
  0
ENDTAB
  0
TABLE
  2
BLOCK_RECORD
  5
1
330
0
100
AcDbSymbolTable
 70
     2
  0
BLOCK_RECORD
  5
1F
102
{ACAD_XDICTIONARY
360
1DD
102
}
330
1
100
AcDbSymbolTableRecord
100
AcDbBlockTableRecord
  2
*Model_Space
340
22
  0
BLOCK_RECORD
  5
D2
330
1
100
AcDbSymbolTableRecord
100
AcDbBlockTableRecord
  2
*Paper_Space
340
D3
  0
BLOCK_RECORD
  5
D6
330
1
100
AcDbSymbolTableRecord
100
AcDbBlockTableRecord
  2
*Paper_Space0
340
D7
  0
BLOCK_RECORD
  5
226
330
1
100
AcDbSymbolTableRecord
100
AcDbBlockTableRecord
  2
12040-P
340
0
310
2800000020000000200000000100080000000000000400000000000000000000000000000000000000000000000080000080000000808000800000008000800080800000C0C0C000C0DCC000F0CAA6000020400000206000002080000020A0000020C0000020E00000400000004020000040400000406000004080000040A0
310
000040C0000040E00000600000006020000060400000606000006080000060A0000060C0000060E00000800000008020000080400000806000008080000080A0000080C0000080E00000A0000000A0200000A0400000A0600000A0800000A0A00000A0C00000A0E00000C0000000C0200000C0400000C0600000C0800000C0
310
A00000C0C00000C0E00000E0000000E0200000E0400000E0600000E0800000E0A00000E0C00000E0E00040000000400020004000400040006000400080004000A0004000C0004000E00040200000402020004020400040206000402080004020A0004020C0004020E000404000004040200040404000404060004040800040
310
40A0004040C0004040E00040600000406020004060400040606000406080004060A0004060C0004060E00040800000408020004080400040806000408080004080A0004080C0004080E00040A0000040A0200040A0400040A0600040A0800040A0A00040A0C00040A0E00040C0000040C0200040C0400040C0600040C08000
310
40C0A00040C0C00040C0E00040E0000040E0200040E0400040E0600040E0800040E0A00040E0C00040E0E00080000000800020008000400080006000800080008000A0008000C0008000E00080200000802020008020400080206000802080008020A0008020C0008020E00080400000804020008040400080406000804080
310
008040A0008040C0008040E00080600000806020008060400080606000806080008060A0008060C0008060E00080800000808020008080400080806000808080008080A0008080C0008080E00080A0000080A0200080A0400080A0600080A0800080A0A00080A0C00080A0E00080C0000080C0200080C0400080C0600080C0
310
800080C0A00080C0C00080C0E00080E0000080E0200080E0400080E0600080E0800080E0A00080E0C00080E0E000C0000000C0002000C0004000C0006000C0008000C000A000C000C000C000E000C0200000C0202000C0204000C0206000C0208000C020A000C020C000C020E000C0400000C0402000C0404000C0406000C0
310
408000C040A000C040C000C040E000C0600000C0602000C0604000C0606000C0608000C060A000C060C000C060E000C0800000C0802000C0804000C0806000C0808000C080A000C080C000C080E000C0A00000C0A02000C0A04000C0A06000C0A08000C0A0A000C0A0C000C0A0E000C0C00000C0C02000C0C04000C0C06000
310
C0C08000C0C0A000F0FBFF00A4A0A000808080000000FF0000FF000000FFFF00FF000000FF00FF00FFFF0000FFFFFF0000000000000000000000000000000000000000000000000000000000000000000000000000000000000000000000000000000000000000000000000000000000000000000000000000000000000000
310
000000000000000000000000000000000000000000000000000000000000000000000000000000000000000000000000000000FFFFFFFFFFFFFFFFFFFFFFFFFFFFFFFFFFFFFFFFFFFFFFFFFFFFFFFF00000000FF00FFFFFFFFFFFFFFFFFFFFFFFFFFFFFFFFFFFFFFFFFFFFFFFF0000FF0000FF00FF00000000000000000000
310
0000000000000000000000000000FF00FF0000FF00FF00FFFFFFFFFFFFFFFFFFFFFFFFFFFFFFFFFFFFFFFFFFFF00FF00FF0000FF00FF00FF0000000000000000000000000000000000000000FF00FF00FF0000FF00FF00FF0000000000000000000000000000000000000000FF00FF00FF0000FF00FF00FF00000000000000
310
00000000000000000000000000FF00FF00FF0000FF00FF00FF0000000000000000000000000000000000000000FF00FF00FF0000FF00FF00FF0000000000000000000000000000000000000000FF00FF00FF0000FF00FF00FF0000000000000000000000000000000000000000FF00FF00FF0000FF00FF00FF000000000000
310
0000000000000000000000000000FF00FF00FF0000FF00FF00FF0000000000000000000000000000000000000000FF00FF00FF0000FF00FF00FF000000000000000000FFFF000000000000000000FF00FF00FF0000FF00FF00FF0000000000000000FFFFFFFF0000000000000000FF00FF00FF0000FF00FF00FF0000000000
310
000000FFFFFFFF0000000000000000FF00FF00FF0000FF00FF00FF000000000000000000FFFF000000000000000000FF00FF00FF0000FF00FF00FF00000000FFFFFFFFFFFFFFFFFFFFFFFF00000000FF00FF00FF0000FF00FF00FFFFFFFFFFFFFFFFFFFFFFFFFFFFFFFFFFFFFFFFFFFF00FF00FF0000FF00FF000000000000
310
000000000000000000000000000000000000FF00FF0000FF00FF0000000000000000000000FFFF0000000000000000000000FF00FF0000FF00FF0000000000000000000000FFFF0000000000000000000000FF00FF0000FF00FF0000000000000000000000FF000000000000000000000000FF00FF0000FFFFFFFFFFFFFFFF
310
FFFFFFFFFFFFFFFFFFFFFFFFFFFFFFFFFFFFFFFFFFFF0000FFFFFFFFFFFFFFFFFFFFFFFFFFFFFFFFFFFFFFFFFFFFFFFFFFFFFFFFFFFF00000000000000000000000000000000000000000000000000000000000000000000000000000000000000000000000000000000000000000000000000000000000000000000000000
310
0000000000000000000000000000000000000000000000000000000000000000000000000000000000000000000000000000000000000000
102
{BLKREFS
331
2B8
102
}
1001
ACAD
1000
DesignCenter Data
1002
{
1070
     1
1070
     4
1002
}
  0
ENDTAB
  0
ENDSEC
  0
SECTION
  2
BLOCKS
  0
BLOCK
  5
20
330
1F
100
AcDbEntity
  8
0
100
AcDbBlockBegin
  2
*Model_Space
 70
     0
 10
0.0
 20
0.0
 30
0.0
  3
*Model_Space
  1

  0
ENDBLK
  5
21
330
1F
100
AcDbEntity
  8
0
100
AcDbBlockEnd
  0
BLOCK
  5
D4
330
D2
100
AcDbEntity
 67
     1
  8
0
100
AcDbBlockBegin
  2
*Paper_Space
 70
     0
 10
0.0
 20
0.0
 30
0.0
  3
*Paper_Space
  1

  0
ENDBLK
  5
D5
330
D2
100
AcDbEntity
 67
     1
  8
0
100
AcDbBlockEnd
  0
BLOCK
  5
D8
330
D6
100
AcDbEntity
  8
0
100
AcDbBlockBegin
  2
*Paper_Space0
 70
     0
 10
0.0
 20
0.0
 30
0.0
  3
*Paper_Space0
  1

  0
ENDBLK
  5
D9
330
D6
100
AcDbEntity
  8
0
100
AcDbBlockEnd
  0
BLOCK
  5
227
330
226
100
AcDbEntity
  8
0
100
AcDbBlockBegin
  2
12040-P
 70
     0
 10
0.0
 20
0.0
 30
0.0
  3
12040-P
  1

  0
ARC
  5
229
330
226
100
AcDbEntity
  8
0
100
AcDbCircle
 10
250.0000000000004
 20
-450.0
 30
0.0
 40
50.0
100
AcDbArc
 50
270.0
 51
0.0
  0
ARC
  5
22A
330
226
100
AcDbEntity
  8
0
100
AcDbCircle
 10
215.0000000000005
 20
-415.0
 30
0.0
 40
15.0
100
AcDbArc
 50
270.0
 51
0.0
  0
ARC
  5
22B
330
226
100
AcDbEntity
  8
0
100
AcDbCircle
 10
215.0000000000005
 20
-155.0
 30
0.0
 40
15.0
100
AcDbArc
 50
0.0
 51
90.0
  0
LINE
  5
22C
330
226
100
AcDbEntity
  8
0
100
AcDbLine
 10
300.0000000000004
 20
0.0
 30
0.0
 11
300.0000000000004
 21
-450.0
 31
0.0
  0
LINE
  5
22D
330
226
100
AcDbEntity
  8
0
100
AcDbLine
 10
0.0
 20
-500.0
 30
0.0
 11
250.0000000000004
 21
-500.0
 31
0.0
  0
LINE
  5
22E
330
226
100
AcDbEntity
  8
0
100
AcDbLine
 10
0.0
 20
-140.0
 30
0.0
 11
215.0000000000005
 21
-140.0
 31
0.0
  0
LINE
  5
22F
330
226
100
AcDbEntity
  8
0
100
AcDbLine
 10
230.0000000000005
 20
-155.0
 30
0.0
 11
230.0000000000005
 21
-415.0
 31
0.0
  0
LINE
  5
230
330
226
100
AcDbEntity
  8
0
100
AcDbLine
 10
0.0
 20
-430.0
 30
0.0
 11
215.0000000000005
 21
-430.0
 31
0.0
  0
LINE
  5
231
330
226
100
AcDbEntity
  8
0
100
AcDbLine
 10
288.9561653137212
 20
0.0
 30
0.0
 11
296.8346178531651
 21
0.0
 31
0.0
  0
LINE
  5
232
330
226
100
AcDbEntity
  8
0
100
AcDbLine
 10
0.0
 20
0.0
 30
0.0
 11
288.9561653137212
 21
0.0
 31
0.0
  0
LINE
  5
233
330
226
100
AcDbEntity
  8
0
100
AcDbLine
 10
296.8346178531651
 20
0.0
 30
0.0
 11
299.9240458011632
 21
0.0
 31
0.0
  0
LINE
  5
234
330
226
100
AcDbEntity
  8
0
100
AcDbLine
 10
300.0000119209294
 20
0.0
 30
0.0
 11
300.0000119209294
 21
-449.999988079071
 31
0.0
  0
LINE
  5
235
330
226
100
AcDbEntity
  8
0
100
AcDbLine
 10
299.9240458011632
 20
0.0
 30
0.0
 11
300.0000119209294
 21
0.0
 31
0.0
  0
ARC
  5
236
330
226
100
AcDbEntity
  8
0
100
AcDbCircle
 10
250.0000000000004
 20
-450.0
 30
0.0
 40
50.0
100
AcDbArc
 50
270.0
 51
0.0
  0
LINE
  5
237
330
226
100
AcDbEntity
  8
0
100
AcDbLine
 10
250.0
 20
-500.0
 30
0.0
 11
0.0
 21
-499.9999999999995
 31
0.0
  0
CIRCLE
  5
238
330
226
100
AcDbEntity
  8
0
100
AcDbCircle
 10
0.0
 20
-75.0
 30
0.0
 40
17.5
  0
ARC
  5
239
330
226
100
AcDbEntity
  8
0
100
AcDbCircle
 10
-0.0000000000004547
 20
-210.0
 30
0.0
 40
22.99999999999997
100
AcDbArc
 50
270.0
 51
90.0
  0
LINE
  5
23A
330
226
100
AcDbEntity
  8
0
100
AcDbLine
 10
296.8346178531651
 20
-11.31271757185459
 30
0.0
 11
296.8346178531651
 21
0.0
 31
0.0
  0
ARC
  5
23B
330
226
100
AcDbEntity
  8
0
100
AcDbCircle
 10
291.5971126902173
 20
-11.08828215981009
 30
0.0
 40
5.237659419071436
100
AcDbArc
 50
271.2746581651041
 51
359.5602647552755
  0
LINE
  5
23C
330
226
100
AcDbEntity
  8
0
100
AcDbLine
 10
288.9561653137212
 20
-16.33825525641441
 30
0.0
 11
0.0
 21
-16.33825525641441
 31
0.0
  0
LINE
  5
23D
330
226
100
AcDbEntity
  8
0
100
AcDbLine
 10
259.6308887004857
 20
-17.75619015097618
 30
0.0
 11
259.6346437931061
 21
-17.74864271283149
 31
0.0
  0
ELLIPSE
  5
23E
330
226
100
AcDbEntity
  8
0
100
AcDbEllipse
 10
486.7416999879337
 20
226.9290330492731
 30
0.0
 11
4951.463550761808
 21
15.14589836169478
 31
0.0
210
0.0
220
0.0
230
1.0
 40
0.0493282417056643
 41
4.650457697595785
 42
4.666354583535857
  0
LINE
  5
23F
330
226
100
AcDbEntity
  8
0
100
AcDbLine
 10
0.0
 20
-17.78711006045341
 30
0.0
 11
181.0328811407089
 21
-17.78711006045341
 31
0.0
  0
LINE
  5
240
330
226
100
AcDbEntity
  8
0
100
AcDbLine
 10
299.9240458011632
 20
-22.24761433899403
 30
0.0
 11
299.9240458011632
 21
0.0
 31
0.0
  0
LINE
  5
241
330
226
100
AcDbEntity
  8
0
100
AcDbLine
 10
299.9240458011632
 20
-22.83701300621033
 30
0.0
 11
299.9240458011632
 21
-22.24761433899403
 31
0.0
  0
ARC
  5
242
330
226
100
AcDbEntity
  8
0
100
AcDbCircle
 10
249.9973845519035
 20
-449.9975883111201
 30
0.0
 40
14.81916804299105
100
AcDbArc
 50
270.0101121829375
 51
359.9907217074847
  0
ARC
  5
243
330
226
100
AcDbEntity
  8
0
100
AcDbCircle
 10
259.6017915099273
 20
-22.97572838565066
 30
0.0
 40
5.219691948671707
100
AcDbArc
 50
4.396871961062443
 51
89.68060282759282
  0
LINE
  5
244
330
226
100
AcDbEntity
  8
0
100
AcDbLine
 10
264.82105255127
 20
-22.95687422156334
 30
0.0
 11
264.8061215877537
 21
-22.57556281983852
 31
0.0
  0
ELLIPSE
  5
245
330
226
100
AcDbEntity
  8
0
100
AcDbEllipse
 10
292.5995599891853
 20
-487.602605854092
 30
0.0
 11
-1.029428559026399
 21
1124.985719294907
 31
0.0
210
0.0
220
0.0
230
1.0
 40
0.0246795114090912
 41
1.533735615716246
 42
1.537342553740759
  0
LINE
  5
246
330
226
100
AcDbEntity
  8
0
100
AcDbLine
 10
264.8163735866547
 20
-445.9447562694549
 30
0.0
 11
264.8163735866547
 21
-66.17672741413116
 31
0.0
  0
ELLIPSE
  5
247
330
226
100
AcDbEntity
  8
0
100
AcDbEllipse
 10
386.9575153844366
 20
116.9605612493287
 30
0.0
 11
4.525601023640749
 21
4945.691935768175
 31
0.0
210
0.0
220
0.0
230
0.9999999999999998
 40
0.0246795114090911
 41
1.599113455809693
 42
1.607857037873541
  0
LINE
  5
248
330
226
100
AcDbEntity
  8
0
100
AcDbLine
 10
0.0
 20
-464.8163914680476
 30
0.0
 11
245.9447681903843
 21
-464.816391468048
 31
0.0
  0
ELLIPSE
  5
249
330
226
100
AcDbEntity
  8
0
100
AcDbEllipse
 10
287.6026058540897
 20
-492.5995599891884
 30
0.0
 11
1124.985719294907
 21
-1.029428559026186
 31
0.0
210
0.0
220
0.0
230
1.0
 40
0.0246795114090935
 41
1.604250099849031
 42
1.607857037873543
  0
LINE
  5
24A
330
226
100
AcDbEntity
  8
0
100
AcDbLine
 10
213.7686759233479
 20
-140.2220726013183
 30
0.0
 11
212.4070227146153
 21
-140.4324024915695
 31
0.0
  0
LINE
  5
24B
330
226
100
AcDbEntity
  8
0
100
AcDbLine
 10
212.4070227146153
 20
-140.4324024915695
 30
0.0
 11
210.8221650123596
 21
-140.6321972608566
 31
0.0
  0
LINE
  5
24C
330
226
100
AcDbEntity
  8
0
100
AcDbLine
 10
210.8221650123596
 20
-140.6321972608566
 30
0.0
 11
209.014087915421
 21
-140.8214718103408
 31
0.0
  0
LINE
  5
24D
330
226
100
AcDbEntity
  8
0
100
AcDbLine
 10
209.014087915421
 20
-140.8214718103408
 30
0.0
 11
206.9828212261204
 21
-141.0002261400222
 31
0.0
  0
LINE
  5
24E
330
226
100
AcDbEntity
  8
0
100
AcDbLine
 10
206.9828212261204
 20
-141.0002261400222
 30
0.0
 11
203.9658874273305
 21
-141.2212252616882
 31
0.0
  0
LINE
  5
24F
330
226
100
AcDbEntity
  8
0
100
AcDbLine
 10
203.9658874273305
 20
-141.2212252616882
 30
0.0
 11
200.5236744880676
 21
-141.4300948381424
 31
0.0
  0
LINE
  5
250
330
226
100
AcDbEntity
  8
0
100
AcDbLine
 10
200.5236744880676
 20
-141.4300948381424
 30
0.0
 11
196.6338604688649
 21
-141.628697514534
 31
0.0
  0
LINE
  5
251
330
226
100
AcDbEntity
  8
0
100
AcDbLine
 10
196.6338604688649
 20
-141.628697514534
 30
0.0
 11
192.1494454145431
 21
-141.8257504701614
 31
0.0
  0
LINE
  5
252
330
226
100
AcDbEntity
  8
0
100
AcDbLine
 10
192.1494454145431
 20
-141.8257504701614
 30
0.0
 11
185.8607977628712
 21
-142.0644670724868
 31
0.0
  0
LINE
  5
253
330
226
100
AcDbEntity
  8
0
100
AcDbLine
 10
185.8607977628712
 20
-142.0644670724868
 30
0.0
 11
178.8401603698735
 21
-142.2943621873855
 31
0.0
  0
LINE
  5
254
330
226
100
AcDbEntity
  8
0
100
AcDbLine
 10
178.8401603698735
 20
-142.2943621873855
 30
0.0
 11
171.0875332355504
 21
-142.5154507160186
 31
0.0
  0
LINE
  5
255
330
226
100
AcDbEntity
  8
0
100
AcDbLine
 10
171.0875332355504
 20
-142.5154507160186
 30
0.0
 11
163.2927805185322
 21
-142.7106410264969
 31
0.0
  0
LINE
  5
256
330
226
100
AcDbEntity
  8
0
100
AcDbLine
 10
163.2927805185322
 20
-142.7106410264969
 30
0.0
 11
155.02941608429
 21
-142.8926736116409
 31
0.0
  0
LINE
  5
257
330
226
100
AcDbEntity
  8
0
100
AcDbLine
 10
155.02941608429
 20
-142.8926736116409
 30
0.0
 11
146.2974101305012
 21
-143.0615186691284
 31
0.0
  0
LINE
  5
258
330
226
100
AcDbEntity
  8
0
100
AcDbLine
 10
146.2974101305012
 20
-143.0615186691284
 30
0.0
 11
136.4323943853383
 21
-143.2283222675323
 31
0.0
  0
LINE
  5
259
330
226
100
AcDbEntity
  8
0
100
AcDbLine
 10
136.4323943853383
 20
-143.2283222675323
 30
0.0
 11
126.4152824878692
 21
-143.3744430541992
 31
0.0
  0
LINE
  5
25A
330
226
100
AcDbEntity
  8
0
100
AcDbLine
 10
126.4152824878692
 20
-143.3744430541992
 30
0.0
 11
116.268135607243
 21
-143.4996426105499
 31
0.0
  0
LINE
  5
25B
330
226
100
AcDbEntity
  8
0
100
AcDbLine
 10
116.268135607243
 20
-143.4996426105499
 30
0.0
 11
112.2597232460975
 21
-143.5429751873016
 31
0.0
  0
LINE
  5
25C
330
226
100
AcDbEntity
  8
0
100
AcDbLine
 10
112.2597232460975
 20
-143.5429751873016
 30
0.0
 11
108.2396954298019
 21
-143.5830146074295
 31
0.0
  0
LINE
  5
25D
330
226
100
AcDbEntity
  8
0
100
AcDbLine
 10
108.2396954298019
 20
-143.5830146074295
 30
0.0
 11
104.2865812778473
 21
-143.6187028884887
 31
0.0
  0
LINE
  5
25E
330
226
100
AcDbEntity
  8
0
100
AcDbLine
 10
104.2865812778473
 20
-143.6187028884887
 30
0.0
 11
100.2825126051902
 21
-143.650934100151
 31
0.0
  0
LINE
  5
25F
330
226
100
AcDbEntity
  8
0
100
AcDbLine
 10
100.2825126051902
 20
-143.650934100151
 30
0.0
 11
96.22750431299209
 21
-143.6797082424163
 31
0.0
  0
LINE
  5
260
330
226
100
AcDbEntity
  8
0
100
AcDbLine
 10
96.22750431299209
 20
-143.6797082424163
 30
0.0
 11
92.12154895067214
 21
-143.7050402164459
 31
0.0
  0
LINE
  5
261
330
226
100
AcDbEntity
  8
0
100
AcDbLine
 10
92.12154895067214
 20
-143.7050402164459
 30
0.0
 11
87.58693188428878
 21
-143.729031085968
 31
0.0
  0
LINE
  5
262
330
226
100
AcDbEntity
  8
0
100
AcDbLine
 10
87.58693188428878
 20
-143.729031085968
 30
0.0
 11
82.80029147863388
 21
-143.7506526708603
 31
0.0
  0
LINE
  5
263
330
226
100
AcDbEntity
  8
0
100
AcDbLine
 10
82.80029147863388
 20
-143.7506526708603
 30
0.0
 11
77.76162028312683
 21
-143.7699049711227
 31
0.0
  0
LINE
  5
264
330
226
100
AcDbEntity
  8
0
100
AcDbLine
 10
77.76162028312683
 20
-143.7699049711227
 30
0.0
 11
72.47092574834823
 21
-143.7868028879165
 31
0.0
  0
LINE
  5
265
330
226
100
AcDbEntity
  8
0
100
AcDbLine
 10
72.47092574834823
 20
-143.7868028879165
 30
0.0
 11
66.92820042371749
 21
-143.8013166189193
 31
0.0
  0
LINE
  5
266
330
226
100
AcDbEntity
  8
0
100
AcDbLine
 10
66.92820042371749
 20
-143.8013166189193
 30
0.0
 11
62.40162625908851
 21
-143.8109278678894
 31
0.0
  0
LINE
  5
267
330
226
100
AcDbEntity
  8
0
100
AcDbLine
 10
62.40162625908851
 20
-143.8109278678894
 30
0.0
 11
58.00702050328254
 21
-143.8186764717102
 31
0.0
  0
LINE
  5
268
330
226
100
AcDbEntity
  8
0
100
AcDbLine
 10
58.00702050328254
 20
-143.8186764717102
 30
0.0
 11
52.46637389063835
 21
-143.8274383544922
 31
0.0
  0
LINE
  5
269
330
226
100
AcDbEntity
  8
0
100
AcDbLine
 10
52.46637389063835
 20
-143.8274383544922
 30
0.0
 11
47.28748649358749
 21
-143.8354104757309
 31
0.0
  0
LINE
  5
26A
330
226
100
AcDbEntity
  8
0
100
AcDbLine
 10
47.28748649358749
 20
-143.8354104757309
 30
0.0
 11
44.05521228909492
 21
-143.840804696083
 31
0.0
  0
LINE
  5
26B
330
226
100
AcDbEntity
  8
0
100
AcDbLine
 10
44.05521228909492
 20
-143.840804696083
 30
0.0
 11
40.04356637597084
 21
-143.8477039337158
 31
0.0
  0
LINE
  5
26C
330
226
100
AcDbEntity
  8
0
100
AcDbLine
 10
40.04356637597084
 20
-143.8477039337158
 30
0.0
 11
36.74621507525444
 21
-143.8531577587127
 31
0.0
  0
LINE
  5
26D
330
226
100
AcDbEntity
  8
0
100
AcDbLine
 10
36.74621507525444
 20
-143.8531577587127
 30
0.0
 11
34.7725935280323
 21
-143.8560485839843
 31
0.0
  0
SPLINE
  5
26E
330
226
100
AcDbEntity
  8
0
100
AcDbSpline
210
0.0
220
0.0
230
1.0
 70
    28
 71
     3
 72
     8
 73
     4
 74
     0
 42
0.0000000001
 43
0.0000000001
 40
0.5000046560446481
 40
0.5000046560446481
 40
0.5000046560446481
 40
0.5000046560446481
 40
1.0
 40
1.0
 40
1.0
 40
1.0
 10
0.0000000000004547
 20
-143.8560441745358
 30
0.0
 41
1.0
 10
11.59086468057694
 20
-143.8560441745358
 30
0.0
 41
1.0
 10
23.18172936115343
 20
-143.8560441745358
 30
0.0
 41
1.0
 10
34.77259404173037
 20
-143.8560441745358
 30
0.0
 41
1.0
  0
ARC
  5
26F
330
226
100
AcDbEntity
  8
0
100
AcDbCircle
 10
0.0000000000004547
 20
-210.0
 30
0.0
 40
36.0855571925639
100
AcDbArc
 50
270.0
 51
90.0
  0
LINE
  5
270
330
226
100
AcDbEntity
  8
0
100
AcDbLine
 10
291.7136251926427
 20
-16.32464549966403
 30
0.0
 11
288.9561614922991
 21
-16.33825461343758
 31
0.0
  0
ARC
  5
271
330
226
100
AcDbEntity
  8
0
100
AcDbCircle
 10
-250.0000000000004
 20
-450.0
 30
0.0
 40
50.0
100
AcDbArc
 50
180.0
 51
270.0
  0
ARC
  5
272
330
226
100
AcDbEntity
  8
0
100
AcDbCircle
 10
-215.0000000000005
 20
-415.0
 30
0.0
 40
15.0
100
AcDbArc
 50
180.0
 51
270.0
  0
ARC
  5
273
330
226
100
AcDbEntity
  8
0
100
AcDbCircle
 10
-215.0000000000005
 20
-155.0
 30
0.0
 40
15.0
100
AcDbArc
 50
90.0
 51
180.0
  0
LINE
  5
274
330
226
100
AcDbEntity
  8
0
100
AcDbLine
 10
-300.0000000000004
 20
0.0
 30
0.0
 11
-300.0000000000004
 21
-450.0
 31
0.0
  0
LINE
  5
275
330
226
100
AcDbEntity
  8
0
100
AcDbLine
 10
0.0
 20
-500.0
 30
0.0
 11
-250.0000000000004
 21
-500.0
 31
0.0
  0
LINE
  5
276
330
226
100
AcDbEntity
  8
0
100
AcDbLine
 10
0.0
 20
-140.0
 30
0.0
 11
-215.0000000000005
 21
-140.0
 31
0.0
  0
LINE
  5
277
330
226
100
AcDbEntity
  8
0
100
AcDbLine
 10
-230.0000000000005
 20
-155.0
 30
0.0
 11
-230.0000000000005
 21
-415.0
 31
0.0
  0
LINE
  5
278
330
226
100
AcDbEntity
  8
0
100
AcDbLine
 10
0.0
 20
-430.0
 30
0.0
 11
-215.0000000000005
 21
-430.0
 31
0.0
  0
LINE
  5
279
330
226
100
AcDbEntity
  8
0
100
AcDbLine
 10
-288.9561653137212
 20
0.0
 30
0.0
 11
-296.8346178531651
 21
0.0
 31
0.0
  0
LINE
  5
27A
330
226
100
AcDbEntity
  8
0
100
AcDbLine
 10
0.0
 20
0.0
 30
0.0
 11
-288.9561653137212
 21
0.0
 31
0.0
  0
LINE
  5
27B
330
226
100
AcDbEntity
  8
0
100
AcDbLine
 10
-296.8346178531651
 20
0.0
 30
0.0
 11
-299.9240458011632
 21
0.0
 31
0.0
  0
LINE
  5
27C
330
226
100
AcDbEntity
  8
0
100
AcDbLine
 10
-300.0000119209294
 20
0.0
 30
0.0
 11
-300.0000119209294
 21
-449.999988079071
 31
0.0
  0
LINE
  5
27D
330
226
100
AcDbEntity
  8
0
100
AcDbLine
 10
-299.9240458011632
 20
0.0
 30
0.0
 11
-300.0000119209294
 21
0.0
 31
0.0
  0
ARC
  5
27E
330
226
100
AcDbEntity
  8
0
100
AcDbCircle
 10
-250.0000000000004
 20
-450.0
 30
0.0
 40
50.0
100
AcDbArc
 50
180.0
 51
270.0
  0
LINE
  5
27F
330
226
100
AcDbEntity
  8
0
100
AcDbLine
 10
-250.0
 20
-500.0
 30
0.0
 11
0.0
 21
-499.9999999999995
 31
0.0
  0
ARC
  5
280
330
226
100
AcDbEntity
  8
0
100
AcDbCircle
 10
0.0000000000004547
 20
-210.0
 30
0.0
 40
22.99999999999997
100
AcDbArc
 50
90.0
 51
270.0
  0
LINE
  5
281
330
226
100
AcDbEntity
  8
0
100
AcDbLine
 10
-296.8346178531651
 20
-11.31271757185459
 30
0.0
 11
-296.8346178531651
 21
0.0
 31
0.0
  0
ARC
  5
282
330
226
100
AcDbEntity
  8
0
100
AcDbCircle
 10
-291.5971126902173
 20
-11.08828215981009
 30
0.0
 40
5.237659419071436
100
AcDbArc
 50
180.4397352447244
 51
268.7253418348959
  0
LINE
  5
283
330
226
100
AcDbEntity
  8
0
100
AcDbLine
 10
-288.9561653137212
 20
-16.33825525641441
 30
0.0
 11
0.0
 21
-16.33825525641441
 31
0.0
  0
LINE
  5
284
330
226
100
AcDbEntity
  8
0
100
AcDbLine
 10
-259.6308887004857
 20
-17.75619015097618
 30
0.0
 11
-259.6346437931061
 21
-17.74864271283149
 31
0.0
  0
ELLIPSE
  5
285
330
226
100
AcDbEntity
  8
0
100
AcDbEllipse
 10
-486.7416999879337
 20
226.9290330492731
 30
0.0
 11
-4951.463550761808
 21
15.14589836169478
 31
0.0
210
0.0
220
0.0
230
-1.0
 40
0.0493282417056643
 41
4.650457697595785
 42
4.666354583535857
  0
LINE
  5
286
330
226
100
AcDbEntity
  8
0
100
AcDbLine
 10
0.0
 20
-17.78711006045341
 30
0.0
 11
-181.0328811407089
 21
-17.78711006045341
 31
0.0
  0
LINE
  5
287
330
226
100
AcDbEntity
  8
0
100
AcDbLine
 10
-299.9240458011632
 20
-22.24761433899403
 30
0.0
 11
-299.9240458011632
 21
0.0
 31
0.0
  0
LINE
  5
288
330
226
100
AcDbEntity
  8
0
100
AcDbLine
 10
-299.9240458011632
 20
-22.83701300621033
 30
0.0
 11
-299.9240458011632
 21
-22.24761433899403
 31
0.0
  0
ARC
  5
289
330
226
100
AcDbEntity
  8
0
100
AcDbCircle
 10
-249.9973845519035
 20
-449.9975883111201
 30
0.0
 40
14.81916804299105
100
AcDbArc
 50
180.0092782925153
 51
269.9898878170625
  0
ARC
  5
28A
330
226
100
AcDbEntity
  8
0
100
AcDbCircle
 10
-259.6017915099273
 20
-22.97572838565066
 30
0.0
 40
5.219691948671707
100
AcDbArc
 50
90.31939717240716
 51
175.6031280389376
  0
LINE
  5
28B
330
226
100
AcDbEntity
  8
0
100
AcDbLine
 10
-264.82105255127
 20
-22.95687422156334
 30
0.0
 11
-264.8061215877537
 21
-22.57556281983852
 31
0.0
  0
ELLIPSE
  5
28C
330
226
100
AcDbEntity
  8
0
100
AcDbEllipse
 10
-292.5995599891853
 20
-487.602605854092
 30
0.0
 11
1.029428559026399
 21
1124.985719294907
 31
0.0
210
0.0
220
0.0
230
-1.0
 40
0.0246795114090912
 41
1.533735615716246
 42
1.537342553740759
  0
LINE
  5
28D
330
226
100
AcDbEntity
  8
0
100
AcDbLine
 10
-264.8163735866547
 20
-445.9447562694549
 30
0.0
 11
-264.8163735866547
 21
-66.17672741413116
 31
0.0
  0
ELLIPSE
  5
28E
330
226
100
AcDbEntity
  8
0
100
AcDbEllipse
 10
-386.9575153844366
 20
116.9605612493287
 30
0.0
 11
-4.525601023640749
 21
4945.691935768175
 31
0.0
210
0.0
220
0.0
230
-0.9999999999999998
 40
0.0246795114090911
 41
1.599113455809693
 42
1.607857037873541
  0
LINE
  5
28F
330
226
100
AcDbEntity
  8
0
100
AcDbLine
 10
0.0
 20
-464.8163914680476
 30
0.0
 11
-245.9447681903843
 21
-464.816391468048
 31
0.0
  0
ELLIPSE
  5
290
330
226
100
AcDbEntity
  8
0
100
AcDbEllipse
 10
-287.6026058540897
 20
-492.5995599891884
 30
0.0
 11
-1124.985719294907
 21
-1.029428559026186
 31
0.0
210
0.0
220
0.0
230
-1.0
 40
0.0246795114090935
 41
1.604250099849031
 42
1.607857037873543
  0
LINE
  5
291
330
226
100
AcDbEntity
  8
0
100
AcDbLine
 10
-213.7686759233479
 20
-140.2220726013183
 30
0.0
 11
-212.4070227146153
 21
-140.4324024915695
 31
0.0
  0
LINE
  5
292
330
226
100
AcDbEntity
  8
0
100
AcDbLine
 10
-212.4070227146153
 20
-140.4324024915695
 30
0.0
 11
-210.8221650123596
 21
-140.6321972608566
 31
0.0
  0
LINE
  5
293
330
226
100
AcDbEntity
  8
0
100
AcDbLine
 10
-210.8221650123596
 20
-140.6321972608566
 30
0.0
 11
-209.014087915421
 21
-140.8214718103408
 31
0.0
  0
LINE
  5
294
330
226
100
AcDbEntity
  8
0
100
AcDbLine
 10
-209.014087915421
 20
-140.8214718103408
 30
0.0
 11
-206.9828212261204
 21
-141.0002261400222
 31
0.0
  0
LINE
  5
295
330
226
100
AcDbEntity
  8
0
100
AcDbLine
 10
-206.9828212261204
 20
-141.0002261400222
 30
0.0
 11
-203.9658874273305
 21
-141.2212252616882
 31
0.0
  0
LINE
  5
296
330
226
100
AcDbEntity
  8
0
100
AcDbLine
 10
-203.9658874273305
 20
-141.2212252616882
 30
0.0
 11
-200.5236744880676
 21
-141.4300948381424
 31
0.0
  0
LINE
  5
297
330
226
100
AcDbEntity
  8
0
100
AcDbLine
 10
-200.5236744880676
 20
-141.4300948381424
 30
0.0
 11
-196.6338604688649
 21
-141.628697514534
 31
0.0
  0
LINE
  5
298
330
226
100
AcDbEntity
  8
0
100
AcDbLine
 10
-196.6338604688649
 20
-141.628697514534
 30
0.0
 11
-192.1494454145431
 21
-141.8257504701614
 31
0.0
  0
LINE
  5
299
330
226
100
AcDbEntity
  8
0
100
AcDbLine
 10
-192.1494454145431
 20
-141.8257504701614
 30
0.0
 11
-185.8607977628712
 21
-142.0644670724868
 31
0.0
  0
LINE
  5
29A
330
226
100
AcDbEntity
  8
0
100
AcDbLine
 10
-185.8607977628712
 20
-142.0644670724868
 30
0.0
 11
-178.8401603698735
 21
-142.2943621873855
 31
0.0
  0
LINE
  5
29B
330
226
100
AcDbEntity
  8
0
100
AcDbLine
 10
-178.8401603698735
 20
-142.2943621873855
 30
0.0
 11
-171.0875332355504
 21
-142.5154507160186
 31
0.0
  0
LINE
  5
29C
330
226
100
AcDbEntity
  8
0
100
AcDbLine
 10
-171.0875332355504
 20
-142.5154507160186
 30
0.0
 11
-163.2927805185322
 21
-142.7106410264969
 31
0.0
  0
LINE
  5
29D
330
226
100
AcDbEntity
  8
0
100
AcDbLine
 10
-163.2927805185322
 20
-142.7106410264969
 30
0.0
 11
-155.02941608429
 21
-142.8926736116409
 31
0.0
  0
LINE
  5
29E
330
226
100
AcDbEntity
  8
0
100
AcDbLine
 10
-155.02941608429
 20
-142.8926736116409
 30
0.0
 11
-146.2974101305012
 21
-143.0615186691284
 31
0.0
  0
LINE
  5
29F
330
226
100
AcDbEntity
  8
0
100
AcDbLine
 10
-146.2974101305012
 20
-143.0615186691284
 30
0.0
 11
-136.4323943853383
 21
-143.2283222675323
 31
0.0
  0
LINE
  5
2A0
330
226
100
AcDbEntity
  8
0
100
AcDbLine
 10
-136.4323943853383
 20
-143.2283222675323
 30
0.0
 11
-126.4152824878692
 21
-143.3744430541992
 31
0.0
  0
LINE
  5
2A1
330
226
100
AcDbEntity
  8
0
100
AcDbLine
 10
-126.4152824878692
 20
-143.3744430541992
 30
0.0
 11
-116.268135607243
 21
-143.4996426105499
 31
0.0
  0
LINE
  5
2A2
330
226
100
AcDbEntity
  8
0
100
AcDbLine
 10
-116.268135607243
 20
-143.4996426105499
 30
0.0
 11
-112.2597232460975
 21
-143.5429751873016
 31
0.0
  0
LINE
  5
2A3
330
226
100
AcDbEntity
  8
0
100
AcDbLine
 10
-112.2597232460975
 20
-143.5429751873016
 30
0.0
 11
-108.2396954298019
 21
-143.5830146074295
 31
0.0
  0
LINE
  5
2A4
330
226
100
AcDbEntity
  8
0
100
AcDbLine
 10
-108.2396954298019
 20
-143.5830146074295
 30
0.0
 11
-104.2865812778473
 21
-143.6187028884887
 31
0.0
  0
LINE
  5
2A5
330
226
100
AcDbEntity
  8
0
100
AcDbLine
 10
-104.2865812778473
 20
-143.6187028884887
 30
0.0
 11
-100.2825126051902
 21
-143.650934100151
 31
0.0
  0
LINE
  5
2A6
330
226
100
AcDbEntity
  8
0
100
AcDbLine
 10
-100.2825126051902
 20
-143.650934100151
 30
0.0
 11
-96.22750431299209
 21
-143.6797082424163
 31
0.0
  0
LINE
  5
2A7
330
226
100
AcDbEntity
  8
0
100
AcDbLine
 10
-96.22750431299209
 20
-143.6797082424163
 30
0.0
 11
-92.12154895067214
 21
-143.7050402164459
 31
0.0
  0
LINE
  5
2A8
330
226
100
AcDbEntity
  8
0
100
AcDbLine
 10
-92.12154895067214
 20
-143.7050402164459
 30
0.0
 11
-87.58693188428878
 21
-143.729031085968
 31
0.0
  0
LINE
  5
2A9
330
226
100
AcDbEntity
  8
0
100
AcDbLine
 10
-87.58693188428878
 20
-143.729031085968
 30
0.0
 11
-82.80029147863388
 21
-143.7506526708603
 31
0.0
  0
LINE
  5
2AA
330
226
100
AcDbEntity
  8
0
100
AcDbLine
 10
-82.80029147863388
 20
-143.7506526708603
 30
0.0
 11
-77.76162028312683
 21
-143.7699049711227
 31
0.0
  0
LINE
  5
2AB
330
226
100
AcDbEntity
  8
0
100
AcDbLine
 10
-77.76162028312683
 20
-143.7699049711227
 30
0.0
 11
-72.47092574834823
 21
-143.7868028879165
 31
0.0
  0
LINE
  5
2AC
330
226
100
AcDbEntity
  8
0
100
AcDbLine
 10
-72.47092574834823
 20
-143.7868028879165
 30
0.0
 11
-66.92820042371749
 21
-143.8013166189193
 31
0.0
  0
LINE
  5
2AD
330
226
100
AcDbEntity
  8
0
100
AcDbLine
 10
-66.92820042371749
 20
-143.8013166189193
 30
0.0
 11
-62.40162625908851
 21
-143.8109278678894
 31
0.0
  0
LINE
  5
2AE
330
226
100
AcDbEntity
  8
0
100
AcDbLine
 10
-62.40162625908851
 20
-143.8109278678894
 30
0.0
 11
-58.00702050328254
 21
-143.8186764717102
 31
0.0
  0
LINE
  5
2AF
330
226
100
AcDbEntity
  8
0
100
AcDbLine
 10
-58.00702050328254
 20
-143.8186764717102
 30
0.0
 11
-52.46637389063835
 21
-143.8274383544922
 31
0.0
  0
LINE
  5
2B0
330
226
100
AcDbEntity
  8
0
100
AcDbLine
 10
-52.46637389063835
 20
-143.8274383544922
 30
0.0
 11
-47.28748649358749
 21
-143.8354104757309
 31
0.0
  0
LINE
  5
2B1
330
226
100
AcDbEntity
  8
0
100
AcDbLine
 10
-47.28748649358749
 20
-143.8354104757309
 30
0.0
 11
-44.05521228909492
 21
-143.840804696083
 31
0.0
  0
LINE
  5
2B2
330
226
100
AcDbEntity
  8
0
100
AcDbLine
 10
-44.05521228909492
 20
-143.840804696083
 30
0.0
 11
-40.04356637597084
 21
-143.8477039337158
 31
0.0
  0
LINE
  5
2B3
330
226
100
AcDbEntity
  8
0
100
AcDbLine
 10
-40.04356637597084
 20
-143.8477039337158
 30
0.0
 11
-36.74621507525444
 21
-143.8531577587127
 31
0.0
  0
LINE
  5
2B4
330
226
100
AcDbEntity
  8
0
100
AcDbLine
 10
-36.74621507525444
 20
-143.8531577587127
 30
0.0
 11
-34.7725935280323
 21
-143.8560485839843
 31
0.0
  0
SPLINE
  5
2B5
330
226
100
AcDbEntity
  8
0
100
AcDbSpline
210
0.0
220
0.0
230
1.0
 70
    28
 71
     3
 72
     8
 73
     4
 74
     0
 42
0.0000000001
 43
0.0000000001
 40
0.5000046560446481
 40
0.5000046560446481
 40
0.5000046560446481
 40
0.5000046560446481
 40
1.0
 40
1.0
 40
1.0
 40
1.0
 10
-0.0000000000004547
 20
-143.8560441745358
 30
0.0
 41
1.0
 10
-11.59086468057694
 20
-143.8560441745358
 30
0.0
 41
1.0
 10
-23.18172936115343
 20
-143.8560441745358
 30
0.0
 41
1.0
 10
-34.77259404173037
 20
-143.8560441745358
 30
0.0
 41
1.0
  0
ARC
  5
2B6
330
226
100
AcDbEntity
  8
0
100
AcDbCircle
 10
-0.0000000000004547
 20
-210.0
 30
0.0
 40
36.0855571925639
100
AcDbArc
 50
90.0
 51
270.0
  0
LINE
  5
2B7
330
226
100
AcDbEntity
  8
0
100
AcDbLine
 10
-291.7136251926427
 20
-16.32464549966403
 30
0.0
 11
-288.9561614922991
 21
-16.33825461343758
 31
0.0
  0
ENDBLK
  5
228
330
226
100
AcDbEntity
  8
0
100
AcDbBlockEnd
  0
ENDSEC
  0
SECTION
  2
ENTITIES
  0
INSERT
  5
2B8
330
1F
100
AcDbEntity
  8
0
100
AcDbBlockReference
  2
12040-P
 10
-161.2348233987527
 20
635.0867094789398
 30
0.0
  0
MTEXT
  5
2BF
330
1F
100
AcDbEntity
  8
0
100
AcDbMText
 10
-416.9613267768137
 20
33.41238768955648
 30
0.0
 40
20.0
 41
505.2631578947369
 71
     1
 72
     5
  1
{\fTimes New Roman|b0|i0|c0|p18;\C0;LAVABO DE 60 CM. \PSERIE NOBLE}
 73
     1
 44
1.0
1001
ACAD
1000
MTEXTBEGIN
1070
    73
1070
     1
1070
    44
1040
1.0
1070
    74
1070
     0
1000
MTEXTEND
  0
ENDSEC
  0
SECTION
  2
OBJECTS
  0
DICTIONARY
  5
C
330
0
100
AcDbDictionary
281
     1
  3
ACAD_COLOR
350
6B
  3
ACAD_GROUP
350
D
  3
ACAD_LAYOUT
350
1A
  3
ACAD_MATERIAL
350
6A
  3
ACAD_MLINESTYLE
350
17
  3
ACAD_PLOTSETTINGS
350
19
  3
ACAD_PLOTSTYLENAME
350
E
  3
ACAD_TABLESTYLE
350
7E
  3
ACDBHEADERROUNDTRIPXREC
350
2E9
  3
AcDbVariableDictionary
350
5E
  3
DWGPROPS
350
2E8
  0
DICTIONARY
  5
118
330
2
100
AcDbDictionary
280
     1
281
     1
  3
ACAD_LAYERSTATES
360
119
  0
DICTIONARY
  5
1DD
330
1F
100
AcDbDictionary
280
     1
281
     1
  3
ACAD_SORTENTS
360
1DE
  0
DICTIONARY
  5
6B
102
{ACAD_REACTORS
330
C
102
}
330
C
100
AcDbDictionary
281
     1
  0
DICTIONARY
  5
D
102
{ACAD_REACTORS
330
C
102
}
330
C
100
AcDbDictionary
281
     1
  0
DICTIONARY
  5
1A
102
{ACAD_REACTORS
330
C
102
}
330
C
100
AcDbDictionary
281
     1
  3
Model
350
22
  3
Presentación1
350
D3
  3
Presentación2
350
D7
  0
DICTIONARY
  5
6A
102
{ACAD_REACTORS
330
C
102
}
330
C
100
AcDbDictionary
281
     1
  0
DICTIONARY
  5
17
102
{ACAD_REACTORS
330
C
102
}
330
C
100
AcDbDictionary
281
     1
  3
Standard
350
18
  0
DICTIONARY
  5
19
102
{ACAD_REACTORS
330
C
102
}
330
C
100
AcDbDictionary
281
     1
  0
ACDBDICTIONARYWDFLT
  5
E
102
{ACAD_REACTORS
330
C
102
}
330
C
100
AcDbDictionary
281
     1
  3
Normal
350
F
100
AcDbDictionaryWithDefault
340
F
  0
DICTIONARY
  5
7E
102
{ACAD_REACTORS
330
C
102
}
330
C
100
AcDbDictionary
281
     1
  3
Standard
350
7F
  0
DICTIONARY
  5
2E9
102
{ACAD_REACTORS
330
C
102
}
330
C
100
AcDbDictionary
281
     1
  0
DICTIONARY
  5
5E
102
{ACAD_REACTORS
330
C
102
}
330
C
100
AcDbDictionary
281
     1
  3
CTABLESTYLE
350
84
  3
DIMASSOC
350
5F
  3
HIDETEXT
350
63
  3
PROJECTNAME
350
2CA
  0
XRECORD
  5
2E8
102
{ACAD_REACTORS
330
C
102
}
330
C
100
AcDbXrecord
280
     1
  1
DWGPROPS COOKIE
  2

  3

  4

  6

  7

  8
Autodesk
  9

300
=
301
=
302
=
303
=
304
=
305
=
306
=
307
=
308
=
309
=
 40
0.0305533912037037
 41
2454550.307324757
 42
2454550.407354595
  1

 90
        0
  0
DICTIONARY
  5
119
102
{ACAD_REACTORS
330
118
102
}
330
118
100
AcDbDictionary
281
     1
  0
SORTENTSTABLE
  5
1DE
102
{ACAD_REACTORS
330
1DD
102
}
330
1DD
100
AcDbSortentsTable
330
1F
331
2B8
  5
2B8
  0
LAYOUT
  5
22
102
{ACAD_XDICTIONARY
360
2EA
102
}
102
{ACAD_REACTORS
330
1A
102
}
330
1A
100
AcDbPlotSettings
  1

  2
none_device
  4
ISO_A4_(210.00_x_297.00_MM)
  6

 40
7.5
 41
20.0
 42
7.5
 43
20.0
 44
210.0
 45
297.0
 46
11.54999923706054
 47
-13.65000009536743
 48
0.0
 49
0.0
140
0.0
141
0.0
142
1.0
143
8.704084754739808
 70
 11952
 72
     1
 73
     0
 74
     0
  7

 75
     0
147
0.1148885871608098
148
0.0
149
0.0
100
AcDbLayout
  1
Model
 70
     1
 71
     0
 10
0.0
 20
0.0
 11
12.0
 21
9.0
 12
0.0
 22
0.0
 32
0.0
 14
0.0
 24
0.0
 34
0.0
 15
0.0
 25
0.0
 35
0.0
146
0.0
 13
0.0
 23
0.0
 33
0.0
 16
1.0
 26
0.0
 36
0.0
 17
0.0
 27
1.0
 37
0.0
 76
     0
330
1F
1001
ACAD_PSEXT
1000
None
1000
None
1000
Not applicable
1000
The layout will not be plotted unless a new plotter configuration name is selected.
1070
     0
  0
LAYOUT
  5
D3
102
{ACAD_XDICTIONARY
360
2EC
102
}
102
{ACAD_REACTORS
330
1A
102
}
330
1A
100
AcDbPlotSettings
  1

  2
C:\Documents and Settings\basas\Application Data\Autodesk\AutoCAD 2005\R16.1\enu\plotters\Default Windows System Printer.pc3
  4

  6

 40
0.0
 41
0.0
 42
0.0
 43
0.0
 44
0.0
 45
0.0
 46
0.0
 47
0.0
 48
0.0
 49
0.0
140
0.0
141
0.0
142
1.0
143
1.0
 70
   688
 72
     0
 73
     0
 74
     5
  7

 75
    16
147
1.0
148
0.0
149
0.0
100
AcDbLayout
  1
Presentación1
 70
     1
 71
     1
 10
0.0
 20
0.0
 11
12.0
 21
9.0
 12
0.0
 22
0.0
 32
0.0
 14
0.0
 24
0.0
 34
0.0
 15
0.0
 25
0.0
 35
0.0
146
0.0
 13
0.0
 23
0.0
 33
0.0
 16
1.0
 26
0.0
 36
0.0
 17
0.0
 27
1.0
 37
0.0
 76
     0
330
D2
  0
LAYOUT
  5
D7
102
{ACAD_XDICTIONARY
360
2EE
102
}
102
{ACAD_REACTORS
330
1A
102
}
330
1A
100
AcDbPlotSettings
  1

  2
C:\Documents and Settings\basas\Application Data\Autodesk\AutoCAD 2005\R16.1\enu\plotters\Default Windows System Printer.pc3
  4

  6

 40
0.0
 41
0.0
 42
0.0
 43
0.0
 44
0.0
 45
0.0
 46
0.0
 47
0.0
 48
0.0
 49
0.0
140
0.0
141
0.0
142
1.0
143
1.0
 70
   688
 72
     0
 73
     0
 74
     5
  7

 75
    16
147
1.0
148
0.0
149
0.0
100
AcDbLayout
  1
Presentación2
 70
     1
 71
     2
 10
0.0
 20
0.0
 11
12.0
 21
9.0
 12
0.0
 22
0.0
 32
0.0
 14
0.0
 24
0.0
 34
0.0
 15
0.0
 25
0.0
 35
0.0
146
0.0
 13
0.0
 23
0.0
 33
0.0
 16
1.0
 26
0.0
 36
0.0
 17
0.0
 27
1.0
 37
0.0
 76
     0
330
D6
  0
MLINESTYLE
  5
18
102
{ACAD_REACTORS
330
17
102
}
330
17
100
AcDbMlineStyle
  2
STANDARD
 70
     0
  3

 62
   256
 51
90.0
 52
90.0
 71
     2
 49
0.5
 62
   256
  6
BYLAYER
 49
-0.5
 62
   256
  6
BYLAYER
  0
ACDBPLACEHOLDER
  5
F
102
{ACAD_REACTORS
330
E
102
}
330
E
  0
TABLESTYLE
  5
7F
102
{ACAD_REACTORS
330
7E
102
}
330
7E
100
AcDbTableStyle
  3
Standard
 70
     0
 71
     0
 40
1.5
 41
1.5
280
     0
281
     0
  7
Standard
140
4.5
170
     2
 62
     0
 63
     7
283
     0
274
    -2
284
     1
 64
     0
275
    -2
285
     1
 65
     0
276
    -2
286
     1
 66
     0
277
    -2
287
     1
 67
     0
278
    -2
288
     1
 68
     0
279
    -2
289
     1
 69
     0
  7
Standard
140
6.0
170
     5
 62
     0
 63
     7
283
     0
274
    -2
284
     1
 64
     0
275
    -2
285
     1
 65
     0
276
    -2
286
     1
 66
     0
277
    -2
287
     1
 67
     0
278
    -2
288
     1
 68
     0
279
    -2
289
     1
 69
     0
  7
Standard
140
4.5
170
     5
 62
     0
 63
     7
283
     0
274
    -2
284
     1
 64
     0
275
    -2
285
     1
 65
     0
276
    -2
286
     1
 66
     0
277
    -2
287
     1
 67
     0
278
    -2
288
     1
 68
     0
279
    -2
289
     1
 69
     0
  0
DICTIONARYVAR
  5
84
102
{ACAD_REACTORS
330
5E
102
}
330
5E
100
DictionaryVariables
280
     0
  1
STANDARD
  0
DICTIONARYVAR
  5
5F
102
{ACAD_REACTORS
330
5E
102
}
330
5E
100
DictionaryVariables
280
     0
  1
2
  0
DICTIONARYVAR
  5
63
102
{ACAD_REACTORS
330
5E
102
}
330
5E
100
DictionaryVariables
280
     0
  1
1
  0
DICTIONARYVAR
  5
2CA
102
{ACAD_REACTORS
330
5E
102
}
330
5E
100
DictionaryVariables
280
     0
  1

  0
DICTIONARY
  5
2EA
330
22
100
AcDbDictionary
280
     1
281
     1
  3
ACAD_XREC_ROUNDTRIP
360
2EB
  0
DICTIONARY
  5
2EC
330
D3
100
AcDbDictionary
280
     1
281
     1
  3
ACAD_XREC_ROUNDTRIP
360
2ED
  0
DICTIONARY
  5
2EE
330
D7
100
AcDbDictionary
280
     1
281
     1
  3
ACAD_XREC_ROUNDTRIP
360
2EF
  0
XRECORD
  5
2EB
102
{ACAD_REACTORS
330
2EA
102
}
330
2EA
100
AcDbXrecord
280
     1
102
SHADEPLOT
 70
     0
102
SHADEPLOTRESLEVEL
 70
     2
102
SHADEPLOTCUSTOMDPI
 70
   300
  0
XRECORD
  5
2ED
102
{ACAD_REACTORS
330
2EC
102
}
330
2EC
100
AcDbXrecord
280
     1
102
SHADEPLOT
 70
     0
102
SHADEPLOTRESLEVEL
 70
     2
102
SHADEPLOTCUSTOMDPI
 70
   300
  0
XRECORD
  5
2EF
102
{ACAD_REACTORS
330
2EE
102
}
330
2EE
100
AcDbXrecord
280
     1
102
SHADEPLOT
 70
     0
102
SHADEPLOTRESLEVEL
 70
     2
102
SHADEPLOTCUSTOMDPI
 70
   300
  0
ENDSEC
  0
EOF
