  0
SECTION
  2
HEADER
  9
$ACADVER
  1
AC1015
  9
$ACADMAINTVER
 70
    20
  9
$DWGCODEPAGE
  3
ANSI_1252
  9
$INSBASE
 10
0.0
 20
0.0
 30
0.0
  9
$EXTMIN
 10
-437.9437941351478
 20
-26.30883317081362
 30
0.0
  9
$EXTMAX
 10
-17.40833470759963
 20
934.9787838557089
 30
0.0
  9
$LIMMIN
 10
0.0
 20
0.0
  9
$LIMMAX
 10
420.0
 20
297.0
  9
$ORTHOMODE
 70
     0
  9
$REGENMODE
 70
     1
  9
$FILLMODE
 70
     1
  9
$QTEXTMODE
 70
     0
  9
$MIRRTEXT
 70
     0
  9
$LTSCALE
 40
1.0
  9
$ATTMODE
 70
     1
  9
$TEXTSIZE
 40
2.5
  9
$TRACEWID
 40
1.0
  9
$TEXTSTYLE
  7
Standard
  9
$CLAYER
  8
0
  9
$CELTYPE
  6
ByLayer
  9
$CECOLOR
 62
   256
  9
$CELTSCALE
 40
1.0
  9
$DISPSILH
 70
     0
  9
$DIMSCALE
 40
1.0
  9
$DIMASZ
 40
2.5
  9
$DIMEXO
 40
0.625
  9
$DIMDLI
 40
3.75
  9
$DIMRND
 40
0.0
  9
$DIMDLE
 40
0.0
  9
$DIMEXE
 40
1.25
  9
$DIMTP
 40
0.0
  9
$DIMTM
 40
0.0
  9
$DIMTXT
 40
2.5
  9
$DIMCEN
 40
2.5
  9
$DIMTSZ
 40
0.0
  9
$DIMTOL
 70
     0
  9
$DIMLIM
 70
     0
  9
$DIMTIH
 70
     0
  9
$DIMTOH
 70
     0
  9
$DIMSE1
 70
     0
  9
$DIMSE2
 70
     0
  9
$DIMTAD
 70
     1
  9
$DIMZIN
 70
     8
  9
$DIMBLK
  1

  9
$DIMASO
 70
     1
  9
$DIMSHO
 70
     1
  9
$DIMPOST
  1

  9
$DIMAPOST
  1

  9
$DIMALT
 70
     0
  9
$DIMALTD
 70
     3
  9
$DIMALTF
 40
0.03937007874016
  9
$DIMLFAC
 40
1.0
  9
$DIMTOFL
 70
     1
  9
$DIMTVP
 40
0.0
  9
$DIMTIX
 70
     0
  9
$DIMSOXD
 70
     0
  9
$DIMSAH
 70
     0
  9
$DIMBLK1
  1

  9
$DIMBLK2
  1

  9
$DIMSTYLE
  2
ISO-25
  9
$DIMCLRD
 70
     0
  9
$DIMCLRE
 70
     0
  9
$DIMCLRT
 70
     0
  9
$DIMTFAC
 40
1.0
  9
$DIMGAP
 40
0.625
  9
$DIMJUST
 70
     0
  9
$DIMSD1
 70
     0
  9
$DIMSD2
 70
     0
  9
$DIMTOLJ
 70
     0
  9
$DIMTZIN
 70
     8
  9
$DIMALTZ
 70
     0
  9
$DIMALTTZ
 70
     0
  9
$DIMUPT
 70
     0
  9
$DIMDEC
 70
     2
  9
$DIMTDEC
 70
     2
  9
$DIMALTU
 70
     2
  9
$DIMALTTD
 70
     3
  9
$DIMTXSTY
  7
Standard
  9
$DIMAUNIT
 70
     0
  9
$DIMADEC
 70
     0
  9
$DIMALTRND
 40
0.0
  9
$DIMAZIN
 70
     0
  9
$DIMDSEP
 70
    44
  9
$DIMATFIT
 70
     3
  9
$DIMFRAC
 70
     0
  9
$DIMLDRBLK
  1

  9
$DIMLUNIT
 70
     2
  9
$DIMLWD
 70
    -2
  9
$DIMLWE
 70
    -2
  9
$DIMTMOVE
 70
     0
  9
$LUNITS
 70
     2
  9
$LUPREC
 70
     4
  9
$SKETCHINC
 40
1.0
  9
$FILLETRAD
 40
25.0
  9
$AUNITS
 70
     0
  9
$AUPREC
 70
     0
  9
$MENU
  1
.
  9
$ELEVATION
 40
0.0
  9
$PELEVATION
 40
0.0
  9
$THICKNESS
 40
0.0
  9
$LIMCHECK
 70
     0
  9
$CHAMFERA
 40
0.0
  9
$CHAMFERB
 40
0.0
  9
$CHAMFERC
 40
0.0
  9
$CHAMFERD
 40
0.0
  9
$SKPOLY
 70
     0
  9
$TDCREATE
 40
2454550.307324757
  9
$TDUCREATE
 40
2454550.265658090
  9
$TDUPDATE
 40
2454550.406940463
  9
$TDUUPDATE
 40
2454550.365273797
  9
$TDINDWG
 40
0.0521598380
  9
$TDUSRTIMER
 40
0.0521591088
  9
$USRTIMER
 70
     1
  9
$ANGBASE
 50
0.0
  9
$ANGDIR
 70
     0
  9
$PDMODE
 70
     0
  9
$PDSIZE
 40
0.0
  9
$PLINEWID
 40
0.0
  9
$SPLFRAME
 70
     0
  9
$SPLINETYPE
 70
     6
  9
$SPLINESEGS
 70
     8
  9
$HANDSEED
  5
B2D
  9
$SURFTAB1
 70
     6
  9
$SURFTAB2
 70
     6
  9
$SURFTYPE
 70
     6
  9
$SURFU
 70
     6
  9
$SURFV
 70
     6
  9
$UCSBASE
  2

  9
$UCSNAME
  2

  9
$UCSORG
 10
0.0
 20
0.0
 30
0.0
  9
$UCSXDIR
 10
1.0
 20
0.0
 30
0.0
  9
$UCSYDIR
 10
0.0
 20
1.0
 30
0.0
  9
$UCSORTHOREF
  2

  9
$UCSORTHOVIEW
 70
     0
  9
$UCSORGTOP
 10
0.0
 20
0.0
 30
0.0
  9
$UCSORGBOTTOM
 10
0.0
 20
0.0
 30
0.0
  9
$UCSORGLEFT
 10
0.0
 20
0.0
 30
0.0
  9
$UCSORGRIGHT
 10
0.0
 20
0.0
 30
0.0
  9
$UCSORGFRONT
 10
0.0
 20
0.0
 30
0.0
  9
$UCSORGBACK
 10
0.0
 20
0.0
 30
0.0
  9
$PUCSBASE
  2

  9
$PUCSNAME
  2

  9
$PUCSORG
 10
0.0
 20
0.0
 30
0.0
  9
$PUCSXDIR
 10
1.0
 20
0.0
 30
0.0
  9
$PUCSYDIR
 10
0.0
 20
1.0
 30
0.0
  9
$PUCSORTHOREF
  2

  9
$PUCSORTHOVIEW
 70
     0
  9
$PUCSORGTOP
 10
0.0
 20
0.0
 30
0.0
  9
$PUCSORGBOTTOM
 10
0.0
 20
0.0
 30
0.0
  9
$PUCSORGLEFT
 10
0.0
 20
0.0
 30
0.0
  9
$PUCSORGRIGHT
 10
0.0
 20
0.0
 30
0.0
  9
$PUCSORGFRONT
 10
0.0
 20
0.0
 30
0.0
  9
$PUCSORGBACK
 10
0.0
 20
0.0
 30
0.0
  9
$USERI1
 70
     0
  9
$USERI2
 70
     0
  9
$USERI3
 70
     0
  9
$USERI4
 70
     0
  9
$USERI5
 70
     0
  9
$USERR1
 40
0.0
  9
$USERR2
 40
0.0
  9
$USERR3
 40
0.0
  9
$USERR4
 40
0.0
  9
$USERR5
 40
0.0
  9
$WORLDVIEW
 70
     1
  9
$SHADEDGE
 70
     3
  9
$SHADEDIF
 70
    70
  9
$TILEMODE
 70
     1
  9
$MAXACTVP
 70
    64
  9
$PINSBASE
 10
0.0
 20
0.0
 30
0.0
  9
$PLIMCHECK
 70
     0
  9
$PEXTMIN
 10
0.0
 20
0.0
 30
0.0
  9
$PEXTMAX
 10
0.0
 20
0.0
 30
0.0
  9
$PLIMMIN
 10
0.0
 20
0.0
  9
$PLIMMAX
 10
12.0
 20
9.0
  9
$UNITMODE
 70
     0
  9
$VISRETAIN
 70
     1
  9
$PLINEGEN
 70
     0
  9
$PSLTSCALE
 70
     1
  9
$TREEDEPTH
 70
  3020
  9
$CMLSTYLE
  2
Standard
  9
$CMLJUST
 70
     0
  9
$CMLSCALE
 40
20.0
  9
$PROXYGRAPHICS
 70
     1
  9
$MEASUREMENT
 70
     1
  9
$CELWEIGHT
370
    -1
  9
$ENDCAPS
280
     0
  9
$JOINSTYLE
280
     0
  9
$LWDISPLAY
290
     0
  9
$INSUNITS
 70
     4
  9
$HYPERLINKBASE
  1

  9
$STYLESHEET
  1

  9
$XEDIT
290
     1
  9
$CEPSNTYPE
380
     0
  9
$PSTYLEMODE
290
     1
  9
$FINGERPRINTGUID
  2
{4A4C6E15-96AD-4E98-A744-8BD4BACD0A4F}
  9
$VERSIONGUID
  2
{DDAF5358-D8C2-4237-A1DC-F91DE32F7427}
  9
$EXTNAMES
290
     1
  9
$PSVPSCALE
 40
0.0
  9
$OLESTARTUP
290
     0
  0
ENDSEC
  0
SECTION
  2
CLASSES
  0
CLASS
  1
ACDBDICTIONARYWDFLT
  2
AcDbDictionaryWithDefault
  3
ObjectDBX Classes
 90
        0
280
     0
281
     0
  0
CLASS
  1
DICTIONARYVAR
  2
AcDbDictionaryVar
  3
ObjectDBX Classes
 90
        0
280
     0
281
     0
  0
CLASS
  1
TABLESTYLE
  2
AcDbTableStyle
  3
ObjectDBX Classes
 90
     2047
280
     0
281
     0
  0
CLASS
  1
SORTENTSTABLE
  2
AcDbSortentsTable
  3
ObjectDBX Classes
 90
        0
280
     0
281
     0
  0
CLASS
  1
ACDBPLACEHOLDER
  2
AcDbPlaceHolder
  3
ObjectDBX Classes
 90
        0
280
     0
281
     0
  0
CLASS
  1
LAYOUT
  2
AcDbLayout
  3
ObjectDBX Classes
 90
        0
280
     0
281
     0
  0
ENDSEC
  0
SECTION
  2
TABLES
  0
TABLE
  2
VPORT
  5
8
330
0
100
AcDbSymbolTable
 70
     2
  0
VPORT
  5
B24
330
8
100
AcDbSymbolTableRecord
100
AcDbViewportTableRecord
  2
*Active
 70
     0
 10
0.0
 20
0.0
 11
1.0
 21
1.0
 12
-227.1218131028277
 22
453.63824354342
 13
0.0
 23
0.0
 14
10.0
 24
10.0
 15
10.0
 25
10.0
 16
0.0
 26
0.0
 36
1.0
 17
0.0
 27
0.0
 37
0.0
 40
967.6484813623144
 41
1.454088050314465
 42
50.0
 43
0.0
 44
0.0
 50
0.0
 51
0.0
 71
     0
 72
  1000
 73
     1
 74
     0
 75
     0
 76
     0
 77
     0
 78
     0
281
     0
 65
     1
110
0.0
120
0.0
130
0.0
111
1.0
121
0.0
131
0.0
112
0.0
122
1.0
132
0.0
 79
     0
146
0.0
  0
ENDTAB
  0
TABLE
  2
LTYPE
  5
5
330
0
100
AcDbSymbolTable
 70
     2
  0
LTYPE
  5
14
330
5
100
AcDbSymbolTableRecord
100
AcDbLinetypeTableRecord
  2
ByBlock
 70
     0
  3

 72
    65
 73
     0
 40
0.0
  0
LTYPE
  5
15
330
5
100
AcDbSymbolTableRecord
100
AcDbLinetypeTableRecord
  2
ByLayer
 70
     0
  3

 72
    65
 73
     0
 40
0.0
  0
LTYPE
  5
16
330
5
100
AcDbSymbolTableRecord
100
AcDbLinetypeTableRecord
  2
Continuous
 70
     0
  3
Solid line
 72
    65
 73
     0
 40
0.0
  0
LTYPE
  5
88C
330
5
100
AcDbSymbolTableRecord
100
AcDbLinetypeTableRecord
  2
PHANTOM
 70
     0
  3
Phantom ______  __  __  ______  __  __  ______
 72
    65
 73
     6
 40
12.7
 49
6.349999999999999
 74
     0
 49
-1.27
 74
     0
 49
1.27
 74
     0
 49
-1.27
 74
     0
 49
1.27
 74
     0
 49
-1.27
 74
     0
  0
ENDTAB
  0
TABLE
  2
LAYER
  5
2
102
{ACAD_XDICTIONARY
360
118
102
}
330
0
100
AcDbSymbolTable
 70
     1
  0
LAYER
  5
10
330
2
100
AcDbSymbolTableRecord
100
AcDbLayerTableRecord
  2
0
 70
     0
 62
     7
  6
Continuous
370
    -3
390
F
  0
ENDTAB
  0
TABLE
  2
STYLE
  5
3
330
0
100
AcDbSymbolTable
 70
     2
  0
STYLE
  5
11
330
3
100
AcDbSymbolTableRecord
100
AcDbTextStyleTableRecord
  2
Standard
 70
     0
 40
0.0
 41
1.0
 50
0.0
 71
     0
 42
2.5
  3
txt
  4

  0
STYLE
  5
112
330
3
100
AcDbSymbolTableRecord
100
AcDbTextStyleTableRecord
  2
ISO
 70
     0
 40
0.0
 41
1.0
 50
0.0
 71
     0
 42
2.0
  3
ISOCP.SHX
  4

  0
ENDTAB
  0
TABLE
  2
VIEW
  5
6
330
0
100
AcDbSymbolTable
 70
     0
  0
ENDTAB
  0
TABLE
  2
UCS
  5
7
330
0
100
AcDbSymbolTable
 70
     0
  0
ENDTAB
  0
TABLE
  2
APPID
  5
9
330
0
100
AcDbSymbolTable
 70
     6
  0
APPID
  5
12
330
9
100
AcDbSymbolTableRecord
100
AcDbRegAppTableRecord
  2
ACAD
 70
     0
  0
APPID
  5
9E
330
9
100
AcDbSymbolTableRecord
100
AcDbRegAppTableRecord
  2
ACAD_PSEXT
 70
     0
  0
APPID
  5
114
330
9
100
AcDbSymbolTableRecord
100
AcDbRegAppTableRecord
  2
ACAD_DSTYLE_DIMEXT_ENABLED
 70
     0
  0
APPID
  5
115
330
9
100
AcDbSymbolTableRecord
100
AcDbRegAppTableRecord
  2
ACAD_DSTYLE_DIMEXT_LENGTH
 70
     0
  0
APPID
  5
116
330
9
100
AcDbSymbolTableRecord
100
AcDbRegAppTableRecord
  2
ACAD_DSTYLE_DIMJOGGED_JOGANGLE_SYMBOL
 70
     0
  0
APPID
  5
117
330
9
100
AcDbSymbolTableRecord
100
AcDbRegAppTableRecord
  2
ACAD_DSTYLE_DIMARC_LENGTH_SYMBOL
 70
     0
  0
ENDTAB
  0
TABLE
  2
DIMSTYLE
  5
A
330
0
100
AcDbSymbolTable
 70
     2
100
AcDbDimStyleTable
 71
     1
340
27
  0
DIMSTYLE
105
27
330
A
100
AcDbSymbolTableRecord
100
AcDbDimStyleTableRecord
  2
ISO-25
 70
     0
 41
2.5
 42
0.625
 43
3.75
 44
1.25
 73
     0
 74
     0
 77
     1
 78
     8
140
2.5
141
2.5
143
0.03937007874016
147
0.625
171
     3
172
     1
271
     2
272
     2
274
     3
278
    44
283
     0
284
     8
340
11
  0
DIMSTYLE
105
113
330
A
100
AcDbSymbolTableRecord
100
AcDbDimStyleTableRecord
  2
STANDARD
 70
     0
 40
0.0
 41
3.5
 42
0.1
 43
7.0
 44
1.8
 73
     0
 74
     0
 77
     1
140
5.0
141
1.5
146
0.8
147
1.1
172
     1
176
   256
177
   256
178
     6
271
     0
272
     1
284
     8
288
     1
289
     0
340
112
  0
ENDTAB
  0
TABLE
  2
BLOCK_RECORD
  5
1
330
0
100
AcDbSymbolTable
 70
     2
  0
BLOCK_RECORD
  5
1F
102
{ACAD_XDICTIONARY
360
1DD
102
}
330
1
100
AcDbSymbolTableRecord
100
AcDbBlockTableRecord
  2
*Model_Space
340
22
  0
BLOCK_RECORD
  5
D2
330
1
100
AcDbSymbolTableRecord
100
AcDbBlockTableRecord
  2
*Paper_Space
340
D3
  0
BLOCK_RECORD
  5
D6
330
1
100
AcDbSymbolTableRecord
100
AcDbBlockTableRecord
  2
*Paper_Space0
340
D7
  0
BLOCK_RECORD
  5
93F
102
{ACAD_XDICTIONARY
360
B14
102
}
330
1
100
AcDbSymbolTableRecord
100
AcDbBlockTableRecord
  2
12120-A
340
0
310
2800000020000000200000000100080000000000000400000000000000000000000000000000000000000000000080000080000000808000800000008000800080800000C0C0C000C0DCC000F0CAA6000020400000206000002080000020A0000020C0000020E00000400000004020000040400000406000004080000040A0
310
000040C0000040E00000600000006020000060400000606000006080000060A0000060C0000060E00000800000008020000080400000806000008080000080A0000080C0000080E00000A0000000A0200000A0400000A0600000A0800000A0A00000A0C00000A0E00000C0000000C0200000C0400000C0600000C0800000C0
310
A00000C0C00000C0E00000E0000000E0200000E0400000E0600000E0800000E0A00000E0C00000E0E00040000000400020004000400040006000400080004000A0004000C0004000E00040200000402020004020400040206000402080004020A0004020C0004020E000404000004040200040404000404060004040800040
310
40A0004040C0004040E00040600000406020004060400040606000406080004060A0004060C0004060E00040800000408020004080400040806000408080004080A0004080C0004080E00040A0000040A0200040A0400040A0600040A0800040A0A00040A0C00040A0E00040C0000040C0200040C0400040C0600040C08000
310
40C0A00040C0C00040C0E00040E0000040E0200040E0400040E0600040E0800040E0A00040E0C00040E0E00080000000800020008000400080006000800080008000A0008000C0008000E00080200000802020008020400080206000802080008020A0008020C0008020E00080400000804020008040400080406000804080
310
008040A0008040C0008040E00080600000806020008060400080606000806080008060A0008060C0008060E00080800000808020008080400080806000808080008080A0008080C0008080E00080A0000080A0200080A0400080A0600080A0800080A0A00080A0C00080A0E00080C0000080C0200080C0400080C0600080C0
310
800080C0A00080C0C00080C0E00080E0000080E0200080E0400080E0600080E0800080E0A00080E0C00080E0E000C0000000C0002000C0004000C0006000C0008000C000A000C000C000C000E000C0200000C0202000C0204000C0206000C0208000C020A000C020C000C020E000C0400000C0402000C0404000C0406000C0
310
408000C040A000C040C000C040E000C0600000C0602000C0604000C0606000C0608000C060A000C060C000C060E000C0800000C0802000C0804000C0806000C0808000C080A000C080C000C080E000C0A00000C0A02000C0A04000C0A06000C0A08000C0A0A000C0A0C000C0A0E000C0C00000C0C02000C0C04000C0C06000
310
C0C08000C0C0A000F0FBFF00A4A0A000808080000000FF0000FF000000FFFF00FF000000FF00FF00FFFF0000FFFFFF0000000000000000000000000000000000000000000000000000000000000000000000000000000000000000FFFFFFFFFFFFFFFFFFFF00000000000000000000000000000000000000000000FF000000
310
0000000000FF00000000000000000000000000000000000000000000FFFFFFFFFFFFFFFFFFFF0000000000000000000000000000000000000000000000FF000000000000FF000000000000000000000000000000000000000000000000FF000000000000FF000000000000000000000000000000000000000000000000FF00
310
0000000000FF000000000000000000000000000000000000000000000000FF000000000000FF000000000000000000000000000000000000000000000000FFFFFFFFFFFFFFFF000000000000000000000000000000000000000000000000FF000000000000FF000000000000000000000000000000000000000000000000FF
310
00000000000000FF00000000000000000000000000000000000000000000FF0000000000000000FF00000000000000000000000000000000000000000000FF000000000000000000FF00000000000000000000000000000000000000FFFFFFFFFFFFFFFFFFFFFFFFFFFF000000000000000000000000000000000000FFFFFF
310
FFFFFFFFFFFFFFFFFFFFFF000000000000000000000000000000000000FFFFFFFFFFFFFFFFFFFFFFFFFFFF000000000000000000000000000000000000FFFFFFFFFFFFFFFFFFFFFFFFFFFF000000000000000000000000000000000000FF000000000000000000000000FF000000000000000000000000000000000000FF00
310
0000000000000000000000FF000000000000000000000000000000000000FF000000000000000000000000FF000000000000000000000000000000000000FF000000000000000000000000FF000000000000000000000000000000000000FF000000000000000000000000FF000000000000000000000000000000000000FF
310
000000000000000000000000FF000000000000000000000000000000000000FF000000000000000000000000FF000000000000000000000000000000000000FF000000000000000000000000FF000000000000000000000000000000000000FF000000000000000000000000FF000000000000000000000000000000000000
310
FF000000000000000000000000FF000000000000000000000000000000000000FF000000000000000000000000FF000000000000000000000000000000000000FFFFFFFFFFFFFFFFFFFFFFFFFFFF000000000000000000000000000000000000FFFFFFFFFFFFFFFFFFFFFFFFFFFF0000000000000000000000000000000000
310
00FFFFFFFFFFFFFFFFFFFFFFFFFFFF0000000000000000000000000000000000000000000000000000000000000000000000000000000000
102
{BLKREFS
331
995
102
}
1001
ACAD
1000
DesignCenter Data
1002
{
1070
     1
1070
     4
1002
}
  0
ENDTAB
  0
ENDSEC
  0
SECTION
  2
BLOCKS
  0
BLOCK
  5
20
330
1F
100
AcDbEntity
  8
0
100
AcDbBlockBegin
  2
*Model_Space
 70
     0
 10
0.0
 20
0.0
 30
0.0
  3
*Model_Space
  1

  0
ENDBLK
  5
21
330
1F
100
AcDbEntity
  8
0
100
AcDbBlockEnd
  0
BLOCK
  5
D4
330
D2
100
AcDbEntity
 67
     1
  8
0
100
AcDbBlockBegin
  2
*Paper_Space
 70
     0
 10
0.0
 20
0.0
 30
0.0
  3
*Paper_Space
  1

  0
ENDBLK
  5
D5
330
D2
100
AcDbEntity
 67
     1
  8
0
100
AcDbBlockEnd
  0
BLOCK
  5
D8
330
D6
100
AcDbEntity
  8
0
100
AcDbBlockBegin
  2
*Paper_Space0
 70
     0
 10
0.0
 20
0.0
 30
0.0
  3
*Paper_Space0
  1

  0
ENDBLK
  5
D9
330
D6
100
AcDbEntity
  8
0
100
AcDbBlockEnd
  0
BLOCK
  5
940
330
93F
100
AcDbEntity
  8
0
100
AcDbBlockBegin
  2
12120-A
 70
     0
 10
0.0
 20
0.0
 30
0.0
  3
12120-A
  1

  0
LINE
  5
942
330
93F
100
AcDbEntity
  8
0
  6
Continuous
370
    15
100
AcDbLine
 10
-187.0470559054447
 20
752.1078084559603
 30
0.0
 11
-187.6406141416628
 21
758.8922101406897
 31
0.0
  0
ARC
  5
943
330
93F
100
AcDbEntity
  8
0
  6
Continuous
370
    15
100
AcDbCircle
 10
-192.1234902830765
 20
758.5000092983245
 30
0.0
 40
4.500000000000017
100
AcDbArc
 50
4.99999999999812
 51
74.10889962647495
  0
ARC
  5
944
330
93F
100
AcDbEntity
  8
0
  6
Continuous
370
    15
100
AcDbCircle
 10
-189.6592018108967
 20
767.1560639611534
 30
0.0
 40
4.500000000000006
100
AcDbArc
 50
184.9999999999981
 51
254.108899626475
  0
LINE
  5
945
330
93F
100
AcDbEntity
  8
0
  6
Continuous
370
    15
100
AcDbLine
 10
-195.5244309851114
 20
782.5642305845867
 30
0.0
 11
-194.1420779523105
 21
766.7638631187892
 31
0.0
  0
ARC
  5
946
330
93F
100
AcDbEntity
  8
0
  6
Continuous
370
    15
100
AcDbCircle
 10
-190.5434574946521
 20
783.0000092983246
 30
0.0
 40
5.000000000000007
100
AcDbArc
 50
90.0
 51
184.9999999999981
  0
LINE
  5
947
330
93F
100
AcDbEntity
  8
0
  6
Continuous
370
    15
100
AcDbLine
 10
190.5434574946557
 20
788.0000092983245
 30
0.0
 11
-190.5434574946521
 21
788.0000092983245
 31
0.0
  0
ARC
  5
948
330
93F
100
AcDbEntity
  8
0
  6
Continuous
370
    15
100
AcDbCircle
 10
-180.6876700471093
 20
746.0000092983245
 30
0.0
 40
2.0
100
AcDbArc
 50
0.0
 51
90.0
  0
LINE
  5
949
330
93F
100
AcDbEntity
  8
0
  6
Continuous
370
    15
100
AcDbLine
 10
-182.564179764031
 20
748.0000092983246
 30
0.0
 11
-180.6876700471093
 21
748.0000092983246
 31
0.0
  0
ARC
  5
94A
330
93F
100
AcDbEntity
  8
0
  6
Continuous
370
    15
100
AcDbCircle
 10
-182.564179764031
 20
752.5000092983246
 30
0.0
 40
4.5
100
AcDbArc
 50
184.9999999999981
 51
270.0
  0
ARC
  5
94B
330
93F
100
AcDbEntity
  8
0
  6
Continuous
370
    15
100
AcDbCircle
 10
190.5434574946557
 20
783.0000092983246
 30
0.0
 40
5.00000000000005
100
AcDbArc
 50
355.0000000000019
 51
90.0
  0
LINE
  5
94C
330
93F
100
AcDbEntity
  8
0
  6
Continuous
370
    15
100
AcDbLine
 10
194.1420779523123
 20
766.7638631187892
 30
0.0
 11
195.5244309851132
 21
782.5642305845867
 31
0.0
  0
ARC
  5
94D
330
93F
100
AcDbEntity
  8
0
  6
Continuous
370
    15
100
AcDbCircle
 10
189.6592018109004
 20
767.1560639611534
 30
0.0
 40
4.50000000000003
100
AcDbArc
 50
285.891100373525
 51
355.0000000000019
  0
ARC
  5
94E
330
93F
100
AcDbEntity
  8
0
  6
Continuous
370
    15
100
AcDbCircle
 10
192.1234902830802
 20
758.5000092983245
 30
0.0
 40
4.499999999999999
100
AcDbArc
 50
105.891100373525
 51
175.0000000000019
  0
LINE
  5
94F
330
93F
100
AcDbEntity
  8
0
  6
Continuous
370
    15
100
AcDbLine
 10
187.6406141416664
 20
758.8922101406897
 30
0.0
 11
187.0470559054465
 21
752.1078084559603
 31
0.0
  0
ARC
  5
950
330
93F
100
AcDbEntity
  8
0
  6
Continuous
370
    15
100
AcDbCircle
 10
182.5641797640346
 20
752.5000092983246
 30
0.0
 40
4.5
100
AcDbArc
 50
270.0
 51
355.0000000000019
  0
LINE
  5
951
330
93F
100
AcDbEntity
  8
0
  6
Continuous
370
    15
100
AcDbLine
 10
180.687670047113
 20
748.0000092983246
 30
0.0
 11
182.5641797640346
 21
748.0000092983246
 31
0.0
  0
ARC
  5
952
330
93F
100
AcDbEntity
  8
0
  6
Continuous
370
    15
100
AcDbCircle
 10
180.687670047113
 20
746.0000092983245
 30
0.0
 40
2.0
100
AcDbArc
 50
90.0
 51
180.0
  0
LINE
  5
953
330
93F
100
AcDbEntity
  8
0
  6
Continuous
370
    15
100
AcDbLine
 10
194.0049213527236
 20
792.1629246665179
 30
0.0
 11
195.4674962597164
 21
783.8682501866596
 31
0.0
  0
LINE
  5
954
330
93F
100
AcDbEntity
  8
0
  6
Continuous
370
    15
100
AcDbLine
 10
-195.4674962597128
 20
783.8682501866596
 30
0.0
 11
-194.0049213527199
 21
792.1629246665179
 31
0.0
  0
LINE
  5
955
330
93F
100
AcDbEntity
  8
0
  6
Continuous
370
    15
100
AcDbLine
 10
193.6123698760111
 20
794.3891947196598
 30
0.0
 11
194.0049213527236
 21
792.1629246665179
 31
0.0
  0
LINE
  5
956
330
93F
100
AcDbEntity
  8
0
  6
Continuous
370
    15
100
AcDbLine
 10
-194.0049213527199
 20
792.1629246665179
 30
0.0
 11
-193.6123698760075
 21
794.3891947196598
 31
0.0
  0
ARC
  5
957
330
93F
100
AcDbEntity
  8
0
  6
Continuous
370
    15
100
AcDbCircle
 10
185.7339078519126
 20
793.0000092983245
 30
0.0
 40
8.00000000000003
100
AcDbArc
 50
10.00000000000342
 51
90.0
  0
ARC
  5
958
330
93F
100
AcDbEntity
  8
0
  6
Continuous
370
    15
100
AcDbCircle
 10
-185.7339078519107
 20
793.0000092983245
 30
0.0
 40
8.0
100
AcDbArc
 50
90.0
 51
169.9999999999966
  0
LINE
  5
959
330
93F
100
AcDbEntity
  8
0
  6
Continuous
370
    15
100
AcDbLine
 10
-185.7339078519107
 20
801.0000092983245
 30
0.0
 11
185.7339078519126
 21
801.0000092983245
 31
0.0
  0
ARC
  5
95A
330
93F
100
AcDbEntity
  8
0
370
    15
100
AcDbCircle
 10
171.0589069442503
 20
413.0000092983245
 30
0.0
 40
4.000000000000147
100
AcDbArc
 50
354.654654204631
 51
359.1499766189127
  0
ARC
  5
95D
330
93F
100
AcDbEntity
  8
0
370
    15
100
AcDbCircle
 10
-171.0589069442467
 20
413.0000092983245
 30
0.0
 40
4.000000000000033
100
AcDbArc
 50
180.8500233810873
 51
185.3453457952986
  0
LINE
  5
95E
330
93F
100
AcDbEntity
  8
0
370
    15
100
AcDbLine
 10
-175.0584667559324
 20
412.9406686482989
 30
0.0
 11
-179.9999999999982
 21
746.0000092983245
 31
0.0
  0
LINE
  5
95F
330
93F
100
AcDbEntity
  8
0
370
    15
100
AcDbLine
 10
180.0000000000018
 20
746.0000092983245
 30
0.0
 11
175.058466755936
 21
412.9406686482989
 31
0.0
  0
LINE
  5
961
330
93F
100
AcDbEntity
  8
0
  6
Continuous
370
    15
100
AcDbLine
 10
180.0000000000018
 20
746.0000092983245
 30
0.0
 11
-179.9999999999982
 21
746.0000092983245
 31
0.0
  0
LINE
  5
962
330
93F
100
AcDbEntity
  8
0
100
AcDbLine
 10
190.8913460469903
 20
762.8280366297395
 30
0.0
 11
-190.8913460469866
 21
762.8280366297395
 31
0.0
  0
LINE
  5
963
330
93F
100
AcDbEntity
  8
0
  6
Continuous
370
    15
100
AcDbLine
 10
-180.6876700471093
 20
748.0000092983246
 30
0.0
 11
180.687670047113
 21
748.0000092983246
 31
0.0
  0
ARC
  5
964
330
93F
100
AcDbEntity
  8
0
  6
Continuous
370
    15
100
AcDbCircle
 10
-169.4064746726308
 20
323.2260523306822
 30
0.0
 40
7.118701752995905
100
AcDbArc
 50
7.719078769725802
 51
69.86063217919191
  0
ARC
  5
965
330
93F
100
AcDbEntity
  8
0
  6
Continuous
370
    15
100
AcDbCircle
 10
-20.09803732582259
 20
340.5009241573562
 30
0.0
 40
183.1786513983363
100
AcDbArc
 50
313.4433138708359
 51
354.8889530654512
  0
ARC
  5
966
330
93F
100
AcDbEntity
  8
0
  6
Continuous
370
    15
100
AcDbCircle
 10
20.10058177417523
 20
340.5021399169018
 30
0.0
 40
183.1812940399387
100
AcDbArc
 50
185.1113547900773
 51
226.5564273873915
  0
LINE
  5
967
330
93F
100
AcDbEntity
  8
0
  6
Continuous
370
    15
100
AcDbLine
 10
171.090617775917
 20
334.5736265182495
 30
0.0
 11
171.8057543039303
 21
348.2192456722259
 31
0.0
  0
LINE
  5
968
330
93F
100
AcDbEntity
  8
0
  6
Continuous
370
    15
100
AcDbLine
 10
-171.0906177759189
 20
334.5736265182495
 30
0.0
 11
-171.8057543039322
 21
348.2192456722259
 31
0.0
  0
ARC
  5
969
330
93F
100
AcDbEntity
  8
0
  6
Continuous
370
    15
100
AcDbCircle
 10
166.097521016225
 20
334.8352915736287
 30
0.0
 40
4.999948385017781
100
AcDbArc
 50
279.8803811739698
 51
357.0001379813192
  0
ARC
  5
96A
330
93F
100
AcDbEntity
  8
0
  6
Continuous
370
    15
100
AcDbCircle
 10
-173.6773192483142
 20
384.0880369648621
 30
0.0
 40
6.0
100
AcDbArc
 50
90.0
 51
183.0000000000056
  0
LINE
  5
96B
330
93F
100
AcDbEntity
  8
0
  6
Continuous
370
    15
100
AcDbLine
 10
-173.6773252487182
 20
390.0880515575409
 30
0.0
 11
173.6773252487182
 21
390.0880515575409
 31
0.0
  0
ARC
  5
96C
330
93F
100
AcDbEntity
  8
0
  6
Continuous
370
    15
100
AcDbCircle
 10
173.6773192483124
 20
384.0880369648621
 30
0.0
 40
6.00000000000006
100
AcDbArc
 50
356.9999999999928
 51
90.0
  0
LINE
  5
96D
330
93F
100
AcDbEntity
  8
0
  6
Continuous
370
    15
100
AcDbLine
 10
-178.3050745725631
 20
357.7468991279602
 30
0.0
 11
-179.6690970659256
 21
383.7740123271942
 31
0.0
  0
LINE
  5
96E
330
93F
100
AcDbEntity
  8
0
  6
Continuous
370
    15
100
AcDbLine
 10
178.3050745725631
 20
357.7468991279602
 30
0.0
 11
179.6690970659238
 21
383.7740123271942
 31
0.0
  0
ARC
  5
96F
330
93F
100
AcDbEntity
  8
0
  6
Continuous
370
    15
100
AcDbCircle
 10
173.3119254960875
 20
358.0085862244978
 30
0.0
 40
5.000000000004488
100
AcDbArc
 50
294.4000301187304
 51
356.9999999990029
  0
ARC
  5
970
330
93F
100
AcDbEntity
  8
0
  6
Continuous
370
    15
100
AcDbCircle
 10
-173.3119254960893
 20
358.0085862244978
 30
0.0
 40
5.000000000000052
100
AcDbArc
 50
183.0000000000056
 51
245.5999698811552
  0
ARC
  5
971
330
93F
100
AcDbEntity
  8
0
  6
Continuous
370
    15
100
AcDbCircle
 10
-177.8973899809498
 20
347.8999999999996
 30
0.0
 40
6.100000000000136
100
AcDbArc
 50
3.000000000057803
 51
65.59996988115519
  0
ARC
  5
972
330
93F
100
AcDbEntity
  8
0
  6
Continuous
370
    15
100
AcDbCircle
 10
177.8973899809462
 20
347.8999999999996
 30
0.0
 40
6.099999999999948
100
AcDbArc
 50
114.4000301188448
 51
176.9999999999944
  0
LINE
  5
973
330
93F
100
AcDbEntity
  8
0
  6
Continuous
370
    15
100
AcDbLine
 10
-125.332623720169
 20
30.48831969499588
 30
0.0
 11
-128.0000060796737
 21
0.0
 31
0.0
  0
LINE
  5
974
330
93F
100
AcDbEntity
  8
0
  6
Continuous
370
    15
100
AcDbLine
 10
125.332623720169
 20
30.48831969499588
 30
0.0
 11
128.0000060796737
 21
0.0
 31
0.0
  0
LINE
  5
975
330
93F
100
AcDbEntity
  8
0
  6
Continuous
370
    15
100
AcDbLine
 10
-128.0000060796737
 20
0.0
 30
0.0
 11
128.0000060796737
 21
0.0
 31
0.0
  0
ARC
  5
976
330
93F
100
AcDbEntity
  8
0
  6
Continuous
370
    15
100
AcDbCircle
 10
120.3516442391919
 20
30.05254014779894
 30
0.0
 40
5.000000000011866
100
AcDbArc
 50
5.000000001595262
 51
84.42309508167644
  0
ARC
  5
977
330
93F
100
AcDbEntity
  8
0
  6
Continuous
370
    15
100
AcDbCircle
 10
-120.3516442391938
 20
30.05254014779894
 30
0.0
 40
5.000000000000002
100
AcDbArc
 50
95.5769049197895
 51
174.9999999999756
  0
ARC
  5
978
330
93F
100
AcDbEntity
  8
0
  6
Continuous
370
    15
100
AcDbCircle
 10
-123.0927062055962
 20
189.3483141599645
 30
0.0
 40
25.00000000000002
100
AcDbArc
 50
356.9999999999928
 51
46.49951435944561
  0
ARC
  5
979
330
93F
100
AcDbEntity
  8
0
  6
Continuous
370
    15
100
AcDbCircle
 10
121.4303614468081
 20
41.10000000000036
 30
0.0
 40
6.099999999999926
100
AcDbArc
 50
186.0000000000099
 51
264.4230950790586
  0
ARC
  5
97A
330
93F
100
AcDbEntity
  8
0
  6
Continuous
370
    15
100
AcDbCircle
 10
-121.4303614468117
 20
41.10000000000036
 30
0.0
 40
6.099999999999988
100
AcDbArc
 50
275.5769049197895
 51
353.9999999999901
  0
LINE
  5
97B
330
93F
100
AcDbEntity
  8
0
  6
Continuous
370
    15
100
AcDbLine
 10
-114.8239076137542
 20
45.59887945652008
 30
0.0
 11
-115.3637766838073
 21
40.46237468719482
 31
0.0
  0
LINE
  5
97C
330
93F
100
AcDbEntity
  8
0
  6
Continuous
370
    15
100
AcDbLine
 10
114.8239076137542
 20
45.59887945652008
 30
0.0
 11
115.3637766838073
 21
40.46237468719482
 31
0.0
  0
ARC
  5
97D
330
93F
100
AcDbEntity
  8
0
  6
Continuous
370
    15
100
AcDbCircle
 10
109.8513001158899
 20
45.0762377482406
 30
0.0
 40
5.000000000000001
100
AcDbArc
 50
6.000000000009967
 51
83.28091623192056
  0
ARC
  5
97E
330
93F
100
AcDbEntity
  8
0
  6
Continuous
370
    15
100
AcDbCircle
 10
-109.8513001158917
 20
45.0762377482406
 30
0.0
 40
4.999999999999989
100
AcDbArc
 50
96.7190837673448
 51
173.99999999999
  0
ARC
  5
97F
330
93F
100
AcDbEntity
  8
0
  6
Continuous
370
    15
100
AcDbCircle
 10
111.1500171045681
 20
56.10000000000036
 30
0.0
 40
6.100000000008454
100
AcDbArc
 50
183.0000000015172
 51
263.2809162333899
  0
ARC
  5
980
330
93F
100
AcDbEntity
  8
0
  6
Continuous
370
    15
100
AcDbCircle
 10
-111.15001710457
 20
56.10000000000036
 30
0.0
 40
6.100000000000007
100
AcDbArc
 50
276.7190837673448
 51
356.9999999999928
  0
LINE
  5
981
330
93F
100
AcDbEntity
  8
0
  6
Continuous
370
    15
100
AcDbLine
 10
98.12697023153305
 20
188.0399137735366
 30
0.0
 11
105.058379471302
 21
55.78074976801872
 31
0.0
  0
LINE
  5
982
330
93F
100
AcDbEntity
  8
0
  6
Continuous
370
    15
100
AcDbLine
 10
-98.12697023153305
 20
188.0399137735366
 30
0.0
 11
-105.058379471302
 21
55.78074976801872
 31
0.0
  0
ARC
  5
983
330
93F
100
AcDbEntity
  8
0
  6
Continuous
370
    15
100
AcDbCircle
 10
180.7919517853297
 20
393.8753759220672
 30
0.0
 40
6.100000000000007
100
AcDbArc
 50
185.0000000000243
 51
233.9857701291994
  0
ARC
  5
984
330
93F
100
AcDbEntity
  8
0
  6
Continuous
370
    15
100
AcDbCircle
 10
-180.7919517853279
 20
393.8753759220672
 30
0.0
 40
6.100000000000015
100
AcDbArc
 50
306.0142298708007
 51
354.9999999999756
  0
LINE
  5
985
330
93F
100
AcDbEntity
  8
0
  6
Continuous
370
    15
100
AcDbLine
 10
174.2563447404569
 20
398.5880515575409
 30
0.0
 11
174.7151613235473
 21
393.3437168598175
 31
0.0
  0
LINE
  5
986
330
93F
100
AcDbEntity
  8
0
  6
Continuous
370
    15
100
AcDbLine
 10
-174.7151613235473
 20
393.3437168598175
 30
0.0
 11
-174.2563447404569
 21
398.5880515575409
 31
0.0
  0
ARC
  5
98C
330
93F
100
AcDbEntity
  8
0
  6
PHANTOM
370
     0
100
AcDbCircle
 10
-166.0975210162596
 20
334.8352915735886
 30
0.0
 40
4.999948384983303
100
AcDbArc
 50
182.9998620182356
 51
260.1196188263477
  0
LINE
  5
98D
330
93F
100
AcDbEntity
  8
0
100
AcDbLine
 10
175.3774434328079
 20
353.4551560878754
 30
0.0
 11
-175.3774434328079
 21
353.4551560878754
 31
0.0
  0
LWPOLYLINE
  5
98E
330
93F
100
AcDbEntity
  8
0
100
AcDbPolyline
 90
       14
 70
   128
 43
0.0
 10
0.0
 20
194.9491949292751
 10
8.555055595932572
 20
194.9775965425106
 10
17.05777831375417
 20
195.0577051850887
 10
25.40931105613527
 20
195.1818467589946
 10
34.32832658290681
 20
195.3594536992641
 10
42.97623038291931
 20
195.5683232757183
 10
51.25614255666732
 20
195.7940758678051
 10
59.07118320465087
 20
196.0222871514888
 10
66.34732335805892
 20
196.2379814597698
 10
73.12460243701753
 20
196.432635328445
 10
79.34284955263137
 20
196.5976060840221
 10
84.94187146425247
 20
196.724280855331
 10
91.32158011197862
 20
196.8250276061626
 10
93.2174393981586
 20
196.8375838029105
  0
LWPOLYLINE
  5
98F
330
93F
100
AcDbEntity
  8
0
100
AcDbPolyline
 90
       14
 70
   128
 43
0.0
 10
-93.2174393981586
 20
196.8375838029105
 10
-91.32158011198043
 20
196.8250276061626
 10
-84.94187146425247
 20
196.724280855331
 10
-79.34284955263137
 20
196.5976060840221
 10
-73.12460243701934
 20
196.432635328445
 10
-66.34732335805892
 20
196.2379814597698
 10
-59.07118320465087
 20
196.0222871514888
 10
-51.25614255666732
 20
195.7940758678051
 10
-42.97623038291931
 20
195.5683232757183
 10
-34.32832658291045
 20
195.3594536992641
 10
-25.40931105613891
 20
195.1818467589946
 10
-17.05777831375781
 20
195.0577051850887
 10
-8.55505559593621
 20
194.9775965425106
 10
0.0
 20
194.9491949292751
  0
LINE
  5
990
330
93F
100
AcDbEntity
  8
0
100
AcDbLine
 10
-120.8375543355941
 20
35.02887487411499
 30
0.0
 11
120.8375543355941
 21
35.02887487411499
 31
0.0
  0
ARC
  5
991
330
93F
100
AcDbEntity
  8
0
  6
Continuous
370
    15
100
AcDbCircle
 10
123.0927062055962
 20
189.3483141599645
 30
0.0
 40
25.0
100
AcDbArc
 50
133.5004856405544
 51
183.0000000000056
  0
LINE
  5
992
330
93F
100
AcDbEntity
  8
0
100
AcDbLine
 10
-110.4363054037094
 20
50.04189535975456
 30
0.0
 11
110.4363054037094
 21
50.04189535975456
 31
0.0
  0
ARC
  5
993
330
93F
100
AcDbEntity
  8
0
  6
Continuous
370
    15
100
AcDbCircle
 10
169.4064746726289
 20
323.2260523306822
 30
0.0
 40
7.118701752995905
100
AcDbArc
 50
110.1393678208081
 51
172.2809212302742
  0
LINE
  5
994
330
93F
100
AcDbEntity
  8
0
100
AcDbLine
 10
166.9554710388147
 20
329.9095017271593
 30
0.0
 11
-166.9554710388165
 21
329.9095017271493
 31
0.0
  0
LINE
  5
A87
330
93F
100
AcDbEntity
  8
0
100
AcDbLine
 10
143.9999999999959
 20
398.6412837460393
 30
0.0
 11
144.5533365810402
 21
392.5413923171961
 31
0.0
  0
ARC
  5
A88
330
93F
100
AcDbEntity
  8
0
100
AcDbCircle
 10
145.5492474188627
 20
392.631733908428
 30
0.0
 40
1.0
100
AcDbArc
 50
185.1832588820342
 51
269.6509408711751
  0
ARC
  5
A89
330
93F
100
AcDbEntity
  8
0
100
AcDbCircle
 10
149.0315615361192
 20
422.431356634115
 30
0.0
 40
8.843333061154382
100
AcDbArc
 50
195.4868421366881
 51
343.4678698514289
  0
ARC
  5
A8A
330
93F
100
AcDbEntity
  8
0
100
AcDbCircle
 10
-149.0168106511305
 20
422.4313566341147
 30
0.0
 40
8.843333061154382
100
AcDbArc
 50
195.4868421366881
 51
343.4678698514289
  0
LINE
  5
A8B
330
93F
100
AcDbEntity
  8
0
  6
Continuous
100
AcDbLine
 10
67.24999999999955
 20
390.0880515575409
 30
0.0
 11
67.24999999999955
 21
394.1028102388529
 31
0.0
  0
ARC
  5
A8C
330
93F
100
AcDbEntity
  8
0
  6
Continuous
100
AcDbCircle
 10
68.24999999999954
 20
394.1028102388529
 30
0.0
 40
1.0
100
AcDbArc
 50
90.0
 51
180.0
  0
LINE
  5
A8D
330
93F
100
AcDbEntity
  8
0
  6
Continuous
100
AcDbLine
 10
103.7500000000013
 20
390.0880515575409
 30
0.0
 11
103.7499999999995
 21
394.1028102388532
 31
0.0
  0
LINE
  5
A8E
330
93F
100
AcDbEntity
  8
0
  6
Continuous
100
AcDbLine
 10
-67.25000000000227
 20
390.0880515575409
 30
0.0
 11
-67.25000000000227
 21
394.1028102388532
 31
0.0
  0
ARC
  5
A8F
330
93F
100
AcDbEntity
  8
0
  6
Continuous
100
AcDbCircle
 10
-68.25000000000227
 20
394.1028102388529
 30
0.0
 40
1.0
100
AcDbArc
 50
0.0
 51
90.0
  0
LINE
  5
A90
330
93F
100
AcDbEntity
  8
0
  6
Continuous
100
AcDbLine
 10
-103.7500000000041
 20
390.0880515575409
 30
0.0
 11
-103.7500000000041
 21
394.1028102388529
 31
0.0
  0
ARC
  5
A91
330
93F
100
AcDbEntity
  8
0
  6
Continuous
100
AcDbCircle
 10
-102.7500000000041
 20
394.1028102388532
 30
0.0
 40
1.0
100
AcDbArc
 50
90.0
 51
180.0
  0
LINE
  5
A92
330
93F
100
AcDbEntity
  8
0
  6
Continuous
100
AcDbLine
 10
-102.7500000000041
 20
395.1028102388532
 30
0.0
 11
-68.25000000000227
 21
395.102810238853
 31
0.0
  0
LINE
  5
A93
330
93F
100
AcDbEntity
  8
0
  6
Continuous
100
AcDbLine
 10
68.24999999999954
 20
395.102810238853
 30
0.0
 11
102.7499999999995
 21
395.102810238853
 31
0.0
  0
LINE
  5
A94
330
93F
100
AcDbEntity
  8
0
  6
Continuous
100
AcDbLine
 10
-103.7500000000022
 20
390.0880515575409
 30
0.0
 11
-67.25000000000227
 21
390.0880515575409
 31
0.0
  0
LINE
  5
A95
330
93F
100
AcDbEntity
  8
0
  6
Continuous
100
AcDbLine
 10
67.25000000000318
 20
390.0880515575409
 30
0.0
 11
103.7500000000013
 21
390.0880515575409
 31
0.0
  0
LINE
  5
A96
330
93F
100
AcDbEntity
  8
0
  6
Continuous
100
AcDbLine
 10
-75.49999999998227
 20
395.102810238853
 30
0.0
 11
-75.49999999998533
 21
398.5880515575409
 31
0.0
  0
LINE
  5
A97
330
93F
100
AcDbEntity
  8
0
  6
Continuous
100
AcDbLine
 10
-55.50000000000403
 20
413.5880515575411
 30
0.0
 11
-55.50000000000409
 21
420.0880515575408
 31
0.0
  0
ARC
  5
A98
330
93F
100
AcDbEntity
  8
0
  6
Continuous
100
AcDbCircle
 10
-56.50000000000409
 20
399.0880515575409
 30
0.0
 40
1.0
100
AcDbArc
 50
270.0
 51
330.0000000000017
  0
LINE
  5
A99
330
93F
100
AcDbEntity
  8
0
  6
Continuous
100
AcDbLine
 10
-95.50000000000228
 20
395.102810238853
 30
0.0
 11
-95.50000000000251
 21
398.5880515575409
 31
0.0
  0
ARC
  5
A9A
330
93F
100
AcDbEntity
  8
0
  6
Continuous
100
AcDbCircle
 10
-96.5000000000041
 20
396.5915734176565
 30
0.0
 40
1.0
100
AcDbArc
 50
270.0
 51
0.0
  0
LINE
  5
A9B
330
93F
100
AcDbEntity
  8
0
  6
Continuous
100
AcDbLine
 10
-115.5000000000022
 20
396.5915734176565
 30
0.0
 11
-115.5000000000025
 21
398.5880515575409
 31
0.0
  0
LINE
  5
A9C
330
93F
100
AcDbEntity
  8
0
  6
Continuous
100
AcDbLine
 10
75.49999999999954
 20
395.102810238853
 30
0.0
 11
75.4999999999996
 21
398.5880515575409
 31
0.0
  0
ARC
  5
A9D
330
93F
100
AcDbEntity
  8
0
  6
Continuous
100
AcDbCircle
 10
74.49999999999954
 20
399.0880515575411
 30
0.0
 40
1.0
100
AcDbArc
 50
270.0
 51
329.9999999999849
  0
LINE
  5
A9E
330
93F
100
AcDbEntity
  8
0
  6
Continuous
100
AcDbLine
 10
55.49999999999773
 20
413.5880515575413
 30
0.0
 11
55.49999999999773
 21
420.0880515575408
 31
0.0
  0
ARC
  5
A9F
330
93F
100
AcDbEntity
  8
0
  6
Continuous
100
AcDbCircle
 10
56.49999999999955
 20
399.0880515575409
 30
0.0
 40
1.0
100
AcDbArc
 50
209.9999999999983
 51
270.0
  0
LINE
  5
AA0
330
93F
100
AcDbEntity
  8
0
  6
Continuous
100
AcDbLine
 10
95.49999999999954
 20
395.102810238853
 30
0.0
 11
95.49999999999954
 21
398.5880515575409
 31
0.0
  0
LINE
  5
AA1
330
93F
100
AcDbEntity
  8
0
  6
Continuous
100
AcDbLine
 10
115.4999999999995
 20
396.5915734176565
 30
0.0
 11
115.4999999999994
 21
398.5880515575409
 31
0.0
  0
ARC
  5
AA2
330
93F
100
AcDbEntity
  8
0
  6
Continuous
100
AcDbCircle
 10
114.4999999999995
 20
396.5915734176565
 30
0.0
 40
1.0
100
AcDbArc
 50
270.0
 51
0.0
  0
LINE
  5
AA3
330
93F
100
AcDbEntity
  8
0
  6
Continuous
100
AcDbLine
 10
-96.5000000000041
 20
395.5915734176565
 30
0.0
 11
-114.5000000000022
 21
395.5915734176565
 31
0.0
  0
ARC
  5
AA4
330
93F
100
AcDbEntity
  8
0
  6
Continuous
100
AcDbCircle
 10
-114.5000000000022
 20
396.5915734176565
 30
0.0
 40
1.0
100
AcDbArc
 50
180.0
 51
270.0
  0
LINE
  5
AA5
330
93F
100
AcDbEntity
  8
0
  6
Continuous
100
AcDbLine
 10
114.4999999999995
 20
395.5915734176565
 30
0.0
 11
96.49999999999955
 21
395.5915734176565
 31
0.0
  0
ARC
  5
AA6
330
93F
100
AcDbEntity
  8
0
  6
Continuous
100
AcDbCircle
 10
96.49999999999955
 20
396.5915734176565
 30
0.0
 40
1.0
100
AcDbArc
 50
180.0
 51
270.0
  0
LINE
  5
AA7
330
93F
100
AcDbEntity
  8
0
  6
Continuous
100
AcDbLine
 10
-115.5000000000047
 20
413.588051557541
 30
0.0
 11
-115.5000000000057
 21
420.0880515575408
 31
0.0
  0
LINE
  5
AA8
330
93F
100
AcDbEntity
  8
0
  6
Continuous
100
AcDbLine
 10
-95.50000000000352
 20
413.5880515575411
 30
0.0
 11
-95.50000000000398
 21
420.0880515575408
 31
0.0
  0
LINE
  5
AA9
330
93F
100
AcDbEntity
  8
0
  6
Continuous
100
AcDbLine
 10
-75.4999999999984
 20
413.5880515575411
 30
0.0
 11
-75.5000000000042
 21
420.0880515575408
 31
0.0
  0
LINE
  5
AAA
330
93F
100
AcDbEntity
  8
0
100
AcDbLine
 10
-170.9956152891504
 20
426.088051557524
 30
0.0
 11
-170.9956152891468
 21
424.0878851420818
 31
0.0
  0
LINE
  5
AAB
330
93F
100
AcDbEntity
  8
0
  6
Continuous
100
AcDbLine
 10
75.49999999999954
 20
413.5880515575412
 30
0.0
 11
75.49999999999954
 21
420.0880515575408
 31
0.0
  0
LINE
  5
AAC
330
93F
100
AcDbEntity
  8
0
  6
Continuous
100
AcDbLine
 10
95.49999999999959
 20
413.5880515575413
 30
0.0
 11
95.49999999999954
 21
420.0880515575408
 31
0.0
  0
LINE
  5
AAD
330
93F
100
AcDbEntity
  8
0
  6
Continuous
100
AcDbLine
 10
115.4999999999983
 20
413.5880515575413
 30
0.0
 11
115.4999999999979
 21
420.0880515575408
 31
0.0
  0
ARC
  5
AAE
330
93F
100
AcDbEntity
  8
0
  6
Continuous
100
AcDbCircle
 10
102.7500000000007
 20
394.1028102388717
 30
0.0
 40
1.0
100
AcDbArc
 50
0.0000000000618809
 51
90.00000000006188
  0
LINE
  5
AFA
330
93F
100
AcDbEntity
  8
0
  6
Continuous
100
AcDbLine
 10
-74.4999999999859
 20
398.0880515575409
 30
0.0
 11
-56.50000000000409
 21
398.0880515575409
 31
0.0
  0
ARC
  5
AFB
330
93F
100
AcDbEntity
  8
0
  6
Continuous
100
AcDbCircle
 10
-74.4999999999859
 20
399.0880515575409
 30
0.0
 40
1.0
100
AcDbArc
 50
209.9999999999997
 51
270.0
  0
LINE
  5
AFC
330
93F
100
AcDbEntity
  8
0
  6
Continuous
100
AcDbLine
 10
56.49999999999955
 20
398.0880515575409
 30
0.0
 11
74.49999999999954
 21
398.0880515575411
 31
0.0
  0
LINE
  5
AFD
330
93F
100
AcDbEntity
  8
0
100
AcDbLine
 10
-176.0321022180183
 20
398.5880515575409
 30
0.0
 11
176.0321022180264
 21
398.5880515575409
 31
0.0
  0
LINE
  5
AFE
330
93F
100
AcDbEntity
  8
0
100
AcDbLine
 10
-170.9956152891504
 20
413.5880515575409
 30
0.0
 11
170.9956152891441
 21
413.5880515575413
 31
0.0
  0
ARC
  5
AFF
330
93F
100
AcDbEntity
  8
0
100
AcDbCircle
 10
-170.9956152891504
 20
404.5880515575409
 30
0.0
 40
9.0
100
AcDbArc
 50
90.0
 51
180.0000000001042
  0
LINE
  5
B00
330
93F
100
AcDbEntity
  8
0
100
AcDbLine
 10
-167.0321022180146
 20
420.0880515575408
 30
0.0
 11
167.0321022180283
 21
420.0880515575408
 31
0.0
  0
LINE
  5
B01
330
93F
100
AcDbEntity
  8
0
100
AcDbLine
 10
-161.9956152891504
 20
435.0880515575409
 30
0.0
 11
161.9956152891441
 21
435.0880515575409
 31
0.0
  0
LINE
  5
B02
330
93F
100
AcDbEntity
  8
0
100
AcDbLine
 10
-179.9956152891504
 20
404.588051557524
 30
0.0
 11
-179.9956152891468
 21
402.5878851420818
 31
0.0
  0
ARC
  5
B03
330
93F
100
AcDbEntity
  8
0
100
AcDbCircle
 10
-175.9956152891468
 20
402.5878851420818
 30
0.0
 40
4.0
100
AcDbArc
 50
180.0
 51
269.4773559940965
  0
ARC
  5
B04
330
93F
100
AcDbEntity
  8
0
100
AcDbCircle
 10
-161.9956152891504
 20
426.0880515575409
 30
0.0
 40
9.0
100
AcDbArc
 50
90.0
 51
180.0000000001042
  0
ARC
  5
B05
330
93F
100
AcDbEntity
  8
0
100
AcDbCircle
 10
-166.9956152891468
 20
424.0878851420818
 30
0.0
 40
4.0
100
AcDbArc
 50
180.0
 51
269.4773559940965
  0
ARC
  5
B06
330
93F
100
AcDbEntity
  8
0
100
AcDbCircle
 10
170.9956152891441
 20
404.5880515575409
 30
0.0
 40
9.0
100
AcDbArc
 50
359.9999999998958
 51
90.0
  0
LINE
  5
B07
330
93F
100
AcDbEntity
  8
0
100
AcDbLine
 10
179.9956152891441
 20
404.588051557524
 30
0.0
 11
179.9956152891404
 21
402.5878851420818
 31
0.0
  0
ARC
  5
B08
330
93F
100
AcDbEntity
  8
0
100
AcDbCircle
 10
175.9956152891404
 20
402.5878851420818
 30
0.0
 40
4.0
100
AcDbArc
 50
270.5226440059036
 51
0.0
  0
ARC
  5
B09
330
93F
100
AcDbEntity
  8
0
100
AcDbCircle
 10
161.9956152891441
 20
426.0880515575409
 30
0.0
 40
9.0
100
AcDbArc
 50
359.9999999998958
 51
90.0
  0
LINE
  5
B0A
330
93F
100
AcDbEntity
  8
0
100
AcDbLine
 10
170.9956152891441
 20
426.088051557524
 30
0.0
 11
170.9956152891404
 21
424.0878851420818
 31
0.0
  0
ARC
  5
B0B
330
93F
100
AcDbEntity
  8
0
100
AcDbCircle
 10
166.9956152891404
 20
424.0878851420818
 30
0.0
 40
4.0
100
AcDbArc
 50
270.5226440059036
 51
0.0
  0
LINE
  5
B0C
330
93F
100
AcDbEntity
  8
0
100
AcDbLine
 10
-166.4568447745337
 20
391.6536948880519
 30
0.0
 11
-145.7278480450318
 21
391.5274074874699
 31
0.0
  0
LINE
  5
B0D
330
93F
100
AcDbEntity
  8
0
100
AcDbLine
 10
-144.0000000000041
 20
398.5170108131592
 30
0.0
 11
-144.7287989920355
 21
392.4089124555355
 31
0.0
  0
ARC
  5
B0E
330
93F
100
AcDbEntity
  8
0
100
AcDbCircle
 10
-145.7217558516354
 20
392.5273889298874
 30
0.0
 40
1.0
100
AcDbArc
 50
269.6509408711751
 51
353.1958162610358
  0
LINE
  5
B0F
330
93F
100
AcDbEntity
  8
0
100
AcDbLine
 10
-168.0000000000041
 20
398.6632261680806
 30
0.0
 11
-167.4466634189598
 21
392.5633347392375
 31
0.0
  0
ARC
  5
B10
330
93F
100
AcDbEntity
  8
0
100
AcDbCircle
 10
-166.4507525811373
 20
392.6536763304694
 30
0.0
 40
1.0
100
AcDbArc
 50
185.1832588820342
 51
269.6509408711751
  0
LINE
  5
B11
330
93F
100
AcDbEntity
  8
0
100
AcDbLine
 10
145.5431552254663
 20
391.6317524660103
 30
0.0
 11
166.2721519549682
 21
391.5054650654283
 31
0.0
  0
LINE
  5
B12
330
93F
100
AcDbEntity
  8
0
100
AcDbLine
 10
167.9999999999959
 20
398.4950683911179
 30
0.0
 11
167.2712010079644
 21
392.386970033494
 31
0.0
  0
ARC
  5
B13
330
93F
100
AcDbEntity
  8
0
100
AcDbCircle
 10
166.2782441483646
 20
392.505446507846
 30
0.0
 40
1.0
100
AcDbArc
 50
269.6509408711751
 51
353.1958162610358
  0
ENDBLK
  5
941
330
93F
100
AcDbEntity
  8
0
100
AcDbBlockEnd
  0
ENDSEC
  0
SECTION
  2
ENTITIES
  0
MTEXT
  5
2BF
330
1F
100
AcDbEntity
  8
0
100
AcDbMText
 10
-416.9613267768137
 20
33.41238768955648
 30
0.0
 40
20.0
 41
505.2631578947369
 71
     1
 72
     5
  1
{\fTimes New Roman|b0|i0|c0|p18;\C0;INODORO DE TANQUE BAJO.\PSERIE NOBLE}
 73
     1
 44
1.0
1001
ACAD
1000
MTEXTBEGIN
1070
    73
1070
     1
1070
    44
1040
1.0
1070
    74
1070
     0
1000
MTEXTEND
  0
INSERT
  5
995
330
1F
100
AcDbEntity
  8
0
100
AcDbBlockReference
  2
12120-A
 10
-241.2234632112159
 20
132.5450117231003
 30
0.0
  0
ENDSEC
  0
SECTION
  2
OBJECTS
  0
DICTIONARY
  5
C
330
0
100
AcDbDictionary
281
     1
  3
ACAD_COLOR
350
6B
  3
ACAD_GROUP
350
D
  3
ACAD_LAYOUT
350
1A
  3
ACAD_MATERIAL
350
6A
  3
ACAD_MLINESTYLE
350
17
  3
ACAD_PLOTSETTINGS
350
19
  3
ACAD_PLOTSTYLENAME
350
E
  3
ACAD_TABLESTYLE
350
7E
  3
ACDBHEADERROUNDTRIPXREC
350
B26
  3
AcDbVariableDictionary
350
5E
  3
DWGPROPS
350
B25
  0
DICTIONARY
  5
118
330
2
100
AcDbDictionary
280
     1
281
     1
  3
ACAD_LAYERSTATES
360
119
  0
DICTIONARY
  5
1DD
330
1F
100
AcDbDictionary
280
     1
281
     1
  3
ACAD_SORTENTS
360
1DE
  0
DICTIONARY
  5
B14
330
93F
100
AcDbDictionary
280
     1
281
     1
  3
ACAD_SORTENTS
360
B15
  0
DICTIONARY
  5
6B
102
{ACAD_REACTORS
330
C
102
}
330
C
100
AcDbDictionary
281
     1
  0
DICTIONARY
  5
D
102
{ACAD_REACTORS
330
C
102
}
330
C
100
AcDbDictionary
281
     1
  0
DICTIONARY
  5
1A
102
{ACAD_REACTORS
330
C
102
}
330
C
100
AcDbDictionary
281
     1
  3
Model
350
22
  3
Presentación1
350
D3
  3
Presentación2
350
D7
  0
DICTIONARY
  5
6A
102
{ACAD_REACTORS
330
C
102
}
330
C
100
AcDbDictionary
281
     1
  0
DICTIONARY
  5
17
102
{ACAD_REACTORS
330
C
102
}
330
C
100
AcDbDictionary
281
     1
  3
Standard
350
18
  0
DICTIONARY
  5
19
102
{ACAD_REACTORS
330
C
102
}
330
C
100
AcDbDictionary
281
     1
  0
ACDBDICTIONARYWDFLT
  5
E
102
{ACAD_REACTORS
330
C
102
}
330
C
100
AcDbDictionary
281
     1
  3
Normal
350
F
100
AcDbDictionaryWithDefault
340
F
  0
DICTIONARY
  5
7E
102
{ACAD_REACTORS
330
C
102
}
330
C
100
AcDbDictionary
281
     1
  3
Standard
350
7F
  0
DICTIONARY
  5
B26
102
{ACAD_REACTORS
330
C
102
}
330
C
100
AcDbDictionary
281
     1
  0
DICTIONARY
  5
5E
102
{ACAD_REACTORS
330
C
102
}
330
C
100
AcDbDictionary
281
     1
  3
CTABLESTYLE
350
84
  3
DIMASSOC
350
5F
  3
HIDETEXT
350
63
  3
PROJECTNAME
350
3B7
  0
XRECORD
  5
B25
102
{ACAD_REACTORS
330
C
102
}
330
C
100
AcDbXrecord
280
     1
  1
DWGPROPS COOKIE
  2

  3

  4

  6

  7

  8
Autodesk
  9

300
=
301
=
302
=
303
=
304
=
305
=
306
=
307
=
308
=
309
=
 40
0.052159837962963
 41
2454550.307324757
 42
2454550.406940463
  1

 90
        0
  0
DICTIONARY
  5
119
102
{ACAD_REACTORS
330
118
102
}
330
118
100
AcDbDictionary
281
     1
  0
SORTENTSTABLE
  5
1DE
102
{ACAD_REACTORS
330
1DD
102
}
330
1DD
100
AcDbSortentsTable
330
1F
331
995
  5
995
331
2BF
  5
2BF
  0
SORTENTSTABLE
  5
B15
102
{ACAD_REACTORS
330
B14
102
}
330
B14
100
AcDbSortentsTable
330
93F
331
950
  5
A8C
331
958
  5
A94
331
98F
  5
B0E
331
AFE
  5
946
331
B06
  5
94E
331
B0E
  5
956
331
968
  5
AA1
331
A87
  5
95E
331
A8F
  5
967
331
970
  5
AA9
331
978
  5
AFC
331
A97
  5
96F
331
980
  5
B04
331
A9F
  5
977
331
949
  5
993
331
AA7
  5
97F
331
951
  5
A8D
331
990
  5
B0F
331
959
  5
A95
331
AFF
  5
947
331
961
  5
A9A
331
B07
  5
94F
331
B0F
  5
957
331
969
  5
AA2
331
A88
  5
95F
331
971
  5
AAA
331
A90
  5
968
331
979
  5
AFD
331
A98
  5
970
331
981
  5
B05
331
942
  5
98C
331
AA0
  5
978
331
94A
  5
994
331
AA8
  5
980
331
952
  5
A8E
331
991
  5
B10
331
95A
  5
A96
331
B00
  5
948
331
962
  5
A9B
331
B08
  5
950
331
B10
  5
958
331
96A
  5
AA3
331
A89
  5
961
331
972
  5
AAB
331
A91
  5
969
331
97A
  5
AFE
331
A99
  5
971
331
943
  5
98D
331
982
  5
B06
331
AA1
  5
979
331
94B
  5
A87
331
AA9
  5
981
331
953
  5
A8F
331
992
  5
B11
331
B01
  5
949
331
963
  5
A9C
331
B09
  5
951
331
B11
  5
959
331
96B
  5
AA4
331
A8A
  5
962
331
973
  5
AAC
331
A92
  5
96A
331
97B
  5
AFF
331
A9A
  5
972
331
983
  5
B07
331
944
  5
98E
331
AA2
  5
97A
331
94C
  5
A88
331
AAA
  5
982
331
954
  5
A90
331
AFA
  5
942
331
993
  5
B12
331
B02
  5
94A
331
964
  5
A9D
331
B0A
  5
952
331
B12
  5
95A
331
96C
  5
AA5
331
A8B
  5
963
331
974
  5
AAD
331
A93
  5
96B
331
97C
  5
B00
331
A9B
  5
973
331
945
  5
98F
331
984
  5
B08
331
AA3
  5
97B
331
94D
  5
A89
331
AAB
  5
983
331
955
  5
A91
331
98C
  5
B0B
331
AFB
  5
943
331
994
  5
B13
331
95D
  5
A97
331
B03
  5
94B
331
965
  5
A9E
331
B0B
  5
953
331
B13
  5
95D
331
96D
  5
AA6
331
A8C
  5
964
331
975
  5
AAE
331
A94
  5
96C
331
97D
  5
B01
331
A9C
  5
974
331
985
  5
B09
331
946
  5
990
331
AA4
  5
97C
331
94E
  5
A8A
331
AAC
  5
984
331
956
  5
A92
331
98D
  5
B0C
331
AFC
  5
944
331
B04
  5
94C
331
95E
  5
A98
331
B0C
  5
954
331
966
  5
A9F
331
A8D
  5
965
331
96E
  5
AA7
331
A95
  5
96D
331
976
  5
AFA
331
A9D
  5
975
331
97E
  5
B02
331
AA5
  5
97D
331
947
  5
991
331
986
  5
B0A
331
AAD
  5
985
331
94F
  5
A8B
331
957
  5
A93
331
98E
  5
B0D
331
AFD
  5
945
331
95F
  5
A99
331
B05
  5
94D
331
967
  5
AA0
331
B0D
  5
955
331
A8E
  5
966
331
96F
  5
AA8
331
A96
  5
96E
331
977
  5
AFB
331
A9E
  5
976
331
97F
  5
B03
331
AA6
  5
97E
331
948
  5
992
331
AAE
  5
986
  0
LAYOUT
  5
22
102
{ACAD_XDICTIONARY
360
B27
102
}
102
{ACAD_REACTORS
330
1A
102
}
330
1A
100
AcDbPlotSettings
  1

  2
none_device
  4
ISO_A4_(210.00_x_297.00_MM)
  6

 40
7.5
 41
20.0
 42
7.5
 43
20.0
 44
210.0
 45
297.0
 46
11.54999923706054
 47
-13.65000009536743
 48
0.0
 49
0.0
140
0.0
141
0.0
142
1.0
143
8.704084754739808
 70
 11952
 72
     1
 73
     0
 74
     0
  7

 75
     0
147
0.1148885871608098
148
0.0
149
0.0
100
AcDbLayout
  1
Model
 70
     1
 71
     0
 10
0.0
 20
0.0
 11
12.0
 21
9.0
 12
0.0
 22
0.0
 32
0.0
 14
0.0
 24
0.0
 34
0.0
 15
0.0
 25
0.0
 35
0.0
146
0.0
 13
0.0
 23
0.0
 33
0.0
 16
1.0
 26
0.0
 36
0.0
 17
0.0
 27
1.0
 37
0.0
 76
     0
330
1F
1001
ACAD_PSEXT
1000
None
1000
None
1000
Not applicable
1000
The layout will not be plotted unless a new plotter configuration name is selected.
1070
     0
  0
LAYOUT
  5
D3
102
{ACAD_XDICTIONARY
360
B29
102
}
102
{ACAD_REACTORS
330
1A
102
}
330
1A
100
AcDbPlotSettings
  1

  2
C:\Documents and Settings\basas\Application Data\Autodesk\AutoCAD 2005\R16.1\enu\plotters\Default Windows System Printer.pc3
  4

  6

 40
0.0
 41
0.0
 42
0.0
 43
0.0
 44
0.0
 45
0.0
 46
0.0
 47
0.0
 48
0.0
 49
0.0
140
0.0
141
0.0
142
1.0
143
1.0
 70
   688
 72
     0
 73
     0
 74
     5
  7

 75
    16
147
1.0
148
0.0
149
0.0
100
AcDbLayout
  1
Presentación1
 70
     1
 71
     1
 10
0.0
 20
0.0
 11
12.0
 21
9.0
 12
0.0
 22
0.0
 32
0.0
 14
0.0
 24
0.0
 34
0.0
 15
0.0
 25
0.0
 35
0.0
146
0.0
 13
0.0
 23
0.0
 33
0.0
 16
1.0
 26
0.0
 36
0.0
 17
0.0
 27
1.0
 37
0.0
 76
     0
330
D2
  0
LAYOUT
  5
D7
102
{ACAD_XDICTIONARY
360
B2B
102
}
102
{ACAD_REACTORS
330
1A
102
}
330
1A
100
AcDbPlotSettings
  1

  2
C:\Documents and Settings\basas\Application Data\Autodesk\AutoCAD 2005\R16.1\enu\plotters\Default Windows System Printer.pc3
  4

  6

 40
0.0
 41
0.0
 42
0.0
 43
0.0
 44
0.0
 45
0.0
 46
0.0
 47
0.0
 48
0.0
 49
0.0
140
0.0
141
0.0
142
1.0
143
1.0
 70
   688
 72
     0
 73
     0
 74
     5
  7

 75
    16
147
1.0
148
0.0
149
0.0
100
AcDbLayout
  1
Presentación2
 70
     1
 71
     2
 10
0.0
 20
0.0
 11
12.0
 21
9.0
 12
0.0
 22
0.0
 32
0.0
 14
0.0
 24
0.0
 34
0.0
 15
0.0
 25
0.0
 35
0.0
146
0.0
 13
0.0
 23
0.0
 33
0.0
 16
1.0
 26
0.0
 36
0.0
 17
0.0
 27
1.0
 37
0.0
 76
     0
330
D6
  0
MLINESTYLE
  5
18
102
{ACAD_REACTORS
330
17
102
}
330
17
100
AcDbMlineStyle
  2
STANDARD
 70
     0
  3

 62
   256
 51
90.0
 52
90.0
 71
     2
 49
0.5
 62
   256
  6
BYLAYER
 49
-0.5
 62
   256
  6
BYLAYER
  0
ACDBPLACEHOLDER
  5
F
102
{ACAD_REACTORS
330
E
102
}
330
E
  0
TABLESTYLE
  5
7F
102
{ACAD_REACTORS
330
7E
102
}
330
7E
100
AcDbTableStyle
  3
Standard
 70
     0
 71
     0
 40
1.5
 41
1.5
280
     0
281
     0
  7
Standard
140
4.5
170
     2
 62
     0
 63
     7
283
     0
274
    -2
284
     1
 64
     0
275
    -2
285
     1
 65
     0
276
    -2
286
     1
 66
     0
277
    -2
287
     1
 67
     0
278
    -2
288
     1
 68
     0
279
    -2
289
     1
 69
     0
  7
Standard
140
6.0
170
     5
 62
     0
 63
     7
283
     0
274
    -2
284
     1
 64
     0
275
    -2
285
     1
 65
     0
276
    -2
286
     1
 66
     0
277
    -2
287
     1
 67
     0
278
    -2
288
     1
 68
     0
279
    -2
289
     1
 69
     0
  7
Standard
140
4.5
170
     5
 62
     0
 63
     7
283
     0
274
    -2
284
     1
 64
     0
275
    -2
285
     1
 65
     0
276
    -2
286
     1
 66
     0
277
    -2
287
     1
 67
     0
278
    -2
288
     1
 68
     0
279
    -2
289
     1
 69
     0
  0
DICTIONARYVAR
  5
84
102
{ACAD_REACTORS
330
5E
102
}
330
5E
100
DictionaryVariables
280
     0
  1
STANDARD
  0
DICTIONARYVAR
  5
5F
102
{ACAD_REACTORS
330
5E
102
}
330
5E
100
DictionaryVariables
280
     0
  1
2
  0
DICTIONARYVAR
  5
63
102
{ACAD_REACTORS
330
5E
102
}
330
5E
100
DictionaryVariables
280
     0
  1
1
  0
DICTIONARYVAR
  5
3B7
102
{ACAD_REACTORS
330
5E
102
}
330
5E
100
DictionaryVariables
280
     0
  1

  0
DICTIONARY
  5
B27
330
22
100
AcDbDictionary
280
     1
281
     1
  3
ACAD_XREC_ROUNDTRIP
360
B28
  0
DICTIONARY
  5
B29
330
D3
100
AcDbDictionary
280
     1
281
     1
  3
ACAD_XREC_ROUNDTRIP
360
B2A
  0
DICTIONARY
  5
B2B
330
D7
100
AcDbDictionary
280
     1
281
     1
  3
ACAD_XREC_ROUNDTRIP
360
B2C
  0
XRECORD
  5
B28
102
{ACAD_REACTORS
330
B27
102
}
330
B27
100
AcDbXrecord
280
     1
102
SHADEPLOT
 70
     0
102
SHADEPLOTRESLEVEL
 70
     2
102
SHADEPLOTCUSTOMDPI
 70
   300
  0
XRECORD
  5
B2A
102
{ACAD_REACTORS
330
B29
102
}
330
B29
100
AcDbXrecord
280
     1
102
SHADEPLOT
 70
     0
102
SHADEPLOTRESLEVEL
 70
     2
102
SHADEPLOTCUSTOMDPI
 70
   300
  0
XRECORD
  5
B2C
102
{ACAD_REACTORS
330
B2B
102
}
330
B2B
100
AcDbXrecord
280
     1
102
SHADEPLOT
 70
     0
102
SHADEPLOTRESLEVEL
 70
     2
102
SHADEPLOTCUSTOMDPI
 70
   300
  0
ENDSEC
  0
EOF
