  0
SECTION
  2
HEADER
  9
$ACADVER
  1
AC1015
  9
$ACADMAINTVER
 70
    20
  9
$DWGCODEPAGE
  3
ANSI_1252
  9
$INSBASE
 10
0.0
 20
0.0
 30
0.0
  9
$EXTMIN
 10
-465.6246778058238
 20
7.024500162519712
 30
0.0
  9
$EXTMAX
 10
-103.3866541607678
 20
579.7928710786257
 30
0.0
  9
$LIMMIN
 10
0.0
 20
0.0
  9
$LIMMAX
 10
420.0
 20
297.0
  9
$ORTHOMODE
 70
     1
  9
$REGENMODE
 70
     1
  9
$FILLMODE
 70
     1
  9
$QTEXTMODE
 70
     0
  9
$MIRRTEXT
 70
     0
  9
$LTSCALE
 40
1.0
  9
$ATTMODE
 70
     1
  9
$TEXTSIZE
 40
2.5
  9
$TRACEWID
 40
1.0
  9
$TEXTSTYLE
  7
Standard
  9
$CLAYER
  8
0
  9
$CELTYPE
  6
ByLayer
  9
$CECOLOR
 62
   256
  9
$CELTSCALE
 40
1.0
  9
$DISPSILH
 70
     0
  9
$DIMSCALE
 40
1.0
  9
$DIMASZ
 40
2.5
  9
$DIMEXO
 40
0.625
  9
$DIMDLI
 40
3.75
  9
$DIMRND
 40
0.0
  9
$DIMDLE
 40
0.0
  9
$DIMEXE
 40
1.25
  9
$DIMTP
 40
0.0
  9
$DIMTM
 40
0.0
  9
$DIMTXT
 40
2.5
  9
$DIMCEN
 40
2.5
  9
$DIMTSZ
 40
0.0
  9
$DIMTOL
 70
     0
  9
$DIMLIM
 70
     0
  9
$DIMTIH
 70
     0
  9
$DIMTOH
 70
     0
  9
$DIMSE1
 70
     0
  9
$DIMSE2
 70
     0
  9
$DIMTAD
 70
     1
  9
$DIMZIN
 70
     8
  9
$DIMBLK
  1

  9
$DIMASO
 70
     1
  9
$DIMSHO
 70
     1
  9
$DIMPOST
  1

  9
$DIMAPOST
  1

  9
$DIMALT
 70
     0
  9
$DIMALTD
 70
     3
  9
$DIMALTF
 40
0.03937007874016
  9
$DIMLFAC
 40
1.0
  9
$DIMTOFL
 70
     1
  9
$DIMTVP
 40
0.0
  9
$DIMTIX
 70
     0
  9
$DIMSOXD
 70
     0
  9
$DIMSAH
 70
     0
  9
$DIMBLK1
  1

  9
$DIMBLK2
  1

  9
$DIMSTYLE
  2
ISO-25
  9
$DIMCLRD
 70
     0
  9
$DIMCLRE
 70
     0
  9
$DIMCLRT
 70
     0
  9
$DIMTFAC
 40
1.0
  9
$DIMGAP
 40
0.625
  9
$DIMJUST
 70
     0
  9
$DIMSD1
 70
     0
  9
$DIMSD2
 70
     0
  9
$DIMTOLJ
 70
     0
  9
$DIMTZIN
 70
     8
  9
$DIMALTZ
 70
     0
  9
$DIMALTTZ
 70
     0
  9
$DIMUPT
 70
     0
  9
$DIMDEC
 70
     2
  9
$DIMTDEC
 70
     2
  9
$DIMALTU
 70
     2
  9
$DIMALTTD
 70
     3
  9
$DIMTXSTY
  7
Standard
  9
$DIMAUNIT
 70
     0
  9
$DIMADEC
 70
     0
  9
$DIMALTRND
 40
0.0
  9
$DIMAZIN
 70
     0
  9
$DIMDSEP
 70
    44
  9
$DIMATFIT
 70
     3
  9
$DIMFRAC
 70
     0
  9
$DIMLDRBLK
  1

  9
$DIMLUNIT
 70
     2
  9
$DIMLWD
 70
    -2
  9
$DIMLWE
 70
    -2
  9
$DIMTMOVE
 70
     0
  9
$LUNITS
 70
     2
  9
$LUPREC
 70
     4
  9
$SKETCHINC
 40
1.0
  9
$FILLETRAD
 40
25.0
  9
$AUNITS
 70
     0
  9
$AUPREC
 70
     0
  9
$MENU
  1
.
  9
$ELEVATION
 40
0.0
  9
$PELEVATION
 40
0.0
  9
$THICKNESS
 40
0.0
  9
$LIMCHECK
 70
     0
  9
$CHAMFERA
 40
0.0
  9
$CHAMFERB
 40
0.0
  9
$CHAMFERC
 40
0.0
  9
$CHAMFERD
 40
0.0
  9
$SKPOLY
 70
     0
  9
$TDCREATE
 40
2454550.307324757
  9
$TDUCREATE
 40
2454550.265658090
  9
$TDUPDATE
 40
2454550.406645498
  9
$TDUUPDATE
 40
2454550.364978831
  9
$TDINDWG
 40
0.0621943866
  9
$TDUSRTIMER
 40
0.0621936574
  9
$USRTIMER
 70
     1
  9
$ANGBASE
 50
0.0
  9
$ANGDIR
 70
     0
  9
$PDMODE
 70
     0
  9
$PDSIZE
 40
0.0
  9
$PLINEWID
 40
0.0
  9
$SPLFRAME
 70
     0
  9
$SPLINETYPE
 70
     6
  9
$SPLINESEGS
 70
     8
  9
$HANDSEED
  5
114A
  9
$SURFTAB1
 70
     6
  9
$SURFTAB2
 70
     6
  9
$SURFTYPE
 70
     6
  9
$SURFU
 70
     6
  9
$SURFV
 70
     6
  9
$UCSBASE
  2

  9
$UCSNAME
  2

  9
$UCSORG
 10
0.0
 20
0.0
 30
0.0
  9
$UCSXDIR
 10
1.0
 20
0.0
 30
0.0
  9
$UCSYDIR
 10
0.0
 20
1.0
 30
0.0
  9
$UCSORTHOREF
  2

  9
$UCSORTHOVIEW
 70
     0
  9
$UCSORGTOP
 10
0.0
 20
0.0
 30
0.0
  9
$UCSORGBOTTOM
 10
0.0
 20
0.0
 30
0.0
  9
$UCSORGLEFT
 10
0.0
 20
0.0
 30
0.0
  9
$UCSORGRIGHT
 10
0.0
 20
0.0
 30
0.0
  9
$UCSORGFRONT
 10
0.0
 20
0.0
 30
0.0
  9
$UCSORGBACK
 10
0.0
 20
0.0
 30
0.0
  9
$PUCSBASE
  2

  9
$PUCSNAME
  2

  9
$PUCSORG
 10
0.0
 20
0.0
 30
0.0
  9
$PUCSXDIR
 10
1.0
 20
0.0
 30
0.0
  9
$PUCSYDIR
 10
0.0
 20
1.0
 30
0.0
  9
$PUCSORTHOREF
  2

  9
$PUCSORTHOVIEW
 70
     0
  9
$PUCSORGTOP
 10
0.0
 20
0.0
 30
0.0
  9
$PUCSORGBOTTOM
 10
0.0
 20
0.0
 30
0.0
  9
$PUCSORGLEFT
 10
0.0
 20
0.0
 30
0.0
  9
$PUCSORGRIGHT
 10
0.0
 20
0.0
 30
0.0
  9
$PUCSORGFRONT
 10
0.0
 20
0.0
 30
0.0
  9
$PUCSORGBACK
 10
0.0
 20
0.0
 30
0.0
  9
$USERI1
 70
     0
  9
$USERI2
 70
     0
  9
$USERI3
 70
     0
  9
$USERI4
 70
     0
  9
$USERI5
 70
     0
  9
$USERR1
 40
0.0
  9
$USERR2
 40
0.0
  9
$USERR3
 40
0.0
  9
$USERR4
 40
0.0
  9
$USERR5
 40
0.0
  9
$WORLDVIEW
 70
     1
  9
$SHADEDGE
 70
     3
  9
$SHADEDIF
 70
    70
  9
$TILEMODE
 70
     1
  9
$MAXACTVP
 70
    64
  9
$PINSBASE
 10
0.0
 20
0.0
 30
0.0
  9
$PLIMCHECK
 70
     0
  9
$PEXTMIN
 10
0.0
 20
0.0
 30
0.0
  9
$PEXTMAX
 10
0.0
 20
0.0
 30
0.0
  9
$PLIMMIN
 10
0.0
 20
0.0
  9
$PLIMMAX
 10
12.0
 20
9.0
  9
$UNITMODE
 70
     0
  9
$VISRETAIN
 70
     1
  9
$PLINEGEN
 70
     0
  9
$PSLTSCALE
 70
     1
  9
$TREEDEPTH
 70
  3020
  9
$CMLSTYLE
  2
Standard
  9
$CMLJUST
 70
     0
  9
$CMLSCALE
 40
20.0
  9
$PROXYGRAPHICS
 70
     1
  9
$MEASUREMENT
 70
     1
  9
$CELWEIGHT
370
    -1
  9
$ENDCAPS
280
     0
  9
$JOINSTYLE
280
     0
  9
$LWDISPLAY
290
     0
  9
$INSUNITS
 70
     4
  9
$HYPERLINKBASE
  1

  9
$STYLESHEET
  1

  9
$XEDIT
290
     1
  9
$CEPSNTYPE
380
     0
  9
$PSTYLEMODE
290
     1
  9
$FINGERPRINTGUID
  2
{4A4C6E15-96AD-4E98-A744-8BD4BACD0A4F}
  9
$VERSIONGUID
  2
{C235C3C7-3CCC-481A-86F1-969F0653CC61}
  9
$EXTNAMES
290
     1
  9
$PSVPSCALE
 40
0.0
  9
$OLESTARTUP
290
     0
  0
ENDSEC
  0
SECTION
  2
CLASSES
  0
CLASS
  1
ACDBDICTIONARYWDFLT
  2
AcDbDictionaryWithDefault
  3
ObjectDBX Classes
 90
        0
280
     0
281
     0
  0
CLASS
  1
DICTIONARYVAR
  2
AcDbDictionaryVar
  3
ObjectDBX Classes
 90
        0
280
     0
281
     0
  0
CLASS
  1
TABLESTYLE
  2
AcDbTableStyle
  3
ObjectDBX Classes
 90
     2047
280
     0
281
     0
  0
CLASS
  1
SORTENTSTABLE
  2
AcDbSortentsTable
  3
ObjectDBX Classes
 90
        0
280
     0
281
     0
  0
CLASS
  1
ACDBPLACEHOLDER
  2
AcDbPlaceHolder
  3
ObjectDBX Classes
 90
        0
280
     0
281
     0
  0
CLASS
  1
LAYOUT
  2
AcDbLayout
  3
ObjectDBX Classes
 90
        0
280
     0
281
     0
  0
ENDSEC
  0
SECTION
  2
TABLES
  0
TABLE
  2
VPORT
  5
8
330
0
100
AcDbSymbolTable
 70
     2
  0
VPORT
  5
1141
330
8
100
AcDbSymbolTableRecord
100
AcDbViewportTableRecord
  2
*Active
 70
     0
 10
0.0
 20
0.0
 11
1.0
 21
1.0
 12
-313.5033152829294
 22
296.3106738535886
 13
0.0
 23
0.0
 14
10.0
 24
10.0
 15
10.0
 25
10.0
 16
0.0
 26
0.0
 36
1.0
 17
0.0
 27
0.0
 37
0.0
 40
922.7340072940194
 41
1.454088050314465
 42
50.0
 43
0.0
 44
0.0
 50
0.0
 51
0.0
 71
     0
 72
  1000
 73
     1
 74
     0
 75
     0
 76
     0
 77
     0
 78
     0
281
     0
 65
     1
110
0.0
120
0.0
130
0.0
111
1.0
121
0.0
131
0.0
112
0.0
122
1.0
132
0.0
 79
     0
146
0.0
  0
ENDTAB
  0
TABLE
  2
LTYPE
  5
5
330
0
100
AcDbSymbolTable
 70
     1
  0
LTYPE
  5
14
330
5
100
AcDbSymbolTableRecord
100
AcDbLinetypeTableRecord
  2
ByBlock
 70
     0
  3

 72
    65
 73
     0
 40
0.0
  0
LTYPE
  5
15
330
5
100
AcDbSymbolTableRecord
100
AcDbLinetypeTableRecord
  2
ByLayer
 70
     0
  3

 72
    65
 73
     0
 40
0.0
  0
LTYPE
  5
16
330
5
100
AcDbSymbolTableRecord
100
AcDbLinetypeTableRecord
  2
Continuous
 70
     0
  3
Solid line
 72
    65
 73
     0
 40
0.0
  0
ENDTAB
  0
TABLE
  2
LAYER
  5
2
102
{ACAD_XDICTIONARY
360
118
102
}
330
0
100
AcDbSymbolTable
 70
     1
  0
LAYER
  5
10
330
2
100
AcDbSymbolTableRecord
100
AcDbLayerTableRecord
  2
0
 70
     0
 62
     7
  6
Continuous
370
    -3
390
F
  0
ENDTAB
  0
TABLE
  2
STYLE
  5
3
330
0
100
AcDbSymbolTable
 70
     2
  0
STYLE
  5
11
330
3
100
AcDbSymbolTableRecord
100
AcDbTextStyleTableRecord
  2
Standard
 70
     0
 40
0.0
 41
1.0
 50
0.0
 71
     0
 42
2.5
  3
txt
  4

  0
STYLE
  5
112
330
3
100
AcDbSymbolTableRecord
100
AcDbTextStyleTableRecord
  2
ISO
 70
     0
 40
0.0
 41
1.0
 50
0.0
 71
     0
 42
2.0
  3
ISOCP.SHX
  4

  0
ENDTAB
  0
TABLE
  2
VIEW
  5
6
330
0
100
AcDbSymbolTable
 70
     0
  0
ENDTAB
  0
TABLE
  2
UCS
  5
7
330
0
100
AcDbSymbolTable
 70
     0
  0
ENDTAB
  0
TABLE
  2
APPID
  5
9
330
0
100
AcDbSymbolTable
 70
     6
  0
APPID
  5
12
330
9
100
AcDbSymbolTableRecord
100
AcDbRegAppTableRecord
  2
ACAD
 70
     0
  0
APPID
  5
9E
330
9
100
AcDbSymbolTableRecord
100
AcDbRegAppTableRecord
  2
ACAD_PSEXT
 70
     0
  0
APPID
  5
114
330
9
100
AcDbSymbolTableRecord
100
AcDbRegAppTableRecord
  2
ACAD_DSTYLE_DIMEXT_ENABLED
 70
     0
  0
APPID
  5
115
330
9
100
AcDbSymbolTableRecord
100
AcDbRegAppTableRecord
  2
ACAD_DSTYLE_DIMEXT_LENGTH
 70
     0
  0
APPID
  5
116
330
9
100
AcDbSymbolTableRecord
100
AcDbRegAppTableRecord
  2
ACAD_DSTYLE_DIMJOGGED_JOGANGLE_SYMBOL
 70
     0
  0
APPID
  5
117
330
9
100
AcDbSymbolTableRecord
100
AcDbRegAppTableRecord
  2
ACAD_DSTYLE_DIMARC_LENGTH_SYMBOL
 70
     0
  0
ENDTAB
  0
TABLE
  2
DIMSTYLE
  5
A
330
0
100
AcDbSymbolTable
 70
     2
100
AcDbDimStyleTable
 71
     1
340
27
  0
DIMSTYLE
105
27
330
A
100
AcDbSymbolTableRecord
100
AcDbDimStyleTableRecord
  2
ISO-25
 70
     0
 41
2.5
 42
0.625
 43
3.75
 44
1.25
 73
     0
 74
     0
 77
     1
 78
     8
140
2.5
141
2.5
143
0.03937007874016
147
0.625
171
     3
172
     1
271
     2
272
     2
274
     3
278
    44
283
     0
284
     8
340
11
  0
DIMSTYLE
105
113
330
A
100
AcDbSymbolTableRecord
100
AcDbDimStyleTableRecord
  2
STANDARD
 70
     0
 40
0.0
 41
3.5
 42
0.1
 43
7.0
 44
1.8
 73
     0
 74
     0
 77
     1
140
5.0
141
1.5
146
0.8
147
1.1
172
     1
176
   256
177
   256
178
     6
271
     0
272
     1
284
     8
288
     1
289
     0
340
112
  0
ENDTAB
  0
TABLE
  2
BLOCK_RECORD
  5
1
330
0
100
AcDbSymbolTable
 70
     2
  0
BLOCK_RECORD
  5
1F
102
{ACAD_XDICTIONARY
360
1DD
102
}
330
1
100
AcDbSymbolTableRecord
100
AcDbBlockTableRecord
  2
*Model_Space
340
22
  0
BLOCK_RECORD
  5
D2
330
1
100
AcDbSymbolTableRecord
100
AcDbBlockTableRecord
  2
*Paper_Space
340
D3
  0
BLOCK_RECORD
  5
D6
330
1
100
AcDbSymbolTableRecord
100
AcDbBlockTableRecord
  2
*Paper_Space0
340
D7
  0
BLOCK_RECORD
  5
104E
102
{ACAD_XDICTIONARY
360
1128
102
}
330
1
100
AcDbSymbolTableRecord
100
AcDbBlockTableRecord
  2
12360-A
340
0
310
2800000020000000200000000100080000000000000400000000000000000000000000000000000000000000000080000080000000808000800000008000800080800000C0C0C000C0DCC000F0CAA6000020400000206000002080000020A0000020C0000020E00000400000004020000040400000406000004080000040A0
310
000040C0000040E00000600000006020000060400000606000006080000060A0000060C0000060E00000800000008020000080400000806000008080000080A0000080C0000080E00000A0000000A0200000A0400000A0600000A0800000A0A00000A0C00000A0E00000C0000000C0200000C0400000C0600000C0800000C0
310
A00000C0C00000C0E00000E0000000E0200000E0400000E0600000E0800000E0A00000E0C00000E0E00040000000400020004000400040006000400080004000A0004000C0004000E00040200000402020004020400040206000402080004020A0004020C0004020E000404000004040200040404000404060004040800040
310
40A0004040C0004040E00040600000406020004060400040606000406080004060A0004060C0004060E00040800000408020004080400040806000408080004080A0004080C0004080E00040A0000040A0200040A0400040A0600040A0800040A0A00040A0C00040A0E00040C0000040C0200040C0400040C0600040C08000
310
40C0A00040C0C00040C0E00040E0000040E0200040E0400040E0600040E0800040E0A00040E0C00040E0E00080000000800020008000400080006000800080008000A0008000C0008000E00080200000802020008020400080206000802080008020A0008020C0008020E00080400000804020008040400080406000804080
310
008040A0008040C0008040E00080600000806020008060400080606000806080008060A0008060C0008060E00080800000808020008080400080806000808080008080A0008080C0008080E00080A0000080A0200080A0400080A0600080A0800080A0A00080A0C00080A0E00080C0000080C0200080C0400080C0600080C0
310
800080C0A00080C0C00080C0E00080E0000080E0200080E0400080E0600080E0800080E0A00080E0C00080E0E000C0000000C0002000C0004000C0006000C0008000C000A000C000C000C000E000C0200000C0202000C0204000C0206000C0208000C020A000C020C000C020E000C0400000C0402000C0404000C0406000C0
310
408000C040A000C040C000C040E000C0600000C0602000C0604000C0606000C0608000C060A000C060C000C060E000C0800000C0802000C0804000C0806000C0808000C080A000C080C000C080E000C0A00000C0A02000C0A04000C0A06000C0A08000C0A0A000C0A0C000C0A0E000C0C00000C0C02000C0C04000C0C06000
310
C0C08000C0C0A000F0FBFF00A4A0A000808080000000FF0000FF000000FFFF00FF000000FF00FF00FFFF0000FFFFFF00000000000000000000000000000000000000000000000000000000000000000000000000000000FFFFFFFFFFFFFFFFFFFFFFFFFFFFFFFFFFFF0000000000000000000000000000FF00000000000000
310
000000000000000000FF0000000000000000000000000000FF00000000000000000000000000000000FF0000000000000000000000000000FFFFFFFFFFFFFFFFFFFFFFFFFFFFFFFFFFFF0000000000000000000000000000FFFFFFFFFFFFFFFFFFFFFFFFFFFFFFFFFFFF000000000000000000000000000000FF0000000000
310
000000000000000000FF00000000000000000000000000000000FF0000000000000000000000000000FF00000000000000000000000000000000FF0000000000000000000000000000FF00000000000000000000000000000000FF0000000000000000000000000000FF0000000000000000000000000000000000FF000000
310
000000000000000000FF000000000000000000000000000000000000FF000000000000000000000000FF000000000000000000000000000000000000FF000000000000000000000000FF000000000000000000000000000000000000FF000000000000000000000000FF000000000000000000000000000000000000FF0000
310
00000000000000000000FF000000000000000000000000000000000000FF00000000000000000000000000FF000000000000000000000000000000FFFF0000000000000000000000000000FFFF0000000000000000000000000000FF00000000000000000000000000000000FF00000000000000000000000000FF00000000
310
0000000000000000000000000000FF000000000000000000000000FF000000000000000000000000000000000000FF000000000000000000000000FF00000000000000000000000000000000000000FF00000000000000000000FF0000000000000000000000000000000000000000FF00000000000000000000FF00000000
310
00000000000000000000000000000000FF000000000000000000FF00000000000000000000000000000000000000000000FF0000000000000000FFFFFFFFFFFFFFFFFFFFFFFFFFFFFFFFFFFFFFFFFFFFFFFF0000000000000000FF00000000000000000000000000000000000000000000FF00000000000000FFFFFFFFFFFF
310
FFFFFFFFFFFFFFFFFFFFFFFFFFFFFFFFFFFFFFFF000000000000FF000000000000000000000000000000000000000000000000FF000000000000FFFFFFFFFFFFFFFFFFFFFFFFFFFFFFFFFFFFFFFFFFFFFFFFFFFF000000000000FF000000000000000000000000000000000000000000000000FF00000000000000FFFFFFFF
310
FFFFFFFFFFFFFFFFFFFFFFFFFFFFFFFFFFFFFFFF000000000000000000000000000000000000000000000000000000000000000000000000
102
{BLKREFS
331
1097
102
}
1001
ACAD
1000
DesignCenter Data
1002
{
1070
     1
1070
     4
1002
}
  0
ENDTAB
  0
ENDSEC
  0
SECTION
  2
BLOCKS
  0
BLOCK
  5
20
330
1F
100
AcDbEntity
  8
0
100
AcDbBlockBegin
  2
*Model_Space
 70
     0
 10
0.0
 20
0.0
 30
0.0
  3
*Model_Space
  1

  0
ENDBLK
  5
21
330
1F
100
AcDbEntity
  8
0
100
AcDbBlockEnd
  0
BLOCK
  5
D4
330
D2
100
AcDbEntity
 67
     1
  8
0
100
AcDbBlockBegin
  2
*Paper_Space
 70
     0
 10
0.0
 20
0.0
 30
0.0
  3
*Paper_Space
  1

  0
ENDBLK
  5
D5
330
D2
100
AcDbEntity
 67
     1
  8
0
100
AcDbBlockEnd
  0
BLOCK
  5
D8
330
D6
100
AcDbEntity
  8
0
100
AcDbBlockBegin
  2
*Paper_Space0
 70
     0
 10
0.0
 20
0.0
 30
0.0
  3
*Paper_Space0
  1

  0
ENDBLK
  5
D9
330
D6
100
AcDbEntity
  8
0
100
AcDbBlockEnd
  0
BLOCK
  5
104F
330
104E
100
AcDbEntity
  8
0
100
AcDbBlockBegin
  2
12360-A
 70
     0
 10
0.0
 20
0.0
 30
0.0
  3
12360-A
  1

  0
ARC
  5
1051
330
104E
100
AcDbEntity
  8
0
370
    15
100
AcDbCircle
 10
-174.9955661305808
 20
385.0000000000004
 30
0.0
 40
5.000000000000007
100
AcDbArc
 50
90.0
 51
183.0000000000056
  0
LINE
  5
1052
330
104E
100
AcDbEntity
  8
0
370
    15
100
AcDbLine
 10
-174.9955713748965
 20
389.9999856948857
 30
0.0
 11
-0.0000000000009095
 21
389.9999856948857
 31
0.0
  0
LINE
  5
1053
330
104E
100
AcDbEntity
  8
0
370
    15
100
AcDbLine
 10
-179.9887120723757
 20
384.7383260726933
 30
0.0
 11
-178.6261051893267
 21
358.7383329868321
 31
0.0
  0
ARC
  5
1054
330
104E
100
AcDbEntity
  8
0
370
    15
100
AcDbCircle
 10
-173.632963869221
 20
359.0000000000005
 30
0.0
 40
5.0
100
AcDbArc
 50
183.0000000000056
 51
245.5999698811836
  0
ARC
  5
1055
330
104E
100
AcDbEntity
  8
0
370
    15
100
AcDbCircle
 10
-166.375177166428
 20
335.0000000000004
 30
0.0
 40
5.000000000000014
100
AcDbArc
 50
183.0000000000056
 51
260.4463844667259
  0
ARC
  5
1056
330
104E
100
AcDbEntity
  8
0
370
    15
100
AcDbCircle
 10
-178.2184283540815
 20
348.8914137755032
 30
0.0
 40
6.100000000000167
100
AcDbArc
 50
3.000000000031614
 51
65.59996988118363
  0
LINE
  5
1057
330
104E
100
AcDbEntity
  8
0
370
    15
100
AcDbLine
 10
-172.1267849206957
 20
349.2106497287755
 30
0.0
 11
-171.3683307170901
 21
334.7383141517644
 31
0.0
  0
ARC
  5
1058
330
104E
100
AcDbEntity
  8
0
370
    15
100
AcDbCircle
 10
19.15641375985712
 20
337.1359752999537
 30
0.0
 40
181.6044022604316
100
AcDbArc
 50
220.9965178520175
 51
225.5811672605931
  0
ARC
  5
1059
330
104E
100
AcDbEntity
  8
0
370
    15
100
AcDbCircle
 10
21.6784871191785
 20
339.4725218608496
 30
0.0
 40
185.0424468582859
100
AcDbArc
 50
184.5896850194015
 51
221.0302682112594
  0
LINE
  5
105A
330
104E
100
AcDbEntity
  8
0
370
    15
100
AcDbLine
 10
-129.9999952316308
 20
0.0000000000002274
 30
0.0
 11
-0.000000000001819
 21
0.0
 31
0.0
  0
LINE
  5
105B
330
104E
100
AcDbEntity
  8
0
370
    15
100
AcDbLine
 10
-127.3329406976724
 20
30.48460185527825
 30
0.0
 11
-129.9999952316308
 21
0.0000000000002274
 31
0.0
  0
ARC
  5
105C
330
104E
100
AcDbEntity
  8
0
370
    15
100
AcDbCircle
 10
-122.3519693548084
 20
30.04882405934154
 30
0.0
 40
5.000000000000037
100
AcDbArc
 50
95.37591509595417
 51
175.0000000000002
  0
ARC
  5
105D
330
104E
100
AcDbEntity
  8
0
370
    15
100
AcDbCircle
 10
-123.3919262426694
 20
41.10000000000013
 30
0.0
 40
6.100000000000022
100
AcDbArc
 50
275.3759150959542
 51
353.5999999999936
  0
LINE
  5
105E
330
104E
100
AcDbEntity
  8
0
370
    15
100
AcDbLine
 10
-117.9348829602266
 20
35.02682968974125
 30
0.0
 11
-116.7452931404137
 21
45.6323102116587
 31
0.0
  0
ARC
  5
105F
330
104E
100
AcDbEntity
  8
0
370
    15
100
AcDbCircle
 10
-111.7764524559958
 20
45.07496599524825
 30
0.0
 40
4.999999999999992
100
AcDbArc
 50
96.66274242025211
 51
173.5999999999936
  0
ARC
  5
1060
330
104E
100
AcDbEntity
  8
0
370
    15
100
AcDbCircle
 10
-113.0643286899773
 20
56.10000000000013
 30
0.0
 40
6.100000000000028
100
AcDbArc
 50
276.6627424202521
 51
357.1999999999978
  0
LINE
  5
1061
330
104E
100
AcDbEntity
  8
0
370
    15
100
AcDbLine
 10
-106.9716140627885
 20
55.80201745033287
 30
0.0
 11
-100.4817932844186
 21
188.4960383176808
 31
0.0
  0
LWPOLYLINE
  5
1062
330
104E
100
AcDbEntity
  8
0
370
    15
100
AcDbPolyline
 90
        6
 70
   128
 43
0.0
 10
-167.4902290105834
 20
330.1259279251103
 10
-167.4902290105834
 20
330.1259279251103
 10
-167.4902290105834
 20
330.1259279251103
 10
-167.4902290105843
 20
330.1259279251103
 10
-167.2691255807909
 20
330.0805687904362
 10
-167.2050356864962
 20
330.0693333148961
  0
ARC
  5
1063
330
104E
100
AcDbEntity
  8
0
370
    15
100
AcDbCircle
 10
-168.8505813379612
 20
324.1795390954198
 30
0.0
 40
6.100000000000001
100
AcDbArc
 50
4.581122934211879
 51
77.11414961042304
  0
ARC
  5
1064
330
104E
100
AcDbEntity
  8
0
370
    15
100
AcDbCircle
 10
-125.4585148959928
 20
189.5829371225513
 30
0.0
 40
25.00000000000005
100
AcDbArc
 50
357.1999999999978
 51
45.53978935177778
  0
LINE
  5
1065
330
104E
100
AcDbEntity
  8
0
370
    15
100
AcDbLine
 10
-100.4817932844186
 20
188.4960383176808
 30
0.0
 11
-100.4883646965051
 21
188.3616894483571
 31
0.0
  0
LWPOLYLINE
  5
1066
330
104E
100
AcDbEntity
  8
0
370
    15
100
AcDbPolyline
 90
        3
 70
   128
 43
0.0
 10
-179.9931526184097
 20
384.7383260726933
 10
-179.996177554132
 20
385.1954936981206
 10
-179.9503117799774
 20
385.7031166553502
  0
ARC
  5
1067
330
104E
100
AcDbEntity
  8
0
370
    15
100
AcDbCircle
 10
-179.947977890422
 20
384.7394867534508
 30
0.0
 40
0.0407507148298208
100
AcDbArc
 50
181.6321456938465
 51
184.4135145154424
  0
LINE
  5
1068
330
104E
100
AcDbEntity
  8
0
370
    15
100
AcDbLine
 10
-179.9240410327926
 20
385.8682513237004
 30
0.0
 11
-176.8346279859557
 21
403.3891856670384
 31
0.0
  0
ARC
  5
1069
330
104E
100
AcDbEntity
  8
0
370
    15
100
AcDbCircle
 10
-175.0000000000015
 20
385.0000000000004
 30
0.0
 40
4.999999999999984
100
AcDbArc
 50
169.9999999999949
 51
171.9159334659194
  0
ARC
  5
106A
330
104E
100
AcDbEntity
  8
0
370
    15
100
AcDbCircle
 10
-168.9561614923001
 20
402.0000000000004
 30
0.0
 40
8.0
100
AcDbArc
 50
90.0
 51
169.9999999999949
  0
LINE
  5
106B
330
104E
100
AcDbEntity
  8
0
370
    15
100
AcDbLine
 10
-168.9561605453506
 20
409.9999964237217
 30
0.0
 11
-0.0000000000009095
 21
409.9999964237217
 31
0.0
  0
LINE
  5
106C
330
104E
100
AcDbEntity
  8
0
370
     0
100
AcDbLine
 10
-175.6984889507327
 20
354.4465899467473
 30
0.0
 11
-0.0000000000009095
 21
354.4465899467473
 31
0.0
  0
LWPOLYLINE
  5
106D
330
104E
100
AcDbEntity
  8
0
370
     0
100
AcDbPolyline
 90
       23
 70
   128
 43
0.0
 10
-167.2050356864962
 20
330.0693333148961
 10
-166.8501347303423
 20
330.0615251064305
 10
-165.8877432346377
 20
330.0548493862156
 10
-164.2923802137408
 20
330.0491273403172
 10
-162.0803177356753
 20
330.044269561768
 10
-158.0647677183184
 20
330.0389945507054
 10
-152.9376506805453
 20
330.0350606441502
 10
-146.5312540531191
 20
330.0321400165562
 10
-139.0313208103213
 20
330.0302624702458
 10
-130.7427287101778
 20
330.0292193889622
 10
-121.5307414531741
 20
330.0288617610936
 10
-111.1445575952563
 20
330.0290703773503
 10
-99.92426633835169
 20
330.0298452377324
 10
-88.36403489113184
 20
330.0309777259831
 10
-76.1827602982554
 20
330.0323784351353
 10
-63.07975202799173
 20
330.034047365189
 10
-49.5055280625852
 20
330.0357162952427
 10
-42.11439564824423
 20
330.0366103649144
 10
-34.63358804583823
 20
330.0374150276188
 10
-27.01315656304632
 20
330.0381004810338
 10
-19.33407410979544
 20
330.0386369228367
 10
-8.316391147675858
 20
330.0391733646397
 10
-0.0000000000009095
 20
330.0392626492053
  0
ARC
  5
106E
330
104E
100
AcDbEntity
  8
0
370
     0
100
AcDbCircle
 10
-168.2174461881237
 20
324.0543780115354
 30
0.0
 40
6.099599065264937
100
AcDbArc
 50
11.03644936971175
 51
80.44583967703811
  0
LWPOLYLINE
  5
1071
330
104E
100
AcDbEntity
  8
0
370
     0
100
AcDbPolyline
 90
        7
 70
   128
 43
0.0
 10
-162.23065555096
 20
325.2220451831822
 10
-162.2321605682406
 20
325.2198994159703
 10
-162.3984277248406
 20
325.0272274017338
 10
-162.5598520040536
 20
324.8616456985478
 10
-162.7683192491555
 20
324.6682882308964
 10
-162.7700626850152
 20
324.6667385101323
 10
-162.7700626850143
 20
324.6667385101323
  0
LINE
  5
1072
330
104E
100
AcDbEntity
  8
0
370
     0
100
AcDbLine
 10
-122.8204220533395
 20
35.02682968974137
 30
0.0
 11
-0.0000000000009095
 21
35.02682968974159
 31
0.0
  0
LINE
  5
1073
330
104E
100
AcDbEntity
  8
0
370
     0
100
AcDbLine
 10
-112.3565733432793
 20
50.04119873046898
 30
0.0
 11
-0.0000000000009095
 21
50.04119873046875
 31
0.0
  0
ARC
  5
1074
330
104E
100
AcDbEntity
  8
0
370
    15
100
AcDbCircle
 10
174.995566130579
 20
385.0000000000004
 30
0.0
 40
5.000000000000007
100
AcDbArc
 50
356.9999999999944
 51
90.0
  0
LINE
  5
1075
330
104E
100
AcDbEntity
  8
0
370
    15
100
AcDbLine
 10
174.9955713748946
 20
389.9999856948857
 30
0.0
 11
-0.0000000000009095
 21
389.9999856948857
 31
0.0
  0
LINE
  5
1076
330
104E
100
AcDbEntity
  8
0
370
    15
100
AcDbLine
 10
179.9887120723739
 20
384.7383260726933
 30
0.0
 11
178.6261051893249
 21
358.7383329868321
 31
0.0
  0
ARC
  5
1077
330
104E
100
AcDbEntity
  8
0
370
    15
100
AcDbCircle
 10
173.6329638692192
 20
359.0000000000005
 30
0.0
 40
5.0
100
AcDbArc
 50
294.4000301188164
 51
356.9999999999944
  0
ARC
  5
1078
330
104E
100
AcDbEntity
  8
0
370
    15
100
AcDbCircle
 10
166.3751771664261
 20
335.0000000000004
 30
0.0
 40
5.000000000000014
100
AcDbArc
 50
279.5536155332741
 51
356.9999999999944
  0
ARC
  5
1079
330
104E
100
AcDbEntity
  8
0
370
    15
100
AcDbCircle
 10
178.2184283540797
 20
348.8914137755032
 30
0.0
 40
6.100000000000167
100
AcDbArc
 50
114.4000301188164
 51
176.9999999999683
  0
LINE
  5
107A
330
104E
100
AcDbEntity
  8
0
370
    15
100
AcDbLine
 10
172.1267849206939
 20
349.2106497287755
 30
0.0
 11
171.3683307170883
 21
334.7383141517644
 31
0.0
  0
ARC
  5
107B
330
104E
100
AcDbEntity
  8
0
370
    15
100
AcDbCircle
 10
-19.15641375985524
 20
337.1359752999502
 30
0.0
 40
181.6044022604265
100
AcDbArc
 50
314.4188327394069
 51
319.0034821479825
  0
ARC
  5
107C
330
104E
100
AcDbEntity
  8
0
370
    15
100
AcDbCircle
 10
-21.67848711918032
 20
339.4725218608496
 30
0.0
 40
185.0424468582859
100
AcDbArc
 50
318.9697317887406
 51
355.4103149805985
  0
LINE
  5
107D
330
104E
100
AcDbEntity
  8
0
370
    15
100
AcDbLine
 10
129.999995231629
 20
0.0000000000002274
 30
0.0
 11
0.0
 21
0.0
 31
0.0
  0
LINE
  5
107E
330
104E
100
AcDbEntity
  8
0
370
    15
100
AcDbLine
 10
127.3329406976705
 20
30.48460185527825
 30
0.0
 11
129.999995231629
 21
0.0000000000002274
 31
0.0
  0
ARC
  5
107F
330
104E
100
AcDbEntity
  8
0
370
    15
100
AcDbCircle
 10
122.3519693548065
 20
30.04882405934154
 30
0.0
 40
5.000000000000037
100
AcDbArc
 50
4.999999999999743
 51
84.62408490404582
  0
ARC
  5
1080
330
104E
100
AcDbEntity
  8
0
370
    15
100
AcDbCircle
 10
123.3919262426676
 20
41.10000000000013
 30
0.0
 40
6.100000000000022
100
AcDbArc
 50
186.4000000000064
 51
264.6240849040458
  0
LINE
  5
1081
330
104E
100
AcDbEntity
  8
0
370
    15
100
AcDbLine
 10
117.9348829602248
 20
35.02682968974125
 30
0.0
 11
116.7452931404119
 21
45.6323102116587
 31
0.0
  0
ARC
  5
1082
330
104E
100
AcDbEntity
  8
0
370
    15
100
AcDbCircle
 10
111.776452455994
 20
45.07496599524825
 30
0.0
 40
4.999999999999992
100
AcDbArc
 50
6.400000000006374
 51
83.33725757974788
  0
ARC
  5
1083
330
104E
100
AcDbEntity
  8
0
370
    15
100
AcDbCircle
 10
113.0643286899754
 20
56.10000000000013
 30
0.0
 40
6.100000000000028
100
AcDbArc
 50
182.8000000000022
 51
263.3372575797479
  0
LINE
  5
1084
330
104E
100
AcDbEntity
  8
0
370
    15
100
AcDbLine
 10
106.9716140627867
 20
55.80201745033287
 30
0.0
 11
100.4817932844167
 21
188.4960383176808
 31
0.0
  0
LWPOLYLINE
  5
1085
330
104E
100
AcDbEntity
  8
0
370
    15
100
AcDbPolyline
 90
        6
 70
   128
 43
0.0
 10
167.4902290105816
 20
330.1259279251103
 10
167.4902290105816
 20
330.1259279251103
 10
167.4902290105816
 20
330.1259279251103
 10
167.4902290105825
 20
330.1259279251103
 10
167.2691255807891
 20
330.0805687904362
 10
167.2050356864944
 20
330.0693333148961
  0
ARC
  5
1086
330
104E
100
AcDbEntity
  8
0
370
    15
100
AcDbCircle
 10
168.8505813379594
 20
324.1795390954198
 30
0.0
 40
6.100000000000001
100
AcDbArc
 50
102.8858503895769
 51
175.4188770657881
  0
ARC
  5
1087
330
104E
100
AcDbEntity
  8
0
370
    15
100
AcDbCircle
 10
125.458514895991
 20
189.5829371225513
 30
0.0
 40
25.00000000000005
100
AcDbArc
 50
134.4602106482222
 51
182.8000000000022
  0
LINE
  5
1088
330
104E
100
AcDbEntity
  8
0
370
    15
100
AcDbLine
 10
100.4817932844167
 20
188.4960383176808
 30
0.0
 11
100.4883646965032
 21
188.3616894483571
 31
0.0
  0
LWPOLYLINE
  5
1089
330
104E
100
AcDbEntity
  8
0
370
    15
100
AcDbPolyline
 90
        3
 70
   128
 43
0.0
 10
179.9931526184078
 20
384.7383260726933
 10
179.9961775541302
 20
385.1954936981206
 10
179.9503117799755
 20
385.7031166553502
  0
ARC
  5
108A
330
104E
100
AcDbEntity
  8
0
370
    15
100
AcDbCircle
 10
179.9479778904202
 20
384.7394867534508
 30
0.0
 40
0.0407507148298208
100
AcDbArc
 50
355.5864854845576
 51
358.3678543061534
  0
LINE
  5
108B
330
104E
100
AcDbEntity
  8
0
370
    15
100
AcDbLine
 10
179.9240410327908
 20
385.8682513237004
 30
0.0
 11
176.8346279859539
 21
403.3891856670384
 31
0.0
  0
ARC
  5
108C
330
104E
100
AcDbEntity
  8
0
370
    15
100
AcDbCircle
 10
174.9999999999996
 20
385.0000000000004
 30
0.0
 40
4.999999999999984
100
AcDbArc
 50
8.084066534080548
 51
10.00000000000502
  0
ARC
  5
108D
330
104E
100
AcDbEntity
  8
0
370
    15
100
AcDbCircle
 10
168.9561614922983
 20
402.0000000000004
 30
0.0
 40
8.0
100
AcDbArc
 50
10.00000000000502
 51
90.0
  0
LINE
  5
108E
330
104E
100
AcDbEntity
  8
0
370
    15
100
AcDbLine
 10
168.9561605453488
 20
409.9999964237217
 30
0.0
 11
-0.0000000000009095
 21
409.9999964237217
 31
0.0
  0
LINE
  5
108F
330
104E
100
AcDbEntity
  8
0
370
     0
100
AcDbLine
 10
175.6984889507308
 20
354.4465899467473
 30
0.0
 11
-0.0000000000009095
 21
354.4465899467473
 31
0.0
  0
LWPOLYLINE
  5
1090
330
104E
100
AcDbEntity
  8
0
370
     0
100
AcDbPolyline
 90
       23
 70
   128
 43
0.0
 10
167.2050356864944
 20
330.0693333148961
 10
166.8501347303405
 20
330.0615251064305
 10
165.8877432346359
 20
330.0548493862156
 10
164.2923802137389
 20
330.0491273403172
 10
162.0803177356735
 20
330.044269561768
 10
158.0647677183166
 20
330.0389945507054
 10
152.9376506805435
 20
330.0350606441502
 10
146.5312540531173
 20
330.0321400165562
 10
139.0313208103195
 20
330.0302624702458
 10
130.742728710176
 20
330.0292193889622
 10
121.5307414531722
 20
330.0288617610936
 10
111.1445575952545
 20
330.0290703773503
 10
99.92426633834988
 20
330.0298452377324
 10
88.36403489113001
 20
330.0309777259831
 10
76.18276029825358
 20
330.0323784351353
 10
63.07975202798991
 20
330.034047365189
 10
49.50552806258338
 20
330.0357162952427
 10
42.11439564824241
 20
330.0366103649144
 10
34.6335880458364
 20
330.0374150276188
 10
27.0131565630445
 20
330.0381004810338
 10
19.33407410979362
 20
330.0386369228367
 10
8.316391147674039
 20
330.0391733646397
 10
-0.0000000000009095
 20
330.0392626492053
  0
ARC
  5
1091
330
104E
100
AcDbEntity
  8
0
370
     0
100
AcDbCircle
 10
168.2174461881219
 20
324.0543780115354
 30
0.0
 40
6.099599065264937
100
AcDbArc
 50
99.55416032296188
 51
168.9635506302882
  0
LWPOLYLINE
  5
1094
330
104E
100
AcDbEntity
  8
0
370
     0
100
AcDbPolyline
 90
        7
 70
   128
 43
0.0
 10
162.2306555509582
 20
325.2220451831822
 10
162.2321605682388
 20
325.2198994159703
 10
162.3984277248388
 20
325.0272274017338
 10
162.5598520040518
 20
324.8616456985478
 10
162.7683192491537
 20
324.6682882308964
 10
162.7700626850134
 20
324.6667385101323
 10
162.7700626850125
 20
324.6667385101323
  0
LINE
  5
1095
330
104E
100
AcDbEntity
  8
0
370
     0
100
AcDbLine
 10
122.8204220533376
 20
35.02682968974137
 30
0.0
 11
-0.0000000000009095
 21
35.02682968974159
 31
0.0
  0
LINE
  5
1096
330
104E
100
AcDbEntity
  8
0
370
     0
100
AcDbLine
 10
112.3565733432775
 20
50.04119873046898
 30
0.0
 11
-0.0000000000009095
 21
50.04119873046875
 31
0.0
  0
ELLIPSE
  5
10E5
330
104E
100
AcDbEntity
  8
0
100
AcDbEllipse
 10
-0.0000000000009095
 20
207.4041391158887
 30
0.0
 11
107.9204827546877
 21
0.0
 31
0.0
210
0.0
220
0.0
230
1.0
 40
0.2263985355092277
 41
3.693973407038453
 42
5.730804553730925
  0
ENDBLK
  5
1050
330
104E
100
AcDbEntity
  8
0
100
AcDbBlockEnd
  0
ENDSEC
  0
SECTION
  2
ENTITIES
  0
MTEXT
  5
2BF
330
1F
100
AcDbEntity
  8
0
100
AcDbMText
 10
-416.9613267768137
 20
33.41238768955648
 30
0.0
 40
20.0
 41
505.2631578947369
 71
     1
 72
     5
  1
{\fTimes New Roman|b0|i0|c0|p18;\C0;BIDE SERIE NOBLE.}
 73
     1
 44
1.0
1001
ACAD
1000
MTEXTBEGIN
1070
    73
1070
     1
1070
    44
1040
1.0
1070
    74
1070
     0
1000
MTEXTEND
  0
INSERT
  5
1097
330
1F
100
AcDbEntity
  8
0
100
AcDbBlockReference
  2
12360-A
 10
-284.5056659832949
 20
168.3591082443413
 30
0.0
  0
ENDSEC
  0
SECTION
  2
OBJECTS
  0
DICTIONARY
  5
C
330
0
100
AcDbDictionary
281
     1
  3
ACAD_COLOR
350
6B
  3
ACAD_GROUP
350
D
  3
ACAD_LAYOUT
350
1A
  3
ACAD_MATERIAL
350
6A
  3
ACAD_MLINESTYLE
350
17
  3
ACAD_PLOTSETTINGS
350
19
  3
ACAD_PLOTSTYLENAME
350
E
  3
ACAD_TABLESTYLE
350
7E
  3
ACDBHEADERROUNDTRIPXREC
350
1143
  3
AcDbVariableDictionary
350
5E
  3
DWGPROPS
350
1142
  0
DICTIONARY
  5
118
330
2
100
AcDbDictionary
280
     1
281
     1
  3
ACAD_LAYERSTATES
360
119
  0
DICTIONARY
  5
1DD
330
1F
100
AcDbDictionary
280
     1
281
     1
  3
ACAD_SORTENTS
360
1DE
  0
DICTIONARY
  5
1128
330
104E
100
AcDbDictionary
280
     1
281
     1
  3
ACAD_SORTENTS
360
1129
  0
DICTIONARY
  5
6B
102
{ACAD_REACTORS
330
C
102
}
330
C
100
AcDbDictionary
281
     1
  0
DICTIONARY
  5
D
102
{ACAD_REACTORS
330
C
102
}
330
C
100
AcDbDictionary
281
     1
  0
DICTIONARY
  5
1A
102
{ACAD_REACTORS
330
C
102
}
330
C
100
AcDbDictionary
281
     1
  3
Model
350
22
  3
Presentación1
350
D3
  3
Presentación2
350
D7
  0
DICTIONARY
  5
6A
102
{ACAD_REACTORS
330
C
102
}
330
C
100
AcDbDictionary
281
     1
  0
DICTIONARY
  5
17
102
{ACAD_REACTORS
330
C
102
}
330
C
100
AcDbDictionary
281
     1
  3
Standard
350
18
  0
DICTIONARY
  5
19
102
{ACAD_REACTORS
330
C
102
}
330
C
100
AcDbDictionary
281
     1
  0
ACDBDICTIONARYWDFLT
  5
E
102
{ACAD_REACTORS
330
C
102
}
330
C
100
AcDbDictionary
281
     1
  3
Normal
350
F
100
AcDbDictionaryWithDefault
340
F
  0
DICTIONARY
  5
7E
102
{ACAD_REACTORS
330
C
102
}
330
C
100
AcDbDictionary
281
     1
  3
Standard
350
7F
  0
DICTIONARY
  5
1143
102
{ACAD_REACTORS
330
C
102
}
330
C
100
AcDbDictionary
281
     1
  0
DICTIONARY
  5
5E
102
{ACAD_REACTORS
330
C
102
}
330
C
100
AcDbDictionary
281
     1
  3
CTABLESTYLE
350
84
  3
DIMASSOC
350
5F
  3
HIDETEXT
350
63
  3
PROJECTNAME
350
3B7
  0
XRECORD
  5
1142
102
{ACAD_REACTORS
330
C
102
}
330
C
100
AcDbXrecord
280
     1
  1
DWGPROPS COOKIE
  2

  3

  4

  6

  7

  8
Autodesk
  9

300
=
301
=
302
=
303
=
304
=
305
=
306
=
307
=
308
=
309
=
 40
0.0621942013888889
 41
2454550.307324757
 42
2454550.406645498
  1

 90
        0
  0
DICTIONARY
  5
119
102
{ACAD_REACTORS
330
118
102
}
330
118
100
AcDbDictionary
281
     1
  0
SORTENTSTABLE
  5
1DE
102
{ACAD_REACTORS
330
1DD
102
}
330
1DD
100
AcDbSortentsTable
330
1F
331
1097
  5
1097
331
2BF
  5
2BF
  0
SORTENTSTABLE
  5
1129
102
{ACAD_REACTORS
330
1128
102
}
330
1128
100
AcDbSortentsTable
330
104E
331
108C
  5
108D
331
108F
  5
1090
331
1095
  5
1096
331
1051
  5
1052
331
1054
  5
1055
331
1057
  5
1058
331
105A
  5
105B
331
105D
  5
105E
331
1060
  5
1061
331
1063
  5
1064
331
1068
  5
1069
331
1066
  5
1067
331
106B
  5
106C
331
106E
  5
1071
331
1071
  5
1072
331
1074
  5
1075
331
1077
  5
1078
331
107A
  5
107B
331
107D
  5
107E
331
1080
  5
1081
331
1083
  5
1084
331
1088
  5
1089
331
1086
  5
1087
331
108B
  5
108C
331
108E
  5
108F
331
1091
  5
1094
331
1094
  5
1095
331
1053
  5
1054
331
1056
  5
1057
331
10E5
  5
1051
331
1059
  5
105A
331
105C
  5
105D
331
105F
  5
1060
331
1062
  5
1063
331
1065
  5
1066
331
106A
  5
106B
331
106D
  5
106E
331
1073
  5
1074
331
1076
  5
1077
331
1079
  5
107A
331
107C
  5
107D
331
107F
  5
1080
331
1082
  5
1083
331
1085
  5
1086
331
108A
  5
108B
331
108D
  5
108E
331
1090
  5
1091
331
1096
  5
10E5
331
1052
  5
1053
331
1055
  5
1056
331
1058
  5
1059
331
105B
  5
105C
331
105E
  5
105F
331
1061
  5
1062
331
1064
  5
1065
331
1067
  5
1068
331
1069
  5
106A
331
106C
  5
106D
331
1072
  5
1073
331
1075
  5
1076
331
1078
  5
1079
331
107B
  5
107C
331
107E
  5
107F
331
1081
  5
1082
331
1084
  5
1085
331
1087
  5
1088
331
1089
  5
108A
  0
LAYOUT
  5
22
102
{ACAD_XDICTIONARY
360
1144
102
}
102
{ACAD_REACTORS
330
1A
102
}
330
1A
100
AcDbPlotSettings
  1

  2
none_device
  4
ISO_A4_(210.00_x_297.00_MM)
  6

 40
7.5
 41
20.0
 42
7.5
 43
20.0
 44
210.0
 45
297.0
 46
11.54999923706054
 47
-13.65000009536743
 48
0.0
 49
0.0
140
0.0
141
0.0
142
1.0
143
8.704084754739808
 70
 11952
 72
     1
 73
     0
 74
     0
  7

 75
     0
147
0.1148885871608098
148
0.0
149
0.0
100
AcDbLayout
  1
Model
 70
     1
 71
     0
 10
0.0
 20
0.0
 11
12.0
 21
9.0
 12
0.0
 22
0.0
 32
0.0
 14
0.0
 24
0.0
 34
0.0
 15
0.0
 25
0.0
 35
0.0
146
0.0
 13
0.0
 23
0.0
 33
0.0
 16
1.0
 26
0.0
 36
0.0
 17
0.0
 27
1.0
 37
0.0
 76
     0
330
1F
1001
ACAD_PSEXT
1000
None
1000
None
1000
Not applicable
1000
The layout will not be plotted unless a new plotter configuration name is selected.
1070
     0
  0
LAYOUT
  5
D3
102
{ACAD_XDICTIONARY
360
1146
102
}
102
{ACAD_REACTORS
330
1A
102
}
330
1A
100
AcDbPlotSettings
  1

  2
C:\Documents and Settings\basas\Application Data\Autodesk\AutoCAD 2005\R16.1\enu\plotters\Default Windows System Printer.pc3
  4

  6

 40
0.0
 41
0.0
 42
0.0
 43
0.0
 44
0.0
 45
0.0
 46
0.0
 47
0.0
 48
0.0
 49
0.0
140
0.0
141
0.0
142
1.0
143
1.0
 70
   688
 72
     0
 73
     0
 74
     5
  7

 75
    16
147
1.0
148
0.0
149
0.0
100
AcDbLayout
  1
Presentación1
 70
     1
 71
     1
 10
0.0
 20
0.0
 11
12.0
 21
9.0
 12
0.0
 22
0.0
 32
0.0
 14
0.0
 24
0.0
 34
0.0
 15
0.0
 25
0.0
 35
0.0
146
0.0
 13
0.0
 23
0.0
 33
0.0
 16
1.0
 26
0.0
 36
0.0
 17
0.0
 27
1.0
 37
0.0
 76
     0
330
D2
  0
LAYOUT
  5
D7
102
{ACAD_XDICTIONARY
360
1148
102
}
102
{ACAD_REACTORS
330
1A
102
}
330
1A
100
AcDbPlotSettings
  1

  2
C:\Documents and Settings\basas\Application Data\Autodesk\AutoCAD 2005\R16.1\enu\plotters\Default Windows System Printer.pc3
  4

  6

 40
0.0
 41
0.0
 42
0.0
 43
0.0
 44
0.0
 45
0.0
 46
0.0
 47
0.0
 48
0.0
 49
0.0
140
0.0
141
0.0
142
1.0
143
1.0
 70
   688
 72
     0
 73
     0
 74
     5
  7

 75
    16
147
1.0
148
0.0
149
0.0
100
AcDbLayout
  1
Presentación2
 70
     1
 71
     2
 10
0.0
 20
0.0
 11
12.0
 21
9.0
 12
0.0
 22
0.0
 32
0.0
 14
0.0
 24
0.0
 34
0.0
 15
0.0
 25
0.0
 35
0.0
146
0.0
 13
0.0
 23
0.0
 33
0.0
 16
1.0
 26
0.0
 36
0.0
 17
0.0
 27
1.0
 37
0.0
 76
     0
330
D6
  0
MLINESTYLE
  5
18
102
{ACAD_REACTORS
330
17
102
}
330
17
100
AcDbMlineStyle
  2
STANDARD
 70
     0
  3

 62
   256
 51
90.0
 52
90.0
 71
     2
 49
0.5
 62
   256
  6
BYLAYER
 49
-0.5
 62
   256
  6
BYLAYER
  0
ACDBPLACEHOLDER
  5
F
102
{ACAD_REACTORS
330
E
102
}
330
E
  0
TABLESTYLE
  5
7F
102
{ACAD_REACTORS
330
7E
102
}
330
7E
100
AcDbTableStyle
  3
Standard
 70
     0
 71
     0
 40
1.5
 41
1.5
280
     0
281
     0
  7
Standard
140
4.5
170
     2
 62
     0
 63
     7
283
     0
274
    -2
284
     1
 64
     0
275
    -2
285
     1
 65
     0
276
    -2
286
     1
 66
     0
277
    -2
287
     1
 67
     0
278
    -2
288
     1
 68
     0
279
    -2
289
     1
 69
     0
  7
Standard
140
6.0
170
     5
 62
     0
 63
     7
283
     0
274
    -2
284
     1
 64
     0
275
    -2
285
     1
 65
     0
276
    -2
286
     1
 66
     0
277
    -2
287
     1
 67
     0
278
    -2
288
     1
 68
     0
279
    -2
289
     1
 69
     0
  7
Standard
140
4.5
170
     5
 62
     0
 63
     7
283
     0
274
    -2
284
     1
 64
     0
275
    -2
285
     1
 65
     0
276
    -2
286
     1
 66
     0
277
    -2
287
     1
 67
     0
278
    -2
288
     1
 68
     0
279
    -2
289
     1
 69
     0
  0
DICTIONARYVAR
  5
84
102
{ACAD_REACTORS
330
5E
102
}
330
5E
100
DictionaryVariables
280
     0
  1
STANDARD
  0
DICTIONARYVAR
  5
5F
102
{ACAD_REACTORS
330
5E
102
}
330
5E
100
DictionaryVariables
280
     0
  1
2
  0
DICTIONARYVAR
  5
63
102
{ACAD_REACTORS
330
5E
102
}
330
5E
100
DictionaryVariables
280
     0
  1
1
  0
DICTIONARYVAR
  5
3B7
102
{ACAD_REACTORS
330
5E
102
}
330
5E
100
DictionaryVariables
280
     0
  1

  0
DICTIONARY
  5
1144
330
22
100
AcDbDictionary
280
     1
281
     1
  3
ACAD_XREC_ROUNDTRIP
360
1145
  0
DICTIONARY
  5
1146
330
D3
100
AcDbDictionary
280
     1
281
     1
  3
ACAD_XREC_ROUNDTRIP
360
1147
  0
DICTIONARY
  5
1148
330
D7
100
AcDbDictionary
280
     1
281
     1
  3
ACAD_XREC_ROUNDTRIP
360
1149
  0
XRECORD
  5
1145
102
{ACAD_REACTORS
330
1144
102
}
330
1144
100
AcDbXrecord
280
     1
102
SHADEPLOT
 70
     0
102
SHADEPLOTRESLEVEL
 70
     2
102
SHADEPLOTCUSTOMDPI
 70
   300
  0
XRECORD
  5
1147
102
{ACAD_REACTORS
330
1146
102
}
330
1146
100
AcDbXrecord
280
     1
102
SHADEPLOT
 70
     0
102
SHADEPLOTRESLEVEL
 70
     2
102
SHADEPLOTCUSTOMDPI
 70
   300
  0
XRECORD
  5
1149
102
{ACAD_REACTORS
330
1148
102
}
330
1148
100
AcDbXrecord
280
     1
102
SHADEPLOT
 70
     0
102
SHADEPLOTRESLEVEL
 70
     2
102
SHADEPLOTCUSTOMDPI
 70
   300
  0
ENDSEC
  0
EOF
