  0
SECTION
  2
HEADER
  9
$ACADVER
  1
AC1015
  9
$ACADMAINTVER
 70
    20
  9
$DWGCODEPAGE
  3
ANSI_1252
  9
$INSBASE
 10
0.0
 20
0.0
 30
0.0
  9
$EXTMIN
 10
-491.1348492830582
 20
7.024500162519712
 30
0.0
  9
$EXTMAX
 10
93.7120846008163
 20
579.2914855693395
 30
0.0
  9
$LIMMIN
 10
0.0
 20
0.0
  9
$LIMMAX
 10
420.0
 20
297.0
  9
$ORTHOMODE
 70
     1
  9
$REGENMODE
 70
     1
  9
$FILLMODE
 70
     1
  9
$QTEXTMODE
 70
     0
  9
$MIRRTEXT
 70
     0
  9
$LTSCALE
 40
1.0
  9
$ATTMODE
 70
     1
  9
$TEXTSIZE
 40
2.5
  9
$TRACEWID
 40
1.0
  9
$TEXTSTYLE
  7
Standard
  9
$CLAYER
  8
0
  9
$CELTYPE
  6
ByLayer
  9
$CECOLOR
 62
   256
  9
$CELTSCALE
 40
1.0
  9
$DISPSILH
 70
     0
  9
$DIMSCALE
 40
1.0
  9
$DIMASZ
 40
2.5
  9
$DIMEXO
 40
0.625
  9
$DIMDLI
 40
3.75
  9
$DIMRND
 40
0.0
  9
$DIMDLE
 40
0.0
  9
$DIMEXE
 40
1.25
  9
$DIMTP
 40
0.0
  9
$DIMTM
 40
0.0
  9
$DIMTXT
 40
2.5
  9
$DIMCEN
 40
2.5
  9
$DIMTSZ
 40
0.0
  9
$DIMTOL
 70
     0
  9
$DIMLIM
 70
     0
  9
$DIMTIH
 70
     0
  9
$DIMTOH
 70
     0
  9
$DIMSE1
 70
     0
  9
$DIMSE2
 70
     0
  9
$DIMTAD
 70
     1
  9
$DIMZIN
 70
     8
  9
$DIMBLK
  1

  9
$DIMASO
 70
     1
  9
$DIMSHO
 70
     1
  9
$DIMPOST
  1

  9
$DIMAPOST
  1

  9
$DIMALT
 70
     0
  9
$DIMALTD
 70
     3
  9
$DIMALTF
 40
0.03937007874016
  9
$DIMLFAC
 40
1.0
  9
$DIMTOFL
 70
     1
  9
$DIMTVP
 40
0.0
  9
$DIMTIX
 70
     0
  9
$DIMSOXD
 70
     0
  9
$DIMSAH
 70
     0
  9
$DIMBLK1
  1

  9
$DIMBLK2
  1

  9
$DIMSTYLE
  2
ISO-25
  9
$DIMCLRD
 70
     0
  9
$DIMCLRE
 70
     0
  9
$DIMCLRT
 70
     0
  9
$DIMTFAC
 40
1.0
  9
$DIMGAP
 40
0.625
  9
$DIMJUST
 70
     0
  9
$DIMSD1
 70
     0
  9
$DIMSD2
 70
     0
  9
$DIMTOLJ
 70
     0
  9
$DIMTZIN
 70
     8
  9
$DIMALTZ
 70
     0
  9
$DIMALTTZ
 70
     0
  9
$DIMUPT
 70
     0
  9
$DIMDEC
 70
     2
  9
$DIMTDEC
 70
     2
  9
$DIMALTU
 70
     2
  9
$DIMALTTD
 70
     3
  9
$DIMTXSTY
  7
Standard
  9
$DIMAUNIT
 70
     0
  9
$DIMADEC
 70
     0
  9
$DIMALTRND
 40
0.0
  9
$DIMAZIN
 70
     0
  9
$DIMDSEP
 70
    44
  9
$DIMATFIT
 70
     3
  9
$DIMFRAC
 70
     0
  9
$DIMLDRBLK
  1

  9
$DIMLUNIT
 70
     2
  9
$DIMLWD
 70
    -2
  9
$DIMLWE
 70
    -2
  9
$DIMTMOVE
 70
     0
  9
$LUNITS
 70
     2
  9
$LUPREC
 70
     4
  9
$SKETCHINC
 40
1.0
  9
$FILLETRAD
 40
25.0
  9
$AUNITS
 70
     0
  9
$AUPREC
 70
     0
  9
$MENU
  1
.
  9
$ELEVATION
 40
0.0
  9
$PELEVATION
 40
0.0
  9
$THICKNESS
 40
0.0
  9
$LIMCHECK
 70
     0
  9
$CHAMFERA
 40
0.0
  9
$CHAMFERB
 40
0.0
  9
$CHAMFERC
 40
0.0
  9
$CHAMFERD
 40
0.0
  9
$SKPOLY
 70
     0
  9
$TDCREATE
 40
2454550.307324757
  9
$TDUCREATE
 40
2454550.265658090
  9
$TDUPDATE
 40
2454550.406513484
  9
$TDUUPDATE
 40
2454550.364846817
  9
$TDINDWG
 40
0.0595220370
  9
$TDUSRTIMER
 40
0.0595213079
  9
$USRTIMER
 70
     1
  9
$ANGBASE
 50
0.0
  9
$ANGDIR
 70
     0
  9
$PDMODE
 70
     0
  9
$PDSIZE
 40
0.0
  9
$PLINEWID
 40
0.0
  9
$SPLFRAME
 70
     0
  9
$SPLINETYPE
 70
     6
  9
$SPLINESEGS
 70
     8
  9
$HANDSEED
  5
FEA
  9
$SURFTAB1
 70
     6
  9
$SURFTAB2
 70
     6
  9
$SURFTYPE
 70
     6
  9
$SURFU
 70
     6
  9
$SURFV
 70
     6
  9
$UCSBASE
  2

  9
$UCSNAME
  2

  9
$UCSORG
 10
0.0
 20
0.0
 30
0.0
  9
$UCSXDIR
 10
1.0
 20
0.0
 30
0.0
  9
$UCSYDIR
 10
0.0
 20
1.0
 30
0.0
  9
$UCSORTHOREF
  2

  9
$UCSORTHOVIEW
 70
     0
  9
$UCSORGTOP
 10
0.0
 20
0.0
 30
0.0
  9
$UCSORGBOTTOM
 10
0.0
 20
0.0
 30
0.0
  9
$UCSORGLEFT
 10
0.0
 20
0.0
 30
0.0
  9
$UCSORGRIGHT
 10
0.0
 20
0.0
 30
0.0
  9
$UCSORGFRONT
 10
0.0
 20
0.0
 30
0.0
  9
$UCSORGBACK
 10
0.0
 20
0.0
 30
0.0
  9
$PUCSBASE
  2

  9
$PUCSNAME
  2

  9
$PUCSORG
 10
0.0
 20
0.0
 30
0.0
  9
$PUCSXDIR
 10
1.0
 20
0.0
 30
0.0
  9
$PUCSYDIR
 10
0.0
 20
1.0
 30
0.0
  9
$PUCSORTHOREF
  2

  9
$PUCSORTHOVIEW
 70
     0
  9
$PUCSORGTOP
 10
0.0
 20
0.0
 30
0.0
  9
$PUCSORGBOTTOM
 10
0.0
 20
0.0
 30
0.0
  9
$PUCSORGLEFT
 10
0.0
 20
0.0
 30
0.0
  9
$PUCSORGRIGHT
 10
0.0
 20
0.0
 30
0.0
  9
$PUCSORGFRONT
 10
0.0
 20
0.0
 30
0.0
  9
$PUCSORGBACK
 10
0.0
 20
0.0
 30
0.0
  9
$USERI1
 70
     0
  9
$USERI2
 70
     0
  9
$USERI3
 70
     0
  9
$USERI4
 70
     0
  9
$USERI5
 70
     0
  9
$USERR1
 40
0.0
  9
$USERR2
 40
0.0
  9
$USERR3
 40
0.0
  9
$USERR4
 40
0.0
  9
$USERR5
 40
0.0
  9
$WORLDVIEW
 70
     1
  9
$SHADEDGE
 70
     3
  9
$SHADEDIF
 70
    70
  9
$TILEMODE
 70
     1
  9
$MAXACTVP
 70
    64
  9
$PINSBASE
 10
0.0
 20
0.0
 30
0.0
  9
$PLIMCHECK
 70
     0
  9
$PEXTMIN
 10
0.0
 20
0.0
 30
0.0
  9
$PEXTMAX
 10
0.0
 20
0.0
 30
0.0
  9
$PLIMMIN
 10
0.0
 20
0.0
  9
$PLIMMAX
 10
12.0
 20
9.0
  9
$UNITMODE
 70
     0
  9
$VISRETAIN
 70
     1
  9
$PLINEGEN
 70
     0
  9
$PSLTSCALE
 70
     1
  9
$TREEDEPTH
 70
  3020
  9
$CMLSTYLE
  2
Standard
  9
$CMLJUST
 70
     0
  9
$CMLSCALE
 40
20.0
  9
$PROXYGRAPHICS
 70
     1
  9
$MEASUREMENT
 70
     1
  9
$CELWEIGHT
370
    -1
  9
$ENDCAPS
280
     0
  9
$JOINSTYLE
280
     0
  9
$LWDISPLAY
290
     0
  9
$INSUNITS
 70
     4
  9
$HYPERLINKBASE
  1

  9
$STYLESHEET
  1

  9
$XEDIT
290
     1
  9
$CEPSNTYPE
380
     0
  9
$PSTYLEMODE
290
     1
  9
$FINGERPRINTGUID
  2
{4A4C6E15-96AD-4E98-A744-8BD4BACD0A4F}
  9
$VERSIONGUID
  2
{AB4B8A26-CBC7-41D1-AB96-FCD132F18F48}
  9
$EXTNAMES
290
     1
  9
$PSVPSCALE
 40
0.0
  9
$OLESTARTUP
290
     0
  0
ENDSEC
  0
SECTION
  2
CLASSES
  0
CLASS
  1
ACDBDICTIONARYWDFLT
  2
AcDbDictionaryWithDefault
  3
ObjectDBX Classes
 90
        0
280
     0
281
     0
  0
CLASS
  1
DICTIONARYVAR
  2
AcDbDictionaryVar
  3
ObjectDBX Classes
 90
        0
280
     0
281
     0
  0
CLASS
  1
TABLESTYLE
  2
AcDbTableStyle
  3
ObjectDBX Classes
 90
     2047
280
     0
281
     0
  0
CLASS
  1
SORTENTSTABLE
  2
AcDbSortentsTable
  3
ObjectDBX Classes
 90
        0
280
     0
281
     0
  0
CLASS
  1
ACDBPLACEHOLDER
  2
AcDbPlaceHolder
  3
ObjectDBX Classes
 90
        0
280
     0
281
     0
  0
CLASS
  1
LAYOUT
  2
AcDbLayout
  3
ObjectDBX Classes
 90
        0
280
     0
281
     0
  0
ENDSEC
  0
SECTION
  2
TABLES
  0
TABLE
  2
VPORT
  5
8
330
0
100
AcDbSymbolTable
 70
     2
  0
VPORT
  5
FE1
330
8
100
AcDbSymbolTableRecord
100
AcDbViewportTableRecord
  2
*Active
 70
     0
 10
0.0
 20
0.0
 11
1.0
 21
1.0
 12
-154.4620866066732
 22
281.5577375984062
 13
0.0
 23
0.0
 14
10.0
 24
10.0
 15
10.0
 25
10.0
 16
0.0
 26
0.0
 36
1.0
 17
0.0
 27
0.0
 37
0.0
 40
922.059892410324
 41
1.454088050314465
 42
50.0
 43
0.0
 44
0.0
 50
0.0
 51
0.0
 71
     0
 72
  1000
 73
     1
 74
     0
 75
     0
 76
     0
 77
     0
 78
     0
281
     0
 65
     1
110
0.0
120
0.0
130
0.0
111
1.0
121
0.0
131
0.0
112
0.0
122
1.0
132
0.0
 79
     0
146
0.0
  0
ENDTAB
  0
TABLE
  2
LTYPE
  5
5
330
0
100
AcDbSymbolTable
 70
     1
  0
LTYPE
  5
14
330
5
100
AcDbSymbolTableRecord
100
AcDbLinetypeTableRecord
  2
ByBlock
 70
     0
  3

 72
    65
 73
     0
 40
0.0
  0
LTYPE
  5
15
330
5
100
AcDbSymbolTableRecord
100
AcDbLinetypeTableRecord
  2
ByLayer
 70
     0
  3

 72
    65
 73
     0
 40
0.0
  0
LTYPE
  5
16
330
5
100
AcDbSymbolTableRecord
100
AcDbLinetypeTableRecord
  2
Continuous
 70
     0
  3
Solid line
 72
    65
 73
     0
 40
0.0
  0
ENDTAB
  0
TABLE
  2
LAYER
  5
2
102
{ACAD_XDICTIONARY
360
118
102
}
330
0
100
AcDbSymbolTable
 70
     1
  0
LAYER
  5
10
330
2
100
AcDbSymbolTableRecord
100
AcDbLayerTableRecord
  2
0
 70
     0
 62
     7
  6
Continuous
370
    -3
390
F
  0
ENDTAB
  0
TABLE
  2
STYLE
  5
3
330
0
100
AcDbSymbolTable
 70
     2
  0
STYLE
  5
11
330
3
100
AcDbSymbolTableRecord
100
AcDbTextStyleTableRecord
  2
Standard
 70
     0
 40
0.0
 41
1.0
 50
0.0
 71
     0
 42
2.5
  3
txt
  4

  0
STYLE
  5
112
330
3
100
AcDbSymbolTableRecord
100
AcDbTextStyleTableRecord
  2
ISO
 70
     0
 40
0.0
 41
1.0
 50
0.0
 71
     0
 42
2.0
  3
ISOCP.SHX
  4

  0
ENDTAB
  0
TABLE
  2
VIEW
  5
6
330
0
100
AcDbSymbolTable
 70
     0
  0
ENDTAB
  0
TABLE
  2
UCS
  5
7
330
0
100
AcDbSymbolTable
 70
     0
  0
ENDTAB
  0
TABLE
  2
APPID
  5
9
330
0
100
AcDbSymbolTable
 70
     6
  0
APPID
  5
12
330
9
100
AcDbSymbolTableRecord
100
AcDbRegAppTableRecord
  2
ACAD
 70
     0
  0
APPID
  5
9E
330
9
100
AcDbSymbolTableRecord
100
AcDbRegAppTableRecord
  2
ACAD_PSEXT
 70
     0
  0
APPID
  5
114
330
9
100
AcDbSymbolTableRecord
100
AcDbRegAppTableRecord
  2
ACAD_DSTYLE_DIMEXT_ENABLED
 70
     0
  0
APPID
  5
115
330
9
100
AcDbSymbolTableRecord
100
AcDbRegAppTableRecord
  2
ACAD_DSTYLE_DIMEXT_LENGTH
 70
     0
  0
APPID
  5
116
330
9
100
AcDbSymbolTableRecord
100
AcDbRegAppTableRecord
  2
ACAD_DSTYLE_DIMJOGGED_JOGANGLE_SYMBOL
 70
     0
  0
APPID
  5
117
330
9
100
AcDbSymbolTableRecord
100
AcDbRegAppTableRecord
  2
ACAD_DSTYLE_DIMARC_LENGTH_SYMBOL
 70
     0
  0
ENDTAB
  0
TABLE
  2
DIMSTYLE
  5
A
330
0
100
AcDbSymbolTable
 70
     2
100
AcDbDimStyleTable
 71
     1
340
27
  0
DIMSTYLE
105
27
330
A
100
AcDbSymbolTableRecord
100
AcDbDimStyleTableRecord
  2
ISO-25
 70
     0
 41
2.5
 42
0.625
 43
3.75
 44
1.25
 73
     0
 74
     0
 77
     1
 78
     8
140
2.5
141
2.5
143
0.03937007874016
147
0.625
171
     3
172
     1
271
     2
272
     2
274
     3
278
    44
283
     0
284
     8
340
11
  0
DIMSTYLE
105
113
330
A
100
AcDbSymbolTableRecord
100
AcDbDimStyleTableRecord
  2
STANDARD
 70
     0
 40
0.0
 41
3.5
 42
0.1
 43
7.0
 44
1.8
 73
     0
 74
     0
 77
     1
140
5.0
141
1.5
146
0.8
147
1.1
172
     1
176
   256
177
   256
178
     6
271
     0
272
     1
284
     8
288
     1
289
     0
340
112
  0
ENDTAB
  0
TABLE
  2
BLOCK_RECORD
  5
1
330
0
100
AcDbSymbolTable
 70
     2
  0
BLOCK_RECORD
  5
1F
102
{ACAD_XDICTIONARY
360
1DD
102
}
330
1
100
AcDbSymbolTableRecord
100
AcDbBlockTableRecord
  2
*Model_Space
340
22
  0
BLOCK_RECORD
  5
D2
330
1
100
AcDbSymbolTableRecord
100
AcDbBlockTableRecord
  2
*Paper_Space
340
D3
  0
BLOCK_RECORD
  5
D6
330
1
100
AcDbSymbolTableRecord
100
AcDbBlockTableRecord
  2
*Paper_Space0
340
D7
  0
BLOCK_RECORD
  5
F93
330
1
100
AcDbSymbolTableRecord
100
AcDbBlockTableRecord
  2
12360-L
340
0
310
2800000020000000200000000100080000000000000400000000000000000000000000000000000000000000000080000080000000808000800000008000800080800000C0C0C000C0DCC000F0CAA6000020400000206000002080000020A0000020C0000020E00000400000004020000040400000406000004080000040A0
310
000040C0000040E00000600000006020000060400000606000006080000060A0000060C0000060E00000800000008020000080400000806000008080000080A0000080C0000080E00000A0000000A0200000A0400000A0600000A0800000A0A00000A0C00000A0E00000C0000000C0200000C0400000C0600000C0800000C0
310
A00000C0C00000C0E00000E0000000E0200000E0400000E0600000E0800000E0A00000E0C00000E0E00040000000400020004000400040006000400080004000A0004000C0004000E00040200000402020004020400040206000402080004020A0004020C0004020E000404000004040200040404000404060004040800040
310
40A0004040C0004040E00040600000406020004060400040606000406080004060A0004060C0004060E00040800000408020004080400040806000408080004080A0004080C0004080E00040A0000040A0200040A0400040A0600040A0800040A0A00040A0C00040A0E00040C0000040C0200040C0400040C0600040C08000
310
40C0A00040C0C00040C0E00040E0000040E0200040E0400040E0600040E0800040E0A00040E0C00040E0E00080000000800020008000400080006000800080008000A0008000C0008000E00080200000802020008020400080206000802080008020A0008020C0008020E00080400000804020008040400080406000804080
310
008040A0008040C0008040E00080600000806020008060400080606000806080008060A0008060C0008060E00080800000808020008080400080806000808080008080A0008080C0008080E00080A0000080A0200080A0400080A0600080A0800080A0A00080A0C00080A0E00080C0000080C0200080C0400080C0600080C0
310
800080C0A00080C0C00080C0E00080E0000080E0200080E0400080E0600080E0800080E0A00080E0C00080E0E000C0000000C0002000C0004000C0006000C0008000C000A000C000C000C000E000C0200000C0202000C0204000C0206000C0208000C020A000C020C000C020E000C0400000C0402000C0404000C0406000C0
310
408000C040A000C040C000C040E000C0600000C0602000C0604000C0606000C0608000C060A000C060C000C060E000C0800000C0802000C0804000C0806000C0808000C080A000C080C000C080E000C0A00000C0A02000C0A04000C0A06000C0A08000C0A0A000C0A0C000C0A0E000C0C00000C0C02000C0C04000C0C06000
310
C0C08000C0C0A000F0FBFF00A4A0A000808080000000FF0000FF000000FFFF00FF000000FF00FF00FFFF0000FFFFFF0000000000000000000000000000000000000000000000000000000000000000000000000000000000000000000000000000000000000000000000000000000000000000000000000000000000000000
310
00000000000000000000000000000000000000000000000000000000000000000000000000000000000000000000000000000000000000000000000000000000000000000000000000000000000000000000000000000000000000000000000000000000000000000000000000000000000000000000FFFFFFFFFFFFFFFFFF
310
FFFFFFFFFFFFFFFFFFFFFF000000000000000000000000FFFFFFFFFFFFFFFFFFFFFFFFFFFFFFFFFFFFFFFF000000000000000000000000FFFFFFFFFFFFFFFFFFFFFFFFFFFFFFFFFFFFFF00000000000000000000000000FF0000000000000000000000000000000000FF00000000000000000000000000FF00000000000000
310
00000000000000000000FF00000000000000000000000000FF0000000000000000000000000000000000FF00000000000000000000000000FF0000000000000000000000000000000000FF00000000000000000000000000FF0000000000000000000000000000000000FF00000000000000000000000000FF000000000000
310
0000000000000000000000FF00000000000000000000FFFFFFFFFFFFFFFFFFFFFFFFFFFFFFFFFFFFFFFFFFFF000000000000000000FF000000000000000000000000000000000000000000FF000000000000000000FF00000000000000000000000000000000000000000000FFFF00000000000000FF000000000000000000
310
000000000000000000000000000000FFFF0000000000FF0000000000000000000000000000000000000000000000000000FF00000000FF0000000000000000000000000000000000000000000000000000FF00000000FF000000000000000000000000000000000000000000000000000000FF000000FFFFFFFFFFFFFFFFFF
310
FFFFFFFFFFFFFFFFFFFFFFFFFFFFFFFFFFFFFFFF000000FFFFFFFFFFFFFFFFFFFFFFFFFFFFFFFFFFFFFFFFFFFFFFFFFFFFFFFFFFFF0000FFFFFFFFFFFFFFFFFFFFFFFFFFFFFFFFFFFFFFFFFFFFFFFFFFFFFFFFFFFF0000FFFF0000000000000000000000000000000000000000000000000000000000000000000000000000
310
00000000000000000000000000000000000000000000000000000000000000000000000000000000000000000000000000000000000000000000000000000000000000000000000000000000000000000000000000000000000000000000000000000000000000000000000000000000000000000000000000000000000000
310
0000000000000000000000000000000000000000000000000000000000000000000000000000000000000000000000000000000000000000
102
{BLKREFS
331
FC9
102
}
1001
ACAD
1000
DesignCenter Data
1002
{
1070
     1
1070
     4
1002
}
  0
ENDTAB
  0
ENDSEC
  0
SECTION
  2
BLOCKS
  0
BLOCK
  5
20
330
1F
100
AcDbEntity
  8
0
100
AcDbBlockBegin
  2
*Model_Space
 70
     0
 10
0.0
 20
0.0
 30
0.0
  3
*Model_Space
  1

  0
ENDBLK
  5
21
330
1F
100
AcDbEntity
  8
0
100
AcDbBlockEnd
  0
BLOCK
  5
D4
330
D2
100
AcDbEntity
 67
     1
  8
0
100
AcDbBlockBegin
  2
*Paper_Space
 70
     0
 10
0.0
 20
0.0
 30
0.0
  3
*Paper_Space
  1

  0
ENDBLK
  5
D5
330
D2
100
AcDbEntity
 67
     1
  8
0
100
AcDbBlockEnd
  0
BLOCK
  5
D8
330
D6
100
AcDbEntity
  8
0
100
AcDbBlockBegin
  2
*Paper_Space0
 70
     0
 10
0.0
 20
0.0
 30
0.0
  3
*Paper_Space0
  1

  0
ENDBLK
  5
D9
330
D6
100
AcDbEntity
  8
0
100
AcDbBlockEnd
  0
BLOCK
  5
F94
330
F93
100
AcDbEntity
  8
0
100
AcDbBlockBegin
  2
12360-L
 70
     0
 10
0.0
 20
0.0
 30
0.0
  3
12360-L
  1

  0
ARC
  5
F96
330
F93
100
AcDbEntity
  8
0
370
    15
100
AcDbCircle
 10
566.3751771664173
 20
334.8821800176853
 30
0.0
 40
4.999999999999915
100
AcDbArc
 50
277.189727514829
 51
356.999999999996
  0
LINE
  5
F97
330
F93
100
AcDbEntity
  8
0
370
    15
100
AcDbLine
 10
435.8417987823486
 20
181.0170447056049
 30
0.0
 11
441.9716000556945
 21
55.68419746801794
 31
0.0
  0
LINE
  5
F98
330
F93
100
AcDbEntity
  8
0
370
    15
100
AcDbLine
 10
70.00000029802322
 20
97.92673937723577
 30
0.0
 11
70.00000029802322
 21
28.27748633668364
 31
0.0
  0
LINE
  5
F99
330
F93
100
AcDbEntity
  8
0
370
    15
100
AcDbLine
 10
70.00000029802322
 20
181.8821763221973
 30
0.0
 11
70.00000029802322
 21
97.92673937723577
 31
0.0
  0
LINE
  5
F9A
330
F93
100
AcDbEntity
  8
0
370
    15
100
AcDbLine
 10
69.49535012245178
 20
186.1145084326023
 30
0.0
 11
70.00000029802322
 21
181.8821763221973
 31
0.0
  0
LINE
  5
F9B
330
F93
100
AcDbEntity
  8
0
370
    15
100
AcDbLine
 10
574.9955773353576
 20
389.8821657125706
 30
0.0
 11
555.0000071525573
 21
389.8821657125706
 31
0.0
  0
ARC
  5
F9C
330
F93
100
AcDbEntity
  8
0
370
    15
100
AcDbCircle
 10
574.9955661305684
 20
384.8821800176853
 30
0.0
 40
5.000000000000054
100
AcDbArc
 50
356.999999999996
 51
90.0
  0
LINE
  5
F9D
330
F93
100
AcDbEntity
  8
0
370
    15
100
AcDbLine
 10
579.9887180328369
 20
384.6205060903782
 30
0.0
 11
578.6260962486267
 21
358.620513004517
 31
0.0
  0
ARC
  5
F9E
330
F93
100
AcDbEntity
  8
0
370
    15
100
AcDbCircle
 10
573.6329638692096
 20
358.8821800176853
 30
0.0
 40
5.000000000000017
100
AcDbArc
 50
294.4000301188456
 51
356.999999999996
  0
ARC
  5
F9F
330
F93
100
AcDbEntity
  8
0
370
    15
100
AcDbCircle
 10
578.21842835407
 20
348.7735937931881
 30
0.0
 40
6.100000000001059
100
AcDbArc
 50
114.400030118729
 51
176.9999999997824
  0
LINE
  5
FA0
330
F93
100
AcDbEntity
  8
0
370
    15
100
AcDbLine
 10
572.1268057823181
 20
349.0928297464603
 30
0.0
 11
571.3683366775512
 21
334.6204941694492
 31
0.0
  0
ARC
  5
FA1
330
F93
100
AcDbEntity
  8
0
370
    15
100
AcDbCircle
 10
448.0643286899757
 20
55.98218001768566
 30
0.0
 40
6.100000000001831
100
AcDbArc
 50
182.8000000003429
 51
263.3372575799054
  0
ARC
  5
FA2
330
F93
100
AcDbEntity
  8
0
370
    15
100
AcDbCircle
 10
446.7764524559934
 20
44.95714601293241
 30
0.0
 40
4.999999999999943
100
AcDbArc
 50
6.399999999966992
 51
83.33725757959053
  0
LINE
  5
FA3
330
F93
100
AcDbEntity
  8
0
370
    15
100
AcDbLine
 10
451.7453014850616
 20
45.51449022934377
 30
0.0
 11
452.329933643341
 21
40.3022205059284
 31
0.0
  0
ARC
  5
FA4
330
F93
100
AcDbEntity
  8
0
370
    15
100
AcDbCircle
 10
458.3919262426661
 20
40.98218001768566
 30
0.0
 40
6.100000000000069
100
AcDbArc
 50
186.4000000000178
 51
264.6240849029991
  0
ARC
  5
FA5
330
F93
100
AcDbEntity
  8
0
370
    15
100
AcDbCircle
 10
457.3519693548059
 20
29.93100407702753
 30
0.0
 40
5.000000000009974
100
AcDbArc
 50
5.000000001283
 51
84.6240849053013
  0
LINE
  5
FA6
330
F93
100
AcDbEntity
  8
0
370
    15
100
AcDbLine
 10
462.332934141159
 20
30.36678187296331
 30
0.0
 11
464.809775018557
 21
2.056492304903827
 31
0.0
  0
ARC
  5
FA7
330
F93
100
AcDbEntity
  8
0
370
    15
100
AcDbCircle
 10
462.817385692515
 20
1.8821800176853
 30
0.0
 40
2.0
100
AcDbArc
 50
270.0
 51
5.000023055435838
  0
LINE
  5
FA8
330
F93
100
AcDbEntity
  8
0
370
    15
100
AcDbLine
 10
462.817385692515
 20
-0.1178199823146997
 30
0.0
 11
70.00000029802322
 21
-0.0178199848409122
 31
0.0
  0
ARC
  5
FA9
330
F93
100
AcDbEntity
  8
0
370
    15
100
AcDbCircle
 10
384.4176672752001
 20
377.8966877440822
 30
0.0
 40
185.0435564468847
100
AcDbArc
 50
291.329728157501
 51
343.5783417951055
  0
ARC
  5
FAA
330
F93
100
AcDbEntity
  8
0
370
    15
100
AcDbCircle
 10
460.8119654087349
 20
182.2382961572017
 30
0.0
 40
24.99999999999993
100
AcDbArc
 50
111.3154076944445
 51
182.7999999999794
  0
ARC
  5
FAB
330
F93
100
AcDbEntity
  8
0
370
    15
100
AcDbCircle
 10
567.764401624745
 20
323.8694575838641
 30
0.0
 40
6.100000000000122
100
AcDbArc
 50
97.18972751472392
 51
163.5941399480623
  0
LINE
  5
FAC
330
F93
100
AcDbEntity
  8
0
370
    15
100
AcDbLine
 10
70.00000029802322
 20
28.27748633668364
 30
0.0
 11
70.00000029802322
 21
2.882180043762332
 31
0.0
  0
LINE
  5
FAD
330
F93
100
AcDbEntity
  8
0
370
    15
100
AcDbLine
 10
0.0
 20
354.8821692888493
 30
0.0
 11
0.0
 21
409.8821764414066
 31
0.0
  0
LINE
  5
FAE
330
F93
100
AcDbEntity
  8
0
370
    15
100
AcDbLine
 10
11.33742462843656
 20
409.8821764414066
 30
0.0
 11
0.0
 21
409.8821764414066
 31
0.0
  0
ARC
  5
FAF
330
F93
100
AcDbEntity
  8
0
370
    15
100
AcDbCircle
 10
11.33742456931213
 20
404.8821800176853
 30
0.0
 40
5.000000000000113
100
AcDbArc
 50
4.00000000003567
 51
90.0
  0
LINE
  5
FB0
330
F93
100
AcDbEntity
  8
0
370
    15
100
AcDbLine
 10
16.32524468004703
 20
405.2309577886814
 30
0.0
 11
17.07329084395678
 21
394.5333976088074
 31
0.0
  0
LINE
  5
FB1
330
F93
100
AcDbEntity
  8
0
370
    15
100
AcDbLine
 10
400.0000059604644
 20
389.8821657125706
 30
0.0
 11
555.0000071525573
 21
389.8821657125706
 31
0.0
  0
LINE
  5
FB2
330
F93
100
AcDbEntity
  8
0
370
    15
100
AcDbLine
 10
0.0
 20
228.7197446052784
 30
0.0
 11
0.0
 21
218.6392580692524
 31
0.0
  0
LINE
  5
FB3
330
F93
100
AcDbEntity
  8
0
370
    15
100
AcDbLine
 10
0.0
 20
331.0062473242039
 30
0.0
 11
0.0
 21
228.7197446052784
 31
0.0
  0
LINE
  5
FB4
330
F93
100
AcDbEntity
  8
0
370
    15
100
AcDbLine
 10
70.00000029802322
 20
2.882180043762332
 30
0.0
 11
70.00000029802322
 21
-0.0178199848409122
 31
0.0
  0
LINE
  5
FB5
330
F93
100
AcDbEntity
  8
0
370
    15
100
AcDbLine
 10
17.99999922513961
 20
199.8821829979175
 30
0.0
 11
52.0000010728836
 21
199.8821829979175
 31
0.0
  0
ARC
  5
FB6
330
F93
100
AcDbEntity
  8
0
370
    15
100
AcDbCircle
 10
18.0
 20
217.8821800176853
 30
0.0
 40
18.00000000000011
100
AcDbArc
 50
180.0
 51
270.0
  0
LINE
  5
FB7
330
F93
100
AcDbEntity
  8
0
370
    15
100
AcDbLine
 10
0.0
 20
218.6387961332554
 30
0.0
 11
0.0
 21
217.8821747724766
 31
0.0
  0
ARC
  5
FB8
330
F93
100
AcDbEntity
  8
0
370
    15
100
AcDbCircle
 10
52.0
 20
181.8821800176853
 30
0.0
 40
18.0000000000002
100
AcDbArc
 50
13.59925814343261
 51
90.0
  0
CIRCLE
  5
FB9
330
F93
100
AcDbEntity
  8
0
370
    15
100
AcDbCircle
 10
175.0
 20
29.8821800176853
 30
0.0
 40
4.999999999999943
  0
LINE
  5
FBA
330
F93
100
AcDbEntity
  8
0
370
    15
100
AcDbLine
 10
0.0
 20
348.5821669523472
 30
0.0
 11
0.0
 21
331.8075721685642
 31
0.0
  0
LINE
  5
FBB
330
F93
100
AcDbEntity
  8
0
370
    15
100
AcDbLine
 10
0.0
 20
331.8075721685642
 30
0.0
 11
0.0
 21
331.0062473242039
 31
0.0
  0
LINE
  5
FBC
330
F93
100
AcDbEntity
  8
0
370
    15
100
AcDbLine
 10
0.0
 20
354.8821692888493
 30
0.0
 11
0.0
 21
348.5821669523472
 31
0.0
  0
ARC
  5
FBD
330
F93
100
AcDbEntity
  8
0
370
    15
100
AcDbCircle
 10
22.06111166955816
 20
394.8821800176853
 30
0.0
 40
5.0
100
AcDbArc
 50
183.9999999999834
 51
270.0
  0
LINE
  5
FBE
330
F93
100
AcDbEntity
  8
0
370
    15
100
AcDbLine
 10
0.0
 20
389.8821657125704
 30
0.0
 11
400.0000059604644
 21
389.8821657125706
 31
0.0
  0
LINE
  5
FBF
330
F93
100
AcDbEntity
  8
0
100
AcDbLine
 10
70.00000029802322
 20
34.90900970742643
 30
0.0
 11
144.5020148161402
 21
34.90900970742643
 31
0.0
  0
LINE
  5
FC0
330
F93
100
AcDbEntity
  8
0
100
AcDbLine
 10
205.5082168711469
 20
34.90900970742643
 30
0.0
 11
457.8204348752151
 21
34.90900970742643
 31
0.0
  0
LINE
  5
FC1
330
F93
100
AcDbEntity
  8
0
100
AcDbLine
 10
70.00000029802322
 20
49.92337874815496
 30
0.0
 11
447.356566599763
 21
49.92337874815405
 31
0.0
  0
LINE
  5
FC2
330
F93
100
AcDbEntity
  8
0
100
AcDbLine
 10
575.6985042069736
 20
354.3287699644321
 30
0.0
 11
0.000000000001819
 21
354.328769964433
 31
0.0
  0
LWPOLYLINE
  5
FC3
330
F93
100
AcDbEntity
  8
0
100
AcDbPolyline
 90
       23
 70
   128
 43
0.0
 10
567.7593053799155
 20
330.0775791925813
 10
561.6744223863006
 20
329.9437051241154
 10
560.712030890596
 20
329.9370294039005
 10
559.1166678696991
 20
329.9313073580021
 10
556.9046053916336
 20
329.9264495794529
 10
552.8890553742767
 20
329.9211745683903
 10
547.7619383365036
 20
329.9172406618351
 10
541.3555417090774
 20
329.9143200342411
 10
533.8556084662796
 20
329.9124424879307
 10
525.5670163661362
 20
329.9113994066471
 10
516.3550291091324
 20
329.9110417787785
 10
505.9688452512146
 20
329.9112503950352
 10
494.74855399431
 20
329.9120252554172
 10
483.1883225470901
 20
329.913157743668
 10
471.0070479542137
 20
329.9145584528202
 10
457.90403968395
 20
329.9162273828739
 10
444.3298157185436
 20
329.9178963129276
 10
436.9386833042026
 20
329.9187903825993
 10
429.4578757017971
 20
329.9195950453037
 10
421.8374442190052
 20
329.9202804987186
 10
414.1583617657543
 20
329.9208169405216
 10
403.1406788036347
 20
329.9213533823246
 10
0.0
 20
329.9256814904817
  0
LINE
  5
FC4
330
F93
100
AcDbEntity
  8
0
100
AcDbLine
 10
67.17447652362171
 20
199.8743527364228
 30
0.0
 11
130.195682764368
 21
199.8418328298063
 31
0.0
  0
LINE
  5
FC5
330
F93
100
AcDbEntity
  8
0
100
AcDbLine
 10
130.195682764368
 20
199.8418328298063
 30
0.0
 11
429.0438174178216
 21
199.6876226200826
 31
0.0
  0
ARC
  5
FC6
330
F93
100
AcDbEntity
  8
0
100
AcDbCircle
 10
174.9999999999982
 20
29.66765652842844
 30
0.0
 40
19.27774511606136
100
AcDbArc
 50
192.4495584169827
 51
347.5341774277686
  0
ARC
  5
FC7
330
F93
100
AcDbEntity
  8
0
100
AcDbCircle
 10
205.5082168711469
 20
22.93338809801992
 30
0.0
 40
11.97562160940642
100
AcDbArc
 50
89.63655392867016
 51
167.3504382584662
  0
ARC
  5
FC8
330
F93
100
AcDbEntity
  8
0
100
AcDbCircle
 10
144.4913723504414
 20
22.93401997599596
 30
0.0
 40
11.97499446053855
100
AcDbArc
 50
12.65300813117232
 51
90.36700523686347
  0
ENDBLK
  5
F95
330
F93
100
AcDbEntity
  8
0
100
AcDbBlockEnd
  0
ENDSEC
  0
SECTION
  2
ENTITIES
  0
MTEXT
  5
2BF
330
1F
100
AcDbEntity
  8
0
100
AcDbMText
 10
-416.9613267768137
 20
33.41238768955648
 30
0.0
 40
20.0
 41
505.2631578947369
 71
     1
 72
     5
  1
{\fTimes New Roman|b0|i0|c0|p18;\C0;BIDE SERIE NOBLE.}
 73
     1
 44
1.0
1001
ACAD
1000
MTEXTBEGIN
1070
    73
1070
     1
1070
    44
1040
1.0
1070
    74
1070
     0
1000
MTEXTEND
  0
INSERT
  5
FC9
330
1F
100
AcDbEntity
  8
0
100
AcDbBlockReference
  2
12360-L
 10
-487.4069272217002
 20
168.4269282279191
 30
0.0
  0
ENDSEC
  0
SECTION
  2
OBJECTS
  0
DICTIONARY
  5
C
330
0
100
AcDbDictionary
281
     1
  3
ACAD_COLOR
350
6B
  3
ACAD_GROUP
350
D
  3
ACAD_LAYOUT
350
1A
  3
ACAD_MATERIAL
350
6A
  3
ACAD_MLINESTYLE
350
17
  3
ACAD_PLOTSETTINGS
350
19
  3
ACAD_PLOTSTYLENAME
350
E
  3
ACAD_TABLESTYLE
350
7E
  3
ACDBHEADERROUNDTRIPXREC
350
FE3
  3
AcDbVariableDictionary
350
5E
  3
DWGPROPS
350
FE2
  0
DICTIONARY
  5
118
330
2
100
AcDbDictionary
280
     1
281
     1
  3
ACAD_LAYERSTATES
360
119
  0
DICTIONARY
  5
1DD
330
1F
100
AcDbDictionary
280
     1
281
     1
  3
ACAD_SORTENTS
360
1DE
  0
DICTIONARY
  5
6B
102
{ACAD_REACTORS
330
C
102
}
330
C
100
AcDbDictionary
281
     1
  0
DICTIONARY
  5
D
102
{ACAD_REACTORS
330
C
102
}
330
C
100
AcDbDictionary
281
     1
  0
DICTIONARY
  5
1A
102
{ACAD_REACTORS
330
C
102
}
330
C
100
AcDbDictionary
281
     1
  3
Model
350
22
  3
Presentación1
350
D3
  3
Presentación2
350
D7
  0
DICTIONARY
  5
6A
102
{ACAD_REACTORS
330
C
102
}
330
C
100
AcDbDictionary
281
     1
  0
DICTIONARY
  5
17
102
{ACAD_REACTORS
330
C
102
}
330
C
100
AcDbDictionary
281
     1
  3
Standard
350
18
  0
DICTIONARY
  5
19
102
{ACAD_REACTORS
330
C
102
}
330
C
100
AcDbDictionary
281
     1
  0
ACDBDICTIONARYWDFLT
  5
E
102
{ACAD_REACTORS
330
C
102
}
330
C
100
AcDbDictionary
281
     1
  3
Normal
350
F
100
AcDbDictionaryWithDefault
340
F
  0
DICTIONARY
  5
7E
102
{ACAD_REACTORS
330
C
102
}
330
C
100
AcDbDictionary
281
     1
  3
Standard
350
7F
  0
DICTIONARY
  5
FE3
102
{ACAD_REACTORS
330
C
102
}
330
C
100
AcDbDictionary
281
     1
  0
DICTIONARY
  5
5E
102
{ACAD_REACTORS
330
C
102
}
330
C
100
AcDbDictionary
281
     1
  3
CTABLESTYLE
350
84
  3
DIMASSOC
350
5F
  3
HIDETEXT
350
63
  3
PROJECTNAME
350
3B7
  0
XRECORD
  5
FE2
102
{ACAD_REACTORS
330
C
102
}
330
C
100
AcDbXrecord
280
     1
  1
DWGPROPS COOKIE
  2

  3

  4

  6

  7

  8
Autodesk
  9

300
=
301
=
302
=
303
=
304
=
305
=
306
=
307
=
308
=
309
=
 40
0.0595220370370371
 41
2454550.307324757
 42
2454550.406513484
  1

 90
        0
  0
DICTIONARY
  5
119
102
{ACAD_REACTORS
330
118
102
}
330
118
100
AcDbDictionary
281
     1
  0
SORTENTSTABLE
  5
1DE
102
{ACAD_REACTORS
330
1DD
102
}
330
1DD
100
AcDbSortentsTable
330
1F
331
2BF
  5
2BF
331
FC9
  5
FC9
  0
LAYOUT
  5
22
102
{ACAD_XDICTIONARY
360
FE4
102
}
102
{ACAD_REACTORS
330
1A
102
}
330
1A
100
AcDbPlotSettings
  1

  2
none_device
  4
ISO_A4_(210.00_x_297.00_MM)
  6

 40
7.5
 41
20.0
 42
7.5
 43
20.0
 44
210.0
 45
297.0
 46
11.54999923706054
 47
-13.65000009536743
 48
0.0
 49
0.0
140
0.0
141
0.0
142
1.0
143
8.704084754739808
 70
 11952
 72
     1
 73
     0
 74
     0
  7

 75
     0
147
0.1148885871608098
148
0.0
149
0.0
100
AcDbLayout
  1
Model
 70
     1
 71
     0
 10
0.0
 20
0.0
 11
12.0
 21
9.0
 12
0.0
 22
0.0
 32
0.0
 14
0.0
 24
0.0
 34
0.0
 15
0.0
 25
0.0
 35
0.0
146
0.0
 13
0.0
 23
0.0
 33
0.0
 16
1.0
 26
0.0
 36
0.0
 17
0.0
 27
1.0
 37
0.0
 76
     0
330
1F
1001
ACAD_PSEXT
1000
None
1000
None
1000
Not applicable
1000
The layout will not be plotted unless a new plotter configuration name is selected.
1070
     0
  0
LAYOUT
  5
D3
102
{ACAD_XDICTIONARY
360
FE6
102
}
102
{ACAD_REACTORS
330
1A
102
}
330
1A
100
AcDbPlotSettings
  1

  2
C:\Documents and Settings\basas\Application Data\Autodesk\AutoCAD 2005\R16.1\enu\plotters\Default Windows System Printer.pc3
  4

  6

 40
0.0
 41
0.0
 42
0.0
 43
0.0
 44
0.0
 45
0.0
 46
0.0
 47
0.0
 48
0.0
 49
0.0
140
0.0
141
0.0
142
1.0
143
1.0
 70
   688
 72
     0
 73
     0
 74
     5
  7

 75
    16
147
1.0
148
0.0
149
0.0
100
AcDbLayout
  1
Presentación1
 70
     1
 71
     1
 10
0.0
 20
0.0
 11
12.0
 21
9.0
 12
0.0
 22
0.0
 32
0.0
 14
0.0
 24
0.0
 34
0.0
 15
0.0
 25
0.0
 35
0.0
146
0.0
 13
0.0
 23
0.0
 33
0.0
 16
1.0
 26
0.0
 36
0.0
 17
0.0
 27
1.0
 37
0.0
 76
     0
330
D2
  0
LAYOUT
  5
D7
102
{ACAD_XDICTIONARY
360
FE8
102
}
102
{ACAD_REACTORS
330
1A
102
}
330
1A
100
AcDbPlotSettings
  1

  2
C:\Documents and Settings\basas\Application Data\Autodesk\AutoCAD 2005\R16.1\enu\plotters\Default Windows System Printer.pc3
  4

  6

 40
0.0
 41
0.0
 42
0.0
 43
0.0
 44
0.0
 45
0.0
 46
0.0
 47
0.0
 48
0.0
 49
0.0
140
0.0
141
0.0
142
1.0
143
1.0
 70
   688
 72
     0
 73
     0
 74
     5
  7

 75
    16
147
1.0
148
0.0
149
0.0
100
AcDbLayout
  1
Presentación2
 70
     1
 71
     2
 10
0.0
 20
0.0
 11
12.0
 21
9.0
 12
0.0
 22
0.0
 32
0.0
 14
0.0
 24
0.0
 34
0.0
 15
0.0
 25
0.0
 35
0.0
146
0.0
 13
0.0
 23
0.0
 33
0.0
 16
1.0
 26
0.0
 36
0.0
 17
0.0
 27
1.0
 37
0.0
 76
     0
330
D6
  0
MLINESTYLE
  5
18
102
{ACAD_REACTORS
330
17
102
}
330
17
100
AcDbMlineStyle
  2
STANDARD
 70
     0
  3

 62
   256
 51
90.0
 52
90.0
 71
     2
 49
0.5
 62
   256
  6
BYLAYER
 49
-0.5
 62
   256
  6
BYLAYER
  0
ACDBPLACEHOLDER
  5
F
102
{ACAD_REACTORS
330
E
102
}
330
E
  0
TABLESTYLE
  5
7F
102
{ACAD_REACTORS
330
7E
102
}
330
7E
100
AcDbTableStyle
  3
Standard
 70
     0
 71
     0
 40
1.5
 41
1.5
280
     0
281
     0
  7
Standard
140
4.5
170
     2
 62
     0
 63
     7
283
     0
274
    -2
284
     1
 64
     0
275
    -2
285
     1
 65
     0
276
    -2
286
     1
 66
     0
277
    -2
287
     1
 67
     0
278
    -2
288
     1
 68
     0
279
    -2
289
     1
 69
     0
  7
Standard
140
6.0
170
     5
 62
     0
 63
     7
283
     0
274
    -2
284
     1
 64
     0
275
    -2
285
     1
 65
     0
276
    -2
286
     1
 66
     0
277
    -2
287
     1
 67
     0
278
    -2
288
     1
 68
     0
279
    -2
289
     1
 69
     0
  7
Standard
140
4.5
170
     5
 62
     0
 63
     7
283
     0
274
    -2
284
     1
 64
     0
275
    -2
285
     1
 65
     0
276
    -2
286
     1
 66
     0
277
    -2
287
     1
 67
     0
278
    -2
288
     1
 68
     0
279
    -2
289
     1
 69
     0
  0
DICTIONARYVAR
  5
84
102
{ACAD_REACTORS
330
5E
102
}
330
5E
100
DictionaryVariables
280
     0
  1
STANDARD
  0
DICTIONARYVAR
  5
5F
102
{ACAD_REACTORS
330
5E
102
}
330
5E
100
DictionaryVariables
280
     0
  1
2
  0
DICTIONARYVAR
  5
63
102
{ACAD_REACTORS
330
5E
102
}
330
5E
100
DictionaryVariables
280
     0
  1
1
  0
DICTIONARYVAR
  5
3B7
102
{ACAD_REACTORS
330
5E
102
}
330
5E
100
DictionaryVariables
280
     0
  1

  0
DICTIONARY
  5
FE4
330
22
100
AcDbDictionary
280
     1
281
     1
  3
ACAD_XREC_ROUNDTRIP
360
FE5
  0
DICTIONARY
  5
FE6
330
D3
100
AcDbDictionary
280
     1
281
     1
  3
ACAD_XREC_ROUNDTRIP
360
FE7
  0
DICTIONARY
  5
FE8
330
D7
100
AcDbDictionary
280
     1
281
     1
  3
ACAD_XREC_ROUNDTRIP
360
FE9
  0
XRECORD
  5
FE5
102
{ACAD_REACTORS
330
FE4
102
}
330
FE4
100
AcDbXrecord
280
     1
102
SHADEPLOT
 70
     0
102
SHADEPLOTRESLEVEL
 70
     2
102
SHADEPLOTCUSTOMDPI
 70
   300
  0
XRECORD
  5
FE7
102
{ACAD_REACTORS
330
FE6
102
}
330
FE6
100
AcDbXrecord
280
     1
102
SHADEPLOT
 70
     0
102
SHADEPLOTRESLEVEL
 70
     2
102
SHADEPLOTCUSTOMDPI
 70
   300
  0
XRECORD
  5
FE9
102
{ACAD_REACTORS
330
FE8
102
}
330
FE8
100
AcDbXrecord
280
     1
102
SHADEPLOT
 70
     0
102
SHADEPLOTRESLEVEL
 70
     2
102
SHADEPLOTCUSTOMDPI
 70
   300
  0
ENDSEC
  0
EOF
