  0
SECTION
  2
HEADER
  9
$ACADVER
  1
AC1015
  9
$ACADMAINTVER
 70
    20
  9
$DWGCODEPAGE
  3
ANSI_1252
  9
$INSBASE
 10
0.0
 20
0.0
 30
0.0
  9
$EXTMIN
 10
-472.2901669943252
 20
7.024500162519712
 30
0.0
  9
$EXTMAX
 10
-37.74243007486135
 20
707.4367805329534
 30
0.0
  9
$LIMMIN
 10
0.0
 20
0.0
  9
$LIMMAX
 10
420.0
 20
297.0
  9
$ORTHOMODE
 70
     1
  9
$REGENMODE
 70
     1
  9
$FILLMODE
 70
     1
  9
$QTEXTMODE
 70
     0
  9
$MIRRTEXT
 70
     0
  9
$LTSCALE
 40
1.0
  9
$ATTMODE
 70
     1
  9
$TEXTSIZE
 40
2.5
  9
$TRACEWID
 40
1.0
  9
$TEXTSTYLE
  7
Standard
  9
$CLAYER
  8
0
  9
$CELTYPE
  6
ByLayer
  9
$CECOLOR
 62
   256
  9
$CELTSCALE
 40
1.0
  9
$DISPSILH
 70
     0
  9
$DIMSCALE
 40
1.0
  9
$DIMASZ
 40
2.5
  9
$DIMEXO
 40
0.625
  9
$DIMDLI
 40
3.75
  9
$DIMRND
 40
0.0
  9
$DIMDLE
 40
0.0
  9
$DIMEXE
 40
1.25
  9
$DIMTP
 40
0.0
  9
$DIMTM
 40
0.0
  9
$DIMTXT
 40
2.5
  9
$DIMCEN
 40
2.5
  9
$DIMTSZ
 40
0.0
  9
$DIMTOL
 70
     0
  9
$DIMLIM
 70
     0
  9
$DIMTIH
 70
     0
  9
$DIMTOH
 70
     0
  9
$DIMSE1
 70
     0
  9
$DIMSE2
 70
     0
  9
$DIMTAD
 70
     1
  9
$DIMZIN
 70
     8
  9
$DIMBLK
  1

  9
$DIMASO
 70
     1
  9
$DIMSHO
 70
     1
  9
$DIMPOST
  1

  9
$DIMAPOST
  1

  9
$DIMALT
 70
     0
  9
$DIMALTD
 70
     3
  9
$DIMALTF
 40
0.03937007874016
  9
$DIMLFAC
 40
1.0
  9
$DIMTOFL
 70
     1
  9
$DIMTVP
 40
0.0
  9
$DIMTIX
 70
     0
  9
$DIMSOXD
 70
     0
  9
$DIMSAH
 70
     0
  9
$DIMBLK1
  1

  9
$DIMBLK2
  1

  9
$DIMSTYLE
  2
ISO-25
  9
$DIMCLRD
 70
     0
  9
$DIMCLRE
 70
     0
  9
$DIMCLRT
 70
     0
  9
$DIMTFAC
 40
1.0
  9
$DIMGAP
 40
0.625
  9
$DIMJUST
 70
     0
  9
$DIMSD1
 70
     0
  9
$DIMSD2
 70
     0
  9
$DIMTOLJ
 70
     0
  9
$DIMTZIN
 70
     8
  9
$DIMALTZ
 70
     0
  9
$DIMALTTZ
 70
     0
  9
$DIMUPT
 70
     0
  9
$DIMDEC
 70
     2
  9
$DIMTDEC
 70
     2
  9
$DIMALTU
 70
     2
  9
$DIMALTTD
 70
     3
  9
$DIMTXSTY
  7
Standard
  9
$DIMAUNIT
 70
     0
  9
$DIMADEC
 70
     0
  9
$DIMALTRND
 40
0.0
  9
$DIMAZIN
 70
     0
  9
$DIMDSEP
 70
    44
  9
$DIMATFIT
 70
     3
  9
$DIMFRAC
 70
     0
  9
$DIMLDRBLK
  1

  9
$DIMLUNIT
 70
     2
  9
$DIMLWD
 70
    -2
  9
$DIMLWE
 70
    -2
  9
$DIMTMOVE
 70
     0
  9
$LUNITS
 70
     2
  9
$LUPREC
 70
     4
  9
$SKETCHINC
 40
1.0
  9
$FILLETRAD
 40
25.0
  9
$AUNITS
 70
     0
  9
$AUPREC
 70
     0
  9
$MENU
  1
.
  9
$ELEVATION
 40
0.0
  9
$PELEVATION
 40
0.0
  9
$THICKNESS
 40
0.0
  9
$LIMCHECK
 70
     0
  9
$CHAMFERA
 40
0.0
  9
$CHAMFERB
 40
0.0
  9
$CHAMFERC
 40
0.0
  9
$CHAMFERD
 40
0.0
  9
$SKPOLY
 70
     0
  9
$TDCREATE
 40
2454550.307324757
  9
$TDUCREATE
 40
2454550.265658090
  9
$TDUPDATE
 40
2454550.406373149
  9
$TDUUPDATE
 40
2454550.364706481
  9
$TDINDWG
 40
0.0581195833
  9
$TDUSRTIMER
 40
0.0581188542
  9
$USRTIMER
 70
     1
  9
$ANGBASE
 50
0.0
  9
$ANGDIR
 70
     0
  9
$PDMODE
 70
     0
  9
$PDSIZE
 40
0.0
  9
$PLINEWID
 40
0.0
  9
$SPLFRAME
 70
     0
  9
$SPLINETYPE
 70
     6
  9
$SPLINESEGS
 70
     8
  9
$HANDSEED
  5
EDD
  9
$SURFTAB1
 70
     6
  9
$SURFTAB2
 70
     6
  9
$SURFTYPE
 70
     6
  9
$SURFU
 70
     6
  9
$SURFV
 70
     6
  9
$UCSBASE
  2

  9
$UCSNAME
  2

  9
$UCSORG
 10
0.0
 20
0.0
 30
0.0
  9
$UCSXDIR
 10
1.0
 20
0.0
 30
0.0
  9
$UCSYDIR
 10
0.0
 20
1.0
 30
0.0
  9
$UCSORTHOREF
  2

  9
$UCSORTHOVIEW
 70
     0
  9
$UCSORGTOP
 10
0.0
 20
0.0
 30
0.0
  9
$UCSORGBOTTOM
 10
0.0
 20
0.0
 30
0.0
  9
$UCSORGLEFT
 10
0.0
 20
0.0
 30
0.0
  9
$UCSORGRIGHT
 10
0.0
 20
0.0
 30
0.0
  9
$UCSORGFRONT
 10
0.0
 20
0.0
 30
0.0
  9
$UCSORGBACK
 10
0.0
 20
0.0
 30
0.0
  9
$PUCSBASE
  2

  9
$PUCSNAME
  2

  9
$PUCSORG
 10
0.0
 20
0.0
 30
0.0
  9
$PUCSXDIR
 10
1.0
 20
0.0
 30
0.0
  9
$PUCSYDIR
 10
0.0
 20
1.0
 30
0.0
  9
$PUCSORTHOREF
  2

  9
$PUCSORTHOVIEW
 70
     0
  9
$PUCSORGTOP
 10
0.0
 20
0.0
 30
0.0
  9
$PUCSORGBOTTOM
 10
0.0
 20
0.0
 30
0.0
  9
$PUCSORGLEFT
 10
0.0
 20
0.0
 30
0.0
  9
$PUCSORGRIGHT
 10
0.0
 20
0.0
 30
0.0
  9
$PUCSORGFRONT
 10
0.0
 20
0.0
 30
0.0
  9
$PUCSORGBACK
 10
0.0
 20
0.0
 30
0.0
  9
$USERI1
 70
     0
  9
$USERI2
 70
     0
  9
$USERI3
 70
     0
  9
$USERI4
 70
     0
  9
$USERI5
 70
     0
  9
$USERR1
 40
0.0
  9
$USERR2
 40
0.0
  9
$USERR3
 40
0.0
  9
$USERR4
 40
0.0
  9
$USERR5
 40
0.0
  9
$WORLDVIEW
 70
     1
  9
$SHADEDGE
 70
     3
  9
$SHADEDIF
 70
    70
  9
$TILEMODE
 70
     1
  9
$MAXACTVP
 70
    64
  9
$PINSBASE
 10
0.0
 20
0.0
 30
0.0
  9
$PLIMCHECK
 70
     0
  9
$PEXTMIN
 10
0.0
 20
0.0
 30
0.0
  9
$PEXTMAX
 10
0.0
 20
0.0
 30
0.0
  9
$PLIMMIN
 10
0.0
 20
0.0
  9
$PLIMMAX
 10
12.0
 20
9.0
  9
$UNITMODE
 70
     0
  9
$VISRETAIN
 70
     1
  9
$PLINEGEN
 70
     0
  9
$PSLTSCALE
 70
     1
  9
$TREEDEPTH
 70
  3020
  9
$CMLSTYLE
  2
Standard
  9
$CMLJUST
 70
     0
  9
$CMLSCALE
 40
20.0
  9
$PROXYGRAPHICS
 70
     1
  9
$MEASUREMENT
 70
     1
  9
$CELWEIGHT
370
    -1
  9
$ENDCAPS
280
     0
  9
$JOINSTYLE
280
     0
  9
$LWDISPLAY
290
     0
  9
$INSUNITS
 70
     4
  9
$HYPERLINKBASE
  1

  9
$STYLESHEET
  1

  9
$XEDIT
290
     1
  9
$CEPSNTYPE
380
     0
  9
$PSTYLEMODE
290
     1
  9
$FINGERPRINTGUID
  2
{4A4C6E15-96AD-4E98-A744-8BD4BACD0A4F}
  9
$VERSIONGUID
  2
{EA23BCCA-98AF-45DF-A0A3-2764C84D4521}
  9
$EXTNAMES
290
     1
  9
$PSVPSCALE
 40
0.0
  9
$OLESTARTUP
290
     0
  0
ENDSEC
  0
SECTION
  2
CLASSES
  0
CLASS
  1
ACDBDICTIONARYWDFLT
  2
AcDbDictionaryWithDefault
  3
ObjectDBX Classes
 90
        0
280
     0
281
     0
  0
CLASS
  1
DICTIONARYVAR
  2
AcDbDictionaryVar
  3
ObjectDBX Classes
 90
        0
280
     0
281
     0
  0
CLASS
  1
TABLESTYLE
  2
AcDbTableStyle
  3
ObjectDBX Classes
 90
     2047
280
     0
281
     0
  0
CLASS
  1
SORTENTSTABLE
  2
AcDbSortentsTable
  3
ObjectDBX Classes
 90
        0
280
     0
281
     0
  0
CLASS
  1
ACDBPLACEHOLDER
  2
AcDbPlaceHolder
  3
ObjectDBX Classes
 90
        0
280
     0
281
     0
  0
CLASS
  1
LAYOUT
  2
AcDbLayout
  3
ObjectDBX Classes
 90
        0
280
     0
281
     0
  0
ENDSEC
  0
SECTION
  2
TABLES
  0
TABLE
  2
VPORT
  5
8
330
0
100
AcDbSymbolTable
 70
     2
  0
VPORT
  5
ED4
330
8
100
AcDbSymbolTableRecord
100
AcDbViewportTableRecord
  2
*Active
 70
     0
 10
0.0
 20
0.0
 11
1.0
 21
1.0
 12
-110.2664240985985
 22
256.8998757538513
 13
0.0
 23
0.0
 14
10.0
 24
10.0
 15
10.0
 25
10.0
 16
0.0
 26
0.0
 36
1.0
 17
0.0
 27
0.0
 37
0.0
 40
1128.291975826542
 41
1.454088050314465
 42
50.0
 43
0.0
 44
0.0
 50
0.0
 51
0.0
 71
     0
 72
  1000
 73
     1
 74
     0
 75
     0
 76
     0
 77
     0
 78
     0
281
     0
 65
     1
110
0.0
120
0.0
130
0.0
111
1.0
121
0.0
131
0.0
112
0.0
122
1.0
132
0.0
 79
     0
146
0.0
  0
ENDTAB
  0
TABLE
  2
LTYPE
  5
5
330
0
100
AcDbSymbolTable
 70
     1
  0
LTYPE
  5
14
330
5
100
AcDbSymbolTableRecord
100
AcDbLinetypeTableRecord
  2
ByBlock
 70
     0
  3

 72
    65
 73
     0
 40
0.0
  0
LTYPE
  5
15
330
5
100
AcDbSymbolTableRecord
100
AcDbLinetypeTableRecord
  2
ByLayer
 70
     0
  3

 72
    65
 73
     0
 40
0.0
  0
LTYPE
  5
16
330
5
100
AcDbSymbolTableRecord
100
AcDbLinetypeTableRecord
  2
Continuous
 70
     0
  3
Solid line
 72
    65
 73
     0
 40
0.0
  0
ENDTAB
  0
TABLE
  2
LAYER
  5
2
102
{ACAD_XDICTIONARY
360
118
102
}
330
0
100
AcDbSymbolTable
 70
     1
  0
LAYER
  5
10
330
2
100
AcDbSymbolTableRecord
100
AcDbLayerTableRecord
  2
0
 70
     0
 62
     7
  6
Continuous
370
    -3
390
F
  0
ENDTAB
  0
TABLE
  2
STYLE
  5
3
330
0
100
AcDbSymbolTable
 70
     2
  0
STYLE
  5
11
330
3
100
AcDbSymbolTableRecord
100
AcDbTextStyleTableRecord
  2
Standard
 70
     0
 40
0.0
 41
1.0
 50
0.0
 71
     0
 42
2.5
  3
txt
  4

  0
STYLE
  5
112
330
3
100
AcDbSymbolTableRecord
100
AcDbTextStyleTableRecord
  2
ISO
 70
     0
 40
0.0
 41
1.0
 50
0.0
 71
     0
 42
2.0
  3
ISOCP.SHX
  4

  0
ENDTAB
  0
TABLE
  2
VIEW
  5
6
330
0
100
AcDbSymbolTable
 70
     0
  0
ENDTAB
  0
TABLE
  2
UCS
  5
7
330
0
100
AcDbSymbolTable
 70
     0
  0
ENDTAB
  0
TABLE
  2
APPID
  5
9
330
0
100
AcDbSymbolTable
 70
     6
  0
APPID
  5
12
330
9
100
AcDbSymbolTableRecord
100
AcDbRegAppTableRecord
  2
ACAD
 70
     0
  0
APPID
  5
9E
330
9
100
AcDbSymbolTableRecord
100
AcDbRegAppTableRecord
  2
ACAD_PSEXT
 70
     0
  0
APPID
  5
114
330
9
100
AcDbSymbolTableRecord
100
AcDbRegAppTableRecord
  2
ACAD_DSTYLE_DIMEXT_ENABLED
 70
     0
  0
APPID
  5
115
330
9
100
AcDbSymbolTableRecord
100
AcDbRegAppTableRecord
  2
ACAD_DSTYLE_DIMEXT_LENGTH
 70
     0
  0
APPID
  5
116
330
9
100
AcDbSymbolTableRecord
100
AcDbRegAppTableRecord
  2
ACAD_DSTYLE_DIMJOGGED_JOGANGLE_SYMBOL
 70
     0
  0
APPID
  5
117
330
9
100
AcDbSymbolTableRecord
100
AcDbRegAppTableRecord
  2
ACAD_DSTYLE_DIMARC_LENGTH_SYMBOL
 70
     0
  0
ENDTAB
  0
TABLE
  2
DIMSTYLE
  5
A
330
0
100
AcDbSymbolTable
 70
     2
100
AcDbDimStyleTable
 71
     1
340
27
  0
DIMSTYLE
105
27
330
A
100
AcDbSymbolTableRecord
100
AcDbDimStyleTableRecord
  2
ISO-25
 70
     0
 41
2.5
 42
0.625
 43
3.75
 44
1.25
 73
     0
 74
     0
 77
     1
 78
     8
140
2.5
141
2.5
143
0.03937007874016
147
0.625
171
     3
172
     1
271
     2
272
     2
274
     3
278
    44
283
     0
284
     8
340
11
  0
DIMSTYLE
105
113
330
A
100
AcDbSymbolTableRecord
100
AcDbDimStyleTableRecord
  2
STANDARD
 70
     0
 40
0.0
 41
3.5
 42
0.1
 43
7.0
 44
1.8
 73
     0
 74
     0
 77
     1
140
5.0
141
1.5
146
0.8
147
1.1
172
     1
176
   256
177
   256
178
     6
271
     0
272
     1
284
     8
288
     1
289
     0
340
112
  0
ENDTAB
  0
TABLE
  2
BLOCK_RECORD
  5
1
330
0
100
AcDbSymbolTable
 70
     2
  0
BLOCK_RECORD
  5
1F
102
{ACAD_XDICTIONARY
360
1DD
102
}
330
1
100
AcDbSymbolTableRecord
100
AcDbBlockTableRecord
  2
*Model_Space
340
22
  0
BLOCK_RECORD
  5
D2
330
1
100
AcDbSymbolTableRecord
100
AcDbBlockTableRecord
  2
*Paper_Space
340
D3
  0
BLOCK_RECORD
  5
D6
330
1
100
AcDbSymbolTableRecord
100
AcDbBlockTableRecord
  2
*Paper_Space0
340
D7
  0
BLOCK_RECORD
  5
E82
330
1
100
AcDbSymbolTableRecord
100
AcDbBlockTableRecord
  2
12360-P
340
0
310
2800000020000000200000000100080000000000000400000000000000000000000000000000000000000000000080000080000000808000800000008000800080800000C0C0C000C0DCC000F0CAA6000020400000206000002080000020A0000020C0000020E00000400000004020000040400000406000004080000040A0
310
000040C0000040E00000600000006020000060400000606000006080000060A0000060C0000060E00000800000008020000080400000806000008080000080A0000080C0000080E00000A0000000A0200000A0400000A0600000A0800000A0A00000A0C00000A0E00000C0000000C0200000C0400000C0600000C0800000C0
310
A00000C0C00000C0E00000E0000000E0200000E0400000E0600000E0800000E0A00000E0C00000E0E00040000000400020004000400040006000400080004000A0004000C0004000E00040200000402020004020400040206000402080004020A0004020C0004020E000404000004040200040404000404060004040800040
310
40A0004040C0004040E00040600000406020004060400040606000406080004060A0004060C0004060E00040800000408020004080400040806000408080004080A0004080C0004080E00040A0000040A0200040A0400040A0600040A0800040A0A00040A0C00040A0E00040C0000040C0200040C0400040C0600040C08000
310
40C0A00040C0C00040C0E00040E0000040E0200040E0400040E0600040E0800040E0A00040E0C00040E0E00080000000800020008000400080006000800080008000A0008000C0008000E00080200000802020008020400080206000802080008020A0008020C0008020E00080400000804020008040400080406000804080
310
008040A0008040C0008040E00080600000806020008060400080606000806080008060A0008060C0008060E00080800000808020008080400080806000808080008080A0008080C0008080E00080A0000080A0200080A0400080A0600080A0800080A0A00080A0C00080A0E00080C0000080C0200080C0400080C0600080C0
310
800080C0A00080C0C00080C0E00080E0000080E0200080E0400080E0600080E0800080E0A00080E0C00080E0E000C0000000C0002000C0004000C0006000C0008000C000A000C000C000C000E000C0200000C0202000C0204000C0206000C0208000C020A000C020C000C020E000C0400000C0402000C0404000C0406000C0
310
408000C040A000C040C000C040E000C0600000C0602000C0604000C0606000C0608000C060A000C060C000C060E000C0800000C0802000C0804000C0806000C0808000C080A000C080C000C080E000C0A00000C0A02000C0A04000C0A06000C0A08000C0A0A000C0A0C000C0A0E000C0C00000C0C02000C0C04000C0C06000
310
C0C08000C0C0A000F0FBFF00A4A0A000808080000000FF0000FF000000FFFF00FF000000FF00FF00FFFF0000FFFFFF000000000000000000000000000000000000000000000000000000000000000000000000000000000000000000000000FFFF000000000000000000000000000000000000000000000000000000FFFFFF
310
0000FFFFFF00000000000000000000000000000000000000000000FFFF00FFFFFFFFFFFF00FFFF00000000000000000000000000000000000000FF00FFFFFFFFFFFFFFFFFFFF00FF0000000000000000000000000000000000FF00FFFFFF000000000000FFFFFF00FF00000000000000000000000000000000FF00FFFF0000
310
000000000000FFFFFF00FF0000000000000000000000000000FF00FFFF00000000000000000000FFFF00FF0000000000000000000000000000FF00FFFF00000000000000000000FFFF00FF0000000000000000000000000000FFFFFF000000000000000000000000FFFFFF0000000000000000000000000000FFFFFF000000
310
000000000000000000FFFFFF0000000000000000000000000000FFFFFF000000000000000000000000FFFFFF0000000000000000000000000000FFFFFF000000000000000000000000FFFFFF0000000000000000000000000000FFFFFF000000000000000000000000FFFFFF0000000000000000000000000000FFFFFF0000
310
00000000000000000000FFFFFF0000000000000000000000000000FFFFFF000000000000000000000000FFFFFF0000000000000000000000000000FFFFFF000000000000000000000000FFFFFF0000000000000000000000000000FFFFFF000000000000FF0000000000FFFFFF0000000000000000000000000000FFFFFF00
310
000000FFFFFFFF00000000FFFFFF0000000000000000000000000000FFFFFF00000000FF0000FF00000000FFFFFF0000000000000000000000000000FFFFFF00000000FFFFFFFF00000000FFFFFF0000000000000000000000000000FFFFFF00000000FFFFFFFF00000000FFFFFF0000000000000000000000000000FFFFFF
310
FFFFFFFFFFFFFFFFFFFFFFFFFFFFFF0000000000000000000000000000FFFF00FFFFFFFFFFFFFFFFFFFFFFFF00FFFF0000000000000000000000000000FFFF0000000000000000000000000000FFFF0000000000000000000000000000FFFF000000000000FFFF000000000000FFFF0000000000000000000000000000FFFF
310
000000000000FFFF000000000000FFFF0000000000000000000000000000FFFF00000000000000FF000000000000FFFF0000000000000000000000000000FFFF0000000000000000000000000000FFFF0000000000000000000000000000FFFFFFFFFFFFFFFFFFFFFFFFFFFFFFFFFFFF0000000000000000000000000000FF
310
FFFFFFFFFFFFFFFFFFFFFFFFFFFFFFFFFF000000000000000000000000000000000000000000000000000000000000000000000000000000
102
{BLKREFS
331
EC5
102
}
1001
ACAD
1000
DesignCenter Data
1002
{
1070
     1
1070
     4
1002
}
  0
ENDTAB
  0
ENDSEC
  0
SECTION
  2
BLOCKS
  0
BLOCK
  5
20
330
1F
100
AcDbEntity
  8
0
100
AcDbBlockBegin
  2
*Model_Space
 70
     0
 10
0.0
 20
0.0
 30
0.0
  3
*Model_Space
  1

  0
ENDBLK
  5
21
330
1F
100
AcDbEntity
  8
0
100
AcDbBlockEnd
  0
BLOCK
  5
D4
330
D2
100
AcDbEntity
 67
     1
  8
0
100
AcDbBlockBegin
  2
*Paper_Space
 70
     0
 10
0.0
 20
0.0
 30
0.0
  3
*Paper_Space
  1

  0
ENDBLK
  5
D5
330
D2
100
AcDbEntity
 67
     1
  8
0
100
AcDbBlockEnd
  0
BLOCK
  5
D8
330
D6
100
AcDbEntity
  8
0
100
AcDbBlockBegin
  2
*Paper_Space0
 70
     0
 10
0.0
 20
0.0
 30
0.0
  3
*Paper_Space0
  1

  0
ENDBLK
  5
D9
330
D6
100
AcDbEntity
  8
0
100
AcDbBlockEnd
  0
BLOCK
  5
E83
330
E82
100
AcDbEntity
  8
0
100
AcDbBlockBegin
  2
12360-P
 70
     0
 10
0.0
 20
0.0
 30
0.0
  3
12360-P
  1

  0
ARC
  5
E85
330
E82
100
AcDbEntity
  8
0
370
    15
100
AcDbCircle
 10
0.000000000001819
 20
-399.9999999999927
 30
0.0
 40
179.9955661305776
100
AcDbArc
 50
180.0
 51
270.0
  0
LINE
  5
E86
330
E82
100
AcDbEntity
  8
0
370
    15
100
AcDbLine
 10
-179.9955666065216
 20
-14.62032459676265
 30
0.0
 11
-179.9955666065216
 21
-400.0000059604644
 31
0.0
  0
LINE
  5
E87
330
E82
100
AcDbEntity
  8
0
370
    15
100
AcDbLine
 10
-180.0000071525573
 20
0.0
 30
0.0
 11
-180.0000071525573
 21
-14.24723211675882
 31
0.0
  0
LINE
  5
E88
330
E82
100
AcDbEntity
  8
0
370
    15
100
AcDbLine
 10
-168.9561605453491
 20
0.0
 30
0.0
 11
0.0
 21
0.0
 31
0.0
  0
LINE
  5
E89
330
E82
100
AcDbEntity
  8
0
370
    15
100
AcDbLine
 10
-176.8346279859543
 20
0.0
 30
0.0
 11
-168.9561605453491
 21
0.0
 31
0.0
  0
ELLIPSE
  5
E8A
330
E82
100
AcDbEntity
  8
0
370
    15
100
AcDbEllipse
 10
-175.0
 20
-12.73596080818242
 30
0.0
 11
-3.1707104396258
 21
-4.668364377816373
 31
0.0
210
0.0
220
0.0
230
1.0
 40
0.8281450138911532
 41
5.224754533073867
 42
5.258193880303265
  0
LINE
  5
E8B
330
E82
100
AcDbEntity
  8
0
370
    15
100
AcDbLine
 10
-179.9240410327911
 20
0.0
 30
0.0
 11
-176.8346279859543
 21
0.0
 31
0.0
  0
LWPOLYLINE
  5
E8C
330
E82
100
AcDbEntity
  8
0
370
    15
100
AcDbPolyline
 90
        3
 70
   128
 43
0.0
 10
-179.9931526184082
 20
-14.79071006178856
 10
-179.9961775541305
 20
-13.84135615080595
 10
-179.9503117799759
 20
-12.91503384709358
  0
LINE
  5
E8D
330
E82
100
AcDbEntity
  8
0
370
    15
100
AcDbLine
 10
-180.0000071525573
 20
0.0
 30
0.0
 11
-179.9240410327911
 21
0.0
 31
0.0
  0
ARC
  5
E8E
330
E82
100
AcDbEntity
  8
0
370
    15
100
AcDbCircle
 10
0.000000000001819
 20
-80.0
 30
0.0
 40
17.5
100
AcDbArc
 50
90.0
 51
270.0
  0
LINE
  5
E8F
330
E82
100
AcDbEntity
  8
0
370
     0
100
AcDbLine
 10
-111.954353749752
 20
-17.45572313666343
 30
0.0
 11
0.0
 21
-17.45572313666343
 31
0.0
  0
ELLIPSE
  5
E90
330
E82
100
AcDbEntity
  8
0
370
     0
100
AcDbEllipse
 10
-179.739795371137
 20
34.7276156224334
 30
0.0
 11
1055.652126896737
 21
-3.3589657704135
 31
0.0
210
0.0
220
0.0
230
1.0
 40
0.0493298117312147
 41
4.747183924945109
 42
4.77680206174608
  0
LINE
  5
E91
330
E82
100
AcDbEntity
  8
0
370
     0
100
AcDbLine
 10
-146.2960392236709
 20
-17.42827333509922
 30
0.0
 11
-143.1814432144165
 21
-17.43283681571483
 31
0.0
  0
ELLIPSE
  5
E92
330
E82
100
AcDbEntity
  8
0
370
     0
100
AcDbEllipse
 10
-155.0
 20
-17.77255953769418
 30
0.0
 11
10.0
 21
-0.0000000000000018
 31
0.0
210
0.0
220
0.0
230
1.0
 40
0.0699268119435146
 41
0.5147887357169853
 42
1.570796326794902
  0
LINE
  5
E93
330
E82
100
AcDbEntity
  8
0
370
     0
100
AcDbLine
 10
-173.3597368001938
 20
-17.07329228520393
 30
0.0
 11
-155.0000011920929
 21
-17.07329228520393
 31
0.0
  0
ELLIPSE
  5
E94
330
E82
100
AcDbEntity
  8
0
370
     0
100
AcDbEllipse
 10
-173.2367301929152
 20
-12.03669268874728
 30
0.0
 11
4.895035615951616
 21
1.941247071764791
 31
0.0
210
0.0
220
0.0
230
1.0
 40
0.9495034062257014
 41
4.166767128594044
 42
4.328743303382838
  0
LWPOLYLINE
  5
E95
330
E82
100
AcDbEntity
  8
0
370
     0
100
AcDbPolyline
 90
       11
 70
   128
 43
0.0
 10
-179.9503117799759
 20
-12.91503384709358
 10
-179.9420863389969
 20
-12.90174014866352
 10
-179.9236088991165
 20
-12.88473419845104
 10
-179.9042373895645
 20
-12.88709882646799
 10
-179.8746287822723
 20
-12.92009558528661
 10
-179.7393262386322
 20
-13.17351311445236
 10
-179.0274679660797
 20
-14.25828132778406
 10
-177.3328781127929
 20
-15.78598096966743
 10
-175.8521944284439
 20
-16.5658202022314
 10
-174.7639328241348
 20
-16.91017299890518
 10
-174.201413989067
 20
-17.01710931956768
  0
LINE
  5
E96
330
E82
100
AcDbEntity
  8
0
370
     0
100
AcDbLine
 10
-179.9240410327911
 20
-12.73596100509166
 30
0.0
 11
-179.9240410327911
 21
0.0
 31
0.0
  0
LWPOLYLINE
  5
E97
330
E82
100
AcDbEntity
  8
0
370
     0
100
AcDbPolyline
 90
       20
 70
   128
 43
0.0
 10
-133.8340938091278
 20
-400.0000059604644
 10
-133.3034932613373
 20
-410.2423787117004
 10
-131.8153738975525
 20
-421.5349853038787
 10
-129.3873488903045
 20
-432.7040910720825
 10
-126.0462552309036
 20
-443.6343312263488
 10
-121.818907558918
 20
-454.2103111743927
 10
-116.7590841650963
 20
-464.2963707447052
 10
-110.8581945300102
 20
-473.9608764648437
 10
-104.1797176003456
 20
-483.1048846244812
 10
-96.78712487220764
 20
-491.6295409202575
 10
-88.77642452716827
 20
-499.42347407341
 10
-80.1154226064682
 20
-506.5494179725646
 10
-70.89594006538391
 20
-512.9359364509582
 10
-61.20982766151428
 20
-518.5115933418273
 10
-51.14226788282394
 20
-523.220956325531
 10
-40.68037495017051
 20
-527.0881056785583
 10
-29.93435971438885
 20
-530.0748944282531
 10
-19.01443488895893
 20
-532.1431159973144
 10
-7.86575861275196
 20
-533.2769155502319
 10
0.0
 20
-533.4064091804539
  0
ARC
  5
E98
330
E82
100
AcDbEntity
  8
0
370
     0
100
AcDbCircle
 10
0.000000000001819
 20
-399.9999999999927
 30
0.0
 40
150.6480162105134
100
AcDbArc
 50
180.0
 51
270.0
  0
LINE
  5
E99
330
E82
100
AcDbEntity
  8
0
370
     0
100
AcDbLine
 10
-150.6480127573013
 20
-400.0000059604644
 30
0.0
 11
-150.6480127573013
 21
-22.41609431803226
 31
0.0
  0
LINE
  5
E9A
330
E82
100
AcDbEntity
  8
0
370
     0
100
AcDbLine
 10
-143.2861536741256
 20
-22.42065593600273
 30
0.0
 11
-146.4007496833801
 21
-22.41609431803226
 31
0.0
  0
ELLIPSE
  5
E9B
330
E82
100
AcDbEntity
  8
0
370
     0
100
AcDbEllipse
 10
-179.739795371137
 20
29.73979537113428
 30
0.0
 11
1059.180788688536
 21
0.1946708230119942
 31
0.0
210
0.0
220
0.0
230
1.0
 40
0.049281537515486
 41
4.746803543255277
 42
4.776421680056248
  0
LINE
  5
E9C
330
E82
100
AcDbEntity
  8
0
370
     0
100
AcDbLine
 10
0.0
 20
-22.33883179724216
 30
0.0
 11
-111.954353749752
 21
-22.33883179724216
 31
0.0
  0
LINE
  5
E9D
330
E82
100
AcDbEntity
  8
0
370
     0
100
AcDbLine
 10
-25.53486078977585
 20
-140.1719599962234
 30
0.0
 11
-114.3906041979789
 21
-140.1059925556183
 31
0.0
  0
ARC
  5
E9E
330
E82
100
AcDbEntity
  8
0
370
     0
100
AcDbCircle
 10
-114.4590586084268
 20
-160.4778815020145
 30
0.0
 40
20.37200395765377
100
AcDbArc
 50
89.80747322668765
 51
180.0869479387985
  0
LWPOLYLINE
  5
E9F
330
E82
100
AcDbEntity
  8
0
370
     0
100
AcDbPolyline
 90
        5
 70
   128
 43
0.0
 10
-134.8304152488708
 20
-160.5087965726852
 10
-134.5221102237701
 20
-271.5732753276825
 10
-134.1676563024521
 20
-335.7865512371063
 10
-134.077787399292
 20
-367.8940236568451
 10
-133.8340938091278
 20
-400.0000059604644
  0
ELLIPSE
  5
EA0
330
E82
100
AcDbEntity
  8
0
370
     0
100
AcDbEllipse
 10
-36.59947052316784
 20
-113.4005294768358
 30
0.0
 11
1064.930417143207
 21
-4.60989748972698
 31
0.0
210
0.0
220
0.0
230
1.0
 40
0.0250950674362581
 41
4.722887783805647
 42
4.746872327072435
  0
LWPOLYLINE
  5
EA1
330
E82
100
AcDbEntity
  8
0
370
     0
100
AcDbPolyline
 90
       21
 70
   128
 43
0.0
 10
-39.84128311276436
 20
-149.0188241004944
 10
-47.3078042268753
 20
-148.9818394184112
 10
-54.62844669818878
 20
-148.9076316356659
 10
-61.71551346778869
 20
-148.7965583801269
 10
-68.35050880908966
 20
-148.6506909132003
 10
-71.51253521442413
 20
-148.5641896724701
 10
-74.48644191026687
 20
-148.4705805778503
 10
-77.27224379777908
 20
-148.3698636293411
 10
-79.86992597579956
 20
-148.2620388269424
 10
-81.41747862100601
 20
-148.1896191835403
 10
-83.23364704847335
 20
-148.0981409549713
 10
-85.31843125820159
 20
-147.9875743389129
 10
-87.13813871145248
 20
-147.8870809078216
 10
-88.90064060688018
 20
-147.7856934070587
 10
-90.60592949390411
 20
-147.6833969354629
 10
-96.95430099964141
 20
-147.25923538208
 10
-102.4110242724418
 20
-146.8194872140884
 10
-106.9760993123054
 20
-146.3641375303268
 10
-110.2546527981758
 20
-145.9492892026901
 10
-112.7610579133033
 20
-145.5288678407669
 10
-114.4953146576881
 20
-145.102858543396
  0
SPLINE
  5
EA2
330
E82
100
AcDbEntity
  8
0
370
     0
100
AcDbSpline
210
0.0
220
0.0
230
1.0
 70
    28
 71
     3
 72
     9
 73
     5
 74
     0
 42
0.0000000001
 43
0.0000000001
 40
0.5000784836748423
 40
0.5000784836748423
 40
0.5000784836748423
 40
0.5000784836748423
 40
0.5600000098163024
 40
1.0
 40
1.0
 40
1.0
 40
1.0
 10
0.0
 20
-149.0188241004944
 30
0.0
 41
1.0
 10
-1.591816854972421
 20
-149.0188241004944
 30
0.0
 41
1.0
 10
-14.87224455922842
 20
-149.0188241004944
 30
0.0
 41
1.0
 10
-28.15267226348442
 20
-149.0188241004944
 30
0.0
 41
1.0
 10
-39.84128311276436
 20
-149.0188241004944
 30
0.0
 41
1.0
  0
ARC
  5
EA3
330
E82
100
AcDbEntity
  8
0
370
    15
100
AcDbCircle
 10
0.000000000001819
 20
-399.9999999999927
 30
0.0
 40
179.9955661305776
100
AcDbArc
 50
270.0
 51
0.0
  0
LINE
  5
EA4
330
E82
100
AcDbEntity
  8
0
370
    15
100
AcDbLine
 10
179.9955666065216
 20
-14.62032459676265
 30
0.0
 11
179.9955666065216
 21
-400.0000059604644
 31
0.0
  0
LINE
  5
EA5
330
E82
100
AcDbEntity
  8
0
370
    15
100
AcDbLine
 10
180.0000071525573
 20
0.0
 30
0.0
 11
180.0000071525573
 21
-14.24723211675882
 31
0.0
  0
LINE
  5
EA6
330
E82
100
AcDbEntity
  8
0
370
    15
100
AcDbLine
 10
168.9561605453491
 20
0.0
 30
0.0
 11
0.0
 21
0.0
 31
0.0
  0
LINE
  5
EA7
330
E82
100
AcDbEntity
  8
0
370
    15
100
AcDbLine
 10
176.8346279859543
 20
0.0
 30
0.0
 11
168.9561605453491
 21
0.0
 31
0.0
  0
ELLIPSE
  5
EA8
330
E82
100
AcDbEntity
  8
0
370
    15
100
AcDbEllipse
 10
175.0
 20
-12.73596080818242
 30
0.0
 11
3.170710439625799
 21
-4.668364377816375
 31
0.0
210
0.0
220
0.0
230
-1.0
 40
0.8281450138911532
 41
5.224754533073867
 42
5.258193880303265
  0
LINE
  5
EA9
330
E82
100
AcDbEntity
  8
0
370
    15
100
AcDbLine
 10
179.9240410327911
 20
0.0
 30
0.0
 11
176.8346279859543
 21
0.0
 31
0.0
  0
LWPOLYLINE
  5
EAA
330
E82
100
AcDbEntity
  8
0
370
    15
100
AcDbPolyline
 90
        3
 70
   128
 43
0.0
 10
179.9931526184082
 20
-14.79071006178856
 10
179.9961775541305
 20
-13.84135615080595
 10
179.9503117799759
 20
-12.91503384709358
  0
LINE
  5
EAB
330
E82
100
AcDbEntity
  8
0
370
    15
100
AcDbLine
 10
180.0000071525573
 20
0.0
 30
0.0
 11
179.9240410327911
 21
0.0
 31
0.0
  0
ARC
  5
EAC
330
E82
100
AcDbEntity
  8
0
370
    15
100
AcDbCircle
 10
0.000000000001819
 20
-80.0
 30
0.0
 40
17.5
100
AcDbArc
 50
270.0
 51
90.0
  0
LINE
  5
EAD
330
E82
100
AcDbEntity
  8
0
370
     0
100
AcDbLine
 10
111.954353749752
 20
-17.45572313666343
 30
0.0
 11
0.0
 21
-17.45572313666343
 31
0.0
  0
ELLIPSE
  5
EAE
330
E82
100
AcDbEntity
  8
0
370
     0
100
AcDbEllipse
 10
179.739795371137
 20
34.7276156224334
 30
0.0
 11
-1055.652126896737
 21
-3.358965770413119
 31
0.0
210
0.0
220
0.0
230
-1.0
 40
0.0493298117312147
 41
4.747183924945109
 42
4.77680206174608
  0
LINE
  5
EAF
330
E82
100
AcDbEntity
  8
0
370
     0
100
AcDbLine
 10
146.2960392236709
 20
-17.42827333509922
 30
0.0
 11
143.1814432144165
 21
-17.43283681571483
 31
0.0
  0
ELLIPSE
  5
EB0
330
E82
100
AcDbEntity
  8
0
370
     0
100
AcDbEllipse
 10
155.0
 20
-17.77255953769418
 30
0.0
 11
-10.0
 21
0.0000000000000018
 31
0.0
210
0.0
220
0.0
230
-1.0
 40
0.0699268119435146
 41
0.5147887357169853
 42
1.570796326794902
  0
LINE
  5
EB1
330
E82
100
AcDbEntity
  8
0
370
     0
100
AcDbLine
 10
173.3597368001938
 20
-17.07329228520393
 30
0.0
 11
155.0000011920929
 21
-17.07329228520393
 31
0.0
  0
ELLIPSE
  5
EB2
330
E82
100
AcDbEntity
  8
0
370
     0
100
AcDbEllipse
 10
173.2367301929152
 20
-12.03669268874728
 30
0.0
 11
-4.895035615951615
 21
1.941247071764793
 31
0.0
210
0.0
220
0.0
230
-0.9999999999999998
 40
0.9495034062257014
 41
4.166767128594044
 42
4.328743303382838
  0
LWPOLYLINE
  5
EB3
330
E82
100
AcDbEntity
  8
0
370
     0
100
AcDbPolyline
 90
       11
 70
   128
 43
0.0
 10
179.9503117799759
 20
-12.91503384709358
 10
179.9420863389969
 20
-12.90174014866352
 10
179.9236088991165
 20
-12.88473419845104
 10
179.9042373895645
 20
-12.88709882646799
 10
179.8746287822723
 20
-12.92009558528661
 10
179.7393262386322
 20
-13.17351311445236
 10
179.0274679660797
 20
-14.25828132778406
 10
177.3328781127929
 20
-15.78598096966743
 10
175.8521944284439
 20
-16.5658202022314
 10
174.7639328241348
 20
-16.91017299890518
 10
174.201413989067
 20
-17.01710931956768
  0
LINE
  5
EB4
330
E82
100
AcDbEntity
  8
0
370
     0
100
AcDbLine
 10
179.9240410327911
 20
-12.73596100509166
 30
0.0
 11
179.9240410327911
 21
0.0
 31
0.0
  0
LWPOLYLINE
  5
EB5
330
E82
100
AcDbEntity
  8
0
370
     0
100
AcDbPolyline
 90
       20
 70
   128
 43
0.0
 10
133.8340938091278
 20
-400.0000059604644
 10
133.3034932613373
 20
-410.2423787117004
 10
131.8153738975525
 20
-421.5349853038787
 10
129.3873488903045
 20
-432.7040910720825
 10
126.0462552309036
 20
-443.6343312263488
 10
121.818907558918
 20
-454.2103111743927
 10
116.7590841650963
 20
-464.2963707447052
 10
110.8581945300102
 20
-473.9608764648437
 10
104.1797176003456
 20
-483.1048846244812
 10
96.78712487220764
 20
-491.6295409202575
 10
88.77642452716827
 20
-499.42347407341
 10
80.1154226064682
 20
-506.5494179725646
 10
70.89594006538391
 20
-512.9359364509582
 10
61.20982766151428
 20
-518.5115933418273
 10
51.14226788282394
 20
-523.220956325531
 10
40.68037495017051
 20
-527.0881056785583
 10
29.93435971438885
 20
-530.0748944282531
 10
19.01443488895893
 20
-532.1431159973144
 10
7.86575861275196
 20
-533.2769155502319
 10
0.0
 20
-533.4064091804539
  0
ARC
  5
EB6
330
E82
100
AcDbEntity
  8
0
370
     0
100
AcDbCircle
 10
0.000000000001819
 20
-399.9999999999927
 30
0.0
 40
150.6480162105134
100
AcDbArc
 50
270.0
 51
0.0
  0
LINE
  5
EB7
330
E82
100
AcDbEntity
  8
0
370
     0
100
AcDbLine
 10
150.6480127573013
 20
-400.0000059604644
 30
0.0
 11
150.6480127573013
 21
-22.41609431803226
 31
0.0
  0
LINE
  5
EB8
330
E82
100
AcDbEntity
  8
0
370
     0
100
AcDbLine
 10
143.2861536741256
 20
-22.42065593600273
 30
0.0
 11
146.4007496833801
 21
-22.41609431803226
 31
0.0
  0
ELLIPSE
  5
EB9
330
E82
100
AcDbEntity
  8
0
370
     0
100
AcDbEllipse
 10
179.739795371137
 20
29.73979537113428
 30
0.0
 11
-1059.180788688536
 21
0.1946708230123832
 31
0.0
210
0.0
220
0.0
230
-1.0
 40
0.049281537515486
 41
4.746803543255277
 42
4.776421680056248
  0
LINE
  5
EBA
330
E82
100
AcDbEntity
  8
0
370
     0
100
AcDbLine
 10
0.0
 20
-22.33883179724216
 30
0.0
 11
111.954353749752
 21
-22.33883179724216
 31
0.0
  0
LINE
  5
EBB
330
E82
100
AcDbEntity
  8
0
370
     0
100
AcDbLine
 10
25.53486078977585
 20
-140.1719599962234
 30
0.0
 11
114.3906041979789
 21
-140.1059925556183
 31
0.0
  0
ARC
  5
EBC
330
E82
100
AcDbEntity
  8
0
370
     0
100
AcDbCircle
 10
114.4590586084287
 20
-160.4778815020145
 30
0.0
 40
20.37200395765377
100
AcDbArc
 50
359.9130520612015
 51
90.19252677331234
  0
LWPOLYLINE
  5
EBD
330
E82
100
AcDbEntity
  8
0
370
     0
100
AcDbPolyline
 90
        5
 70
   128
 43
0.0
 10
134.8304152488708
 20
-160.5087965726852
 10
134.5221102237701
 20
-271.5732753276825
 10
134.1676563024521
 20
-335.7865512371063
 10
134.077787399292
 20
-367.8940236568451
 10
133.8340938091278
 20
-400.0000059604644
  0
ELLIPSE
  5
EBE
330
E82
100
AcDbEntity
  8
0
370
     0
100
AcDbEllipse
 10
36.59947052316784
 20
-113.4005294768358
 30
0.0
 11
-1064.930417143207
 21
-4.609897489726589
 31
0.0
210
0.0
220
0.0
230
-1.0
 40
0.0250950674362581
 41
4.722887783805647
 42
4.746872327072435
  0
LWPOLYLINE
  5
EBF
330
E82
100
AcDbEntity
  8
0
370
     0
100
AcDbPolyline
 90
       21
 70
   128
 43
0.0
 10
39.84128311276436
 20
-149.0188241004944
 10
47.3078042268753
 20
-148.9818394184112
 10
54.62844669818878
 20
-148.9076316356659
 10
61.71551346778869
 20
-148.7965583801269
 10
68.35050880908966
 20
-148.6506909132003
 10
71.51253521442413
 20
-148.5641896724701
 10
74.48644191026687
 20
-148.4705805778503
 10
77.27224379777908
 20
-148.3698636293411
 10
79.86992597579956
 20
-148.2620388269424
 10
81.41747862100601
 20
-148.1896191835403
 10
83.23364704847335
 20
-148.0981409549713
 10
85.31843125820159
 20
-147.9875743389129
 10
87.13813871145248
 20
-147.8870809078216
 10
88.90064060688018
 20
-147.7856934070587
 10
90.60592949390411
 20
-147.6833969354629
 10
96.95430099964141
 20
-147.25923538208
 10
102.4110242724418
 20
-146.8194872140884
 10
106.9760993123054
 20
-146.3641375303268
 10
110.2546527981758
 20
-145.9492892026901
 10
112.7610579133033
 20
-145.5288678407669
 10
114.4953146576881
 20
-145.102858543396
  0
SPLINE
  5
EC0
330
E82
100
AcDbEntity
  8
0
370
     0
100
AcDbSpline
210
0.0
220
0.0
230
1.0
 70
    28
 71
     3
 72
     9
 73
     5
 74
     0
 42
0.0000000001
 43
0.0000000001
 40
0.5000784836748423
 40
0.5000784836748423
 40
0.5000784836748423
 40
0.5000784836748423
 40
0.5600000098163024
 40
1.0
 40
1.0
 40
1.0
 40
1.0
 10
0.0
 20
-149.0188241004944
 30
0.0
 41
1.0
 10
1.591816854972421
 20
-149.0188241004944
 30
0.0
 41
1.0
 10
14.87224455922842
 20
-149.0188241004944
 30
0.0
 41
1.0
 10
28.1526722634826
 20
-149.0188241004944
 30
0.0
 41
1.0
 10
39.84128311276436
 20
-149.0188241004944
 30
0.0
 41
1.0
  0
ARC
  5
EC1
330
E82
100
AcDbEntity
  8
0
100
AcDbCircle
 10
0.000000000001819
 20
-214.9999999999982
 30
0.0
 40
36.0
100
AcDbArc
 50
90.0
 51
270.0
  0
ARC
  5
EC2
330
E82
100
AcDbEntity
  8
0
100
AcDbCircle
 10
0.000000000001819
 20
-214.9999999999982
 30
0.0
 40
23.0
100
AcDbArc
 50
90.0
 51
270.0
  0
ARC
  5
EC3
330
E82
100
AcDbEntity
  8
0
100
AcDbCircle
 10
0.000000000001819
 20
-214.9999999999982
 30
0.0
 40
23.0
100
AcDbArc
 50
270.0
 51
90.0
  0
ARC
  5
EC4
330
E82
100
AcDbEntity
  8
0
100
AcDbCircle
 10
0.000000000001819
 20
-214.9999999999982
 30
0.0
 40
36.0
100
AcDbArc
 50
270.0
 51
90.0
  0
ENDBLK
  5
E84
330
E82
100
AcDbEntity
  8
0
100
AcDbBlockEnd
  0
ENDSEC
  0
SECTION
  2
ENTITIES
  0
MTEXT
  5
2BF
330
1F
100
AcDbEntity
  8
0
100
AcDbMText
 10
-416.9613267768137
 20
33.41238768955648
 30
0.0
 40
20.0
 41
505.2631578947369
 71
     1
 72
     5
  1
{\fTimes New Roman|b0|i0|c0|p18;\C0;BIDE SERIE NOBLE.}
 73
     1
 44
1.0
1001
ACAD
1000
MTEXTBEGIN
1070
    73
1070
     1
1070
    44
1040
1.0
1070
    74
1070
     0
1000
MTEXTEND
  0
INSERT
  5
EC5
330
1F
100
AcDbEntity
  8
0
100
AcDbBlockReference
  2
12360-P
 10
-255.0162985345951
 20
707.4367805329534
 30
0.0
  0
ENDSEC
  0
SECTION
  2
OBJECTS
  0
DICTIONARY
  5
C
330
0
100
AcDbDictionary
281
     1
  3
ACAD_COLOR
350
6B
  3
ACAD_GROUP
350
D
  3
ACAD_LAYOUT
350
1A
  3
ACAD_MATERIAL
350
6A
  3
ACAD_MLINESTYLE
350
17
  3
ACAD_PLOTSETTINGS
350
19
  3
ACAD_PLOTSTYLENAME
350
E
  3
ACAD_TABLESTYLE
350
7E
  3
ACDBHEADERROUNDTRIPXREC
350
ED6
  3
AcDbVariableDictionary
350
5E
  3
DWGPROPS
350
ED5
  0
DICTIONARY
  5
118
330
2
100
AcDbDictionary
280
     1
281
     1
  3
ACAD_LAYERSTATES
360
119
  0
DICTIONARY
  5
1DD
330
1F
100
AcDbDictionary
280
     1
281
     1
  3
ACAD_SORTENTS
360
1DE
  0
DICTIONARY
  5
6B
102
{ACAD_REACTORS
330
C
102
}
330
C
100
AcDbDictionary
281
     1
  0
DICTIONARY
  5
D
102
{ACAD_REACTORS
330
C
102
}
330
C
100
AcDbDictionary
281
     1
  0
DICTIONARY
  5
1A
102
{ACAD_REACTORS
330
C
102
}
330
C
100
AcDbDictionary
281
     1
  3
Model
350
22
  3
Presentación1
350
D3
  3
Presentación2
350
D7
  0
DICTIONARY
  5
6A
102
{ACAD_REACTORS
330
C
102
}
330
C
100
AcDbDictionary
281
     1
  0
DICTIONARY
  5
17
102
{ACAD_REACTORS
330
C
102
}
330
C
100
AcDbDictionary
281
     1
  3
Standard
350
18
  0
DICTIONARY
  5
19
102
{ACAD_REACTORS
330
C
102
}
330
C
100
AcDbDictionary
281
     1
  0
ACDBDICTIONARYWDFLT
  5
E
102
{ACAD_REACTORS
330
C
102
}
330
C
100
AcDbDictionary
281
     1
  3
Normal
350
F
100
AcDbDictionaryWithDefault
340
F
  0
DICTIONARY
  5
7E
102
{ACAD_REACTORS
330
C
102
}
330
C
100
AcDbDictionary
281
     1
  3
Standard
350
7F
  0
DICTIONARY
  5
ED6
102
{ACAD_REACTORS
330
C
102
}
330
C
100
AcDbDictionary
281
     1
  0
DICTIONARY
  5
5E
102
{ACAD_REACTORS
330
C
102
}
330
C
100
AcDbDictionary
281
     1
  3
CTABLESTYLE
350
84
  3
DIMASSOC
350
5F
  3
HIDETEXT
350
63
  3
PROJECTNAME
350
3B7
  0
XRECORD
  5
ED5
102
{ACAD_REACTORS
330
C
102
}
330
C
100
AcDbXrecord
280
     1
  1
DWGPROPS COOKIE
  2

  3

  4

  6

  7

  8
Autodesk
  9

300
=
301
=
302
=
303
=
304
=
305
=
306
=
307
=
308
=
309
=
 40
0.0581195833333333
 41
2454550.307324757
 42
2454550.406373149
  1

 90
        0
  0
DICTIONARY
  5
119
102
{ACAD_REACTORS
330
118
102
}
330
118
100
AcDbDictionary
281
     1
  0
SORTENTSTABLE
  5
1DE
102
{ACAD_REACTORS
330
1DD
102
}
330
1DD
100
AcDbSortentsTable
330
1F
331
EC5
  5
EC5
331
2BF
  5
2BF
  0
LAYOUT
  5
22
102
{ACAD_XDICTIONARY
360
ED7
102
}
102
{ACAD_REACTORS
330
1A
102
}
330
1A
100
AcDbPlotSettings
  1

  2
none_device
  4
ISO_A4_(210.00_x_297.00_MM)
  6

 40
7.5
 41
20.0
 42
7.5
 43
20.0
 44
210.0
 45
297.0
 46
11.54999923706054
 47
-13.65000009536743
 48
0.0
 49
0.0
140
0.0
141
0.0
142
1.0
143
8.704084754739808
 70
 11952
 72
     1
 73
     0
 74
     0
  7

 75
     0
147
0.1148885871608098
148
0.0
149
0.0
100
AcDbLayout
  1
Model
 70
     1
 71
     0
 10
0.0
 20
0.0
 11
12.0
 21
9.0
 12
0.0
 22
0.0
 32
0.0
 14
0.0
 24
0.0
 34
0.0
 15
0.0
 25
0.0
 35
0.0
146
0.0
 13
0.0
 23
0.0
 33
0.0
 16
1.0
 26
0.0
 36
0.0
 17
0.0
 27
1.0
 37
0.0
 76
     0
330
1F
1001
ACAD_PSEXT
1000
None
1000
None
1000
Not applicable
1000
The layout will not be plotted unless a new plotter configuration name is selected.
1070
     0
  0
LAYOUT
  5
D3
102
{ACAD_XDICTIONARY
360
ED9
102
}
102
{ACAD_REACTORS
330
1A
102
}
330
1A
100
AcDbPlotSettings
  1

  2
C:\Documents and Settings\basas\Application Data\Autodesk\AutoCAD 2005\R16.1\enu\plotters\Default Windows System Printer.pc3
  4

  6

 40
0.0
 41
0.0
 42
0.0
 43
0.0
 44
0.0
 45
0.0
 46
0.0
 47
0.0
 48
0.0
 49
0.0
140
0.0
141
0.0
142
1.0
143
1.0
 70
   688
 72
     0
 73
     0
 74
     5
  7

 75
    16
147
1.0
148
0.0
149
0.0
100
AcDbLayout
  1
Presentación1
 70
     1
 71
     1
 10
0.0
 20
0.0
 11
12.0
 21
9.0
 12
0.0
 22
0.0
 32
0.0
 14
0.0
 24
0.0
 34
0.0
 15
0.0
 25
0.0
 35
0.0
146
0.0
 13
0.0
 23
0.0
 33
0.0
 16
1.0
 26
0.0
 36
0.0
 17
0.0
 27
1.0
 37
0.0
 76
     0
330
D2
  0
LAYOUT
  5
D7
102
{ACAD_XDICTIONARY
360
EDB
102
}
102
{ACAD_REACTORS
330
1A
102
}
330
1A
100
AcDbPlotSettings
  1

  2
C:\Documents and Settings\basas\Application Data\Autodesk\AutoCAD 2005\R16.1\enu\plotters\Default Windows System Printer.pc3
  4

  6

 40
0.0
 41
0.0
 42
0.0
 43
0.0
 44
0.0
 45
0.0
 46
0.0
 47
0.0
 48
0.0
 49
0.0
140
0.0
141
0.0
142
1.0
143
1.0
 70
   688
 72
     0
 73
     0
 74
     5
  7

 75
    16
147
1.0
148
0.0
149
0.0
100
AcDbLayout
  1
Presentación2
 70
     1
 71
     2
 10
0.0
 20
0.0
 11
12.0
 21
9.0
 12
0.0
 22
0.0
 32
0.0
 14
0.0
 24
0.0
 34
0.0
 15
0.0
 25
0.0
 35
0.0
146
0.0
 13
0.0
 23
0.0
 33
0.0
 16
1.0
 26
0.0
 36
0.0
 17
0.0
 27
1.0
 37
0.0
 76
     0
330
D6
  0
MLINESTYLE
  5
18
102
{ACAD_REACTORS
330
17
102
}
330
17
100
AcDbMlineStyle
  2
STANDARD
 70
     0
  3

 62
   256
 51
90.0
 52
90.0
 71
     2
 49
0.5
 62
   256
  6
BYLAYER
 49
-0.5
 62
   256
  6
BYLAYER
  0
ACDBPLACEHOLDER
  5
F
102
{ACAD_REACTORS
330
E
102
}
330
E
  0
TABLESTYLE
  5
7F
102
{ACAD_REACTORS
330
7E
102
}
330
7E
100
AcDbTableStyle
  3
Standard
 70
     0
 71
     0
 40
1.5
 41
1.5
280
     0
281
     0
  7
Standard
140
4.5
170
     2
 62
     0
 63
     7
283
     0
274
    -2
284
     1
 64
     0
275
    -2
285
     1
 65
     0
276
    -2
286
     1
 66
     0
277
    -2
287
     1
 67
     0
278
    -2
288
     1
 68
     0
279
    -2
289
     1
 69
     0
  7
Standard
140
6.0
170
     5
 62
     0
 63
     7
283
     0
274
    -2
284
     1
 64
     0
275
    -2
285
     1
 65
     0
276
    -2
286
     1
 66
     0
277
    -2
287
     1
 67
     0
278
    -2
288
     1
 68
     0
279
    -2
289
     1
 69
     0
  7
Standard
140
4.5
170
     5
 62
     0
 63
     7
283
     0
274
    -2
284
     1
 64
     0
275
    -2
285
     1
 65
     0
276
    -2
286
     1
 66
     0
277
    -2
287
     1
 67
     0
278
    -2
288
     1
 68
     0
279
    -2
289
     1
 69
     0
  0
DICTIONARYVAR
  5
84
102
{ACAD_REACTORS
330
5E
102
}
330
5E
100
DictionaryVariables
280
     0
  1
STANDARD
  0
DICTIONARYVAR
  5
5F
102
{ACAD_REACTORS
330
5E
102
}
330
5E
100
DictionaryVariables
280
     0
  1
2
  0
DICTIONARYVAR
  5
63
102
{ACAD_REACTORS
330
5E
102
}
330
5E
100
DictionaryVariables
280
     0
  1
1
  0
DICTIONARYVAR
  5
3B7
102
{ACAD_REACTORS
330
5E
102
}
330
5E
100
DictionaryVariables
280
     0
  1

  0
DICTIONARY
  5
ED7
330
22
100
AcDbDictionary
280
     1
281
     1
  3
ACAD_XREC_ROUNDTRIP
360
ED8
  0
DICTIONARY
  5
ED9
330
D3
100
AcDbDictionary
280
     1
281
     1
  3
ACAD_XREC_ROUNDTRIP
360
EDA
  0
DICTIONARY
  5
EDB
330
D7
100
AcDbDictionary
280
     1
281
     1
  3
ACAD_XREC_ROUNDTRIP
360
EDC
  0
XRECORD
  5
ED8
102
{ACAD_REACTORS
330
ED7
102
}
330
ED7
100
AcDbXrecord
280
     1
102
SHADEPLOT
 70
     0
102
SHADEPLOTRESLEVEL
 70
     2
102
SHADEPLOTCUSTOMDPI
 70
   300
  0
XRECORD
  5
EDA
102
{ACAD_REACTORS
330
ED9
102
}
330
ED9
100
AcDbXrecord
280
     1
102
SHADEPLOT
 70
     0
102
SHADEPLOTRESLEVEL
 70
     2
102
SHADEPLOTCUSTOMDPI
 70
   300
  0
XRECORD
  5
EDC
102
{ACAD_REACTORS
330
EDB
102
}
330
EDB
100
AcDbXrecord
280
     1
102
SHADEPLOT
 70
     0
102
SHADEPLOTRESLEVEL
 70
     2
102
SHADEPLOTCUSTOMDPI
 70
   300
  0
ENDSEC
  0
EOF
